  0
SECTION
  2
HEADER
  9
$ACADVER
  1
AC1009
  9
$INSBASE
 10
0.0
 20
0.0
 30
0.0
  9
$EXTMIN
 10
2.9999999999999978
 20
6.9999999999999991
 30
0.0
  9
$EXTMAX
 10
120.35599706290201
 20
95.500000000000014
 30
0.0
  9
$LIMMIN
 10
0.0
 20
0.0
  9
$LIMMAX
 10
297.0
 20
210.0
  9
$ORTHOMODE
 70
     0
  9
$REGENMODE
 70
     1
  9
$FILLMODE
 70
     1
  9
$QTEXTMODE
 70
     0
  9
$MIRRTEXT
 70
     1
  9
$DRAGMODE
 70
     2
  9
$LTSCALE
 40
1.0
  9
$OSMODE
 70
    37
  9
$ATTMODE
 70
     1
  9
$TEXTSIZE
 40
0.2
  9
$TRACEWID
 40
0.05
  9
$TEXTSTYLE
  7
STANDARD
  9
$CLAYER
  8
0
  9
$CELTYPE
  6
CONTINUOUS
  9
$CECOLOR
 62
   256
  9
$DIMSCALE
 40
1.0
  9
$DIMASZ
 40
0.18
  9
$DIMEXO
 40
0.0625
  9
$DIMDLI
 40
0.38
  9
$DIMRND
 40
0.0
  9
$DIMDLE
 40
0.0
  9
$DIMEXE
 40
0.18
  9
$DIMTP
 40
0.0
  9
$DIMTM
 40
0.0
  9
$DIMTXT
 40
0.18
  9
$DIMCEN
 40
0.09
  9
$DIMTSZ
 40
0.0
  9
$DIMTOL
 70
     0
  9
$DIMLIM
 70
     0
  9
$DIMTIH
 70
     1
  9
$DIMTOH
 70
     1
  9
$DIMSE1
 70
     0
  9
$DIMSE2
 70
     0
  9
$DIMTAD
 70
     0
  9
$DIMZIN
 70
     0
  9
$DIMBLK
  1

  9
$DIMASO
 70
     1
  9
$DIMSHO
 70
     1
  9
$DIMPOST
  1

  9
$DIMAPOST
  1

  9
$DIMALT
 70
     0
  9
$DIMALTD
 70
     2
  9
$DIMALTF
 40
25.399999999999999
  9
$DIMLFAC
 40
1.0
  9
$DIMTOFL
 70
     0
  9
$DIMTVP
 40
0.0
  9
$DIMTIX
 70
     0
  9
$DIMSOXD
 70
     0
  9
$DIMSAH
 70
     0
  9
$DIMBLK1
  1

  9
$DIMBLK2
  1

  9
$DIMSTYLE
  2
STANDARD
  9
$DIMCLRD
 70
     0
  9
$DIMCLRE
 70
     0
  9
$DIMCLRT
 70
     0
  9
$DIMTFAC
 40
1.0
  9
$DIMGAP
 40
0.09
  9
$LUNITS
 70
     2
  9
$LUPREC
 70
     4
  9
$SKETCHINC
 40
0.1
  9
$FILLETRAD
 40
0.0
  9
$AUNITS
 70
     0
  9
$AUPREC
 70
     0
  9
$MENU
  1
.
  9
$ELEVATION
 40
0.0
  9
$PELEVATION
 40
0.0
  9
$THICKNESS
 40
0.0
  9
$LIMCHECK
 70
     0
  9
$BLIPMODE
 70
     0
  9
$CHAMFERA
 40
0.0
  9
$CHAMFERB
 40
0.0
  9
$SKPOLY
 70
     0
  9
$TDCREATE
 40
2452073.7218650011
  9
$TDUPDATE
 40
2457963.44398419
  9
$TDINDWG
 40
0.0231631944
  9
$TDUSRTIMER
 40
0.0231630903
  9
$USRTIMER
 70
     1
  9
$ANGBASE
 50
0.0
  9
$ANGDIR
 70
     0
  9
$PDMODE
 70
     0
  9
$PDSIZE
 40
0.0
  9
$PLINEWID
 40
0.0
  9
$COORDS
 70
     1
  9
$SPLFRAME
 70
     0
  9
$SPLINETYPE
 70
     6
  9
$SPLINESEGS
 70
     8
  9
$ATTDIA
 70
     0
  9
$ATTREQ
 70
     1
  9
$HANDLING
 70
     1
  9
$HANDSEED
  5
F81E
  9
$SURFTAB1
 70
     6
  9
$SURFTAB2
 70
     6
  9
$SURFTYPE
 70
     6
  9
$SURFU
 70
     6
  9
$SURFV
 70
     6
  9
$UCSNAME
  2

  9
$UCSORG
 10
0.0
 20
0.0
 30
0.0
  9
$UCSXDIR
 10
1.0
 20
0.0
 30
0.0
  9
$UCSYDIR
 10
0.0
 20
1.0
 30
0.0
  9
$PUCSNAME
  2

  9
$PUCSORG
 10
0.0
 20
0.0
 30
0.0
  9
$PUCSXDIR
 10
1.0
 20
0.0
 30
0.0
  9
$PUCSYDIR
 10
0.0
 20
1.0
 30
0.0
  9
$USERI1
 70
     0
  9
$USERI2
 70
     0
  9
$USERI3
 70
     0
  9
$USERI4
 70
     0
  9
$USERI5
 70
     0
  9
$USERR1
 40
0.0
  9
$USERR2
 40
0.0
  9
$USERR3
 40
0.0
  9
$USERR4
 40
0.0
  9
$USERR5
 40
0.0
  9
$WORLDVIEW
 70
     1
  9
$SHADEDGE
 70
     3
  9
$SHADEDIF
 70
    70
  9
$TILEMODE
 70
     1
  9
$MAXACTVP
 70
    48
  9
$PLIMCHECK
 70
     0
  9
$PEXTMIN
 10
1.0000000000000000E+020
 20
1.0000000000000000E+020
 30
1.0000000000000000E+020
  9
$PEXTMAX
 10
-1.0000000000000000E+020
 20
-1.0000000000000000E+020
 30
-1.0000000000000000E+020
  9
$PLIMMIN
 10
0.0
 20
0.0
  9
$PLIMMAX
 10
12.0
 20
9.0
  9
$UNITMODE
 70
     0
  9
$VISRETAIN
 70
     1
  9
$PLINEGEN
 70
     0
  9
$PSLTSCALE
 70
     1
  0
ENDSEC
  0
SECTION
  2
TABLES
  0
TABLE
  2
VPORT
 70
     1
  0
VPORT
  2
*ACTIVE
 70
     0
 10
0.0
 20
0.0
 11
1.0
 21
1.0
 12
44.760166716663903
 22
55.048635170466959
 13
0.0
 23
0.0
 14
1.0
 24
1.0
 15
0.0
 25
0.0
 16
0.0
 26
0.0
 36
1.0
 17
0.0
 27
0.0
 37
0.0
 40
167.0083614315667
 41
1.4736
 42
50.0
 43
0.0
 44
0.0
 50
0.0
 51
0.0
 71
     0
 72
   100
 73
     1
 74
     1
 75
     0
 76
     0
 77
     0
 78
     0
  0
ENDTAB
  0
TABLE
  2
LTYPE
 70
     6
  0
LTYPE
  2
CONTINUOUS
 70
     0
  3
実線
 72
    65
 73
     0
 40
0.0
  0
LTYPE
  2
DASHED
 70
     0
  3
破線
 72
    65
 73
     2
 40
3.7999999999999989
 49
3.0
 49
-0.8
  0
LTYPE
  2
DOT
 70
     0
  3
点線
 72
    65
 73
     2
 40
2.0
 49
1.0
 49
-1.0
  0
LTYPE
  2
DASHDOT
 70
     0
  3
一点鎖線
 72
    65
 73
     4
 40
25.600000000000001
 49
20.0
 49
-2.0
 49
1.6000000000000001
 49
-2.0
  0
LTYPE
  2
DIVIDE
 70
     0
  3
二点鎖線
 72
    65
 73
     6
 40
31.199999999999999
 49
20.0
 49
-2.399999999999999
 49
2.0
 49
-2.399999999999999
 49
2.0
 49
-2.399999999999999
  0
ENDTAB
  0
TABLE
  2
LAYER
 70
     1
  0
LAYER
  2
0
 70
     0
 62
     7
  6
CONTINUOUS
  0
ENDTAB
  0
TABLE
  2
STYLE
 70
     6
  0
STYLE
  2
STANDARD
 70
     0
 40
0.0
 41
1.0
 50
0.0
 71
     0
 42
0.2
  3
monotxt
  4
extfont
  0
STYLE
  2
ANNOTATIVE
 70
     0
 40
0.0
 41
1.0
 50
0.0
 71
     0
 42
0.2
  3
txt
  4

  0
STYLE
  2
EXCADSTD
 70
     0
 40
0.0
 41
1.0
 50
0.0
 71
     0
 42
0.2
  3
monotxt
  4
extfont
  0
STYLE
  2
EXCADVERT
 70
     4
 40
0.0
 41
1.0
 50
0.0
 71
     0
 42
0.286885
  3
monotxt
  4
extfont
  0
STYLE
  2
EXCADSTD2
 70
     0
 40
0.0
 41
1.0
 50
0.0
 71
     0
 42
0.2
  3
monotxt
  4

  0
STYLE
  2
EXCADVERT2
 70
     4
 40
0.0
 41
1.0
 50
0.0
 71
     0
 42
0.286885
  3
monotxt
  4

  0
ENDTAB
  0
TABLE
  2
VIEW
 70
     0
  0
ENDTAB
  0
TABLE
  2
UCS
 70
     0
  0
ENDTAB
  0
TABLE
  2
APPID
 70
     4
  0
APPID
  2
ACAD
 70
     0
  0
APPID
  2
ACADANNOTATIVE
 70
     0
  0
APPID
  2
ACAD_MLEADERVER
 70
     0
  0
APPID
  2
ACAD_EXEMPT_FROM_CAD_STANDARDS
 70
     0
  0
ENDTAB
  0
TABLE
  2
DIMSTYLE
 70
     2
  0
DIMSTYLE
  2
STANDARD
 70
     0
  3

  4

  5

  6

  7

 40
1.0
 41
0.18
 42
0.0625
 43
0.38
 44
0.18
 45
0.0
 46
0.0
 47
0.0
 48
0.0
140
0.18
141
0.09
142
0.0
143
25.399999999999999
144
1.0
145
0.0
146
1.0
147
0.09
 71
     0
 72
     0
 73
     1
 74
     1
 75
     0
 76
     0
 77
     0
 78
     0
170
     0
171
     2
172
     0
173
     0
174
     0
175
     0
176
     0
177
     0
178
     0
  0
DIMSTYLE
  2
ANNOTATIVE
 70
     0
  3

  4

  5

  6

  7

 40
1.0
 41
0.18
 42
0.0625
 43
0.38
 44
0.18
 45
0.0
 46
0.0
 47
0.0
 48
0.0
140
0.18
141
0.09
142
0.0
143
25.399999999999999
144
1.0
145
0.0
146
1.0
147
0.09
 71
     0
 72
     0
 73
     1
 74
     1
 75
     0
 76
     0
 77
     0
 78
     0
170
     0
171
     2
172
     0
173
     0
174
     0
175
     0
176
     0
177
     0
178
     0
  0
ENDTAB
  0
ENDSEC
  0
SECTION
  2
BLOCKS
  0
BLOCK
  8
0
  2
$MODEL_SPACE
 70
     0
 10
0.0
 20
0.0
 30
0.0
  3
$MODEL_SPACE
  1

  0
ENDBLK
  5
F43B
  8
0
  0
BLOCK
 67
     1
  8
0
  2
$PAPER_SPACE
 70
     0
 10
0.0
 20
0.0
 30
0.0
  3
$PAPER_SPACE
  1

  0
ENDBLK
  5
F437
 67
     1
  8
0
  0
BLOCK
  8
0
  2
_EX_NORM
 70
     0
 10
0.0
 20
0.0
 30
0.0
  3
_EX_NORM
  1

  0
LINE
  5
31
  8
0
  6
BYBLOCK
 62
     0
 10
0.0
 20
0.0
 30
0.0
 11
-1.0
 21
0.0
 31
0.0
  0
LINE
  5
32
  8
0
  6
BYBLOCK
 62
     0
 10
0.0
 20
0.0
 30
0.0
 11
-0.9607689999999999
 21
0.27735
 31
0.0
  0
LINE
  5
33
  8
0
  6
BYBLOCK
 62
     0
 10
0.0
 20
0.0
 30
0.0
 11
-0.9607689999999999
 21
-0.27735
 31
0.0
  0
ENDBLK
  5
34
  8
0
  0
BLOCK
  8
0
  2
_EX_BNORM
 70
     0
 10
0.0
 20
0.0
 30
0.0
  3
_EX_BNORM
  1

  0
LINE
  5
37
  8
0
  6
BYBLOCK
 62
     0
 10
0.0
 20
0.0
 30
0.0
 11
-1.0
 21
0.0
 31
0.0
  0
LINE
  5
38
  8
0
  6
BYBLOCK
 62
     0
 10
0.0
 20
0.0
 30
0.0
 11
-0.9607689999999999
 21
0.27735
 31
0.0
  0
LINE
  5
39
  8
0
  6
BYBLOCK
 62
     0
 10
0.0
 20
0.0
 30
0.0
 11
-0.9607689999999999
 21
-0.27735
 31
0.0
  0
LINE
  5
3A
  8
0
  6
BYBLOCK
 62
     0
 10
0.0
 20
0.0
 30
0.0
 11
-0.9607689999999999
 21
0.138768
 31
0.0
  0
LINE
  5
3B
  8
0
  6
BYBLOCK
 62
     0
 10
0.0
 20
0.0
 30
0.0
 11
-0.9607689999999999
 21
-0.138768
 31
0.0
  0
LINE
  5
3C
  8
0
  6
BYBLOCK
 62
     0
 10
-0.9607689999999999
 20
0.27735
 30
0.0
 11
-0.9607689999999999
 21
-0.27735
 31
0.0
  0
ENDBLK
  5
3D
  8
0
  0
BLOCK
  8
0
  2
_EX_BCIR
 70
     0
 10
0.0
 20
0.0
 30
0.0
  3
_EX_BCIR
  1

  0
LINE
  5
40
  8
0
  6
BYBLOCK
 62
     0
 10
0.0
 20
0.0
 30
0.0
 11
-1.0
 21
0.0
 31
0.0
  0
CIRCLE
  5
41
  8
0
  6
BYBLOCK
 62
     0
 10
0.0
 20
0.0
 30
0.0
 40
0.5
  0
CIRCLE
  5
42
  8
0
  6
BYBLOCK
 62
     0
 10
0.0
 20
0.0
 30
0.0
 40
0.25
  0
ENDBLK
  5
43
  8
0
  0
BLOCK
  8
0
  2
_EX_RCIVIL
 70
     0
 10
0.0
 20
0.0
 30
0.0
  3
_EX_RCIVIL
  1

  0
LINE
  5
46
  8
0
  6
BYBLOCK
 62
     0
 10
0.0
 20
0.0
 30
0.0
 11
-1.0
 21
0.0
 31
0.0
  0
LINE
  5
47
  8
0
  6
BYBLOCK
 62
     0
 10
-1.0
 20
-0.25
 30
0.0
 11
0.0
 21
-0.25
 31
0.0
  0
LINE
  5
48
  8
0
  6
BYBLOCK
 62
     0
 10
-1.0
 20
-0.125
 30
0.0
 11
0.0
 21
-0.125
 31
0.0
  0
ENDBLK
  5
49
  8
0
  0
BLOCK
  8
0
  2
_EX_SLANT
 70
     0
 10
0.0
 20
0.0
 30
0.0
  3
_EX_SLANT
  1

  0
LINE
  5
4C
  8
0
  6
BYBLOCK
 62
     0
 10
0.0
 20
0.0
 30
0.0
 11
-1.0
 21
0.0
 31
0.0
  0
LINE
  5
4D
  8
0
  6
BYBLOCK
 62
     0
 10
0.7071069999999999
 20
0.7071069999999999
 30
0.0
 11
-0.7071069999999999
 21
-0.7071069999999999
 31
0.0
  0
ENDBLK
  5
4E
  8
0
  0
BLOCK
  8
0
  2
_EX_NONE
 70
     0
 10
0.0
 20
0.0
 30
0.0
  3
_EX_NONE
  1

  0
LINE
  5
51
  8
0
  6
BYBLOCK
 62
     0
 10
0.0
 20
0.0
 30
0.0
 11
-1.0
 21
0.0
 31
0.0
  0
ENDBLK
  5
52
  8
0
  0
BLOCK
  8
0
  2
_EX_WCIR
 70
     0
 10
0.0
 20
0.0
 30
0.0
  3
_EX_WCIR
  1

  0
LINE
  5
55
  8
0
  6
BYBLOCK
 62
     0
 10
0.0
 20
0.0
 30
0.0
 11
-1.0
 21
0.0
 31
0.0
  0
ENDBLK
  5
56
  8
0
  0
BLOCK
  8
0
  2
_EX_CIVIL
 70
     0
 10
0.0
 20
0.0
 30
0.0
  3
_EX_CIVIL
  1

  0
LINE
  5
59
  8
0
  6
BYBLOCK
 62
     0
 10
0.0
 20
0.0
 30
0.0
 11
-1.0
 21
0.0
 31
0.0
  0
LINE
  5
5A
  8
0
  6
BYBLOCK
 62
     0
 10
-1.0
 20
0.25
 30
0.0
 11
0.0
 21
0.25
 31
0.0
  0
LINE
  5
5B
  8
0
  6
BYBLOCK
 62
     0
 10
-1.0
 20
0.125
 30
0.0
 11
0.0
 21
0.125
 31
0.0
  0
ENDBLK
  5
5C
  8
0
  0
BLOCK
  8
0
  2
*U10
 70
     1
 10
0.0
 20
0.0
 30
0.0
  3
*U10
  1

  0
SOLID
  5
F00D
  8
0
  6
CONTINUOUS
 62
     7
 10
29.950799160623831
 20
3.640432260628073
 30
0.0
 11
29.940291619393829
 21
3.6194171781680482
 31
0.0
 12
30.18368761542671
 22
3.6194171781680482
 32
0.0
 13
30.18368761542671
 23
3.6194171781680482
 33
0.0
  0
SOLID
  5
F00E
  8
0
  6
CONTINUOUS
 62
     7
 10
-29.950799160623831
 20
3.640432260628073
 30
0.0
 11
-30.24707737235531
 21
3.640432260628073
 31
0.0
 12
-30.18368761542671
 22
3.6194171781680482
 32
0.0
 13
-30.18368761542671
 23
3.6194171781680482
 33
0.0
210
0.0
220
0.0
230
-1.0
  0
SOLID
  5
F00F
  8
0
  6
CONTINUOUS
 62
     7
 10
-29.929611823389539
 20
3.598057586159511
 30
0.0
 11
-30.162328023418169
 21
3.598057586159511
 31
0.0
 12
-30.141312940958152
 22
3.5770425036994871
 32
0.0
 13
-30.141312940958152
 23
3.5770425036994871
 33
0.0
210
0.0
220
0.0
230
-1.0
  0
SOLID
  5
F010
  8
0
  6
CONTINUOUS
 62
     7
 10
29.940291619393829
 20
3.6194171781680482
 30
0.0
 11
29.929611823389539
 21
3.598057586159511
 31
0.0
 12
30.162328023418169
 22
3.598057586159511
 32
0.0
 13
30.162328023418169
 23
3.598057586159511
 33
0.0
  0
SOLID
  5
F011
  8
0
  6
CONTINUOUS
 62
     7
 10
-29.940291619393829
 20
3.6194171781680482
 30
0.0
 11
-30.18368761542671
 21
3.6194171781680482
 31
0.0
 12
-30.162328023418169
 22
3.598057586159511
 32
0.0
 13
-30.162328023418169
 23
3.598057586159511
 33
0.0
210
0.0
220
0.0
230
-1.0
  0
LINE
  5
F012
  8
0
  6
CONTINUOUS
 62
     7
 10
29.950799160623831
 20
3.640432260628073
 30
0.0
 11
29.940291619393829
 21
3.6194171781680482
 31
0.0
  0
LINE
  5
F013
  8
0
  6
CONTINUOUS
 62
     7
 10
30.24707737235531
 20
3.640432260628073
 30
0.0
 11
30.18368761542671
 21
3.6194171781680482
 31
0.0
  0
LINE
  5
F014
  8
0
  6
CONTINUOUS
 62
     7
 10
30.162328023418169
 20
3.598057586159511
 30
0.0
 11
30.141312940958152
 21
3.5770425036994871
 31
0.0
  0
LINE
  5
F015
  8
0
  6
CONTINUOUS
 62
     7
 10
30.141312940958152
 20
3.5770425036994871
 30
0.0
 11
29.929611823389539
 21
3.598057586159511
 31
0.0
  0
LINE
  5
F016
  8
0
  6
CONTINUOUS
 62
     7
 10
29.940291619393829
 20
3.6194171781680482
 30
0.0
 11
29.929611823389539
 21
3.598057586159511
 31
0.0
  0
LINE
  5
F017
  8
0
  6
CONTINUOUS
 62
     7
 10
30.18368761542671
 20
3.6194171781680482
 30
0.0
 11
30.162328023418169
 21
3.598057586159511
 31
0.0
  0
ENDBLK
  5
F019
  8
0
  0
BLOCK
  8
0
  2
*U11
 70
     1
 10
0.0
 20
0.0
 30
0.0
  3
*U11
  1

  0
SOLID
  5
F01B
  8
0
  6
CONTINUOUS
 62
     7
 10
30.289452046823889
 20
3.873320715430963
 30
0.0
 11
30.226062289895289
 21
3.8523056329709391
 31
0.0
 12
30.54352783886106
 22
3.8523056329709391
 32
0.0
 13
30.54352783886106
 23
3.8523056329709391
 33
0.0
  0
SOLID
  5
F01C
  8
0
  6
CONTINUOUS
 62
     7
 10
-30.289452046823889
 20
3.873320715430963
 30
0.0
 11
-30.4799658271582
 21
3.873320715430963
 31
0.0
 12
-30.54352783886106
 22
3.8523056329709391
 32
0.0
 13
-30.54352783886106
 23
3.8523056329709391
 33
0.0
210
0.0
220
0.0
230
-1.0
  0
SOLID
  5
F01D
  8
0
  6
CONTINUOUS
 62
     7
 10
30.226062289895289
 20
3.8523056329709391
 30
0.0
 11
30.162500278192429
 21
3.830946040962401
 31
0.0
 12
30.60691759578966
 22
3.830946040962401
 32
0.0
 13
30.60691759578966
 23
3.830946040962401
 33
0.0
  0
SOLID
  5
F01E
  8
0
  6
CONTINUOUS
 62
     7
 10
-30.226062289895289
 20
3.8523056329709391
 30
0.0
 11
-30.54352783886106
 21
3.8523056329709391
 31
0.0
 12
-30.60691759578966
 22
3.830946040962401
 32
0.0
 13
-30.60691759578966
 23
3.830946040962401
 33
0.0
210
0.0
220
0.0
230
-1.0
  0
SOLID
  5
F01F
  8
0
  6
CONTINUOUS
 62
     7
 10
30.162500278192429
 20
3.830946040962401
 30
0.0
 11
30.098938266489569
 21
3.8099309585023762
 31
0.0
 12
30.627932678249682
 22
3.8099309585023762
 32
0.0
 13
30.627932678249682
 23
3.8099309585023762
 33
0.0
  0
SOLID
  5
F020
  8
0
  6
CONTINUOUS
 62
     7
 10
-30.162500278192429
 20
3.830946040962401
 30
0.0
 11
-30.60691759578966
 21
3.830946040962401
 31
0.0
 12
-30.627932678249682
 22
3.8099309585023762
 32
0.0
 13
-30.627932678249682
 23
3.8099309585023762
 33
0.0
210
0.0
220
0.0
230
-1.0
  0
SOLID
  5
F021
  8
0
  6
CONTINUOUS
 62
     7
 10
30.098938266489569
 20
3.8099309585023762
 30
0.0
 11
30.077578674481021
 21
3.788571366493811
 31
0.0
 12
30.649292270258229
 22
3.788571366493811
 32
0.0
 13
30.649292270258229
 23
3.788571366493811
 33
0.0
  0
SOLID
  5
F022
  8
0
  6
CONTINUOUS
 62
     7
 10
-30.098938266489569
 20
3.8099309585023762
 30
0.0
 11
-30.627932678249682
 21
3.8099309585023762
 31
0.0
 12
-30.649292270258229
 22
3.788571366493811
 32
0.0
 13
-30.649292270258229
 23
3.788571366493811
 33
0.0
210
0.0
220
0.0
230
-1.0
  0
SOLID
  5
F023
  8
0
  6
CONTINUOUS
 62
     7
 10
30.077578674481021
 20
3.788571366493811
 30
0.0
 11
30.056563592021
 21
3.7675562840337871
 31
0.0
 12
30.681073276109661
 22
3.7675562840337871
 32
0.0
 13
30.681073276109661
 23
3.7675562840337871
 33
0.0
  0
SOLID
  5
F024
  8
0
  6
CONTINUOUS
 62
     7
 10
-30.077578674481021
 20
3.788571366493811
 30
0.0
 11
-30.649292270258229
 21
3.788571366493811
 31
0.0
 12
-30.681073276109661
 22
3.7675562840337871
 32
0.0
 13
-30.681073276109661
 23
3.7675562840337871
 33
0.0
210
0.0
220
0.0
230
-1.0
  0
SOLID
  5
F025
  8
0
  6
CONTINUOUS
 62
     7
 10
30.056563592021
 20
3.7675562840337871
 30
0.0
 11
30.056563592021
 21
3.7465412015737609
 31
0.0
 12
30.712854281961089
 22
3.7465412015737609
 32
0.0
 13
30.712854281961089
 23
3.7465412015737609
 33
0.0
  0
SOLID
  5
F026
  8
0
  6
CONTINUOUS
 62
     7
 10
-30.056563592021
 20
3.7675562840337871
 30
0.0
 11
-30.681073276109661
 21
3.7675562840337871
 31
0.0
 12
-30.712854281961089
 22
3.7465412015737609
 32
0.0
 13
-30.712854281961089
 23
3.7465412015737609
 33
0.0
210
0.0
220
0.0
230
-1.0
  0
SOLID
  5
F027
  8
0
  6
CONTINUOUS
 62
     7
 10
30.056563592021
 20
3.7465412015737609
 30
0.0
 11
30.02461103161798
 21
3.725181609565225
 31
0.0
 12
30.734041619195381
 22
3.725181609565225
 32
0.0
 13
30.734041619195381
 23
3.725181609565225
 33
0.0
  0
SOLID
  5
F028
  8
0
  6
CONTINUOUS
 62
     7
 10
-30.056563592021
 20
3.7465412015737609
 30
0.0
 11
-30.712854281961089
 21
3.7465412015737609
 31
0.0
 12
-30.734041619195381
 22
3.725181609565225
 32
0.0
 13
-30.734041619195381
 23
3.725181609565225
 33
0.0
210
0.0
220
0.0
230
-1.0
  0
SOLID
  5
F029
  8
0
  6
CONTINUOUS
 62
     7
 10
30.02461103161798
 20
3.725181609565225
 30
0.0
 11
29.993173835092399
 21
3.7041665271051998
 31
0.0
 12
30.75497127449092
 22
3.7041665271051998
 32
0.0
 13
30.75497127449092
 23
3.7041665271051998
 33
0.0
  0
SOLID
  5
F02A
  8
0
  6
CONTINUOUS
 62
     7
 10
-30.02461103161798
 20
3.725181609565225
 30
0.0
 11
-30.734041619195381
 21
3.725181609565225
 31
0.0
 12
-30.75497127449092
 22
3.7041665271051998
 32
0.0
 13
-30.75497127449092
 23
3.7041665271051998
 33
0.0
210
0.0
220
0.0
230
-1.0
  0
SOLID
  5
F02B
  8
0
  6
CONTINUOUS
 62
     7
 10
29.993173835092399
 20
3.7041665271051998
 30
0.0
 11
29.978972592838058
 21
3.6828069350966341
 31
0.0
 12
30.77624403888969
 22
3.6828069350966341
 32
0.0
 13
30.77624403888969
 23
3.6828069350966341
 33
0.0
  0
SOLID
  5
F02C
  8
0
  6
CONTINUOUS
 62
     7
 10
-29.993173835092399
 20
3.7041665271051998
 30
0.0
 11
-30.75497127449092
 21
3.7041665271051998
 31
0.0
 12
-30.77624403888969
 22
3.6828069350966341
 32
0.0
 13
-30.77624403888969
 23
3.6828069350966341
 33
0.0
210
0.0
220
0.0
230
-1.0
  0
SOLID
  5
F02D
  8
0
  6
CONTINUOUS
 62
     7
 10
29.978972592838058
 20
3.6828069350966341
 30
0.0
 11
29.950799160623831
 21
3.640432260628073
 31
0.0
 12
30.818618713358269
 22
3.640432260628073
 32
0.0
 13
30.818618713358269
 23
3.640432260628073
 33
0.0
  0
SOLID
  5
F02E
  8
0
  6
CONTINUOUS
 62
     7
 10
-29.978972592838058
 20
3.6828069350966341
 30
0.0
 11
-30.77624403888969
 21
3.6828069350966341
 31
0.0
 12
-30.818618713358269
 22
3.640432260628073
 32
0.0
 13
-30.818618713358269
 23
3.640432260628073
 33
0.0
210
0.0
220
0.0
230
-1.0
  0
SOLID
  5
F02F
  8
0
  6
CONTINUOUS
 62
     7
 10
30.331826721292469
 20
3.640432260628073
 30
0.0
 11
30.395388732995318
 21
3.6194171781680482
 31
0.0
 12
30.825642776245719
 22
3.6194171781680482
 32
0.0
 13
30.825642776245719
 23
3.6194171781680482
 33
0.0
  0
SOLID
  5
F030
  8
0
  6
CONTINUOUS
 62
     7
 10
-30.331826721292469
 20
3.640432260628073
 30
0.0
 11
-30.818618713358269
 21
3.640432260628073
 31
0.0
 12
-30.825642776245719
 22
3.6194171781680482
 32
0.0
 13
-30.825642776245719
 23
3.6194171781680482
 33
0.0
210
0.0
220
0.0
230
-1.0
  0
SOLID
  5
F031
  8
0
  6
CONTINUOUS
 62
     7
 10
30.395388732995318
 20
3.6194171781680482
 30
0.0
 11
30.437591152689631
 21
3.598057586159511
 31
0.0
 12
30.83278198770509
 22
3.598057586159511
 32
0.0
 13
30.83278198770509
 23
3.598057586159511
 33
0.0
  0
SOLID
  5
F032
  8
0
  6
CONTINUOUS
 62
     7
 10
-30.395388732995318
 20
3.6194171781680482
 30
0.0
 11
-30.825642776245719
 21
3.6194171781680482
 31
0.0
 12
-30.83278198770509
 22
3.598057586159511
 32
0.0
 13
-30.83278198770509
 23
3.598057586159511
 33
0.0
210
0.0
220
0.0
230
-1.0
  0
SOLID
  5
F033
  8
0
  6
CONTINUOUS
 62
     7
 10
30.437591152689631
 20
3.598057586159511
 30
0.0
 11
30.469372158541059
 21
3.5770425036994871
 31
0.0
 12
30.83980605059255
 22
3.5770425036994871
 32
0.0
 13
30.83980605059255
 23
3.5770425036994871
 33
0.0
  0
SOLID
  5
F034
  8
0
  6
CONTINUOUS
 62
     7
 10
-30.437591152689631
 20
3.598057586159511
 30
0.0
 11
-30.83278198770509
 21
3.598057586159511
 31
0.0
 12
-30.83980605059255
 22
3.5770425036994871
 32
0.0
 13
-30.83980605059255
 23
3.5770425036994871
 33
0.0
210
0.0
220
0.0
230
-1.0
  0
SOLID
  5
F035
  8
0
  6
CONTINUOUS
 62
     7
 10
30.469372158541059
 20
3.5770425036994871
 30
0.0
 11
30.501153164392491
 21
3.5560274212394631
 31
0.0
 12
30.850313591822559
 22
3.5560274212394631
 32
0.0
 13
30.850313591822559
 23
3.5560274212394631
 33
0.0
  0
SOLID
  5
F036
  8
0
  6
CONTINUOUS
 62
     7
 10
-30.469372158541059
 20
3.5770425036994871
 30
0.0
 11
-30.83980605059255
 21
3.5770425036994871
 31
0.0
 12
-30.850313591822559
 22
3.5560274212394631
 32
0.0
 13
-30.850313591822559
 23
3.5560274212394631
 33
0.0
210
0.0
220
0.0
230
-1.0
  0
SOLID
  5
F037
  8
0
  6
CONTINUOUS
 62
     7
 10
30.501153164392491
 20
3.5560274212394631
 30
0.0
 11
30.51183296039677
 21
3.5346678292308962
 31
0.0
 12
30.860993387826841
 22
3.5346678292308962
 32
0.0
 13
30.860993387826841
 23
3.5346678292308962
 33
0.0
  0
SOLID
  5
F038
  8
0
  6
CONTINUOUS
 62
     7
 10
-30.501153164392491
 20
3.5560274212394631
 30
0.0
 11
-30.850313591822559
 21
3.5560274212394631
 31
0.0
 12
-30.860993387826841
 22
3.5346678292308962
 32
0.0
 13
-30.860993387826841
 23
3.5346678292308962
 33
0.0
210
0.0
220
0.0
230
-1.0
  0
SOLID
  5
F039
  8
0
  6
CONTINUOUS
 62
     7
 10
30.51183296039677
 20
3.5346678292308962
 30
0.0
 11
30.522340501626768
 21
3.5136527467708718
 31
0.0
 12
30.868017450714291
 22
3.5136527467708718
 32
0.0
 13
30.868017450714291
 23
3.5136527467708718
 33
0.0
  0
SOLID
  5
F03A
  8
0
  6
CONTINUOUS
 62
     7
 10
-30.51183296039677
 20
3.5346678292308962
 30
0.0
 11
-30.860993387826841
 21
3.5346678292308962
 31
0.0
 12
-30.868017450714291
 22
3.5136527467708718
 32
0.0
 13
-30.868017450714291
 23
3.5136527467708718
 33
0.0
210
0.0
220
0.0
230
-1.0
  0
SOLID
  5
F03B
  8
0
  6
CONTINUOUS
 62
     7
 10
30.522340501626768
 20
3.5136527467708718
 30
0.0
 11
30.564715176095351
 21
3.4712780723023111
 31
0.0
 12
30.882180725061129
 22
3.4712780723023111
 32
0.0
 13
30.882180725061129
 23
3.4712780723023111
 33
0.0
  0
SOLID
  5
F03C
  8
0
  6
CONTINUOUS
 62
     7
 10
-30.522340501626768
 20
3.5136527467708718
 30
0.0
 11
-30.868017450714291
 21
3.5136527467708718
 31
0.0
 12
-30.882180725061129
 22
3.4712780723023111
 32
0.0
 13
-30.882180725061129
 23
3.4712780723023111
 33
0.0
210
0.0
220
0.0
230
-1.0
  0
SOLID
  5
F03D
  8
0
  6
CONTINUOUS
 62
     7
 10
30.564715176095351
 20
3.4712780723023111
 30
0.0
 11
30.585730258555369
 21
3.4289033978337198
 31
0.0
 12
30.896267441168249
 22
3.4289033978337198
 32
0.0
 13
30.896267441168249
 23
3.4289033978337198
 33
0.0
  0
SOLID
  5
F03E
  8
0
  6
CONTINUOUS
 62
     7
 10
-30.564715176095351
 20
3.4712780723023111
 30
0.0
 11
-30.882180725061129
 21
3.4712780723023111
 31
0.0
 12
-30.896267441168249
 22
3.4289033978337198
 32
0.0
 13
-30.896267441168249
 23
3.4289033978337198
 33
0.0
210
0.0
220
0.0
230
-1.0
  0
SOLID
  5
F03F
  8
0
  6
CONTINUOUS
 62
     7
 10
30.585730258555369
 20
3.4289033978337198
 30
0.0
 11
30.585730258555369
 21
3.407543805825183
 31
0.0
 12
30.90336806229541
 22
3.407543805825183
 32
0.0
 13
30.90336806229541
 23
3.407543805825183
 33
0.0
  0
SOLID
  5
F040
  8
0
  6
CONTINUOUS
 62
     7
 10
-30.585730258555369
 20
3.4289033978337198
 30
0.0
 11
-30.896267441168249
 21
3.4289033978337198
 31
0.0
 12
-30.90336806229541
 22
3.407543805825183
 32
0.0
 13
-30.90336806229541
 23
3.407543805825183
 33
0.0
210
0.0
220
0.0
230
-1.0
  0
SOLID
  5
F041
  8
0
  6
CONTINUOUS
 62
     7
 10
30.585730258555369
 20
3.407543805825183
 30
0.0
 11
30.585730258555369
 21
3.3655136409051352
 31
0.0
 12
30.91741618807032
 22
3.3655136409051352
 32
0.0
 13
30.91741618807032
 23
3.3655136409051352
 33
0.0
  0
SOLID
  5
F042
  8
0
  6
CONTINUOUS
 62
     7
 10
-30.585730258555369
 20
3.407543805825183
 30
0.0
 11
-30.90336806229541
 21
3.407543805825183
 31
0.0
 12
-30.91741618807032
 22
3.3655136409051352
 32
0.0
 13
-30.91741618807032
 23
3.3655136409051352
 33
0.0
210
0.0
220
0.0
230
-1.0
  0
SOLID
  5
F043
  8
0
  6
CONTINUOUS
 62
     7
 10
30.585730258555369
 20
3.3655136409051352
 30
0.0
 11
30.592830879682541
 21
3.344154048896598
 31
0.0
 12
30.924555399529702
 22
3.344154048896598
 32
0.0
 13
30.924555399529702
 23
3.344154048896598
 33
0.0
  0
SOLID
  5
F044
  8
0
  6
CONTINUOUS
 62
     7
 10
-30.585730258555369
 20
3.3655136409051352
 30
0.0
 11
-30.91741618807032
 21
3.3655136409051352
 31
0.0
 12
-30.924555399529702
 22
3.344154048896598
 32
0.0
 13
-30.924555399529702
 23
3.344154048896598
 33
0.0
210
0.0
220
0.0
230
-1.0
  0
SOLID
  5
F045
  8
0
  6
CONTINUOUS
 62
     7
 10
30.592830879682541
 20
3.344154048896598
 30
0.0
 11
30.60691759578966
 21
3.301779374428008
 31
0.0
 12
30.924555399529702
 22
3.301779374428008
 32
0.0
 13
30.924555399529702
 23
3.301779374428008
 33
0.0
  0
SOLID
  5
F046
  8
0
  6
CONTINUOUS
 62
     7
 10
-30.592830879682541
 20
3.344154048896598
 30
0.0
 11
-30.924555399529702
 21
3.344154048896598
 31
0.0
 12
-30.924555399529702
 22
3.301779374428008
 32
0.0
 13
-30.924555399529702
 23
3.301779374428008
 33
0.0
210
0.0
220
0.0
230
-1.0
  0
SOLID
  5
F047
  8
0
  6
CONTINUOUS
 62
     7
 10
30.60691759578966
 20
3.301779374428008
 30
0.0
 11
30.60691759578966
 21
3.2173745350393959
 31
0.0
 12
30.924555399529702
 22
3.2173745350393959
 32
0.0
 13
30.924555399529702
 23
3.2173745350393959
 33
0.0
  0
SOLID
  5
F048
  8
0
  6
CONTINUOUS
 62
     7
 10
-30.60691759578966
 20
3.301779374428008
 30
0.0
 11
-30.924555399529702
 21
3.301779374428008
 31
0.0
 12
-30.924555399529702
 22
3.2173745350393959
 32
0.0
 13
-30.924555399529702
 23
3.2173745350393959
 33
0.0
210
0.0
220
0.0
230
-1.0
  0
SOLID
  5
F049
  8
0
  6
CONTINUOUS
 62
     7
 10
30.60691759578966
 20
3.2173745350393959
 30
0.0
 11
30.628104933023948
 21
3.1326251861022438
 31
0.0
 12
30.924555399529702
 22
3.1326251861022438
 32
0.0
 13
30.924555399529702
 23
3.1326251861022438
 33
0.0
  0
SOLID
  5
F04A
  8
0
  6
CONTINUOUS
 62
     7
 10
-30.60691759578966
 20
3.2173745350393959
 30
0.0
 11
-30.924555399529702
 21
3.2173745350393959
 31
0.0
 12
-30.924555399529702
 22
3.1326251861022438
 32
0.0
 13
-30.924555399529702
 23
3.1326251861022438
 33
0.0
210
0.0
220
0.0
230
-1.0
  0
SOLID
  5
F04B
  8
0
  6
CONTINUOUS
 62
     7
 10
30.628104933023948
 20
3.1326251861022438
 30
0.0
 11
30.628104933023948
 21
3.0902505116336831
 31
0.0
 12
30.924555399529702
 22
3.0902505116336831
 32
0.0
 13
30.924555399529702
 23
3.0902505116336831
 33
0.0
  0
SOLID
  5
F04C
  8
0
  6
CONTINUOUS
 62
     7
 10
-30.628104933023948
 20
3.1326251861022438
 30
0.0
 11
-30.924555399529702
 21
3.1326251861022438
 31
0.0
 12
-30.924555399529702
 22
3.0902505116336831
 32
0.0
 13
-30.924555399529702
 23
3.0902505116336831
 33
0.0
210
0.0
220
0.0
230
-1.0
  0
SOLID
  5
F04D
  8
0
  6
CONTINUOUS
 62
     7
 10
30.628104933023948
 20
3.0902505116336831
 30
0.0
 11
30.60691759578966
 21
3.005501162696532
 31
0.0
 12
30.924555399529702
 22
3.005501162696532
 32
0.0
 13
30.924555399529702
 23
3.005501162696532
 33
0.0
  0
SOLID
  5
F04E
  8
0
  6
CONTINUOUS
 62
     7
 10
-30.628104933023948
 20
3.0902505116336831
 30
0.0
 11
-30.924555399529702
 21
3.0902505116336831
 31
0.0
 12
-30.924555399529702
 22
3.005501162696532
 32
0.0
 13
-30.924555399529702
 23
3.005501162696532
 33
0.0
210
0.0
220
0.0
230
-1.0
  0
SOLID
  5
F04F
  8
0
  6
CONTINUOUS
 62
     7
 10
30.60691759578966
 20
3.005501162696532
 30
0.0
 11
30.60691759578966
 21
2.9421114057679461
 31
0.0
 12
30.924555399529702
 22
2.9421114057679461
 32
0.0
 13
30.924555399529702
 23
2.9421114057679461
 33
0.0
  0
SOLID
  5
F050
  8
0
  6
CONTINUOUS
 62
     7
 10
-30.60691759578966
 20
3.005501162696532
 30
0.0
 11
-30.924555399529702
 21
3.005501162696532
 31
0.0
 12
-30.924555399529702
 22
2.9421114057679461
 32
0.0
 13
-30.924555399529702
 23
2.9421114057679461
 33
0.0
210
0.0
220
0.0
230
-1.0
  0
SOLID
  5
F051
  8
0
  6
CONTINUOUS
 62
     7
 10
30.60691759578966
 20
2.9421114057679461
 30
0.0
 11
30.599816974662492
 21
2.9207518137593791
 31
0.0
 12
30.924555399529702
 22
2.9207518137593791
 32
0.0
 13
30.924555399529702
 23
2.9207518137593791
 33
0.0
  0
SOLID
  5
F052
  8
0
  6
CONTINUOUS
 62
     7
 10
-30.60691759578966
 20
2.9421114057679461
 30
0.0
 11
-30.924555399529702
 21
2.9421114057679461
 31
0.0
 12
-30.924555399529702
 22
2.9207518137593791
 32
0.0
 13
-30.924555399529702
 23
2.9207518137593791
 33
0.0
210
0.0
220
0.0
230
-1.0
  0
SOLID
  5
F053
  8
0
  6
CONTINUOUS
 62
     7
 10
30.599816974662492
 20
2.9207518137593791
 30
0.0
 11
30.585730258555369
 21
2.878377139290818
 31
0.0
 12
30.913918491448811
 22
2.878377139290818
 32
0.0
 13
30.913918491448811
 23
2.878377139290818
 33
0.0
  0
SOLID
  5
F054
  8
0
  6
CONTINUOUS
 62
     7
 10
-30.599816974662492
 20
2.9207518137593791
 30
0.0
 11
-30.924555399529702
 21
2.9207518137593791
 31
0.0
 12
-30.913918491448811
 22
2.878377139290818
 32
0.0
 13
-30.913918491448811
 23
2.878377139290818
 33
0.0
210
0.0
220
0.0
230
-1.0
  0
SOLID
  5
F055
  8
0
  6
CONTINUOUS
 62
     7
 10
30.585730258555369
 20
2.878377139290818
 30
0.0
 11
30.585730258555369
 21
2.8363469743707679
 31
0.0
 12
30.90336806229541
 22
2.8363469743707679
 32
0.0
 13
30.90336806229541
 23
2.8363469743707679
 33
0.0
  0
SOLID
  5
F056
  8
0
  6
CONTINUOUS
 62
     7
 10
-30.585730258555369
 20
2.878377139290818
 30
0.0
 11
-30.913918491448811
 21
2.878377139290818
 31
0.0
 12
-30.90336806229541
 22
2.8363469743707679
 32
0.0
 13
-30.90336806229541
 23
2.8363469743707679
 33
0.0
210
0.0
220
0.0
230
-1.0
  0
SOLID
  5
F057
  8
0
  6
CONTINUOUS
 62
     7
 10
30.585730258555369
 20
2.8363469743707679
 30
0.0
 11
30.585730258555369
 21
2.8149873823622031
 31
0.0
 12
30.896267441168241
 22
2.8149873823622031
 32
0.0
 13
30.896267441168241
 23
2.8149873823622031
 33
0.0
  0
SOLID
  5
F058
  8
0
  6
CONTINUOUS
 62
     7
 10
-30.585730258555369
 20
2.8363469743707679
 30
0.0
 11
-30.90336806229541
 21
2.8363469743707679
 31
0.0
 12
-30.896267441168241
 22
2.8149873823622031
 32
0.0
 13
-30.896267441168241
 23
2.8149873823622031
 33
0.0
210
0.0
220
0.0
230
-1.0
  0
SOLID
  5
F059
  8
0
  6
CONTINUOUS
 62
     7
 10
30.585730258555369
 20
2.8149873823622031
 30
0.0
 11
30.57168213278047
 21
2.772612707893642
 31
0.0
 12
30.882180725061129
 22
2.772612707893642
 32
0.0
 13
30.882180725061129
 23
2.772612707893642
 33
0.0
  0
SOLID
  5
F05A
  8
0
  6
CONTINUOUS
 62
     7
 10
-30.585730258555369
 20
2.8149873823622031
 30
0.0
 11
-30.896267441168241
 21
2.8149873823622031
 31
0.0
 12
-30.882180725061129
 22
2.772612707893642
 32
0.0
 13
-30.882180725061129
 23
2.772612707893642
 33
0.0
210
0.0
220
0.0
230
-1.0
  0
SOLID
  5
F05B
  8
0
  6
CONTINUOUS
 62
     7
 10
30.57168213278047
 20
2.772612707893642
 30
0.0
 11
30.564715176095351
 21
2.7515976254336181
 31
0.0
 12
30.87167318383111
 22
2.7515976254336181
 32
0.0
 13
30.87167318383111
 23
2.7515976254336181
 33
0.0
  0
SOLID
  5
F05C
  8
0
  6
CONTINUOUS
 62
     7
 10
-30.57168213278047
 20
2.772612707893642
 30
0.0
 11
-30.882180725061129
 21
2.772612707893642
 31
0.0
 12
-30.87167318383111
 22
2.7515976254336181
 32
0.0
 13
-30.87167318383111
 23
2.7515976254336181
 33
0.0
210
0.0
220
0.0
230
-1.0
  0
SOLID
  5
F05D
  8
0
  6
CONTINUOUS
 62
     7
 10
30.564715176095351
 20
2.7515976254336181
 30
0.0
 11
30.543355584086811
 21
2.73023803342508
 31
0.0
 12
30.860993387826841
 22
2.73023803342508
 32
0.0
 13
30.860993387826841
 23
2.73023803342508
 33
0.0
  0
SOLID
  5
F05E
  8
0
  6
CONTINUOUS
 62
     7
 10
-30.564715176095351
 20
2.7515976254336181
 30
0.0
 11
-30.87167318383111
 21
2.7515976254336181
 31
0.0
 12
-30.860993387826841
 22
2.73023803342508
 32
0.0
 13
-30.860993387826841
 23
2.73023803342508
 33
0.0
210
0.0
220
0.0
230
-1.0
  0
SOLID
  5
F05F
  8
0
  6
CONTINUOUS
 62
     7
 10
30.543355584086811
 20
2.73023803342508
 30
0.0
 11
30.522340501626768
 21
2.7092229509650561
 31
0.0
 12
30.853969324939388
 22
2.7092229509650561
 32
0.0
 13
30.853969324939388
 23
2.7092229509650561
 33
0.0
  0
SOLID
  5
F060
  8
0
  6
CONTINUOUS
 62
     7
 10
-30.543355584086811
 20
2.73023803342508
 30
0.0
 11
-30.860993387826841
 21
2.73023803342508
 31
0.0
 12
-30.853969324939388
 22
2.7092229509650561
 32
0.0
 13
-30.853969324939388
 23
2.7092229509650561
 33
0.0
210
0.0
220
0.0
230
-1.0
  0
SOLID
  5
F061
  8
0
  6
CONTINUOUS
 62
     7
 10
30.522340501626768
 20
2.7092229509650561
 30
0.0
 11
30.501153164392491
 21
2.6668482764964661
 31
0.0
 12
30.83980605059255
 22
2.6668482764964661
 32
0.0
 13
30.83980605059255
 23
2.6668482764964661
 33
0.0
  0
SOLID
  5
F062
  8
0
  6
CONTINUOUS
 62
     7
 10
-30.522340501626768
 20
2.7092229509650561
 30
0.0
 11
-30.853969324939388
 21
2.7092229509650561
 31
0.0
 12
-30.83980605059255
 22
2.6668482764964661
 32
0.0
 13
-30.83980605059255
 23
2.6668482764964661
 33
0.0
210
0.0
220
0.0
230
-1.0
  0
SOLID
  5
F063
  8
0
  6
CONTINUOUS
 62
     7
 10
30.4799658271582
 20
2.6668482764964661
 30
0.0
 11
30.437591152689631
 21
2.624473602027904
 31
0.0
 12
30.797431376123981
 22
2.624473602027904
 32
0.0
 13
30.797431376123981
 23
2.624473602027904
 33
0.0
  0
SOLID
  5
F064
  8
0
  6
CONTINUOUS
 62
     7
 10
-30.4799658271582
 20
2.6668482764964661
 30
0.0
 11
-30.83980605059255
 21
2.6668482764964661
 31
0.0
 12
-30.797431376123981
 22
2.624473602027904
 32
0.0
 13
-30.797431376123981
 23
2.624473602027904
 33
0.0
210
0.0
220
0.0
230
-1.0
  0
SOLID
  5
F065
  8
0
  6
CONTINUOUS
 62
     7
 10
30.437591152689631
 20
2.624473602027904
 30
0.0
 11
30.374201395761041
 21
2.6034585195678801
 31
0.0
 12
30.790407313236521
 22
2.6034585195678801
 32
0.0
 13
30.790407313236521
 23
2.6034585195678801
 33
0.0
  0
SOLID
  5
F066
  8
0
  6
CONTINUOUS
 62
     7
 10
-30.437591152689631
 20
2.624473602027904
 30
0.0
 11
-30.797431376123981
 21
2.624473602027904
 31
0.0
 12
-30.790407313236521
 22
2.6034585195678801
 32
0.0
 13
-30.790407313236521
 23
2.6034585195678801
 33
0.0
210
0.0
220
0.0
230
-1.0
  0
SOLID
  5
F067
  8
0
  6
CONTINUOUS
 62
     7
 10
30.31063938405817
 20
2.6034585195678801
 30
0.0
 11
29.823847391992381
 21
2.582098927559314
 31
0.0
 12
30.783268101777139
 22
2.582098927559314
 32
0.0
 13
30.783268101777139
 23
2.582098927559314
 33
0.0
  0
SOLID
  5
F068
  8
0
  6
CONTINUOUS
 62
     7
 10
-30.31063938405817
 20
2.6034585195678801
 30
0.0
 11
-30.790407313236521
 21
2.6034585195678801
 31
0.0
 12
-30.783268101777139
 22
2.582098927559314
 32
0.0
 13
-30.783268101777139
 23
2.582098927559314
 33
0.0
210
0.0
220
0.0
230
-1.0
  0
SOLID
  5
F069
  8
0
  6
CONTINUOUS
 62
     7
 10
29.823847391992381
 20
2.582098927559314
 30
0.0
 11
29.866222066460939
 21
2.5610838450992901
 31
0.0
 12
30.77624403888969
 22
2.5610838450992901
 32
0.0
 13
30.77624403888969
 23
2.5610838450992901
 33
0.0
  0
SOLID
  5
F06A
  8
0
  6
CONTINUOUS
 62
     7
 10
-29.823847391992381
 20
2.582098927559314
 30
0.0
 11
-30.783268101777139
 21
2.582098927559314
 31
0.0
 12
-30.77624403888969
 22
2.5610838450992901
 32
0.0
 13
-30.77624403888969
 23
2.5610838450992901
 33
0.0
210
0.0
220
0.0
230
-1.0
  0
SOLID
  5
F06B
  8
0
  6
CONTINUOUS
 62
     7
 10
29.866222066460939
 20
2.5610838450992901
 30
0.0
 11
29.88723714892097
 21
2.539724253090752
 31
0.0
 12
30.754971274490941
 22
2.539724253090752
 32
0.0
 13
30.754971274490941
 23
2.539724253090752
 33
0.0
  0
SOLID
  5
F06C
  8
0
  6
CONTINUOUS
 62
     7
 10
-29.866222066460939
 20
2.5610838450992901
 30
0.0
 11
-30.77624403888969
 21
2.5610838450992901
 31
0.0
 12
-30.754971274490941
 22
2.539724253090752
 32
0.0
 13
-30.754971274490941
 23
2.539724253090752
 33
0.0
210
0.0
220
0.0
230
-1.0
  0
SOLID
  5
F06D
  8
0
  6
CONTINUOUS
 62
     7
 10
29.88723714892097
 20
2.539724253090752
 30
0.0
 11
29.908424486155251
 21
2.5187091706307281
 31
0.0
 12
30.734041619195381
 22
2.5187091706307281
 32
0.0
 13
30.734041619195381
 23
2.5187091706307281
 33
0.0
  0
SOLID
  5
F06E
  8
0
  6
CONTINUOUS
 62
     7
 10
-29.88723714892097
 20
2.539724253090752
 30
0.0
 11
-30.754971274490941
 21
2.539724253090752
 31
0.0
 12
-30.734041619195381
 22
2.5187091706307281
 32
0.0
 13
-30.734041619195381
 23
2.5187091706307281
 33
0.0
210
0.0
220
0.0
230
-1.0
  0
SOLID
  5
F06F
  8
0
  6
CONTINUOUS
 62
     7
 10
29.908424486155251
 20
2.5187091706307281
 30
0.0
 11
29.929611823389539
 21
2.4976940881707019
 31
0.0
 12
30.691839199501061
 22
2.4976940881707019
 32
0.0
 13
30.691839199501061
 23
2.4976940881707019
 33
0.0
  0
SOLID
  5
F070
  8
0
  6
CONTINUOUS
 62
     7
 10
-29.908424486155251
 20
2.5187091706307281
 30
0.0
 11
-30.712854281961089
 21
2.5187091706307281
 31
0.0
 12
-30.691839199501061
 22
2.4976940881707019
 32
0.0
 13
-30.691839199501061
 23
2.4976940881707019
 33
0.0
210
0.0
220
0.0
230
-1.0
  0
SOLID
  5
F071
  8
0
  6
CONTINUOUS
 62
     7
 10
29.929611823389539
 20
2.4976940881707019
 30
0.0
 11
29.961651211402359
 21
2.4763344961621661
 31
0.0
 12
30.670479607492521
 22
2.4763344961621661
 32
0.0
 13
30.670479607492521
 23
2.4763344961621661
 33
0.0
  0
SOLID
  5
F072
  8
0
  6
CONTINUOUS
 62
     7
 10
-29.929611823389539
 20
2.4976940881707019
 30
0.0
 11
-30.691839199501061
 21
2.4976940881707019
 31
0.0
 12
-30.670479607492521
 22
2.4763344961621661
 32
0.0
 13
-30.670479607492521
 23
2.4763344961621661
 33
0.0
210
0.0
220
0.0
230
-1.0
  0
SOLID
  5
F073
  8
0
  6
CONTINUOUS
 62
     7
 10
29.961651211402359
 20
2.4763344961621661
 30
0.0
 11
29.993173835092399
 21
2.4553194137021421
 31
0.0
 12
30.649464525032499
 22
2.4553194137021421
 32
0.0
 13
30.649464525032499
 23
2.4553194137021421
 33
0.0
  0
SOLID
  5
F074
  8
0
  6
CONTINUOUS
 62
     7
 10
-29.961651211402359
 20
2.4763344961621661
 30
0.0
 11
-30.670479607492521
 21
2.4763344961621661
 31
0.0
 12
-30.649464525032499
 22
2.4553194137021421
 32
0.0
 13
-30.649464525032499
 23
2.4553194137021421
 33
0.0
210
0.0
220
0.0
230
-1.0
  0
SOLID
  5
F075
  8
0
  6
CONTINUOUS
 62
     7
 10
29.993173835092399
 20
2.4553194137021421
 30
0.0
 11
30.025126395495452
 21
2.4339598216935761
 31
0.0
 12
30.628104933023948
 22
2.4339598216935761
 32
0.0
 13
30.628104933023948
 23
2.4339598216935761
 33
0.0
  0
SOLID
  5
F076
  8
0
  6
CONTINUOUS
 62
     7
 10
-29.993173835092399
 20
2.4553194137021421
 30
0.0
 11
-30.649464525032499
 21
2.4553194137021421
 31
0.0
 12
-30.628104933023948
 22
2.4339598216935761
 32
0.0
 13
-30.628104933023948
 23
2.4339598216935761
 33
0.0
210
0.0
220
0.0
230
-1.0
  0
SOLID
  5
F077
  8
0
  6
CONTINUOUS
 62
     7
 10
30.025126395495452
 20
2.4339598216935761
 30
0.0
 11
30.056563592021
 21
2.4129447392335521
 31
0.0
 12
30.564715176095351
 22
2.4129447392335521
 32
0.0
 13
30.564715176095351
 23
2.4129447392335521
 33
0.0
  0
SOLID
  5
F078
  8
0
  6
CONTINUOUS
 62
     7
 10
-30.025126395495452
 20
2.4339598216935761
 30
0.0
 11
-30.628104933023948
 21
2.4339598216935761
 31
0.0
 12
-30.564715176095351
 22
2.4129447392335521
 32
0.0
 13
-30.564715176095351
 23
2.4129447392335521
 33
0.0
210
0.0
220
0.0
230
-1.0
  0
SOLID
  5
F079
  8
0
  6
CONTINUOUS
 62
     7
 10
30.056563592021
 20
2.4129447392335521
 30
0.0
 11
30.098938266489569
 21
2.391585147225014
 31
0.0
 12
30.522340501626768
 22
2.391585147225014
 32
0.0
 13
30.522340501626768
 23
2.391585147225014
 33
0.0
  0
SOLID
  5
F07A
  8
0
  6
CONTINUOUS
 62
     7
 10
-30.056563592021
 20
2.4129447392335521
 30
0.0
 11
-30.564715176095351
 21
2.4129447392335521
 31
0.0
 12
-30.522340501626768
 22
2.391585147225014
 32
0.0
 13
-30.522340501626768
 23
2.391585147225014
 33
0.0
210
0.0
220
0.0
230
-1.0
  0
SOLID
  5
F07B
  8
0
  6
CONTINUOUS
 62
     7
 10
30.098938266489569
 20
2.391585147225014
 30
0.0
 11
30.162500278192429
 21
2.3705700647649901
 31
0.0
 12
30.458778489923919
 22
2.3705700647649901
 32
0.0
 13
30.458778489923919
 23
2.3705700647649901
 33
0.0
  0
SOLID
  5
F07C
  8
0
  6
CONTINUOUS
 62
     7
 10
-30.098938266489569
 20
2.391585147225014
 30
0.0
 11
-30.522340501626768
 21
2.391585147225014
 31
0.0
 12
-30.458778489923919
 22
2.3705700647649901
 32
0.0
 13
-30.458778489923919
 23
2.3705700647649901
 33
0.0
210
0.0
220
0.0
230
-1.0
  0
LINE
  5
F07D
  8
0
  6
CONTINUOUS
 62
     7
 10
30.289452046823889
 20
3.873320715430963
 30
0.0
 11
30.226062289895289
 21
3.8523056329709391
 31
0.0
  0
LINE
  5
F07E
  8
0
  6
CONTINUOUS
 62
     7
 10
30.4799658271582
 20
3.873320715430963
 30
0.0
 11
30.54352783886106
 21
3.8523056329709391
 31
0.0
  0
LINE
  5
F07F
  8
0
  6
CONTINUOUS
 62
     7
 10
30.226062289895289
 20
3.8523056329709391
 30
0.0
 11
30.162500278192429
 21
3.830946040962401
 31
0.0
  0
LINE
  5
F080
  8
0
  6
CONTINUOUS
 62
     7
 10
30.54352783886106
 20
3.8523056329709391
 30
0.0
 11
30.60691759578966
 21
3.830946040962401
 31
0.0
  0
LINE
  5
F081
  8
0
  6
CONTINUOUS
 62
     7
 10
30.162500278192429
 20
3.830946040962401
 30
0.0
 11
30.098938266489569
 21
3.8099309585023762
 31
0.0
  0
LINE
  5
F082
  8
0
  6
CONTINUOUS
 62
     7
 10
30.60691759578966
 20
3.830946040962401
 30
0.0
 11
30.627932678249682
 21
3.8099309585023762
 31
0.0
  0
LINE
  5
F083
  8
0
  6
CONTINUOUS
 62
     7
 10
30.098938266489569
 20
3.8099309585023762
 30
0.0
 11
30.077578674481021
 21
3.788571366493811
 31
0.0
  0
LINE
  5
F084
  8
0
  6
CONTINUOUS
 62
     7
 10
30.627932678249682
 20
3.8099309585023762
 30
0.0
 11
30.649292270258229
 21
3.788571366493811
 31
0.0
  0
LINE
  5
F085
  8
0
  6
CONTINUOUS
 62
     7
 10
30.077578674481021
 20
3.788571366493811
 30
0.0
 11
30.056563592021
 21
3.7675562840337871
 31
0.0
  0
LINE
  5
F086
  8
0
  6
CONTINUOUS
 62
     7
 10
30.649292270258229
 20
3.788571366493811
 30
0.0
 11
30.681073276109661
 21
3.7675562840337871
 31
0.0
  0
LINE
  5
F087
  8
0
  6
CONTINUOUS
 62
     7
 10
30.056563592021
 20
3.7675562840337871
 30
0.0
 11
30.056563592021
 21
3.7465412015737609
 31
0.0
  0
LINE
  5
F088
  8
0
  6
CONTINUOUS
 62
     7
 10
30.681073276109661
 20
3.7675562840337871
 30
0.0
 11
30.712854281961089
 21
3.7465412015737609
 31
0.0
  0
LINE
  5
F089
  8
0
  6
CONTINUOUS
 62
     7
 10
30.056563592021
 20
3.7465412015737609
 30
0.0
 11
30.02461103161798
 21
3.725181609565225
 31
0.0
  0
LINE
  5
F08A
  8
0
  6
CONTINUOUS
 62
     7
 10
30.712854281961089
 20
3.7465412015737609
 30
0.0
 11
30.734041619195381
 21
3.725181609565225
 31
0.0
  0
LINE
  5
F08B
  8
0
  6
CONTINUOUS
 62
     7
 10
30.02461103161798
 20
3.725181609565225
 30
0.0
 11
29.993173835092399
 21
3.7041665271051998
 31
0.0
  0
LINE
  5
F08C
  8
0
  6
CONTINUOUS
 62
     7
 10
30.734041619195381
 20
3.725181609565225
 30
0.0
 11
30.75497127449092
 21
3.7041665271051998
 31
0.0
  0
LINE
  5
F08D
  8
0
  6
CONTINUOUS
 62
     7
 10
29.993173835092399
 20
3.7041665271051998
 30
0.0
 11
29.978972592838058
 21
3.6828069350966341
 31
0.0
  0
LINE
  5
F08E
  8
0
  6
CONTINUOUS
 62
     7
 10
30.75497127449092
 20
3.7041665271051998
 30
0.0
 11
30.77624403888969
 21
3.6828069350966341
 31
0.0
  0
LINE
  5
F08F
  8
0
  6
CONTINUOUS
 62
     7
 10
29.978972592838058
 20
3.6828069350966341
 30
0.0
 11
29.950799160623831
 21
3.640432260628073
 31
0.0
  0
LINE
  5
F090
  8
0
  6
CONTINUOUS
 62
     7
 10
30.77624403888969
 20
3.6828069350966341
 30
0.0
 11
30.818618713358269
 21
3.640432260628073
 31
0.0
  0
LINE
  5
F091
  8
0
  6
CONTINUOUS
 62
     7
 10
30.331826721292469
 20
3.640432260628073
 30
0.0
 11
30.395388732995318
 21
3.6194171781680482
 31
0.0
  0
LINE
  5
F092
  8
0
  6
CONTINUOUS
 62
     7
 10
30.818618713358269
 20
3.640432260628073
 30
0.0
 11
30.825642776245719
 21
3.6194171781680482
 31
0.0
  0
LINE
  5
F093
  8
0
  6
CONTINUOUS
 62
     7
 10
30.395388732995318
 20
3.6194171781680482
 30
0.0
 11
30.437591152689631
 21
3.598057586159511
 31
0.0
  0
LINE
  5
F094
  8
0
  6
CONTINUOUS
 62
     7
 10
30.825642776245719
 20
3.6194171781680482
 30
0.0
 11
30.83278198770509
 21
3.598057586159511
 31
0.0
  0
LINE
  5
F095
  8
0
  6
CONTINUOUS
 62
     7
 10
30.437591152689631
 20
3.598057586159511
 30
0.0
 11
30.469372158541059
 21
3.5770425036994871
 31
0.0
  0
LINE
  5
F096
  8
0
  6
CONTINUOUS
 62
     7
 10
30.83278198770509
 20
3.598057586159511
 30
0.0
 11
30.83980605059255
 21
3.5770425036994871
 31
0.0
  0
LINE
  5
F097
  8
0
  6
CONTINUOUS
 62
     7
 10
30.469372158541059
 20
3.5770425036994871
 30
0.0
 11
30.501153164392491
 21
3.5560274212394631
 31
0.0
  0
LINE
  5
F098
  8
0
  6
CONTINUOUS
 62
     7
 10
30.83980605059255
 20
3.5770425036994871
 30
0.0
 11
30.850313591822559
 21
3.5560274212394631
 31
0.0
  0
LINE
  5
F099
  8
0
  6
CONTINUOUS
 62
     7
 10
30.501153164392491
 20
3.5560274212394631
 30
0.0
 11
30.51183296039677
 21
3.5346678292308962
 31
0.0
  0
LINE
  5
F09A
  8
0
  6
CONTINUOUS
 62
     7
 10
30.850313591822559
 20
3.5560274212394631
 30
0.0
 11
30.860993387826841
 21
3.5346678292308962
 31
0.0
  0
LINE
  5
F09B
  8
0
  6
CONTINUOUS
 62
     7
 10
30.51183296039677
 20
3.5346678292308962
 30
0.0
 11
30.522340501626768
 21
3.5136527467708718
 31
0.0
  0
LINE
  5
F09C
  8
0
  6
CONTINUOUS
 62
     7
 10
30.860993387826841
 20
3.5346678292308962
 30
0.0
 11
30.868017450714291
 21
3.5136527467708718
 31
0.0
  0
LINE
  5
F09D
  8
0
  6
CONTINUOUS
 62
     7
 10
30.522340501626768
 20
3.5136527467708718
 30
0.0
 11
30.564715176095351
 21
3.4712780723023111
 31
0.0
  0
LINE
  5
F09E
  8
0
  6
CONTINUOUS
 62
     7
 10
30.868017450714291
 20
3.5136527467708718
 30
0.0
 11
30.882180725061129
 21
3.4712780723023111
 31
0.0
  0
LINE
  5
F09F
  8
0
  6
CONTINUOUS
 62
     7
 10
30.564715176095351
 20
3.4712780723023111
 30
0.0
 11
30.585730258555369
 21
3.4289033978337198
 31
0.0
  0
LINE
  5
F0A0
  8
0
  6
CONTINUOUS
 62
     7
 10
30.882180725061129
 20
3.4712780723023111
 30
0.0
 11
30.896267441168249
 21
3.4289033978337198
 31
0.0
  0
LINE
  5
F0A1
  8
0
  6
CONTINUOUS
 62
     7
 10
30.585730258555369
 20
3.4289033978337198
 30
0.0
 11
30.585730258555369
 21
3.407543805825183
 31
0.0
  0
LINE
  5
F0A2
  8
0
  6
CONTINUOUS
 62
     7
 10
30.896267441168249
 20
3.4289033978337198
 30
0.0
 11
30.90336806229541
 21
3.407543805825183
 31
0.0
  0
LINE
  5
F0A3
  8
0
  6
CONTINUOUS
 62
     7
 10
30.585730258555369
 20
3.407543805825183
 30
0.0
 11
30.585730258555369
 21
3.3655136409051352
 31
0.0
  0
LINE
  5
F0A4
  8
0
  6
CONTINUOUS
 62
     7
 10
30.90336806229541
 20
3.407543805825183
 30
0.0
 11
30.91741618807032
 21
3.3655136409051352
 31
0.0
  0
LINE
  5
F0A5
  8
0
  6
CONTINUOUS
 62
     7
 10
30.585730258555369
 20
3.3655136409051352
 30
0.0
 11
30.592830879682541
 21
3.344154048896598
 31
0.0
  0
LINE
  5
F0A6
  8
0
  6
CONTINUOUS
 62
     7
 10
30.91741618807032
 20
3.3655136409051352
 30
0.0
 11
30.924555399529702
 21
3.344154048896598
 31
0.0
  0
LINE
  5
F0A7
  8
0
  6
CONTINUOUS
 62
     7
 10
30.592830879682541
 20
3.344154048896598
 30
0.0
 11
30.60691759578966
 21
3.301779374428008
 31
0.0
  0
LINE
  5
F0A8
  8
0
  6
CONTINUOUS
 62
     7
 10
30.924555399529702
 20
3.344154048896598
 30
0.0
 11
30.924555399529702
 21
3.301779374428008
 31
0.0
  0
LINE
  5
F0A9
  8
0
  6
CONTINUOUS
 62
     7
 10
30.60691759578966
 20
3.301779374428008
 30
0.0
 11
30.60691759578966
 21
3.2173745350393959
 31
0.0
  0
LINE
  5
F0AA
  8
0
  6
CONTINUOUS
 62
     7
 10
30.924555399529702
 20
3.301779374428008
 30
0.0
 11
30.924555399529702
 21
3.2173745350393959
 31
0.0
  0
LINE
  5
F0AB
  8
0
  6
CONTINUOUS
 62
     7
 10
30.60691759578966
 20
3.2173745350393959
 30
0.0
 11
30.628104933023948
 21
3.1326251861022438
 31
0.0
  0
LINE
  5
F0AC
  8
0
  6
CONTINUOUS
 62
     7
 10
30.924555399529702
 20
3.2173745350393959
 30
0.0
 11
30.924555399529702
 21
3.1326251861022438
 31
0.0
  0
LINE
  5
F0AD
  8
0
  6
CONTINUOUS
 62
     7
 10
30.628104933023948
 20
3.1326251861022438
 30
0.0
 11
30.628104933023948
 21
3.0902505116336831
 31
0.0
  0
LINE
  5
F0AE
  8
0
  6
CONTINUOUS
 62
     7
 10
30.924555399529702
 20
3.1326251861022438
 30
0.0
 11
30.924555399529702
 21
3.0902505116336831
 31
0.0
  0
LINE
  5
F0AF
  8
0
  6
CONTINUOUS
 62
     7
 10
30.628104933023948
 20
3.0902505116336831
 30
0.0
 11
30.60691759578966
 21
3.005501162696532
 31
0.0
  0
LINE
  5
F0B0
  8
0
  6
CONTINUOUS
 62
     7
 10
30.924555399529702
 20
3.0902505116336831
 30
0.0
 11
30.924555399529702
 21
3.005501162696532
 31
0.0
  0
LINE
  5
F0B1
  8
0
  6
CONTINUOUS
 62
     7
 10
30.60691759578966
 20
3.005501162696532
 30
0.0
 11
30.60691759578966
 21
2.9421114057679461
 31
0.0
  0
LINE
  5
F0B2
  8
0
  6
CONTINUOUS
 62
     7
 10
30.924555399529702
 20
3.005501162696532
 30
0.0
 11
30.924555399529702
 21
2.9421114057679461
 31
0.0
  0
LINE
  5
F0B3
  8
0
  6
CONTINUOUS
 62
     7
 10
30.60691759578966
 20
2.9421114057679461
 30
0.0
 11
30.599816974662492
 21
2.9207518137593791
 31
0.0
  0
LINE
  5
F0B4
  8
0
  6
CONTINUOUS
 62
     7
 10
30.924555399529702
 20
2.9421114057679461
 30
0.0
 11
30.924555399529702
 21
2.9207518137593791
 31
0.0
  0
LINE
  5
F0B5
  8
0
  6
CONTINUOUS
 62
     7
 10
30.599816974662492
 20
2.9207518137593791
 30
0.0
 11
30.585730258555369
 21
2.878377139290818
 31
0.0
  0
LINE
  5
F0B6
  8
0
  6
CONTINUOUS
 62
     7
 10
30.924555399529702
 20
2.9207518137593791
 30
0.0
 11
30.913918491448811
 21
2.878377139290818
 31
0.0
  0
LINE
  5
F0B7
  8
0
  6
CONTINUOUS
 62
     7
 10
30.585730258555369
 20
2.878377139290818
 30
0.0
 11
30.585730258555369
 21
2.8363469743707679
 31
0.0
  0
LINE
  5
F0B8
  8
0
  6
CONTINUOUS
 62
     7
 10
30.913918491448811
 20
2.878377139290818
 30
0.0
 11
30.90336806229541
 21
2.8363469743707679
 31
0.0
  0
LINE
  5
F0B9
  8
0
  6
CONTINUOUS
 62
     7
 10
30.585730258555369
 20
2.8363469743707679
 30
0.0
 11
30.585730258555369
 21
2.8149873823622031
 31
0.0
  0
LINE
  5
F0BA
  8
0
  6
CONTINUOUS
 62
     7
 10
30.90336806229541
 20
2.8363469743707679
 30
0.0
 11
30.896267441168241
 21
2.8149873823622031
 31
0.0
  0
LINE
  5
F0BB
  8
0
  6
CONTINUOUS
 62
     7
 10
30.585730258555369
 20
2.8149873823622031
 30
0.0
 11
30.57168213278047
 21
2.772612707893642
 31
0.0
  0
LINE
  5
F0BC
  8
0
  6
CONTINUOUS
 62
     7
 10
30.896267441168241
 20
2.8149873823622031
 30
0.0
 11
30.882180725061129
 21
2.772612707893642
 31
0.0
  0
LINE
  5
F0BD
  8
0
  6
CONTINUOUS
 62
     7
 10
30.57168213278047
 20
2.772612707893642
 30
0.0
 11
30.564715176095351
 21
2.7515976254336181
 31
0.0
  0
LINE
  5
F0BE
  8
0
  6
CONTINUOUS
 62
     7
 10
30.882180725061129
 20
2.772612707893642
 30
0.0
 11
30.87167318383111
 21
2.7515976254336181
 31
0.0
  0
LINE
  5
F0BF
  8
0
  6
CONTINUOUS
 62
     7
 10
30.564715176095351
 20
2.7515976254336181
 30
0.0
 11
30.543355584086811
 21
2.73023803342508
 31
0.0
  0
LINE
  5
F0C0
  8
0
  6
CONTINUOUS
 62
     7
 10
30.87167318383111
 20
2.7515976254336181
 30
0.0
 11
30.860993387826841
 21
2.73023803342508
 31
0.0
  0
LINE
  5
F0C1
  8
0
  6
CONTINUOUS
 62
     7
 10
30.543355584086811
 20
2.73023803342508
 30
0.0
 11
30.522340501626768
 21
2.7092229509650561
 31
0.0
  0
LINE
  5
F0C2
  8
0
  6
CONTINUOUS
 62
     7
 10
30.860993387826841
 20
2.73023803342508
 30
0.0
 11
30.853969324939388
 21
2.7092229509650561
 31
0.0
  0
LINE
  5
F0C3
  8
0
  6
CONTINUOUS
 62
     7
 10
30.522340501626768
 20
2.7092229509650561
 30
0.0
 11
30.501153164392491
 21
2.6668482764964661
 31
0.0
  0
LINE
  5
F0C4
  8
0
  6
CONTINUOUS
 62
     7
 10
30.853969324939388
 20
2.7092229509650561
 30
0.0
 11
30.83980605059255
 21
2.6668482764964661
 31
0.0
  0
LINE
  5
F0C5
  8
0
  6
CONTINUOUS
 62
     7
 10
30.4799658271582
 20
2.6668482764964661
 30
0.0
 11
30.437591152689631
 21
2.624473602027904
 31
0.0
  0
LINE
  5
F0C6
  8
0
  6
CONTINUOUS
 62
     7
 10
30.83980605059255
 20
2.6668482764964661
 30
0.0
 11
30.797431376123981
 21
2.624473602027904
 31
0.0
  0
LINE
  5
F0C7
  8
0
  6
CONTINUOUS
 62
     7
 10
30.437591152689631
 20
2.624473602027904
 30
0.0
 11
30.374201395761041
 21
2.6034585195678801
 31
0.0
  0
LINE
  5
F0C8
  8
0
  6
CONTINUOUS
 62
     7
 10
30.797431376123981
 20
2.624473602027904
 30
0.0
 11
30.790407313236521
 21
2.6034585195678801
 31
0.0
  0
LINE
  5
F0C9
  8
0
  6
CONTINUOUS
 62
     7
 10
30.31063938405817
 20
2.6034585195678801
 30
0.0
 11
29.823847391992381
 21
2.582098927559314
 31
0.0
  0
LINE
  5
F0CA
  8
0
  6
CONTINUOUS
 62
     7
 10
30.790407313236521
 20
2.6034585195678801
 30
0.0
 11
30.783268101777139
 21
2.582098927559314
 31
0.0
  0
LINE
  5
F0CB
  8
0
  6
CONTINUOUS
 62
     7
 10
29.823847391992381
 20
2.582098927559314
 30
0.0
 11
29.866222066460939
 21
2.5610838450992901
 31
0.0
  0
LINE
  5
F0CC
  8
0
  6
CONTINUOUS
 62
     7
 10
30.783268101777139
 20
2.582098927559314
 30
0.0
 11
30.77624403888969
 21
2.5610838450992901
 31
0.0
  0
LINE
  5
F0CD
  8
0
  6
CONTINUOUS
 62
     7
 10
29.866222066460939
 20
2.5610838450992901
 30
0.0
 11
29.88723714892097
 21
2.539724253090752
 31
0.0
  0
LINE
  5
F0CE
  8
0
  6
CONTINUOUS
 62
     7
 10
30.77624403888969
 20
2.5610838450992901
 30
0.0
 11
30.754971274490941
 21
2.539724253090752
 31
0.0
  0
LINE
  5
F0CF
  8
0
  6
CONTINUOUS
 62
     7
 10
29.88723714892097
 20
2.539724253090752
 30
0.0
 11
29.908424486155251
 21
2.5187091706307281
 31
0.0
  0
LINE
  5
F0D0
  8
0
  6
CONTINUOUS
 62
     7
 10
30.754971274490941
 20
2.539724253090752
 30
0.0
 11
30.734041619195381
 21
2.5187091706307281
 31
0.0
  0
LINE
  5
F0D1
  8
0
  6
CONTINUOUS
 62
     7
 10
29.908424486155251
 20
2.5187091706307281
 30
0.0
 11
29.929611823389539
 21
2.4976940881707019
 31
0.0
  0
LINE
  5
F0D2
  8
0
  6
CONTINUOUS
 62
     7
 10
30.712854281961089
 20
2.5187091706307281
 30
0.0
 11
30.691839199501061
 21
2.4976940881707019
 31
0.0
  0
LINE
  5
F0D3
  8
0
  6
CONTINUOUS
 62
     7
 10
29.929611823389539
 20
2.4976940881707019
 30
0.0
 11
29.961651211402359
 21
2.4763344961621661
 31
0.0
  0
LINE
  5
F0D4
  8
0
  6
CONTINUOUS
 62
     7
 10
30.691839199501061
 20
2.4976940881707019
 30
0.0
 11
30.670479607492521
 21
2.4763344961621661
 31
0.0
  0
LINE
  5
F0D5
  8
0
  6
CONTINUOUS
 62
     7
 10
29.961651211402359
 20
2.4763344961621661
 30
0.0
 11
29.993173835092399
 21
2.4553194137021421
 31
0.0
  0
LINE
  5
F0D6
  8
0
  6
CONTINUOUS
 62
     7
 10
30.670479607492521
 20
2.4763344961621661
 30
0.0
 11
30.649464525032499
 21
2.4553194137021421
 31
0.0
  0
LINE
  5
F0D7
  8
0
  6
CONTINUOUS
 62
     7
 10
29.993173835092399
 20
2.4553194137021421
 30
0.0
 11
30.025126395495452
 21
2.4339598216935761
 31
0.0
  0
LINE
  5
F0D8
  8
0
  6
CONTINUOUS
 62
     7
 10
30.649464525032499
 20
2.4553194137021421
 30
0.0
 11
30.628104933023948
 21
2.4339598216935761
 31
0.0
  0
LINE
  5
F0D9
  8
0
  6
CONTINUOUS
 62
     7
 10
30.025126395495452
 20
2.4339598216935761
 30
0.0
 11
30.056563592021
 21
2.4129447392335521
 31
0.0
  0
LINE
  5
F0DA
  8
0
  6
CONTINUOUS
 62
     7
 10
30.628104933023948
 20
2.4339598216935761
 30
0.0
 11
30.564715176095351
 21
2.4129447392335521
 31
0.0
  0
LINE
  5
F0DB
  8
0
  6
CONTINUOUS
 62
     7
 10
30.056563592021
 20
2.4129447392335521
 30
0.0
 11
30.098938266489569
 21
2.391585147225014
 31
0.0
  0
LINE
  5
F0DC
  8
0
  6
CONTINUOUS
 62
     7
 10
30.564715176095351
 20
2.4129447392335521
 30
0.0
 11
30.522340501626768
 21
2.391585147225014
 31
0.0
  0
LINE
  5
F0DD
  8
0
  6
CONTINUOUS
 62
     7
 10
30.098938266489569
 20
2.391585147225014
 30
0.0
 11
30.162500278192429
 21
2.3705700647649901
 31
0.0
  0
LINE
  5
F0DE
  8
0
  6
CONTINUOUS
 62
     7
 10
30.522340501626768
 20
2.391585147225014
 30
0.0
 11
30.458778489923919
 21
2.3705700647649901
 31
0.0
  0
ENDBLK
  5
F0E0
  8
0
  0
BLOCK
  8
0
  2
*U12
 70
     1
 10
0.0
 20
0.0
 30
0.0
  3
*U12
  1

  0
SOLID
  5
F0E2
  8
0
  6
CONTINUOUS
 62
     7
 10
29.866222066460939
 20
4.4238469739738928
 30
0.0
 11
29.85554227045666
 21
4.4024873819653294
 31
0.0
 12
30.331826721292469
 22
4.4024873819653294
 32
0.0
 13
30.331826721292469
 23
4.4024873819653294
 33
0.0
  0
SOLID
  5
F0E3
  8
0
  6
CONTINUOUS
 62
     7
 10
29.85554227045666
 20
4.4024873819653294
 30
0.0
 11
29.845034729226661
 21
4.3814722995053028
 31
0.0
 12
30.204874952661001
 22
4.3814722995053028
 32
0.0
 13
30.204874952661001
 23
4.3814722995053028
 33
0.0
  0
SOLID
  5
F0E4
  8
0
  6
CONTINUOUS
 62
     7
 10
-29.85554227045666
 20
4.4024873819653294
 30
0.0
 11
-30.268264709589602
 21
4.4024873819653294
 31
0.0
 12
-30.204874952661001
 22
4.3814722995053028
 32
0.0
 13
-30.204874952661001
 23
4.3814722995053028
 33
0.0
210
0.0
220
0.0
230
-1.0
  0
SOLID
  5
F0E5
  8
0
  6
CONTINUOUS
 62
     7
 10
29.845034729226661
 20
4.3814722995053028
 30
0.0
 11
29.816861297012409
 21
4.339097625036743
 31
0.0
 12
30.141312940958152
 22
4.339097625036743
 32
0.0
 13
30.141312940958152
 23
4.339097625036743
 33
0.0
  0
SOLID
  5
F0E6
  8
0
  6
CONTINUOUS
 62
     7
 10
-29.845034729226661
 20
4.3814722995053028
 30
0.0
 11
-30.204874952661001
 21
4.3814722995053028
 31
0.0
 12
-30.141312940958152
 22
4.339097625036743
 32
0.0
 13
-30.141312940958152
 23
4.339097625036743
 33
0.0
210
0.0
220
0.0
230
-1.0
  0
SOLID
  5
F0E7
  8
0
  6
CONTINUOUS
 62
     7
 10
29.816861297012409
 20
4.339097625036743
 30
0.0
 11
29.802660054758078
 21
4.3177380330282062
 31
0.0
 12
30.141312940958152
 22
4.3177380330282062
 32
0.0
 13
30.141312940958152
 23
4.3177380330282062
 33
0.0
  0
SOLID
  5
F0E8
  8
0
  6
CONTINUOUS
 62
     7
 10
-29.816861297012409
 20
4.339097625036743
 30
0.0
 11
-30.141312940958152
 21
4.339097625036743
 31
0.0
 12
-30.141312940958152
 22
4.3177380330282062
 32
0.0
 13
-30.141312940958152
 23
4.3177380330282062
 33
0.0
210
0.0
220
0.0
230
-1.0
  0
SOLID
  5
F0E9
  8
0
  6
CONTINUOUS
 62
     7
 10
29.802660054758078
 20
4.3177380330282062
 30
0.0
 11
29.781472717523801
 21
4.2757078681081548
 31
0.0
 12
30.098938266489569
 22
4.2757078681081548
 32
0.0
 13
30.098938266489569
 23
4.2757078681081548
 33
0.0
  0
SOLID
  5
F0EA
  8
0
  6
CONTINUOUS
 62
     7
 10
-29.802660054758078
 20
4.3177380330282062
 30
0.0
 11
-30.141312940958152
 21
4.3177380330282062
 31
0.0
 12
-30.098938266489569
 22
4.2757078681081548
 32
0.0
 13
-30.098938266489569
 23
4.2757078681081548
 33
0.0
210
0.0
220
0.0
230
-1.0
  0
SOLID
  5
F0EB
  8
0
  6
CONTINUOUS
 62
     7
 10
29.781472717523801
 20
4.2757078681081548
 30
0.0
 11
29.76028538028952
 21
4.2333331936395648
 31
0.0
 12
30.077750929255281
 22
4.2333331936395648
 32
0.0
 13
30.077750929255281
 23
4.2333331936395648
 33
0.0
  0
SOLID
  5
F0EC
  8
0
  6
CONTINUOUS
 62
     7
 10
-29.781472717523801
 20
4.2757078681081548
 30
0.0
 11
-30.098938266489569
 21
4.2757078681081548
 31
0.0
 12
-30.077750929255281
 22
4.2333331936395648
 32
0.0
 13
-30.077750929255281
 23
4.2333331936395648
 33
0.0
210
0.0
220
0.0
230
-1.0
  0
SOLID
  5
F0ED
  8
0
  6
CONTINUOUS
 62
     7
 10
29.76028538028952
 20
4.2333331936395648
 30
0.0
 11
29.746198664182391
 21
4.190958519171005
 31
0.0
 12
30.035548509560979
 22
4.190958519171005
 32
0.0
 13
30.035548509560979
 23
4.190958519171005
 33
0.0
  0
SOLID
  5
F0EE
  8
0
  6
CONTINUOUS
 62
     7
 10
-29.76028538028952
 20
4.2333331936395648
 30
0.0
 11
-30.077750929255281
 21
4.2333331936395648
 31
0.0
 12
-30.035548509560979
 22
4.190958519171005
 32
0.0
 13
-30.035548509560979
 23
4.190958519171005
 33
0.0
210
0.0
220
0.0
230
-1.0
  0
SOLID
  5
F0EF
  8
0
  6
CONTINUOUS
 62
     7
 10
29.746198664182391
 20
4.190958519171005
 30
0.0
 11
29.739098043055218
 21
4.1695989271624381
 31
0.0
 12
30.0248687135567
 22
4.1695989271624381
 32
0.0
 13
30.0248687135567
 23
4.1695989271624381
 33
0.0
  0
SOLID
  5
F0F0
  8
0
  6
CONTINUOUS
 62
     7
 10
-29.746198664182391
 20
4.190958519171005
 30
0.0
 11
-30.035548509560979
 21
4.190958519171005
 31
0.0
 12
-30.0248687135567
 22
4.1695989271624381
 32
0.0
 13
-30.0248687135567
 23
4.1695989271624381
 33
0.0
210
0.0
220
0.0
230
-1.0
  0
SOLID
  5
F0F1
  8
0
  6
CONTINUOUS
 62
     7
 10
29.739098043055218
 20
4.1695989271624381
 30
0.0
 11
29.732073980167769
 21
4.148583844702415
 31
0.0
 12
30.014361172326701
 22
4.148583844702415
 32
0.0
 13
30.014361172326701
 23
4.148583844702415
 33
0.0
  0
SOLID
  5
F0F2
  8
0
  6
CONTINUOUS
 62
     7
 10
-29.739098043055218
 20
4.1695989271624381
 30
0.0
 11
-30.0248687135567
 21
4.1695989271624381
 31
0.0
 12
-30.014361172326701
 22
4.148583844702415
 32
0.0
 13
-30.014361172326701
 23
4.148583844702415
 33
0.0
210
0.0
220
0.0
230
-1.0
  0
SOLID
  5
F0F3
  8
0
  6
CONTINUOUS
 62
     7
 10
29.732073980167769
 20
4.148583844702415
 30
0.0
 11
29.717910705820941
 21
4.1062091702338517
 31
0.0
 12
30.000197897979859
 22
4.1062091702338517
 32
0.0
 13
30.000197897979859
 23
4.1062091702338517
 33
0.0
  0
SOLID
  5
F0F4
  8
0
  6
CONTINUOUS
 62
     7
 10
-29.732073980167769
 20
4.148583844702415
 30
0.0
 11
-30.014361172326701
 21
4.148583844702415
 31
0.0
 12
-30.000197897979859
 22
4.1062091702338517
 32
0.0
 13
-30.000197897979859
 23
4.1062091702338517
 33
0.0
210
0.0
220
0.0
230
-1.0
  0
SOLID
  5
F0F5
  8
0
  6
CONTINUOUS
 62
     7
 10
29.717910705820941
 20
4.1062091702338517
 30
0.0
 11
29.710943749135819
 21
4.0851940877738269
 31
0.0
 12
29.993173835092399
 22
4.0851940877738269
 32
0.0
 13
29.993173835092399
 23
4.0851940877738269
 33
0.0
  0
SOLID
  5
F0F6
  8
0
  6
CONTINUOUS
 62
     7
 10
-29.717910705820941
 20
4.1062091702338517
 30
0.0
 11
-30.000197897979859
 21
4.1062091702338517
 31
0.0
 12
-29.993173835092399
 22
4.0851940877738269
 32
0.0
 13
-29.993173835092399
 23
4.0851940877738269
 33
0.0
210
0.0
220
0.0
230
-1.0
  0
SOLID
  5
F0F7
  8
0
  6
CONTINUOUS
 62
     7
 10
29.710943749135819
 20
4.0851940877738269
 30
0.0
 11
29.69689562336092
 21
4.0428194133052671
 31
0.0
 12
29.97908711898528
 22
4.0428194133052671
 32
0.0
 13
29.97908711898528
 23
4.0428194133052671
 33
0.0
  0
SOLID
  5
F0F8
  8
0
  6
CONTINUOUS
 62
     7
 10
-29.710943749135819
 20
4.0851940877738269
 30
0.0
 11
-29.993173835092399
 21
4.0851940877738269
 31
0.0
 12
-29.97908711898528
 22
4.0428194133052671
 32
0.0
 13
-29.97908711898528
 23
4.0428194133052671
 33
0.0
210
0.0
220
0.0
230
-1.0
  0
SOLID
  5
F0F9
  8
0
  6
CONTINUOUS
 62
     7
 10
29.69689562336092
 20
4.0428194133052671
 30
0.0
 11
29.689795002233751
 21
4.021459821296701
 31
0.0
 12
29.971986497858111
 22
4.021459821296701
 32
0.0
 13
29.971986497858111
 23
4.021459821296701
 33
0.0
  0
SOLID
  5
F0FA
  8
0
  6
CONTINUOUS
 62
     7
 10
-29.69689562336092
 20
4.0428194133052671
 30
0.0
 11
-29.97908711898528
 21
4.0428194133052671
 31
0.0
 12
-29.971986497858111
 22
4.021459821296701
 32
0.0
 13
-29.971986497858111
 23
4.021459821296701
 33
0.0
210
0.0
220
0.0
230
-1.0
  0
SOLID
  5
F0FB
  8
0
  6
CONTINUOUS
 62
     7
 10
29.689795002233751
 20
4.021459821296701
 30
0.0
 11
29.675708286126628
 21
3.979085146828139
 31
0.0
 12
29.971986497858111
 22
3.979085146828139
 32
0.0
 13
29.971986497858111
 23
3.979085146828139
 33
0.0
  0
SOLID
  5
F0FC
  8
0
  6
CONTINUOUS
 62
     7
 10
-29.689795002233751
 20
4.021459821296701
 30
0.0
 11
-29.971986497858111
 21
4.021459821296701
 31
0.0
 12
-29.971986497858111
 22
3.979085146828139
 32
0.0
 13
-29.971986497858111
 23
3.979085146828139
 33
0.0
210
0.0
220
0.0
230
-1.0
  0
SOLID
  5
F0FD
  8
0
  6
CONTINUOUS
 62
     7
 10
29.675708286126628
 20
3.979085146828139
 30
0.0
 11
29.675708286126628
 21
3.958070064368115
 31
0.0
 12
29.971986497858111
 22
3.958070064368115
 32
0.0
 13
29.971986497858111
 23
3.958070064368115
 33
0.0
  0
SOLID
  5
F0FE
  8
0
  6
CONTINUOUS
 62
     7
 10
-29.675708286126628
 20
3.979085146828139
 30
0.0
 11
-29.971986497858111
 21
3.979085146828139
 31
0.0
 12
-29.971986497858111
 22
3.958070064368115
 32
0.0
 13
-29.971986497858111
 23
3.958070064368115
 33
0.0
210
0.0
220
0.0
230
-1.0
  0
SOLID
  5
F0FF
  8
0
  6
CONTINUOUS
 62
     7
 10
29.675708286126628
 20
3.958070064368115
 30
0.0
 11
29.675708286126628
 21
3.915695389899525
 31
0.0
 12
29.95782322351128
 22
3.915695389899525
 32
0.0
 13
29.95782322351128
 23
3.915695389899525
 33
0.0
  0
SOLID
  5
F100
  8
0
  6
CONTINUOUS
 62
     7
 10
-29.675708286126628
 20
3.958070064368115
 30
0.0
 11
-29.971986497858111
 21
3.958070064368115
 31
0.0
 12
-29.95782322351128
 22
3.915695389899525
 32
0.0
 13
-29.95782322351128
 23
3.915695389899525
 33
0.0
210
0.0
220
0.0
230
-1.0
  0
SOLID
  5
F101
  8
0
  6
CONTINUOUS
 62
     7
 10
29.675708286126628
 20
3.915695389899525
 30
0.0
 11
29.668684223239179
 21
3.8946803074395002
 31
0.0
 12
29.950799160623831
 22
3.8946803074395002
 32
0.0
 13
29.950799160623831
 23
3.8946803074395002
 33
0.0
  0
SOLID
  5
F102
  8
0
  6
CONTINUOUS
 62
     7
 10
-29.675708286126628
 20
3.915695389899525
 30
0.0
 11
-29.95782322351128
 21
3.915695389899525
 31
0.0
 12
-29.950799160623831
 22
3.8946803074395002
 32
0.0
 13
-29.950799160623831
 23
3.8946803074395002
 33
0.0
210
0.0
220
0.0
230
-1.0
  0
SOLID
  5
F103
  8
0
  6
CONTINUOUS
 62
     7
 10
29.668684223239179
 20
3.8946803074395002
 30
0.0
 11
29.65452094889234
 21
3.8523056329709391
 31
0.0
 12
29.936712444516711
 22
3.8523056329709391
 32
0.0
 13
29.936712444516711
 23
3.8523056329709391
 33
0.0
  0
SOLID
  5
F104
  8
0
  6
CONTINUOUS
 62
     7
 10
-29.668684223239179
 20
3.8946803074395002
 30
0.0
 11
-29.950799160623831
 21
3.8946803074395002
 31
0.0
 12
-29.936712444516711
 22
3.8523056329709391
 32
0.0
 13
-29.936712444516711
 23
3.8523056329709391
 33
0.0
210
0.0
220
0.0
230
-1.0
  0
SOLID
  5
F105
  8
0
  6
CONTINUOUS
 62
     7
 10
29.65452094889234
 20
3.8523056329709391
 30
0.0
 11
29.64918105089021
 21
3.830946040962401
 31
0.0
 12
29.929611823389539
 22
3.830946040962401
 32
0.0
 13
29.929611823389539
 23
3.830946040962401
 33
0.0
  0
SOLID
  5
F106
  8
0
  6
CONTINUOUS
 62
     7
 10
-29.65452094889234
 20
3.8523056329709391
 30
0.0
 11
-29.936712444516711
 21
3.8523056329709391
 31
0.0
 12
-29.929611823389539
 22
3.830946040962401
 32
0.0
 13
-29.929611823389539
 23
3.830946040962401
 33
0.0
210
0.0
220
0.0
230
-1.0
  0
SOLID
  5
F107
  8
0
  6
CONTINUOUS
 62
     7
 10
29.64918105089021
 20
3.830946040962401
 30
0.0
 11
29.633333611658049
 21
3.7675562840337871
 31
0.0
 12
29.929611823389539
 22
3.7675562840337871
 32
0.0
 13
29.929611823389539
 23
3.7675562840337871
 33
0.0
  0
SOLID
  5
F108
  8
0
  6
CONTINUOUS
 62
     7
 10
-29.64918105089021
 20
3.830946040962401
 30
0.0
 11
-29.929611823389539
 21
3.830946040962401
 31
0.0
 12
-29.929611823389539
 22
3.7675562840337871
 32
0.0
 13
-29.929611823389539
 23
3.7675562840337871
 33
0.0
210
0.0
220
0.0
230
-1.0
  0
SOLID
  5
F109
  8
0
  6
CONTINUOUS
 62
     7
 10
29.633333611658049
 20
3.7675562840337871
 30
0.0
 11
29.633333611658049
 21
3.598057586159511
 31
0.0
 12
29.929611823389539
 22
3.598057586159511
 32
0.0
 13
29.929611823389539
 23
3.598057586159511
 33
0.0
  0
SOLID
  5
F10A
  8
0
  6
CONTINUOUS
 62
     7
 10
-29.633333611658049
 20
3.7675562840337871
 30
0.0
 11
-29.929611823389539
 21
3.7675562840337871
 31
0.0
 12
-29.929611823389539
 22
3.598057586159511
 32
0.0
 13
-29.929611823389539
 23
3.598057586159511
 33
0.0
210
0.0
220
0.0
230
-1.0
  0
SOLID
  5
F10B
  8
0
  6
CONTINUOUS
 62
     7
 10
29.633333611658049
 20
3.598057586159511
 30
0.0
 11
29.633333611658049
 21
3.5770425036994871
 31
0.0
 12
30.141312940958152
 22
3.5770425036994871
 32
0.0
 13
30.141312940958152
 23
3.5770425036994871
 33
0.0
  0
SOLID
  5
F10C
  8
0
  6
CONTINUOUS
 62
     7
 10
-29.633333611658049
 20
3.598057586159511
 30
0.0
 11
-29.929611823389539
 21
3.598057586159511
 31
0.0
 12
-30.141312940958152
 22
3.5770425036994871
 32
0.0
 13
-30.141312940958152
 23
3.5770425036994871
 33
0.0
210
0.0
220
0.0
230
-1.0
  0
SOLID
  5
F10D
  8
0
  6
CONTINUOUS
 62
     7
 10
29.633333611658049
 20
3.5770425036994871
 30
0.0
 11
29.633333611658049
 21
3.5560274212394631
 31
0.0
 12
30.098938266489569
 22
3.5560274212394631
 32
0.0
 13
30.098938266489569
 23
3.5560274212394631
 33
0.0
  0
SOLID
  5
F10E
  8
0
  6
CONTINUOUS
 62
     7
 10
-29.633333611658049
 20
3.5770425036994871
 30
0.0
 11
-30.141312940958152
 21
3.5770425036994871
 31
0.0
 12
-30.098938266489569
 22
3.5560274212394631
 32
0.0
 13
-30.098938266489569
 23
3.5560274212394631
 33
0.0
210
0.0
220
0.0
230
-1.0
  0
SOLID
  5
F10F
  8
0
  6
CONTINUOUS
 62
     7
 10
29.633333611658049
 20
3.5560274212394631
 30
0.0
 11
29.633333611658049
 21
3.5136527467708718
 31
0.0
 12
30.056563592021
 22
3.5136527467708718
 32
0.0
 13
30.056563592021
 23
3.5136527467708718
 33
0.0
  0
SOLID
  5
F110
  8
0
  6
CONTINUOUS
 62
     7
 10
-29.633333611658049
 20
3.5560274212394631
 30
0.0
 11
-30.098938266489569
 21
3.5560274212394631
 31
0.0
 12
-30.056563592021
 22
3.5136527467708718
 32
0.0
 13
-30.056563592021
 23
3.5136527467708718
 33
0.0
210
0.0
220
0.0
230
-1.0
  0
SOLID
  5
F111
  8
0
  6
CONTINUOUS
 62
     7
 10
29.633333611658049
 20
3.5136527467708718
 30
0.0
 11
29.633333611658049
 21
3.449918480293745
 31
0.0
 12
30.014361172326701
 22
3.449918480293745
 32
0.0
 13
30.014361172326701
 23
3.449918480293745
 33
0.0
  0
SOLID
  5
F112
  8
0
  6
CONTINUOUS
 62
     7
 10
-29.633333611658049
 20
3.5136527467708718
 30
0.0
 11
-30.056563592021
 21
3.5136527467708718
 31
0.0
 12
-30.014361172326701
 22
3.449918480293745
 32
0.0
 13
-30.014361172326701
 23
3.449918480293745
 33
0.0
210
0.0
220
0.0
230
-1.0
  0
SOLID
  5
F113
  8
0
  6
CONTINUOUS
 62
     7
 10
29.633333611658049
 20
3.449918480293745
 30
0.0
 11
29.633333611658049
 21
3.407543805825183
 31
0.0
 12
29.993173835092399
 22
3.407543805825183
 32
0.0
 13
29.993173835092399
 23
3.407543805825183
 33
0.0
  0
SOLID
  5
F114
  8
0
  6
CONTINUOUS
 62
     7
 10
-29.633333611658049
 20
3.449918480293745
 30
0.0
 11
-30.014361172326701
 21
3.449918480293745
 31
0.0
 12
-29.993173835092399
 22
3.407543805825183
 32
0.0
 13
-29.993173835092399
 23
3.407543805825183
 33
0.0
210
0.0
220
0.0
230
-1.0
  0
SOLID
  5
F115
  8
0
  6
CONTINUOUS
 62
     7
 10
29.633333611658049
 20
3.407543805825183
 30
0.0
 11
29.633333611658049
 21
3.344154048896598
 31
0.0
 12
29.971986497858111
 22
3.344154048896598
 32
0.0
 13
29.971986497858111
 23
3.344154048896598
 33
0.0
  0
SOLID
  5
F116
  8
0
  6
CONTINUOUS
 62
     7
 10
-29.633333611658049
 20
3.407543805825183
 30
0.0
 11
-29.993173835092399
 21
3.407543805825183
 31
0.0
 12
-29.971986497858111
 22
3.344154048896598
 32
0.0
 13
-29.971986497858111
 23
3.344154048896598
 33
0.0
210
0.0
220
0.0
230
-1.0
  0
SOLID
  5
F117
  8
0
  6
CONTINUOUS
 62
     7
 10
29.633333611658049
 20
3.344154048896598
 30
0.0
 11
29.633333611658049
 21
3.2807642919679831
 31
0.0
 12
29.950799160623831
 22
3.2807642919679831
 32
0.0
 13
29.950799160623831
 23
3.2807642919679831
 33
0.0
  0
SOLID
  5
F118
  8
0
  6
CONTINUOUS
 62
     7
 10
-29.633333611658049
 20
3.344154048896598
 30
0.0
 11
-29.971986497858111
 21
3.344154048896598
 31
0.0
 12
-29.950799160623831
 22
3.2807642919679831
 32
0.0
 13
-29.950799160623831
 23
3.2807642919679831
 33
0.0
210
0.0
220
0.0
230
-1.0
  0
SOLID
  5
F119
  8
0
  6
CONTINUOUS
 62
     7
 10
29.633333611658049
 20
3.2807642919679831
 30
0.0
 11
29.633333611658049
 21
3.1536402685622691
 31
0.0
 12
29.950799160623831
 22
3.1536402685622691
 32
0.0
 13
29.950799160623831
 23
3.1536402685622691
 33
0.0
  0
SOLID
  5
F11A
  8
0
  6
CONTINUOUS
 62
     7
 10
-29.633333611658049
 20
3.2807642919679831
 30
0.0
 11
-29.950799160623831
 21
3.2807642919679831
 31
0.0
 12
-29.950799160623831
 22
3.1536402685622691
 32
0.0
 13
-29.950799160623831
 23
3.1536402685622691
 33
0.0
210
0.0
220
0.0
230
-1.0
  0
SOLID
  5
F11B
  8
0
  6
CONTINUOUS
 62
     7
 10
29.633333611658049
 20
3.1536402685622691
 30
0.0
 11
29.65452094889234
 21
3.0902505116336831
 31
0.0
 12
29.950799160623831
 22
3.0902505116336831
 32
0.0
 13
29.950799160623831
 23
3.0902505116336831
 33
0.0
  0
SOLID
  5
F11C
  8
0
  6
CONTINUOUS
 62
     7
 10
-29.633333611658049
 20
3.1536402685622691
 30
0.0
 11
-29.950799160623831
 21
3.1536402685622691
 31
0.0
 12
-29.950799160623831
 22
3.0902505116336831
 32
0.0
 13
-29.950799160623831
 23
3.0902505116336831
 33
0.0
210
0.0
220
0.0
230
-1.0
  0
SOLID
  5
F11D
  8
0
  6
CONTINUOUS
 62
     7
 10
29.65452094889234
 20
3.0902505116336831
 30
0.0
 11
29.65452094889234
 21
3.005501162696532
 31
0.0
 12
29.971986497858111
 22
3.005501162696532
 32
0.0
 13
29.971986497858111
 23
3.005501162696532
 33
0.0
  0
SOLID
  5
F11E
  8
0
  6
CONTINUOUS
 62
     7
 10
-29.65452094889234
 20
3.0902505116336831
 30
0.0
 11
-29.950799160623831
 21
3.0902505116336831
 31
0.0
 12
-29.971986497858111
 22
3.005501162696532
 32
0.0
 13
-29.971986497858111
 23
3.005501162696532
 33
0.0
210
0.0
220
0.0
230
-1.0
  0
SOLID
  5
F11F
  8
0
  6
CONTINUOUS
 62
     7
 10
29.65452094889234
 20
3.005501162696532
 30
0.0
 11
29.675708286126628
 21
2.9421114057679461
 31
0.0
 12
29.971986497858111
 22
2.9421114057679461
 32
0.0
 13
29.971986497858111
 23
2.9421114057679461
 33
0.0
  0
SOLID
  5
F120
  8
0
  6
CONTINUOUS
 62
     7
 10
-29.65452094889234
 20
3.005501162696532
 30
0.0
 11
-29.971986497858111
 21
3.005501162696532
 31
0.0
 12
-29.971986497858111
 22
2.9421114057679461
 32
0.0
 13
-29.971986497858111
 23
2.9421114057679461
 33
0.0
210
0.0
220
0.0
230
-1.0
  0
SOLID
  5
F121
  8
0
  6
CONTINUOUS
 62
     7
 10
29.675708286126628
 20
2.9421114057679461
 30
0.0
 11
29.69689562336092
 21
2.878377139290818
 31
0.0
 12
29.993173835092399
 22
2.878377139290818
 32
0.0
 13
29.993173835092399
 23
2.878377139290818
 33
0.0
  0
SOLID
  5
F122
  8
0
  6
CONTINUOUS
 62
     7
 10
-29.675708286126628
 20
2.9421114057679461
 30
0.0
 11
-29.971986497858111
 21
2.9421114057679461
 31
0.0
 12
-29.993173835092399
 22
2.878377139290818
 32
0.0
 13
-29.993173835092399
 23
2.878377139290818
 33
0.0
210
0.0
220
0.0
230
-1.0
  0
SOLID
  5
F123
  8
0
  6
CONTINUOUS
 62
     7
 10
29.69689562336092
 20
2.878377139290818
 30
0.0
 11
29.69689562336092
 21
2.8363469743707679
 31
0.0
 12
30.007221960867302
 22
2.8363469743707679
 32
0.0
 13
30.007221960867302
 23
2.8363469743707679
 33
0.0
  0
SOLID
  5
F124
  8
0
  6
CONTINUOUS
 62
     7
 10
-29.69689562336092
 20
2.878377139290818
 30
0.0
 11
-29.993173835092399
 21
2.878377139290818
 31
0.0
 12
-30.007221960867302
 22
2.8363469743707679
 32
0.0
 13
-30.007221960867302
 23
2.8363469743707679
 33
0.0
210
0.0
220
0.0
230
-1.0
  0
SOLID
  5
F125
  8
0
  6
CONTINUOUS
 62
     7
 10
29.69689562336092
 20
2.8363469743707679
 30
0.0
 11
29.70393851586104
 21
2.8149873823622031
 31
0.0
 12
30.014361172326701
 22
2.8149873823622031
 32
0.0
 13
30.014361172326701
 23
2.8149873823622031
 33
0.0
  0
SOLID
  5
F126
  8
0
  6
CONTINUOUS
 62
     7
 10
-29.69689562336092
 20
2.8363469743707679
 30
0.0
 11
-30.007221960867302
 21
2.8363469743707679
 31
0.0
 12
-30.014361172326701
 22
2.8149873823622031
 32
0.0
 13
-30.014361172326701
 23
2.8149873823622031
 33
0.0
210
0.0
220
0.0
230
-1.0
  0
SOLID
  5
F127
  8
0
  6
CONTINUOUS
 62
     7
 10
29.70393851586104
 20
2.8149873823622031
 30
0.0
 11
29.717910705820941
 21
2.772612707893642
 31
0.0
 12
30.035548509560979
 22
2.772612707893642
 32
0.0
 13
30.035548509560979
 23
2.772612707893642
 33
0.0
  0
SOLID
  5
F128
  8
0
  6
CONTINUOUS
 62
     7
 10
-29.70393851586104
 20
2.8149873823622031
 30
0.0
 11
-30.014361172326701
 21
2.8149873823622031
 31
0.0
 12
-30.035548509560979
 22
2.772612707893642
 32
0.0
 13
-30.035548509560979
 23
2.772612707893642
 33
0.0
210
0.0
220
0.0
230
-1.0
  0
SOLID
  5
F129
  8
0
  6
CONTINUOUS
 62
     7
 10
29.717910705820941
 20
2.772612707893642
 30
0.0
 11
29.739098043055218
 21
2.73023803342508
 31
0.0
 12
30.077750929255281
 22
2.73023803342508
 32
0.0
 13
30.077750929255281
 23
2.73023803342508
 33
0.0
  0
SOLID
  5
F12A
  8
0
  6
CONTINUOUS
 62
     7
 10
-29.717910705820941
 20
2.772612707893642
 30
0.0
 11
-30.035548509560979
 21
2.772612707893642
 31
0.0
 12
-30.077750929255281
 22
2.73023803342508
 32
0.0
 13
-30.077750929255281
 23
2.73023803342508
 33
0.0
210
0.0
220
0.0
230
-1.0
  0
SOLID
  5
F12B
  8
0
  6
CONTINUOUS
 62
     7
 10
29.739098043055218
 20
2.73023803342508
 30
0.0
 11
29.76719429460503
 21
2.6882078685050299
 31
0.0
 12
30.098938266489569
 22
2.6882078685050299
 32
0.0
 13
30.098938266489569
 23
2.6882078685050299
 33
0.0
  0
SOLID
  5
F12C
  8
0
  6
CONTINUOUS
 62
     7
 10
-29.739098043055218
 20
2.73023803342508
 30
0.0
 11
-30.077750929255281
 21
2.73023803342508
 31
0.0
 12
-30.098938266489569
 22
2.6882078685050299
 32
0.0
 13
-30.098938266489569
 23
2.6882078685050299
 33
0.0
210
0.0
220
0.0
230
-1.0
  0
SOLID
  5
F12D
  8
0
  6
CONTINUOUS
 62
     7
 10
29.76719429460503
 20
2.6882078685050299
 30
0.0
 11
29.781472717523801
 21
2.6668482764964661
 31
0.0
 12
30.130977654502409
 22
2.6668482764964661
 32
0.0
 13
30.130977654502409
 23
2.6668482764964661
 33
0.0
  0
SOLID
  5
F12E
  8
0
  6
CONTINUOUS
 62
     7
 10
-29.76719429460503
 20
2.6882078685050299
 30
0.0
 11
-30.098938266489569
 21
2.6882078685050299
 31
0.0
 12
-30.130977654502409
 22
2.6668482764964661
 32
0.0
 13
-30.130977654502409
 23
2.6668482764964661
 33
0.0
210
0.0
220
0.0
230
-1.0
  0
SOLID
  5
F12F
  8
0
  6
CONTINUOUS
 62
     7
 10
29.781472717523801
 20
2.6668482764964661
 30
0.0
 11
29.791980258753821
 21
2.6458331940364399
 31
0.0
 12
30.162500278192429
 22
2.6458331940364399
 32
0.0
 13
30.162500278192429
 23
2.6458331940364399
 33
0.0
  0
SOLID
  5
F130
  8
0
  6
CONTINUOUS
 62
     7
 10
-29.781472717523801
 20
2.6668482764964661
 30
0.0
 11
-30.130977654502409
 21
2.6668482764964661
 31
0.0
 12
-30.162500278192429
 22
2.6458331940364399
 32
0.0
 13
-30.162500278192429
 23
2.6458331940364399
 33
0.0
210
0.0
220
0.0
230
-1.0
  0
SOLID
  5
F131
  8
0
  6
CONTINUOUS
 62
     7
 10
29.791980258753821
 20
2.6458331940364399
 30
0.0
 11
29.802660054758078
 21
2.624473602027904
 31
0.0
 12
30.194539666205241
 22
2.624473602027904
 32
0.0
 13
30.194539666205241
 23
2.624473602027904
 33
0.0
  0
SOLID
  5
F132
  8
0
  6
CONTINUOUS
 62
     7
 10
-29.791980258753821
 20
2.6458331940364399
 30
0.0
 11
-30.162500278192429
 21
2.6458331940364399
 31
0.0
 12
-30.194539666205241
 22
2.624473602027904
 32
0.0
 13
-30.194539666205241
 23
2.624473602027904
 33
0.0
210
0.0
220
0.0
230
-1.0
  0
SOLID
  5
F133
  8
0
  6
CONTINUOUS
 62
     7
 10
-29.813167595988109
 20
2.6034585195678801
 30
0.0
 11
-30.31063938405817
 21
2.6034585195678801
 31
0.0
 12
-29.823847391992381
 22
2.582098927559314
 32
0.0
 13
-29.823847391992381
 23
2.582098927559314
 33
0.0
210
0.0
220
0.0
230
-1.0
  0
SOLID
  5
F134
  8
0
  6
CONTINUOUS
 62
     7
 10
29.802660054758078
 20
2.624473602027904
 30
0.0
 11
29.813167595988109
 21
2.6034585195678801
 31
0.0
 12
30.226062289895289
 22
2.6034585195678801
 32
0.0
 13
30.226062289895289
 23
2.6034585195678801
 33
0.0
  0
SOLID
  5
F135
  8
0
  6
CONTINUOUS
 62
     7
 10
-29.802660054758078
 20
2.624473602027904
 30
0.0
 11
-30.194539666205241
 21
2.624473602027904
 31
0.0
 12
-30.226062289895289
 22
2.6034585195678801
 32
0.0
 13
-30.226062289895289
 23
2.6034585195678801
 33
0.0
210
0.0
220
0.0
230
-1.0
  0
LINE
  5
F136
  8
0
  6
CONTINUOUS
 62
     7
 10
29.866222066460939
 20
4.4238469739738928
 30
0.0
 11
29.85554227045666
 21
4.4024873819653294
 31
0.0
  0
LINE
  5
F137
  8
0
  6
CONTINUOUS
 62
     7
 10
30.331826721292469
 20
4.4024873819653294
 30
0.0
 11
29.866222066460939
 21
4.4238469739738928
 31
0.0
  0
LINE
  5
F138
  8
0
  6
CONTINUOUS
 62
     7
 10
29.85554227045666
 20
4.4024873819653294
 30
0.0
 11
29.845034729226661
 21
4.3814722995053028
 31
0.0
  0
LINE
  5
F139
  8
0
  6
CONTINUOUS
 62
     7
 10
30.268264709589602
 20
4.4024873819653294
 30
0.0
 11
30.204874952661001
 21
4.3814722995053028
 31
0.0
  0
LINE
  5
F13A
  8
0
  6
CONTINUOUS
 62
     7
 10
29.845034729226661
 20
4.3814722995053028
 30
0.0
 11
29.816861297012409
 21
4.339097625036743
 31
0.0
  0
LINE
  5
F13B
  8
0
  6
CONTINUOUS
 62
     7
 10
30.204874952661001
 20
4.3814722995053028
 30
0.0
 11
30.141312940958152
 21
4.339097625036743
 31
0.0
  0
LINE
  5
F13C
  8
0
  6
CONTINUOUS
 62
     7
 10
29.816861297012409
 20
4.339097625036743
 30
0.0
 11
29.802660054758078
 21
4.3177380330282062
 31
0.0
  0
LINE
  5
F13D
  8
0
  6
CONTINUOUS
 62
     7
 10
30.141312940958152
 20
4.339097625036743
 30
0.0
 11
30.141312940958152
 21
4.3177380330282062
 31
0.0
  0
LINE
  5
F13E
  8
0
  6
CONTINUOUS
 62
     7
 10
29.802660054758078
 20
4.3177380330282062
 30
0.0
 11
29.781472717523801
 21
4.2757078681081548
 31
0.0
  0
LINE
  5
F13F
  8
0
  6
CONTINUOUS
 62
     7
 10
30.141312940958152
 20
4.3177380330282062
 30
0.0
 11
30.098938266489569
 21
4.2757078681081548
 31
0.0
  0
LINE
  5
F140
  8
0
  6
CONTINUOUS
 62
     7
 10
29.781472717523801
 20
4.2757078681081548
 30
0.0
 11
29.76028538028952
 21
4.2333331936395648
 31
0.0
  0
LINE
  5
F141
  8
0
  6
CONTINUOUS
 62
     7
 10
30.098938266489569
 20
4.2757078681081548
 30
0.0
 11
30.077750929255281
 21
4.2333331936395648
 31
0.0
  0
LINE
  5
F142
  8
0
  6
CONTINUOUS
 62
     7
 10
29.76028538028952
 20
4.2333331936395648
 30
0.0
 11
29.746198664182391
 21
4.190958519171005
 31
0.0
  0
LINE
  5
F143
  8
0
  6
CONTINUOUS
 62
     7
 10
30.077750929255281
 20
4.2333331936395648
 30
0.0
 11
30.035548509560979
 21
4.190958519171005
 31
0.0
  0
LINE
  5
F144
  8
0
  6
CONTINUOUS
 62
     7
 10
29.746198664182391
 20
4.190958519171005
 30
0.0
 11
29.739098043055218
 21
4.1695989271624381
 31
0.0
  0
LINE
  5
F145
  8
0
  6
CONTINUOUS
 62
     7
 10
30.035548509560979
 20
4.190958519171005
 30
0.0
 11
30.0248687135567
 21
4.1695989271624381
 31
0.0
  0
LINE
  5
F146
  8
0
  6
CONTINUOUS
 62
     7
 10
29.739098043055218
 20
4.1695989271624381
 30
0.0
 11
29.732073980167769
 21
4.148583844702415
 31
0.0
  0
LINE
  5
F147
  8
0
  6
CONTINUOUS
 62
     7
 10
30.0248687135567
 20
4.1695989271624381
 30
0.0
 11
30.014361172326701
 21
4.148583844702415
 31
0.0
  0
LINE
  5
F148
  8
0
  6
CONTINUOUS
 62
     7
 10
29.732073980167769
 20
4.148583844702415
 30
0.0
 11
29.717910705820941
 21
4.1062091702338517
 31
0.0
  0
LINE
  5
F149
  8
0
  6
CONTINUOUS
 62
     7
 10
30.014361172326701
 20
4.148583844702415
 30
0.0
 11
30.000197897979859
 21
4.1062091702338517
 31
0.0
  0
LINE
  5
F14A
  8
0
  6
CONTINUOUS
 62
     7
 10
29.717910705820941
 20
4.1062091702338517
 30
0.0
 11
29.710943749135819
 21
4.0851940877738269
 31
0.0
  0
LINE
  5
F14B
  8
0
  6
CONTINUOUS
 62
     7
 10
30.000197897979859
 20
4.1062091702338517
 30
0.0
 11
29.993173835092399
 21
4.0851940877738269
 31
0.0
  0
LINE
  5
F14C
  8
0
  6
CONTINUOUS
 62
     7
 10
29.710943749135819
 20
4.0851940877738269
 30
0.0
 11
29.69689562336092
 21
4.0428194133052671
 31
0.0
  0
LINE
  5
F14D
  8
0
  6
CONTINUOUS
 62
     7
 10
29.993173835092399
 20
4.0851940877738269
 30
0.0
 11
29.97908711898528
 21
4.0428194133052671
 31
0.0
  0
LINE
  5
F14E
  8
0
  6
CONTINUOUS
 62
     7
 10
29.69689562336092
 20
4.0428194133052671
 30
0.0
 11
29.689795002233751
 21
4.021459821296701
 31
0.0
  0
LINE
  5
F14F
  8
0
  6
CONTINUOUS
 62
     7
 10
29.97908711898528
 20
4.0428194133052671
 30
0.0
 11
29.971986497858111
 21
4.021459821296701
 31
0.0
  0
LINE
  5
F150
  8
0
  6
CONTINUOUS
 62
     7
 10
29.689795002233751
 20
4.021459821296701
 30
0.0
 11
29.675708286126628
 21
3.979085146828139
 31
0.0
  0
LINE
  5
F151
  8
0
  6
CONTINUOUS
 62
     7
 10
29.971986497858111
 20
4.021459821296701
 30
0.0
 11
29.971986497858111
 21
3.979085146828139
 31
0.0
  0
LINE
  5
F152
  8
0
  6
CONTINUOUS
 62
     7
 10
29.675708286126628
 20
3.979085146828139
 30
0.0
 11
29.675708286126628
 21
3.958070064368115
 31
0.0
  0
LINE
  5
F153
  8
0
  6
CONTINUOUS
 62
     7
 10
29.971986497858111
 20
3.979085146828139
 30
0.0
 11
29.971986497858111
 21
3.958070064368115
 31
0.0
  0
LINE
  5
F154
  8
0
  6
CONTINUOUS
 62
     7
 10
29.675708286126628
 20
3.958070064368115
 30
0.0
 11
29.675708286126628
 21
3.915695389899525
 31
0.0
  0
LINE
  5
F155
  8
0
  6
CONTINUOUS
 62
     7
 10
29.971986497858111
 20
3.958070064368115
 30
0.0
 11
29.95782322351128
 21
3.915695389899525
 31
0.0
  0
LINE
  5
F156
  8
0
  6
CONTINUOUS
 62
     7
 10
29.675708286126628
 20
3.915695389899525
 30
0.0
 11
29.668684223239179
 21
3.8946803074395002
 31
0.0
  0
LINE
  5
F157
  8
0
  6
CONTINUOUS
 62
     7
 10
29.95782322351128
 20
3.915695389899525
 30
0.0
 11
29.950799160623831
 21
3.8946803074395002
 31
0.0
  0
LINE
  5
F158
  8
0
  6
CONTINUOUS
 62
     7
 10
29.668684223239179
 20
3.8946803074395002
 30
0.0
 11
29.65452094889234
 21
3.8523056329709391
 31
0.0
  0
LINE
  5
F159
  8
0
  6
CONTINUOUS
 62
     7
 10
29.950799160623831
 20
3.8946803074395002
 30
0.0
 11
29.936712444516711
 21
3.8523056329709391
 31
0.0
  0
LINE
  5
F15A
  8
0
  6
CONTINUOUS
 62
     7
 10
29.65452094889234
 20
3.8523056329709391
 30
0.0
 11
29.64918105089021
 21
3.830946040962401
 31
0.0
  0
LINE
  5
F15B
  8
0
  6
CONTINUOUS
 62
     7
 10
29.936712444516711
 20
3.8523056329709391
 30
0.0
 11
29.929611823389539
 21
3.830946040962401
 31
0.0
  0
LINE
  5
F15C
  8
0
  6
CONTINUOUS
 62
     7
 10
29.64918105089021
 20
3.830946040962401
 30
0.0
 11
29.633333611658049
 21
3.7675562840337871
 31
0.0
  0
LINE
  5
F15D
  8
0
  6
CONTINUOUS
 62
     7
 10
29.929611823389539
 20
3.830946040962401
 30
0.0
 11
29.929611823389539
 21
3.7675562840337871
 31
0.0
  0
LINE
  5
F15E
  8
0
  6
CONTINUOUS
 62
     7
 10
29.633333611658049
 20
3.7675562840337871
 30
0.0
 11
29.633333611658049
 21
3.598057586159511
 31
0.0
  0
LINE
  5
F15F
  8
0
  6
CONTINUOUS
 62
     7
 10
29.929611823389539
 20
3.7675562840337871
 30
0.0
 11
29.929611823389539
 21
3.598057586159511
 31
0.0
  0
LINE
  5
F160
  8
0
  6
CONTINUOUS
 62
     7
 10
29.633333611658049
 20
3.598057586159511
 30
0.0
 11
29.633333611658049
 21
3.5770425036994871
 31
0.0
  0
LINE
  5
F161
  8
0
  6
CONTINUOUS
 62
     7
 10
29.929611823389539
 20
3.598057586159511
 30
0.0
 11
30.141312940958152
 21
3.5770425036994871
 31
0.0
  0
LINE
  5
F162
  8
0
  6
CONTINUOUS
 62
     7
 10
29.633333611658049
 20
3.5770425036994871
 30
0.0
 11
29.633333611658049
 21
3.5560274212394631
 31
0.0
  0
LINE
  5
F163
  8
0
  6
CONTINUOUS
 62
     7
 10
30.141312940958152
 20
3.5770425036994871
 30
0.0
 11
30.098938266489569
 21
3.5560274212394631
 31
0.0
  0
LINE
  5
F164
  8
0
  6
CONTINUOUS
 62
     7
 10
29.633333611658049
 20
3.5560274212394631
 30
0.0
 11
29.633333611658049
 21
3.5136527467708718
 31
0.0
  0
LINE
  5
F165
  8
0
  6
CONTINUOUS
 62
     7
 10
30.098938266489569
 20
3.5560274212394631
 30
0.0
 11
30.056563592021
 21
3.5136527467708718
 31
0.0
  0
LINE
  5
F166
  8
0
  6
CONTINUOUS
 62
     7
 10
29.633333611658049
 20
3.5136527467708718
 30
0.0
 11
29.633333611658049
 21
3.449918480293745
 31
0.0
  0
LINE
  5
F167
  8
0
  6
CONTINUOUS
 62
     7
 10
30.056563592021
 20
3.5136527467708718
 30
0.0
 11
30.014361172326701
 21
3.449918480293745
 31
0.0
  0
LINE
  5
F168
  8
0
  6
CONTINUOUS
 62
     7
 10
29.633333611658049
 20
3.449918480293745
 30
0.0
 11
29.633333611658049
 21
3.407543805825183
 31
0.0
  0
LINE
  5
F169
  8
0
  6
CONTINUOUS
 62
     7
 10
30.014361172326701
 20
3.449918480293745
 30
0.0
 11
29.993173835092399
 21
3.407543805825183
 31
0.0
  0
LINE
  5
F16A
  8
0
  6
CONTINUOUS
 62
     7
 10
29.633333611658049
 20
3.407543805825183
 30
0.0
 11
29.633333611658049
 21
3.344154048896598
 31
0.0
  0
LINE
  5
F16B
  8
0
  6
CONTINUOUS
 62
     7
 10
29.993173835092399
 20
3.407543805825183
 30
0.0
 11
29.971986497858111
 21
3.344154048896598
 31
0.0
  0
LINE
  5
F16C
  8
0
  6
CONTINUOUS
 62
     7
 10
29.633333611658049
 20
3.344154048896598
 30
0.0
 11
29.633333611658049
 21
3.2807642919679831
 31
0.0
  0
LINE
  5
F16D
  8
0
  6
CONTINUOUS
 62
     7
 10
29.971986497858111
 20
3.344154048896598
 30
0.0
 11
29.950799160623831
 21
3.2807642919679831
 31
0.0
  0
LINE
  5
F16E
  8
0
  6
CONTINUOUS
 62
     7
 10
29.633333611658049
 20
3.2807642919679831
 30
0.0
 11
29.633333611658049
 21
3.1536402685622691
 31
0.0
  0
LINE
  5
F16F
  8
0
  6
CONTINUOUS
 62
     7
 10
29.950799160623831
 20
3.2807642919679831
 30
0.0
 11
29.950799160623831
 21
3.1536402685622691
 31
0.0
  0
LINE
  5
F170
  8
0
  6
CONTINUOUS
 62
     7
 10
29.633333611658049
 20
3.1536402685622691
 30
0.0
 11
29.65452094889234
 21
3.0902505116336831
 31
0.0
  0
LINE
  5
F171
  8
0
  6
CONTINUOUS
 62
     7
 10
29.950799160623831
 20
3.1536402685622691
 30
0.0
 11
29.950799160623831
 21
3.0902505116336831
 31
0.0
  0
LINE
  5
F172
  8
0
  6
CONTINUOUS
 62
     7
 10
29.65452094889234
 20
3.0902505116336831
 30
0.0
 11
29.65452094889234
 21
3.005501162696532
 31
0.0
  0
LINE
  5
F173
  8
0
  6
CONTINUOUS
 62
     7
 10
29.950799160623831
 20
3.0902505116336831
 30
0.0
 11
29.971986497858111
 21
3.005501162696532
 31
0.0
  0
LINE
  5
F174
  8
0
  6
CONTINUOUS
 62
     7
 10
29.65452094889234
 20
3.005501162696532
 30
0.0
 11
29.675708286126628
 21
2.9421114057679461
 31
0.0
  0
LINE
  5
F175
  8
0
  6
CONTINUOUS
 62
     7
 10
29.971986497858111
 20
3.005501162696532
 30
0.0
 11
29.971986497858111
 21
2.9421114057679461
 31
0.0
  0
LINE
  5
F176
  8
0
  6
CONTINUOUS
 62
     7
 10
29.675708286126628
 20
2.9421114057679461
 30
0.0
 11
29.69689562336092
 21
2.878377139290818
 31
0.0
  0
LINE
  5
F177
  8
0
  6
CONTINUOUS
 62
     7
 10
29.971986497858111
 20
2.9421114057679461
 30
0.0
 11
29.993173835092399
 21
2.878377139290818
 31
0.0
  0
LINE
  5
F178
  8
0
  6
CONTINUOUS
 62
     7
 10
29.69689562336092
 20
2.878377139290818
 30
0.0
 11
29.69689562336092
 21
2.8363469743707679
 31
0.0
  0
LINE
  5
F179
  8
0
  6
CONTINUOUS
 62
     7
 10
29.993173835092399
 20
2.878377139290818
 30
0.0
 11
30.007221960867302
 21
2.8363469743707679
 31
0.0
  0
LINE
  5
F17A
  8
0
  6
CONTINUOUS
 62
     7
 10
29.69689562336092
 20
2.8363469743707679
 30
0.0
 11
29.70393851586104
 21
2.8149873823622031
 31
0.0
  0
LINE
  5
F17B
  8
0
  6
CONTINUOUS
 62
     7
 10
30.007221960867302
 20
2.8363469743707679
 30
0.0
 11
30.014361172326701
 21
2.8149873823622031
 31
0.0
  0
LINE
  5
F17C
  8
0
  6
CONTINUOUS
 62
     7
 10
29.70393851586104
 20
2.8149873823622031
 30
0.0
 11
29.717910705820941
 21
2.772612707893642
 31
0.0
  0
LINE
  5
F17D
  8
0
  6
CONTINUOUS
 62
     7
 10
30.014361172326701
 20
2.8149873823622031
 30
0.0
 11
30.035548509560979
 21
2.772612707893642
 31
0.0
  0
LINE
  5
F17E
  8
0
  6
CONTINUOUS
 62
     7
 10
29.717910705820941
 20
2.772612707893642
 30
0.0
 11
29.739098043055218
 21
2.73023803342508
 31
0.0
  0
LINE
  5
F17F
  8
0
  6
CONTINUOUS
 62
     7
 10
30.035548509560979
 20
2.772612707893642
 30
0.0
 11
30.077750929255281
 21
2.73023803342508
 31
0.0
  0
LINE
  5
F180
  8
0
  6
CONTINUOUS
 62
     7
 10
29.739098043055218
 20
2.73023803342508
 30
0.0
 11
29.76719429460503
 21
2.6882078685050299
 31
0.0
  0
LINE
  5
F181
  8
0
  6
CONTINUOUS
 62
     7
 10
30.077750929255281
 20
2.73023803342508
 30
0.0
 11
30.098938266489569
 21
2.6882078685050299
 31
0.0
  0
LINE
  5
F182
  8
0
  6
CONTINUOUS
 62
     7
 10
29.76719429460503
 20
2.6882078685050299
 30
0.0
 11
29.781472717523801
 21
2.6668482764964661
 31
0.0
  0
LINE
  5
F183
  8
0
  6
CONTINUOUS
 62
     7
 10
30.098938266489569
 20
2.6882078685050299
 30
0.0
 11
30.130977654502409
 21
2.6668482764964661
 31
0.0
  0
LINE
  5
F184
  8
0
  6
CONTINUOUS
 62
     7
 10
29.781472717523801
 20
2.6668482764964661
 30
0.0
 11
29.791980258753821
 21
2.6458331940364399
 31
0.0
  0
LINE
  5
F185
  8
0
  6
CONTINUOUS
 62
     7
 10
30.130977654502409
 20
2.6668482764964661
 30
0.0
 11
30.162500278192429
 21
2.6458331940364399
 31
0.0
  0
LINE
  5
F186
  8
0
  6
CONTINUOUS
 62
     7
 10
29.791980258753821
 20
2.6458331940364399
 30
0.0
 11
29.802660054758078
 21
2.624473602027904
 31
0.0
  0
LINE
  5
F187
  8
0
  6
CONTINUOUS
 62
     7
 10
30.162500278192429
 20
2.6458331940364399
 30
0.0
 11
30.194539666205241
 21
2.624473602027904
 31
0.0
  0
LINE
  5
F188
  8
0
  6
CONTINUOUS
 62
     7
 10
30.31063938405817
 20
2.6034585195678801
 30
0.0
 11
29.823847391992381
 21
2.582098927559314
 31
0.0
  0
LINE
  5
F189
  8
0
  6
CONTINUOUS
 62
     7
 10
29.823847391992381
 20
2.582098927559314
 30
0.0
 11
29.813167595988109
 21
2.6034585195678801
 31
0.0
  0
LINE
  5
F18A
  8
0
  6
CONTINUOUS
 62
     7
 10
29.802660054758078
 20
2.624473602027904
 30
0.0
 11
29.813167595988109
 21
2.6034585195678801
 31
0.0
  0
LINE
  5
F18B
  8
0
  6
CONTINUOUS
 62
     7
 10
30.194539666205241
 20
2.624473602027904
 30
0.0
 11
30.226062289895289
 21
2.6034585195678801
 31
0.0
  0
ENDBLK
  5
F18D
  8
0
  0
BLOCK
  8
0
  2
*U13
 70
     1
 10
0.0
 20
0.0
 30
0.0
  3
*U13
  1

  0
SOLID
  5
F18F
  8
0
  6
CONTINUOUS
 62
     7
 10
30.289452046823889
 20
4.6563909192282411
 30
0.0
 11
30.226062289895289
 21
4.6353758367682172
 31
0.0
 12
30.395388732995318
 22
4.6353758367682172
 32
0.0
 13
30.395388732995318
 23
4.6353758367682172
 33
0.0
  0
SOLID
  5
F190
  8
0
  6
CONTINUOUS
 62
     7
 10
-30.289452046823889
 20
4.6563909192282411
 30
0.0
 11
-30.331826721292469
 21
4.6563909192282411
 31
0.0
 12
-30.395388732995318
 22
4.6353758367682172
 32
0.0
 13
-30.395388732995318
 23
4.6353758367682172
 33
0.0
210
0.0
220
0.0
230
-1.0
  0
SOLID
  5
F191
  8
0
  6
CONTINUOUS
 62
     7
 10
30.226062289895289
 20
4.6353758367682172
 30
0.0
 11
30.162500278192429
 21
4.6143607543081933
 31
0.0
 12
30.522340501626768
 22
4.6143607543081933
 32
0.0
 13
30.522340501626768
 23
4.6143607543081933
 33
0.0
  0
SOLID
  5
F192
  8
0
  6
CONTINUOUS
 62
     7
 10
-30.226062289895289
 20
4.6353758367682172
 30
0.0
 11
-30.458778489923919
 21
4.6353758367682172
 31
0.0
 12
-30.522340501626768
 22
4.6143607543081933
 32
0.0
 13
-30.522340501626768
 23
4.6143607543081933
 33
0.0
210
0.0
220
0.0
230
-1.0
  0
SOLID
  5
F193
  8
0
  6
CONTINUOUS
 62
     7
 10
30.162500278192429
 20
4.6143607543081933
 30
0.0
 11
30.098938266489569
 21
4.5930011622996574
 31
0.0
 12
30.585730258555369
 22
4.5930011622996574
 32
0.0
 13
30.585730258555369
 23
4.5930011622996574
 33
0.0
  0
SOLID
  5
F194
  8
0
  6
CONTINUOUS
 62
     7
 10
-30.162500278192429
 20
4.6143607543081933
 30
0.0
 11
-30.522340501626768
 21
4.6143607543081933
 31
0.0
 12
-30.585730258555369
 22
4.5930011622996574
 32
0.0
 13
-30.585730258555369
 23
4.5930011622996574
 33
0.0
210
0.0
220
0.0
230
-1.0
  0
SOLID
  5
F195
  8
0
  6
CONTINUOUS
 62
     7
 10
30.098938266489569
 20
4.5930011622996574
 30
0.0
 11
30.035548509560979
 21
4.5719860798396308
 31
0.0
 12
30.649292270258229
 22
4.5719860798396308
 32
0.0
 13
30.649292270258229
 23
4.5719860798396308
 33
0.0
  0
SOLID
  5
F196
  8
0
  6
CONTINUOUS
 62
     7
 10
-30.098938266489569
 20
4.5930011622996574
 30
0.0
 11
-30.585730258555369
 21
4.5930011622996574
 31
0.0
 12
-30.649292270258229
 22
4.5719860798396308
 32
0.0
 13
-30.649292270258229
 23
4.5719860798396308
 33
0.0
210
0.0
220
0.0
230
-1.0
  0
SOLID
  5
F197
  8
0
  6
CONTINUOUS
 62
     7
 10
30.035548509560979
 20
4.5719860798396308
 30
0.0
 11
29.993173835092399
 21
4.5296114053710701
 31
0.0
 12
30.691666944726808
 22
4.5296114053710701
 32
0.0
 13
30.691666944726808
 23
4.5296114053710701
 33
0.0
  0
SOLID
  5
F198
  8
0
  6
CONTINUOUS
 62
     7
 10
-30.035548509560979
 20
4.5719860798396308
 30
0.0
 11
-30.649292270258229
 21
4.5719860798396308
 31
0.0
 12
-30.691666944726808
 22
4.5296114053710701
 32
0.0
 13
-30.691666944726808
 23
4.5296114053710701
 33
0.0
210
0.0
220
0.0
230
-1.0
  0
SOLID
  5
F199
  8
0
  6
CONTINUOUS
 62
     7
 10
29.993173835092399
 20
4.5296114053710701
 30
0.0
 11
29.929611823389539
 21
4.4872367309024801
 31
0.0
 12
30.734041619195381
 22
4.4872367309024801
 32
0.0
 13
30.734041619195381
 23
4.4872367309024801
 33
0.0
  0
SOLID
  5
F19A
  8
0
  6
CONTINUOUS
 62
     7
 10
-29.993173835092399
 20
4.5296114053710701
 30
0.0
 11
-30.691666944726808
 21
4.5296114053710701
 31
0.0
 12
-30.734041619195381
 22
4.4872367309024801
 32
0.0
 13
-30.734041619195381
 23
4.4872367309024801
 33
0.0
210
0.0
220
0.0
230
-1.0
  0
SOLID
  5
F19B
  8
0
  6
CONTINUOUS
 62
     7
 10
29.929611823389539
 20
4.4872367309024801
 30
0.0
 11
29.908424486155251
 21
4.4658771388939442
 31
0.0
 12
30.755314383594129
 22
4.4658771388939442
 32
0.0
 13
30.755314383594129
 23
4.4658771388939442
 33
0.0
  0
SOLID
  5
F19C
  8
0
  6
CONTINUOUS
 62
     7
 10
-29.929611823389539
 20
4.4872367309024801
 30
0.0
 11
-30.734041619195381
 21
4.4872367309024801
 31
0.0
 12
-30.755314383594129
 22
4.4658771388939442
 32
0.0
 13
-30.755314383594129
 23
4.4658771388939442
 33
0.0
210
0.0
220
0.0
230
-1.0
  0
SOLID
  5
F19D
  8
0
  6
CONTINUOUS
 62
     7
 10
29.908424486155251
 20
4.4658771388939442
 30
0.0
 11
29.887323276308091
 21
4.4448620564339203
 31
0.0
 12
30.77624403888969
 22
4.4448620564339203
 32
0.0
 13
30.77624403888969
 23
4.4448620564339203
 33
0.0
  0
SOLID
  5
F19E
  8
0
  6
CONTINUOUS
 62
     7
 10
-29.908424486155251
 20
4.4658771388939442
 30
0.0
 11
-30.755314383594129
 21
4.4658771388939442
 31
0.0
 12
-30.77624403888969
 22
4.4448620564339203
 32
0.0
 13
-30.77624403888969
 23
4.4448620564339203
 33
0.0
210
0.0
220
0.0
230
-1.0
  0
SOLID
  5
F19F
  8
0
  6
CONTINUOUS
 62
     7
 10
29.887323276308091
 20
4.4448620564339203
 30
0.0
 11
29.866222066460939
 21
4.4238469739738928
 31
0.0
 12
30.790292164664589
 22
4.4238469739738928
 32
0.0
 13
30.790292164664589
 23
4.4238469739738928
 33
0.0
  0
SOLID
  5
F1A0
  8
0
  6
CONTINUOUS
 62
     7
 10
-29.887323276308091
 20
4.4448620564339203
 30
0.0
 11
-30.77624403888969
 21
4.4448620564339203
 31
0.0
 12
-30.790292164664589
 22
4.4238469739738928
 32
0.0
 13
-30.790292164664589
 23
4.4238469739738928
 33
0.0
210
0.0
220
0.0
230
-1.0
  0
SOLID
  5
F1A1
  8
0
  6
CONTINUOUS
 62
     7
 10
29.866222066460939
 20
4.4238469739738928
 30
0.0
 11
30.331826721292469
 21
4.4024873819653294
 31
0.0
 12
30.80457058758336
 22
4.4024873819653294
 32
0.0
 13
30.80457058758336
 23
4.4024873819653294
 33
0.0
  0
SOLID
  5
F1A2
  8
0
  6
CONTINUOUS
 62
     7
 10
-29.866222066460939
 20
4.4238469739738928
 30
0.0
 11
-30.790292164664589
 21
4.4238469739738928
 31
0.0
 12
-30.80457058758336
 22
4.4024873819653294
 32
0.0
 13
-30.80457058758336
 23
4.4024873819653294
 33
0.0
210
0.0
220
0.0
230
-1.0
  0
SOLID
  5
F1A3
  8
0
  6
CONTINUOUS
 62
     7
 10
30.35301405852675
 20
4.4024873819653294
 30
0.0
 11
30.41640381545534
 21
4.3814722995053028
 31
0.0
 12
30.818618713358269
 22
4.3814722995053028
 32
0.0
 13
30.818618713358269
 23
4.3814722995053028
 33
0.0
  0
SOLID
  5
F1A4
  8
0
  6
CONTINUOUS
 62
     7
 10
-30.35301405852675
 20
4.4024873819653294
 30
0.0
 11
-30.80457058758336
 21
4.4024873819653294
 31
0.0
 12
-30.818618713358269
 22
4.3814722995053028
 32
0.0
 13
-30.818618713358269
 23
4.3814722995053028
 33
0.0
210
0.0
220
0.0
230
-1.0
  0
SOLID
  5
F1A5
  8
0
  6
CONTINUOUS
 62
     7
 10
30.41640381545534
 20
4.3814722995053028
 30
0.0
 11
30.4799658271582
 21
4.360112707496766
 31
0.0
 12
30.82929850936253
 22
4.360112707496766
 32
0.0
 13
30.82929850936253
 23
4.360112707496766
 33
0.0
  0
SOLID
  5
F1A6
  8
0
  6
CONTINUOUS
 62
     7
 10
-30.41640381545534
 20
4.3814722995053028
 30
0.0
 11
-30.818618713358269
 21
4.3814722995053028
 31
0.0
 12
-30.82929850936253
 22
4.360112707496766
 32
0.0
 13
-30.82929850936253
 23
4.360112707496766
 33
0.0
210
0.0
220
0.0
230
-1.0
  0
SOLID
  5
F1A7
  8
0
  6
CONTINUOUS
 62
     7
 10
30.4799658271582
 20
4.360112707496766
 30
0.0
 11
30.500980909618232
 21
4.339097625036743
 31
0.0
 12
30.83980605059255
 22
4.339097625036743
 32
0.0
 13
30.83980605059255
 23
4.339097625036743
 33
0.0
  0
SOLID
  5
F1A8
  8
0
  6
CONTINUOUS
 62
     7
 10
-30.4799658271582
 20
4.360112707496766
 30
0.0
 11
-30.82929850936253
 21
4.360112707496766
 31
0.0
 12
-30.83980605059255
 22
4.339097625036743
 32
0.0
 13
-30.83980605059255
 23
4.339097625036743
 33
0.0
210
0.0
220
0.0
230
-1.0
  0
SOLID
  5
F1A9
  8
0
  6
CONTINUOUS
 62
     7
 10
30.500980909618232
 20
4.339097625036743
 30
0.0
 11
30.522340501626768
 21
4.3177380330282062
 31
0.0
 12
30.846945262051928
 22
4.3177380330282062
 32
0.0
 13
30.846945262051928
 23
4.3177380330282062
 33
0.0
  0
SOLID
  5
F1AA
  8
0
  6
CONTINUOUS
 62
     7
 10
-30.500980909618232
 20
4.339097625036743
 30
0.0
 11
-30.83980605059255
 21
4.339097625036743
 31
0.0
 12
-30.846945262051928
 22
4.3177380330282062
 32
0.0
 13
-30.846945262051928
 23
4.3177380330282062
 33
0.0
210
0.0
220
0.0
230
-1.0
  0
SOLID
  5
F1AB
  8
0
  6
CONTINUOUS
 62
     7
 10
30.54352783886106
 20
4.3177380330282062
 30
0.0
 11
30.564715176095351
 21
4.2757078681081548
 31
0.0
 12
30.860993387826841
 22
4.2757078681081548
 32
0.0
 13
30.860993387826841
 23
4.2757078681081548
 33
0.0
  0
SOLID
  5
F1AC
  8
0
  6
CONTINUOUS
 62
     7
 10
-30.54352783886106
 20
4.3177380330282062
 30
0.0
 11
-30.846945262051928
 21
4.3177380330282062
 31
0.0
 12
-30.860993387826841
 22
4.2757078681081548
 32
0.0
 13
-30.860993387826841
 23
4.2757078681081548
 33
0.0
210
0.0
220
0.0
230
-1.0
  0
SOLID
  5
F1AD
  8
0
  6
CONTINUOUS
 62
     7
 10
30.564715176095351
 20
4.2757078681081548
 30
0.0
 11
30.585730258555369
 21
4.2119736016310281
 31
0.0
 12
30.882180725061129
 22
4.2119736016310281
 32
0.0
 13
30.882180725061129
 23
4.2119736016310281
 33
0.0
  0
SOLID
  5
F1AE
  8
0
  6
CONTINUOUS
 62
     7
 10
-30.564715176095351
 20
4.2757078681081548
 30
0.0
 11
-30.860993387826841
 21
4.2757078681081548
 31
0.0
 12
-30.882180725061129
 22
4.2119736016310281
 32
0.0
 13
-30.882180725061129
 23
4.2119736016310281
 33
0.0
210
0.0
220
0.0
230
-1.0
  0
SOLID
  5
F1AF
  8
0
  6
CONTINUOUS
 62
     7
 10
30.585730258555369
 20
4.2119736016310281
 30
0.0
 11
30.60691759578966
 21
4.148583844702415
 31
0.0
 12
30.90336806229541
 22
4.148583844702415
 32
0.0
 13
30.90336806229541
 23
4.148583844702415
 33
0.0
  0
SOLID
  5
F1B0
  8
0
  6
CONTINUOUS
 62
     7
 10
-30.585730258555369
 20
4.2119736016310281
 30
0.0
 11
-30.882180725061129
 21
4.2119736016310281
 31
0.0
 12
-30.90336806229541
 22
4.148583844702415
 32
0.0
 13
-30.90336806229541
 23
4.148583844702415
 33
0.0
210
0.0
220
0.0
230
-1.0
  0
SOLID
  5
F1B1
  8
0
  6
CONTINUOUS
 62
     7
 10
30.60691759578966
 20
4.148583844702415
 30
0.0
 11
30.60691759578966
 21
4.0638344957652901
 31
0.0
 12
30.90336806229541
 22
4.0638344957652901
 32
0.0
 13
30.90336806229541
 23
4.0638344957652901
 33
0.0
  0
SOLID
  5
F1B2
  8
0
  6
CONTINUOUS
 62
     7
 10
-30.60691759578966
 20
4.148583844702415
 30
0.0
 11
-30.90336806229541
 21
4.148583844702415
 31
0.0
 12
-30.90336806229541
 22
4.0638344957652901
 32
0.0
 13
-30.90336806229541
 23
4.0638344957652901
 33
0.0
210
0.0
220
0.0
230
-1.0
  0
LINE
  5
F1B3
  8
0
  6
CONTINUOUS
 62
     7
 10
30.289452046823889
 20
4.6563909192282411
 30
0.0
 11
30.226062289895289
 21
4.6353758367682172
 31
0.0
  0
LINE
  5
F1B4
  8
0
  6
CONTINUOUS
 62
     7
 10
30.331826721292469
 20
4.6563909192282411
 30
0.0
 11
30.395388732995318
 21
4.6353758367682172
 31
0.0
  0
LINE
  5
F1B5
  8
0
  6
CONTINUOUS
 62
     7
 10
30.226062289895289
 20
4.6353758367682172
 30
0.0
 11
30.162500278192429
 21
4.6143607543081933
 31
0.0
  0
LINE
  5
F1B6
  8
0
  6
CONTINUOUS
 62
     7
 10
30.458778489923919
 20
4.6353758367682172
 30
0.0
 11
30.522340501626768
 21
4.6143607543081933
 31
0.0
  0
LINE
  5
F1B7
  8
0
  6
CONTINUOUS
 62
     7
 10
30.162500278192429
 20
4.6143607543081933
 30
0.0
 11
30.098938266489569
 21
4.5930011622996574
 31
0.0
  0
LINE
  5
F1B8
  8
0
  6
CONTINUOUS
 62
     7
 10
30.522340501626768
 20
4.6143607543081933
 30
0.0
 11
30.585730258555369
 21
4.5930011622996574
 31
0.0
  0
LINE
  5
F1B9
  8
0
  6
CONTINUOUS
 62
     7
 10
30.098938266489569
 20
4.5930011622996574
 30
0.0
 11
30.035548509560979
 21
4.5719860798396308
 31
0.0
  0
LINE
  5
F1BA
  8
0
  6
CONTINUOUS
 62
     7
 10
30.585730258555369
 20
4.5930011622996574
 30
0.0
 11
30.649292270258229
 21
4.5719860798396308
 31
0.0
  0
LINE
  5
F1BB
  8
0
  6
CONTINUOUS
 62
     7
 10
30.035548509560979
 20
4.5719860798396308
 30
0.0
 11
29.993173835092399
 21
4.5296114053710701
 31
0.0
  0
LINE
  5
F1BC
  8
0
  6
CONTINUOUS
 62
     7
 10
30.649292270258229
 20
4.5719860798396308
 30
0.0
 11
30.691666944726808
 21
4.5296114053710701
 31
0.0
  0
LINE
  5
F1BD
  8
0
  6
CONTINUOUS
 62
     7
 10
29.993173835092399
 20
4.5296114053710701
 30
0.0
 11
29.929611823389539
 21
4.4872367309024801
 31
0.0
  0
LINE
  5
F1BE
  8
0
  6
CONTINUOUS
 62
     7
 10
30.691666944726808
 20
4.5296114053710701
 30
0.0
 11
30.734041619195381
 21
4.4872367309024801
 31
0.0
  0
LINE
  5
F1BF
  8
0
  6
CONTINUOUS
 62
     7
 10
29.929611823389539
 20
4.4872367309024801
 30
0.0
 11
29.908424486155251
 21
4.4658771388939442
 31
0.0
  0
LINE
  5
F1C0
  8
0
  6
CONTINUOUS
 62
     7
 10
30.734041619195381
 20
4.4872367309024801
 30
0.0
 11
30.755314383594129
 21
4.4658771388939442
 31
0.0
  0
LINE
  5
F1C1
  8
0
  6
CONTINUOUS
 62
     7
 10
29.908424486155251
 20
4.4658771388939442
 30
0.0
 11
29.887323276308091
 21
4.4448620564339203
 31
0.0
  0
LINE
  5
F1C2
  8
0
  6
CONTINUOUS
 62
     7
 10
30.755314383594129
 20
4.4658771388939442
 30
0.0
 11
30.77624403888969
 21
4.4448620564339203
 31
0.0
  0
LINE
  5
F1C3
  8
0
  6
CONTINUOUS
 62
     7
 10
29.887323276308091
 20
4.4448620564339203
 30
0.0
 11
29.866222066460939
 21
4.4238469739738928
 31
0.0
  0
LINE
  5
F1C4
  8
0
  6
CONTINUOUS
 62
     7
 10
30.77624403888969
 20
4.4448620564339203
 30
0.0
 11
30.790292164664589
 21
4.4238469739738928
 31
0.0
  0
LINE
  5
F1C5
  8
0
  6
CONTINUOUS
 62
     7
 10
29.866222066460939
 20
4.4238469739738928
 30
0.0
 11
30.331826721292469
 21
4.4024873819653294
 31
0.0
  0
LINE
  5
F1C6
  8
0
  6
CONTINUOUS
 62
     7
 10
30.790292164664589
 20
4.4238469739738928
 30
0.0
 11
30.80457058758336
 21
4.4024873819653294
 31
0.0
  0
LINE
  5
F1C7
  8
0
  6
CONTINUOUS
 62
     7
 10
30.35301405852675
 20
4.4024873819653294
 30
0.0
 11
30.41640381545534
 21
4.3814722995053028
 31
0.0
  0
LINE
  5
F1C8
  8
0
  6
CONTINUOUS
 62
     7
 10
30.80457058758336
 20
4.4024873819653294
 30
0.0
 11
30.818618713358269
 21
4.3814722995053028
 31
0.0
  0
LINE
  5
F1C9
  8
0
  6
CONTINUOUS
 62
     7
 10
30.41640381545534
 20
4.3814722995053028
 30
0.0
 11
30.4799658271582
 21
4.360112707496766
 31
0.0
  0
LINE
  5
F1CA
  8
0
  6
CONTINUOUS
 62
     7
 10
30.818618713358269
 20
4.3814722995053028
 30
0.0
 11
30.82929850936253
 21
4.360112707496766
 31
0.0
  0
LINE
  5
F1CB
  8
0
  6
CONTINUOUS
 62
     7
 10
30.4799658271582
 20
4.360112707496766
 30
0.0
 11
30.500980909618232
 21
4.339097625036743
 31
0.0
  0
LINE
  5
F1CC
  8
0
  6
CONTINUOUS
 62
     7
 10
30.82929850936253
 20
4.360112707496766
 30
0.0
 11
30.83980605059255
 21
4.339097625036743
 31
0.0
  0
LINE
  5
F1CD
  8
0
  6
CONTINUOUS
 62
     7
 10
30.500980909618232
 20
4.339097625036743
 30
0.0
 11
30.522340501626768
 21
4.3177380330282062
 31
0.0
  0
LINE
  5
F1CE
  8
0
  6
CONTINUOUS
 62
     7
 10
30.83980605059255
 20
4.339097625036743
 30
0.0
 11
30.846945262051928
 21
4.3177380330282062
 31
0.0
  0
LINE
  5
F1CF
  8
0
  6
CONTINUOUS
 62
     7
 10
30.54352783886106
 20
4.3177380330282062
 30
0.0
 11
30.564715176095351
 21
4.2757078681081548
 31
0.0
  0
LINE
  5
F1D0
  8
0
  6
CONTINUOUS
 62
     7
 10
30.846945262051928
 20
4.3177380330282062
 30
0.0
 11
30.860993387826841
 21
4.2757078681081548
 31
0.0
  0
LINE
  5
F1D1
  8
0
  6
CONTINUOUS
 62
     7
 10
30.564715176095351
 20
4.2757078681081548
 30
0.0
 11
30.585730258555369
 21
4.2119736016310281
 31
0.0
  0
LINE
  5
F1D2
  8
0
  6
CONTINUOUS
 62
     7
 10
30.860993387826841
 20
4.2757078681081548
 30
0.0
 11
30.882180725061129
 21
4.2119736016310281
 31
0.0
  0
LINE
  5
F1D3
  8
0
  6
CONTINUOUS
 62
     7
 10
30.585730258555369
 20
4.2119736016310281
 30
0.0
 11
30.60691759578966
 21
4.148583844702415
 31
0.0
  0
LINE
  5
F1D4
  8
0
  6
CONTINUOUS
 62
     7
 10
30.882180725061129
 20
4.2119736016310281
 30
0.0
 11
30.90336806229541
 21
4.148583844702415
 31
0.0
  0
LINE
  5
F1D5
  8
0
  6
CONTINUOUS
 62
     7
 10
30.60691759578966
 20
4.148583844702415
 30
0.0
 11
30.60691759578966
 21
4.0638344957652901
 31
0.0
  0
LINE
  5
F1D6
  8
0
  6
CONTINUOUS
 62
     7
 10
30.90336806229541
 20
4.148583844702415
 30
0.0
 11
30.90336806229541
 21
4.0638344957652901
 31
0.0
  0
ENDBLK
  5
F1D8
  8
0
  0
BLOCK
  8
0
  2
*U14
 70
     1
 10
0.0
 20
0.0
 30
0.0
  3
*U14
  1

  0
SOLID
  5
F1DA
  8
0
  6
CONTINUOUS
 62
     7
 10
6.2230485155140958
 20
2.9207518137593791
 30
0.0
 11
6.2230485155140958
 21
2.6882078685050299
 31
0.0
 12
7.471895628917161
 22
2.6882078685050299
 32
0.0
 13
7.471895628917161
 23
2.6882078685050299
 33
0.0
  0
SOLID
  5
F1DB
  8
0
  6
CONTINUOUS
 62
     7
 10
-6.2230485155140958
 20
2.9207518137593791
 30
0.0
 11
-7.471895628917161
 21
2.9207518137593791
 31
0.0
 12
-7.471895628917161
 22
2.6882078685050299
 32
0.0
 13
-7.471895628917161
 23
2.6882078685050299
 33
0.0
210
0.0
220
0.0
230
-1.0
  0
SOLID
  5
F1DC
  8
0
  6
CONTINUOUS
 62
     7
 10
7.196632499645701
 20
2.6882078685050299
 30
0.0
 11
7.1831116331211851
 21
2.6458331940364399
 31
0.0
 12
7.471895628917161
 22
2.6458331940364399
 32
0.0
 13
7.471895628917161
 23
2.6458331940364399
 33
0.0
  0
SOLID
  5
F1DD
  8
0
  6
CONTINUOUS
 62
     7
 10
-7.196632499645701
 20
2.6882078685050299
 30
0.0
 11
-7.471895628917161
 21
2.6882078685050299
 31
0.0
 12
-7.471895628917161
 22
2.6458331940364399
 32
0.0
 13
-7.471895628917161
 23
2.6458331940364399
 33
0.0
210
0.0
220
0.0
230
-1.0
  0
SOLID
  5
F1DE
  8
0
  6
CONTINUOUS
 62
     7
 10
7.1831116331211851
 20
2.6458331940364399
 30
0.0
 11
6.5617014017141564
 21
0.6983207162247143
 31
0.0
 12
6.8579796134456412
 22
0.6983207162247143
 32
0.0
 13
6.8579796134456412
 23
0.6983207162247143
 33
0.0
  0
SOLID
  5
F1DF
  8
0
  6
CONTINUOUS
 62
     7
 10
-7.1831116331211851
 20
2.6458331940364399
 30
0.0
 11
-7.471895628917161
 21
2.6458331940364399
 31
0.0
 12
-6.8579796134456412
 22
0.6983207162247143
 32
0.0
 13
-6.8579796134456412
 23
0.6983207162247143
 33
0.0
210
0.0
220
0.0
230
-1.0
  0
LINE
  5
F1E0
  8
0
  6
CONTINUOUS
 62
     7
 10
6.2230485155140958
 20
2.9207518137593791
 30
0.0
 11
6.2230485155140958
 21
2.6882078685050299
 31
0.0
  0
LINE
  5
F1E1
  8
0
  6
CONTINUOUS
 62
     7
 10
7.471895628917161
 20
2.9207518137593791
 30
0.0
 11
7.471895628917161
 21
2.6882078685050299
 31
0.0
  0
LINE
  5
F1E2
  8
0
  6
CONTINUOUS
 62
     7
 10
7.196632499645701
 20
2.6882078685050299
 30
0.0
 11
7.1831116331211851
 21
2.6458331940364399
 31
0.0
  0
LINE
  5
F1E3
  8
0
  6
CONTINUOUS
 62
     7
 10
7.471895628917161
 20
2.6882078685050299
 30
0.0
 11
7.471895628917161
 21
2.6458331940364399
 31
0.0
  0
LINE
  5
F1E4
  8
0
  6
CONTINUOUS
 62
     7
 10
7.1831116331211851
 20
2.6458331940364399
 30
0.0
 11
6.5617014017141564
 21
0.6983207162247143
 31
0.0
  0
LINE
  5
F1E5
  8
0
  6
CONTINUOUS
 62
     7
 10
7.471895628917161
 20
2.6458331940364399
 30
0.0
 11
6.8579796134456412
 21
0.6983207162247143
 31
0.0
  0
ENDBLK
  5
F1E7
  8
0
  0
BLOCK
  8
0
  2
*U15
 70
     1
 10
0.0
 20
0.0
 30
0.0
  3
*U15
  1

  0
SOLID
  5
F1E9
  8
0
  6
CONTINUOUS
 62
     7
 10
30.33199861627952
 20
2.053104445220157
 30
0.0
 11
30.317873724790012
 21
2.0319171079858891
 31
0.0
 12
30.691666584939611
 22
2.0319171079858891
 32
0.0
 13
30.691666584939611
 23
2.0319171079858891
 33
0.0
  0
SOLID
  5
F1EA
  8
0
  6
CONTINUOUS
 62
     7
 10
30.317873724790012
 20
2.0319171079858891
 30
0.0
 11
30.303748833300489
 21
2.0107297707515941
 31
0.0
 12
30.56488707108241
 22
2.0107297707515941
 32
0.0
 13
30.56488707108241
 23
2.0107297707515941
 33
0.0
  0
SOLID
  5
F1EB
  8
0
  6
CONTINUOUS
 62
     7
 10
-30.317873724790012
 20
2.0319171079858891
 30
0.0
 11
-30.607261745550971
 21
2.0319171079858891
 31
0.0
 12
-30.56488707108241
 22
2.0107297707515941
 32
0.0
 13
-30.56488707108241
 23
2.0107297707515941
 33
0.0
210
0.0
220
0.0
230
-1.0
  0
SOLID
  5
F1EC
  8
0
  6
CONTINUOUS
 62
     7
 10
30.303748833300489
 20
2.0107297707515941
 30
0.0
 11
30.289623941810969
 21
1.9895424335173
 31
0.0
 12
30.50115280460528
 22
1.9895424335173
 32
0.0
 13
30.50115280460528
 23
1.9895424335173
 33
0.0
  0
SOLID
  5
F1ED
  8
0
  6
CONTINUOUS
 62
     7
 10
-30.303748833300489
 20
2.0107297707515941
 30
0.0
 11
-30.56488707108241
 21
2.0107297707515941
 31
0.0
 12
-30.50115280460528
 22
1.9895424335173
 32
0.0
 13
-30.50115280460528
 23
1.9895424335173
 33
0.0
210
0.0
220
0.0
230
-1.0
  0
LINE
  5
F1EE
  8
0
  6
CONTINUOUS
 62
     7
 10
30.33199861627952
 20
2.053104445220157
 30
0.0
 11
30.317873724790012
 21
2.0319171079858891
 31
0.0
  0
LINE
  5
F1EF
  8
0
  6
CONTINUOUS
 62
     7
 10
30.691666584939611
 20
2.0319171079858891
 30
0.0
 11
30.33199861627952
 21
2.053104445220157
 31
0.0
  0
LINE
  5
F1F0
  8
0
  6
CONTINUOUS
 62
     7
 10
30.317873724790012
 20
2.0319171079858891
 30
0.0
 11
30.303748833300489
 21
2.0107297707515941
 31
0.0
  0
LINE
  5
F1F1
  8
0
  6
CONTINUOUS
 62
     7
 10
30.607261745550971
 20
2.0319171079858891
 30
0.0
 11
30.56488707108241
 21
2.0107297707515941
 31
0.0
  0
LINE
  5
F1F2
  8
0
  6
CONTINUOUS
 62
     7
 10
30.303748833300489
 20
2.0107297707515941
 30
0.0
 11
30.289623941810969
 21
1.9895424335173
 31
0.0
  0
LINE
  5
F1F3
  8
0
  6
CONTINUOUS
 62
     7
 10
30.56488707108241
 20
2.0107297707515941
 30
0.0
 11
30.50115280460528
 21
1.9895424335173
 31
0.0
  0
ENDBLK
  5
F1F5
  8
0
  0
BLOCK
  8
0
  2
*U16
 70
     1
 10
0.0
 20
0.0
 30
0.0
  3
*U16
  1

  0
SOLID
  5
F1F7
  8
0
  6
CONTINUOUS
 62
     7
 10
30.713026176948151
 20
2.2859929000230461
 30
0.0
 11
30.649636420019561
 21
2.2648055627887791
 31
0.0
 12
30.77641593387677
 22
2.2648055627887791
 32
0.0
 13
30.77641593387677
 23
2.2648055627887791
 33
0.0
  0
SOLID
  5
F1F8
  8
0
  6
CONTINUOUS
 62
     7
 10
30.585902153542431
 20
2.2648055627887791
 30
0.0
 11
30.522512396613848
 21
2.2436182255544841
 31
0.0
 12
30.90353995728249
 22
2.2436182255544841
 32
0.0
 13
30.90353995728249
 23
2.2436182255544841
 33
0.0
  0
SOLID
  5
F1F9
  8
0
  6
CONTINUOUS
 62
     7
 10
-30.585902153542431
 20
2.2648055627887791
 30
0.0
 11
-30.840150200353861
 21
2.2648055627887791
 31
0.0
 12
-30.90353995728249
 22
2.2436182255544841
 32
0.0
 13
-30.90353995728249
 23
2.2436182255544841
 33
0.0
210
0.0
220
0.0
230
-1.0
  0
SOLID
  5
F1FA
  8
0
  6
CONTINUOUS
 62
     7
 10
30.522512396613848
 20
2.2436182255544841
 30
0.0
 11
30.501325059379539
 21
2.2224308883201882
 31
0.0
 12
30.966929714211059
 22
2.2224308883201882
 32
0.0
 13
30.966929714211059
 23
2.2224308883201882
 33
0.0
  0
SOLID
  5
F1FB
  8
0
  6
CONTINUOUS
 62
     7
 10
-30.522512396613848
 20
2.2436182255544841
 30
0.0
 11
-30.90353995728249
 21
2.2436182255544841
 31
0.0
 12
-30.966929714211059
 22
2.2224308883201882
 32
0.0
 13
-30.966929714211059
 23
2.2224308883201882
 33
0.0
210
0.0
220
0.0
230
-1.0
  0
SOLID
  5
F1FC
  8
0
  6
CONTINUOUS
 62
     7
 10
30.501325059379539
 20
2.2224308883201882
 30
0.0
 11
30.480137722145251
 21
2.201243551085923
 31
0.0
 12
30.998624592675348
 22
2.201243551085923
 32
0.0
 13
30.998624592675348
 23
2.201243551085923
 33
0.0
  0
SOLID
  5
F1FD
  8
0
  6
CONTINUOUS
 62
     7
 10
-30.501325059379539
 20
2.2224308883201882
 30
0.0
 11
-30.966929714211059
 21
2.2224308883201882
 31
0.0
 12
-30.998624592675348
 22
2.201243551085923
 32
0.0
 13
-30.998624592675348
 23
2.201243551085923
 33
0.0
210
0.0
220
0.0
230
-1.0
  0
SOLID
  5
F1FE
  8
0
  6
CONTINUOUS
 62
     7
 10
30.480137722145251
 20
2.201243551085923
 30
0.0
 11
30.448442843680962
 21
2.180056213851628
 31
0.0
 12
31.030319471139681
 22
2.180056213851628
 32
0.0
 13
31.030319471139681
 23
2.180056213851628
 33
0.0
  0
SOLID
  5
F1FF
  8
0
  6
CONTINUOUS
 62
     7
 10
-30.480137722145251
 20
2.201243551085923
 30
0.0
 11
-30.998624592675348
 21
2.201243551085923
 31
0.0
 12
-31.030319471139681
 22
2.180056213851628
 32
0.0
 13
-31.030319471139681
 23
2.180056213851628
 33
0.0
210
0.0
220
0.0
230
-1.0
  0
SOLID
  5
F200
  8
0
  6
CONTINUOUS
 62
     7
 10
30.448442843680962
 20
2.180056213851628
 30
0.0
 11
30.416747965216668
 21
2.1588688766173321
 31
0.0
 12
31.072694145608239
 22
2.1588688766173321
 32
0.0
 13
31.072694145608239
 23
2.1588688766173321
 33
0.0
  0
SOLID
  5
F201
  8
0
  6
CONTINUOUS
 62
     7
 10
-30.448442843680962
 20
2.180056213851628
 30
0.0
 11
-31.030319471139681
 21
2.180056213851628
 31
0.0
 12
-31.072694145608239
 22
2.1588688766173321
 32
0.0
 13
-31.072694145608239
 23
2.1588688766173321
 33
0.0
210
0.0
220
0.0
230
-1.0
  0
SOLID
  5
F202
  8
0
  6
CONTINUOUS
 62
     7
 10
30.416747965216668
 20
2.1588688766173321
 30
0.0
 11
30.38853656509491
 21
2.1166664569230118
 31
0.0
 12
31.094053737616768
 22
2.1166664569230118
 32
0.0
 13
31.094053737616768
 23
2.1166664569230118
 33
0.0
  0
SOLID
  5
F203
  8
0
  6
CONTINUOUS
 62
     7
 10
-30.416747965216668
 20
2.1588688766173321
 30
0.0
 11
-31.072694145608239
 21
2.1588688766173321
 31
0.0
 12
-31.094053737616768
 22
2.1166664569230118
 32
0.0
 13
-31.094053737616768
 23
2.1166664569230118
 33
0.0
210
0.0
220
0.0
230
-1.0
  0
SOLID
  5
F204
  8
0
  6
CONTINUOUS
 62
     7
 10
30.38853656509491
 20
2.1166664569230118
 30
0.0
 11
30.374373290748078
 21
2.095479119688747
 31
0.0
 12
31.11524107485106
 22
2.095479119688747
 32
0.0
 13
31.11524107485106
 23
2.095479119688747
 33
0.0
  0
SOLID
  5
F205
  8
0
  6
CONTINUOUS
 62
     7
 10
-30.38853656509491
 20
2.1166664569230118
 30
0.0
 11
-31.094053737616768
 21
2.1166664569230118
 31
0.0
 12
-31.11524107485106
 22
2.095479119688747
 32
0.0
 13
-31.11524107485106
 23
2.095479119688747
 33
0.0
210
0.0
220
0.0
230
-1.0
  0
SOLID
  5
F206
  8
0
  6
CONTINUOUS
 62
     7
 10
30.374373290748078
 20
2.095479119688747
 30
0.0
 11
30.353185953513801
 21
2.074291782454452
 31
0.0
 12
31.136428412085369
 22
2.074291782454452
 32
0.0
 13
31.136428412085369
 23
2.074291782454452
 33
0.0
  0
SOLID
  5
F207
  8
0
  6
CONTINUOUS
 62
     7
 10
-30.374373290748078
 20
2.095479119688747
 30
0.0
 11
-31.11524107485106
 21
2.095479119688747
 31
0.0
 12
-31.136428412085369
 22
2.074291782454452
 32
0.0
 13
-31.136428412085369
 23
2.074291782454452
 33
0.0
210
0.0
220
0.0
230
-1.0
  0
SOLID
  5
F208
  8
0
  6
CONTINUOUS
 62
     7
 10
30.353185953513801
 20
2.074291782454452
 30
0.0
 11
30.33199861627952
 21
2.053104445220157
 31
0.0
 12
31.15761574931966
 22
2.053104445220157
 32
0.0
 13
31.15761574931966
 23
2.053104445220157
 33
0.0
  0
SOLID
  5
F209
  8
0
  6
CONTINUOUS
 62
     7
 10
-30.353185953513801
 20
2.074291782454452
 30
0.0
 11
-31.136428412085369
 21
2.074291782454452
 31
0.0
 12
-31.15761574931966
 22
2.053104445220157
 32
0.0
 13
-31.15761574931966
 23
2.053104445220157
 33
0.0
210
0.0
220
0.0
230
-1.0
  0
SOLID
  5
F20A
  8
0
  6
CONTINUOUS
 62
     7
 10
30.33199861627952
 20
2.053104445220157
 30
0.0
 11
30.691666584939611
 21
2.0319171079858891
 31
0.0
 12
31.178803086553931
 22
2.0319171079858891
 32
0.0
 13
31.178803086553931
 23
2.0319171079858891
 33
0.0
  0
SOLID
  5
F20B
  8
0
  6
CONTINUOUS
 62
     7
 10
-30.33199861627952
 20
2.053104445220157
 30
0.0
 11
-31.15761574931966
 21
2.053104445220157
 31
0.0
 12
-31.178803086553931
 22
2.0319171079858891
 32
0.0
 13
-31.178803086553931
 23
2.0319171079858891
 33
0.0
210
0.0
220
0.0
230
-1.0
  0
SOLID
  5
F20C
  8
0
  6
CONTINUOUS
 62
     7
 10
30.755400851416741
 20
2.0319171079858891
 30
0.0
 11
30.818790608345331
 21
1.9895424335173
 31
0.0
 12
31.199818169013952
 22
1.9895424335173
 32
0.0
 13
31.199818169013952
 23
1.9895424335173
 33
0.0
  0
SOLID
  5
F20D
  8
0
  6
CONTINUOUS
 62
     7
 10
-30.755400851416741
 20
2.0319171079858891
 30
0.0
 11
-31.178803086553931
 21
2.0319171079858891
 31
0.0
 12
-31.199818169013952
 22
1.9895424335173
 32
0.0
 13
-31.199818169013952
 23
1.9895424335173
 33
0.0
210
0.0
220
0.0
230
-1.0
  0
SOLID
  5
F20E
  8
0
  6
CONTINUOUS
 62
     7
 10
30.818790608345331
 20
1.9895424335173
 30
0.0
 11
30.861165282813889
 21
1.947340013823009
 31
0.0
 12
31.2280295691357
 22
1.947340013823009
 32
0.0
 13
31.2280295691357
 23
1.947340013823009
 33
0.0
  0
SOLID
  5
F20F
  8
0
  6
CONTINUOUS
 62
     7
 10
-30.818790608345331
 20
1.9895424335173
 30
0.0
 11
-31.199818169013952
 21
1.9895424335173
 31
0.0
 12
-31.2280295691357
 22
1.947340013823009
 32
0.0
 13
-31.2280295691357
 23
1.947340013823009
 33
0.0
210
0.0
220
0.0
230
-1.0
  0
SOLID
  5
F210
  8
0
  6
CONTINUOUS
 62
     7
 10
30.861165282813889
 20
1.947340013823009
 30
0.0
 11
30.90353995728249
 21
1.926152676588714
 31
0.0
 12
31.242192843482549
 22
1.926152676588714
 32
0.0
 13
31.242192843482549
 23
1.926152676588714
 33
0.0
  0
SOLID
  5
F211
  8
0
  6
CONTINUOUS
 62
     7
 10
-30.861165282813889
 20
1.947340013823009
 30
0.0
 11
-31.2280295691357
 21
1.947340013823009
 31
0.0
 12
-31.242192843482549
 22
1.926152676588714
 32
0.0
 13
-31.242192843482549
 23
1.926152676588714
 33
0.0
210
0.0
220
0.0
230
-1.0
  0
SOLID
  5
F212
  8
0
  6
CONTINUOUS
 62
     7
 10
30.90353995728249
 20
1.926152676588714
 30
0.0
 11
30.924555039742501
 21
1.883778002120124
 31
0.0
 12
31.2562028984559
 22
1.883778002120124
 32
0.0
 13
31.2562028984559
 23
1.883778002120124
 33
0.0
  0
SOLID
  5
F213
  8
0
  6
CONTINUOUS
 62
     7
 10
-30.90353995728249
 20
1.926152676588714
 30
0.0
 11
-31.242192843482549
 21
1.926152676588714
 31
0.0
 12
-31.2562028984559
 22
1.883778002120124
 32
0.0
 13
-31.2562028984559
 23
1.883778002120124
 33
0.0
210
0.0
220
0.0
230
-1.0
  0
SOLID
  5
F214
  8
0
  6
CONTINUOUS
 62
     7
 10
30.924555039742501
 20
1.883778002120124
 30
0.0
 11
30.931674903745339
 21
1.8625906648858559
 31
0.0
 12
31.26320792594257
 22
1.8625906648858559
 32
0.0
 13
31.26320792594257
 23
1.8625906648858559
 33
0.0
  0
SOLID
  5
F215
  8
0
  6
CONTINUOUS
 62
     7
 10
-30.924555039742501
 20
1.883778002120124
 30
0.0
 11
-31.2562028984559
 21
1.883778002120124
 31
0.0
 12
-31.26320792594257
 22
1.8625906648858559
 32
0.0
 13
-31.26320792594257
 23
1.8625906648858559
 33
0.0
210
0.0
220
0.0
230
-1.0
  0
SOLID
  5
F216
  8
0
  6
CONTINUOUS
 62
     7
 10
30.931674903745339
 20
1.8625906648858559
 30
0.0
 11
30.945914631751041
 21
1.8202159904172659
 31
0.0
 12
31.26320792594257
 22
1.8202159904172659
 32
0.0
 13
31.26320792594257
 23
1.8202159904172659
 33
0.0
  0
SOLID
  5
F217
  8
0
  6
CONTINUOUS
 62
     7
 10
-30.931674903745339
 20
1.8625906648858559
 30
0.0
 11
-31.26320792594257
 21
1.8625906648858559
 31
0.0
 12
-31.26320792594257
 22
1.8202159904172659
 32
0.0
 13
-31.26320792594257
 23
1.8202159904172659
 33
0.0
210
0.0
220
0.0
230
-1.0
  0
SOLID
  5
F218
  8
0
  6
CONTINUOUS
 62
     7
 10
30.945914631751041
 20
1.8202159904172659
 30
0.0
 11
30.95288158843616
 21
1.7992009079572411
 31
0.0
 12
31.26320792594257
 22
1.7992009079572411
 32
0.0
 13
31.26320792594257
 23
1.7992009079572411
 33
0.0
  0
SOLID
  5
F219
  8
0
  6
CONTINUOUS
 62
     7
 10
-30.945914631751041
 20
1.8202159904172659
 30
0.0
 11
-31.26320792594257
 21
1.8202159904172659
 31
0.0
 12
-31.26320792594257
 22
1.7992009079572411
 32
0.0
 13
-31.26320792594257
 23
1.7992009079572411
 33
0.0
210
0.0
220
0.0
230
-1.0
  0
SOLID
  5
F21A
  8
0
  6
CONTINUOUS
 62
     7
 10
30.95288158843616
 20
1.7992009079572411
 30
0.0
 11
30.966929714211059
 21
1.7568262334886811
 31
0.0
 12
31.277447653948261
 22
1.7568262334886811
 32
0.0
 13
31.277447653948261
 23
1.7568262334886811
 33
0.0
  0
SOLID
  5
F21B
  8
0
  6
CONTINUOUS
 62
     7
 10
-30.95288158843616
 20
1.7992009079572411
 30
0.0
 11
-31.26320792594257
 21
1.7992009079572411
 31
0.0
 12
-31.277447653948261
 22
1.7568262334886811
 32
0.0
 13
-31.277447653948261
 23
1.7568262334886811
 33
0.0
210
0.0
220
0.0
230
-1.0
  0
SOLID
  5
F21C
  8
0
  6
CONTINUOUS
 62
     7
 10
30.966929714211059
 20
1.7568262334886811
 30
0.0
 11
30.966929714211059
 21
1.7356388962543861
 31
0.0
 12
31.2845675179511
 22
1.7356388962543861
 32
0.0
 13
31.2845675179511
 23
1.7356388962543861
 33
0.0
  0
SOLID
  5
F21D
  8
0
  6
CONTINUOUS
 62
     7
 10
-30.966929714211059
 20
1.7568262334886811
 30
0.0
 11
-31.277447653948261
 21
1.7568262334886811
 31
0.0
 12
-31.2845675179511
 22
1.7356388962543861
 32
0.0
 13
-31.2845675179511
 23
1.7356388962543861
 33
0.0
210
0.0
220
0.0
230
-1.0
  0
SOLID
  5
F21E
  8
0
  6
CONTINUOUS
 62
     7
 10
30.966929714211059
 20
1.7356388962543861
 30
0.0
 11
30.966929714211059
 21
1.693264221785824
 31
0.0
 12
31.298577572924451
 22
1.693264221785824
 32
0.0
 13
31.298577572924451
 23
1.693264221785824
 33
0.0
  0
SOLID
  5
F21F
  8
0
  6
CONTINUOUS
 62
     7
 10
-30.966929714211059
 20
1.7356388962543861
 30
0.0
 11
-31.2845675179511
 21
1.7356388962543861
 31
0.0
 12
-31.298577572924451
 22
1.693264221785824
 32
0.0
 13
-31.298577572924451
 23
1.693264221785824
 33
0.0
210
0.0
220
0.0
230
-1.0
  0
SOLID
  5
F220
  8
0
  6
CONTINUOUS
 62
     7
 10
30.966929714211059
 20
1.693264221785824
 30
0.0
 11
30.972280487769211
 21
1.672076884551529
 31
0.0
 12
31.305582600411132
 22
1.672076884551529
 32
0.0
 13
31.305582600411132
 23
1.672076884551529
 33
0.0
  0
SOLID
  5
F221
  8
0
  6
CONTINUOUS
 62
     7
 10
-30.966929714211059
 20
1.693264221785824
 30
0.0
 11
-31.298577572924451
 21
1.693264221785824
 31
0.0
 12
-31.305582600411132
 22
1.672076884551529
 32
0.0
 13
-31.305582600411132
 23
1.672076884551529
 33
0.0
210
0.0
220
0.0
230
-1.0
  0
SOLID
  5
F222
  8
0
  6
CONTINUOUS
 62
     7
 10
30.972280487769211
 20
1.672076884551529
 30
0.0
 11
30.988289306219631
 21
1.6086871276229431
 31
0.0
 12
31.305582600411132
 22
1.6086871276229431
 32
0.0
 13
31.305582600411132
 23
1.6086871276229431
 33
0.0
  0
SOLID
  5
F223
  8
0
  6
CONTINUOUS
 62
     7
 10
-30.972280487769211
 20
1.672076884551529
 30
0.0
 11
-31.305582600411132
 21
1.672076884551529
 31
0.0
 12
-31.305582600411132
 22
1.6086871276229431
 32
0.0
 13
-31.305582600411132
 23
1.6086871276229431
 33
0.0
210
0.0
220
0.0
230
-1.0
  0
SOLID
  5
F224
  8
0
  6
CONTINUOUS
 62
     7
 10
30.988289306219631
 20
1.6086871276229431
 30
0.0
 11
30.988289306219631
 21
1.460375766982934
 31
0.0
 12
31.305582600411132
 22
1.460375766982934
 32
0.0
 13
31.305582600411132
 23
1.460375766982934
 33
0.0
  0
SOLID
  5
F225
  8
0
  6
CONTINUOUS
 62
     7
 10
-30.988289306219631
 20
1.6086871276229431
 30
0.0
 11
-31.305582600411132
 21
1.6086871276229431
 31
0.0
 12
-31.305582600411132
 22
1.460375766982934
 32
0.0
 13
-31.305582600411132
 23
1.460375766982934
 33
0.0
210
0.0
220
0.0
230
-1.0
  0
SOLID
  5
F226
  8
0
  6
CONTINUOUS
 62
     7
 10
30.988289306219631
 20
1.460375766982934
 30
0.0
 11
30.988289306219631
 21
1.4181733472886151
 31
0.0
 12
31.295096459468748
 22
1.4181733472886151
 32
0.0
 13
31.295096459468748
 23
1.4181733472886151
 33
0.0
  0
SOLID
  5
F227
  8
0
  6
CONTINUOUS
 62
     7
 10
-30.988289306219631
 20
1.460375766982934
 30
0.0
 11
-31.305582600411132
 21
1.460375766982934
 31
0.0
 12
-31.295096459468748
 22
1.4181733472886151
 32
0.0
 13
-31.295096459468748
 23
1.4181733472886151
 33
0.0
210
0.0
220
0.0
230
-1.0
  0
SOLID
  5
F228
  8
0
  6
CONTINUOUS
 62
     7
 10
30.988289306219631
 20
1.4181733472886151
 30
0.0
 11
30.977609510215348
 21
1.3757986728200531
 31
0.0
 12
31.2845675179511
 22
1.3757986728200531
 32
0.0
 13
31.2845675179511
 23
1.3757986728200531
 33
0.0
  0
SOLID
  5
F229
  8
0
  6
CONTINUOUS
 62
     7
 10
-30.988289306219631
 20
1.4181733472886151
 30
0.0
 11
-31.295096459468748
 21
1.4181733472886151
 31
0.0
 12
-31.2845675179511
 22
1.3757986728200531
 32
0.0
 13
-31.2845675179511
 23
1.3757986728200531
 33
0.0
210
0.0
220
0.0
230
-1.0
  0
SOLID
  5
F22A
  8
0
  6
CONTINUOUS
 62
     7
 10
30.977609510215348
 20
1.3757986728200531
 30
0.0
 11
30.966929714211059
 21
1.3334239983514631
 31
0.0
 12
31.2845675179511
 22
1.3334239983514631
 32
0.0
 13
31.2845675179511
 23
1.3334239983514631
 33
0.0
  0
SOLID
  5
F22B
  8
0
  6
CONTINUOUS
 62
     7
 10
-30.977609510215348
 20
1.3757986728200531
 30
0.0
 11
-31.2845675179511
 21
1.3757986728200531
 31
0.0
 12
-31.2845675179511
 22
1.3334239983514631
 32
0.0
 13
-31.2845675179511
 23
1.3334239983514631
 33
0.0
210
0.0
220
0.0
230
-1.0
  0
SOLID
  5
F22C
  8
0
  6
CONTINUOUS
 62
     7
 10
30.966929714211059
 20
1.3334239983514631
 30
0.0
 11
30.966929714211059
 21
1.3122366611171961
 31
0.0
 12
31.2845675179511
 22
1.3122366611171961
 32
0.0
 13
31.2845675179511
 23
1.3122366611171961
 33
0.0
  0
SOLID
  5
F22D
  8
0
  6
CONTINUOUS
 62
     7
 10
-30.966929714211059
 20
1.3334239983514631
 30
0.0
 11
-31.2845675179511
 21
1.3334239983514631
 31
0.0
 12
-31.2845675179511
 22
1.3122366611171961
 32
0.0
 13
-31.2845675179511
 23
1.3122366611171961
 33
0.0
210
0.0
220
0.0
230
-1.0
  0
SOLID
  5
F22E
  8
0
  6
CONTINUOUS
 62
     7
 10
30.966929714211059
 20
1.3122366611171961
 30
0.0
 11
30.966929714211059
 21
1.270034241422876
 31
0.0
 12
31.270347137401941
 22
1.270034241422876
 32
0.0
 13
31.270347137401941
 23
1.270034241422876
 33
0.0
  0
SOLID
  5
F22F
  8
0
  6
CONTINUOUS
 62
     7
 10
-30.966929714211059
 20
1.3122366611171961
 30
0.0
 11
-31.2845675179511
 21
1.3122366611171961
 31
0.0
 12
-31.270347137401941
 22
1.270034241422876
 32
0.0
 13
-31.270347137401941
 23
1.270034241422876
 33
0.0
210
0.0
220
0.0
230
-1.0
  0
SOLID
  5
F230
  8
0
  6
CONTINUOUS
 62
     7
 10
30.966929714211059
 20
1.270034241422876
 30
0.0
 11
30.959924686724381
 21
1.248846904188581
 31
0.0
 12
31.26320792594257
 22
1.248846904188581
 32
0.0
 13
31.26320792594257
 23
1.248846904188581
 33
0.0
  0
SOLID
  5
F231
  8
0
  6
CONTINUOUS
 62
     7
 10
-30.966929714211059
 20
1.270034241422876
 30
0.0
 11
-31.270347137401941
 21
1.270034241422876
 31
0.0
 12
-31.26320792594257
 22
1.248846904188581
 32
0.0
 13
-31.26320792594257
 23
1.248846904188581
 33
0.0
210
0.0
220
0.0
230
-1.0
  0
SOLID
  5
F232
  8
0
  6
CONTINUOUS
 62
     7
 10
30.959924686724381
 20
1.248846904188581
 30
0.0
 11
30.945914631751041
 21
1.2064722297200201
 31
0.0
 12
31.249197870969219
 22
1.2064722297200201
 32
0.0
 13
31.249197870969219
 23
1.2064722297200201
 33
0.0
  0
SOLID
  5
F233
  8
0
  6
CONTINUOUS
 62
     7
 10
-30.959924686724381
 20
1.248846904188581
 30
0.0
 11
-31.26320792594257
 21
1.248846904188581
 31
0.0
 12
-31.249197870969219
 22
1.2064722297200201
 32
0.0
 13
-31.249197870969219
 23
1.2064722297200201
 33
0.0
210
0.0
220
0.0
230
-1.0
  0
SOLID
  5
F234
  8
0
  6
CONTINUOUS
 62
     7
 10
30.945914631751041
 20
1.2064722297200201
 30
0.0
 11
30.938794767748199
 21
1.1852848924857251
 31
0.0
 12
31.242192843482549
 22
1.1852848924857251
 32
0.0
 13
31.242192843482549
 23
1.1852848924857251
 33
0.0
  0
SOLID
  5
F235
  8
0
  6
CONTINUOUS
 62
     7
 10
-30.945914631751041
 20
1.2064722297200201
 30
0.0
 11
-31.249197870969219
 21
1.2064722297200201
 31
0.0
 12
-31.242192843482549
 22
1.1852848924857251
 32
0.0
 13
-31.242192843482549
 23
1.1852848924857251
 33
0.0
210
0.0
220
0.0
230
-1.0
  0
SOLID
  5
F236
  8
0
  6
CONTINUOUS
 62
     7
 10
30.938794767748199
 20
1.1852848924857251
 30
0.0
 11
30.924555039742501
 21
1.1429102180171631
 31
0.0
 12
31.22795311547684
 22
1.1429102180171631
 32
0.0
 13
31.22795311547684
 23
1.1429102180171631
 33
0.0
  0
SOLID
  5
F237
  8
0
  6
CONTINUOUS
 62
     7
 10
-30.938794767748199
 20
1.1852848924857251
 30
0.0
 11
-31.242192843482549
 21
1.1852848924857251
 31
0.0
 12
-31.22795311547684
 22
1.1429102180171631
 32
0.0
 13
-31.22795311547684
 23
1.1429102180171631
 33
0.0
210
0.0
220
0.0
230
-1.0
  0
SOLID
  5
F238
  8
0
  6
CONTINUOUS
 62
     7
 10
30.924555039742501
 20
1.1429102180171631
 30
0.0
 11
30.914047498512488
 21
1.1217228807828681
 31
0.0
 12
31.22083325147398
 22
1.1217228807828681
 32
0.0
 13
31.22083325147398
 23
1.1217228807828681
 33
0.0
  0
SOLID
  5
F239
  8
0
  6
CONTINUOUS
 62
     7
 10
-30.924555039742501
 20
1.1429102180171631
 30
0.0
 11
-31.22795311547684
 21
1.1429102180171631
 31
0.0
 12
-31.22083325147398
 22
1.1217228807828681
 32
0.0
 13
-31.22083325147398
 23
1.1217228807828681
 33
0.0
210
0.0
220
0.0
230
-1.0
  0
SOLID
  5
F23A
  8
0
  6
CONTINUOUS
 62
     7
 10
30.914047498512488
 20
1.1217228807828681
 30
0.0
 11
30.90353995728249
 21
1.1005355435485731
 31
0.0
 12
31.21380918858652
 22
1.1005355435485731
 32
0.0
 13
31.21380918858652
 23
1.1005355435485731
 33
0.0
  0
SOLID
  5
F23B
  8
0
  6
CONTINUOUS
 62
     7
 10
-30.914047498512488
 20
1.1217228807828681
 30
0.0
 11
-31.22083325147398
 21
1.1217228807828681
 31
0.0
 12
-31.21380918858652
 22
1.1005355435485731
 32
0.0
 13
-31.21380918858652
 23
1.1005355435485731
 33
0.0
210
0.0
220
0.0
230
-1.0
  0
SOLID
  5
F23C
  8
0
  6
CONTINUOUS
 62
     7
 10
30.90353995728249
 20
1.1005355435485731
 30
0.0
 11
30.861165282813889
 21
1.079520461088576
 31
0.0
 12
31.206842231901408
 22
1.079520461088576
 32
0.0
 13
31.206842231901408
 23
1.079520461088576
 33
0.0
  0
SOLID
  5
F23D
  8
0
  6
CONTINUOUS
 62
     7
 10
-30.90353995728249
 20
1.1005355435485731
 30
0.0
 11
-31.21380918858652
 21
1.1005355435485731
 31
0.0
 12
-31.206842231901408
 22
1.079520461088576
 32
0.0
 13
-31.206842231901408
 23
1.079520461088576
 33
0.0
210
0.0
220
0.0
230
-1.0
  0
SOLID
  5
F23E
  8
0
  6
CONTINUOUS
 62
     7
 10
30.861165282813889
 20
1.079520461088576
 30
0.0
 11
30.861165282813889
 21
1.058333123854281
 31
0.0
 12
31.199818169013952
 22
1.058333123854281
 32
0.0
 13
31.199818169013952
 23
1.058333123854281
 33
0.0
  0
SOLID
  5
F23F
  8
0
  6
CONTINUOUS
 62
     7
 10
-30.861165282813889
 20
1.079520461088576
 30
0.0
 11
-31.206842231901408
 21
1.079520461088576
 31
0.0
 12
-31.199818169013952
 22
1.058333123854281
 32
0.0
 13
-31.199818169013952
 23
1.058333123854281
 33
0.0
210
0.0
220
0.0
230
-1.0
  0
SOLID
  5
F240
  8
0
  6
CONTINUOUS
 62
     7
 10
30.861165282813889
 20
1.058333123854281
 30
0.0
 11
30.797775525885299
 21
1.015958449385691
 31
0.0
 12
31.178803086553931
 22
1.015958449385691
 32
0.0
 13
31.178803086553931
 23
1.015958449385691
 33
0.0
  0
SOLID
  5
F241
  8
0
  6
CONTINUOUS
 62
     7
 10
-30.861165282813889
 20
1.058333123854281
 30
0.0
 11
-31.199818169013952
 21
1.058333123854281
 31
0.0
 12
-31.178803086553931
 22
1.015958449385691
 32
0.0
 13
-31.178803086553931
 23
1.015958449385691
 33
0.0
210
0.0
220
0.0
230
-1.0
  0
SOLID
  5
F242
  8
0
  6
CONTINUOUS
 62
     7
 10
30.797775525885299
 20
1.015958449385691
 30
0.0
 11
30.734041259408169
 21
0.9947711121514259
 31
0.0
 12
31.15761574931966
 22
0.9947711121514259
 32
0.0
 13
31.15761574931966
 23
0.9947711121514259
 33
0.0
  0
SOLID
  5
F243
  8
0
  6
CONTINUOUS
 62
     7
 10
-30.797775525885299
 20
1.015958449385691
 30
0.0
 11
-31.178803086553931
 21
1.015958449385691
 31
0.0
 12
-31.15761574931966
 22
0.9947711121514259
 32
0.0
 13
-31.15761574931966
 23
0.9947711121514259
 33
0.0
210
0.0
220
0.0
230
-1.0
  0
SOLID
  5
F244
  8
0
  6
CONTINUOUS
 62
     7
 10
30.183859510413772
 20
0.9947711121514259
 30
0.0
 11
30.20504684764806
 21
0.9735837749171308
 31
0.0
 12
31.136428412085369
 22
0.9735837749171308
 32
0.0
 13
31.136428412085369
 23
0.9735837749171308
 33
0.0
  0
SOLID
  5
F245
  8
0
  6
CONTINUOUS
 62
     7
 10
-30.183859510413772
 20
0.9947711121514259
 30
0.0
 11
-31.15761574931966
 21
0.9947711121514259
 31
0.0
 12
-31.136428412085369
 22
0.9735837749171308
 32
0.0
 13
-31.136428412085369
 23
0.9735837749171308
 33
0.0
210
0.0
220
0.0
230
-1.0
  0
SOLID
  5
F246
  8
0
  6
CONTINUOUS
 62
     7
 10
30.20504684764806
 20
0.9735837749171308
 30
0.0
 11
30.226234184882351
 21
0.9523964376828359
 31
0.0
 12
31.122303520595828
 22
0.9523964376828359
 32
0.0
 13
31.122303520595828
 23
0.9523964376828359
 33
0.0
  0
SOLID
  5
F247
  8
0
  6
CONTINUOUS
 62
     7
 10
-30.20504684764806
 20
0.9735837749171308
 30
0.0
 11
-31.136428412085369
 21
0.9735837749171308
 31
0.0
 12
-31.122303520595828
 22
0.9523964376828359
 32
0.0
 13
-31.122303520595828
 23
0.9523964376828359
 33
0.0
210
0.0
220
0.0
230
-1.0
  0
SOLID
  5
F248
  8
0
  6
CONTINUOUS
 62
     7
 10
30.226234184882351
 20
0.9523964376828359
 30
0.0
 11
30.247249267342369
 21
0.9312091004485694
 31
0.0
 12
31.108178629106309
 22
0.9312091004485694
 32
0.0
 13
31.108178629106309
 23
0.9312091004485694
 33
0.0
  0
SOLID
  5
F249
  8
0
  6
CONTINUOUS
 62
     7
 10
-30.226234184882351
 20
0.9523964376828359
 30
0.0
 11
-31.122303520595828
 21
0.9523964376828359
 31
0.0
 12
-31.108178629106309
 22
0.9312091004485694
 32
0.0
 13
-31.108178629106309
 23
0.9312091004485694
 33
0.0
210
0.0
220
0.0
230
-1.0
  0
SOLID
  5
F24A
  8
0
  6
CONTINUOUS
 62
     7
 10
30.247249267342369
 20
0.9312091004485694
 30
0.0
 11
30.279246470512529
 21
0.9100217632142744
 31
0.0
 12
31.094053737616768
 22
0.9100217632142744
 32
0.0
 13
31.094053737616768
 23
0.9100217632142744
 33
0.0
  0
SOLID
  5
F24B
  8
0
  6
CONTINUOUS
 62
     7
 10
-30.247249267342369
 20
0.9312091004485694
 30
0.0
 11
-31.108178629106309
 21
0.9312091004485694
 31
0.0
 12
-31.094053737616768
 22
0.9100217632142744
 32
0.0
 13
-31.094053737616768
 23
0.9100217632142744
 33
0.0
210
0.0
220
0.0
230
-1.0
  0
SOLID
  5
F24C
  8
0
  6
CONTINUOUS
 62
     7
 10
30.279246470512529
 20
0.9100217632142744
 30
0.0
 11
30.310983533819488
 21
0.8890066807542496
 31
0.0
 12
31.072952879309991
 22
0.8890066807542496
 32
0.0
 13
31.072952879309991
 23
0.8890066807542496
 33
0.0
  0
SOLID
  5
F24D
  8
0
  6
CONTINUOUS
 62
     7
 10
-30.279246470512529
 20
0.9100217632142744
 30
0.0
 11
-31.094053737616768
 21
0.9100217632142744
 31
0.0
 12
-31.072952879309991
 22
0.8890066807542496
 32
0.0
 13
-31.072952879309991
 23
0.8890066807542496
 33
0.0
210
0.0
220
0.0
230
-1.0
  0
SOLID
  5
F24E
  8
0
  6
CONTINUOUS
 62
     7
 10
30.310983533819488
 20
0.8890066807542496
 30
0.0
 11
30.331998616279542
 21
0.8678193435199546
 31
0.0
 12
31.051679063148221
 22
0.8678193435199546
 32
0.0
 13
31.051679063148221
 23
0.8678193435199546
 33
0.0
  0
SOLID
  5
F24F
  8
0
  6
CONTINUOUS
 62
     7
 10
-30.310983533819488
 20
0.8890066807542496
 30
0.0
 11
-31.072952879309991
 21
0.8890066807542496
 31
0.0
 12
-31.051679063148221
 22
0.8678193435199546
 32
0.0
 13
-31.051679063148221
 23
0.8678193435199546
 33
0.0
210
0.0
220
0.0
230
-1.0
  0
SOLID
  5
F250
  8
0
  6
CONTINUOUS
 62
     7
 10
30.331998616279542
 20
0.8678193435199546
 30
0.0
 11
30.353013698739549
 21
0.846632006285688
 31
0.0
 12
30.988289306219631
 22
0.846632006285688
 32
0.0
 13
30.988289306219631
 23
0.846632006285688
 33
0.0
  0
SOLID
  5
F251
  8
0
  6
CONTINUOUS
 62
     7
 10
-30.331998616279542
 20
0.8678193435199546
 30
0.0
 11
-31.051679063148221
 21
0.8678193435199546
 31
0.0
 12
-30.988289306219631
 22
0.846632006285688
 32
0.0
 13
-30.988289306219631
 23
0.846632006285688
 33
0.0
210
0.0
220
0.0
230
-1.0
  0
SOLID
  5
F252
  8
0
  6
CONTINUOUS
 62
     7
 10
30.353013698739549
 20
0.846632006285688
 30
0.0
 11
30.416747965216668
 21
0.8042573318170978
 31
0.0
 12
30.945914631751041
 22
0.8042573318170978
 32
0.0
 13
30.945914631751041
 23
0.8042573318170978
 33
0.0
  0
SOLID
  5
F253
  8
0
  6
CONTINUOUS
 62
     7
 10
-30.353013698739549
 20
0.846632006285688
 30
0.0
 11
-30.988289306219631
 21
0.846632006285688
 31
0.0
 12
-30.945914631751041
 22
0.8042573318170978
 32
0.0
 13
-30.945914631751041
 23
0.8042573318170978
 33
0.0
210
0.0
220
0.0
230
-1.0
  0
SOLID
  5
F254
  8
0
  6
CONTINUOUS
 62
     7
 10
30.416747965216668
 20
0.8042573318170978
 30
0.0
 11
30.480137722145251
 21
0.7830699945828031
 31
0.0
 12
30.882180365273911
 22
0.7830699945828031
 32
0.0
 13
30.882180365273911
 23
0.7830699945828031
 33
0.0
  0
SOLID
  5
F255
  8
0
  6
CONTINUOUS
 62
     7
 10
-30.416747965216668
 20
0.8042573318170978
 30
0.0
 11
-30.945914631751041
 21
0.8042573318170978
 31
0.0
 12
-30.882180365273911
 22
0.7830699945828031
 32
0.0
 13
-30.882180365273911
 23
0.7830699945828031
 33
0.0
210
0.0
220
0.0
230
-1.0
  0
SOLID
  5
F256
  8
0
  6
CONTINUOUS
 62
     7
 10
30.480137722145251
 20
0.7830699945828031
 30
0.0
 11
30.54352747907387
 21
0.7618826573485366
 31
0.0
 12
30.818790608345331
 22
0.7618826573485366
 32
0.0
 13
30.818790608345331
 23
0.7618826573485366
 33
0.0
  0
SOLID
  5
F257
  8
0
  6
CONTINUOUS
 62
     7
 10
-30.480137722145251
 20
0.7830699945828031
 30
0.0
 11
-30.882180365273911
 21
0.7830699945828031
 31
0.0
 12
-30.818790608345331
 22
0.7618826573485366
 32
0.0
 13
-30.818790608345331
 23
0.7618826573485366
 33
0.0
210
0.0
220
0.0
230
-1.0
  0
LINE
  5
F258
  8
0
  6
CONTINUOUS
 62
     7
 10
30.713026176948151
 20
2.2859929000230461
 30
0.0
 11
30.649636420019561
 21
2.2648055627887791
 31
0.0
  0
LINE
  5
F259
  8
0
  6
CONTINUOUS
 62
     7
 10
30.77641593387677
 20
2.2648055627887791
 30
0.0
 11
30.713026176948151
 21
2.2859929000230461
 31
0.0
  0
LINE
  5
F25A
  8
0
  6
CONTINUOUS
 62
     7
 10
30.585902153542431
 20
2.2648055627887791
 30
0.0
 11
30.522512396613848
 21
2.2436182255544841
 31
0.0
  0
LINE
  5
F25B
  8
0
  6
CONTINUOUS
 62
     7
 10
30.840150200353861
 20
2.2648055627887791
 30
0.0
 11
30.90353995728249
 21
2.2436182255544841
 31
0.0
  0
LINE
  5
F25C
  8
0
  6
CONTINUOUS
 62
     7
 10
30.522512396613848
 20
2.2436182255544841
 30
0.0
 11
30.501325059379539
 21
2.2224308883201882
 31
0.0
  0
LINE
  5
F25D
  8
0
  6
CONTINUOUS
 62
     7
 10
30.90353995728249
 20
2.2436182255544841
 30
0.0
 11
30.966929714211059
 21
2.2224308883201882
 31
0.0
  0
LINE
  5
F25E
  8
0
  6
CONTINUOUS
 62
     7
 10
30.501325059379539
 20
2.2224308883201882
 30
0.0
 11
30.480137722145251
 21
2.201243551085923
 31
0.0
  0
LINE
  5
F25F
  8
0
  6
CONTINUOUS
 62
     7
 10
30.966929714211059
 20
2.2224308883201882
 30
0.0
 11
30.998624592675348
 21
2.201243551085923
 31
0.0
  0
LINE
  5
F260
  8
0
  6
CONTINUOUS
 62
     7
 10
30.480137722145251
 20
2.201243551085923
 30
0.0
 11
30.448442843680962
 21
2.180056213851628
 31
0.0
  0
LINE
  5
F261
  8
0
  6
CONTINUOUS
 62
     7
 10
30.998624592675348
 20
2.201243551085923
 30
0.0
 11
31.030319471139681
 21
2.180056213851628
 31
0.0
  0
LINE
  5
F262
  8
0
  6
CONTINUOUS
 62
     7
 10
30.448442843680962
 20
2.180056213851628
 30
0.0
 11
30.416747965216668
 21
2.1588688766173321
 31
0.0
  0
LINE
  5
F263
  8
0
  6
CONTINUOUS
 62
     7
 10
31.030319471139681
 20
2.180056213851628
 30
0.0
 11
31.072694145608239
 21
2.1588688766173321
 31
0.0
  0
LINE
  5
F264
  8
0
  6
CONTINUOUS
 62
     7
 10
30.416747965216668
 20
2.1588688766173321
 30
0.0
 11
30.38853656509491
 21
2.1166664569230118
 31
0.0
  0
LINE
  5
F265
  8
0
  6
CONTINUOUS
 62
     7
 10
31.072694145608239
 20
2.1588688766173321
 30
0.0
 11
31.094053737616768
 21
2.1166664569230118
 31
0.0
  0
LINE
  5
F266
  8
0
  6
CONTINUOUS
 62
     7
 10
30.38853656509491
 20
2.1166664569230118
 30
0.0
 11
30.374373290748078
 21
2.095479119688747
 31
0.0
  0
LINE
  5
F267
  8
0
  6
CONTINUOUS
 62
     7
 10
31.094053737616768
 20
2.1166664569230118
 30
0.0
 11
31.11524107485106
 21
2.095479119688747
 31
0.0
  0
LINE
  5
F268
  8
0
  6
CONTINUOUS
 62
     7
 10
30.374373290748078
 20
2.095479119688747
 30
0.0
 11
30.353185953513801
 21
2.074291782454452
 31
0.0
  0
LINE
  5
F269
  8
0
  6
CONTINUOUS
 62
     7
 10
31.11524107485106
 20
2.095479119688747
 30
0.0
 11
31.136428412085369
 21
2.074291782454452
 31
0.0
  0
LINE
  5
F26A
  8
0
  6
CONTINUOUS
 62
     7
 10
30.353185953513801
 20
2.074291782454452
 30
0.0
 11
30.33199861627952
 21
2.053104445220157
 31
0.0
  0
LINE
  5
F26B
  8
0
  6
CONTINUOUS
 62
     7
 10
31.136428412085369
 20
2.074291782454452
 30
0.0
 11
31.15761574931966
 21
2.053104445220157
 31
0.0
  0
LINE
  5
F26C
  8
0
  6
CONTINUOUS
 62
     7
 10
30.33199861627952
 20
2.053104445220157
 30
0.0
 11
30.691666584939611
 21
2.0319171079858891
 31
0.0
  0
LINE
  5
F26D
  8
0
  6
CONTINUOUS
 62
     7
 10
31.15761574931966
 20
2.053104445220157
 30
0.0
 11
31.178803086553931
 21
2.0319171079858891
 31
0.0
  0
LINE
  5
F26E
  8
0
  6
CONTINUOUS
 62
     7
 10
30.755400851416741
 20
2.0319171079858891
 30
0.0
 11
30.818790608345331
 21
1.9895424335173
 31
0.0
  0
LINE
  5
F26F
  8
0
  6
CONTINUOUS
 62
     7
 10
31.178803086553931
 20
2.0319171079858891
 30
0.0
 11
31.199818169013952
 21
1.9895424335173
 31
0.0
  0
LINE
  5
F270
  8
0
  6
CONTINUOUS
 62
     7
 10
30.818790608345331
 20
1.9895424335173
 30
0.0
 11
30.861165282813889
 21
1.947340013823009
 31
0.0
  0
LINE
  5
F271
  8
0
  6
CONTINUOUS
 62
     7
 10
31.199818169013952
 20
1.9895424335173
 30
0.0
 11
31.2280295691357
 21
1.947340013823009
 31
0.0
  0
LINE
  5
F272
  8
0
  6
CONTINUOUS
 62
     7
 10
30.861165282813889
 20
1.947340013823009
 30
0.0
 11
30.90353995728249
 21
1.926152676588714
 31
0.0
  0
LINE
  5
F273
  8
0
  6
CONTINUOUS
 62
     7
 10
31.2280295691357
 20
1.947340013823009
 30
0.0
 11
31.242192843482549
 21
1.926152676588714
 31
0.0
  0
LINE
  5
F274
  8
0
  6
CONTINUOUS
 62
     7
 10
30.90353995728249
 20
1.926152676588714
 30
0.0
 11
30.924555039742501
 21
1.883778002120124
 31
0.0
  0
LINE
  5
F275
  8
0
  6
CONTINUOUS
 62
     7
 10
31.242192843482549
 20
1.926152676588714
 30
0.0
 11
31.2562028984559
 21
1.883778002120124
 31
0.0
  0
LINE
  5
F276
  8
0
  6
CONTINUOUS
 62
     7
 10
30.924555039742501
 20
1.883778002120124
 30
0.0
 11
30.931674903745339
 21
1.8625906648858559
 31
0.0
  0
LINE
  5
F277
  8
0
  6
CONTINUOUS
 62
     7
 10
31.2562028984559
 20
1.883778002120124
 30
0.0
 11
31.26320792594257
 21
1.8625906648858559
 31
0.0
  0
LINE
  5
F278
  8
0
  6
CONTINUOUS
 62
     7
 10
30.931674903745339
 20
1.8625906648858559
 30
0.0
 11
30.945914631751041
 21
1.8202159904172659
 31
0.0
  0
LINE
  5
F279
  8
0
  6
CONTINUOUS
 62
     7
 10
31.26320792594257
 20
1.8625906648858559
 30
0.0
 11
31.26320792594257
 21
1.8202159904172659
 31
0.0
  0
LINE
  5
F27A
  8
0
  6
CONTINUOUS
 62
     7
 10
30.945914631751041
 20
1.8202159904172659
 30
0.0
 11
30.95288158843616
 21
1.7992009079572411
 31
0.0
  0
LINE
  5
F27B
  8
0
  6
CONTINUOUS
 62
     7
 10
31.26320792594257
 20
1.8202159904172659
 30
0.0
 11
31.26320792594257
 21
1.7992009079572411
 31
0.0
  0
LINE
  5
F27C
  8
0
  6
CONTINUOUS
 62
     7
 10
30.95288158843616
 20
1.7992009079572411
 30
0.0
 11
30.966929714211059
 21
1.7568262334886811
 31
0.0
  0
LINE
  5
F27D
  8
0
  6
CONTINUOUS
 62
     7
 10
31.26320792594257
 20
1.7992009079572411
 30
0.0
 11
31.277447653948261
 21
1.7568262334886811
 31
0.0
  0
LINE
  5
F27E
  8
0
  6
CONTINUOUS
 62
     7
 10
30.966929714211059
 20
1.7568262334886811
 30
0.0
 11
30.966929714211059
 21
1.7356388962543861
 31
0.0
  0
LINE
  5
F27F
  8
0
  6
CONTINUOUS
 62
     7
 10
31.277447653948261
 20
1.7568262334886811
 30
0.0
 11
31.2845675179511
 21
1.7356388962543861
 31
0.0
  0
LINE
  5
F280
  8
0
  6
CONTINUOUS
 62
     7
 10
30.966929714211059
 20
1.7356388962543861
 30
0.0
 11
30.966929714211059
 21
1.693264221785824
 31
0.0
  0
LINE
  5
F281
  8
0
  6
CONTINUOUS
 62
     7
 10
31.2845675179511
 20
1.7356388962543861
 30
0.0
 11
31.298577572924451
 21
1.693264221785824
 31
0.0
  0
LINE
  5
F282
  8
0
  6
CONTINUOUS
 62
     7
 10
30.966929714211059
 20
1.693264221785824
 30
0.0
 11
30.972280487769211
 21
1.672076884551529
 31
0.0
  0
LINE
  5
F283
  8
0
  6
CONTINUOUS
 62
     7
 10
31.298577572924451
 20
1.693264221785824
 30
0.0
 11
31.305582600411132
 21
1.672076884551529
 31
0.0
  0
LINE
  5
F284
  8
0
  6
CONTINUOUS
 62
     7
 10
30.972280487769211
 20
1.672076884551529
 30
0.0
 11
30.988289306219631
 21
1.6086871276229431
 31
0.0
  0
LINE
  5
F285
  8
0
  6
CONTINUOUS
 62
     7
 10
31.305582600411132
 20
1.672076884551529
 30
0.0
 11
31.305582600411132
 21
1.6086871276229431
 31
0.0
  0
LINE
  5
F286
  8
0
  6
CONTINUOUS
 62
     7
 10
30.988289306219631
 20
1.6086871276229431
 30
0.0
 11
30.988289306219631
 21
1.460375766982934
 31
0.0
  0
LINE
  5
F287
  8
0
  6
CONTINUOUS
 62
     7
 10
31.305582600411132
 20
1.6086871276229431
 30
0.0
 11
31.305582600411132
 21
1.460375766982934
 31
0.0
  0
LINE
  5
F288
  8
0
  6
CONTINUOUS
 62
     7
 10
30.988289306219631
 20
1.460375766982934
 30
0.0
 11
30.988289306219631
 21
1.4181733472886151
 31
0.0
  0
LINE
  5
F289
  8
0
  6
CONTINUOUS
 62
     7
 10
31.305582600411132
 20
1.460375766982934
 30
0.0
 11
31.295096459468748
 21
1.4181733472886151
 31
0.0
  0
LINE
  5
F28A
  8
0
  6
CONTINUOUS
 62
     7
 10
30.988289306219631
 20
1.4181733472886151
 30
0.0
 11
30.977609510215348
 21
1.3757986728200531
 31
0.0
  0
LINE
  5
F28B
  8
0
  6
CONTINUOUS
 62
     7
 10
31.295096459468748
 20
1.4181733472886151
 30
0.0
 11
31.2845675179511
 21
1.3757986728200531
 31
0.0
  0
LINE
  5
F28C
  8
0
  6
CONTINUOUS
 62
     7
 10
30.977609510215348
 20
1.3757986728200531
 30
0.0
 11
30.966929714211059
 21
1.3334239983514631
 31
0.0
  0
LINE
  5
F28D
  8
0
  6
CONTINUOUS
 62
     7
 10
31.2845675179511
 20
1.3757986728200531
 30
0.0
 11
31.2845675179511
 21
1.3334239983514631
 31
0.0
  0
LINE
  5
F28E
  8
0
  6
CONTINUOUS
 62
     7
 10
30.966929714211059
 20
1.3334239983514631
 30
0.0
 11
30.966929714211059
 21
1.3122366611171961
 31
0.0
  0
LINE
  5
F28F
  8
0
  6
CONTINUOUS
 62
     7
 10
31.2845675179511
 20
1.3334239983514631
 30
0.0
 11
31.2845675179511
 21
1.3122366611171961
 31
0.0
  0
LINE
  5
F290
  8
0
  6
CONTINUOUS
 62
     7
 10
30.966929714211059
 20
1.3122366611171961
 30
0.0
 11
30.966929714211059
 21
1.270034241422876
 31
0.0
  0
LINE
  5
F291
  8
0
  6
CONTINUOUS
 62
     7
 10
31.2845675179511
 20
1.3122366611171961
 30
0.0
 11
31.270347137401941
 21
1.270034241422876
 31
0.0
  0
LINE
  5
F292
  8
0
  6
CONTINUOUS
 62
     7
 10
30.966929714211059
 20
1.270034241422876
 30
0.0
 11
30.959924686724381
 21
1.248846904188581
 31
0.0
  0
LINE
  5
F293
  8
0
  6
CONTINUOUS
 62
     7
 10
31.270347137401941
 20
1.270034241422876
 30
0.0
 11
31.26320792594257
 21
1.248846904188581
 31
0.0
  0
LINE
  5
F294
  8
0
  6
CONTINUOUS
 62
     7
 10
30.959924686724381
 20
1.248846904188581
 30
0.0
 11
30.945914631751041
 21
1.2064722297200201
 31
0.0
  0
LINE
  5
F295
  8
0
  6
CONTINUOUS
 62
     7
 10
31.26320792594257
 20
1.248846904188581
 30
0.0
 11
31.249197870969219
 21
1.2064722297200201
 31
0.0
  0
LINE
  5
F296
  8
0
  6
CONTINUOUS
 62
     7
 10
30.945914631751041
 20
1.2064722297200201
 30
0.0
 11
30.938794767748199
 21
1.1852848924857251
 31
0.0
  0
LINE
  5
F297
  8
0
  6
CONTINUOUS
 62
     7
 10
31.249197870969219
 20
1.2064722297200201
 30
0.0
 11
31.242192843482549
 21
1.1852848924857251
 31
0.0
  0
LINE
  5
F298
  8
0
  6
CONTINUOUS
 62
     7
 10
30.938794767748199
 20
1.1852848924857251
 30
0.0
 11
30.924555039742501
 21
1.1429102180171631
 31
0.0
  0
LINE
  5
F299
  8
0
  6
CONTINUOUS
 62
     7
 10
31.242192843482549
 20
1.1852848924857251
 30
0.0
 11
31.22795311547684
 21
1.1429102180171631
 31
0.0
  0
LINE
  5
F29A
  8
0
  6
CONTINUOUS
 62
     7
 10
30.924555039742501
 20
1.1429102180171631
 30
0.0
 11
30.914047498512488
 21
1.1217228807828681
 31
0.0
  0
LINE
  5
F29B
  8
0
  6
CONTINUOUS
 62
     7
 10
31.22795311547684
 20
1.1429102180171631
 30
0.0
 11
31.22083325147398
 21
1.1217228807828681
 31
0.0
  0
LINE
  5
F29C
  8
0
  6
CONTINUOUS
 62
     7
 10
30.914047498512488
 20
1.1217228807828681
 30
0.0
 11
30.90353995728249
 21
1.1005355435485731
 31
0.0
  0
LINE
  5
F29D
  8
0
  6
CONTINUOUS
 62
     7
 10
31.22083325147398
 20
1.1217228807828681
 30
0.0
 11
31.21380918858652
 21
1.1005355435485731
 31
0.0
  0
LINE
  5
F29E
  8
0
  6
CONTINUOUS
 62
     7
 10
30.90353995728249
 20
1.1005355435485731
 30
0.0
 11
30.861165282813889
 21
1.079520461088576
 31
0.0
  0
LINE
  5
F29F
  8
0
  6
CONTINUOUS
 62
     7
 10
31.21380918858652
 20
1.1005355435485731
 30
0.0
 11
31.206842231901408
 21
1.079520461088576
 31
0.0
  0
LINE
  5
F2A0
  8
0
  6
CONTINUOUS
 62
     7
 10
30.861165282813889
 20
1.079520461088576
 30
0.0
 11
30.861165282813889
 21
1.058333123854281
 31
0.0
  0
LINE
  5
F2A1
  8
0
  6
CONTINUOUS
 62
     7
 10
31.206842231901408
 20
1.079520461088576
 30
0.0
 11
31.199818169013952
 21
1.058333123854281
 31
0.0
  0
LINE
  5
F2A2
  8
0
  6
CONTINUOUS
 62
     7
 10
30.861165282813889
 20
1.058333123854281
 30
0.0
 11
30.797775525885299
 21
1.015958449385691
 31
0.0
  0
LINE
  5
F2A3
  8
0
  6
CONTINUOUS
 62
     7
 10
31.199818169013952
 20
1.058333123854281
 30
0.0
 11
31.178803086553931
 21
1.015958449385691
 31
0.0
  0
LINE
  5
F2A4
  8
0
  6
CONTINUOUS
 62
     7
 10
30.797775525885299
 20
1.015958449385691
 30
0.0
 11
30.734041259408169
 21
0.9947711121514259
 31
0.0
  0
LINE
  5
F2A5
  8
0
  6
CONTINUOUS
 62
     7
 10
31.178803086553931
 20
1.015958449385691
 30
0.0
 11
31.15761574931966
 21
0.9947711121514259
 31
0.0
  0
LINE
  5
F2A6
  8
0
  6
CONTINUOUS
 62
     7
 10
30.183859510413772
 20
0.9947711121514259
 30
0.0
 11
30.20504684764806
 21
0.9735837749171308
 31
0.0
  0
LINE
  5
F2A7
  8
0
  6
CONTINUOUS
 62
     7
 10
31.15761574931966
 20
0.9947711121514259
 30
0.0
 11
31.136428412085369
 21
0.9735837749171308
 31
0.0
  0
LINE
  5
F2A8
  8
0
  6
CONTINUOUS
 62
     7
 10
30.20504684764806
 20
0.9735837749171308
 30
0.0
 11
30.226234184882351
 21
0.9523964376828359
 31
0.0
  0
LINE
  5
F2A9
  8
0
  6
CONTINUOUS
 62
     7
 10
31.136428412085369
 20
0.9735837749171308
 30
0.0
 11
31.122303520595828
 21
0.9523964376828359
 31
0.0
  0
LINE
  5
F2AA
  8
0
  6
CONTINUOUS
 62
     7
 10
30.226234184882351
 20
0.9523964376828359
 30
0.0
 11
30.247249267342369
 21
0.9312091004485694
 31
0.0
  0
LINE
  5
F2AB
  8
0
  6
CONTINUOUS
 62
     7
 10
31.122303520595828
 20
0.9523964376828359
 30
0.0
 11
31.108178629106309
 21
0.9312091004485694
 31
0.0
  0
LINE
  5
F2AC
  8
0
  6
CONTINUOUS
 62
     7
 10
30.247249267342369
 20
0.9312091004485694
 30
0.0
 11
30.279246470512529
 21
0.9100217632142744
 31
0.0
  0
LINE
  5
F2AD
  8
0
  6
CONTINUOUS
 62
     7
 10
31.108178629106309
 20
0.9312091004485694
 30
0.0
 11
31.094053737616768
 21
0.9100217632142744
 31
0.0
  0
LINE
  5
F2AE
  8
0
  6
CONTINUOUS
 62
     7
 10
30.279246470512529
 20
0.9100217632142744
 30
0.0
 11
30.310983533819488
 21
0.8890066807542496
 31
0.0
  0
LINE
  5
F2AF
  8
0
  6
CONTINUOUS
 62
     7
 10
31.094053737616768
 20
0.9100217632142744
 30
0.0
 11
31.072952879309991
 21
0.8890066807542496
 31
0.0
  0
LINE
  5
F2B0
  8
0
  6
CONTINUOUS
 62
     7
 10
30.310983533819488
 20
0.8890066807542496
 30
0.0
 11
30.331998616279542
 21
0.8678193435199546
 31
0.0
  0
LINE
  5
F2B1
  8
0
  6
CONTINUOUS
 62
     7
 10
31.072952879309991
 20
0.8890066807542496
 30
0.0
 11
31.051679063148221
 21
0.8678193435199546
 31
0.0
  0
LINE
  5
F2B2
  8
0
  6
CONTINUOUS
 62
     7
 10
30.331998616279542
 20
0.8678193435199546
 30
0.0
 11
30.353013698739549
 21
0.846632006285688
 31
0.0
  0
LINE
  5
F2B3
  8
0
  6
CONTINUOUS
 62
     7
 10
31.051679063148221
 20
0.8678193435199546
 30
0.0
 11
30.988289306219631
 21
0.846632006285688
 31
0.0
  0
LINE
  5
F2B4
  8
0
  6
CONTINUOUS
 62
     7
 10
30.353013698739549
 20
0.846632006285688
 30
0.0
 11
30.416747965216668
 21
0.8042573318170978
 31
0.0
  0
LINE
  5
F2B5
  8
0
  6
CONTINUOUS
 62
     7
 10
30.988289306219631
 20
0.846632006285688
 30
0.0
 11
30.945914631751041
 21
0.8042573318170978
 31
0.0
  0
LINE
  5
F2B6
  8
0
  6
CONTINUOUS
 62
     7
 10
30.416747965216668
 20
0.8042573318170978
 30
0.0
 11
30.480137722145251
 21
0.7830699945828031
 31
0.0
  0
LINE
  5
F2B7
  8
0
  6
CONTINUOUS
 62
     7
 10
30.945914631751041
 20
0.8042573318170978
 30
0.0
 11
30.882180365273911
 21
0.7830699945828031
 31
0.0
  0
LINE
  5
F2B8
  8
0
  6
CONTINUOUS
 62
     7
 10
30.480137722145251
 20
0.7830699945828031
 30
0.0
 11
30.54352747907387
 21
0.7618826573485366
 31
0.0
  0
LINE
  5
F2B9
  8
0
  6
CONTINUOUS
 62
     7
 10
30.882180365273911
 20
0.7830699945828031
 30
0.0
 11
30.818790608345331
 21
0.7618826573485366
 31
0.0
  0
ENDBLK
  5
F2BB
  8
0
  0
BLOCK
  8
0
  2
*U17
 70
     1
 10
0.0
 20
0.0
 30
0.0
  3
*U17
  1

  0
SOLID
  5
F2BD
  8
0
  6
CONTINUOUS
 62
     7
 10
30.226234184882351
 20
2.81515956655744
 30
0.0
 11
30.215554388878079
 21
2.793972229323145
 31
0.0
 12
30.628276828011
 22
2.793972229323145
 32
0.0
 13
30.628276828011
 23
2.793972229323145
 33
0.0
  0
SOLID
  5
F2BE
  8
0
  6
CONTINUOUS
 62
     7
 10
-30.226234184882351
 20
2.81515956655744
 30
0.0
 11
-30.691666584939611
 21
2.81515956655744
 31
0.0
 12
-30.628276828011
 22
2.793972229323145
 32
0.0
 13
-30.628276828011
 23
2.793972229323145
 33
0.0
210
0.0
220
0.0
230
-1.0
  0
SOLID
  5
F2BF
  8
0
  6
CONTINUOUS
 62
     7
 10
30.215554388878079
 20
2.793972229323145
 30
0.0
 11
30.204874592873811
 21
2.77278489208885
 31
0.0
 12
30.56488707108241
 22
2.77278489208885
 32
0.0
 13
30.56488707108241
 23
2.77278489208885
 33
0.0
  0
SOLID
  5
F2C0
  8
0
  6
CONTINUOUS
 62
     7
 10
-30.215554388878079
 20
2.793972229323145
 30
0.0
 11
-30.628276828011
 21
2.793972229323145
 31
0.0
 12
-30.56488707108241
 22
2.77278489208885
 32
0.0
 13
-30.56488707108241
 23
2.77278489208885
 33
0.0
210
0.0
220
0.0
230
-1.0
  0
SOLID
  5
F2C1
  8
0
  6
CONTINUOUS
 62
     7
 10
30.204874592873811
 20
2.77278489208885
 30
0.0
 11
30.162499918405221
 21
2.730410217620288
 31
0.0
 12
30.522512396613848
 22
2.730410217620288
 32
0.0
 13
30.522512396613848
 23
2.730410217620288
 33
0.0
  0
SOLID
  5
F2C2
  8
0
  6
CONTINUOUS
 62
     7
 10
-30.204874592873811
 20
2.77278489208885
 30
0.0
 11
-30.56488707108241
 21
2.77278489208885
 31
0.0
 12
-30.522512396613848
 22
2.730410217620288
 32
0.0
 13
-30.522512396613848
 23
2.730410217620288
 33
0.0
210
0.0
220
0.0
230
-1.0
  0
SOLID
  5
F2C3
  8
0
  6
CONTINUOUS
 62
     7
 10
30.162499918405221
 20
2.730410217620288
 30
0.0
 11
30.141484835945221
 21
2.688035543151698
 31
0.0
 12
30.45912263968523
 22
2.688035543151698
 32
0.0
 13
30.45912263968523
 23
2.688035543151698
 33
0.0
  0
SOLID
  5
F2C4
  8
0
  6
CONTINUOUS
 62
     7
 10
-30.162499918405221
 20
2.730410217620288
 30
0.0
 11
-30.50115280460528
 21
2.730410217620288
 31
0.0
 12
-30.45912263968523
 22
2.688035543151698
 32
0.0
 13
-30.45912263968523
 23
2.688035543151698
 33
0.0
210
0.0
220
0.0
230
-1.0
  0
SOLID
  5
F2C5
  8
0
  6
CONTINUOUS
 62
     7
 10
30.141484835945221
 20
2.688035543151698
 30
0.0
 11
30.127493816372649
 21
2.6458331234574071
 31
0.0
 12
30.4377630476767
 22
2.6458331234574071
 32
0.0
 13
30.4377630476767
 23
2.6458331234574071
 33
0.0
  0
SOLID
  5
F2C6
  8
0
  6
CONTINUOUS
 62
     7
 10
-30.141484835945221
 20
2.688035543151698
 30
0.0
 11
-30.45912263968523
 21
2.688035543151698
 31
0.0
 12
-30.4377630476767
 22
2.6458331234574071
 32
0.0
 13
-30.4377630476767
 23
2.6458331234574071
 33
0.0
210
0.0
220
0.0
230
-1.0
  0
SOLID
  5
F2C7
  8
0
  6
CONTINUOUS
 62
     7
 10
30.127493816372649
 20
2.6458331234574071
 30
0.0
 11
30.1204697534852
 21
2.6246457862231121
 31
0.0
 12
30.427255506446681
 22
2.6246457862231121
 32
0.0
 13
30.427255506446681
 23
2.6246457862231121
 33
0.0
  0
SOLID
  5
F2C8
  8
0
  6
CONTINUOUS
 62
     7
 10
-30.127493816372649
 20
2.6458331234574071
 30
0.0
 11
-30.4377630476767
 21
2.6458331234574071
 31
0.0
 12
-30.427255506446681
 22
2.6246457862231121
 32
0.0
 13
-30.427255506446681
 23
2.6246457862231121
 33
0.0
210
0.0
220
0.0
230
-1.0
  0
SOLID
  5
F2C9
  8
0
  6
CONTINUOUS
 62
     7
 10
30.1204697534852
 20
2.6246457862231121
 30
0.0
 11
30.11334988948234
 21
2.6034584489888162
 31
0.0
 12
30.416747965216668
 22
2.6034584489888162
 32
0.0
 13
30.416747965216668
 23
2.6034584489888162
 33
0.0
  0
SOLID
  5
F2CA
  8
0
  6
CONTINUOUS
 62
     7
 10
-30.1204697534852
 20
2.6246457862231121
 30
0.0
 11
-30.427255506446681
 21
2.6246457862231121
 31
0.0
 12
-30.416747965216668
 22
2.6034584489888162
 32
0.0
 13
-30.416747965216668
 23
2.6034584489888162
 33
0.0
210
0.0
220
0.0
230
-1.0
  0
SOLID
  5
F2CB
  8
0
  6
CONTINUOUS
 62
     7
 10
30.11334988948234
 20
2.6034584489888162
 30
0.0
 11
30.099110161476631
 21
2.561083774520255
 31
0.0
 12
30.388498182237608
 22
2.561083774520255
 32
0.0
 13
30.388498182237608
 23
2.561083774520255
 33
0.0
  0
SOLID
  5
F2CC
  8
0
  6
CONTINUOUS
 62
     7
 10
-30.11334988948234
 20
2.6034584489888162
 30
0.0
 11
-30.416747965216668
 21
2.6034584489888162
 31
0.0
 12
-30.388498182237608
 22
2.561083774520255
 32
0.0
 13
-30.388498182237608
 23
2.561083774520255
 33
0.0
210
0.0
220
0.0
230
-1.0
  0
SOLID
  5
F2CD
  8
0
  6
CONTINUOUS
 62
     7
 10
30.099110161476631
 20
2.561083774520255
 30
0.0
 11
30.088602620246611
 21
2.53989643728596
 31
0.0
 12
30.374373290748078
 22
2.53989643728596
 32
0.0
 13
30.374373290748078
 23
2.53989643728596
 33
0.0
  0
SOLID
  5
F2CE
  8
0
  6
CONTINUOUS
 62
     7
 10
-30.099110161476631
 20
2.561083774520255
 30
0.0
 11
-30.388498182237608
 21
2.561083774520255
 31
0.0
 12
-30.374373290748078
 22
2.53989643728596
 32
0.0
 13
-30.374373290748078
 23
2.53989643728596
 33
0.0
210
0.0
220
0.0
230
-1.0
  0
SOLID
  5
F2CF
  8
0
  6
CONTINUOUS
 62
     7
 10
30.088602620246611
 20
2.53989643728596
 30
0.0
 11
30.07809507901661
 21
2.518709100051693
 31
0.0
 12
30.363693494743821
 22
2.518709100051693
 32
0.0
 13
30.363693494743821
 23
2.518709100051693
 33
0.0
  0
SOLID
  5
F2D0
  8
0
  6
CONTINUOUS
 62
     7
 10
-30.088602620246611
 20
2.53989643728596
 30
0.0
 11
-30.374373290748078
 21
2.53989643728596
 31
0.0
 12
-30.363693494743821
 22
2.518709100051693
 32
0.0
 13
-30.363693494743821
 23
2.518709100051693
 33
0.0
210
0.0
220
0.0
230
-1.0
  0
SOLID
  5
F2D1
  8
0
  6
CONTINUOUS
 62
     7
 10
30.07809507901661
 20
2.518709100051693
 30
0.0
 11
30.070955867557231
 21
2.497521762817398
 31
0.0
 12
30.353013698739549
 22
2.497521762817398
 32
0.0
 13
30.353013698739549
 23
2.497521762817398
 33
0.0
  0
SOLID
  5
F2D2
  8
0
  6
CONTINUOUS
 62
     7
 10
-30.07809507901661
 20
2.518709100051693
 30
0.0
 11
-30.363693494743821
 21
2.518709100051693
 31
0.0
 12
-30.353013698739549
 22
2.497521762817398
 32
0.0
 13
-30.353013698739549
 23
2.497521762817398
 33
0.0
210
0.0
220
0.0
230
-1.0
  0
SOLID
  5
F2D3
  8
0
  6
CONTINUOUS
 62
     7
 10
30.070955867557231
 20
2.497521762817398
 30
0.0
 11
30.056735487008069
 21
2.4553193431230791
 31
0.0
 12
30.33902267916697
 22
2.4553193431230791
 32
0.0
 13
30.33902267916697
 23
2.4553193431230791
 33
0.0
  0
SOLID
  5
F2D4
  8
0
  6
CONTINUOUS
 62
     7
 10
-30.070955867557231
 20
2.497521762817398
 30
0.0
 11
-30.353013698739549
 21
2.497521762817398
 31
0.0
 12
-30.33902267916697
 22
2.4553193431230791
 32
0.0
 13
-30.33902267916697
 23
2.4553193431230791
 33
0.0
210
0.0
220
0.0
230
-1.0
  0
SOLID
  5
F2D5
  8
0
  6
CONTINUOUS
 62
     7
 10
30.056735487008069
 20
2.4553193431230791
 30
0.0
 11
30.049730459521399
 21
2.4341320058888121
 31
0.0
 12
30.33199861627952
 22
2.4341320058888121
 32
0.0
 13
30.33199861627952
 23
2.4341320058888121
 33
0.0
  0
SOLID
  5
F2D6
  8
0
  6
CONTINUOUS
 62
     7
 10
-30.056735487008069
 20
2.4553193431230791
 30
0.0
 11
-30.33902267916697
 21
2.4553193431230791
 31
0.0
 12
-30.33199861627952
 22
2.4341320058888121
 32
0.0
 13
-30.33199861627952
 23
2.4341320058888121
 33
0.0
210
0.0
220
0.0
230
-1.0
  0
SOLID
  5
F2D7
  8
0
  6
CONTINUOUS
 62
     7
 10
30.049730459521399
 20
2.4341320058888121
 30
0.0
 11
30.035720404548041
 21
2.3917573314202221
 31
0.0
 12
30.33199861627952
 22
2.3917573314202221
 32
0.0
 13
30.33199861627952
 23
2.3917573314202221
 33
0.0
  0
SOLID
  5
F2D8
  8
0
  6
CONTINUOUS
 62
     7
 10
-30.049730459521399
 20
2.4341320058888121
 30
0.0
 11
-30.33199861627952
 21
2.4341320058888121
 31
0.0
 12
-30.33199861627952
 22
2.3917573314202221
 32
0.0
 13
-30.33199861627952
 23
2.3917573314202221
 33
0.0
210
0.0
220
0.0
230
-1.0
  0
SOLID
  5
F2D9
  8
0
  6
CONTINUOUS
 62
     7
 10
30.035720404548041
 20
2.3917573314202221
 30
0.0
 11
30.035720404548041
 21
2.3705699941859271
 31
0.0
 12
30.33199861627952
 22
2.3705699941859271
 32
0.0
 13
30.33199861627952
 23
2.3705699941859271
 33
0.0
  0
SOLID
  5
F2DA
  8
0
  6
CONTINUOUS
 62
     7
 10
-30.035720404548041
 20
2.3917573314202221
 30
0.0
 11
-30.33199861627952
 21
2.3917573314202221
 31
0.0
 12
-30.33199861627952
 22
2.3705699941859271
 32
0.0
 13
-30.33199861627952
 23
2.3705699941859271
 33
0.0
210
0.0
220
0.0
230
-1.0
  0
SOLID
  5
F2DB
  8
0
  6
CONTINUOUS
 62
     7
 10
30.035720404548041
 20
2.3705699941859271
 30
0.0
 11
30.035720404548041
 21
2.3283675744916361
 31
0.0
 12
30.318007596706948
 22
2.3283675744916361
 32
0.0
 13
30.318007596706948
 23
2.3283675744916361
 33
0.0
  0
SOLID
  5
F2DC
  8
0
  6
CONTINUOUS
 62
     7
 10
-30.035720404548041
 20
2.3705699941859271
 30
0.0
 11
-30.33199861627952
 21
2.3705699941859271
 31
0.0
 12
-30.318007596706948
 22
2.3283675744916361
 32
0.0
 13
-30.318007596706948
 23
2.3283675744916361
 33
0.0
210
0.0
220
0.0
230
-1.0
  0
SOLID
  5
F2DD
  8
0
  6
CONTINUOUS
 62
     7
 10
30.035720404548041
 20
2.3283675744916361
 30
0.0
 11
30.0303805065459
 21
2.3071802372573398
 31
0.0
 12
30.310983533819488
 22
2.3071802372573398
 32
0.0
 13
30.310983533819488
 23
2.3071802372573398
 33
0.0
  0
SOLID
  5
F2DE
  8
0
  6
CONTINUOUS
 62
     7
 10
-30.035720404548041
 20
2.3283675744916361
 30
0.0
 11
-30.318007596706948
 21
2.3283675744916361
 31
0.0
 12
-30.310983533819488
 22
2.3071802372573398
 32
0.0
 13
-30.310983533819488
 23
2.3071802372573398
 33
0.0
210
0.0
220
0.0
230
-1.0
  0
SOLID
  5
F2DF
  8
0
  6
CONTINUOUS
 62
     7
 10
30.0303805065459
 20
2.3071802372573398
 30
0.0
 11
30.014360812539479
 21
2.2436182255544841
 31
0.0
 12
30.310983533819488
 22
2.2436182255544841
 32
0.0
 13
30.310983533819488
 23
2.2436182255544841
 33
0.0
  0
SOLID
  5
F2E0
  8
0
  6
CONTINUOUS
 62
     7
 10
-30.0303805065459
 20
2.3071802372573398
 30
0.0
 11
-30.310983533819488
 21
2.3071802372573398
 31
0.0
 12
-30.310983533819488
 22
2.2436182255544841
 32
0.0
 13
-30.310983533819488
 23
2.2436182255544841
 33
0.0
210
0.0
220
0.0
230
-1.0
  0
SOLID
  5
F2E1
  8
0
  6
CONTINUOUS
 62
     7
 10
30.014360812539479
 20
2.2436182255544841
 30
0.0
 11
30.014360812539479
 21
2.2224308883201882
 31
0.0
 12
30.310983533819488
 22
2.2224308883201882
 32
0.0
 13
30.310983533819488
 23
2.2224308883201882
 33
0.0
  0
SOLID
  5
F2E2
  8
0
  6
CONTINUOUS
 62
     7
 10
-30.014360812539479
 20
2.2436182255544841
 30
0.0
 11
-30.310983533819488
 21
2.2436182255544841
 31
0.0
 12
-30.310983533819488
 22
2.2224308883201882
 32
0.0
 13
-30.310983533819488
 23
2.2224308883201882
 33
0.0
210
0.0
220
0.0
230
-1.0
  0
SOLID
  5
F2E3
  8
0
  6
CONTINUOUS
 62
     7
 10
30.014360812539479
 20
2.2224308883201882
 30
0.0
 11
30.014360812539479
 21
2.180056213851628
 31
0.0
 12
30.296743805813811
 22
2.180056213851628
 32
0.0
 13
30.296743805813811
 23
2.180056213851628
 33
0.0
  0
SOLID
  5
F2E4
  8
0
  6
CONTINUOUS
 62
     7
 10
-30.014360812539479
 20
2.2224308883201882
 30
0.0
 11
-30.310983533819488
 21
2.2224308883201882
 31
0.0
 12
-30.296743805813811
 22
2.180056213851628
 32
0.0
 13
-30.296743805813811
 23
2.180056213851628
 33
0.0
210
0.0
220
0.0
230
-1.0
  0
SOLID
  5
F2E5
  8
0
  6
CONTINUOUS
 62
     7
 10
30.014360812539479
 20
2.180056213851628
 30
0.0
 11
30.009096341780651
 21
2.1588688766173321
 31
0.0
 12
30.289623941810969
 22
2.1588688766173321
 32
0.0
 13
30.289623941810969
 23
2.1588688766173321
 33
0.0
  0
SOLID
  5
F2E6
  8
0
  6
CONTINUOUS
 62
     7
 10
-30.014360812539479
 20
2.180056213851628
 30
0.0
 11
-30.296743805813811
 21
2.180056213851628
 31
0.0
 12
-30.289623941810969
 22
2.1588688766173321
 32
0.0
 13
-30.289623941810969
 23
2.1588688766173321
 33
0.0
210
0.0
220
0.0
230
-1.0
  0
SOLID
  5
F2E7
  8
0
  6
CONTINUOUS
 62
     7
 10
30.009096341780651
 20
2.1588688766173321
 30
0.0
 11
29.993345730079461
 21
2.095479119688747
 31
0.0
 12
30.289623941810969
 22
2.095479119688747
 32
0.0
 13
30.289623941810969
 23
2.095479119688747
 33
0.0
  0
SOLID
  5
F2E8
  8
0
  6
CONTINUOUS
 62
     7
 10
-30.009096341780651
 20
2.1588688766173321
 30
0.0
 11
-30.289623941810969
 21
2.1588688766173321
 31
0.0
 12
-30.289623941810969
 22
2.095479119688747
 32
0.0
 13
-30.289623941810969
 23
2.095479119688747
 33
0.0
210
0.0
220
0.0
230
-1.0
  0
SOLID
  5
F2E9
  8
0
  6
CONTINUOUS
 62
     7
 10
29.993345730079461
 20
2.095479119688747
 30
0.0
 11
29.993345730079461
 21
1.9895424335173
 31
0.0
 12
30.289623941810969
 22
1.9895424335173
 32
0.0
 13
30.289623941810969
 23
1.9895424335173
 33
0.0
  0
SOLID
  5
F2EA
  8
0
  6
CONTINUOUS
 62
     7
 10
-29.993345730079461
 20
2.095479119688747
 30
0.0
 11
-30.289623941810969
 21
2.095479119688747
 31
0.0
 12
-30.289623941810969
 22
1.9895424335173
 32
0.0
 13
-30.289623941810969
 23
1.9895424335173
 33
0.0
210
0.0
220
0.0
230
-1.0
  0
SOLID
  5
F2EB
  8
0
  6
CONTINUOUS
 62
     7
 10
29.993345730079461
 20
1.9895424335173
 30
0.0
 11
29.993345730079461
 21
1.947340013823009
 31
0.0
 12
30.45912263968523
 22
1.947340013823009
 32
0.0
 13
30.45912263968523
 23
1.947340013823009
 33
0.0
  0
SOLID
  5
F2EC
  8
0
  6
CONTINUOUS
 62
     7
 10
-29.993345730079461
 20
1.9895424335173
 30
0.0
 11
-30.50115280460528
 21
1.9895424335173
 31
0.0
 12
-30.45912263968523
 22
1.947340013823009
 32
0.0
 13
-30.45912263968523
 23
1.947340013823009
 33
0.0
210
0.0
220
0.0
230
-1.0
  0
SOLID
  5
F2ED
  8
0
  6
CONTINUOUS
 62
     7
 10
29.993345730079461
 20
1.947340013823009
 30
0.0
 11
29.993345730079461
 21
1.9049653393544179
 31
0.0
 12
30.416747965216668
 22
1.9049653393544179
 32
0.0
 13
30.416747965216668
 23
1.9049653393544179
 33
0.0
  0
SOLID
  5
F2EE
  8
0
  6
CONTINUOUS
 62
     7
 10
-29.993345730079461
 20
1.947340013823009
 30
0.0
 11
-30.45912263968523
 21
1.947340013823009
 31
0.0
 12
-30.416747965216668
 22
1.9049653393544179
 32
0.0
 13
-30.416747965216668
 23
1.9049653393544179
 33
0.0
210
0.0
220
0.0
230
-1.0
  0
SOLID
  5
F2EF
  8
0
  6
CONTINUOUS
 62
     7
 10
29.993345730079461
 20
1.9049653393544179
 30
0.0
 11
29.993345730079461
 21
1.8625906648858559
 31
0.0
 12
30.39538837320811
 22
1.8625906648858559
 32
0.0
 13
30.39538837320811
 23
1.8625906648858559
 33
0.0
  0
SOLID
  5
F2F0
  8
0
  6
CONTINUOUS
 62
     7
 10
-29.993345730079461
 20
1.9049653393544179
 30
0.0
 11
-30.416747965216668
 21
1.9049653393544179
 31
0.0
 12
-30.39538837320811
 22
1.8625906648858559
 32
0.0
 13
-30.39538837320811
 23
1.8625906648858559
 33
0.0
210
0.0
220
0.0
230
-1.0
  0
SOLID
  5
F2F1
  8
0
  6
CONTINUOUS
 62
     7
 10
29.993345730079461
 20
1.8625906648858559
 30
0.0
 11
29.993345730079461
 21
1.7992009079572411
 31
0.0
 12
30.353013698739549
 22
1.7992009079572411
 32
0.0
 13
30.353013698739549
 23
1.7992009079572411
 33
0.0
  0
SOLID
  5
F2F2
  8
0
  6
CONTINUOUS
 62
     7
 10
-29.993345730079461
 20
1.8625906648858559
 30
0.0
 11
-30.39538837320811
 21
1.8625906648858559
 31
0.0
 12
-30.353013698739549
 22
1.7992009079572411
 32
0.0
 13
-30.353013698739549
 23
1.7992009079572411
 33
0.0
210
0.0
220
0.0
230
-1.0
  0
SOLID
  5
F2F3
  8
0
  6
CONTINUOUS
 62
     7
 10
29.993345730079461
 20
1.7992009079572411
 30
0.0
 11
29.993345730079461
 21
1.7356388962543861
 31
0.0
 12
30.33199861627952
 22
1.7356388962543861
 32
0.0
 13
30.33199861627952
 23
1.7356388962543861
 33
0.0
  0
SOLID
  5
F2F4
  8
0
  6
CONTINUOUS
 62
     7
 10
-29.993345730079461
 20
1.7992009079572411
 30
0.0
 11
-30.353013698739549
 21
1.7992009079572411
 31
0.0
 12
-30.33199861627952
 22
1.7356388962543861
 32
0.0
 13
-30.33199861627952
 23
1.7356388962543861
 33
0.0
210
0.0
220
0.0
230
-1.0
  0
SOLID
  5
F2F5
  8
0
  6
CONTINUOUS
 62
     7
 10
29.993345730079461
 20
1.7356388962543861
 30
0.0
 11
29.993345730079461
 21
1.672076884551529
 31
0.0
 12
30.33199861627952
 22
1.672076884551529
 32
0.0
 13
30.33199861627952
 23
1.672076884551529
 33
0.0
  0
SOLID
  5
F2F6
  8
0
  6
CONTINUOUS
 62
     7
 10
-29.993345730079461
 20
1.7356388962543861
 30
0.0
 11
-30.33199861627952
 21
1.7356388962543861
 31
0.0
 12
-30.33199861627952
 22
1.672076884551529
 32
0.0
 13
-30.33199861627952
 23
1.672076884551529
 33
0.0
210
0.0
220
0.0
230
-1.0
  0
SOLID
  5
F2F7
  8
0
  6
CONTINUOUS
 62
     7
 10
29.993345730079461
 20
1.672076884551529
 30
0.0
 11
29.993345730079461
 21
1.6086871276229431
 31
0.0
 12
30.310983533819488
 22
1.6086871276229431
 32
0.0
 13
30.310983533819488
 23
1.6086871276229431
 33
0.0
  0
SOLID
  5
F2F8
  8
0
  6
CONTINUOUS
 62
     7
 10
-29.993345730079461
 20
1.672076884551529
 30
0.0
 11
-30.33199861627952
 21
1.672076884551529
 31
0.0
 12
-30.310983533819488
 22
1.6086871276229431
 32
0.0
 13
-30.310983533819488
 23
1.6086871276229431
 33
0.0
210
0.0
220
0.0
230
-1.0
  0
SOLID
  5
F2F9
  8
0
  6
CONTINUOUS
 62
     7
 10
29.993345730079461
 20
1.6086871276229431
 30
0.0
 11
29.993345730079461
 21
1.5451251159200861
 31
0.0
 12
30.310983533819488
 22
1.5451251159200861
 32
0.0
 13
30.310983533819488
 23
1.5451251159200861
 33
0.0
  0
SOLID
  5
F2FA
  8
0
  6
CONTINUOUS
 62
     7
 10
-29.993345730079461
 20
1.6086871276229431
 30
0.0
 11
-30.310983533819488
 21
1.6086871276229431
 31
0.0
 12
-30.310983533819488
 22
1.5451251159200861
 32
0.0
 13
-30.310983533819488
 23
1.5451251159200861
 33
0.0
210
0.0
220
0.0
230
-1.0
  0
SOLID
  5
F2FB
  8
0
  6
CONTINUOUS
 62
     7
 10
29.993345730079461
 20
1.5451251159200861
 30
0.0
 11
30.014360812539479
 21
1.4815631042172279
 31
0.0
 12
30.310983533819488
 22
1.4815631042172279
 32
0.0
 13
30.310983533819488
 23
1.4815631042172279
 33
0.0
  0
SOLID
  5
F2FC
  8
0
  6
CONTINUOUS
 62
     7
 10
-29.993345730079461
 20
1.5451251159200861
 30
0.0
 11
-30.310983533819488
 21
1.5451251159200861
 31
0.0
 12
-30.310983533819488
 22
1.4815631042172279
 32
0.0
 13
-30.310983533819488
 23
1.4815631042172279
 33
0.0
210
0.0
220
0.0
230
-1.0
  0
SOLID
  5
F2FD
  8
0
  6
CONTINUOUS
 62
     7
 10
30.014360812539479
 20
1.4815631042172279
 30
0.0
 11
30.014360812539479
 21
1.4181733472886151
 31
0.0
 12
30.3267341455207
 22
1.4181733472886151
 32
0.0
 13
30.3267341455207
 23
1.4181733472886151
 33
0.0
  0
SOLID
  5
F2FE
  8
0
  6
CONTINUOUS
 62
     7
 10
-30.014360812539479
 20
1.4815631042172279
 30
0.0
 11
-30.310983533819488
 21
1.4815631042172279
 31
0.0
 12
-30.3267341455207
 22
1.4181733472886151
 32
0.0
 13
-30.3267341455207
 23
1.4181733472886151
 33
0.0
210
0.0
220
0.0
230
-1.0
  0
SOLID
  5
F2FF
  8
0
  6
CONTINUOUS
 62
     7
 10
30.014360812539479
 20
1.4181733472886151
 30
0.0
 11
30.01970071054162
 21
1.3969860100543481
 31
0.0
 12
30.33199861627952
 22
1.3969860100543481
 32
0.0
 13
30.33199861627952
 23
1.3969860100543481
 33
0.0
  0
SOLID
  5
F300
  8
0
  6
CONTINUOUS
 62
     7
 10
-30.014360812539479
 20
1.4181733472886151
 30
0.0
 11
-30.3267341455207
 21
1.4181733472886151
 31
0.0
 12
-30.33199861627952
 22
1.3969860100543481
 32
0.0
 13
-30.33199861627952
 23
1.3969860100543481
 33
0.0
210
0.0
220
0.0
230
-1.0
  0
SOLID
  5
F301
  8
0
  6
CONTINUOUS
 62
     7
 10
30.01970071054162
 20
1.3969860100543481
 30
0.0
 11
30.035720404548041
 21
1.3334239983514631
 31
0.0
 12
30.33199861627952
 22
1.3334239983514631
 32
0.0
 13
30.33199861627952
 23
1.3334239983514631
 33
0.0
  0
SOLID
  5
F302
  8
0
  6
CONTINUOUS
 62
     7
 10
-30.01970071054162
 20
1.3969860100543481
 30
0.0
 11
-30.33199861627952
 21
1.3969860100543481
 31
0.0
 12
-30.33199861627952
 22
1.3334239983514631
 32
0.0
 13
-30.33199861627952
 23
1.3334239983514631
 33
0.0
210
0.0
220
0.0
230
-1.0
  0
SOLID
  5
F303
  8
0
  6
CONTINUOUS
 62
     7
 10
30.035720404548041
 20
1.3334239983514631
 30
0.0
 11
30.056735487008069
 21
1.270034241422876
 31
0.0
 12
30.353013698739549
 22
1.270034241422876
 32
0.0
 13
30.353013698739549
 23
1.270034241422876
 33
0.0
  0
SOLID
  5
F304
  8
0
  6
CONTINUOUS
 62
     7
 10
-30.035720404548041
 20
1.3334239983514631
 30
0.0
 11
-30.33199861627952
 21
1.3334239983514631
 31
0.0
 12
-30.353013698739549
 22
1.270034241422876
 32
0.0
 13
-30.353013698739549
 23
1.270034241422876
 33
0.0
210
0.0
220
0.0
230
-1.0
  0
SOLID
  5
F305
  8
0
  6
CONTINUOUS
 62
     7
 10
30.056735487008069
 20
1.270034241422876
 30
0.0
 11
30.07809507901661
 21
1.2276595669543151
 31
0.0
 12
30.367253426745229
 22
1.2276595669543151
 32
0.0
 13
30.367253426745229
 23
1.2276595669543151
 33
0.0
  0
SOLID
  5
F306
  8
0
  6
CONTINUOUS
 62
     7
 10
-30.056735487008069
 20
1.270034241422876
 30
0.0
 11
-30.353013698739549
 21
1.270034241422876
 31
0.0
 12
-30.367253426745229
 22
1.2276595669543151
 32
0.0
 13
-30.367253426745229
 23
1.2276595669543151
 33
0.0
210
0.0
220
0.0
230
-1.0
  0
SOLID
  5
F307
  8
0
  6
CONTINUOUS
 62
     7
 10
30.07809507901661
 20
1.2276595669543151
 30
0.0
 11
30.08510010650328
 21
1.2064722297200201
 31
0.0
 12
30.374373290748078
 22
1.2064722297200201
 32
0.0
 13
30.374373290748078
 23
1.2064722297200201
 33
0.0
  0
SOLID
  5
F308
  8
0
  6
CONTINUOUS
 62
     7
 10
-30.07809507901661
 20
1.2276595669543151
 30
0.0
 11
-30.367253426745229
 21
1.2276595669543151
 31
0.0
 12
-30.374373290748078
 22
1.2064722297200201
 32
0.0
 13
-30.374373290748078
 23
1.2064722297200201
 33
0.0
210
0.0
220
0.0
230
-1.0
  0
SOLID
  5
F309
  8
0
  6
CONTINUOUS
 62
     7
 10
30.08510010650328
 20
1.2064722297200201
 30
0.0
 11
30.099110161476631
 21
1.1640975552514581
 31
0.0
 12
30.416747965216668
 22
1.1640975552514581
 32
0.0
 13
30.416747965216668
 23
1.1640975552514581
 33
0.0
  0
SOLID
  5
F30A
  8
0
  6
CONTINUOUS
 62
     7
 10
-30.08510010650328
 20
1.2064722297200201
 30
0.0
 11
-30.374373290748078
 21
1.2064722297200201
 31
0.0
 12
-30.416747965216668
 22
1.1640975552514581
 32
0.0
 13
-30.416747965216668
 23
1.1640975552514581
 33
0.0
210
0.0
220
0.0
230
-1.0
  0
SOLID
  5
F30B
  8
0
  6
CONTINUOUS
 62
     7
 10
30.099110161476631
 20
1.1640975552514581
 30
0.0
 11
30.1204697534852
 21
1.1217228807828681
 31
0.0
 12
30.4377630476767
 22
1.1217228807828681
 32
0.0
 13
30.4377630476767
 23
1.1217228807828681
 33
0.0
  0
SOLID
  5
F30C
  8
0
  6
CONTINUOUS
 62
     7
 10
-30.099110161476631
 20
1.1640975552514581
 30
0.0
 11
-30.416747965216668
 21
1.1640975552514581
 31
0.0
 12
-30.4377630476767
 22
1.1217228807828681
 32
0.0
 13
-30.4377630476767
 23
1.1217228807828681
 33
0.0
210
0.0
220
0.0
230
-1.0
  0
SOLID
  5
F30D
  8
0
  6
CONTINUOUS
 62
     7
 10
30.1204697534852
 20
1.1217228807828681
 30
0.0
 11
30.134460773057761
 21
1.079520461088576
 31
0.0
 12
30.480137722145251
 22
1.079520461088576
 32
0.0
 13
30.480137722145251
 23
1.079520461088576
 33
0.0
  0
SOLID
  5
F30E
  8
0
  6
CONTINUOUS
 62
     7
 10
-30.1204697534852
 20
1.1217228807828681
 30
0.0
 11
-30.4377630476767
 21
1.1217228807828681
 31
0.0
 12
-30.480137722145251
 22
1.079520461088576
 32
0.0
 13
-30.480137722145251
 23
1.079520461088576
 33
0.0
210
0.0
220
0.0
230
-1.0
  0
SOLID
  5
F30F
  8
0
  6
CONTINUOUS
 62
     7
 10
30.134460773057761
 20
1.079520461088576
 30
0.0
 11
30.141484835945221
 21
1.058333123854281
 31
0.0
 12
30.50132505937956
 22
1.058333123854281
 32
0.0
 13
30.50132505937956
 23
1.058333123854281
 33
0.0
  0
SOLID
  5
F310
  8
0
  6
CONTINUOUS
 62
     7
 10
-30.134460773057761
 20
1.079520461088576
 30
0.0
 11
-30.480137722145251
 21
1.079520461088576
 31
0.0
 12
-30.50132505937956
 22
1.058333123854281
 32
0.0
 13
-30.50132505937956
 23
1.058333123854281
 33
0.0
210
0.0
220
0.0
230
-1.0
  0
SOLID
  5
F311
  8
0
  6
CONTINUOUS
 62
     7
 10
30.141484835945221
 20
1.058333123854281
 30
0.0
 11
30.151992377175219
 21
1.037145786619986
 31
0.0
 12
30.522512396613848
 22
1.037145786619986
 32
0.0
 13
30.522512396613848
 23
1.037145786619986
 33
0.0
  0
SOLID
  5
F312
  8
0
  6
CONTINUOUS
 62
     7
 10
-30.141484835945221
 20
1.058333123854281
 30
0.0
 11
-30.50132505937956
 21
1.058333123854281
 31
0.0
 12
-30.522512396613848
 22
1.037145786619986
 32
0.0
 13
-30.522512396613848
 23
1.037145786619986
 33
0.0
210
0.0
220
0.0
230
-1.0
  0
SOLID
  5
F313
  8
0
  6
CONTINUOUS
 62
     7
 10
30.151992377175219
 20
1.037145786619986
 30
0.0
 11
30.162499918405221
 21
1.015958449385691
 31
0.0
 12
30.585902153542431
 22
1.015958449385691
 32
0.0
 13
30.585902153542431
 23
1.015958449385691
 33
0.0
  0
SOLID
  5
F314
  8
0
  6
CONTINUOUS
 62
     7
 10
-30.151992377175219
 20
1.037145786619986
 30
0.0
 11
-30.522512396613848
 21
1.037145786619986
 31
0.0
 12
-30.585902153542431
 22
1.015958449385691
 32
0.0
 13
-30.585902153542431
 23
1.015958449385691
 33
0.0
210
0.0
220
0.0
230
-1.0
  0
SOLID
  5
F315
  8
0
  6
CONTINUOUS
 62
     7
 10
30.162499918405221
 20
1.015958449385691
 30
0.0
 11
30.183859510413772
 21
0.9947711121514259
 31
0.0
 12
30.649636420019561
 22
0.9947711121514259
 32
0.0
 13
30.649636420019561
 23
0.9947711121514259
 33
0.0
  0
SOLID
  5
F316
  8
0
  6
CONTINUOUS
 62
     7
 10
-30.162499918405221
 20
1.015958449385691
 30
0.0
 11
-30.585902153542431
 21
1.015958449385691
 31
0.0
 12
-30.649636420019561
 22
0.9947711121514259
 32
0.0
 13
-30.649636420019561
 23
0.9947711121514259
 33
0.0
210
0.0
220
0.0
230
-1.0
  0
LINE
  5
F317
  8
0
  6
CONTINUOUS
 62
     7
 10
30.226234184882351
 20
2.81515956655744
 30
0.0
 11
30.215554388878079
 21
2.793972229323145
 31
0.0
  0
LINE
  5
F318
  8
0
  6
CONTINUOUS
 62
     7
 10
30.691666584939611
 20
2.81515956655744
 30
0.0
 11
30.628276828011
 21
2.793972229323145
 31
0.0
  0
LINE
  5
F319
  8
0
  6
CONTINUOUS
 62
     7
 10
30.215554388878079
 20
2.793972229323145
 30
0.0
 11
30.204874592873811
 21
2.77278489208885
 31
0.0
  0
LINE
  5
F31A
  8
0
  6
CONTINUOUS
 62
     7
 10
30.628276828011
 20
2.793972229323145
 30
0.0
 11
30.56488707108241
 21
2.77278489208885
 31
0.0
  0
LINE
  5
F31B
  8
0
  6
CONTINUOUS
 62
     7
 10
30.204874592873811
 20
2.77278489208885
 30
0.0
 11
30.162499918405221
 21
2.730410217620288
 31
0.0
  0
LINE
  5
F31C
  8
0
  6
CONTINUOUS
 62
     7
 10
30.56488707108241
 20
2.77278489208885
 30
0.0
 11
30.522512396613848
 21
2.730410217620288
 31
0.0
  0
LINE
  5
F31D
  8
0
  6
CONTINUOUS
 62
     7
 10
30.162499918405221
 20
2.730410217620288
 30
0.0
 11
30.141484835945221
 21
2.688035543151698
 31
0.0
  0
LINE
  5
F31E
  8
0
  6
CONTINUOUS
 62
     7
 10
30.50115280460528
 20
2.730410217620288
 30
0.0
 11
30.45912263968523
 21
2.688035543151698
 31
0.0
  0
LINE
  5
F31F
  8
0
  6
CONTINUOUS
 62
     7
 10
30.141484835945221
 20
2.688035543151698
 30
0.0
 11
30.127493816372649
 21
2.6458331234574071
 31
0.0
  0
LINE
  5
F320
  8
0
  6
CONTINUOUS
 62
     7
 10
30.45912263968523
 20
2.688035543151698
 30
0.0
 11
30.4377630476767
 21
2.6458331234574071
 31
0.0
  0
LINE
  5
F321
  8
0
  6
CONTINUOUS
 62
     7
 10
30.127493816372649
 20
2.6458331234574071
 30
0.0
 11
30.1204697534852
 21
2.6246457862231121
 31
0.0
  0
LINE
  5
F322
  8
0
  6
CONTINUOUS
 62
     7
 10
30.4377630476767
 20
2.6458331234574071
 30
0.0
 11
30.427255506446681
 21
2.6246457862231121
 31
0.0
  0
LINE
  5
F323
  8
0
  6
CONTINUOUS
 62
     7
 10
30.1204697534852
 20
2.6246457862231121
 30
0.0
 11
30.11334988948234
 21
2.6034584489888162
 31
0.0
  0
LINE
  5
F324
  8
0
  6
CONTINUOUS
 62
     7
 10
30.427255506446681
 20
2.6246457862231121
 30
0.0
 11
30.416747965216668
 21
2.6034584489888162
 31
0.0
  0
LINE
  5
F325
  8
0
  6
CONTINUOUS
 62
     7
 10
30.11334988948234
 20
2.6034584489888162
 30
0.0
 11
30.099110161476631
 21
2.561083774520255
 31
0.0
  0
LINE
  5
F326
  8
0
  6
CONTINUOUS
 62
     7
 10
30.416747965216668
 20
2.6034584489888162
 30
0.0
 11
30.388498182237608
 21
2.561083774520255
 31
0.0
  0
LINE
  5
F327
  8
0
  6
CONTINUOUS
 62
     7
 10
30.099110161476631
 20
2.561083774520255
 30
0.0
 11
30.088602620246611
 21
2.53989643728596
 31
0.0
  0
LINE
  5
F328
  8
0
  6
CONTINUOUS
 62
     7
 10
30.388498182237608
 20
2.561083774520255
 30
0.0
 11
30.374373290748078
 21
2.53989643728596
 31
0.0
  0
LINE
  5
F329
  8
0
  6
CONTINUOUS
 62
     7
 10
30.088602620246611
 20
2.53989643728596
 30
0.0
 11
30.07809507901661
 21
2.518709100051693
 31
0.0
  0
LINE
  5
F32A
  8
0
  6
CONTINUOUS
 62
     7
 10
30.374373290748078
 20
2.53989643728596
 30
0.0
 11
30.363693494743821
 21
2.518709100051693
 31
0.0
  0
LINE
  5
F32B
  8
0
  6
CONTINUOUS
 62
     7
 10
30.07809507901661
 20
2.518709100051693
 30
0.0
 11
30.070955867557231
 21
2.497521762817398
 31
0.0
  0
LINE
  5
F32C
  8
0
  6
CONTINUOUS
 62
     7
 10
30.363693494743821
 20
2.518709100051693
 30
0.0
 11
30.353013698739549
 21
2.497521762817398
 31
0.0
  0
LINE
  5
F32D
  8
0
  6
CONTINUOUS
 62
     7
 10
30.070955867557231
 20
2.497521762817398
 30
0.0
 11
30.056735487008069
 21
2.4553193431230791
 31
0.0
  0
LINE
  5
F32E
  8
0
  6
CONTINUOUS
 62
     7
 10
30.353013698739549
 20
2.497521762817398
 30
0.0
 11
30.33902267916697
 21
2.4553193431230791
 31
0.0
  0
LINE
  5
F32F
  8
0
  6
CONTINUOUS
 62
     7
 10
30.056735487008069
 20
2.4553193431230791
 30
0.0
 11
30.049730459521399
 21
2.4341320058888121
 31
0.0
  0
LINE
  5
F330
  8
0
  6
CONTINUOUS
 62
     7
 10
30.33902267916697
 20
2.4553193431230791
 30
0.0
 11
30.33199861627952
 21
2.4341320058888121
 31
0.0
  0
LINE
  5
F331
  8
0
  6
CONTINUOUS
 62
     7
 10
30.049730459521399
 20
2.4341320058888121
 30
0.0
 11
30.035720404548041
 21
2.3917573314202221
 31
0.0
  0
LINE
  5
F332
  8
0
  6
CONTINUOUS
 62
     7
 10
30.33199861627952
 20
2.4341320058888121
 30
0.0
 11
30.33199861627952
 21
2.3917573314202221
 31
0.0
  0
LINE
  5
F333
  8
0
  6
CONTINUOUS
 62
     7
 10
30.035720404548041
 20
2.3917573314202221
 30
0.0
 11
30.035720404548041
 21
2.3705699941859271
 31
0.0
  0
LINE
  5
F334
  8
0
  6
CONTINUOUS
 62
     7
 10
30.33199861627952
 20
2.3917573314202221
 30
0.0
 11
30.33199861627952
 21
2.3705699941859271
 31
0.0
  0
LINE
  5
F335
  8
0
  6
CONTINUOUS
 62
     7
 10
30.035720404548041
 20
2.3705699941859271
 30
0.0
 11
30.035720404548041
 21
2.3283675744916361
 31
0.0
  0
LINE
  5
F336
  8
0
  6
CONTINUOUS
 62
     7
 10
30.33199861627952
 20
2.3705699941859271
 30
0.0
 11
30.318007596706948
 21
2.3283675744916361
 31
0.0
  0
LINE
  5
F337
  8
0
  6
CONTINUOUS
 62
     7
 10
30.035720404548041
 20
2.3283675744916361
 30
0.0
 11
30.0303805065459
 21
2.3071802372573398
 31
0.0
  0
LINE
  5
F338
  8
0
  6
CONTINUOUS
 62
     7
 10
30.318007596706948
 20
2.3283675744916361
 30
0.0
 11
30.310983533819488
 21
2.3071802372573398
 31
0.0
  0
LINE
  5
F339
  8
0
  6
CONTINUOUS
 62
     7
 10
30.0303805065459
 20
2.3071802372573398
 30
0.0
 11
30.014360812539479
 21
2.2436182255544841
 31
0.0
  0
LINE
  5
F33A
  8
0
  6
CONTINUOUS
 62
     7
 10
30.310983533819488
 20
2.3071802372573398
 30
0.0
 11
30.310983533819488
 21
2.2436182255544841
 31
0.0
  0
LINE
  5
F33B
  8
0
  6
CONTINUOUS
 62
     7
 10
30.014360812539479
 20
2.2436182255544841
 30
0.0
 11
30.014360812539479
 21
2.2224308883201882
 31
0.0
  0
LINE
  5
F33C
  8
0
  6
CONTINUOUS
 62
     7
 10
30.310983533819488
 20
2.2436182255544841
 30
0.0
 11
30.310983533819488
 21
2.2224308883201882
 31
0.0
  0
LINE
  5
F33D
  8
0
  6
CONTINUOUS
 62
     7
 10
30.014360812539479
 20
2.2224308883201882
 30
0.0
 11
30.014360812539479
 21
2.180056213851628
 31
0.0
  0
LINE
  5
F33E
  8
0
  6
CONTINUOUS
 62
     7
 10
30.310983533819488
 20
2.2224308883201882
 30
0.0
 11
30.296743805813811
 21
2.180056213851628
 31
0.0
  0
LINE
  5
F33F
  8
0
  6
CONTINUOUS
 62
     7
 10
30.014360812539479
 20
2.180056213851628
 30
0.0
 11
30.009096341780651
 21
2.1588688766173321
 31
0.0
  0
LINE
  5
F340
  8
0
  6
CONTINUOUS
 62
     7
 10
30.296743805813811
 20
2.180056213851628
 30
0.0
 11
30.289623941810969
 21
2.1588688766173321
 31
0.0
  0
LINE
  5
F341
  8
0
  6
CONTINUOUS
 62
     7
 10
30.009096341780651
 20
2.1588688766173321
 30
0.0
 11
29.993345730079461
 21
2.095479119688747
 31
0.0
  0
LINE
  5
F342
  8
0
  6
CONTINUOUS
 62
     7
 10
30.289623941810969
 20
2.1588688766173321
 30
0.0
 11
30.289623941810969
 21
2.095479119688747
 31
0.0
  0
LINE
  5
F343
  8
0
  6
CONTINUOUS
 62
     7
 10
29.993345730079461
 20
2.095479119688747
 30
0.0
 11
29.993345730079461
 21
1.9895424335173
 31
0.0
  0
LINE
  5
F344
  8
0
  6
CONTINUOUS
 62
     7
 10
30.289623941810969
 20
2.095479119688747
 30
0.0
 11
30.289623941810969
 21
1.9895424335173
 31
0.0
  0
LINE
  5
F345
  8
0
  6
CONTINUOUS
 62
     7
 10
29.993345730079461
 20
1.9895424335173
 30
0.0
 11
29.993345730079461
 21
1.947340013823009
 31
0.0
  0
LINE
  5
F346
  8
0
  6
CONTINUOUS
 62
     7
 10
30.50115280460528
 20
1.9895424335173
 30
0.0
 11
30.45912263968523
 21
1.947340013823009
 31
0.0
  0
LINE
  5
F347
  8
0
  6
CONTINUOUS
 62
     7
 10
29.993345730079461
 20
1.947340013823009
 30
0.0
 11
29.993345730079461
 21
1.9049653393544179
 31
0.0
  0
LINE
  5
F348
  8
0
  6
CONTINUOUS
 62
     7
 10
30.45912263968523
 20
1.947340013823009
 30
0.0
 11
30.416747965216668
 21
1.9049653393544179
 31
0.0
  0
LINE
  5
F349
  8
0
  6
CONTINUOUS
 62
     7
 10
29.993345730079461
 20
1.9049653393544179
 30
0.0
 11
29.993345730079461
 21
1.8625906648858559
 31
0.0
  0
LINE
  5
F34A
  8
0
  6
CONTINUOUS
 62
     7
 10
30.416747965216668
 20
1.9049653393544179
 30
0.0
 11
30.39538837320811
 21
1.8625906648858559
 31
0.0
  0
LINE
  5
F34B
  8
0
  6
CONTINUOUS
 62
     7
 10
29.993345730079461
 20
1.8625906648858559
 30
0.0
 11
29.993345730079461
 21
1.7992009079572411
 31
0.0
  0
LINE
  5
F34C
  8
0
  6
CONTINUOUS
 62
     7
 10
30.39538837320811
 20
1.8625906648858559
 30
0.0
 11
30.353013698739549
 21
1.7992009079572411
 31
0.0
  0
LINE
  5
F34D
  8
0
  6
CONTINUOUS
 62
     7
 10
29.993345730079461
 20
1.7992009079572411
 30
0.0
 11
29.993345730079461
 21
1.7356388962543861
 31
0.0
  0
LINE
  5
F34E
  8
0
  6
CONTINUOUS
 62
     7
 10
30.353013698739549
 20
1.7992009079572411
 30
0.0
 11
30.33199861627952
 21
1.7356388962543861
 31
0.0
  0
LINE
  5
F34F
  8
0
  6
CONTINUOUS
 62
     7
 10
29.993345730079461
 20
1.7356388962543861
 30
0.0
 11
29.993345730079461
 21
1.672076884551529
 31
0.0
  0
LINE
  5
F350
  8
0
  6
CONTINUOUS
 62
     7
 10
30.33199861627952
 20
1.7356388962543861
 30
0.0
 11
30.33199861627952
 21
1.672076884551529
 31
0.0
  0
LINE
  5
F351
  8
0
  6
CONTINUOUS
 62
     7
 10
29.993345730079461
 20
1.672076884551529
 30
0.0
 11
29.993345730079461
 21
1.6086871276229431
 31
0.0
  0
LINE
  5
F352
  8
0
  6
CONTINUOUS
 62
     7
 10
30.33199861627952
 20
1.672076884551529
 30
0.0
 11
30.310983533819488
 21
1.6086871276229431
 31
0.0
  0
LINE
  5
F353
  8
0
  6
CONTINUOUS
 62
     7
 10
29.993345730079461
 20
1.6086871276229431
 30
0.0
 11
29.993345730079461
 21
1.5451251159200861
 31
0.0
  0
LINE
  5
F354
  8
0
  6
CONTINUOUS
 62
     7
 10
30.310983533819488
 20
1.6086871276229431
 30
0.0
 11
30.310983533819488
 21
1.5451251159200861
 31
0.0
  0
LINE
  5
F355
  8
0
  6
CONTINUOUS
 62
     7
 10
29.993345730079461
 20
1.5451251159200861
 30
0.0
 11
30.014360812539479
 21
1.4815631042172279
 31
0.0
  0
LINE
  5
F356
  8
0
  6
CONTINUOUS
 62
     7
 10
30.310983533819488
 20
1.5451251159200861
 30
0.0
 11
30.310983533819488
 21
1.4815631042172279
 31
0.0
  0
LINE
  5
F357
  8
0
  6
CONTINUOUS
 62
     7
 10
30.014360812539479
 20
1.4815631042172279
 30
0.0
 11
30.014360812539479
 21
1.4181733472886151
 31
0.0
  0
LINE
  5
F358
  8
0
  6
CONTINUOUS
 62
     7
 10
30.310983533819488
 20
1.4815631042172279
 30
0.0
 11
30.3267341455207
 21
1.4181733472886151
 31
0.0
  0
LINE
  5
F359
  8
0
  6
CONTINUOUS
 62
     7
 10
30.014360812539479
 20
1.4181733472886151
 30
0.0
 11
30.01970071054162
 21
1.3969860100543481
 31
0.0
  0
LINE
  5
F35A
  8
0
  6
CONTINUOUS
 62
     7
 10
30.3267341455207
 20
1.4181733472886151
 30
0.0
 11
30.33199861627952
 21
1.3969860100543481
 31
0.0
  0
LINE
  5
F35B
  8
0
  6
CONTINUOUS
 62
     7
 10
30.01970071054162
 20
1.3969860100543481
 30
0.0
 11
30.035720404548041
 21
1.3334239983514631
 31
0.0
  0
LINE
  5
F35C
  8
0
  6
CONTINUOUS
 62
     7
 10
30.33199861627952
 20
1.3969860100543481
 30
0.0
 11
30.33199861627952
 21
1.3334239983514631
 31
0.0
  0
LINE
  5
F35D
  8
0
  6
CONTINUOUS
 62
     7
 10
30.035720404548041
 20
1.3334239983514631
 30
0.0
 11
30.056735487008069
 21
1.270034241422876
 31
0.0
  0
LINE
  5
F35E
  8
0
  6
CONTINUOUS
 62
     7
 10
30.33199861627952
 20
1.3334239983514631
 30
0.0
 11
30.353013698739549
 21
1.270034241422876
 31
0.0
  0
LINE
  5
F35F
  8
0
  6
CONTINUOUS
 62
     7
 10
30.056735487008069
 20
1.270034241422876
 30
0.0
 11
30.07809507901661
 21
1.2276595669543151
 31
0.0
  0
LINE
  5
F360
  8
0
  6
CONTINUOUS
 62
     7
 10
30.353013698739549
 20
1.270034241422876
 30
0.0
 11
30.367253426745229
 21
1.2276595669543151
 31
0.0
  0
LINE
  5
F361
  8
0
  6
CONTINUOUS
 62
     7
 10
30.07809507901661
 20
1.2276595669543151
 30
0.0
 11
30.08510010650328
 21
1.2064722297200201
 31
0.0
  0
LINE
  5
F362
  8
0
  6
CONTINUOUS
 62
     7
 10
30.367253426745229
 20
1.2276595669543151
 30
0.0
 11
30.374373290748078
 21
1.2064722297200201
 31
0.0
  0
LINE
  5
F363
  8
0
  6
CONTINUOUS
 62
     7
 10
30.08510010650328
 20
1.2064722297200201
 30
0.0
 11
30.099110161476631
 21
1.1640975552514581
 31
0.0
  0
LINE
  5
F364
  8
0
  6
CONTINUOUS
 62
     7
 10
30.374373290748078
 20
1.2064722297200201
 30
0.0
 11
30.416747965216668
 21
1.1640975552514581
 31
0.0
  0
LINE
  5
F365
  8
0
  6
CONTINUOUS
 62
     7
 10
30.099110161476631
 20
1.1640975552514581
 30
0.0
 11
30.1204697534852
 21
1.1217228807828681
 31
0.0
  0
LINE
  5
F366
  8
0
  6
CONTINUOUS
 62
     7
 10
30.416747965216668
 20
1.1640975552514581
 30
0.0
 11
30.4377630476767
 21
1.1217228807828681
 31
0.0
  0
LINE
  5
F367
  8
0
  6
CONTINUOUS
 62
     7
 10
30.1204697534852
 20
1.1217228807828681
 30
0.0
 11
30.134460773057761
 21
1.079520461088576
 31
0.0
  0
LINE
  5
F368
  8
0
  6
CONTINUOUS
 62
     7
 10
30.4377630476767
 20
1.1217228807828681
 30
0.0
 11
30.480137722145251
 21
1.079520461088576
 31
0.0
  0
LINE
  5
F369
  8
0
  6
CONTINUOUS
 62
     7
 10
30.134460773057761
 20
1.079520461088576
 30
0.0
 11
30.141484835945221
 21
1.058333123854281
 31
0.0
  0
LINE
  5
F36A
  8
0
  6
CONTINUOUS
 62
     7
 10
30.480137722145251
 20
1.079520461088576
 30
0.0
 11
30.50132505937956
 21
1.058333123854281
 31
0.0
  0
LINE
  5
F36B
  8
0
  6
CONTINUOUS
 62
     7
 10
30.141484835945221
 20
1.058333123854281
 30
0.0
 11
30.151992377175219
 21
1.037145786619986
 31
0.0
  0
LINE
  5
F36C
  8
0
  6
CONTINUOUS
 62
     7
 10
30.50132505937956
 20
1.058333123854281
 30
0.0
 11
30.522512396613848
 21
1.037145786619986
 31
0.0
  0
LINE
  5
F36D
  8
0
  6
CONTINUOUS
 62
     7
 10
30.151992377175219
 20
1.037145786619986
 30
0.0
 11
30.162499918405221
 21
1.015958449385691
 31
0.0
  0
LINE
  5
F36E
  8
0
  6
CONTINUOUS
 62
     7
 10
30.522512396613848
 20
1.037145786619986
 30
0.0
 11
30.585902153542431
 21
1.015958449385691
 31
0.0
  0
LINE
  5
F36F
  8
0
  6
CONTINUOUS
 62
     7
 10
30.162499918405221
 20
1.015958449385691
 30
0.0
 11
30.183859510413772
 21
0.9947711121514259
 31
0.0
  0
LINE
  5
F370
  8
0
  6
CONTINUOUS
 62
     7
 10
30.585902153542431
 20
1.015958449385691
 30
0.0
 11
30.649636420019561
 21
0.9947711121514259
 31
0.0
  0
ENDBLK
  5
F372
  8
0
  0
BLOCK
  8
0
  2
*U18
 70
     1
 10
0.0
 20
0.0
 30
0.0
  3
*U18
  1

  0
SOLID
  5
F374
  8
0
  6
CONTINUOUS
 62
     7
 10
30.585902153542431
 20
3.0478757665860581
 30
0.0
 11
30.522512396613848
 21
3.0266884293517631
 31
0.0
 12
30.90353995728249
 22
3.0266884293517631
 32
0.0
 13
30.90353995728249
 23
3.0266884293517631
 33
0.0
  0
SOLID
  5
F375
  8
0
  6
CONTINUOUS
 62
     7
 10
-30.585902153542431
 20
3.0478757665860581
 30
0.0
 11
-30.840150200353861
 21
3.0478757665860581
 31
0.0
 12
-30.90353995728249
 22
3.0266884293517631
 32
0.0
 13
-30.90353995728249
 23
3.0266884293517631
 33
0.0
210
0.0
220
0.0
230
-1.0
  0
SOLID
  5
F376
  8
0
  6
CONTINUOUS
 62
     7
 10
30.522512396613848
 20
3.0266884293517631
 30
0.0
 11
30.45912263968523
 21
3.00567334689174
 31
0.0
 12
30.966929714211059
 22
3.00567334689174
 32
0.0
 13
30.966929714211059
 23
3.00567334689174
 33
0.0
  0
SOLID
  5
F377
  8
0
  6
CONTINUOUS
 62
     7
 10
-30.522512396613848
 20
3.0266884293517631
 30
0.0
 11
-30.90353995728249
 21
3.0266884293517631
 31
0.0
 12
-30.966929714211059
 22
3.00567334689174
 32
0.0
 13
-30.966929714211059
 23
3.00567334689174
 33
0.0
210
0.0
220
0.0
230
-1.0
  0
SOLID
  5
F378
  8
0
  6
CONTINUOUS
 62
     7
 10
30.45912263968523
 20
3.00567334689174
 30
0.0
 11
30.39538837320811
 21
2.984486009657473
 31
0.0
 12
30.988117051445339
 22
2.984486009657473
 32
0.0
 13
30.988117051445339
 23
2.984486009657473
 33
0.0
  0
SOLID
  5
F379
  8
0
  6
CONTINUOUS
 62
     7
 10
-30.45912263968523
 20
3.00567334689174
 30
0.0
 11
-30.966929714211059
 21
3.00567334689174
 31
0.0
 12
-30.988117051445339
 22
2.984486009657473
 32
0.0
 13
-30.988117051445339
 23
2.984486009657473
 33
0.0
210
0.0
220
0.0
230
-1.0
  0
SOLID
  5
F37A
  8
0
  6
CONTINUOUS
 62
     7
 10
30.39538837320811
 20
2.984486009657473
 30
0.0
 11
30.374201035973829
 21
2.963298672423178
 31
0.0
 12
31.009304388679649
 22
2.963298672423178
 32
0.0
 13
31.009304388679649
 23
2.963298672423178
 33
0.0
  0
SOLID
  5
F37B
  8
0
  6
CONTINUOUS
 62
     7
 10
-30.39538837320811
 20
2.984486009657473
 30
0.0
 11
-30.988117051445339
 21
2.984486009657473
 31
0.0
 12
-31.009304388679649
 22
2.963298672423178
 32
0.0
 13
-31.009304388679649
 23
2.963298672423178
 33
0.0
210
0.0
220
0.0
230
-1.0
  0
SOLID
  5
F37C
  8
0
  6
CONTINUOUS
 62
     7
 10
30.374201035973829
 20
2.963298672423178
 30
0.0
 11
30.353013698739549
 21
2.942111335188883
 31
0.0
 12
31.072694145608239
 22
2.942111335188883
 32
0.0
 13
31.072694145608239
 23
2.942111335188883
 33
0.0
  0
SOLID
  5
F37D
  8
0
  6
CONTINUOUS
 62
     7
 10
-30.374201035973829
 20
2.963298672423178
 30
0.0
 11
-31.009304388679649
 21
2.963298672423178
 31
0.0
 12
-31.072694145608239
 22
2.942111335188883
 32
0.0
 13
-31.072694145608239
 23
2.942111335188883
 33
0.0
210
0.0
220
0.0
230
-1.0
  0
SOLID
  5
F37E
  8
0
  6
CONTINUOUS
 62
     7
 10
30.353013698739549
 20
2.942111335188883
 30
0.0
 11
30.310983533819488
 21
2.899736660720321
 31
0.0
 12
31.094053737616768
 22
2.899736660720321
 32
0.0
 13
31.094053737616768
 23
2.899736660720321
 33
0.0
  0
SOLID
  5
F37F
  8
0
  6
CONTINUOUS
 62
     7
 10
-30.353013698739549
 20
2.942111335188883
 30
0.0
 11
-31.072694145608239
 21
2.942111335188883
 31
0.0
 12
-31.094053737616768
 22
2.899736660720321
 32
0.0
 13
-31.094053737616768
 23
2.899736660720321
 33
0.0
210
0.0
220
0.0
230
-1.0
  0
SOLID
  5
F380
  8
0
  6
CONTINUOUS
 62
     7
 10
30.310983533819488
 20
2.899736660720321
 30
0.0
 11
30.26860885935093
 21
2.8575342410260021
 31
0.0
 12
31.15744349454539
 22
2.8575342410260021
 32
0.0
 13
31.15744349454539
 23
2.8575342410260021
 33
0.0
  0
SOLID
  5
F381
  8
0
  6
CONTINUOUS
 62
     7
 10
-30.310983533819488
 20
2.899736660720321
 30
0.0
 11
-31.094053737616768
 21
2.899736660720321
 31
0.0
 12
-31.15744349454539
 22
2.8575342410260021
 32
0.0
 13
-31.15744349454539
 23
2.8575342410260021
 33
0.0
210
0.0
220
0.0
230
-1.0
  0
SOLID
  5
F382
  8
0
  6
CONTINUOUS
 62
     7
 10
30.26860885935093
 20
2.8575342410260021
 30
0.0
 11
30.226234184882351
 21
2.81515956655744
 31
0.0
 12
31.171683222551081
 22
2.81515956655744
 32
0.0
 13
31.171683222551081
 23
2.81515956655744
 33
0.0
  0
SOLID
  5
F383
  8
0
  6
CONTINUOUS
 62
     7
 10
-30.26860885935093
 20
2.8575342410260021
 30
0.0
 11
-31.15744349454539
 21
2.8575342410260021
 31
0.0
 12
-31.171683222551081
 22
2.81515956655744
 32
0.0
 13
-31.171683222551081
 23
2.81515956655744
 33
0.0
210
0.0
220
0.0
230
-1.0
  0
SOLID
  5
F384
  8
0
  6
CONTINUOUS
 62
     7
 10
30.691666584939611
 20
2.81515956655744
 30
0.0
 11
30.713026176948151
 21
2.793972229323145
 31
0.0
 12
31.178803086553931
 22
2.793972229323145
 32
0.0
 13
31.178803086553931
 23
2.793972229323145
 33
0.0
  0
SOLID
  5
F385
  8
0
  6
CONTINUOUS
 62
     7
 10
-30.691666584939611
 20
2.81515956655744
 30
0.0
 11
-31.171683222551081
 21
2.81515956655744
 31
0.0
 12
-31.178803086553931
 22
2.793972229323145
 32
0.0
 13
-31.178803086553931
 23
2.793972229323145
 33
0.0
210
0.0
220
0.0
230
-1.0
  0
SOLID
  5
F386
  8
0
  6
CONTINUOUS
 62
     7
 10
30.77641593387677
 20
2.793972229323145
 30
0.0
 11
30.840150200353861
 21
2.77278489208885
 31
0.0
 12
31.192813141527282
 22
2.77278489208885
 32
0.0
 13
31.192813141527282
 23
2.77278489208885
 33
0.0
  0
SOLID
  5
F387
  8
0
  6
CONTINUOUS
 62
     7
 10
-30.77641593387677
 20
2.793972229323145
 30
0.0
 11
-31.178803086553931
 21
2.793972229323145
 31
0.0
 12
-31.192813141527282
 22
2.77278489208885
 32
0.0
 13
-31.192813141527282
 23
2.77278489208885
 33
0.0
210
0.0
220
0.0
230
-1.0
  0
SOLID
  5
F388
  8
0
  6
CONTINUOUS
 62
     7
 10
30.840150200353861
 20
2.77278489208885
 30
0.0
 11
30.90353995728249
 21
2.730410217620288
 31
0.0
 12
31.22083325147398
 22
2.730410217620288
 32
0.0
 13
31.22083325147398
 23
2.730410217620288
 33
0.0
  0
SOLID
  5
F389
  8
0
  6
CONTINUOUS
 62
     7
 10
-30.840150200353861
 20
2.77278489208885
 30
0.0
 11
-31.192813141527282
 21
2.77278489208885
 31
0.0
 12
-31.22083325147398
 22
2.730410217620288
 32
0.0
 13
-31.22083325147398
 23
2.730410217620288
 33
0.0
210
0.0
220
0.0
230
-1.0
  0
SOLID
  5
F38A
  8
0
  6
CONTINUOUS
 62
     7
 10
30.90353995728249
 20
2.730410217620288
 30
0.0
 11
30.90353995728249
 21
2.709222880385993
 31
0.0
 12
31.231513047478259
 22
2.709222880385993
 32
0.0
 13
31.231513047478259
 23
2.709222880385993
 33
0.0
  0
SOLID
  5
F38B
  8
0
  6
CONTINUOUS
 62
     7
 10
-30.90353995728249
 20
2.730410217620288
 30
0.0
 11
-31.22083325147398
 21
2.730410217620288
 31
0.0
 12
-31.231513047478259
 22
2.709222880385993
 32
0.0
 13
-31.231513047478259
 23
2.709222880385993
 33
0.0
210
0.0
220
0.0
230
-1.0
  0
SOLID
  5
F38C
  8
0
  6
CONTINUOUS
 62
     7
 10
30.90353995728249
 20
2.709222880385993
 30
0.0
 11
30.91409038643588
 21
2.688035543151698
 31
0.0
 12
31.242192843482549
 22
2.688035543151698
 32
0.0
 13
31.242192843482549
 23
2.688035543151698
 33
0.0
  0
SOLID
  5
F38D
  8
0
  6
CONTINUOUS
 62
     7
 10
-30.90353995728249
 20
2.709222880385993
 30
0.0
 11
-31.231513047478259
 21
2.709222880385993
 31
0.0
 12
-31.242192843482549
 22
2.688035543151698
 32
0.0
 13
-31.242192843482549
 23
2.688035543151698
 33
0.0
210
0.0
220
0.0
230
-1.0
  0
SOLID
  5
F38E
  8
0
  6
CONTINUOUS
 62
     7
 10
30.91409038643588
 20
2.688035543151698
 30
0.0
 11
30.924555039742501
 21
2.6670204606917021
 31
0.0
 12
31.24915980016765
 22
2.6670204606917021
 32
0.0
 13
31.24915980016765
 23
2.6670204606917021
 33
0.0
  0
SOLID
  5
F38F
  8
0
  6
CONTINUOUS
 62
     7
 10
-30.91409038643588
 20
2.688035543151698
 30
0.0
 11
-31.242192843482549
 21
2.688035543151698
 31
0.0
 12
-31.24915980016765
 22
2.6670204606917021
 32
0.0
 13
-31.24915980016765
 23
2.6670204606917021
 33
0.0
210
0.0
220
0.0
230
-1.0
  0
SOLID
  5
F390
  8
0
  6
CONTINUOUS
 62
     7
 10
30.924555039742501
 20
2.6670204606917021
 30
0.0
 11
30.938794767748199
 21
2.6246457862231121
 31
0.0
 12
31.26320792594257
 22
2.6246457862231121
 32
0.0
 13
31.26320792594257
 23
2.6246457862231121
 33
0.0
  0
SOLID
  5
F391
  8
0
  6
CONTINUOUS
 62
     7
 10
-30.924555039742501
 20
2.6670204606917021
 30
0.0
 11
-31.24915980016765
 21
2.6670204606917021
 31
0.0
 12
-31.26320792594257
 22
2.6246457862231121
 32
0.0
 13
-31.26320792594257
 23
2.6246457862231121
 33
0.0
210
0.0
220
0.0
230
-1.0
  0
SOLID
  5
F392
  8
0
  6
CONTINUOUS
 62
     7
 10
30.938794767748199
 20
2.6246457862231121
 30
0.0
 11
30.945914631751041
 21
2.6034584489888162
 31
0.0
 12
31.26320792594257
 22
2.6034584489888162
 32
0.0
 13
31.26320792594257
 23
2.6034584489888162
 33
0.0
  0
SOLID
  5
F393
  8
0
  6
CONTINUOUS
 62
     7
 10
-30.938794767748199
 20
2.6246457862231121
 30
0.0
 11
-31.26320792594257
 21
2.6246457862231121
 31
0.0
 12
-31.26320792594257
 22
2.6034584489888162
 32
0.0
 13
-31.26320792594257
 23
2.6034584489888162
 33
0.0
210
0.0
220
0.0
230
-1.0
  0
SOLID
  5
F394
  8
0
  6
CONTINUOUS
 62
     7
 10
30.945914631751041
 20
2.6034584489888162
 30
0.0
 11
30.959924686724381
 21
2.561083774520255
 31
0.0
 12
31.26320792594257
 22
2.561083774520255
 32
0.0
 13
31.26320792594257
 23
2.561083774520255
 33
0.0
  0
SOLID
  5
F395
  8
0
  6
CONTINUOUS
 62
     7
 10
-30.945914631751041
 20
2.6034584489888162
 30
0.0
 11
-31.26320792594257
 21
2.6034584489888162
 31
0.0
 12
-31.26320792594257
 22
2.561083774520255
 32
0.0
 13
-31.26320792594257
 23
2.561083774520255
 33
0.0
210
0.0
220
0.0
230
-1.0
  0
SOLID
  5
F396
  8
0
  6
CONTINUOUS
 62
     7
 10
30.959924686724381
 20
2.561083774520255
 30
0.0
 11
30.966929714211059
 21
2.53989643728596
 31
0.0
 12
31.268558699500719
 22
2.53989643728596
 32
0.0
 13
31.268558699500719
 23
2.53989643728596
 33
0.0
  0
SOLID
  5
F397
  8
0
  6
CONTINUOUS
 62
     7
 10
-30.959924686724381
 20
2.561083774520255
 30
0.0
 11
-31.26320792594257
 21
2.561083774520255
 31
0.0
 12
-31.268558699500719
 22
2.53989643728596
 32
0.0
 13
-31.268558699500719
 23
2.53989643728596
 33
0.0
210
0.0
220
0.0
230
-1.0
  0
SOLID
  5
F398
  8
0
  6
CONTINUOUS
 62
     7
 10
30.966929714211059
 20
2.53989643728596
 30
0.0
 11
30.966929714211059
 21
2.4765066803573741
 31
0.0
 12
31.2845675179511
 22
2.4765066803573741
 32
0.0
 13
31.2845675179511
 23
2.4765066803573741
 33
0.0
  0
SOLID
  5
F399
  8
0
  6
CONTINUOUS
 62
     7
 10
-30.966929714211059
 20
2.53989643728596
 30
0.0
 11
-31.268558699500719
 21
2.53989643728596
 31
0.0
 12
-31.2845675179511
 22
2.4765066803573741
 32
0.0
 13
-31.2845675179511
 23
2.4765066803573741
 33
0.0
210
0.0
220
0.0
230
-1.0
  0
SOLID
  5
F39A
  8
0
  6
CONTINUOUS
 62
     7
 10
30.966929714211059
 20
2.4765066803573741
 30
0.0
 11
30.966929714211059
 21
2.4553193431230791
 31
0.0
 12
31.2845675179511
 22
2.4553193431230791
 32
0.0
 13
31.2845675179511
 23
2.4553193431230791
 33
0.0
  0
SOLID
  5
F39B
  8
0
  6
CONTINUOUS
 62
     7
 10
-30.966929714211059
 20
2.4765066803573741
 30
0.0
 11
-31.2845675179511
 21
2.4765066803573741
 31
0.0
 12
-31.2845675179511
 22
2.4553193431230791
 32
0.0
 13
-31.2845675179511
 23
2.4553193431230791
 33
0.0
210
0.0
220
0.0
230
-1.0
  0
LINE
  5
F39C
  8
0
  6
CONTINUOUS
 62
     7
 10
30.585902153542431
 20
3.0478757665860581
 30
0.0
 11
30.522512396613848
 21
3.0266884293517631
 31
0.0
  0
LINE
  5
F39D
  8
0
  6
CONTINUOUS
 62
     7
 10
30.840150200353861
 20
3.0478757665860581
 30
0.0
 11
30.90353995728249
 21
3.0266884293517631
 31
0.0
  0
LINE
  5
F39E
  8
0
  6
CONTINUOUS
 62
     7
 10
30.522512396613848
 20
3.0266884293517631
 30
0.0
 11
30.45912263968523
 21
3.00567334689174
 31
0.0
  0
LINE
  5
F39F
  8
0
  6
CONTINUOUS
 62
     7
 10
30.90353995728249
 20
3.0266884293517631
 30
0.0
 11
30.966929714211059
 21
3.00567334689174
 31
0.0
  0
LINE
  5
F3A0
  8
0
  6
CONTINUOUS
 62
     7
 10
30.45912263968523
 20
3.00567334689174
 30
0.0
 11
30.39538837320811
 21
2.984486009657473
 31
0.0
  0
LINE
  5
F3A1
  8
0
  6
CONTINUOUS
 62
     7
 10
30.966929714211059
 20
3.00567334689174
 30
0.0
 11
30.988117051445339
 21
2.984486009657473
 31
0.0
  0
LINE
  5
F3A2
  8
0
  6
CONTINUOUS
 62
     7
 10
30.39538837320811
 20
2.984486009657473
 30
0.0
 11
30.374201035973829
 21
2.963298672423178
 31
0.0
  0
LINE
  5
F3A3
  8
0
  6
CONTINUOUS
 62
     7
 10
30.988117051445339
 20
2.984486009657473
 30
0.0
 11
31.009304388679649
 21
2.963298672423178
 31
0.0
  0
LINE
  5
F3A4
  8
0
  6
CONTINUOUS
 62
     7
 10
30.374201035973829
 20
2.963298672423178
 30
0.0
 11
30.353013698739549
 21
2.942111335188883
 31
0.0
  0
LINE
  5
F3A5
  8
0
  6
CONTINUOUS
 62
     7
 10
31.009304388679649
 20
2.963298672423178
 30
0.0
 11
31.072694145608239
 21
2.942111335188883
 31
0.0
  0
LINE
  5
F3A6
  8
0
  6
CONTINUOUS
 62
     7
 10
30.353013698739549
 20
2.942111335188883
 30
0.0
 11
30.310983533819488
 21
2.899736660720321
 31
0.0
  0
LINE
  5
F3A7
  8
0
  6
CONTINUOUS
 62
     7
 10
31.072694145608239
 20
2.942111335188883
 30
0.0
 11
31.094053737616768
 21
2.899736660720321
 31
0.0
  0
LINE
  5
F3A8
  8
0
  6
CONTINUOUS
 62
     7
 10
30.310983533819488
 20
2.899736660720321
 30
0.0
 11
30.26860885935093
 21
2.8575342410260021
 31
0.0
  0
LINE
  5
F3A9
  8
0
  6
CONTINUOUS
 62
     7
 10
31.094053737616768
 20
2.899736660720321
 30
0.0
 11
31.15744349454539
 21
2.8575342410260021
 31
0.0
  0
LINE
  5
F3AA
  8
0
  6
CONTINUOUS
 62
     7
 10
30.26860885935093
 20
2.8575342410260021
 30
0.0
 11
30.226234184882351
 21
2.81515956655744
 31
0.0
  0
LINE
  5
F3AB
  8
0
  6
CONTINUOUS
 62
     7
 10
31.15744349454539
 20
2.8575342410260021
 30
0.0
 11
31.171683222551081
 21
2.81515956655744
 31
0.0
  0
LINE
  5
F3AC
  8
0
  6
CONTINUOUS
 62
     7
 10
30.691666584939611
 20
2.81515956655744
 30
0.0
 11
30.713026176948151
 21
2.793972229323145
 31
0.0
  0
LINE
  5
F3AD
  8
0
  6
CONTINUOUS
 62
     7
 10
31.171683222551081
 20
2.81515956655744
 30
0.0
 11
31.178803086553931
 21
2.793972229323145
 31
0.0
  0
LINE
  5
F3AE
  8
0
  6
CONTINUOUS
 62
     7
 10
30.77641593387677
 20
2.793972229323145
 30
0.0
 11
30.840150200353861
 21
2.77278489208885
 31
0.0
  0
LINE
  5
F3AF
  8
0
  6
CONTINUOUS
 62
     7
 10
31.178803086553931
 20
2.793972229323145
 30
0.0
 11
31.192813141527282
 21
2.77278489208885
 31
0.0
  0
LINE
  5
F3B0
  8
0
  6
CONTINUOUS
 62
     7
 10
30.840150200353861
 20
2.77278489208885
 30
0.0
 11
30.90353995728249
 21
2.730410217620288
 31
0.0
  0
LINE
  5
F3B1
  8
0
  6
CONTINUOUS
 62
     7
 10
31.192813141527282
 20
2.77278489208885
 30
0.0
 11
31.22083325147398
 21
2.730410217620288
 31
0.0
  0
LINE
  5
F3B2
  8
0
  6
CONTINUOUS
 62
     7
 10
30.90353995728249
 20
2.730410217620288
 30
0.0
 11
30.90353995728249
 21
2.709222880385993
 31
0.0
  0
LINE
  5
F3B3
  8
0
  6
CONTINUOUS
 62
     7
 10
31.22083325147398
 20
2.730410217620288
 30
0.0
 11
31.231513047478259
 21
2.709222880385993
 31
0.0
  0
LINE
  5
F3B4
  8
0
  6
CONTINUOUS
 62
     7
 10
30.90353995728249
 20
2.709222880385993
 30
0.0
 11
30.91409038643588
 21
2.688035543151698
 31
0.0
  0
LINE
  5
F3B5
  8
0
  6
CONTINUOUS
 62
     7
 10
31.231513047478259
 20
2.709222880385993
 30
0.0
 11
31.242192843482549
 21
2.688035543151698
 31
0.0
  0
LINE
  5
F3B6
  8
0
  6
CONTINUOUS
 62
     7
 10
30.91409038643588
 20
2.688035543151698
 30
0.0
 11
30.924555039742501
 21
2.6670204606917021
 31
0.0
  0
LINE
  5
F3B7
  8
0
  6
CONTINUOUS
 62
     7
 10
31.242192843482549
 20
2.688035543151698
 30
0.0
 11
31.24915980016765
 21
2.6670204606917021
 31
0.0
  0
LINE
  5
F3B8
  8
0
  6
CONTINUOUS
 62
     7
 10
30.924555039742501
 20
2.6670204606917021
 30
0.0
 11
30.938794767748199
 21
2.6246457862231121
 31
0.0
  0
LINE
  5
F3B9
  8
0
  6
CONTINUOUS
 62
     7
 10
31.24915980016765
 20
2.6670204606917021
 30
0.0
 11
31.26320792594257
 21
2.6246457862231121
 31
0.0
  0
LINE
  5
F3BA
  8
0
  6
CONTINUOUS
 62
     7
 10
30.938794767748199
 20
2.6246457862231121
 30
0.0
 11
30.945914631751041
 21
2.6034584489888162
 31
0.0
  0
LINE
  5
F3BB
  8
0
  6
CONTINUOUS
 62
     7
 10
31.26320792594257
 20
2.6246457862231121
 30
0.0
 11
31.26320792594257
 21
2.6034584489888162
 31
0.0
  0
LINE
  5
F3BC
  8
0
  6
CONTINUOUS
 62
     7
 10
30.945914631751041
 20
2.6034584489888162
 30
0.0
 11
30.959924686724381
 21
2.561083774520255
 31
0.0
  0
LINE
  5
F3BD
  8
0
  6
CONTINUOUS
 62
     7
 10
31.26320792594257
 20
2.6034584489888162
 30
0.0
 11
31.26320792594257
 21
2.561083774520255
 31
0.0
  0
LINE
  5
F3BE
  8
0
  6
CONTINUOUS
 62
     7
 10
30.959924686724381
 20
2.561083774520255
 30
0.0
 11
30.966929714211059
 21
2.53989643728596
 31
0.0
  0
LINE
  5
F3BF
  8
0
  6
CONTINUOUS
 62
     7
 10
31.26320792594257
 20
2.561083774520255
 30
0.0
 11
31.268558699500719
 21
2.53989643728596
 31
0.0
  0
LINE
  5
F3C0
  8
0
  6
CONTINUOUS
 62
     7
 10
30.966929714211059
 20
2.53989643728596
 30
0.0
 11
30.966929714211059
 21
2.4765066803573741
 31
0.0
  0
LINE
  5
F3C1
  8
0
  6
CONTINUOUS
 62
     7
 10
31.268558699500719
 20
2.53989643728596
 30
0.0
 11
31.2845675179511
 21
2.4765066803573741
 31
0.0
  0
LINE
  5
F3C2
  8
0
  6
CONTINUOUS
 62
     7
 10
30.966929714211059
 20
2.4765066803573741
 30
0.0
 11
30.966929714211059
 21
2.4553193431230791
 31
0.0
  0
LINE
  5
F3C3
  8
0
  6
CONTINUOUS
 62
     7
 10
31.2845675179511
 20
2.4765066803573741
 30
0.0
 11
31.2845675179511
 21
2.4553193431230791
 31
0.0
  0
ENDBLK
  5
F3C5
  8
0
  0
ENDSEC
  0
SECTION
  2
ENTITIES
  0
TEXT
  5
AA
  8
0
  6
CONTINUOUS
 62
     7
 10
3.0
 20
91.0
 30
0.0
 40
4.5
  1
人感ｾﾝｻ
 41
2.25
  7
EXCADSTD
 72
     5
 11
43.5
 21
91.0
 31
0.0
  0
TEXT
  5
C8
  8
0
  6
CONTINUOUS
 62
     7
 10
3.0
 20
7.0
 30
0.0
 40
4.5
  1
三菱 MS1903
 41
1.0871795384615379
  7
EXCADSTD
 72
     5
 11
45.400002000000001
 21
7.0
 31
0.0
  0
LINE
  5
F4A4
  8
0
  6
CONTINUOUS
 62
     7
 10
57.018453509503729
 20
48.181240106994032
 30
0.0
 11
69.907443934796433
 21
55.622702675299891
 31
0.0
  0
LINE
  5
F4A5
  8
0
  6
CONTINUOUS
 62
     7
 10
41.310902362831342
 20
39.112481787903761
 30
0.0
 11
32.177148403722811
 21
33.839106300346756
 31
0.0
  0
POLYLINE
  5
F4A6
  8
0
 62
     7
 66
     1
 10
0.0
 20
0.0
 30
0.0
  0
VERTEX
  5
F686
  8
0
 62
     7
 10
58.589151521042339
 20
43.94369368032347
 30
0.0
  0
VERTEX
  5
F687
  8
0
 62
     7
 10
58.504402172105223
 20
44.70540429211222
 30
0.0
  0
VERTEX
  5
F688
  8
0
 62
     7
 10
58.25032638006806
 20
45.467459413449482
 30
0.0
  0
VERTEX
  5
F689
  8
0
 62
     7
 10
57.827096399705091
 20
46.187139860318169
 30
0.0
  0
VERTEX
  5
F68A
  8
0
 62
     7
 10
57.25555505870215
 20
46.885805224726852
 30
0.0
  0
VERTEX
  5
F68B
  8
0
 62
     7
 10
56.535874611833457
 20
47.541923659892667
 30
0.0
  0
VERTEX
  5
F68C
  8
0
 62
     7
 10
55.689242396333313
 20
48.134480083355669
 30
0.0
  0
VERTEX
  5
F68D
  8
0
 62
     7
 10
54.694471074967417
 20
48.663646749890042
 30
0.0
  0
VERTEX
  5
F68E
  8
0
 62
     7
 10
53.614950404664398
 20
49.108236322261519
 30
0.0
  0
VERTEX
  5
F68F
  8
0
 62
     7
 10
52.429493048189912
 20
49.489263882930139
 30
0.0
  0
VERTEX
  5
F690
  8
0
 62
     7
 10
51.180818189561109
 20
49.764354757427348
 30
0.0
  0
VERTEX
  5
F691
  8
0
 62
     7
 10
49.868409064455193
 20
49.954868537761669
 30
0.0
  0
VERTEX
  5
F692
  8
0
 62
     7
 10
48.534984856889217
 20
50.060805223933087
 30
0.0
  0
VERTEX
  5
F693
  8
0
 62
     7
 10
47.201388394549006
 20
50.060805223933087
 30
0.0
  0
VERTEX
  5
F694
  8
0
 62
     7
 10
45.867964186983052
 20
49.954868537761669
 30
0.0
  0
VERTEX
  5
F695
  8
0
 62
     7
 10
44.555555061877158
 20
49.764354757427348
 30
0.0
  0
VERTEX
  5
F696
  8
0
 62
     7
 10
43.306707948474077
 20
49.489263882930139
 30
0.0
  0
VERTEX
  5
F697
  8
0
 62
     7
 10
42.121422846773882
 20
49.108236322261519
 30
0.0
  0
VERTEX
  5
F698
  8
0
 62
     7
 10
41.041902176470842
 20
48.663646749890042
 30
0.0
  0
VERTEX
  5
F699
  8
0
 62
     7
 10
40.047130855104967
 20
48.134480083355669
 30
0.0
  0
VERTEX
  5
F69A
  8
0
 62
     7
 10
39.200326384830561
 20
47.541923659892667
 30
0.0
  0
VERTEX
  5
F69B
  8
0
 62
     7
 10
38.480818192736109
 20
46.885805224726852
 30
0.0
  0
VERTEX
  5
F69C
  8
0
 62
     7
 10
37.909276851733168
 20
46.187139860318169
 30
0.0
  0
VERTEX
  5
F69D
  8
0
 62
     7
 10
37.485874616595957
 20
45.467459413449482
 30
0.0
  0
VERTEX
  5
F69E
  8
0
 62
     7
 10
37.23197107933305
 20
44.70540429211222
 30
0.0
  0
VERTEX
  5
F69F
  8
0
 62
     7
 10
37.147221730395898
 20
43.94369368032347
 30
0.0
  0
VERTEX
  5
F6A0
  8
0
 62
     7
 10
37.23197107933305
 20
43.181638558986243
 30
0.0
  0
VERTEX
  5
F6A1
  8
0
 62
     7
 10
37.485874616595957
 20
42.41958343764896
 30
0.0
  0
VERTEX
  5
F6A2
  8
0
 62
     7
 10
37.909276851733168
 20
41.678887908320263
 30
0.0
  0
VERTEX
  5
F6A3
  8
0
 62
     7
 10
38.480818192736109
 20
41.001237626371612
 30
0.0
  0
VERTEX
  5
F6A4
  8
0
 62
     7
 10
39.200326384830561
 20
40.34529144598006
 30
0.0
  0
VERTEX
  5
F6A5
  8
0
 62
     7
 10
40.047130855104967
 20
39.752390512968532
 30
0.0
  0
VERTEX
  5
F6A6
  8
0
 62
     7
 10
41.041902176470842
 20
39.223223846434159
 30
0.0
  0
VERTEX
  5
F6A7
  8
0
 62
     7
 10
42.121422846773882
 20
38.778806528836959
 30
0.0
  0
VERTEX
  5
F6A8
  8
0
 62
     7
 10
43.306707948474077
 20
38.397778968168303
 30
0.0
  0
VERTEX
  5
F6A9
  8
0
 62
     7
 10
44.555555061877158
 20
38.122860348445357
 30
0.0
  0
VERTEX
  5
F6AA
  8
0
 62
     7
 10
45.867964186983052
 20
37.932346568111058
 30
0.0
  0
VERTEX
  5
F6AB
  8
0
 62
     7
 10
47.201388394549006
 20
37.826237627165384
 30
0.0
  0
VERTEX
  5
F6AC
  8
0
 62
     7
 10
48.534984856889217
 20
37.826237627165384
 30
0.0
  0
VERTEX
  5
F6AD
  8
0
 62
     7
 10
49.868409064455193
 20
37.932346568111058
 30
0.0
  0
VERTEX
  5
F6AE
  8
0
 62
     7
 10
51.180818189561109
 20
38.122860348445357
 30
0.0
  0
VERTEX
  5
F6AF
  8
0
 62
     7
 10
52.429493048189912
 20
38.397778968168303
 30
0.0
  0
VERTEX
  5
F6B0
  8
0
 62
     7
 10
53.614950404664398
 20
38.778806528836959
 30
0.0
  0
VERTEX
  5
F6B1
  8
0
 62
     7
 10
54.694471074967417
 20
39.223223846434159
 30
0.0
  0
VERTEX
  5
F6B2
  8
0
 62
     7
 10
55.689242396333313
 20
39.752390512968532
 30
0.0
  0
VERTEX
  5
F6B3
  8
0
 62
     7
 10
56.535874611833457
 20
40.34529144598006
 30
0.0
  0
VERTEX
  5
F6B4
  8
0
 62
     7
 10
57.25555505870215
 20
41.001237626371612
 30
0.0
  0
VERTEX
  5
F6B5
  8
0
 62
     7
 10
57.827096399705091
 20
41.678887908320263
 30
0.0
  0
VERTEX
  5
F6B6
  8
0
 62
     7
 10
58.25032638006806
 20
42.41958343764896
 30
0.0
  0
VERTEX
  5
F6B7
  8
0
 62
     7
 10
58.504402172105223
 20
43.181638558986243
 30
0.0
  0
VERTEX
  5
F6B8
  8
0
 62
     7
 10
58.589151521042339
 20
43.94369368032347
 30
0.0
  0
SEQEND
  5
F6B9
  8
0
 62
     7
  0
POLYLINE
  5
F4A7
  8
0
 62
     7
 66
     1
 10
0.0
 20
0.0
 30
0.0
  0
VERTEX
  5
F6BA
  8
0
 62
     7
 10
58.20812396037374
 20
42.334834088711823
 30
0.0
  0
VERTEX
  5
F6BB
  8
0
 62
     7
 10
58.546776846573792
 20
43.075874127589053
 30
0.0
  0
VERTEX
  5
F6BC
  8
0
 62
     7
 10
58.716103289673818
 20
43.837584739377789
 30
0.0
  0
VERTEX
  5
F6BD
  8
0
 62
     7
 10
58.737290626908099
 20
44.620999452723609
 30
0.0
  0
VERTEX
  5
F6BE
  8
0
 62
     7
 10
58.589151521042339
 20
45.404069656520882
 30
0.0
  0
VERTEX
  5
F6BF
  8
0
 62
     7
 10
58.271513717302327
 20
46.144937440623877
 30
0.0
  0
VERTEX
  5
F6C0
  8
0
 62
     7
 10
57.827096399705091
 20
46.885805224726852
 30
0.0
  0
VERTEX
  5
F6C1
  8
0
 62
     7
 10
57.213180384233567
 20
47.563110997126977
 30
0.0
  0
VERTEX
  5
F6C2
  8
0
 62
     7
 10
56.472484854904849
 20
48.219229432292778
 30
0.0
  0
VERTEX
  5
F6C3
  8
0
 62
     7
 10
55.604493047396168
 20
48.790770773295748
 30
0.0
  0
VERTEX
  5
F6C4
  8
0
 62
     7
 10
54.609721726030273
 20
49.319937439830142
 30
0.0
  0
VERTEX
  5
F6C5
  8
0
 62
     7
 10
53.530201055727233
 20
49.764354757427348
 30
0.0
  0
VERTEX
  5
F6C6
  8
0
 62
     7
 10
52.366103291261311
 20
50.124194980861702
 30
0.0
  0
VERTEX
  5
F6C7
  8
0
 62
     7
 10
51.117256177858252
 20
50.39945811013316
 30
0.0
  0
VERTEX
  5
F6C8
  8
0
 62
     7
 10
49.847221727220898
 20
50.589971890467488
 30
0.0
  0
VERTEX
  5
F6C9
  8
0
 62
     7
 10
48.534984856889217
 20
50.67454898463037
 30
0.0
  0
VERTEX
  5
F6CA
  8
0
 62
     7
 10
47.201388394549006
 20
50.67454898463037
 30
0.0
  0
VERTEX
  5
F6CB
  8
0
 62
     7
 10
45.889151524217361
 20
50.589971890467488
 30
0.0
  0
VERTEX
  5
F6CC
  8
0
 62
     7
 10
44.597929736345719
 20
50.39945811013316
 30
0.0
  0
VERTEX
  5
F6CD
  8
0
 62
     7
 10
43.370269960176948
 20
50.124194980861702
 30
0.0
  0
VERTEX
  5
F6CE
  8
0
 62
     7
 10
42.205999940936763
 20
49.764354757427348
 30
0.0
  0
VERTEX
  5
F6CF
  8
0
 62
     7
 10
41.126651525407993
 20
49.319937439830142
 30
0.0
  0
VERTEX
  5
F6D0
  8
0
 62
     7
 10
40.131707949267849
 20
48.790770773295748
 30
0.0
  0
VERTEX
  5
F6D1
  8
0
 62
     7
 10
39.263888396533403
 20
48.219229432292778
 30
0.0
  0
VERTEX
  5
F6D2
  8
0
 62
     7
 10
38.523020612430429
 20
47.563110997126977
 30
0.0
  0
VERTEX
  5
F6D3
  8
0
 62
     7
 10
37.909276851733168
 20
46.885805224726852
 30
0.0
  0
VERTEX
  5
F6D4
  8
0
 62
     7
 10
37.443499942127389
 20
46.144937440623877
 30
0.0
  0
VERTEX
  5
F6D5
  8
0
 62
     7
 10
37.147221730395898
 20
45.404069656520882
 30
0.0
  0
VERTEX
  5
F6D6
  8
0
 62
     7
 10
36.999082624530161
 20
44.620999452723609
 30
0.0
  0
VERTEX
  5
F6D7
  8
0
 62
     7
 10
37.020269961764441
 20
43.837584739377789
 30
0.0
  0
VERTEX
  5
F6D8
  8
0
 62
     7
 10
37.189596404864481
 20
43.075874127589053
 30
0.0
  0
VERTEX
  5
F6D9
  8
0
 62
     7
 10
37.52824929106454
 20
42.334834088711823
 30
0.0
  0
SEQEND
  5
F6DA
  8
0
 62
     7
  0
POLYLINE
  5
F4A8
  8
0
 62
     7
 66
     1
 10
0.0
 20
0.0
 30
0.0
  0
VERTEX
  5
F6DB
  8
0
 62
     7
 10
56.366548168733431
 20
54.018875426936617
 30
0.0
  0
VERTEX
  5
F6DC
  8
0
 62
     7
 10
55.731617070801882
 20
53.532083434870863
 30
0.0
  0
VERTEX
  5
F6DD
  8
0
 62
     7
 10
55.13888839256466
 20
52.960542093867893
 30
0.0
  0
VERTEX
  5
F6DE
  8
0
 62
     7
 10
54.609721726030273
 20
52.346798333170632
 30
0.0
  0
VERTEX
  5
F6DF
  8
0
 62
     7
 10
54.144117071198757
 20
51.690507643230539
 30
0.0
  0
VERTEX
  5
F6E0
  8
0
 62
     7
 10
53.741902173295841
 20
50.970827196361839
 30
0.0
  0
VERTEX
  5
F6E1
  8
0
 62
     7
 10
53.42443662433007
 20
50.230131667033127
 30
0.0
  0
SEQEND
  5
F6E2
  8
0
 62
     7
  0
POLYLINE
  5
F4A9
  8
0
 62
     7
 66
     1
 10
0.0
 20
0.0
 30
0.0
  0
VERTEX
  5
F6E3
  8
0
 62
     7
 10
39.094561953433363
 20
50.39945811013316
 30
0.0
  0
VERTEX
  5
F6E4
  8
0
 62
     7
 10
39.094561953433363
 20
55.733327195171228
 30
0.0
  0
SEQEND
  5
F6E5
  8
0
 62
     7
  0
POLYLINE
  5
F4AA
  8
0
 62
     7
 66
     1
 10
0.0
 20
0.0
 30
0.0
  0
VERTEX
  5
F6E6
  8
0
 62
     7
 10
38.628957298601861
 20
48.11346500089563
 30
0.0
  0
VERTEX
  5
F6E7
  8
0
 62
     7
 10
38.628957298601861
 20
49.61621565156161
 30
0.0
  0
SEQEND
  5
F6E8
  8
0
 62
     7
  0
POLYLINE
  5
F4AB
  8
0
 62
     7
 66
     1
 10
0.0
 20
0.0
 30
0.0
  0
VERTEX
  5
F6E9
  8
0
 62
     7
 10
62.801297516083082
 20
63.057083432489598
 30
0.0
  0
VERTEX
  5
F6EA
  8
0
 62
     7
 10
65.552895280152114
 20
61.469583432886481
 30
0.0
  0
SEQEND
  5
F6EB
  8
0
 62
     7
  0
POLYLINE
  5
F4AC
  8
0
 62
     7
 66
     1
 10
0.0
 20
0.0
 30
0.0
  0
VERTEX
  5
F6EC
  8
0
 62
     7
 10
44.005201058108497
 20
58.696798331583132
 30
0.0
  0
VERTEX
  5
F6ED
  8
0
 62
     7
 10
44.005201058108497
 20
60.87685475464923
 30
0.0
  0
VERTEX
  5
F6EE
  8
0
 62
     7
 10
44.640304410814288
 20
61.194320303615001
 30
0.0
  0
SEQEND
  5
F6EF
  8
0
 62
     7
  0
POLYLINE
  5
F4AD
  8
0
 62
     7
 66
     1
 10
0.0
 20
0.0
 30
0.0
  0
VERTEX
  5
F6F0
  8
0
 62
     7
 10
39.412027502399162
 20
56.09316741860556
 30
0.0
  0
VERTEX
  5
F6F1
  8
0
 62
     7
 10
39.412027502399162
 20
58.31577077091449
 30
0.0
  0
SEQEND
  5
F6F2
  8
0
 62
     7
  0
POLYLINE
  5
F4AE
  8
0
 62
     7
 66
     1
 10
0.0
 20
0.0
 30
0.0
  0
VERTEX
  5
F6F3
  8
0
 62
     7
 10
48.238534390383492
 20
53.722597215205148
 30
0.0
  0
VERTEX
  5
F6F4
  8
0
 62
     7
 10
48.238534390383492
 20
58.040507641643039
 30
0.0
  0
SEQEND
  5
F6F5
  8
0
 62
     7
  0
POLYLINE
  5
F4AF
  8
0
 62
     7
 66
     1
 10
0.0
 20
0.0
 30
0.0
  0
VERTEX
  5
F6F6
  8
0
 62
     7
 10
39.496776851336293
 20
58.358145445383087
 30
0.0
  0
VERTEX
  5
F6F7
  8
0
 62
     7
 10
40.004756180636377
 20
58.358145445383087
 30
0.0
  0
VERTEX
  5
F6F8
  8
0
 62
     7
 10
40.004756180636377
 20
56.643521422374207
 30
0.0
  0
SEQEND
  5
F6F9
  8
0
 62
     7
  0
POLYLINE
  5
F4B0
  8
0
 62
     7
 66
     1
 10
0.0
 20
0.0
 30
0.0
  0
VERTEX
  5
F6FA
  8
0
 62
     7
 10
46.121867724245988
 20
60.36887542534916
 30
0.0
  0
VERTEX
  5
F6FB
  8
0
 62
     7
 10
46.333568841814582
 20
54.865507642436789
 30
0.0
  0
SEQEND
  5
F6FC
  8
0
 62
     7
  0
POLYLINE
  5
F4B1
  8
0
 62
     7
 66
     1
 10
0.0
 20
0.0
 30
0.0
  0
VERTEX
  5
F6FD
  8
0
 62
     7
 10
40.004756180636377
 20
58.358145445383087
 30
0.0
  0
VERTEX
  5
F6FE
  8
0
 62
     7
 10
44.005201058108497
 20
60.4746398567463
 30
0.0
  0
SEQEND
  5
F6FF
  8
0
 62
     7
  0
POLYLINE
  5
F4B2
  8
0
 62
     7
 66
     1
 10
0.0
 20
0.0
 30
0.0
  0
VERTEX
  5
F700
  8
0
 62
     7
 10
45.76202750081162
 20
53.59564544657372
 30
0.0
  0
VERTEX
  5
F701
  8
0
 62
     7
 10
45.76202750081162
 20
54.865507642436789
 30
0.0
  0
VERTEX
  5
F702
  8
0
 62
     7
 10
46.926297520051811
 20
54.865507642436789
 30
0.0
  0
VERTEX
  5
F703
  8
0
 62
     7
 10
46.926297520051811
 20
53.70140987797086
 30
0.0
  0
SEQEND
  5
F704
  8
0
 62
     7
  0
POLYLINE
  5
F4B3
  8
0
 62
     7
 66
     1
 10
0.0
 20
0.0
 30
0.0
  0
VERTEX
  5
F705
  8
0
 62
     7
 10
46.121867724245988
 20
60.36887542534916
 30
0.0
  0
VERTEX
  5
F706
  8
0
 62
     7
 10
48.238534390383492
 20
58.040507641643039
 30
0.0
  0
VERTEX
  5
F707
  8
0
 62
     7
 10
49.974173495852369
 20
56.707083434077099
 30
0.0
  0
SEQEND
  5
F708
  8
0
 62
     7
  0
POLYLINE
  5
F4B4
  8
0
 62
     7
 66
     1
 10
0.0
 20
0.0
 30
0.0
  0
VERTEX
  5
F709
  8
0
 62
     7
 10
46.121867724245988
 20
60.36887542534916
 30
0.0
  0
VERTEX
  5
F70A
  8
0
 62
     7
 10
51.51947107576116
 20
57.23625010061145
 30
0.0
  0
VERTEX
  5
F70B
  8
0
 62
     7
 10
55.625680384630471
 20
53.447334085933697
 30
0.0
  0
SEQEND
  5
F70C
  8
0
 62
     7
  0
POLYLINE
  5
F4B5
  8
0
 62
     7
 66
     1
 10
0.0
 20
0.0
 30
0.0
  0
VERTEX
  5
F70D
  8
0
 62
     7
 10
49.974173495852369
 20
56.707083434077099
 30
0.0
  0
VERTEX
  5
F70E
  8
0
 62
     7
 10
49.974173495852369
 20
51.013201870830407
 30
0.0
  0
SEQEND
  5
F70F
  8
0
 62
     7
  0
POLYLINE
  5
F4B6
  8
0
 62
     7
 66
     1
 10
0.0
 20
0.0
 30
0.0
  0
VERTEX
  5
F710
  8
0
 62
     7
 10
51.455909064058318
 20
50.780485670801802
 30
0.0
  0
VERTEX
  5
F711
  8
0
 62
     7
 10
51.455909064058318
 20
53.70140987797086
 30
0.0
  0
VERTEX
  5
F712
  8
0
 62
     7
 10
52.556617071595639
 20
53.70140987797086
 30
0.0
  0
VERTEX
  5
F713
  8
0
 62
     7
 10
52.556617071595639
 20
50.505222541530337
 30
0.0
  0
SEQEND
  5
F714
  8
0
 62
     7
  0
POLYLINE
  5
F4B7
  8
0
 62
     7
 66
     1
 10
0.0
 20
0.0
 30
0.0
  0
VERTEX
  5
F715
  8
0
 62
     7
 10
52.556617071595639
 20
53.70140987797086
 30
0.0
  0
VERTEX
  5
F716
  8
0
 62
     7
 10
53.085783738129997
 20
53.383944329005089
 30
0.0
  0
VERTEX
  5
F717
  8
0
 62
     7
 10
53.085783738129997
 20
50.335896098430311
 30
0.0
  0
SEQEND
  5
F718
  8
0
 62
     7
  0
POLYLINE
  5
F4B8
  8
0
 62
     7
 66
     1
 10
0.0
 20
0.0
 30
0.0
  0
VERTEX
  5
F719
  8
0
 62
     7
 10
53.085783738129997
 20
52.960542093867893
 30
0.0
  0
VERTEX
  5
F71A
  8
0
 62
     7
 10
54.609721726030273
 20
52.346798333170632
 30
0.0
  0
SEQEND
  5
F71B
  8
0
 62
     7
  0
POLYLINE
  5
F4B9
  8
0
 62
     7
 66
     1
 10
0.0
 20
0.0
 30
0.0
  0
VERTEX
  5
F71C
  8
0
 62
     7
 10
65.552895280152114
 20
61.469583432886481
 30
0.0
  0
VERTEX
  5
F71D
  8
0
 62
     7
 10
65.997484852523598
 20
60.961604103586382
 30
0.0
  0
SEQEND
  5
F71E
  8
0
 62
     7
  0
POLYLINE
  5
F4BA
  8
0
 62
     7
 66
     1
 10
0.0
 20
0.0
 30
0.0
  0
VERTEX
  5
F71F
  8
0
 62
     7
 10
30.479756183017631
 20
43.414527013789112
 30
0.0
  0
VERTEX
  5
F720
  8
0
 62
     7
 10
33.062027503986641
 20
41.932791445583163
 30
0.0
  0
SEQEND
  5
F721
  8
0
 62
     7
  0
POLYLINE
  5
F4BB
  8
0
 62
     7
 66
     1
 10
0.0
 20
0.0
 30
0.0
  0
VERTEX
  5
F722
  8
0
 62
     7
 10
62.801297516083082
 20
63.057083432489598
 30
0.0
  0
VERTEX
  5
F723
  8
0
 62
     7
 10
63.26690217091457
 20
62.527916765955212
 30
0.0
  0
VERTEX
  5
F724
  8
0
 62
     7
 10
65.997484852523598
 20
60.961604103586382
 30
0.0
  0
SEQEND
  5
F725
  8
0
 62
     7
  0
POLYLINE
  5
F4BC
  8
0
 62
     7
 66
     1
 10
0.0
 20
0.0
 30
0.0
  0
VERTEX
  5
F726
  8
0
 62
     7
 10
56.366548168733431
 20
54.018875426936617
 30
0.0
  0
VERTEX
  5
F727
  8
0
 62
     7
 10
57.932860831102282
 20
56.32605587340845
 30
0.0
  0
VERTEX
  5
F728
  8
0
 62
     7
 10
58.673728615205228
 20
57.490153637874393
 30
0.0
  0
VERTEX
  5
F729
  8
0
 62
     7
 10
59.393409062073943
 20
58.696798331583132
 30
0.0
  0
VERTEX
  5
F72A
  8
0
 62
     7
 10
60.113089508942643
 20
59.903270770517622
 30
0.0
  0
VERTEX
  5
F72B
  8
0
 62
     7
 10
60.896159712739923
 20
61.04618119774927
 30
0.0
  0
VERTEX
  5
F72C
  8
0
 62
     7
 10
61.3407492851114
 20
61.575347864283628
 30
0.0
  0
VERTEX
  5
F72D
  8
0
 62
     7
 10
61.827541277177197
 20
62.062312111123703
 30
0.0
  0
VERTEX
  5
F72E
  8
0
 62
     7
 10
62.801297516083082
 20
63.057083432489598
 30
0.0
  0
SEQEND
  5
F72F
  8
0
 62
     7
  0
POLYLINE
  5
F4BD
  8
0
 62
     7
 66
     1
 10
0.0
 20
0.0
 30
0.0
  0
VERTEX
  5
F730
  8
0
 62
     7
 10
59.075943513108172
 20
52.452562764567787
 30
0.0
  0
VERTEX
  5
F731
  8
0
 62
     7
 10
60.621068838242721
 20
54.717368536571051
 30
0.0
  0
VERTEX
  5
F732
  8
0
 62
     7
 10
61.361936622345688
 20
55.860451218576941
 30
0.0
  0
VERTEX
  5
F733
  8
0
 62
     7
 10
62.060429731980093
 20
57.045736320277129
 30
0.0
  0
VERTEX
  5
F734
  8
0
 62
     7
 10
62.737735504380218
 20
58.209834084743072
 30
0.0
  0
VERTEX
  5
F735
  8
0
 62
     7
 10
63.49979062571748
 20
59.352916766748947
 30
0.0
  0
VERTEX
  5
F736
  8
0
 62
     7
 10
63.923020606080421
 20
59.882083433283348
 30
0.0
  0
VERTEX
  5
F737
  8
0
 62
     7
 10
64.388797515686221
 20
60.36887542534916
 30
0.0
  0
VERTEX
  5
F738
  8
0
 62
     7
 10
65.362381499817815
 20
61.321444327020707
 30
0.0
  0
SEQEND
  5
F739
  8
0
 62
     7
  0
POLYLINE
  5
F4BE
  8
0
 62
     7
 66
     1
 10
0.0
 20
0.0
 30
0.0
  0
VERTEX
  5
F73A
  8
0
 62
     7
 10
56.366548168733431
 20
54.018875426936617
 30
0.0
  0
VERTEX
  5
F73B
  8
0
 62
     7
 10
59.075943513108172
 20
52.452562764567787
 30
0.0
  0
VERTEX
  5
F73C
  8
0
 62
     7
 10
58.462027497636662
 20
51.986958109736292
 30
0.0
  0
VERTEX
  5
F73D
  8
0
 62
     7
 10
57.890486156633699
 20
51.457791443201927
 30
0.0
  0
VERTEX
  5
F73E
  8
0
 62
     7
 10
57.3825068273336
 20
50.865062764964676
 30
0.0
  0
VERTEX
  5
F73F
  8
0
 62
     7
 10
56.916902172502091
 20
50.230131667033127
 30
0.0
  0
VERTEX
  5
F740
  8
0
 62
     7
 10
56.535874611833457
 20
49.552653639858747
 30
0.0
  0
VERTEX
  5
F741
  8
0
 62
     7
 10
56.197221725633391
 20
48.854160530224362
 30
0.0
  0
SEQEND
  5
F742
  8
0
 62
     7
  0
POLYLINE
  5
F4BF
  8
0
 62
     7
 66
     1
 10
0.0
 20
0.0
 30
0.0
  0
VERTEX
  5
F743
  8
0
 62
     7
 10
30.479756183017631
 20
43.414527013789112
 30
0.0
  0
VERTEX
  5
F744
  8
0
 62
     7
 10
30.902986163380579
 20
44.134207460657812
 30
0.0
  0
SEQEND
  5
F745
  8
0
 62
     7
  0
POLYLINE
  5
F4C0
  8
0
 62
     7
 66
     1
 10
0.0
 20
0.0
 30
0.0
  0
VERTEX
  5
F746
  8
0
 62
     7
 10
33.062027503986641
 20
41.932791445583163
 30
0.0
  0
VERTEX
  5
F747
  8
0
 62
     7
 10
33.464242401889571
 20
42.652471892451842
 30
0.0
  0
VERTEX
  5
F748
  8
0
 62
     7
 10
30.902986163380579
 20
44.134207460657812
 30
0.0
  0
VERTEX
  5
F749
  8
0
 62
     7
 10
31.262826386814918
 20
44.324721240992112
 30
0.0
  0
VERTEX
  5
F74A
  8
0
 62
     7
 10
31.686228621952129
 20
44.472860346857843
 30
0.0
  0
VERTEX
  5
F74B
  8
0
 62
     7
 10
32.109630857089329
 20
44.536250103786458
 30
0.0
  0
VERTEX
  5
F74C
  8
0
 62
     7
 10
32.554048174686557
 20
44.514890511777899
 30
0.0
  0
VERTEX
  5
F74D
  8
0
 62
     7
 10
33.379493052952427
 20
44.303361648983568
 30
0.0
  0
VERTEX
  5
F74E
  8
0
 62
     7
 10
34.205110185992538
 20
44.007083437252092
 30
0.0
  0
VERTEX
  5
F74F
  8
0
 62
     7
 10
35.79261018559567
 20
43.350792747311992
 30
0.0
  0
VERTEX
  5
F750
  8
0
 62
     7
 10
37.358922847964507
 20
42.652471892451842
 30
0.0
  0
SEQEND
  5
F751
  8
0
 62
     7
  0
POLYLINE
  5
F4C1
  8
0
 62
     7
 66
     1
 10
0.0
 20
0.0
 30
0.0
  0
VERTEX
  5
F752
  8
0
 62
     7
 10
33.464242401889571
 20
42.652471892451842
 30
0.0
  0
VERTEX
  5
F753
  8
0
 62
     7
 10
33.697130856692453
 20
42.779251406309037
 30
0.0
  0
VERTEX
  5
F754
  8
0
 62
     7
 10
33.951034393955382
 20
42.885360347254711
 30
0.0
  0
VERTEX
  5
F755
  8
0
 62
     7
 10
34.522575734958309
 20
42.90637542971475
 30
0.0
  0
VERTEX
  5
F756
  8
0
 62
     7
 10
35.07292973872697
 20
42.864000755246181
 30
0.0
  0
VERTEX
  5
F757
  8
0
 62
     7
 10
35.602096405261349
 20
42.779251406309037
 30
0.0
  0
VERTEX
  5
F758
  8
0
 62
     7
 10
36.660429738330102
 20
42.440598520108978
 30
0.0
  0
VERTEX
  5
F759
  8
0
 62
     7
 10
37.676388396930278
 20
42.038555876980318
 30
0.0
  0
SEQEND
  5
F75A
  8
0
 62
     7
  0
POLYLINE
  5
F4C2
  8
0
 62
     7
 66
     1
 10
0.0
 20
0.0
 30
0.0
  0
VERTEX
  5
F75B
  8
0
 62
     7
 10
58.737290626908099
 20
44.536250103786458
 30
0.0
  0
VERTEX
  5
F75C
  8
0
 62
     7
 10
58.694915952439537
 20
45.319320307583737
 30
0.0
  0
VERTEX
  5
F75D
  8
0
 62
     7
 10
58.504402172105223
 20
46.102562766155309
 30
0.0
  0
VERTEX
  5
F75E
  8
0
 62
     7
 10
58.123374611436589
 20
46.843430550258283
 30
0.0
  0
VERTEX
  5
F75F
  8
0
 62
     7
 10
57.615395282136468
 20
47.58429833436125
 30
0.0
  0
VERTEX
  5
F760
  8
0
 62
     7
 10
56.938089509736393
 20
48.261604106761389
 30
0.0
  0
VERTEX
  5
F761
  8
0
 62
     7
 10
56.133659713930541
 20
48.896535204692917
 30
0.0
  0
VERTEX
  5
F762
  8
0
 62
     7
 10
55.202450404267523
 20
49.446889208461592
 30
0.0
  0
VERTEX
  5
F763
  8
0
 62
     7
 10
54.165304408433059
 20
49.954868537761669
 30
0.0
  0
VERTEX
  5
F764
  8
0
 62
     7
 10
53.022221726427141
 20
50.357083435664613
 30
0.0
  0
VERTEX
  5
F765
  8
0
 62
     7
 10
51.794561950258391
 20
50.695736321864651
 30
0.0
  0
VERTEX
  5
F766
  8
0
 62
     7
 10
50.52452749962103
 20
50.928624776667519
 30
0.0
  0
VERTEX
  5
F767
  8
0
 62
     7
 10
49.212290629289363
 20
51.076763882533257
 30
0.0
  0
VERTEX
  5
F768
  8
0
 62
     7
 10
47.857506829714843
 20
51.140153639461879
 30
0.0
  0
VERTEX
  5
F769
  8
0
 62
     7
 10
46.52408262214891
 20
51.076763882533257
 30
0.0
  0
VERTEX
  5
F76A
  8
0
 62
     7
 10
45.211673497042959
 20
50.928624776667519
 30
0.0
  0
VERTEX
  5
F76B
  8
0
 62
     7
 10
43.920623963945609
 20
50.695736321864651
 30
0.0
  0
VERTEX
  5
F76C
  8
0
 62
     7
 10
42.714151525011118
 20
50.357083435664613
 30
0.0
  0
VERTEX
  5
F76D
  8
0
 62
     7
 10
41.571068843005222
 20
49.954868537761669
 30
0.0
  0
VERTEX
  5
F76E
  8
0
 62
     7
 10
40.533922847170743
 20
49.446889208461592
 30
0.0
  0
VERTEX
  5
F76F
  8
0
 62
     7
 10
39.602541282733462
 20
48.896535204692917
 30
0.0
  0
VERTEX
  5
F770
  8
0
 62
     7
 10
38.79828374170188
 20
48.261604106761389
 30
0.0
  0
VERTEX
  5
F771
  8
0
 62
     7
 10
38.120977969301777
 20
47.58429833436125
 30
0.0
  0
VERTEX
  5
F772
  8
0
 62
     7
 10
37.591811302767411
 20
46.843430550258283
 30
0.0
  0
VERTEX
  5
F773
  8
0
 62
     7
 10
37.23197107933305
 20
46.102562766155309
 30
0.0
  0
VERTEX
  5
F774
  8
0
 62
     7
 10
37.041457298998751
 20
45.319320307583737
 30
0.0
  0
VERTEX
  5
F775
  8
0
 62
     7
 10
36.999082624530161
 20
44.536250103786458
 30
0.0
  0
SEQEND
  5
F776
  8
0
 62
     7
  0
POLYLINE
  5
F4C3
  8
0
 62
     7
 66
     1
 10
0.0
 20
0.0
 30
0.0
  0
VERTEX
  5
F777
  8
0
 62
     7
 10
45.825589512514512
 20
39.011694983639842
 30
0.0
  0
VERTEX
  5
F778
  8
0
 62
     7
 10
56.239596400101973
 20
45.023042095852269
 30
0.0
  0
SEQEND
  5
F779
  8
0
 62
     7
  0
POLYLINE
  5
F4C4
  8
0
 62
     7
 66
     1
 10
0.0
 20
0.0
 30
0.0
  0
VERTEX
  5
F77A
  8
0
 62
     7
 10
39.58135394549916
 20
42.631112300443299
 30
0.0
  0
VERTEX
  5
F77B
  8
0
 62
     7
 10
49.995360833086629
 20
48.642631667430003
 30
0.0
  0
SEQEND
  5
F77C
  8
0
 62
     7
  0
POLYLINE
  5
F4C5
  8
0
 62
     7
 66
     1
 10
0.0
 20
0.0
 30
0.0
  0
VERTEX
  5
F77D
  8
0
 62
     7
 10
39.58135394549916
 20
42.631112300443299
 30
0.0
  0
VERTEX
  5
F77E
  8
0
 62
     7
 10
39.856617074770639
 20
42.05957095944035
 30
0.0
  0
VERTEX
  5
F77F
  8
0
 62
     7
 10
40.279847055133601
 20
41.530404292905978
 30
0.0
  0
VERTEX
  5
F780
  8
0
 62
     7
 10
40.809013721667952
 20
41.001237626371612
 30
0.0
  0
VERTEX
  5
F781
  8
0
 62
     7
 10
41.444117074373757
 20
40.535805226314352
 30
0.0
  0
VERTEX
  5
F782
  8
0
 62
     7
 10
42.184984858476717
 20
40.112402991177163
 30
0.0
  0
VERTEX
  5
F783
  8
0
 62
     7
 10
42.989242399508313
 20
39.7313754305085
 30
0.0
  0
VERTEX
  5
F784
  8
0
 62
     7
 10
43.899436626711307
 20
39.435097218777031
 30
0.0
  0
VERTEX
  5
F785
  8
0
 62
     7
 10
44.830818191148587
 20
39.18119368151411
 30
0.0
  0
VERTEX
  5
F786
  8
0
 62
     7
 10
45.825589512514512
 20
39.011694983639842
 30
0.0
  0
SEQEND
  5
F787
  8
0
 62
     7
  0
POLYLINE
  5
F4C6
  8
0
 62
     7
 66
     1
 10
0.0
 20
0.0
 30
0.0
  0
VERTEX
  5
F788
  8
0
 62
     7
 10
56.239596400101973
 20
45.023042095852269
 30
0.0
  0
VERTEX
  5
F789
  8
0
 62
     7
 10
55.943318188370483
 20
45.594583436855217
 30
0.0
  0
VERTEX
  5
F78A
  8
0
 62
     7
 10
55.541103290467568
 20
46.144937440623877
 30
0.0
  0
VERTEX
  5
F78B
  8
0
 62
     7
 10
55.011936623933188
 20
46.652916769923962
 30
0.0
  0
VERTEX
  5
F78C
  8
0
 62
     7
 10
54.376833271227383
 20
47.11852142475545
 30
0.0
  0
VERTEX
  5
F78D
  8
0
 62
     7
 10
53.636137741898658
 20
47.541923659892667
 30
0.0
  0
VERTEX
  5
F78E
  8
0
 62
     7
 10
52.810520608858553
 20
47.922951220561309
 30
0.0
  0
VERTEX
  5
F78F
  8
0
 62
     7
 10
51.92151371888982
 20
48.219229432292778
 30
0.0
  0
VERTEX
  5
F790
  8
0
 62
     7
 10
50.969117071992507
 20
48.47330522432997
 30
0.0
  0
VERTEX
  5
F791
  8
0
 62
     7
 10
49.995360833086629
 20
48.642631667430003
 30
0.0
  0
SEQEND
  5
F792
  8
0
 62
     7
  0
POLYLINE
  5
F4C7
  8
0
 62
     7
 66
     1
 10
0.0
 20
0.0
 30
0.0
  0
VERTEX
  5
F793
  8
0
 62
     7
 10
45.169471077348668
 20
41.572778967374532
 30
0.0
  0
VERTEX
  5
F794
  8
0
 62
     7
 10
45.127096402880078
 20
41.720918073240298
 30
0.0
  0
VERTEX
  5
F795
  8
0
 62
     7
 10
45.063534391177242
 20
41.848042096646012
 30
0.0
  0
VERTEX
  5
F796
  8
0
 62
     7
 10
44.957769959780073
 20
41.975166120051732
 30
0.0
  0
VERTEX
  5
F797
  8
0
 62
     7
 10
44.809630853914321
 20
42.080930551448922
 30
0.0
  0
VERTEX
  5
F798
  8
0
 62
     7
 10
44.619117073580007
 20
42.16567990038606
 30
0.0
  0
VERTEX
  5
F799
  8
0
 62
     7
 10
44.407415956011391
 20
42.250084739774671
 30
0.0
  0
VERTEX
  5
F79A
  8
0
 62
     7
 10
44.174527501208509
 20
42.292459414243233
 30
0.0
  0
VERTEX
  5
F79B
  8
0
 62
     7
 10
43.941811301179911
 20
42.313819006251798
 30
0.0
  0
VERTEX
  5
F79C
  8
0
 62
     7
 10
43.687735509142719
 20
42.292459414243233
 30
0.0
  0
VERTEX
  5
F79D
  8
0
 62
     7
 10
43.454847054339837
 20
42.271444331783186
 30
0.0
  0
VERTEX
  5
F79E
  8
0
 62
     7
 10
43.222130854311182
 20
42.208054574854629
 30
0.0
  0
VERTEX
  5
F79F
  8
0
 62
     7
 10
43.031617073976889
 20
42.123305225917477
 30
0.0
  0
VERTEX
  5
F7A0
  8
0
 62
     7
 10
42.862290630876849
 20
42.017540794520301
 30
0.0
  0
VERTEX
  5
F7A1
  8
0
 62
     7
 10
42.735166607471122
 20
41.911431853574612
 30
0.0
  0
VERTEX
  5
F7A2
  8
0
 62
     7
 10
42.62940217607396
 20
41.78465233971739
 30
0.0
  0
VERTEX
  5
F7A3
  8
0
 62
     7
 10
42.58702750160537
 20
41.636513233851673
 30
0.0
  0
VERTEX
  5
F7A4
  8
0
 62
     7
 10
42.58702750160537
 20
41.509389210445953
 30
0.0
  0
VERTEX
  5
F7A5
  8
0
 62
     7
 10
42.62940217607396
 20
41.361250104580208
 30
0.0
  0
VERTEX
  5
F7A6
  8
0
 62
     7
 10
42.735166607471122
 20
41.234126081174502
 30
0.0
  0
VERTEX
  5
F7A7
  8
0
 62
     7
 10
42.862290630876849
 20
41.128361649777318
 30
0.0
  0
VERTEX
  5
F7A8
  8
0
 62
     7
 10
43.031617073976889
 20
41.022597218380163
 30
0.0
  0
VERTEX
  5
F7A9
  8
0
 62
     7
 10
43.222130854311182
 20
40.937847869442997
 30
0.0
  0
VERTEX
  5
F7AA
  8
0
 62
     7
 10
43.454847054339837
 20
40.874458112514411
 30
0.0
  0
VERTEX
  5
F7AB
  8
0
 62
     7
 10
43.687735509142719
 20
40.853098520505853
 30
0.0
  0
VERTEX
  5
F7AC
  8
0
 62
     7
 10
43.941811301179911
 20
40.832083438045849
 30
0.0
  0
VERTEX
  5
F7AD
  8
0
 62
     7
 10
44.174527501208509
 20
40.853098520505853
 30
0.0
  0
VERTEX
  5
F7AE
  8
0
 62
     7
 10
44.407415956011391
 20
40.895473194974443
 30
0.0
  0
VERTEX
  5
F7AF
  8
0
 62
     7
 10
44.619117073580007
 20
40.980222543911587
 30
0.0
  0
VERTEX
  5
F7B0
  8
0
 62
     7
 10
44.809630853914321
 20
41.06497189284871
 30
0.0
  0
VERTEX
  5
F7B1
  8
0
 62
     7
 10
44.957769959780073
 20
41.170736324245887
 30
0.0
  0
VERTEX
  5
F7B2
  8
0
 62
     7
 10
45.063534391177242
 20
41.297860347651593
 30
0.0
  0
VERTEX
  5
F7B3
  8
0
 62
     7
 10
45.127096402880078
 20
41.424639861508801
 30
0.0
  0
VERTEX
  5
F7B4
  8
0
 62
     7
 10
45.169471077348668
 20
41.572778967374532
 30
0.0
  0
SEQEND
  5
F7B5
  8
0
 62
     7
  0
POLYLINE
  5
F4C8
  8
0
 62
     7
 66
     1
 10
0.0
 20
0.0
 30
0.0
  0
VERTEX
  5
F7B6
  8
0
 62
     7
 10
44.513180387408582
 20
41.21311099871447
 30
0.0
  0
VERTEX
  5
F7B7
  8
0
 62
     7
 10
44.513180387408582
 20
41.276500755643063
 30
0.0
  0
VERTEX
  5
F7B8
  8
0
 62
     7
 10
44.47097796771429
 20
41.339890512571657
 30
0.0
  0
VERTEX
  5
F7B9
  8
0
 62
     7
 10
44.407415956011391
 20
41.403624779048769
 30
0.0
  0
VERTEX
  5
F7BA
  8
0
 62
     7
 10
44.343853944308563
 20
41.467014535977391
 30
0.0
  0
VERTEX
  5
F7BB
  8
0
 62
     7
 10
44.238089512911372
 20
41.509389210445953
 30
0.0
  0
VERTEX
  5
F7BC
  8
0
 62
     7
 10
44.132152826739919
 20
41.530404292905978
 30
0.0
  0
VERTEX
  5
F7BD
  8
0
 62
     7
 10
44.026388395342757
 20
41.572778967374532
 30
0.0
  0
VERTEX
  5
F7BE
  8
0
 62
     7
 10
43.772484858079856
 20
41.572778967374532
 30
0.0
  0
VERTEX
  5
F7BF
  8
0
 62
     7
 10
43.66654817190841
 20
41.551763884914521
 30
0.0
  0
VERTEX
  5
F7C0
  8
0
 62
     7
 10
43.560783740511248
 20
41.530404292905978
 30
0.0
  0
VERTEX
  5
F7C1
  8
0
 62
     7
 10
43.454847054339837
 20
41.488374127985907
 30
0.0
  0
VERTEX
  5
F7C2
  8
0
 62
     7
 10
43.370269960176948
 20
41.424639861508801
 30
0.0
  0
VERTEX
  5
F7C3
  8
0
 62
     7
 10
43.306707948474077
 20
41.382265187040232
 30
0.0
  0
VERTEX
  5
F7C4
  8
0
 62
     7
 10
43.264333274005502
 20
41.318875430111632
 30
0.0
  0
VERTEX
  5
F7C5
  8
0
 62
     7
 10
43.243318191545477
 20
41.234126081174502
 30
0.0
  0
VERTEX
  5
F7C6
  8
0
 62
     7
 10
43.243318191545477
 20
41.170736324245887
 30
0.0
  0
VERTEX
  5
F7C7
  8
0
 62
     7
 10
43.264333274005502
 20
41.107346567317308
 30
0.0
  0
VERTEX
  5
F7C8
  8
0
 62
     7
 10
43.306707948474077
 20
41.043612300840159
 30
0.0
  0
VERTEX
  5
F7C9
  8
0
 62
     7
 10
43.370269960176948
 20
40.980222543911587
 30
0.0
  0
VERTEX
  5
F7CA
  8
0
 62
     7
 10
43.454847054339837
 20
40.937847869442997
 30
0.0
  0
VERTEX
  5
F7CB
  8
0
 62
     7
 10
43.560783740511248
 20
40.895473194974443
 30
0.0
  0
VERTEX
  5
F7CC
  8
0
 62
     7
 10
43.66654817190841
 20
40.853098520505853
 30
0.0
  0
VERTEX
  5
F7CD
  8
0
 62
     7
 10
43.772484858079856
 20
40.832083438045849
 30
0.0
  0
VERTEX
  5
F7CE
  8
0
 62
     7
 10
43.899436626711307
 20
40.832083438045849
 30
0.0
  0
VERTEX
  5
F7CF
  8
0
 62
     7
 10
44.026388395342757
 20
40.853098520505853
 30
0.0
  0
VERTEX
  5
F7D0
  8
0
 62
     7
 10
44.132152826739919
 20
40.874458112514411
 30
0.0
  0
VERTEX
  5
F7D1
  8
0
 62
     7
 10
44.238089512911372
 20
40.916832786982972
 30
0.0
  0
VERTEX
  5
F7D2
  8
0
 62
     7
 10
44.343853944308563
 20
40.959207461451548
 30
0.0
  0
VERTEX
  5
F7D3
  8
0
 62
     7
 10
44.407415956011391
 20
41.001237626371612
 30
0.0
  0
VERTEX
  5
F7D4
  8
0
 62
     7
 10
44.47097796771429
 20
41.06497189284871
 30
0.0
  0
VERTEX
  5
F7D5
  8
0
 62
     7
 10
44.513180387408582
 20
41.128361649777318
 30
0.0
  0
VERTEX
  5
F7D6
  8
0
 62
     7
 10
44.513180387408582
 20
41.21311099871447
 30
0.0
  0
SEQEND
  5
F7D7
  8
0
 62
     7
  0
POLYLINE
  5
F4C9
  8
0
 62
     7
 66
     1
 10
0.0
 20
0.0
 30
0.0
  0
VERTEX
  5
F7D8
  8
0
 62
     7
 10
50.841993048586801
 20
47.58429833436125
 30
0.0
  0
VERTEX
  5
F7D9
  8
0
 62
     7
 10
50.820977966126783
 20
47.647688091289872
 30
0.0
  0
VERTEX
  5
F7DA
  8
0
 62
     7
 10
50.778603291658193
 20
47.732437440227017
 30
0.0
  0
VERTEX
  5
F7DB
  8
0
 62
     7
 10
50.736228617189632
 20
47.795827197155603
 30
0.0
  0
VERTEX
  5
F7DC
  8
0
 62
     7
 10
50.651651523026743
 20
47.83820187162415
 30
0.0
  0
VERTEX
  5
F7DD
  8
0
 62
     7
 10
50.566902174089591
 20
47.88057654609274
 30
0.0
  0
VERTEX
  5
F7DE
  8
0
 62
     7
 10
50.461137742692408
 20
47.922951220561309
 30
0.0
  0
VERTEX
  5
F7DF
  8
0
 62
     7
 10
50.334013719286702
 20
47.944138557795597
 30
0.0
  0
VERTEX
  5
F7E0
  8
0
 62
     7
 10
50.228249287889533
 20
47.965153640255622
 30
0.0
  0
VERTEX
  5
F7E1
  8
0
 62
     7
 10
50.101297519258083
 20
47.944138557795597
 30
0.0
  0
VERTEX
  5
F7E2
  8
0
 62
     7
 10
49.974173495852369
 20
47.944138557795597
 30
0.0
  0
VERTEX
  5
F7E3
  8
0
 62
     7
 10
49.868409064455193
 20
47.901763883327021
 30
0.0
  0
VERTEX
  5
F7E4
  8
0
 62
     7
 10
49.762644633058017
 20
47.859389208858452
 30
0.0
  0
VERTEX
  5
F7E5
  8
0
 62
     7
 10
49.677895284120872
 20
47.817014534389898
 30
0.0
  0
VERTEX
  5
F7E6
  8
0
 62
     7
 10
49.614333272418008
 20
47.753624777461283
 30
0.0
  0
VERTEX
  5
F7E7
  8
0
 62
     7
 10
49.572130852723703
 20
47.69006276575842
 30
0.0
  0
VERTEX
  5
F7E8
  8
0
 62
     7
 10
49.550943515489422
 20
47.62650075405557
 30
0.0
  0
VERTEX
  5
F7E9
  8
0
 62
     7
 10
49.550943515489422
 20
47.563110997126977
 30
0.0
  0
VERTEX
  5
F7EA
  8
0
 62
     7
 10
49.572130852723703
 20
47.478361648189818
 30
0.0
  0
VERTEX
  5
F7EB
  8
0
 62
     7
 10
49.614333272418008
 20
47.414971891261239
 30
0.0
  0
VERTEX
  5
F7EC
  8
0
 62
     7
 10
49.677895284120872
 20
47.351409879558346
 30
0.0
  0
VERTEX
  5
F7ED
  8
0
 62
     7
 10
49.762644633058017
 20
47.309035205089792
 30
0.0
  0
VERTEX
  5
F7EE
  8
0
 62
     7
 10
49.868409064455193
 20
47.266660530621238
 30
0.0
  0
VERTEX
  5
F7EF
  8
0
 62
     7
 10
49.974173495852369
 20
47.245473193386921
 30
0.0
  0
VERTEX
  5
F7F0
  8
0
 62
     7
 10
50.101297519258083
 20
47.224458110926918
 30
0.0
  0
VERTEX
  5
F7F1
  8
0
 62
     7
 10
50.334013719286702
 20
47.224458110926918
 30
0.0
  0
VERTEX
  5
F7F2
  8
0
 62
     7
 10
50.461137742692408
 20
47.245473193386921
 30
0.0
  0
VERTEX
  5
F7F3
  8
0
 62
     7
 10
50.566902174089591
 20
47.287847867855483
 30
0.0
  0
VERTEX
  5
F7F4
  8
0
 62
     7
 10
50.651651523026743
 20
47.33022254232408
 30
0.0
  0
VERTEX
  5
F7F5
  8
0
 62
     7
 10
50.736228617189632
 20
47.393784554026951
 30
0.0
  0
VERTEX
  5
F7F6
  8
0
 62
     7
 10
50.778603291658193
 20
47.457174310955523
 30
0.0
  0
VERTEX
  5
F7F7
  8
0
 62
     7
 10
50.820977966126783
 20
47.520736322658387
 30
0.0
  0
VERTEX
  5
F7F8
  8
0
 62
     7
 10
50.841993048586801
 20
47.58429833436125
 30
0.0
  0
SEQEND
  5
F7F9
  8
0
 62
     7
  0
POLYLINE
  5
F4CA
  8
0
 62
     7
 66
     1
 10
0.0
 20
0.0
 30
0.0
  0
VERTEX
  5
F7FA
  8
0
 62
     7
 10
49.974173495852369
 20
53.61666052903373
 30
0.0
  0
VERTEX
  5
F7FB
  8
0
 62
     7
 10
48.704311299989271
 20
53.70140987797086
 30
0.0
  0
VERTEX
  5
F7FC
  8
0
 62
     7
 10
47.413089512117629
 20
53.722597215205148
 30
0.0
  0
VERTEX
  5
F7FD
  8
0
 62
     7
 10
46.121867724245988
 20
53.637847866267997
 30
0.0
  0
VERTEX
  5
F7FE
  8
0
 62
     7
 10
44.851833273608626
 20
53.468521423167957
 30
0.0
  0
SEQEND
  5
F7FF
  8
0
 62
     7
  0
POLYLINE
  5
F4CB
  8
0
 62
     7
 66
     1
 10
0.0
 20
0.0
 30
0.0
  0
VERTEX
  5
F800
  8
0
 62
     7
 10
39.094561953433363
 20
50.39945811013316
 30
0.0
  0
VERTEX
  5
F801
  8
0
 62
     7
 10
38.8404861613962
 20
50.018430549464533
 30
0.0
  0
VERTEX
  5
F802
  8
0
 62
     7
 10
38.628957298601861
 20
49.61621565156161
 30
0.0
  0
SEQEND
  5
F803
  8
0
 62
     7
  0
POLYLINE
  5
F4CC
  8
0
 62
     7
 66
     1
 10
0.0
 20
0.0
 30
0.0
  0
VERTEX
  5
F804
  8
0
 62
     7
 10
55.625680384630471
 20
53.447334085933697
 30
0.0
  0
VERTEX
  5
F805
  8
0
 62
     7
 10
49.974173495852369
 20
56.707083434077099
 30
0.0
  0
SEQEND
  5
F806
  8
0
 62
     7
  0
POLYLINE
  5
F4CD
  8
0
 62
     7
 66
     1
 10
0.0
 20
0.0
 30
0.0
  0
VERTEX
  5
F807
  8
0
 62
     7
 10
44.640304410814288
 20
61.194320303615001
 30
0.0
  0
VERTEX
  5
F808
  8
0
 62
     7
 10
44.851833273608626
 20
53.468521423167957
 30
0.0
  0
SEQEND
  5
F809
  8
0
 62
     7
  0
POLYLINE
  5
F4CE
  8
0
 62
     7
 66
     1
 10
0.0
 20
0.0
 30
0.0
  0
VERTEX
  5
F80A
  8
0
 62
     7
 10
44.005201058108497
 20
58.696798331583132
 30
0.0
  0
VERTEX
  5
F80B
  8
0
 62
     7
 10
42.925680387805443
 20
58.31577077091449
 30
0.0
  0
VERTEX
  5
F80C
  8
0
 62
     7
 10
41.909721729205273
 20
57.87118119854302
 30
0.0
  0
VERTEX
  5
F80D
  8
0
 62
     7
 10
40.999527502002252
 20
57.363201869242921
 30
0.0
  0
VERTEX
  5
F80E
  8
0
 62
     7
 10
40.19526996097067
 20
56.79166052823998
 30
0.0
  0
VERTEX
  5
F80F
  8
0
 62
     7
 10
39.496776851336293
 20
56.177916767542698
 30
0.0
  0
SEQEND
  5
F810
  8
0
 62
     7
  0
POLYLINE
  5
F4CF
  8
0
 62
     7
 66
     1
 10
0.0
 20
0.0
 30
0.0
  0
VERTEX
  5
F811
  8
0
 62
     7
 10
39.412027502399162
 20
58.31577077091449
 30
0.0
  0
VERTEX
  5
F812
  8
0
 62
     7
 10
39.496776851336293
 20
58.358145445383087
 30
0.0
  0
VERTEX
  5
F813
  8
0
 62
     7
 10
39.496776851336293
 20
56.177916767542698
 30
0.0
  0
SEQEND
  5
F814
  8
0
 62
     7
  0
POLYLINE
  5
F4D0
  8
0
 62
     7
 66
     1
 10
0.0
 20
0.0
 30
0.0
  0
VERTEX
  5
F815
  8
0
 62
     7
 10
44.640304410814288
 20
61.194320303615001
 30
0.0
  0
VERTEX
  5
F816
  8
0
 62
     7
 10
46.143055061480283
 20
60.34768808811485
 30
0.0
  0
SEQEND
  5
F817
  8
0
 62
     7
  0
POLYLINE
  5
F4D1
  8
0
 62
     7
 66
     1
 10
0.0
 20
0.0
 30
0.0
  0
VERTEX
  5
F818
  8
0
 62
     7
 10
39.412027502399162
 20
56.09316741860556
 30
0.0
  0
VERTEX
  5
F819
  8
0
 62
     7
 10
39.094561953433363
 20
55.733327195171228
 30
0.0
  0
SEQEND
  5
F81A
  8
0
 62
     7
  0
POLYLINE
  5
F4D2
  8
0
 62
     7
 66
     1
 10
0.0
 20
0.0
 30
0.0
  0
VERTEX
  5
F81B
  8
0
 62
     7
 10
57.149790627304981
 20
50.568784553233193
 30
0.0
  0
VERTEX
  5
F81C
  8
0
 62
     7
 10
57.149790627304981
 20
48.257067632168493
 30
0.0
  0
SEQEND
  5
F81D
  8
0
 62
     7
  0
ENDSEC
  0
EOF
