  0
SECTION
  2
HEADER
  9
$ACADVER
  1
AC1009
  9
$DWGCODEPAGE
  3
dos932
  9
$INSBASE
 10
0
 20
0
 30
0
  9
$EXTMIN
 10
3.3217380176557048
 20
6.3517050957777332
 30
0
  9
$EXTMAX
 10
151.74608190183497
 20
96.429467007375507
 30
0
  9
$LIMMIN
 10
0
 20
0
  9
$LIMMAX
 10
297
 20
210
  9
$SNAPMODE
 70
0
  9
$SNAPUNIT
 10
1
 20
1
  9
$SNAPBASE
 10
0
 20
0
  9
$SNAPANG
 50
0
  9
$SNAPSTYLE
 70
0
  9
$SNAPISOPAIR
 70
0
  9
$ORTHOMODE
 70
0
  9
$REGENMODE
 70
1
  9
$FILLMODE
 70
1
  9
$QTEXTMODE
 70
0
  9
$MIRRTEXT
 70
1
  9
$LTSCALE
 40
1
  9
$OSMODE
 70
37
  9
$ATTMODE
 70
1
  9
$TEXTSIZE
 40
0.2
  9
$TRACEWID
 40
0.05
  9
$TEXTSTYLE
  7
STANDARD
  9
$CLAYER
  8
0
  9
$CELTYPE
  6
CONTINUOUS
  9
$CECOLOR
 62
256
  9
$DIMSCALE
 40
1
  9
$DIMASZ
 40
0.18
  9
$DIMEXO
 40
0.0625
  9
$DIMDLI
 40
0.38
  9
$DIMRND
 40
0
  9
$DIMDLE
 40
0
  9
$DIMEXE
 40
0.18
  9
$DIMTP
 40
0
  9
$DIMTM
 40
0
  9
$DIMTXT
 40
0.18
  9
$DIMCEN
 40
0.09
  9
$DIMTSZ
 40
0
  9
$DIMTOL
 70
0
  9
$DIMLIM
 70
0
  9
$DIMTIH
 70
1
  9
$DIMTOH
 70
1
  9
$DIMSE1
 70
0
  9
$DIMSE2
 70
0
  9
$DIMTAD
 70
0
  9
$DIMZIN
 70
0
  9
$DIMBLK
  1

  9
$DIMASO
 70
1
  9
$DIMSHO
 70
1
  9
$DIMPOST
  1

  9
$DIMAPOST
  1

  9
$DIMALT
 70
0
  9
$DIMALTD
 70
2
  9
$DIMALTF
 40
25.4
  9
$DIMLFAC
 40
1
  9
$DIMTOFL
 70
0
  9
$DIMTVP
 40
0
  9
$DIMTIX
 70
0
  9
$DIMSOXD
 70
0
  9
$DIMSAH
 70
0
  9
$DIMBLK1
  1

  9
$DIMBLK2
  1

  9
$DIMSTYLE
  2
STANDARD
  9
$DIMCLRD
 70
0
  9
$DIMCLRE
 70
0
  9
$DIMCLRT
 70
0
  9
$DIMTFAC
 40
1
  9
$DIMGAP
 40
0.09
  9
$LUNITS
 70
2
  9
$LUPREC
 70
4
  9
$SKETCHINC
 40
0.1
  9
$FILLETRAD
 40
0
  9
$AUNITS
 70
0
  9
$AUPREC
 70
0
  9
$MENU
  1
.
  9
$ELEVATION
 40
0
  9
$PELEVATION
 40
0
  9
$THICKNESS
 40
0
  9
$LIMCHECK
 70
0
  9
$CHAMFERA
 40
0
  9
$CHAMFERB
 40
0
  9
$SKPOLY
 70
0
  9
$TDCREATE
 40
2452073.721865
  9
$TDUPDATE
 40
2456556.6198606365
  9
$TDINDWG
 40
0.012671574074074075
  9
$TDUSRTIMER
 40
0.012671481481481482
  9
$USRTIMER
 70
1
  9
$ANGBASE
 50
0
  9
$ANGDIR
 70
0
  9
$PDMODE
 70
0
  9
$PDSIZE
 40
0
  9
$PLINEWID
 40
0
  9
$SPLFRAME
 70
0
  9
$SPLINETYPE
 70
6
  9
$SPLINESEGS
 70
8
  9
$HANDLING
 70
1
  9
$HANDSEED
  5
E2FD
  9
$SURFTAB1
 70
6
  9
$SURFTAB2
 70
6
  9
$SURFTYPE
 70
6
  9
$SURFU
 70
6
  9
$SURFV
 70
6
  9
$UCSORG
 10
0
 20
0
 30
0
  9
$UCSXDIR
 10
1
 20
0
 30
0
  9
$UCSYDIR
 10
0
 20
1
 30
0
  9
$PUCSORG
 10
0
 20
0
 30
0
  9
$PUCSXDIR
 10
1
 20
0
 30
0
  9
$PUCSYDIR
 10
0
 20
1
 30
0
  9
$USERI1
 70
0
  9
$USERI2
 70
0
  9
$USERI3
 70
0
  9
$USERI4
 70
0
  9
$USERI5
 70
0
  9
$USERR1
 40
0
  9
$USERR2
 40
0
  9
$USERR3
 40
0
  9
$USERR4
 40
0
  9
$USERR5
 40
0
  9
$WORLDVIEW
 70
1
  9
$SHADEDGE
 70
3
  9
$SHADEDIF
 70
70
  9
$TILEMODE
 70
1
  9
$MAXACTVP
 70
48
  9
$PINSBASE
 10
0
 20
0
 30
0
  9
$PLIMCHECK
 70
0
  9
$PEXTMIN
 10
1E+20
 20
1E+20
 30
1E+20
  9
$PEXTMAX
 10
-1E+20
 20
-1E+20
 30
-1E+20
  9
$PLIMMAX
 10
12
 20
9
  9
$PLIMMIN
 10
0
 20
0
  9
$UNITMODE
 70
0
  9
$VISRETAIN
 70
1
  9
$PLINEGEN
 70
0
  9
$PSLTSCALE
 70
1
  9
$TREEDEPTH
 70
3020
  9
$DRAGMODE
 70
     2
  9
$BLIPMODE
 70
     0
  9
$COORDS
 70
     1
  9
$ATTDIA
 70
     0
  9
$ATTREQ
 70
     1
  0
ENDSEC
  0
SECTION
  2
TABLES
  0
TABLE
  2
VPORT
  5
E2EF
 70
1
  0
VPORT
  5
E2C3
  2
*ACTIVE
 70
0
 10
0
 20
0
 11
1
 21
1
 12
115.7800049911165
 22
64.5376103208838
 13
0
 23
0
 14
1
 24
1
 15
0
 25
0
 16
0
 26
0
 36
1
 17
0
 27
0
 37
0
 40
175.52009873769609
 41
1.5960784313725489
 42
50
 43
0
 44
0
 50
0
 51
0
 71
0
 72
100
 73
1
 74
1
 75
0
 76
0
 77
0
 78
0
  0
ENDTAB
  0
TABLE
  2
LTYPE
  5
E2F0
 70
7
  0
LTYPE
  5
E2BA
  2
CONTINUOUS
  3
実線
 70
0
 72
65
 73
0
 40
0
  0
LTYPE
  5
E2BB
  2
DASHED
  3
破線
 70
0
 72
65
 73
2
 40
3.8
 49
3
 49
-0.8
  0
LTYPE
  5
E2BC
  2
DOT
  3
点線
 70
0
 72
65
 73
2
 40
2
 49
1
 49
-1
  0
LTYPE
  5
E2BD
  2
DASHDOT
  3
一点鎖線
 70
0
 72
65
 73
4
 40
25.6
 49
20
 49
-2
 49
1.6
 49
-2
  0
LTYPE
  5
E2BE
  2
DIVIDE
  3
二点鎖線
 70
0
 72
65
 73
6
 40
31.199999999999996
 49
20
 49
-2.399999999999999
 49
2
 49
-2.399999999999999
 49
2
 49
-2.399999999999999
  0
LTYPE
  5
E2BF
  2
ByBlock
  3

 70
64
 72
65
 73
0
 40
0
  0
LTYPE
  5
E2C0
  2
ByLayer
  3

 70
64
 72
65
 73
0
 40
0
  0
ENDTAB
  0
TABLE
  2
LAYER
  5
E2F1
 70
2
  0
LAYER
  5
E28E
 70
0
  2
0
 62
7
  6
CONTINUOUS
  0
LAYER
  5
E28F
 70
0
  2
SPEC
 62
7
  6
CONTINUOUS
  0
ENDTAB
  0
TABLE
  2
STYLE
  5
E2F2
 70
6
  0
STYLE
  5
E2B4
  2
STANDARD
 70
0
 40
0
 41
1
 50
0
 71
0
 42
0.2
  3
txt.shx
  4
extfont2.shx
  0
STYLE
  5
E2B5
  2
ANNOTATIVE
 70
0
 40
0
 41
1
 50
0
 71
0
 42
0.2
  3
txt
  0
STYLE
  5
E2B6
  2
EXCADSTD
 70
0
 40
0
 41
1
 50
0
 71
0
 42
0.2
  3
monotxt
  4
extfont
  0
STYLE
  5
E2B7
  2
EXCADVERT
 70
4
 40
0
 41
1
 50
0
 71
0
 42
0.286885
  3
monotxt
  4
extfont
  0
STYLE
  5
E2B8
  2
EXCADSTD2
 70
0
 40
0
 41
1
 50
0
 71
0
 42
0.2
  3
monotxt
  0
STYLE
  5
E2B9
  2
EXCADVERT2
 70
4
 40
0
 41
1
 50
0
 71
0
 42
0.286885
  3
monotxt
  0
ENDTAB
  0
TABLE
  2
APPID
  5
E2F5
 70
4
  0
APPID
  5
E2F6
  2
ACAD
 70
0
  0
APPID
  5
E2F9
  2
ACADANNOTATIVE
 70
0
  0
APPID
  5
E2FA
  2
ACAD_MLEADERVER
 70
0
  0
APPID
  5
E2FB
  2
ACAD_EXEMPT_FROM_CAD_STANDARDS
 70
0
  0
ENDTAB
  0
TABLE
  2
DIMSTYLE
  5
E2F7
 70
2
  0
DIMSTYLE
105
E2C1
  2
STANDARD
 70
0
  3

  4

  5

  6

  7

 40
1
 41
0.18
 42
0.0625
 43
0.38
 44
0.18
 45
0
 46
0
 47
0
 48
0
140
0.18
141
0.09
142
0
143
25.4
144
1
145
0
146
1
147
0.09
 71
0
 72
0
 73
1
 74
1
 75
0
 76
0
 77
0
 78
0
170
0
171
2
172
0
173
0
174
0
175
0
176
0
177
0
178
0
  0
DIMSTYLE
105
E2C2
  2
ANNOTATIVE
 70
0
  3

  4

  5

  6

  7

 40
1
 41
0.18
 42
0.0625
 43
0.38
 44
0.18
 45
0
 46
0
 47
0
 48
0
140
0.18
141
0.09
142
0
143
25.4
144
1
145
0
146
1
147
0.09
 71
0
 72
0
 73
1
 74
1
 75
0
 76
0
 77
0
 78
0
170
0
171
2
172
0
173
0
174
0
175
0
176
0
177
0
178
0
  0
ENDTAB
  0
ENDSEC
  0
SECTION
  2
BLOCKS
  0
BLOCK
  5
E291
  8
0
  2
$MODEL_SPACE
 70
0
 10
0
 20
0
 30
0
  3
$MODEL_SPACE
  0
ENDBLK
  5
BDAB
  8
0
  0
BLOCK
  5
E293
  8
0
 67
1
  2
$PAPER_SPACE
 70
0
 10
0
 20
0
 30
0
  3
$PAPER_SPACE
  0
ENDBLK
  5
BDA7
  8
0
  0
BLOCK
  5
E295
  8
0
  2
_EX_NORM
 70
0
 10
0
 20
0
 30
0
  3
_EX_NORM
  0
LINE
  5
31
  8
0
  6
ByBlock
 62
0
 10
0
 20
0
 30
0
 11
-1
 21
0
 31
0
  0
LINE
  5
32
  8
0
  6
ByBlock
 62
0
 10
0
 20
0
 30
0
 11
-0.96076899999999987
 21
0.27735
 31
0
  0
LINE
  5
33
  8
0
  6
ByBlock
 62
0
 10
0
 20
0
 30
0
 11
-0.96076899999999987
 21
-0.27735
 31
0
  0
ENDBLK
  5
34
  8
0
  0
BLOCK
  5
E297
  8
0
  2
_EX_BNORM
 70
0
 10
0
 20
0
 30
0
  3
_EX_BNORM
  0
LINE
  5
37
  8
0
  6
ByBlock
 62
0
 10
0
 20
0
 30
0
 11
-1
 21
0
 31
0
  0
LINE
  5
38
  8
0
  6
ByBlock
 62
0
 10
0
 20
0
 30
0
 11
-0.96076899999999987
 21
0.27735
 31
0
  0
LINE
  5
39
  8
0
  6
ByBlock
 62
0
 10
0
 20
0
 30
0
 11
-0.96076899999999987
 21
-0.27735
 31
0
  0
LINE
  5
3A
  8
0
  6
ByBlock
 62
0
 10
0
 20
0
 30
0
 11
-0.96076899999999987
 21
0.138768
 31
0
  0
LINE
  5
3B
  8
0
  6
ByBlock
 62
0
 10
0
 20
0
 30
0
 11
-0.96076899999999987
 21
-0.138768
 31
0
  0
LINE
  5
3C
  8
0
  6
ByBlock
 62
0
 10
-0.96076899999999987
 20
0.27735
 30
0
 11
-0.96076899999999987
 21
-0.27735
 31
0
  0
ENDBLK
  5
3D
  8
0
  0
BLOCK
  5
E299
  8
0
  2
_EX_BCIR
 70
0
 10
0
 20
0
 30
0
  3
_EX_BCIR
  0
LINE
  5
40
  8
0
  6
ByBlock
 62
0
 10
0
 20
0
 30
0
 11
-1
 21
0
 31
0
  0
CIRCLE
  5
41
  8
0
  6
ByBlock
 62
0
 10
0
 20
0
 30
0
 40
0.5
  0
CIRCLE
  5
42
  8
0
  6
ByBlock
 62
0
 10
0
 20
0
 30
0
 40
0.25
  0
ENDBLK
  5
43
  8
0
  0
BLOCK
  5
E29B
  8
0
  2
_EX_RCIVIL
 70
0
 10
0
 20
0
 30
0
  3
_EX_RCIVIL
  0
LINE
  5
46
  8
0
  6
ByBlock
 62
0
 10
0
 20
0
 30
0
 11
-1
 21
0
 31
0
  0
LINE
  5
47
  8
0
  6
ByBlock
 62
0
 10
-1
 20
-0.25
 30
0
 11
0
 21
-0.25
 31
0
  0
LINE
  5
48
  8
0
  6
ByBlock
 62
0
 10
-1
 20
-0.125
 30
0
 11
0
 21
-0.125
 31
0
  0
ENDBLK
  5
49
  8
0
  0
BLOCK
  5
E29D
  8
0
  2
_EX_SLANT
 70
0
 10
0
 20
0
 30
0
  3
_EX_SLANT
  0
LINE
  5
4C
  8
0
  6
ByBlock
 62
0
 10
0
 20
0
 30
0
 11
-1
 21
0
 31
0
  0
LINE
  5
4D
  8
0
  6
ByBlock
 62
0
 10
0.70710699999999993
 20
0.70710699999999993
 30
0
 11
-0.70710699999999993
 21
-0.70710699999999993
 31
0
  0
ENDBLK
  5
4E
  8
0
  0
BLOCK
  5
E29F
  8
0
  2
_EX_NONE
 70
0
 10
0
 20
0
 30
0
  3
_EX_NONE
  0
LINE
  5
51
  8
0
  6
ByBlock
 62
0
 10
0
 20
0
 30
0
 11
-1
 21
0
 31
0
  0
ENDBLK
  5
52
  8
0
  0
BLOCK
  5
E2A1
  8
0
  2
_EX_WCIR
 70
0
 10
0
 20
0
 30
0
  3
_EX_WCIR
  0
LINE
  5
55
  8
0
  6
ByBlock
 62
0
 10
0
 20
0
 30
0
 11
-1
 21
0
 31
0
  0
ENDBLK
  5
56
  8
0
  0
BLOCK
  5
E2A3
  8
0
  2
_EX_CIVIL
 70
0
 10
0
 20
0
 30
0
  3
_EX_CIVIL
  0
LINE
  5
59
  8
0
  6
ByBlock
 62
0
 10
0
 20
0
 30
0
 11
-1
 21
0
 31
0
  0
LINE
  5
5A
  8
0
  6
ByBlock
 62
0
 10
-1
 20
0.25
 30
0
 11
0
 21
0.25
 31
0
  0
LINE
  5
5B
  8
0
  6
ByBlock
 62
0
 10
-1
 20
0.125
 30
0
 11
0
 21
0.125
 31
0
  0
ENDBLK
  5
5C
  8
0
  0
BLOCK
  5
E2A5
  8
0
  2
SPECMS683S
 70
64
 10
0
 20
0
 30
0
  3
SPECMS683S
  0
TEXT
  5
E2A6
  8
SPEC
 10
0
 20
0
 30
0
 40
1.5
  1
MILCO.S制御機器 高機能ﾀｲﾌﾟ
  7
STANDARD
  0
TEXT
  5
E2A7
  8
SPEC
 10
0
 20
-3
 30
0
 40
1.5
  1
制御
  7
STANDARD
  0
TEXT
  5
E2A8
  8
SPEC
 10
0
 20
-6
 30
0
 40
1.5
  1
本体:ﾌﾟﾗｽﾁｯｸ ﾎﾜｲﾄ色仕上
  7
STANDARD
  0
TEXT
  5
E2A9
  8
SPEC
 10
0
 20
-9
 30
0
 40
1.5
  1
消費電力:5W
  7
STANDARD
  0
TEXT
  5
E2AA
  8
SPEC
 10
0
 20
-12
 30
0
 40
1.5
  1
埋込穴:75
  7
STANDARD
  0
ENDBLK
  5
E2AB
  8
0
  0
BLOCK
  5
E2AD
  8
0
  2
*MODEL_SPACE
 70
64
 10
0
 20
0
 30
0
  3
*MODEL_SPACE
  0
ENDBLK
  5
E2B0
  8
0
  0
BLOCK
  5
E2B2
  8
0
 67
1
  2
*PAPER_SPACE
 70
64
 10
0
 20
0
 30
0
  3
*PAPER_SPACE
  0
ENDBLK
  5
E2B3
  8
0
  0
ENDSEC
  0
SECTION
  2
ENTITIES
  0
LINE
  5
5D
  8
0
  6
CONTINUOUS
 62
7
 10
55.74063785601389
 20
46.444883726876917
 30
0
 11
68.6296282813066
 21
53.88634629518279
 31
0
  0
LINE
  5
5E
  8
0
  6
CONTINUOUS
 62
7
 10
43.81364203165645
 20
39.558830154330821
 30
0
 11
34.679888072547932
 21
34.285454666773809
 31
0
  0
TEXT
  5
AA
  8
0
  6
CONTINUOUS
 62
7
 10
3
 20
91
 30
0
 40
4.5
  1
埋込形コントローラ
 41
0.79405392392874341
 72
5
 11
43.5
 21
91
 31
0
  7
EXCADSTD
  0
TEXT
  5
C8
  8
0
  6
CONTINUOUS
 62
7
 10
3
 20
7
 30
0
 40
4.5
  1
三菱　ＭＳ６８３Ｓ
 41
0.85960410911278451
 72
5
 11
45.400002
 21
7
 31
0
  7
EXCADSTD
  0
POLYLINE
  5
CFB3
  8
0
 62
7
 66
1
 70
0
 10
0
 20
0
 30
0
  0
VERTEX
  5
CFB4
  8
0
 62
7
 10
39.104960776839469
 20
43.821271260084927
 70
0
  0
VERTEX
  5
CFB5
  8
0
 62
7
 10
39.147679960856571
 20
43.821271260084927
 70
0
  0
SEQEND
  5
CFB6
  8
0
  0
POLYLINE
  5
CFB7
  8
0
 62
7
 66
1
 70
0
 10
0
 20
0
 30
0
  0
VERTEX
  5
CFB8
  8
0
 62
7
 10
49.137078829886988
 20
66.382512573889045
 70
0
  0
VERTEX
  5
CFB9
  8
0
 62
7
 10
43.168795411240168
 20
62.82717403311122
 70
0
  0
SEQEND
  5
CFBA
  8
0
  0
POLYLINE
  5
CFBB
  8
0
 62
7
 66
1
 70
0
 10
0
 20
0
 30
0
  0
VERTEX
  5
CFBC
  8
0
 62
7
 10
49.686916069332867
 20
67.3564410675692
 70
0
  0
VERTEX
  5
CFBD
  8
0
 62
7
 10
49.729635253349969
 20
67.3564410675692
 70
0
  0
SEQEND
  5
CFBE
  8
0
  0
POLYLINE
  5
CFBF
  8
0
 62
7
 66
1
 70
0
 10
0
 20
0
 30
0
  0
VERTEX
  5
CFC0
  8
0
 62
7
 10
49.686916069332867
 20
67.483392836200636
 70
0
  0
VERTEX
  5
CFC1
  8
0
 62
7
 10
49.729635253349969
 20
67.524733982023662
 70
0
  0
SEQEND
  5
CFC2
  8
0
  0
POLYLINE
  5
CFC3
  8
0
 62
7
 66
1
 70
0
 10
0
 20
0
 30
0
  0
VERTEX
  5
CFC4
  8
0
 62
7
 10
42.788456869668593
 20
63.5465099704314
 70
0
  0
VERTEX
  5
CFC5
  8
0
 62
7
 10
49.518795409652682
 20
67.567453166040735
 70
0
  0
SEQEND
  5
CFC6
  8
0
  0
POLYLINE
  5
CFC7
  8
0
 62
7
 66
1
 70
0
 10
0
 20
0
 30
0
  0
VERTEX
  5
CFC8
  8
0
 62
7
 10
49.602855739492782
 20
67.694060425123638
 70
0
  0
VERTEX
  5
CFC9
  8
0
 62
7
 10
42.872517199508692
 20
63.715836413531441
 70
0
  0
SEQEND
  5
CFCA
  8
0
  0
POLYLINE
  5
CFCB
  8
0
 62
7
 66
1
 70
0
 10
0
 20
0
 30
0
  0
VERTEX
  5
CFCC
  8
0
 62
7
 10
42.026401748331338
 20
41.78849266901323
 70
0
  0
VERTEX
  5
CFCD
  8
0
 62
7
 10
48.078745496818271
 20
39.24894053206134
 70
0
  0
SEQEND
  5
CFCE
  8
0
  0
POLYLINE
  5
CFCF
  8
0
 62
7
 66
1
 70
0
 10
0
 20
0
 30
0
  0
VERTEX
  5
CFD0
  8
0
 62
7
 10
42.026401748331338
 20
41.745773484996157
 70
0
  0
VERTEX
  5
CFD1
  8
0
 62
7
 10
47.994685166978172
 20
39.206221348044238
 70
0
  0
SEQEND
  5
CFD2
  8
0
  0
POLYLINE
  5
CFD3
  8
0
 62
7
 66
1
 70
0
 10
0
 20
0
 30
0
  0
VERTEX
  5
CFD4
  8
0
 62
7
 10
39.0622415928224
 20
43.821271260084927
 70
0
  0
VERTEX
  5
CFD5
  8
0
 62
7
 10
39.0209004469994
 20
43.862440151133647
 70
0
  0
VERTEX
  5
CFD6
  8
0
 62
7
 10
36.6079555691304
 20
44.879604593153658
 70
0
  0
SEQEND
  5
CFD7
  8
0
  0
POLYLINE
  5
CFD8
  8
0
 62
7
 66
1
 70
0
 10
0
 20
0
 30
0
  0
VERTEX
  5
CFD9
  8
0
 62
7
 10
47.402128743515178
 20
63.799724488597263
 70
0
  0
VERTEX
  5
CFDA
  8
0
 62
7
 10
47.698406955246661
 20
63.969395441245773
 70
0
  0
SEQEND
  5
CFDB
  8
0
  0
POLYLINE
  5
CFDC
  8
0
 62
7
 66
1
 70
0
 10
0
 20
0
 30
0
  0
VERTEX
  5
CFDD
  8
0
 62
7
 10
46.936351833909413
 20
63.503790786414271
 70
0
  0
VERTEX
  5
CFDE
  8
0
 62
7
 10
47.275349229657976
 20
63.715836413531441
 70
0
  0
SEQEND
  5
CFDF
  8
0
  0
POLYLINE
  5
CFE0
  8
0
 62
7
 66
1
 70
0
 10
0
 20
0
 30
0
  0
VERTEX
  5
CFE1
  8
0
 62
7
 10
46.513294108320721
 20
63.250059503925648
 70
0
  0
VERTEX
  5
CFE2
  8
0
 62
7
 10
46.8095723200522
 20
63.4195582017999
 70
0
  0
SEQEND
  5
CFE3
  8
0
  0
POLYLINE
  5
CFE4
  8
0
 62
7
 66
1
 70
0
 10
0
 20
0
 30
0
  0
VERTEX
  5
CFE5
  8
0
 62
7
 10
46.047517198714949
 20
62.996500476211253
 70
0
  0
VERTEX
  5
CFE6
  8
0
 62
7
 10
46.386514594463527
 20
63.166171428859819
 70
0
  0
SEQEND
  5
CFE7
  8
0
  0
POLYLINE
  5
CFE8
  8
0
 62
7
 66
1
 70
0
 10
0
 20
0
 30
0
  0
VERTEX
  5
CFE9
  8
0
 62
7
 10
45.624459473126272
 20
62.741391155528483
 70
0
  0
VERTEX
  5
CFEA
  8
0
 62
7
 10
45.920737684857741
 20
62.911062108177049
 70
0
  0
SEQEND
  5
CFEB
  8
0
  0
POLYLINE
  5
CFEC
  8
0
 62
7
 66
1
 70
0
 10
0
 20
0
 30
0
  0
VERTEX
  5
CFED
  8
0
 62
7
 10
45.158682563520493
 20
62.44545745334554
 70
0
  0
VERTEX
  5
CFEE
  8
0
 62
7
 10
45.496301921074959
 20
62.657503080462639
 70
0
  0
SEQEND
  5
CFEF
  8
0
  0
POLYLINE
  5
CFF0
  8
0
 62
7
 66
1
 70
0
 10
0
 20
0
 30
0
  0
VERTEX
  5
CFF1
  8
0
 62
7
 10
44.735624837931809
 20
62.19172617085686
 70
0
  0
VERTEX
  5
CFF2
  8
0
 62
7
 10
45.031903049663292
 20
62.403771797974031
 70
0
  0
SEQEND
  5
CFF3
  8
0
  0
POLYLINE
  5
CFF4
  8
0
 62
7
 66
1
 70
0
 10
0
 20
0
 30
0
  0
VERTEX
  5
CFF5
  8
0
 62
7
 10
44.269847928326037
 20
61.938167143142522
 70
0
  0
VERTEX
  5
CFF6
  8
0
 62
7
 10
44.60746728588051
 20
62.107838095791038
 70
0
  0
SEQEND
  5
CFF7
  8
0
  0
POLYLINE
  5
CFF8
  8
0
 62
7
 66
1
 70
0
 10
0
 20
0
 30
0
  0
VERTEX
  5
CFF9
  8
0
 62
7
 10
43.845412164543262
 20
61.683057822459737
 70
0
  0
VERTEX
  5
CFFA
  8
0
 62
7
 10
44.141690376274717
 20
61.852728775108318
 70
0
  0
SEQEND
  5
CFFB
  8
0
  0
POLYLINE
  5
CFFC
  8
0
 62
7
 66
1
 70
0
 10
0
 20
0
 30
0
  0
VERTEX
  5
CFFD
  8
0
 62
7
 10
43.381013293131581
 20
61.387124120276809
 70
0
  0
VERTEX
  5
CFFE
  8
0
 62
7
 10
43.718632650686047
 20
61.599169747393923
 70
0
  0
SEQEND
  5
CFFF
  8
0
  0
POLYLINE
  5
D000
  8
0
 62
7
 66
1
 70
0
 10
0
 20
0
 30
0
  0
VERTEX
  5
D001
  8
0
 62
7
 10
43.718632650686047
 20
62.022055218208351
 70
0
  0
VERTEX
  5
D002
  8
0
 62
7
 10
43.381013293131581
 20
61.811559884059562
 70
0
  0
SEQEND
  5
D003
  8
0
  0
POLYLINE
  5
D004
  8
0
 62
7
 66
1
 70
0
 10
0
 20
0
 30
0
  0
VERTEX
  5
D005
  8
0
 62
7
 10
44.141690376274717
 20
62.275786500696967
 70
0
  0
VERTEX
  5
D006
  8
0
 62
7
 10
43.845412164543262
 20
62.107838095791038
 70
0
  0
SEQEND
  5
D007
  8
0
  0
POLYLINE
  5
D008
  8
0
 62
7
 66
1
 70
0
 10
0
 20
0
 30
0
  0
VERTEX
  5
D009
  8
0
 62
7
 10
44.60746728588051
 20
62.530895821379737
 70
0
  0
VERTEX
  5
D00A
  8
0
 62
7
 10
44.269847928326037
 20
62.361224868731171
 70
0
  0
SEQEND
  5
D00B
  8
0
  0
POLYLINE
  5
D00C
  8
0
 62
7
 66
1
 70
0
 10
0
 20
0
 30
0
  0
VERTEX
  5
D00D
  8
0
 62
7
 10
45.031903049663292
 20
62.82717403311122
 70
0
  0
VERTEX
  5
D00E
  8
0
 62
7
 10
44.735624837931809
 20
62.614783896445573
 70
0
  0
SEQEND
  5
D00F
  8
0
  0
POLYLINE
  5
D010
  8
0
 62
7
 66
1
 70
0
 10
0
 20
0
 30
0
  0
VERTEX
  5
D011
  8
0
 62
7
 10
45.496301921074959
 20
63.080388551277082
 70
0
  0
VERTEX
  5
D012
  8
0
 62
7
 10
45.158682563520493
 20
62.868342924159968
 70
0
  0
SEQEND
  5
D013
  8
0
  0
POLYLINE
  5
D014
  8
0
 62
7
 66
1
 70
0
 10
0
 20
0
 30
0
  0
VERTEX
  5
D015
  8
0
 62
7
 10
45.920737684857741
 20
63.334119833765747
 70
0
  0
VERTEX
  5
D016
  8
0
 62
7
 10
45.624459473126272
 20
63.166171428859819
 70
0
  0
SEQEND
  5
D017
  8
0
  0
POLYLINE
  5
D018
  8
0
 62
7
 66
1
 70
0
 10
0
 20
0
 30
0
  0
VERTEX
  5
D019
  8
0
 62
7
 10
46.386514594463527
 20
63.589229154448468
 70
0
  0
VERTEX
  5
D01A
  8
0
 62
7
 10
46.047517198714949
 20
63.4195582017999
 70
0
  0
SEQEND
  5
D01B
  8
0
  0
POLYLINE
  5
D01C
  8
0
 62
7
 66
1
 70
0
 10
0
 20
0
 30
0
  0
VERTEX
  5
D01D
  8
0
 62
7
 10
46.8095723200522
 20
63.885507366179951
 70
0
  0
VERTEX
  5
D01E
  8
0
 62
7
 10
46.513294108320721
 20
63.673117229514311
 70
0
  0
SEQEND
  5
D01F
  8
0
  0
POLYLINE
  5
D020
  8
0
 62
7
 66
1
 70
0
 10
0
 20
0
 30
0
  0
VERTEX
  5
D021
  8
0
 62
7
 10
47.275349229657976
 20
64.138721884345813
 70
0
  0
VERTEX
  5
D022
  8
0
 62
7
 10
46.936351833909413
 20
63.926676257228713
 70
0
  0
SEQEND
  5
D023
  8
0
  0
POLYLINE
  5
D024
  8
0
 62
7
 66
1
 70
0
 10
0
 20
0
 30
0
  0
VERTEX
  5
D025
  8
0
 62
7
 10
47.698406955246661
 20
64.392453166834486
 70
0
  0
VERTEX
  5
D026
  8
0
 62
7
 10
47.402128743515178
 20
64.223126723734453
 70
0
  0
SEQEND
  5
D027
  8
0
  0
POLYLINE
  5
D028
  8
0
 62
7
 66
1
 70
0
 10
0
 20
0
 30
0
  0
VERTEX
  5
D029
  8
0
 62
7
 10
43.677291504863049
 20
62.361224868731171
 70
0
  0
VERTEX
  5
D02A
  8
0
 62
7
 10
43.46507362297168
 20
62.19172617085686
 70
0
  0
SEQEND
  5
D02B
  8
0
  0
POLYLINE
  5
D02C
  8
0
 62
7
 66
1
 70
0
 10
0
 20
0
 30
0
  0
VERTEX
  5
D02D
  8
0
 62
7
 10
44.100349230451727
 20
62.614783896445573
 70
0
  0
VERTEX
  5
D02E
  8
0
 62
7
 10
43.930850532577452
 20
62.488176637362614
 70
0
  0
SEQEND
  5
D02F
  8
0
  0
POLYLINE
  5
D030
  8
0
 62
7
 66
1
 70
0
 10
0
 20
0
 30
0
  0
VERTEX
  5
D031
  8
0
 62
7
 10
44.566126140057513
 20
62.868342924159968
 70
0
  0
VERTEX
  5
D032
  8
0
 62
7
 10
44.353908258166143
 20
62.741391155528483
 70
0
  0
SEQEND
  5
D033
  8
0
  0
POLYLINE
  5
D034
  8
0
 62
7
 66
1
 70
0
 10
0
 20
0
 30
0
  0
VERTEX
  5
D035
  8
0
 62
7
 10
44.98918386564619
 20
63.123107735294148
 70
0
  0
VERTEX
  5
D036
  8
0
 62
7
 10
44.819685167771908
 20
63.037841622034222
 70
0
  0
SEQEND
  5
D037
  8
0
  0
POLYLINE
  5
D038
  8
0
 62
7
 66
1
 70
0
 10
0
 20
0
 30
0
  0
VERTEX
  5
D039
  8
0
 62
7
 10
45.454960775251962
 20
63.4195582017999
 70
0
  0
VERTEX
  5
D03A
  8
0
 62
7
 10
45.242742893360592
 20
63.292778687942729
 70
0
  0
SEQEND
  5
D03B
  8
0
  0
POLYLINE
  5
D03C
  8
0
 62
7
 66
1
 70
0
 10
0
 20
0
 30
0
  0
VERTEX
  5
D03D
  8
0
 62
7
 10
45.878018500840668
 20
63.673117229514311
 70
0
  0
VERTEX
  5
D03E
  8
0
 62
7
 10
45.708519802966357
 20
63.5465099704314
 70
0
  0
SEQEND
  5
D03F
  8
0
  0
POLYLINE
  5
D040
  8
0
 62
7
 66
1
 70
0
 10
0
 20
0
 30
0
  0
VERTEX
  5
D041
  8
0
 62
7
 10
46.343795410446418
 20
63.926676257228713
 70
0
  0
VERTEX
  5
D042
  8
0
 62
7
 10
46.131577528555049
 20
63.799724488597263
 70
0
  0
SEQEND
  5
D043
  8
0
  0
POLYLINE
  5
D044
  8
0
 62
7
 66
1
 70
0
 10
0
 20
0
 30
0
  0
VERTEX
  5
D045
  8
0
 62
7
 10
46.766853136035117
 20
64.181441068362943
 70
0
  0
VERTEX
  5
D046
  8
0
 62
7
 10
46.554635254143719
 20
64.09617495510301
 70
0
  0
SEQEND
  5
D047
  8
0
  0
POLYLINE
  5
D048
  8
0
 62
7
 66
1
 70
0
 10
0
 20
0
 30
0
  0
VERTEX
  5
D049
  8
0
 62
7
 10
47.23263004564091
 20
64.477891534868689
 70
0
  0
VERTEX
  5
D04A
  8
0
 62
7
 10
47.0204121637495
 20
64.35111202101146
 70
0
  0
SEQEND
  5
D04B
  8
0
  0
POLYLINE
  5
D04C
  8
0
 62
7
 66
1
 70
0
 10
0
 20
0
 30
0
  0
VERTEX
  5
D04D
  8
0
 62
7
 10
47.65568777122958
 20
64.731450562583092
 70
0
  0
VERTEX
  5
D04E
  8
0
 62
7
 10
47.443469889338182
 20
64.604843303500132
 70
0
  0
SEQEND
  5
D04F
  8
0
  0
POLYLINE
  5
D050
  8
0
 62
7
 66
1
 70
0
 10
0
 20
0
 30
0
  0
VERTEX
  5
D051
  8
0
 62
7
 10
48.078745496818271
 20
64.985009590297437
 70
0
  0
VERTEX
  5
D052
  8
0
 62
7
 10
47.909246798943961
 20
64.858057821666
 70
0
  0
SEQEND
  5
D053
  8
0
  0
POLYLINE
  5
D054
  8
0
 62
7
 66
1
 70
0
 10
0
 20
0
 30
0
  0
VERTEX
  5
D055
  8
0
 62
7
 10
44.05763004643466
 20
62.657503080462639
 70
0
  0
VERTEX
  5
D056
  8
0
 62
7
 10
48.671301920281209
 20
65.409445354080248
 70
0
  0
SEQEND
  5
D057
  8
0
  0
POLYLINE
  5
D058
  8
0
 62
7
 66
1
 70
0
 10
0
 20
0
 30
0
  0
VERTEX
  5
D059
  8
0
 62
7
 10
48.629960774458219
 20
65.493505683920347
 70
0
  0
VERTEX
  5
D05A
  8
0
 62
7
 10
44.014910862417558
 20
62.741391155528483
 70
0
  0
SEQEND
  5
D05B
  8
0
  0
POLYLINE
  5
D05C
  8
0
 62
7
 66
1
 70
0
 10
0
 20
0
 30
0
  0
VERTEX
  5
D05D
  8
0
 62
7
 10
49.3065775277613
 20
66.339793389871971
 70
0
  0
VERTEX
  5
D05E
  8
0
 62
7
 10
43.338294109114472
 20
62.784110339545613
 70
0
  0
SEQEND
  5
D05F
  8
0
  0
POLYLINE
  5
D060
  8
0
 62
7
 66
1
 70
0
 10
0
 20
0
 30
0
  0
VERTEX
  5
D061
  8
0
 62
7
 10
48.671301920281209
 20
65.409445354080248
 70
0
  0
VERTEX
  5
D062
  8
0
 62
7
 10
48.078745496818271
 20
64.985009590297437
 70
0
  0
SEQEND
  5
D063
  8
0
  0
POLYLINE
  5
D064
  8
0
 62
7
 66
1
 70
0
 10
0
 20
0
 30
0
  0
VERTEX
  5
D065
  8
0
 62
7
 10
43.46507362297168
 20
62.19172617085686
 70
0
  0
VERTEX
  5
D066
  8
0
 62
7
 10
44.05763004643466
 20
62.657503080462639
 70
0
  0
SEQEND
  5
D067
  8
0
  0
POLYLINE
  5
D068
  8
0
 62
7
 66
1
 70
0
 10
0
 20
0
 30
0
  0
VERTEX
  5
D069
  8
0
 62
7
 10
40.07923378006813
 20
43.43955468031924
 70
0
  0
VERTEX
  5
D06A
  8
0
 62
7
 10
40.07923378006813
 20
43.185823397830568
 70
0
  0
SEQEND
  5
D06B
  8
0
  0
POLYLINE
  5
D06C
  8
0
 62
7
 66
1
 70
0
 10
0
 20
0
 30
0
  0
VERTEX
  5
D06D
  8
0
 62
7
 10
39.401238988570967
 20
44.879604593153658
 70
0
  0
VERTEX
  5
D06E
  8
0
 62
7
 10
39.486677356605149
 20
44.54060719740508
 70
0
  0
SEQEND
  5
D06F
  8
0
  0
POLYLINE
  5
D070
  8
0
 62
7
 66
1
 70
0
 10
0
 20
0
 30
0
  0
VERTEX
  5
D071
  8
0
 62
7
 10
39.317178658730882
 20
44.793821715570942
 70
0
  0
VERTEX
  5
D072
  8
0
 62
7
 10
39.443958172588083
 20
44.41365542877363
 70
0
  0
SEQEND
  5
D073
  8
0
  0
POLYLINE
  5
D074
  8
0
 62
7
 66
1
 70
0
 10
0
 20
0
 30
0
  0
VERTEX
  5
D075
  8
0
 62
7
 10
40.290073623765423
 20
44.54060719740508
 70
0
  0
VERTEX
  5
D076
  8
0
 62
7
 10
39.358519804553872
 20
44.920773484202407
 70
0
  0
SEQEND
  5
D077
  8
0
  0
POLYLINE
  5
D078
  8
0
 62
7
 66
1
 70
0
 10
0
 20
0
 30
0
  0
VERTEX
  5
D079
  8
0
 62
7
 10
40.290073623765423
 20
44.497888013387971
 70
0
  0
VERTEX
  5
D07A
  8
0
 62
7
 10
39.401238988570967
 20
44.879604593153658
 70
0
  0
SEQEND
  5
D07B
  8
0
  0
POLYLINE
  5
D07C
  8
0
 62
7
 66
1
 70
0
 10
0
 20
0
 30
0
  0
VERTEX
  5
D07D
  8
0
 62
7
 10
39.317178658730882
 20
44.836540899588037
 70
0
  0
VERTEX
  5
D07E
  8
0
 62
7
 10
39.358519804553872
 20
44.836540899588037
 70
0
  0
SEQEND
  5
D07F
  8
0
  0
POLYLINE
  5
D080
  8
0
 62
7
 66
1
 70
0
 10
0
 20
0
 30
0
  0
VERTEX
  5
D081
  8
0
 62
7
 10
40.163294109908229
 20
44.117204962267863
 70
0
  0
VERTEX
  5
D082
  8
0
 62
7
 10
39.443958172588083
 20
44.41365542877363
 70
0
  0
SEQEND
  5
D083
  8
0
  0
POLYLINE
  5
D084
  8
0
 62
7
 66
1
 70
0
 10
0
 20
0
 30
0
  0
VERTEX
  5
D085
  8
0
 62
7
 10
39.401238988570967
 20
44.117204962267863
 70
0
  0
VERTEX
  5
D086
  8
0
 62
7
 10
36.6920158989705
 20
45.259943134725233
 70
0
  0
SEQEND
  5
D087
  8
0
  0
POLYLINE
  5
D088
  8
0
 62
7
 66
1
 70
0
 10
0
 20
0
 30
0
  0
VERTEX
  5
D089
  8
0
 62
7
 10
39.317178658730882
 20
44.074485778250782
 70
0
  0
VERTEX
  5
D08A
  8
0
 62
7
 10
36.6079555691304
 20
45.175538295336622
 70
0
  0
SEQEND
  5
D08B
  8
0
  0
POLYLINE
  5
D08C
  8
0
 62
7
 66
1
 70
0
 10
0
 20
0
 30
0
  0
VERTEX
  5
D08D
  8
0
 62
7
 10
39.104960776839469
 20
43.821271260084927
 70
0
  0
VERTEX
  5
D08E
  8
0
 62
7
 10
36.6920158989705
 20
44.836540899588037
 70
0
  0
SEQEND
  5
D08F
  8
0
  0
POLYLINE
  5
D090
  8
0
 62
7
 66
1
 70
0
 10
0
 20
0
 30
0
  0
VERTEX
  5
D091
  8
0
 62
7
 10
39.0622415928224
 20
43.821271260084927
 70
0
  0
VERTEX
  5
D092
  8
0
 62
7
 10
39.104960776839469
 20
43.821271260084927
 70
0
  0
VERTEX
  5
D093
  8
0
 62
7
 10
39.0209004469994
 20
43.862440151133647
 70
0
  0
SEQEND
  5
D094
  8
0
  0
POLYLINE
  5
D095
  8
0
 62
7
 66
1
 70
0
 10
0
 20
0
 30
0
  0
VERTEX
  5
D096
  8
0
 62
7
 10
41.730123536599869
 20
42.84682600208199
 70
0
  0
VERTEX
  5
D097
  8
0
 62
7
 10
41.730123536599869
 20
42.9322643701162
 70
0
  0
SEQEND
  5
D098
  8
0
  0
POLYLINE
  5
D099
  8
0
 62
7
 66
1
 70
0
 10
0
 20
0
 30
0
  0
VERTEX
  5
D09A
  8
0
 62
7
 10
36.734735082987612
 20
45.386550393808193
 70
0
  0
VERTEX
  5
D09B
  8
0
 62
7
 10
39.317178658730882
 20
44.920773484202407
 70
0
  0
SEQEND
  5
D09C
  8
0
  0
POLYLINE
  5
D09D
  8
0
 62
7
 66
1
 70
0
 10
0
 20
0
 30
0
  0
VERTEX
  5
D09E
  8
0
 62
7
 10
36.6920158989705
 20
45.259943134725233
 70
0
  0
VERTEX
  5
D09F
  8
0
 62
7
 10
39.317178658730882
 20
44.836540899588037
 70
0
  0
SEQEND
  5
D0A0
  8
0
  0
POLYLINE
  5
D0A1
  8
0
 62
7
 66
1
 70
0
 10
0
 20
0
 30
0
  0
VERTEX
  5
D0A2
  8
0
 62
7
 10
36.6079555691304
 20
45.175538295336622
 70
0
  0
VERTEX
  5
D0A3
  8
0
 62
7
 10
36.5652363851133
 20
45.21722395070816
 70
0
  0
SEQEND
  5
D0A4
  8
0
  0
POLYLINE
  5
D0A5
  8
0
 62
7
 66
1
 70
0
 10
0
 20
0
 30
0
  0
VERTEX
  5
D0A6
  8
0
 62
7
 10
36.6079555691304
 20
45.090272182076689
 70
0
  0
VERTEX
  5
D0A7
  8
0
 62
7
 10
36.5225172010962
 20
45.090272182076689
 70
0
  0
SEQEND
  5
D0A8
  8
0
  0
POLYLINE
  5
D0A9
  8
0
 62
7
 66
1
 70
0
 10
0
 20
0
 30
0
  0
VERTEX
  5
D0AA
  8
0
 62
7
 10
43.677291504863049
 20
60.201839018576578
 70
0
  0
VERTEX
  5
D0AB
  8
0
 62
7
 10
43.46507362297168
 20
60.075059504719412
 70
0
  0
SEQEND
  5
D0AC
  8
0
  0
POLYLINE
  5
D0AD
  8
0
 62
7
 66
1
 70
0
 10
0
 20
0
 30
0
  0
VERTEX
  5
D0AE
  8
0
 62
7
 10
44.100349230451727
 20
60.498117230308047
 70
0
  0
VERTEX
  5
D0AF
  8
0
 62
7
 10
43.930850532577452
 20
60.371509971225152
 70
0
  0
SEQEND
  5
D0B0
  8
0
  0
POLYLINE
  5
D0B1
  8
0
 62
7
 66
1
 70
0
 10
0
 20
0
 30
0
  0
VERTEX
  5
D0B2
  8
0
 62
7
 10
44.566126140057513
 20
60.753226550990831
 70
0
  0
VERTEX
  5
D0B3
  8
0
 62
7
 10
44.353908258166143
 20
60.624724489391014
 70
0
  0
SEQEND
  5
D0B4
  8
0
  0
POLYLINE
  5
D0B5
  8
0
 62
7
 66
1
 70
0
 10
0
 20
0
 30
0
  0
VERTEX
  5
D0B6
  8
0
 62
7
 10
44.98918386564619
 20
61.0064410691567
 70
0
  0
VERTEX
  5
D0B7
  8
0
 62
7
 10
44.819685167771908
 20
60.879833810073727
 70
0
  0
SEQEND
  5
D0B8
  8
0
  0
POLYLINE
  5
D0B9
  8
0
 62
7
 66
1
 70
0
 10
0
 20
0
 30
0
  0
VERTEX
  5
D0BA
  8
0
 62
7
 10
45.454960775251962
 20
61.260172351645309
 70
0
  0
VERTEX
  5
D0BB
  8
0
 62
7
 10
45.242742893360592
 20
61.133392837788129
 70
0
  0
SEQEND
  5
D0BC
  8
0
  0
POLYLINE
  5
D0BD
  8
0
 62
7
 66
1
 70
0
 10
0
 20
0
 30
0
  0
VERTEX
  5
D0BE
  8
0
 62
7
 10
45.878018500840668
 20
61.515109417553823
 70
0
  0
VERTEX
  5
D0BF
  8
0
 62
7
 10
45.708519802966357
 20
61.429843304293883
 70
0
  0
SEQEND
  5
D0C0
  8
0
  0
POLYLINE
  5
D0C1
  8
0
 62
7
 66
1
 70
0
 10
0
 20
0
 30
0
  0
VERTEX
  5
D0C2
  8
0
 62
7
 10
46.343795410446418
 20
61.811559884059562
 70
0
  0
VERTEX
  5
D0C3
  8
0
 62
7
 10
46.131577528555049
 20
61.683057822459737
 70
0
  0
SEQEND
  5
D0C4
  8
0
  0
POLYLINE
  5
D0C5
  8
0
 62
7
 66
1
 70
0
 10
0
 20
0
 30
0
  0
VERTEX
  5
D0C6
  8
0
 62
7
 10
46.766853136035117
 20
62.064774402225417
 70
0
  0
VERTEX
  5
D0C7
  8
0
 62
7
 10
46.554635254143719
 20
61.938167143142522
 70
0
  0
SEQEND
  5
D0C8
  8
0
  0
POLYLINE
  5
D0C9
  8
0
 62
7
 66
1
 70
0
 10
0
 20
0
 30
0
  0
VERTEX
  5
D0CA
  8
0
 62
7
 10
47.23263004564091
 20
62.3185056847141
 70
0
  0
VERTEX
  5
D0CB
  8
0
 62
7
 10
47.0204121637495
 20
62.19172617085686
 70
0
  0
SEQEND
  5
D0CC
  8
0
  0
POLYLINE
  5
D0CD
  8
0
 62
7
 66
1
 70
0
 10
0
 20
0
 30
0
  0
VERTEX
  5
D0CE
  8
0
 62
7
 10
47.65568777122958
 20
62.572064712428443
 70
0
  0
VERTEX
  5
D0CF
  8
0
 62
7
 10
47.443469889338182
 20
62.488176637362614
 70
0
  0
SEQEND
  5
D0D0
  8
0
  0
POLYLINE
  5
D0D1
  8
0
 62
7
 66
1
 70
0
 10
0
 20
0
 30
0
  0
VERTEX
  5
D0D2
  8
0
 62
7
 10
48.078745496818271
 20
62.82717403311122
 70
0
  0
VERTEX
  5
D0D3
  8
0
 62
7
 10
47.909246798943961
 20
62.741391155528483
 70
0
  0
SEQEND
  5
D0D4
  8
0
  0
POLYLINE
  5
D0D5
  8
0
 62
7
 66
1
 70
0
 10
0
 20
0
 30
0
  0
VERTEX
  5
D0D6
  8
0
 62
7
 10
44.05763004643466
 20
60.498117230308047
 70
0
  0
VERTEX
  5
D0D7
  8
0
 62
7
 10
48.671301920281209
 20
63.250059503925648
 70
0
  0
SEQEND
  5
D0D8
  8
0
  0
POLYLINE
  5
D0D9
  8
0
 62
7
 66
1
 70
0
 10
0
 20
0
 30
0
  0
VERTEX
  5
D0DA
  8
0
 62
7
 10
43.46507362297168
 20
60.83711462605666
 70
0
  0
VERTEX
  5
D0DB
  8
0
 62
7
 10
48.078745496818271
 20
63.589229154448468
 70
0
  0
SEQEND
  5
D0DC
  8
0
  0
POLYLINE
  5
D0DD
  8
0
 62
7
 66
1
 70
0
 10
0
 20
0
 30
0
  0
VERTEX
  5
D0DE
  8
0
 62
7
 10
47.612968587212478
 20
63.673117229514311
 70
0
  0
VERTEX
  5
D0DF
  8
0
 62
7
 10
47.951965982961063
 20
63.885507366179951
 70
0
  0
SEQEND
  5
D0E0
  8
0
  0
POLYLINE
  5
D0E1
  8
0
 62
7
 66
1
 70
0
 10
0
 20
0
 30
0
  0
VERTEX
  5
D0E2
  8
0
 62
7
 10
47.189910861623808
 20
63.4195582017999
 70
0
  0
VERTEX
  5
D0E3
  8
0
 62
7
 10
47.486189073355277
 20
63.589229154448468
 70
0
  0
SEQEND
  5
D0E4
  8
0
  0
POLYLINE
  5
D0E5
  8
0
 62
7
 66
1
 70
0
 10
0
 20
0
 30
0
  0
VERTEX
  5
D0E6
  8
0
 62
7
 10
46.724133952018029
 20
63.166171428859819
 70
0
  0
VERTEX
  5
D0E7
  8
0
 62
7
 10
47.0631313477666
 20
63.334119833765747
 70
0
  0
SEQEND
  5
D0E8
  8
0
  0
POLYLINE
  5
D0E9
  8
0
 62
7
 66
1
 70
0
 10
0
 20
0
 30
0
  0
VERTEX
  5
D0EA
  8
0
 62
7
 10
46.301076226429352
 20
62.868342924159968
 70
0
  0
VERTEX
  5
D0EB
  8
0
 62
7
 10
46.597354438160821
 20
63.080388551277082
 70
0
  0
SEQEND
  5
D0EC
  8
0
  0
POLYLINE
  5
D0ED
  8
0
 62
7
 66
1
 70
0
 10
0
 20
0
 30
0
  0
VERTEX
  5
D0EE
  8
0
 62
7
 10
45.835299316823573
 20
62.614783896445573
 70
0
  0
VERTEX
  5
D0EF
  8
0
 62
7
 10
46.174296712572151
 20
62.82717403311122
 70
0
  0
SEQEND
  5
D0F0
  8
0
  0
POLYLINE
  5
D0F1
  8
0
 62
7
 66
1
 70
0
 10
0
 20
0
 30
0
  0
VERTEX
  5
D0F2
  8
0
 62
7
 10
45.4122415912349
 20
62.361224868731171
 70
0
  0
VERTEX
  5
D0F3
  8
0
 62
7
 10
45.708519802966357
 20
62.530895821379737
 70
0
  0
SEQEND
  5
D0F4
  8
0
  0
POLYLINE
  5
D0F5
  8
0
 62
7
 66
1
 70
0
 10
0
 20
0
 30
0
  0
VERTEX
  5
D0F6
  8
0
 62
7
 10
44.946464681629109
 20
62.107838095791038
 70
0
  0
VERTEX
  5
D0F7
  8
0
 62
7
 10
45.285462077377687
 20
62.275786500696967
 70
0
  0
SEQEND
  5
D0F8
  8
0
  0
POLYLINE
  5
D0F9
  8
0
 62
7
 66
1
 70
0
 10
0
 20
0
 30
0
  0
VERTEX
  5
D0FA
  8
0
 62
7
 10
44.523406956040411
 20
61.811559884059562
 70
0
  0
VERTEX
  5
D0FB
  8
0
 62
7
 10
44.819685167771908
 20
62.022055218208351
 70
0
  0
SEQEND
  5
D0FC
  8
0
  0
POLYLINE
  5
D0FD
  8
0
 62
7
 66
1
 70
0
 10
0
 20
0
 30
0
  0
VERTEX
  5
D0FE
  8
0
 62
7
 10
44.05763004643466
 20
61.556450563376842
 70
0
  0
VERTEX
  5
D0FF
  8
0
 62
7
 10
44.396627442183231
 20
61.768840700042482
 70
0
  0
SEQEND
  5
D100
  8
0
  0
POLYLINE
  5
D101
  8
0
 62
7
 66
1
 70
0
 10
0
 20
0
 30
0
  0
VERTEX
  5
D102
  8
0
 62
7
 10
43.634572320845948
 20
61.30289153566244
 70
0
  0
VERTEX
  5
D103
  8
0
 62
7
 10
43.930850532577452
 20
61.472562488310949
 70
0
  0
SEQEND
  5
D104
  8
0
  0
POLYLINE
  5
D105
  8
0
 62
7
 66
1
 70
0
 10
0
 20
0
 30
0
  0
VERTEX
  5
D106
  8
0
 62
7
 10
43.46507362297168
 20
60.075059504719412
 70
0
  0
VERTEX
  5
D107
  8
0
 62
7
 10
44.05763004643466
 20
60.498117230308047
 70
0
  0
SEQEND
  5
D108
  8
0
  0
POLYLINE
  5
D109
  8
0
 62
7
 66
1
 70
0
 10
0
 20
0
 30
0
  0
VERTEX
  5
D10A
  8
0
 62
7
 10
36.6920158989705
 20
45.259943134725233
 70
0
  0
VERTEX
  5
D10B
  8
0
 62
7
 10
36.734735082987612
 20
45.386550393808193
 70
0
  0
SEQEND
  5
D10C
  8
0
  0
POLYLINE
  5
D10D
  8
0
 62
7
 66
1
 70
0
 10
0
 20
0
 30
0
  0
VERTEX
  5
D10E
  8
0
 62
7
 10
36.6079555691304
 20
45.090272182076689
 70
0
  0
VERTEX
  5
D10F
  8
0
 62
7
 10
36.6079555691304
 20
45.175538295336622
 70
0
  0
SEQEND
  5
D110
  8
0
  0
POLYLINE
  5
D111
  8
0
 62
7
 66
1
 70
0
 10
0
 20
0
 30
0
  0
VERTEX
  5
D112
  8
0
 62
7
 10
36.5225172010962
 20
45.090272182076689
 70
0
  0
VERTEX
  5
D113
  8
0
 62
7
 10
36.5652363851133
 20
45.21722395070816
 70
0
  0
SEQEND
  5
D114
  8
0
  0
POLYLINE
  5
D115
  8
0
 62
7
 66
1
 70
0
 10
0
 20
0
 30
0
  0
VERTEX
  5
D116
  8
0
 62
7
 10
39.358519804553872
 20
44.920773484202407
 70
0
  0
VERTEX
  5
D117
  8
0
 62
7
 10
39.317178658730882
 20
44.920773484202407
 70
0
  0
SEQEND
  5
D118
  8
0
  0
POLYLINE
  5
D119
  8
0
 62
7
 66
1
 70
0
 10
0
 20
0
 30
0
  0
VERTEX
  5
D11A
  8
0
 62
7
 10
39.317178658730882
 20
44.836540899588037
 70
0
  0
VERTEX
  5
D11B
  8
0
 62
7
 10
39.358519804553872
 20
44.836540899588037
 70
0
  0
SEQEND
  5
D11C
  8
0
  0
POLYLINE
  5
D11D
  8
0
 62
7
 66
1
 70
0
 10
0
 20
0
 30
0
  0
VERTEX
  5
D11E
  8
0
 62
7
 10
36.6920158989705
 20
44.836540899588037
 70
0
  0
VERTEX
  5
D11F
  8
0
 62
7
 10
36.6079555691304
 20
44.879604593153658
 70
0
  0
SEQEND
  5
D120
  8
0
  0
POLYLINE
  5
D121
  8
0
 62
7
 66
1
 70
0
 10
0
 20
0
 30
0
  0
VERTEX
  5
D122
  8
0
 62
7
 10
39.401238988570967
 20
44.117204962267863
 70
0
  0
VERTEX
  5
D123
  8
0
 62
7
 10
40.120574925891127
 20
44.031938849007929
 70
0
  0
SEQEND
  5
D124
  8
0
  0
POLYLINE
  5
D125
  8
0
 62
7
 66
1
 70
0
 10
0
 20
0
 30
0
  0
VERTEX
  5
D126
  8
0
 62
7
 10
42.110462078171437
 20
46.444883726876917
 70
0
  0
VERTEX
  5
D127
  8
0
 62
7
 10
42.492178657937117
 20
58.550777007270568
 70
0
  0
VERTEX
  5
D128
  8
0
 62
7
 10
42.492178657937117
 20
58.636559884853312
 70
0
  0
SEQEND
  5
D129
  8
0
  0
POLYLINE
  5
D12A
  8
0
 62
7
 66
1
 70
0
 10
0
 20
0
 30
0
  0
VERTEX
  5
D12B
  8
0
 62
7
 10
42.7457376856515
 20
58.550777007270568
 70
0
  0
VERTEX
  5
D12C
  8
0
 62
7
 10
42.492178657937117
 20
48.773940529680061
 70
0
  0
SEQEND
  5
D12D
  8
0
  0
POLYLINE
  5
D12E
  8
0
 62
7
 66
1
 70
0
 10
0
 20
0
 30
0
  0
VERTEX
  5
D12F
  8
0
 62
7
 10
42.449459473920022
 20
47.842214455694283
 70
0
  0
VERTEX
  5
D130
  8
0
 62
7
 10
42.703018501634418
 20
58.720447959919142
 70
0
  0
SEQEND
  5
D131
  8
0
  0
POLYLINE
  5
D132
  8
0
 62
7
 66
1
 70
0
 10
0
 20
0
 30
0
  0
VERTEX
  5
D133
  8
0
 62
7
 10
43.46507362297168
 20
60.075059504719412
 70
0
  0
VERTEX
  5
D134
  8
0
 62
7
 10
43.46507362297168
 20
59.7360621089708
 70
0
  0
SEQEND
  5
D135
  8
0
  0
POLYLINE
  5
D136
  8
0
 62
7
 66
1
 70
0
 10
0
 20
0
 30
0
  0
VERTEX
  5
D137
  8
0
 62
7
 10
43.46507362297168
 20
61.387124120276809
 70
0
  0
VERTEX
  5
D138
  8
0
 62
7
 10
43.46507362297168
 20
60.83711462605666
 70
0
  0
SEQEND
  5
D139
  8
0
  0
POLYLINE
  5
D13A
  8
0
 62
7
 66
1
 70
0
 10
0
 20
0
 30
0
  0
VERTEX
  5
D13B
  8
0
 62
7
 10
43.46507362297168
 20
62.19172617085686
 70
0
  0
VERTEX
  5
D13C
  8
0
 62
7
 10
43.46507362297168
 20
61.852728775108318
 70
0
  0
SEQEND
  5
D13D
  8
0
  0
POLYLINE
  5
D13E
  8
0
 62
7
 66
1
 70
0
 10
0
 20
0
 30
0
  0
VERTEX
  5
D13F
  8
0
 62
7
 10
43.381013293131581
 20
59.694893217922044
 70
0
  0
VERTEX
  5
D140
  8
0
 62
7
 10
43.381013293131581
 20
59.3558958221735
 70
0
  0
SEQEND
  5
D141
  8
0
  0
POLYLINE
  5
D142
  8
0
 62
7
 66
1
 70
0
 10
0
 20
0
 30
0
  0
VERTEX
  5
D143
  8
0
 62
7
 10
43.381013293131581
 20
61.811559884059562
 70
0
  0
VERTEX
  5
D144
  8
0
 62
7
 10
43.381013293131581
 20
61.387124120276809
 70
0
  0
SEQEND
  5
D145
  8
0
  0
POLYLINE
  5
D146
  8
0
 62
7
 66
1
 70
0
 10
0
 20
0
 30
0
  0
VERTEX
  5
D147
  8
0
 62
7
 10
42.788456869668593
 20
63.123107735294148
 70
0
  0
VERTEX
  5
D148
  8
0
 62
7
 10
42.788456869668593
 20
63.5465099704314
 70
0
  0
SEQEND
  5
D149
  8
0
  0
POLYLINE
  5
D14A
  8
0
 62
7
 66
1
 70
0
 10
0
 20
0
 30
0
  0
VERTEX
  5
D14B
  8
0
 62
7
 10
48.926238986189723
 20
61.938167143142522
 70
0
  0
VERTEX
  5
D14C
  8
0
 62
7
 10
49.17979801390409
 20
62.064774402225417
 70
0
  0
SEQEND
  5
D14D
  8
0
  0
POLYLINE
  5
D14E
  8
0
 62
7
 66
1
 70
0
 10
0
 20
0
 30
0
  0
VERTEX
  5
D14F
  8
0
 62
7
 10
47.0204121637495
 20
61.30289153566244
 70
0
  0
VERTEX
  5
D150
  8
0
 62
7
 10
42.872517199508692
 20
58.805886327953338
 70
0
  0
SEQEND
  5
D151
  8
0
  0
POLYLINE
  5
D152
  8
0
 62
7
 66
1
 70
0
 10
0
 20
0
 30
0
  0
VERTEX
  5
D153
  8
0
 62
7
 10
42.576238987777216
 20
58.763167143936272
 70
0
  0
VERTEX
  5
D154
  8
0
 62
7
 10
47.359409559498083
 20
61.599169747393923
 70
0
  0
SEQEND
  5
D155
  8
0
  0
POLYLINE
  5
D156
  8
0
 62
7
 66
1
 70
0
 10
0
 20
0
 30
0
  0
VERTEX
  5
D157
  8
0
 62
7
 10
42.703018501634418
 20
58.932838096584788
 70
0
  0
VERTEX
  5
D158
  8
0
 62
7
 10
47.486189073355277
 20
61.811559884059562
 70
0
  0
SEQEND
  5
D159
  8
0
  0
POLYLINE
  5
D15A
  8
0
 62
7
 66
1
 70
0
 10
0
 20
0
 30
0
  0
VERTEX
  5
D15B
  8
0
 62
7
 10
43.718632650686047
 20
59.905388552070832
 70
0
  0
VERTEX
  5
D15C
  8
0
 62
7
 10
43.381013293131581
 20
59.694893217922044
 70
0
  0
SEQEND
  5
D15D
  8
0
  0
POLYLINE
  5
D15E
  8
0
 62
7
 66
1
 70
0
 10
0
 20
0
 30
0
  0
VERTEX
  5
D15F
  8
0
 62
7
 10
44.141690376274717
 20
60.160497872753609
 70
0
  0
VERTEX
  5
D160
  8
0
 62
7
 10
43.845412164543262
 20
59.9481077360879
 70
0
  0
SEQEND
  5
D161
  8
0
  0
POLYLINE
  5
D162
  8
0
 62
7
 66
1
 70
0
 10
0
 20
0
 30
0
  0
VERTEX
  5
D163
  8
0
 62
7
 10
44.60746728588051
 20
60.414229155242218
 70
0
  0
VERTEX
  5
D164
  8
0
 62
7
 10
44.269847928326037
 20
60.244558202593652
 70
0
  0
SEQEND
  5
D165
  8
0
  0
POLYLINE
  5
D166
  8
0
 62
7
 66
1
 70
0
 10
0
 20
0
 30
0
  0
VERTEX
  5
D167
  8
0
 62
7
 10
45.031903049663292
 20
60.667443673408087
 70
0
  0
VERTEX
  5
D168
  8
0
 62
7
 10
44.735624837931809
 20
60.498117230308047
 70
0
  0
SEQEND
  5
D169
  8
0
  0
POLYLINE
  5
D16A
  8
0
 62
7
 66
1
 70
0
 10
0
 20
0
 30
0
  0
VERTEX
  5
D16B
  8
0
 62
7
 10
45.496301921074959
 20
60.96372188513957
 70
0
  0
VERTEX
  5
D16C
  8
0
 62
7
 10
45.158682563520493
 20
60.753226550990831
 70
0
  0
SEQEND
  5
D16D
  8
0
  0
POLYLINE
  5
D16E
  8
0
 62
7
 66
1
 70
0
 10
0
 20
0
 30
0
  0
VERTEX
  5
D16F
  8
0
 62
7
 10
45.920737684857741
 20
61.21883120582234
 70
0
  0
VERTEX
  5
D170
  8
0
 62
7
 10
45.624459473126272
 20
61.0064410691567
 70
0
  0
SEQEND
  5
D171
  8
0
  0
POLYLINE
  5
D172
  8
0
 62
7
 66
1
 70
0
 10
0
 20
0
 30
0
  0
VERTEX
  5
D173
  8
0
 62
7
 10
46.386514594463527
 20
61.472562488310949
 70
0
  0
VERTEX
  5
D174
  8
0
 62
7
 10
46.047517198714949
 20
61.30289153566244
 70
0
  0
SEQEND
  5
D175
  8
0
  0
POLYLINE
  5
D176
  8
0
 62
7
 66
1
 70
0
 10
0
 20
0
 30
0
  0
VERTEX
  5
D177
  8
0
 62
7
 10
46.8095723200522
 20
61.725777006476818
 70
0
  0
VERTEX
  5
D178
  8
0
 62
7
 10
46.513294108320721
 20
61.556450563376842
 70
0
  0
SEQEND
  5
D179
  8
0
  0
POLYLINE
  5
D17A
  8
0
 62
7
 66
1
 70
0
 10
0
 20
0
 30
0
  0
VERTEX
  5
D17B
  8
0
 62
7
 10
47.275349229657976
 20
61.979508288965491
 70
0
  0
VERTEX
  5
D17C
  8
0
 62
7
 10
46.936351833909413
 20
61.811559884059562
 70
0
  0
SEQEND
  5
D17D
  8
0
  0
POLYLINE
  5
D17E
  8
0
 62
7
 66
1
 70
0
 10
0
 20
0
 30
0
  0
VERTEX
  5
D17F
  8
0
 62
7
 10
47.698406955246661
 20
62.275786500696967
 70
0
  0
VERTEX
  5
D180
  8
0
 62
7
 10
47.402128743515178
 20
62.064774402225417
 70
0
  0
SEQEND
  5
D181
  8
0
  0
POLYLINE
  5
D182
  8
0
 62
7
 66
1
 70
0
 10
0
 20
0
 30
0
  0
VERTEX
  5
D183
  8
0
 62
7
 10
48.671301920281209
 20
63.250059503925648
 70
0
  0
VERTEX
  5
D184
  8
0
 62
7
 10
48.078745496818271
 20
62.82717403311122
 70
0
  0
SEQEND
  5
D185
  8
0
  0
POLYLINE
  5
D186
  8
0
 62
7
 66
1
 70
0
 10
0
 20
0
 30
0
  0
VERTEX
  5
D187
  8
0
 62
7
 10
42.9992967133659
 20
62.784110339545613
 70
0
  0
VERTEX
  5
D188
  8
0
 62
7
 10
42.9152363835258
 20
61.30289153566244
 70
0
  0
VERTEX
  5
D189
  8
0
 62
7
 10
42.872517199508692
 20
59.439783897239323
 70
0
  0
VERTEX
  5
D18A
  8
0
 62
7
 10
42.872517199508692
 20
59.059445355667741
 70
0
  0
SEQEND
  5
D18B
  8
0
  0
POLYLINE
  5
D18C
  8
0
 62
7
 66
1
 70
0
 10
0
 20
0
 30
0
  0
VERTEX
  5
D18D
  8
0
 62
7
 10
44.100349230451727
 20
60.583555598342251
 70
0
  0
VERTEX
  5
D18E
  8
0
 62
7
 10
44.100349230451727
 20
60.540836414325177
 70
0
  0
SEQEND
  5
D18F
  8
0
  0
POLYLINE
  5
D190
  8
0
 62
7
 66
1
 70
0
 10
0
 20
0
 30
0
  0
VERTEX
  5
D191
  8
0
 62
7
 10
44.819685167771908
 20
62.022055218208351
 70
0
  0
VERTEX
  5
D192
  8
0
 62
7
 10
44.819685167771908
 20
62.149179241614057
 70
0
  0
SEQEND
  5
D193
  8
0
  0
POLYLINE
  5
D194
  8
0
 62
7
 66
1
 70
0
 10
0
 20
0
 30
0
  0
VERTEX
  5
D195
  8
0
 62
7
 10
44.735624837931809
 20
60.498117230308047
 70
0
  0
VERTEX
  5
D196
  8
0
 62
7
 10
44.735624837931809
 20
60.160497872753609
 70
0
  0
SEQEND
  5
D197
  8
0
  0
POLYLINE
  5
D198
  8
0
 62
7
 66
1
 70
0
 10
0
 20
0
 30
0
  0
VERTEX
  5
D199
  8
0
 62
7
 10
44.735624837931809
 20
62.614783896445573
 70
0
  0
VERTEX
  5
D19A
  8
0
 62
7
 10
44.735624837931809
 20
62.19172617085686
 70
0
  0
SEQEND
  5
D19B
  8
0
  0
POLYLINE
  5
D19C
  8
0
 62
7
 66
1
 70
0
 10
0
 20
0
 30
0
  0
VERTEX
  5
D19D
  8
0
 62
7
 10
44.60746728588051
 20
62.107838095791038
 70
0
  0
VERTEX
  5
D19E
  8
0
 62
7
 10
44.60746728588051
 20
62.530895821379737
 70
0
  0
SEQEND
  5
D19F
  8
0
  0
POLYLINE
  5
D1A0
  8
0
 62
7
 66
1
 70
0
 10
0
 20
0
 30
0
  0
VERTEX
  5
D1A1
  8
0
 62
7
 10
44.60746728588051
 20
60.075059504719412
 70
0
  0
VERTEX
  5
D1A2
  8
0
 62
7
 10
44.60746728588051
 20
60.414229155242218
 70
0
  0
SEQEND
  5
D1A3
  8
0
  0
POLYLINE
  5
D1A4
  8
0
 62
7
 66
1
 70
0
 10
0
 20
0
 30
0
  0
VERTEX
  5
D1A5
  8
0
 62
7
 10
44.396627442183231
 20
61.768840700042482
 70
0
  0
VERTEX
  5
D1A6
  8
0
 62
7
 10
44.396627442183231
 20
61.895447959125391
 70
0
  0
SEQEND
  5
D1A7
  8
0
  0
POLYLINE
  5
D1A8
  8
0
 62
7
 66
1
 70
0
 10
0
 20
0
 30
0
  0
VERTEX
  5
D1A9
  8
0
 62
7
 10
44.269847928326037
 20
60.244558202593652
 70
0
  0
VERTEX
  5
D1AA
  8
0
 62
7
 10
44.269847928326037
 20
59.905388552070832
 70
0
  0
SEQEND
  5
D1AB
  8
0
  0
POLYLINE
  5
D1AC
  8
0
 62
7
 66
1
 70
0
 10
0
 20
0
 30
0
  0
VERTEX
  5
D1AD
  8
0
 62
7
 10
44.269847928326037
 20
62.361224868731171
 70
0
  0
VERTEX
  5
D1AE
  8
0
 62
7
 10
44.269847928326037
 20
61.938167143142522
 70
0
  0
SEQEND
  5
D1AF
  8
0
  0
POLYLINE
  5
D1B0
  8
0
 62
7
 66
1
 70
0
 10
0
 20
0
 30
0
  0
VERTEX
  5
D1B1
  8
0
 62
7
 10
44.141690376274717
 20
61.852728775108318
 70
0
  0
VERTEX
  5
D1B2
  8
0
 62
7
 10
44.141690376274717
 20
62.275786500696967
 70
0
  0
SEQEND
  5
D1B3
  8
0
  0
POLYLINE
  5
D1B4
  8
0
 62
7
 66
1
 70
0
 10
0
 20
0
 30
0
  0
VERTEX
  5
D1B5
  8
0
 62
7
 10
44.141690376274717
 20
59.821500477005
 70
0
  0
VERTEX
  5
D1B6
  8
0
 62
7
 10
44.141690376274717
 20
60.160497872753609
 70
0
  0
SEQEND
  5
D1B7
  8
0
  0
POLYLINE
  5
D1B8
  8
0
 62
7
 66
1
 70
0
 10
0
 20
0
 30
0
  0
VERTEX
  5
D1B9
  8
0
 62
7
 10
43.930850532577452
 20
61.472562488310949
 70
0
  0
VERTEX
  5
D1BA
  8
0
 62
7
 10
43.930850532577452
 20
61.599169747393923
 70
0
  0
SEQEND
  5
D1BB
  8
0
  0
POLYLINE
  5
D1BC
  8
0
 62
7
 66
1
 70
0
 10
0
 20
0
 30
0
  0
VERTEX
  5
D1BD
  8
0
 62
7
 10
43.845412164543262
 20
59.9481077360879
 70
0
  0
VERTEX
  5
D1BE
  8
0
 62
7
 10
43.845412164543262
 20
59.652174033904963
 70
0
  0
SEQEND
  5
D1BF
  8
0
  0
POLYLINE
  5
D1C0
  8
0
 62
7
 66
1
 70
0
 10
0
 20
0
 30
0
  0
VERTEX
  5
D1C1
  8
0
 62
7
 10
43.845412164543262
 20
62.107838095791038
 70
0
  0
VERTEX
  5
D1C2
  8
0
 62
7
 10
43.845412164543262
 20
61.683057822459737
 70
0
  0
SEQEND
  5
D1C3
  8
0
  0
POLYLINE
  5
D1C4
  8
0
 62
7
 66
1
 70
0
 10
0
 20
0
 30
0
  0
VERTEX
  5
D1C5
  8
0
 62
7
 10
43.718632650686047
 20
61.599169747393923
 70
0
  0
VERTEX
  5
D1C6
  8
0
 62
7
 10
43.718632650686047
 20
62.022055218208351
 70
0
  0
SEQEND
  5
D1C7
  8
0
  0
POLYLINE
  5
D1C8
  8
0
 62
7
 66
1
 70
0
 10
0
 20
0
 30
0
  0
VERTEX
  5
D1C9
  8
0
 62
7
 10
43.718632650686047
 20
59.56776919451633
 70
0
  0
VERTEX
  5
D1CA
  8
0
 62
7
 10
43.718632650686047
 20
59.905388552070832
 70
0
  0
SEQEND
  5
D1CB
  8
0
  0
POLYLINE
  5
D1CC
  8
0
 62
7
 66
1
 70
0
 10
0
 20
0
 30
0
  0
VERTEX
  5
D1CD
  8
0
 62
7
 10
42.618958171794318
 20
48.688157652097367
 70
0
  0
VERTEX
  5
D1CE
  8
0
 62
7
 10
42.660299317617323
 20
48.688157652097367
 70
0
  0
SEQEND
  5
D1CF
  8
0
  0
POLYLINE
  5
D1D0
  8
0
 62
7
 66
1
 70
0
 10
0
 20
0
 30
0
  0
VERTEX
  5
D1D1
  8
0
 62
7
 10
42.533519803760122
 20
48.688157652097367
 70
0
  0
VERTEX
  5
D1D2
  8
0
 62
7
 10
42.576238987777216
 20
48.645438468080243
 70
0
  0
SEQEND
  5
D1D3
  8
0
  0
POLYLINE
  5
D1D4
  8
0
 62
7
 66
1
 70
0
 10
0
 20
0
 30
0
  0
VERTEX
  5
D1D5
  8
0
 62
7
 10
49.645574923509869
 20
45.259943134725233
 70
0
  0
VERTEX
  5
D1D6
  8
0
 62
7
 10
49.983194281064371
 20
45.13281911131952
 70
0
  0
SEQEND
  5
D1D7
  8
0
  0
POLYLINE
  5
D1D8
  8
0
 62
7
 66
1
 70
0
 10
0
 20
0
 30
0
  0
VERTEX
  5
D1D9
  8
0
 62
7
 10
49.433357041618493
 20
45.343831209791091
 70
0
  0
VERTEX
  5
D1DA
  8
0
 62
7
 10
49.518795409652682
 20
45.302490063968087
 70
0
  0
SEQEND
  5
D1DB
  8
0
  0
POLYLINE
  5
D1DC
  8
0
 62
7
 66
1
 70
0
 10
0
 20
0
 30
0
  0
VERTEX
  5
D1DD
  8
0
 62
7
 10
43.591853136828881
 20
47.926102530760119
 70
0
  0
VERTEX
  5
D1DE
  8
0
 62
7
 10
43.634572320845948
 20
47.926102530760119
 70
0
  0
SEQEND
  5
D1DF
  8
0
  0
POLYLINE
  5
D1E0
  8
0
 62
7
 66
1
 70
0
 10
0
 20
0
 30
0
  0
VERTEX
  5
D1E1
  8
0
 62
7
 10
42.618958171794318
 20
58.677728775902068
 70
0
  0
VERTEX
  5
D1E2
  8
0
 62
7
 10
42.703018501634418
 20
58.720447959919142
 70
0
  0
SEQEND
  5
D1E3
  8
0
  0
POLYLINE
  5
D1E4
  8
0
 62
7
 66
1
 70
0
 10
0
 20
0
 30
0
  0
VERTEX
  5
D1E5
  8
0
 62
7
 10
55.232141762391009
 20
64.181441068362943
 70
0
  0
VERTEX
  5
D1E6
  8
0
 62
7
 10
55.31758013042522
 20
64.223126723734453
 70
0
  0
SEQEND
  5
D1E7
  8
0
  0
POLYLINE
  5
D1E8
  8
0
 62
7
 66
1
 70
0
 10
0
 20
0
 30
0
  0
VERTEX
  5
D1E9
  8
0
 62
7
 10
47.275349229657976
 20
61.429843304293883
 70
0
  0
VERTEX
  5
D1EA
  8
0
 62
7
 10
47.275349229657976
 20
61.472562488310949
 70
0
  0
SEQEND
  5
D1EB
  8
0
  0
POLYLINE
  5
D1EC
  8
0
 62
7
 66
1
 70
0
 10
0
 20
0
 30
0
  0
VERTEX
  5
D1ED
  8
0
 62
7
 10
39.317178658730882
 20
43.947878519167858
 70
0
  0
VERTEX
  5
D1EE
  8
0
 62
7
 10
39.317178658730882
 20
44.074485778250782
 70
0
  0
SEQEND
  5
D1EF
  8
0
  0
POLYLINE
  5
D1F0
  8
0
 62
7
 66
1
 70
0
 10
0
 20
0
 30
0
  0
VERTEX
  5
D1F1
  8
0
 62
7
 10
39.317178658730882
 20
44.836540899588037
 70
0
  0
VERTEX
  5
D1F2
  8
0
 62
7
 10
39.317178658730882
 20
44.920773484202407
 70
0
  0
SEQEND
  5
D1F3
  8
0
  0
POLYLINE
  5
D1F4
  8
0
 62
7
 66
1
 70
0
 10
0
 20
0
 30
0
  0
VERTEX
  5
D1F5
  8
0
 62
7
 10
43.804071018720258
 20
60.328790787208021
 70
0
  0
VERTEX
  5
D1F6
  8
0
 62
7
 10
43.804071018720258
 20
60.7105073669737
 70
0
  0
SEQEND
  5
D1F7
  8
0
  0
POLYLINE
  5
D1F8
  8
0
 62
7
 66
1
 70
0
 10
0
 20
0
 30
0
  0
VERTEX
  5
D1F9
  8
0
 62
7
 10
44.141690376274717
 20
49.111559887234563
 70
0
  0
VERTEX
  5
D1FA
  8
0
 62
7
 10
44.100349230451727
 20
48.349504765897308
 70
0
  0
VERTEX
  5
D1FB
  8
0
 62
7
 10
44.100349230451727
 20
48.222552997265858
 70
0
  0
VERTEX
  5
D1FC
  8
0
 62
7
 10
44.05763004643466
 20
48.222552997265858
 70
0
  0
VERTEX
  5
D1FD
  8
0
 62
7
 10
44.05763004643466
 20
48.181211851442839
 70
0
  0
VERTEX
  5
D1FE
  8
0
 62
7
 10
44.014910862417558
 20
48.181211851442839
 70
0
  0
VERTEX
  5
D1FF
  8
0
 62
7
 10
44.014910862417558
 20
48.138492667425758
 70
0
  0
SEQEND
  5
D200
  8
0
  0
POLYLINE
  5
D201
  8
0
 62
7
 66
1
 70
0
 10
0
 20
0
 30
0
  0
VERTEX
  5
D202
  8
0
 62
7
 10
55.74063785601389
 20
63.080388551277082
 70
0
  0
VERTEX
  5
D203
  8
0
 62
7
 10
55.6138583421567
 20
62.996500476211253
 70
0
  0
SEQEND
  5
D204
  8
0
  0
POLYLINE
  5
D205
  8
0
 62
7
 66
1
 70
0
 10
0
 20
0
 30
0
  0
VERTEX
  5
D206
  8
0
 62
7
 10
55.31758013042522
 20
63.7585555975485
 70
0
  0
VERTEX
  5
D207
  8
0
 62
7
 10
55.232141762391009
 20
63.715836413531441
 70
0
  0
SEQEND
  5
D208
  8
0
  0
POLYLINE
  5
D209
  8
0
 62
7
 66
1
 70
0
 10
0
 20
0
 30
0
  0
VERTEX
  5
D20A
  8
0
 62
7
 10
49.81507362138418
 20
46.444883726876917
 70
0
  0
VERTEX
  5
D20B
  8
0
 62
7
 10
55.8674173698711
 20
43.905159335150749
 70
0
  0
VERTEX
  5
D20C
  8
0
 62
7
 10
49.856414767207177
 20
46.402164542859822
 70
0
  0
SEQEND
  5
D20D
  8
0
  0
POLYLINE
  5
D20E
  8
0
 62
7
 66
1
 70
0
 10
0
 20
0
 30
0
  0
VERTEX
  5
D20F
  8
0
 62
7
 10
55.360299314442322
 20
61.0064410691567
 70
0
  0
VERTEX
  5
D210
  8
0
 62
7
 10
55.31758013042522
 20
61.0064410691567
 70
0
  0
SEQEND
  5
D211
  8
0
  0
POLYLINE
  5
D212
  8
0
 62
7
 66
1
 70
0
 10
0
 20
0
 30
0
  0
VERTEX
  5
D213
  8
0
 62
7
 10
56.79897118908265
 20
61.938167143142522
 70
0
  0
VERTEX
  5
D214
  8
0
 62
7
 10
55.783357040031
 20
61.345438464905243
 70
0
  0
SEQEND
  5
D215
  8
0
  0
POLYLINE
  5
D216
  8
0
 62
7
 66
1
 70
0
 10
0
 20
0
 30
0
  0
VERTEX
  5
D217
  8
0
 62
7
 10
57.011189070974027
 20
62.234445354873991
 70
0
  0
VERTEX
  5
D218
  8
0
 62
7
 10
55.697918671996788
 20
61.429843304293883
 70
0
  0
SEQEND
  5
D219
  8
0
  0
POLYLINE
  5
D21A
  8
0
 62
7
 66
1
 70
0
 10
0
 20
0
 30
0
  0
VERTEX
  5
D21B
  8
0
 62
7
 10
56.756252005065548
 20
62.530895821379737
 70
0
  0
VERTEX
  5
D21C
  8
0
 62
7
 10
55.571139158139587
 20
61.811559884059562
 70
0
  0
SEQEND
  5
D21D
  8
0
  0
POLYLINE
  5
D21E
  8
0
 62
7
 66
1
 70
0
 10
0
 20
0
 30
0
  0
VERTEX
  5
D21F
  8
0
 62
7
 10
39.486677356605149
 20
44.54060719740508
 70
0
  0
VERTEX
  5
D220
  8
0
 62
7
 10
39.443958172588083
 20
44.41365542877363
 70
0
  0
SEQEND
  5
D221
  8
0
  0
POLYLINE
  5
D222
  8
0
 62
7
 66
1
 70
0
 10
0
 20
0
 30
0
  0
VERTEX
  5
D223
  8
0
 62
7
 10
46.00479801469784
 20
41.577652825315958
 70
0
  0
VERTEX
  5
D224
  8
0
 62
7
 10
46.00479801469784
 20
41.661540900381787
 70
0
  0
SEQEND
  5
D225
  8
0
  0
POLYLINE
  5
D226
  8
0
 62
7
 66
1
 70
0
 10
0
 20
0
 30
0
  0
VERTEX
  5
D227
  8
0
 62
7
 10
46.217015896589253
 20
44.454824319822357
 70
0
  0
VERTEX
  5
D228
  8
0
 62
7
 10
46.217015896589253
 20
44.41365542877363
 70
0
  0
SEQEND
  5
D229
  8
0
  0
POLYLINE
  5
D22A
  8
0
 62
7
 66
1
 70
0
 10
0
 20
0
 30
0
  0
VERTEX
  5
D22B
  8
0
 62
7
 10
46.174296712572151
 20
62.82717403311122
 70
0
  0
VERTEX
  5
D22C
  8
0
 62
7
 10
46.174296712572151
 20
62.953781292194122
 70
0
  0
SEQEND
  5
D22D
  8
0
  0
POLYLINE
  5
D22E
  8
0
 62
7
 66
1
 70
0
 10
0
 20
0
 30
0
  0
VERTEX
  5
D22F
  8
0
 62
7
 10
46.047517198714949
 20
61.30289153566244
 70
0
  0
VERTEX
  5
D230
  8
0
 62
7
 10
46.047517198714949
 20
60.96372188513957
 70
0
  0
SEQEND
  5
D231
  8
0
  0
POLYLINE
  5
D232
  8
0
 62
7
 66
1
 70
0
 10
0
 20
0
 30
0
  0
VERTEX
  5
D233
  8
0
 62
7
 10
46.047517198714949
 20
63.4195582017999
 70
0
  0
VERTEX
  5
D234
  8
0
 62
7
 10
46.047517198714949
 20
62.996500476211253
 70
0
  0
SEQEND
  5
D235
  8
0
  0
POLYLINE
  5
D236
  8
0
 62
7
 66
1
 70
0
 10
0
 20
0
 30
0
  0
VERTEX
  5
D237
  8
0
 62
7
 10
45.920737684857741
 20
62.911062108177049
 70
0
  0
VERTEX
  5
D238
  8
0
 62
7
 10
45.920737684857741
 20
63.334119833765747
 70
0
  0
SEQEND
  5
D239
  8
0
  0
POLYLINE
  5
D23A
  8
0
 62
7
 66
1
 70
0
 10
0
 20
0
 30
0
  0
VERTEX
  5
D23B
  8
0
 62
7
 10
45.920737684857741
 20
60.879833810073727
 70
0
  0
VERTEX
  5
D23C
  8
0
 62
7
 10
45.920737684857741
 20
61.21883120582234
 70
0
  0
SEQEND
  5
D23D
  8
0
  0
POLYLINE
  5
D23E
  8
0
 62
7
 66
1
 70
0
 10
0
 20
0
 30
0
  0
VERTEX
  5
D23F
  8
0
 62
7
 10
45.708519802966357
 20
62.530895821379737
 70
0
  0
VERTEX
  5
D240
  8
0
 62
7
 10
45.708519802966357
 20
62.657503080462639
 70
0
  0
SEQEND
  5
D241
  8
0
  0
POLYLINE
  5
D242
  8
0
 62
7
 66
1
 70
0
 10
0
 20
0
 30
0
  0
VERTEX
  5
D243
  8
0
 62
7
 10
45.624459473126272
 20
61.0064410691567
 70
0
  0
VERTEX
  5
D244
  8
0
 62
7
 10
45.624459473126272
 20
60.7105073669737
 70
0
  0
SEQEND
  5
D245
  8
0
  0
POLYLINE
  5
D246
  8
0
 62
7
 66
1
 70
0
 10
0
 20
0
 30
0
  0
VERTEX
  5
D247
  8
0
 62
7
 10
45.624459473126272
 20
63.166171428859819
 70
0
  0
VERTEX
  5
D248
  8
0
 62
7
 10
45.624459473126272
 20
62.741391155528483
 70
0
  0
SEQEND
  5
D249
  8
0
  0
POLYLINE
  5
D24A
  8
0
 62
7
 66
1
 70
0
 10
0
 20
0
 30
0
  0
VERTEX
  5
D24B
  8
0
 62
7
 10
45.496301921074959
 20
62.657503080462639
 70
0
  0
VERTEX
  5
D24C
  8
0
 62
7
 10
45.496301921074959
 20
63.080388551277082
 70
0
  0
SEQEND
  5
D24D
  8
0
  0
POLYLINE
  5
D24E
  8
0
 62
7
 66
1
 70
0
 10
0
 20
0
 30
0
  0
VERTEX
  5
D24F
  8
0
 62
7
 10
45.496301921074959
 20
60.624724489391014
 70
0
  0
VERTEX
  5
D250
  8
0
 62
7
 10
45.496301921074959
 20
60.96372188513957
 70
0
  0
SEQEND
  5
D251
  8
0
  0
POLYLINE
  5
D252
  8
0
 62
7
 66
1
 70
0
 10
0
 20
0
 30
0
  0
VERTEX
  5
D253
  8
0
 62
7
 10
45.285462077377687
 20
62.275786500696967
 70
0
  0
VERTEX
  5
D254
  8
0
 62
7
 10
45.285462077377687
 20
62.403771797974031
 70
0
  0
SEQEND
  5
D255
  8
0
  0
POLYLINE
  5
D256
  8
0
 62
7
 66
1
 70
0
 10
0
 20
0
 30
0
  0
VERTEX
  5
D257
  8
0
 62
7
 10
45.158682563520493
 20
60.753226550990831
 70
0
  0
VERTEX
  5
D258
  8
0
 62
7
 10
45.158682563520493
 20
60.414229155242218
 70
0
  0
SEQEND
  5
D259
  8
0
  0
POLYLINE
  5
D25A
  8
0
 62
7
 66
1
 70
0
 10
0
 20
0
 30
0
  0
VERTEX
  5
D25B
  8
0
 62
7
 10
45.158682563520493
 20
62.868342924159968
 70
0
  0
VERTEX
  5
D25C
  8
0
 62
7
 10
45.158682563520493
 20
62.44545745334554
 70
0
  0
SEQEND
  5
D25D
  8
0
  0
POLYLINE
  5
D25E
  8
0
 62
7
 66
1
 70
0
 10
0
 20
0
 30
0
  0
VERTEX
  5
D25F
  8
0
 62
7
 10
45.031903049663292
 20
62.403771797974031
 70
0
  0
VERTEX
  5
D260
  8
0
 62
7
 10
45.031903049663292
 20
62.82717403311122
 70
0
  0
SEQEND
  5
D261
  8
0
  0
POLYLINE
  5
D262
  8
0
 62
7
 66
1
 70
0
 10
0
 20
0
 30
0
  0
VERTEX
  5
D263
  8
0
 62
7
 10
45.031903049663292
 20
60.371509971225152
 70
0
  0
VERTEX
  5
D264
  8
0
 62
7
 10
45.031903049663292
 20
60.667443673408087
 70
0
  0
SEQEND
  5
D265
  8
0
  0
POLYLINE
  5
D266
  8
0
 62
7
 66
1
 70
0
 10
0
 20
0
 30
0
  0
VERTEX
  5
D267
  8
0
 62
7
 10
43.634572320845948
 20
48.900547788763021
 70
0
  0
VERTEX
  5
D268
  8
0
 62
7
 10
43.507792806988782
 20
48.900547788763021
 70
0
  0
SEQEND
  5
D269
  8
0
  0
POLYLINE
  5
D26A
  8
0
 62
7
 66
1
 70
0
 10
0
 20
0
 30
0
  0
VERTEX
  5
D26B
  8
0
 62
7
 10
51.846301919487459
 20
49.6198837260832
 70
0
  0
VERTEX
  5
D26C
  8
0
 62
7
 10
51.803582735470393
 20
49.662602910100269
 70
0
  0
SEQEND
  5
D26D
  8
0
  0
POLYLINE
  5
D26E
  8
0
 62
7
 66
1
 70
0
 10
0
 20
0
 30
0
  0
VERTEX
  5
D26F
  8
0
 62
7
 10
51.423244193898789
 20
49.493276467000243
 70
0
  0
VERTEX
  5
D270
  8
0
 62
7
 10
51.041527614133109
 20
49.662602910100269
 70
0
  0
SEQEND
  5
D271
  8
0
  0
POLYLINE
  5
D272
  8
0
 62
7
 66
1
 70
0
 10
0
 20
0
 30
0
  0
VERTEX
  5
D273
  8
0
 62
7
 10
56.756252005065548
 20
61.049504762722307
 70
0
  0
VERTEX
  5
D274
  8
0
 62
7
 10
56.502692977351153
 20
60.879833810073727
 70
0
  0
SEQEND
  5
D275
  8
0
  0
POLYLINE
  5
D276
  8
0
 62
7
 66
1
 70
0
 10
0
 20
0
 30
0
  0
VERTEX
  5
D277
  8
0
 62
7
 10
55.444359644282422
 20
60.753226550990831
 70
0
  0
VERTEX
  5
D278
  8
0
 62
7
 10
55.31758013042522
 20
60.7105073669737
 70
0
  0
SEQEND
  5
D279
  8
0
  0
POLYLINE
  5
D27A
  8
0
 62
7
 66
1
 70
0
 10
0
 20
0
 30
0
  0
VERTEX
  5
D27B
  8
0
 62
7
 10
47.275349229657976
 20
61.429843304293883
 70
0
  0
VERTEX
  5
D27C
  8
0
 62
7
 10
46.9790710179265
 20
50.381938847420457
 70
0
  0
SEQEND
  5
D27D
  8
0
  0
POLYLINE
  5
D27E
  8
0
 62
7
 66
1
 70
0
 10
0
 20
0
 30
0
  0
VERTEX
  5
D27F
  8
0
 62
7
 10
46.9790710179265
 20
51.397552996472122
 70
0
  0
VERTEX
  5
D280
  8
0
 62
7
 10
47.189910861623808
 20
61.17611202180521
 70
0
  0
SEQEND
  5
D281
  8
0
  0
POLYLINE
  5
D282
  8
0
 62
7
 66
1
 70
0
 10
0
 20
0
 30
0
  0
VERTEX
  5
D283
  8
0
 62
7
 10
46.936351833909413
 20
51.440272180489181
 70
0
  0
VERTEX
  5
D284
  8
0
 62
7
 10
47.1471916776067
 20
61.21883120582234
 70
0
  0
SEQEND
  5
D285
  8
0
  0
POLYLINE
  5
D286
  8
0
 62
7
 66
1
 70
0
 10
0
 20
0
 30
0
  0
VERTEX
  5
D287
  8
0
 62
7
 10
47.486189073355277
 20
63.589229154448468
 70
0
  0
VERTEX
  5
D288
  8
0
 62
7
 10
47.486189073355277
 20
63.715836413531441
 70
0
  0
SEQEND
  5
D289
  8
0
  0
POLYLINE
  5
D28A
  8
0
 62
7
 66
1
 70
0
 10
0
 20
0
 30
0
  0
VERTEX
  5
D28B
  8
0
 62
7
 10
47.402128743515178
 20
62.064774402225417
 70
0
  0
VERTEX
  5
D28C
  8
0
 62
7
 10
47.402128743515178
 20
61.725777006476818
 70
0
  0
SEQEND
  5
D28D
  8
0
  0
POLYLINE
  5
D28E
  8
0
 62
7
 66
1
 70
0
 10
0
 20
0
 30
0
  0
VERTEX
  5
D28F
  8
0
 62
7
 10
47.402128743515178
 20
64.223126723734453
 70
0
  0
VERTEX
  5
D290
  8
0
 62
7
 10
47.402128743515178
 20
63.799724488597263
 70
0
  0
SEQEND
  5
D291
  8
0
  0
POLYLINE
  5
D292
  8
0
 62
7
 66
1
 70
0
 10
0
 20
0
 30
0
  0
VERTEX
  5
D293
  8
0
 62
7
 10
47.275349229657976
 20
63.715836413531441
 70
0
  0
VERTEX
  5
D294
  8
0
 62
7
 10
47.275349229657976
 20
64.138721884345813
 70
0
  0
SEQEND
  5
D295
  8
0
  0
POLYLINE
  5
D296
  8
0
 62
7
 66
1
 70
0
 10
0
 20
0
 30
0
  0
VERTEX
  5
D297
  8
0
 62
7
 10
47.275349229657976
 20
61.683057822459737
 70
0
  0
VERTEX
  5
D298
  8
0
 62
7
 10
47.275349229657976
 20
61.979508288965491
 70
0
  0
SEQEND
  5
D299
  8
0
  0
POLYLINE
  5
D29A
  8
0
 62
7
 66
1
 70
0
 10
0
 20
0
 30
0
  0
VERTEX
  5
D29B
  8
0
 62
7
 10
47.0631313477666
 20
63.334119833765747
 70
0
  0
VERTEX
  5
D29C
  8
0
 62
7
 10
47.0631313477666
 20
63.462105131042762
 70
0
  0
SEQEND
  5
D29D
  8
0
  0
POLYLINE
  5
D29E
  8
0
 62
7
 66
1
 70
0
 10
0
 20
0
 30
0
  0
VERTEX
  5
D29F
  8
0
 62
7
 10
46.936351833909413
 20
61.811559884059562
 70
0
  0
VERTEX
  5
D2A0
  8
0
 62
7
 10
46.936351833909413
 20
61.472562488310949
 70
0
  0
SEQEND
  5
D2A1
  8
0
  0
POLYLINE
  5
D2A2
  8
0
 62
7
 66
1
 70
0
 10
0
 20
0
 30
0
  0
VERTEX
  5
D2A3
  8
0
 62
7
 10
46.936351833909413
 20
63.926676257228713
 70
0
  0
VERTEX
  5
D2A4
  8
0
 62
7
 10
46.936351833909413
 20
63.503790786414271
 70
0
  0
SEQEND
  5
D2A5
  8
0
  0
POLYLINE
  5
D2A6
  8
0
 62
7
 66
1
 70
0
 10
0
 20
0
 30
0
  0
VERTEX
  5
D2A7
  8
0
 62
7
 10
46.8095723200522
 20
63.4195582017999
 70
0
  0
VERTEX
  5
D2A8
  8
0
 62
7
 10
46.8095723200522
 20
63.885507366179951
 70
0
  0
SEQEND
  5
D2A9
  8
0
  0
POLYLINE
  5
D2AA
  8
0
 62
7
 66
1
 70
0
 10
0
 20
0
 30
0
  0
VERTEX
  5
D2AB
  8
0
 62
7
 10
46.8095723200522
 20
61.387124120276809
 70
0
  0
VERTEX
  5
D2AC
  8
0
 62
7
 10
46.8095723200522
 20
61.725777006476818
 70
0
  0
SEQEND
  5
D2AD
  8
0
  0
POLYLINE
  5
D2AE
  8
0
 62
7
 66
1
 70
0
 10
0
 20
0
 30
0
  0
VERTEX
  5
D2AF
  8
0
 62
7
 10
46.597354438160821
 20
63.080388551277082
 70
0
  0
VERTEX
  5
D2B0
  8
0
 62
7
 10
46.597354438160821
 20
63.2075125746828
 70
0
  0
SEQEND
  5
D2B1
  8
0
  0
POLYLINE
  5
D2B2
  8
0
 62
7
 66
1
 70
0
 10
0
 20
0
 30
0
  0
VERTEX
  5
D2B3
  8
0
 62
7
 10
46.513294108320721
 20
61.556450563376842
 70
0
  0
VERTEX
  5
D2B4
  8
0
 62
7
 10
46.513294108320721
 20
61.21883120582234
 70
0
  0
SEQEND
  5
D2B5
  8
0
  0
POLYLINE
  5
D2B6
  8
0
 62
7
 66
1
 70
0
 10
0
 20
0
 30
0
  0
VERTEX
  5
D2B7
  8
0
 62
7
 10
46.513294108320721
 20
63.673117229514311
 70
0
  0
VERTEX
  5
D2B8
  8
0
 62
7
 10
46.513294108320721
 20
63.250059503925648
 70
0
  0
SEQEND
  5
D2B9
  8
0
  0
POLYLINE
  5
D2BA
  8
0
 62
7
 66
1
 70
0
 10
0
 20
0
 30
0
  0
VERTEX
  5
D2BB
  8
0
 62
7
 10
46.386514594463527
 20
63.166171428859819
 70
0
  0
VERTEX
  5
D2BC
  8
0
 62
7
 10
46.386514594463527
 20
63.589229154448468
 70
0
  0
SEQEND
  5
D2BD
  8
0
  0
POLYLINE
  5
D2BE
  8
0
 62
7
 66
1
 70
0
 10
0
 20
0
 30
0
  0
VERTEX
  5
D2BF
  8
0
 62
7
 10
46.386514594463527
 20
61.133392837788129
 70
0
  0
VERTEX
  5
D2C0
  8
0
 62
7
 10
46.386514594463527
 20
61.472562488310949
 70
0
  0
SEQEND
  5
D2C1
  8
0
  0
POLYLINE
  5
D2C2
  8
0
 62
7
 66
1
 70
0
 10
0
 20
0
 30
0
  0
VERTEX
  5
D2C3
  8
0
 62
7
 10
52.312078829093238
 20
49.450557282983169
 70
0
  0
VERTEX
  5
D2C4
  8
0
 62
7
 10
53.2009134642877
 20
49.111559887234563
 70
0
  0
VERTEX
  5
D2C5
  8
0
 62
7
 10
52.312078829093238
 20
49.493276467000243
 70
0
  0
SEQEND
  5
D2C6
  8
0
  0
POLYLINE
  5
D2C7
  8
0
 62
7
 66
1
 70
0
 10
0
 20
0
 30
0
  0
VERTEX
  5
D2C8
  8
0
 62
7
 10
57.264748098688429
 20
59.778781292987873
 70
0
  0
VERTEX
  5
D2C9
  8
0
 62
7
 10
55.40164046026532
 20
58.636559884853312
 70
0
  0
SEQEND
  5
D2CA
  8
0
  0
POLYLINE
  5
D2CB
  8
0
 62
7
 66
1
 70
0
 10
0
 20
0
 30
0
  0
VERTEX
  5
D2CC
  8
0
 62
7
 10
39.317178658730882
 20
44.793821715570942
 70
0
  0
VERTEX
  5
D2CD
  8
0
 62
7
 10
39.401238988570967
 20
44.879604593153658
 70
0
  0
SEQEND
  5
D2CE
  8
0
  0
POLYLINE
  5
D2CF
  8
0
 62
7
 66
1
 70
0
 10
0
 20
0
 30
0
  0
VERTEX
  5
D2D0
  8
0
 62
7
 10
48.75674028831542
 20
61.938167143142522
 70
0
  0
VERTEX
  5
D2D1
  8
0
 62
7
 10
48.75674028831542
 20
65.409445354080248
 70
0
  0
SEQEND
  5
D2D2
  8
0
  0
POLYLINE
  5
D2D3
  8
0
 62
7
 66
1
 70
0
 10
0
 20
0
 30
0
  0
VERTEX
  5
D2D4
  8
0
 62
7
 10
48.078745496818271
 20
63.589229154448468
 70
0
  0
VERTEX
  5
D2D5
  8
0
 62
7
 10
48.078745496818271
 20
64.985009590297437
 70
0
  0
SEQEND
  5
D2D6
  8
0
  0
POLYLINE
  5
D2D7
  8
0
 62
7
 66
1
 70
0
 10
0
 20
0
 30
0
  0
VERTEX
  5
D2D8
  8
0
 62
7
 10
48.078745496818271
 20
61.895447959125391
 70
0
  0
VERTEX
  5
D2D9
  8
0
 62
7
 10
48.078745496818271
 20
62.82717403311122
 70
0
  0
SEQEND
  5
D2DA
  8
0
  0
POLYLINE
  5
D2DB
  8
0
 62
7
 66
1
 70
0
 10
0
 20
0
 30
0
  0
VERTEX
  5
D2DC
  8
0
 62
7
 10
47.951965982961063
 20
63.885507366179951
 70
0
  0
VERTEX
  5
D2DD
  8
0
 62
7
 10
47.951965982961063
 20
64.308392836994386
 70
0
  0
SEQEND
  5
D2DE
  8
0
  0
POLYLINE
  5
D2DF
  8
0
 62
7
 66
1
 70
0
 10
0
 20
0
 30
0
  0
VERTEX
  5
D2E0
  8
0
 62
7
 10
47.951965982961063
 20
61.895447959125391
 70
0
  0
VERTEX
  5
D2E1
  8
0
 62
7
 10
47.951965982961063
 20
62.149179241614057
 70
0
  0
SEQEND
  5
D2E2
  8
0
  0
POLYLINE
  5
D2E3
  8
0
 62
7
 66
1
 70
0
 10
0
 20
0
 30
0
  0
VERTEX
  5
D2E4
  8
0
 62
7
 10
47.698406955246661
 20
63.969395441245773
 70
0
  0
VERTEX
  5
D2E5
  8
0
 62
7
 10
47.698406955246661
 20
64.392453166834486
 70
0
  0
SEQEND
  5
D2E6
  8
0
  0
POLYLINE
  5
D2E7
  8
0
 62
7
 66
1
 70
0
 10
0
 20
0
 30
0
  0
VERTEX
  5
D2E8
  8
0
 62
7
 10
47.698406955246661
 20
61.852728775108318
 70
0
  0
VERTEX
  5
D2E9
  8
0
 62
7
 10
47.698406955246661
 20
62.275786500696967
 70
0
  0
SEQEND
  5
D2EA
  8
0
  0
POLYLINE
  5
D2EB
  8
0
 62
7
 66
1
 70
0
 10
0
 20
0
 30
0
  0
VERTEX
  5
D2EC
  8
0
 62
7
 10
46.936351833909413
 20
51.440272180489181
 70
0
  0
VERTEX
  5
D2ED
  8
0
 62
7
 10
46.9790710179265
 20
51.397552996472122
 70
0
  0
SEQEND
  5
D2EE
  8
0
  0
POLYLINE
  5
D2EF
  8
0
 62
7
 66
1
 70
0
 10
0
 20
0
 30
0
  0
VERTEX
  5
D2F0
  8
0
 62
7
 10
46.8095723200522
 20
51.185507369354951
 70
0
  0
VERTEX
  5
D2F1
  8
0
 62
7
 10
46.8095723200522
 20
51.143821713983442
 70
0
  0
SEQEND
  5
D2F2
  8
0
  0
POLYLINE
  5
D2F3
  8
0
 62
7
 66
1
 70
0
 10
0
 20
0
 30
0
  0
VERTEX
  5
D2F4
  8
0
 62
7
 10
57.348808428528507
 20
59.778781292987873
 70
0
  0
VERTEX
  5
D2F5
  8
0
 62
7
 10
57.264748098688429
 20
59.7360621089708
 70
0
  0
VERTEX
  5
D2F6
  8
0
 62
7
 10
57.264748098688429
 20
59.694893217922044
 70
0
  0
SEQEND
  5
D2F7
  8
0
  0
POLYLINE
  5
D2F8
  8
0
 62
7
 66
1
 70
0
 10
0
 20
0
 30
0
  0
VERTEX
  5
D2F9
  8
0
 62
7
 10
56.163695581602582
 20
58.254843305087633
 70
0
  0
VERTEX
  5
D2FA
  8
0
 62
7
 10
56.418632647511053
 20
58.424169748187673
 70
0
  0
SEQEND
  5
D2FB
  8
0
  0
POLYLINE
  5
D2FC
  8
0
 62
7
 66
1
 70
0
 10
0
 20
0
 30
0
  0
VERTEX
  5
D2FD
  8
0
 62
7
 10
55.40164046026532
 20
58.085172352439059
 70
0
  0
VERTEX
  5
D2FE
  8
0
 62
7
 10
57.687805824277113
 20
59.4825030812564
 70
0
  0
SEQEND
  5
D2FF
  8
0
  0
POLYLINE
  5
D300
  8
0
 62
7
 66
1
 70
0
 10
0
 20
0
 30
0
  0
VERTEX
  5
D301
  8
0
 62
7
 10
57.730525008294222
 20
59.525222265273527
 70
0
  0
VERTEX
  5
D302
  8
0
 62
7
 10
58.999698185060247
 20
60.287105131836512
 70
0
  0
SEQEND
  5
D303
  8
0
  0
POLYLINE
  5
D304
  8
0
 62
7
 66
1
 70
0
 10
0
 20
0
 30
0
  0
VERTEX
  5
D305
  8
0
 62
7
 10
57.348808428528507
 20
59.609110340339349
 70
0
  0
VERTEX
  5
D306
  8
0
 62
7
 10
55.40164046026532
 20
58.466888932204732
 70
0
  0
SEQEND
  5
D307
  8
0
  0
POLYLINE
  5
D308
  8
0
 62
7
 66
1
 70
0
 10
0
 20
0
 30
0
  0
VERTEX
  5
D309
  8
0
 62
7
 10
43.507792806988782
 20
48.900547788763021
 70
0
  0
VERTEX
  5
D30A
  8
0
 62
7
 10
43.46507362297168
 20
48.900547788763021
 70
0
  0
VERTEX
  5
D30B
  8
0
 62
7
 10
43.422354438954571
 20
48.85782860474589
 70
0
  0
VERTEX
  5
D30C
  8
0
 62
7
 10
43.381013293131581
 20
48.85782860474589
 70
0
  0
SEQEND
  5
D30D
  8
0
  0
POLYLINE
  5
D30E
  8
0
 62
7
 66
1
 70
0
 10
0
 20
0
 30
0
  0
VERTEX
  5
D30F
  8
0
 62
7
 10
58.407141761597259
 20
58.677728775902068
 70
0
  0
VERTEX
  5
D310
  8
0
 62
7
 10
58.069522404042793
 20
58.466888932204732
 70
0
  0
SEQEND
  5
D311
  8
0
  0
POLYLINE
  5
D312
  8
0
 62
7
 66
1
 70
0
 10
0
 20
0
 30
0
  0
VERTEX
  5
D313
  8
0
 62
7
 10
58.915637855220147
 20
59.01672617165061
 70
0
  0
VERTEX
  5
D314
  8
0
 62
7
 10
58.576640459471562
 20
58.805886327953338
 70
0
  0
SEQEND
  5
D315
  8
0
  0
POLYLINE
  5
D316
  8
0
 62
7
 66
1
 70
0
 10
0
 20
0
 30
0
  0
VERTEX
  5
D317
  8
0
 62
7
 10
56.249133949636779
 20
57.620773481027392
 70
0
  0
VERTEX
  5
D318
  8
0
 62
7
 10
55.444359644282422
 20
57.154824316647328
 70
0
  0
SEQEND
  5
D319
  8
0
  0
POLYLINE
  5
D31A
  8
0
 62
7
 66
1
 70
0
 10
0
 20
0
 30
0
  0
VERTEX
  5
D31B
  8
0
 62
7
 10
59.085136553094451
 20
59.313176638156371
 70
0
  0
VERTEX
  5
D31C
  8
0
 62
7
 10
56.502692977351153
 20
57.788721885933313
 70
0
  0
SEQEND
  5
D31D
  8
0
  0
POLYLINE
  5
D31E
  8
0
 62
7
 66
1
 70
0
 10
0
 20
0
 30
0
  0
VERTEX
  5
D31F
  8
0
 62
7
 10
56.163695581602582
 20
57.747552994884607
 70
0
  0
VERTEX
  5
D320
  8
0
 62
7
 10
55.40164046026532
 20
57.3231172311018
 70
0
  0
SEQEND
  5
D321
  8
0
  0
POLYLINE
  5
D322
  8
0
 62
7
 66
1
 70
0
 10
0
 20
0
 30
0
  0
VERTEX
  5
D323
  8
0
 62
7
 10
58.999698185060247
 20
59.439783897239323
 70
0
  0
VERTEX
  5
D324
  8
0
 62
7
 10
56.418632647511053
 20
57.917223947533131
 70
0
  0
SEQEND
  5
D325
  8
0
  0
POLYLINE
  5
D326
  8
0
 62
7
 66
1
 70
0
 10
0
 20
0
 30
0
  0
VERTEX
  5
D327
  8
0
 62
7
 10
49.729635253349969
 20
67.694060425123638
 70
0
  0
VERTEX
  5
D328
  8
0
 62
7
 10
49.729635253349969
 20
67.524733982023662
 70
0
  0
SEQEND
  5
D329
  8
0
  0
POLYLINE
  5
D32A
  8
0
 62
7
 66
1
 70
0
 10
0
 20
0
 30
0
  0
VERTEX
  5
D32B
  8
0
 62
7
 10
49.686916069332867
 20
67.483392836200636
 70
0
  0
VERTEX
  5
D32C
  8
0
 62
7
 10
49.686916069332867
 20
67.0605073653862
 70
0
  0
SEQEND
  5
D32D
  8
0
  0
POLYLINE
  5
D32E
  8
0
 62
7
 66
1
 70
0
 10
0
 20
0
 30
0
  0
VERTEX
  5
D32F
  8
0
 62
7
 10
49.518795409652682
 20
67.567453166040735
 70
0
  0
VERTEX
  5
D330
  8
0
 62
7
 10
49.518795409652682
 20
67.101676256434956
 70
0
  0
SEQEND
  5
D331
  8
0
  0
POLYLINE
  5
D332
  8
0
 62
7
 66
1
 70
0
 10
0
 20
0
 30
0
  0
VERTEX
  5
D333
  8
0
 62
7
 10
53.4544724920021
 20
49.873442753797541
 70
0
  0
VERTEX
  5
D334
  8
0
 62
7
 10
55.40164046026532
 20
49.027155047845923
 70
0
  0
SEQEND
  5
D335
  8
0
  0
POLYLINE
  5
D336
  8
0
 62
7
 66
1
 70
0
 10
0
 20
0
 30
0
  0
VERTEX
  5
D337
  8
0
 62
7
 10
52.099860947201869
 20
49.789554678731719
 70
0
  0
VERTEX
  5
D338
  8
0
 62
7
 10
51.762241589647388
 20
49.916161937814671
 70
0
  0
SEQEND
  5
D339
  8
0
  0
POLYLINE
  5
D33A
  8
0
 62
7
 66
1
 70
0
 10
0
 20
0
 30
0
  0
VERTEX
  5
D33B
  8
0
 62
7
 10
53.413131346179107
 20
49.873442753797541
 70
0
  0
VERTEX
  5
D33C
  8
0
 62
7
 10
53.4544724920021
 20
49.873442753797541
 70
0
  0
SEQEND
  5
D33D
  8
0
  0
POLYLINE
  5
D33E
  8
0
 62
7
 66
1
 70
0
 10
0
 20
0
 30
0
  0
VERTEX
  5
D33F
  8
0
 62
7
 10
56.629472491208347
 20
57.492443674201837
 70
0
  0
VERTEX
  5
D340
  8
0
 62
7
 10
56.883031518922728
 20
57.620773481027392
 70
0
  0
VERTEX
  5
D341
  8
0
 62
7
 10
57.011189070974027
 20
57.704833810867477
 70
0
  0
SEQEND
  5
D342
  8
0
  0
POLYLINE
  5
D343
  8
0
 62
7
 66
1
 70
0
 10
0
 20
0
 30
0
  0
VERTEX
  5
D344
  8
0
 62
7
 10
55.8260762240481
 20
54.656441070744187
 70
0
  0
VERTEX
  5
D345
  8
0
 62
7
 10
55.783357040031
 20
54.615272179695431
 70
0
  0
SEQEND
  5
D346
  8
0
  0
POLYLINE
  5
D347
  8
0
 62
7
 66
1
 70
0
 10
0
 20
0
 30
0
  0
VERTEX
  5
D348
  8
0
 62
7
 10
42.660299317617323
 20
48.688157652097367
 70
0
  0
VERTEX
  5
D349
  8
0
 62
7
 10
46.8095723200522
 20
51.143821713983442
 70
0
  0
SEQEND
  5
D34A
  8
0
  0
POLYLINE
  5
D34B
  8
0
 62
7
 66
1
 70
0
 10
0
 20
0
 30
0
  0
VERTEX
  5
D34C
  8
0
 62
7
 10
57.30746728270551
 20
57.451102528378868
 70
0
  0
VERTEX
  5
D34D
  8
0
 62
7
 10
57.434246796562711
 20
57.492443674201837
 70
0
  0
SEQEND
  5
D34E
  8
0
  0
POLYLINE
  5
D34F
  8
0
 62
7
 66
1
 70
0
 10
0
 20
0
 30
0
  0
VERTEX
  5
D350
  8
0
 62
7
 10
56.92575070293983
 20
57.1965099720189
 70
0
  0
VERTEX
  5
D351
  8
0
 62
7
 10
57.052530216797031
 20
57.281776085278828
 70
0
  0
SEQEND
  5
D352
  8
0
  0
POLYLINE
  5
D353
  8
0
 62
7
 66
1
 70
0
 10
0
 20
0
 30
0
  0
VERTEX
  5
D354
  8
0
 62
7
 10
42.618958171794318
 20
48.688157652097367
 70
0
  0
VERTEX
  5
D355
  8
0
 62
7
 10
46.8095723200522
 20
51.185507369354951
 70
0
  0
SEQEND
  5
D356
  8
0
  0
POLYLINE
  5
D357
  8
0
 62
7
 66
1
 70
0
 10
0
 20
0
 30
0
  0
VERTEX
  5
D358
  8
0
 62
7
 10
56.92575070293983
 20
57.281776085278828
 70
0
  0
VERTEX
  5
D359
  8
0
 62
7
 10
57.348808428528507
 20
57.535507367767451
 70
0
  0
SEQEND
  5
D35A
  8
0
  0
POLYLINE
  5
D35B
  8
0
 62
7
 66
1
 70
0
 10
0
 20
0
 30
0
  0
VERTEX
  5
D35C
  8
0
 62
7
 10
56.629472491208347
 20
57.451102528378868
 70
0
  0
VERTEX
  5
D35D
  8
0
 62
7
 10
56.502692977351153
 20
57.365836415118928
 70
0
  0
SEQEND
  5
D35E
  8
0
  0
POLYLINE
  5
D35F
  8
0
 62
7
 66
1
 70
0
 10
0
 20
0
 30
0
  0
VERTEX
  5
D360
  8
0
 62
7
 10
52.820574922716119
 20
50.974495270883409
 70
0
  0
VERTEX
  5
D361
  8
0
 62
7
 10
53.413131346179107
 20
50.720936243169007
 70
0
  0
VERTEX
  5
D362
  8
0
 62
7
 10
53.581252005859312
 20
50.63549787513486
 70
0
  0
SEQEND
  5
D363
  8
0
  0
POLYLINE
  5
D364
  8
0
 62
7
 66
1
 70
0
 10
0
 20
0
 30
0
  0
VERTEX
  5
D365
  8
0
 62
7
 10
52.651076224841852
 20
51.01721445490054
 70
0
  0
VERTEX
  5
D366
  8
0
 62
7
 10
52.820574922716119
 20
50.974495270883409
 70
0
  0
VERTEX
  5
D367
  8
0
 62
7
 10
53.413131346179107
 20
50.720936243169007
 70
0
  0
SEQEND
  5
D368
  8
0
  0
POLYLINE
  5
D369
  8
0
 62
7
 66
1
 70
0
 10
0
 20
0
 30
0
  0
VERTEX
  5
D36A
  8
0
 62
7
 10
43.507792806988782
 20
47.884933639711363
 70
0
  0
VERTEX
  5
D36B
  8
0
 62
7
 10
43.549133952811779
 20
47.884933639711363
 70
0
  0
SEQEND
  5
D36C
  8
0
  0
POLYLINE
  5
D36D
  8
0
 62
7
 66
1
 70
0
 10
0
 20
0
 30
0
  0
VERTEX
  5
D36E
  8
0
 62
7
 10
55.190800616568019
 20
64.35111202101146
 70
0
  0
VERTEX
  5
D36F
  8
0
 62
7
 10
55.232141762391009
 20
64.392453166834486
 70
0
  0
SEQEND
  5
D370
  8
0
  0
POLYLINE
  5
D371
  8
0
 62
7
 66
1
 70
0
 10
0
 20
0
 30
0
  0
VERTEX
  5
D372
  8
0
 62
7
 10
51.507304523738881
 20
53.005895823760987
 70
0
  0
VERTEX
  5
D373
  8
0
 62
7
 10
51.507304523738881
 20
49.873442753797541
 70
0
  0
SEQEND
  5
D374
  8
0
  0
POLYLINE
  5
D375
  8
0
 62
7
 66
1
 70
0
 10
0
 20
0
 30
0
  0
VERTEX
  5
D376
  8
0
 62
7
 10
51.126965982167313
 20
53.091161937020921
 70
0
  0
VERTEX
  5
D377
  8
0
 62
7
 10
51.169685166184422
 20
49.703771801149031
 70
0
  0
SEQEND
  5
D378
  8
0
  0
POLYLINE
  5
D379
  8
0
 62
7
 66
1
 70
0
 10
0
 20
0
 30
0
  0
VERTEX
  5
D37A
  8
0
 62
7
 10
50.957467284293
 20
53.091161937020921
 70
0
  0
VERTEX
  5
D37B
  8
0
 62
7
 10
51.041527614133109
 20
49.662602910100269
 70
0
  0
SEQEND
  5
D37C
  8
0
  0
POLYLINE
  5
D37D
  8
0
 62
7
 66
1
 70
0
 10
0
 20
0
 30
0
  0
VERTEX
  5
D37E
  8
0
 62
7
 10
51.634084037596089
 20
49.493276467000243
 70
0
  0
VERTEX
  5
D37F
  8
0
 62
7
 10
51.676803221613191
 20
47.842214455694283
 70
0
  0
SEQEND
  5
D380
  8
0
  0
POLYLINE
  5
D381
  8
0
 62
7
 66
1
 70
0
 10
0
 20
0
 30
0
  0
VERTEX
  5
D382
  8
0
 62
7
 10
51.465963377915891
 20
49.493276467000243
 70
0
  0
VERTEX
  5
D383
  8
0
 62
7
 10
51.507304523738881
 20
47.842214455694283
 70
0
  0
SEQEND
  5
D384
  8
0
  0
POLYLINE
  5
D385
  8
0
 62
7
 66
1
 70
0
 10
0
 20
0
 30
0
  0
VERTEX
  5
D386
  8
0
 62
7
 10
52.904635252556218
 20
52.03282860395214
 70
0
  0
VERTEX
  5
D387
  8
0
 62
7
 10
53.3276929781449
 20
51.8204384672865
 70
0
  0
SEQEND
  5
D388
  8
0
  0
POLYLINE
  5
D389
  8
0
 62
7
 66
1
 70
0
 10
0
 20
0
 30
0
  0
VERTEX
  5
D38A
  8
0
 62
7
 10
53.709409557910583
 20
51.609943133137762
 70
0
  0
VERTEX
  5
D38B
  8
0
 62
7
 10
54.089748099482193
 20
51.440272180489181
 70
0
  0
SEQEND
  5
D38C
  8
0
  0
POLYLINE
  5
D38D
  8
0
 62
7
 66
1
 70
0
 10
0
 20
0
 30
0
  0
VERTEX
  5
D38E
  8
0
 62
7
 10
52.312078829093238
 20
52.202155047052173
 70
0
  0
VERTEX
  5
D38F
  8
0
 62
7
 10
52.52429671098465
 20
52.116888933792239
 70
0
  0
SEQEND
  5
D390
  8
0
  0
POLYLINE
  5
D391
  8
0
 62
7
 66
1
 70
0
 10
0
 20
0
 30
0
  0
VERTEX
  5
D392
  8
0
 62
7
 10
52.861916068539117
 20
51.863157651303631
 70
0
  0
VERTEX
  5
D393
  8
0
 62
7
 10
53.158194280270621
 20
51.736550392220657
 70
0
  0
SEQEND
  5
D394
  8
0
  0
POLYLINE
  5
D395
  8
0
 62
7
 66
1
 70
0
 10
0
 20
0
 30
0
  0
VERTEX
  5
D396
  8
0
 62
7
 10
52.651076224841852
 20
51.8204384672865
 70
0
  0
VERTEX
  5
D397
  8
0
 62
7
 10
52.692417370664849
 20
51.779269576237787
 70
0
  0
SEQEND
  5
D398
  8
0
  0
POLYLINE
  5
D399
  8
0
 62
7
 66
1
 70
0
 10
0
 20
0
 30
0
  0
VERTEX
  5
D39A
  8
0
 62
7
 10
43.845412164543262
 20
48.900547788763021
 70
0
  0
VERTEX
  5
D39B
  8
0
 62
7
 10
43.634572320845948
 20
48.900547788763021
 70
0
  0
SEQEND
  5
D39C
  8
0
  0
POLYLINE
  5
D39D
  8
0
 62
7
 66
1
 70
0
 10
0
 20
0
 30
0
  0
VERTEX
  5
D39E
  8
0
 62
7
 10
51.126965982167313
 20
53.091161937020921
 70
0
  0
VERTEX
  5
D39F
  8
0
 62
7
 10
51.253745496024507
 20
53.175222266861027
 70
0
  0
SEQEND
  5
D3A0
  8
0
  0
POLYLINE
  5
D3A1
  8
0
 62
7
 66
1
 70
0
 10
0
 20
0
 30
0
  0
VERTEX
  5
D3A2
  8
0
 62
7
 10
60.184811031986179
 20
57.662114626850411
 70
0
  0
VERTEX
  5
D3A3
  8
0
 62
7
 10
61.073645667180642
 20
58.213157649716123
 70
0
  0
SEQEND
  5
D3A4
  8
0
  0
POLYLINE
  5
D3A5
  8
0
 62
7
 66
1
 70
0
 10
0
 20
0
 30
0
  0
VERTEX
  5
D3A6
  8
0
 62
7
 10
63.572028913083827
 20
59.905388552070832
 70
0
  0
VERTEX
  5
D3A7
  8
0
 62
7
 10
63.445249399226633
 20
59.821500477005
 70
0
  0
SEQEND
  5
D3A8
  8
0
  0
POLYLINE
  5
D3A9
  8
0
 62
7
 66
1
 70
0
 10
0
 20
0
 30
0
  0
VERTEX
  5
D3AA
  8
0
 62
7
 10
60.736026309626162
 20
58.381450564170592
 70
0
  0
VERTEX
  5
D3AB
  8
0
 62
7
 10
59.804472490414611
 20
57.831441069950444
 70
0
  0
SEQEND
  5
D3AC
  8
0
  0
POLYLINE
  5
D3AD
  8
0
 62
7
 66
1
 70
0
 10
0
 20
0
 30
0
  0
VERTEX
  5
D3AE
  8
0
 62
7
 10
63.275750701352329
 20
59.905388552070832
 70
0
  0
VERTEX
  5
D3AF
  8
0
 62
7
 10
63.148971187495157
 20
59.821500477005
 70
0
  0
SEQEND
  5
D3B0
  8
0
  0
POLYLINE
  5
D3B1
  8
0
 62
7
 66
1
 70
0
 10
0
 20
0
 30
0
  0
VERTEX
  5
D3B2
  8
0
 62
7
 10
56.79897118908265
 20
56.0964909835786
 70
0
  0
VERTEX
  5
D3B3
  8
0
 62
7
 10
56.629472491208347
 20
55.9698837244957
 70
0
  0
SEQEND
  5
D3B4
  8
0
  0
POLYLINE
  5
D3B5
  8
0
 62
7
 66
1
 70
0
 10
0
 20
0
 30
0
  0
VERTEX
  5
D3B6
  8
0
 62
7
 10
60.946866153323462
 20
58.550777007270568
 70
0
  0
VERTEX
  5
D3B7
  8
0
 62
7
 10
60.777367455449159
 20
58.466888932204732
 70
0
  0
SEQEND
  5
D3B8
  8
0
  0
POLYLINE
  5
D3B9
  8
0
 62
7
 66
1
 70
0
 10
0
 20
0
 30
0
  0
VERTEX
  5
D3BA
  8
0
 62
7
 10
56.586753307191252
 20
56.138176638950107
 70
0
  0
VERTEX
  5
D3BB
  8
0
 62
7
 10
56.545412161368247
 20
56.0964909835786
 70
0
  0
SEQEND
  5
D3BC
  8
0
  0
POLYLINE
  5
D3BD
  8
0
 62
7
 66
1
 70
0
 10
0
 20
0
 30
0
  0
VERTEX
  5
D3BE
  8
0
 62
7
 10
60.86280582348337
 20
58.677728775902068
 70
0
  0
VERTEX
  5
D3BF
  8
0
 62
7
 10
60.777367455449159
 20
58.636559884853312
 70
0
  0
SEQEND
  5
D3C0
  8
0
  0
POLYLINE
  5
D3C1
  8
0
 62
7
 66
1
 70
0
 10
0
 20
0
 30
0
  0
VERTEX
  5
D3C2
  8
0
 62
7
 10
46.131577528555049
 20
50.042769196897581
 70
0
  0
VERTEX
  5
D3C3
  8
0
 62
7
 10
46.343795410446418
 20
50.128207564931778
 70
0
  0
SEQEND
  5
D3C4
  8
0
  0
POLYLINE
  5
D3C5
  8
0
 62
7
 66
1
 70
0
 10
0
 20
0
 30
0
  0
VERTEX
  5
D3C6
  8
0
 62
7
 10
59.508194278683128
 20
58.424169748187673
 70
0
  0
VERTEX
  5
D3C7
  8
0
 62
7
 10
59.8471916744317
 20
58.636559884853312
 70
0
  0
SEQEND
  5
D3C8
  8
0
  0
POLYLINE
  5
D3C9
  8
0
 62
7
 66
1
 70
0
 10
0
 20
0
 30
0
  0
VERTEX
  5
D3CA
  8
0
 62
7
 10
59.042417369077349
 20
58.170438465698993
 70
0
  0
VERTEX
  5
D3CB
  8
0
 62
7
 10
59.295976396791723
 20
58.2975624891047
 70
0
  0
SEQEND
  5
D3CC
  8
0
  0
POLYLINE
  5
D3CD
  8
0
 62
7
 66
1
 70
0
 10
0
 20
0
 30
0
  0
VERTEX
  5
D3CE
  8
0
 62
7
 10
60.058031518128978
 20
58.8470552190021
 70
0
  0
VERTEX
  5
D3CF
  8
0
 62
7
 10
60.143469886163182
 20
58.889774403019182
 70
0
  0
SEQEND
  5
D3D0
  8
0
  0
POLYLINE
  5
D3D1
  8
0
 62
7
 66
1
 70
0
 10
0
 20
0
 30
0
  0
VERTEX
  5
D3D2
  8
0
 62
7
 10
55.8674173698711
 20
56.350222266067277
 70
0
  0
VERTEX
  5
D3D3
  8
0
 62
7
 10
55.952855737905267
 20
56.39276919531008
 70
0
  0
SEQEND
  5
D3D4
  8
0
  0
POLYLINE
  5
D3D5
  8
0
 62
7
 66
1
 70
0
 10
0
 20
0
 30
0
  0
VERTEX
  5
D3D6
  8
0
 62
7
 10
59.9312520042718
 20
58.805886327953338
 70
0
  0
VERTEX
  5
D3D7
  8
0
 62
7
 10
60.100750702146073
 20
58.889774403019182
 70
0
  0
SEQEND
  5
D3D8
  8
0
  0
POLYLINE
  5
D3D9
  8
0
 62
7
 66
1
 70
0
 10
0
 20
0
 30
0
  0
VERTEX
  5
D3DA
  8
0
 62
7
 10
55.783357040031
 20
56.350222266067277
 70
0
  0
VERTEX
  5
D3DB
  8
0
 62
7
 10
55.952855737905267
 20
56.4341103411331
 70
0
  0
SEQEND
  5
D3DC
  8
0
  0
POLYLINE
  5
D3DD
  8
0
 62
7
 66
1
 70
0
 10
0
 20
0
 30
0
  0
VERTEX
  5
D3DE
  8
0
 62
7
 10
56.629472491208347
 20
56.8588906144644
 70
0
  0
VERTEX
  5
D3DF
  8
0
 62
7
 10
56.375913463493951
 20
56.68921966181582
 70
0
  0
SEQEND
  5
D3E0
  8
0
  0
POLYLINE
  5
D3E1
  8
0
 62
7
 66
1
 70
0
 10
0
 20
0
 30
0
  0
VERTEX
  5
D3E2
  8
0
 62
7
 10
57.095249400814133
 20
57.112105132630262
 70
0
  0
VERTEX
  5
D3E3
  8
0
 62
7
 10
56.883031518922728
 20
56.985497873547352
 70
0
  0
SEQEND
  5
D3E4
  8
0
  0
POLYLINE
  5
D3E5
  8
0
 62
7
 66
1
 70
0
 10
0
 20
0
 30
0
  0
VERTEX
  5
D3E6
  8
0
 62
7
 10
57.941364851991487
 20
57.620773481027392
 70
0
  0
VERTEX
  5
D3E7
  8
0
 62
7
 10
57.645086640260011
 20
57.451102528378868
 70
0
  0
SEQEND
  5
D3E8
  8
0
  0
POLYLINE
  5
D3E9
  8
0
 62
7
 66
1
 70
0
 10
0
 20
0
 30
0
  0
VERTEX
  5
D3EA
  8
0
 62
7
 10
57.222028914671341
 20
57.239229156035982
 70
0
  0
VERTEX
  5
D3EB
  8
0
 62
7
 10
57.475587942385708
 20
57.365836415118928
 70
0
  0
SEQEND
  5
D3EC
  8
0
  0
POLYLINE
  5
D3ED
  8
0
 62
7
 66
1
 70
0
 10
0
 20
0
 30
0
  0
VERTEX
  5
D3EE
  8
0
 62
7
 10
44.311189074149027
 20
49.407838098966039
 70
0
  0
VERTEX
  5
D3EF
  8
0
 62
7
 10
44.269847928326037
 20
49.36615244359453
 70
0
  0
VERTEX
  5
D3F0
  8
0
 62
7
 10
44.227128744308928
 20
49.323605514351662
 70
0
  0
VERTEX
  5
D3F1
  8
0
 62
7
 10
44.184409560291833
 20
49.2808863303346
 70
0
  0
VERTEX
  5
D3F2
  8
0
 62
7
 10
44.184409560291833
 20
49.238167146317522
 70
0
  0
VERTEX
  5
D3F3
  8
0
 62
7
 10
44.141690376274717
 20
49.1968260004945
 70
0
  0
VERTEX
  5
D3F4
  8
0
 62
7
 10
44.141690376274717
 20
49.111559887234563
 70
0
  0
SEQEND
  5
D3F5
  8
0
  0
POLYLINE
  5
D3F6
  8
0
 62
7
 66
1
 70
0
 10
0
 20
0
 30
0
  0
VERTEX
  5
D3F7
  8
0
 62
7
 10
51.762241589647388
 20
52.794883725289452
 70
0
  0
VERTEX
  5
D3F8
  8
0
 62
7
 10
52.312078829093238
 20
52.582838098172282
 70
0
  0
SEQEND
  5
D3F9
  8
0
  0
POLYLINE
  5
D3FA
  8
0
 62
7
 66
1
 70
0
 10
0
 20
0
 30
0
  0
VERTEX
  5
D3FB
  8
0
 62
7
 10
52.269359645076172
 20
52.668276466206493
 70
0
  0
VERTEX
  5
D3FC
  8
0
 62
7
 10
51.846301919487459
 20
52.836224871112421
 70
0
  0
VERTEX
  5
D3FD
  8
0
 62
7
 10
52.228018499253182
 20
52.668276466206493
 70
0
  0
SEQEND
  5
D3FE
  8
0
  0
POLYLINE
  5
D3FF
  8
0
 62
7
 66
1
 70
0
 10
0
 20
0
 30
0
  0
VERTEX
  5
D400
  8
0
 62
7
 10
53.3276929781449
 20
52.329106815683673
 70
0
  0
VERTEX
  5
D401
  8
0
 62
7
 10
52.904635252556218
 20
52.498605513557919
 70
0
  0
SEQEND
  5
D402
  8
0
  0
POLYLINE
  5
D403
  8
0
 62
7
 66
1
 70
0
 10
0
 20
0
 30
0
  0
VERTEX
  5
D404
  8
0
 62
7
 10
53.4544724920021
 20
52.243840702423739
 70
0
  0
VERTEX
  5
D405
  8
0
 62
7
 10
53.581252005859312
 20
52.159435863035092
 70
0
  0
SEQEND
  5
D406
  8
0
  0
POLYLINE
  5
D407
  8
0
 62
7
 66
1
 70
0
 10
0
 20
0
 30
0
  0
VERTEX
  5
D408
  8
0
 62
7
 10
52.396139158933337
 20
52.668276466206493
 70
0
  0
VERTEX
  5
D409
  8
0
 62
7
 10
52.52429671098465
 20
52.625557282189412
 70
0
  0
SEQEND
  5
D40A
  8
0
  0
POLYLINE
  5
D40B
  8
0
 62
7
 66
1
 70
0
 10
0
 20
0
 30
0
  0
VERTEX
  5
D40C
  8
0
 62
7
 10
53.497191676019213
 20
52.202155047052173
 70
0
  0
VERTEX
  5
D40D
  8
0
 62
7
 10
53.666690373893481
 20
52.116888933792239
 70
0
  0
SEQEND
  5
D40E
  8
0
  0
POLYLINE
  5
D40F
  8
0
 62
7
 66
1
 70
0
 10
0
 20
0
 30
0
  0
VERTEX
  5
D410
  8
0
 62
7
 10
52.438858342950446
 20
52.625557282189412
 70
0
  0
VERTEX
  5
D411
  8
0
 62
7
 10
52.60835704082475
 20
52.582838098172282
 70
0
  0
SEQEND
  5
D412
  8
0
  0
POLYLINE
  5
D413
  8
0
 62
7
 66
1
 70
0
 10
0
 20
0
 30
0
  0
VERTEX
  5
D414
  8
0
 62
7
 10
51.337805825864613
 20
53.175222266861027
 70
0
  0
VERTEX
  5
D415
  8
0
 62
7
 10
51.592742891773092
 20
53.048442753003791
 70
0
  0
VERTEX
  5
D416
  8
0
 62
7
 10
51.296464680041609
 20
53.175222266861027
 70
0
  0
SEQEND
  5
D417
  8
0
  0
POLYLINE
  5
D418
  8
0
 62
7
 66
1
 70
0
 10
0
 20
0
 30
0
  0
VERTEX
  5
D419
  8
0
 62
7
 10
52.396139158933337
 20
52.668276466206493
 70
0
  0
VERTEX
  5
D41A
  8
0
 62
7
 10
52.269359645076172
 20
52.625557282189412
 70
0
  0
SEQEND
  5
D41B
  8
0
  0
POLYLINE
  5
D41C
  8
0
 62
7
 66
1
 70
0
 10
0
 20
0
 30
0
  0
VERTEX
  5
D41D
  8
0
 62
7
 10
52.651076224841852
 20
51.906221344869238
 70
0
  0
VERTEX
  5
D41E
  8
0
 62
7
 10
52.904635252556218
 20
52.03282860395214
 70
0
  0
SEQEND
  5
D41F
  8
0
  0
POLYLINE
  5
D420
  8
0
 62
7
 66
1
 70
0
 10
0
 20
0
 30
0
  0
VERTEX
  5
D421
  8
0
 62
7
 10
52.735136554681951
 20
51.779269576237787
 70
0
  0
VERTEX
  5
D422
  8
0
 62
7
 10
52.651076224841852
 20
51.736550392220657
 70
0
  0
SEQEND
  5
D423
  8
0
  0
POLYLINE
  5
D424
  8
0
 62
7
 66
1
 70
0
 10
0
 20
0
 30
0
  0
VERTEX
  5
D425
  8
0
 62
7
 10
52.735136554681951
 20
51.863157651303631
 70
0
  0
VERTEX
  5
D426
  8
0
 62
7
 10
52.692417370664849
 20
51.8204384672865
 70
0
  0
SEQEND
  5
D427
  8
0
  0
POLYLINE
  5
D428
  8
0
 62
7
 66
1
 70
0
 10
0
 20
0
 30
0
  0
VERTEX
  5
D429
  8
0
 62
7
 10
52.438858342950446
 20
52.625557282189412
 70
0
  0
VERTEX
  5
D42A
  8
0
 62
7
 10
52.438858342950446
 20
52.159435863035092
 70
0
  0
SEQEND
  5
D42B
  8
0
  0
POLYLINE
  5
D42C
  8
0
 62
7
 66
1
 70
0
 10
0
 20
0
 30
0
  0
VERTEX
  5
D42D
  8
0
 62
7
 10
52.904635252556218
 20
52.03282860395214
 70
0
  0
VERTEX
  5
D42E
  8
0
 62
7
 10
52.904635252556218
 20
52.498605513557919
 70
0
  0
SEQEND
  5
D42F
  8
0
  0
POLYLINE
  5
D430
  8
0
 62
7
 66
1
 70
0
 10
0
 20
0
 30
0
  0
VERTEX
  5
D431
  8
0
 62
7
 10
52.820574922716119
 20
50.974495270883409
 70
0
  0
VERTEX
  5
D432
  8
0
 62
7
 10
52.861916068539117
 20
50.974495270883409
 70
0
  0
SEQEND
  5
D433
  8
0
  0
POLYLINE
  5
D434
  8
0
 62
7
 66
1
 70
0
 10
0
 20
0
 30
0
  0
VERTEX
  5
D435
  8
0
 62
7
 10
52.651076224841852
 20
51.906221344869238
 70
0
  0
VERTEX
  5
D436
  8
0
 62
7
 10
52.651076224841852
 20
51.01721445490054
 70
0
  0
SEQEND
  5
D437
  8
0
  0
POLYLINE
  5
D438
  8
0
 62
7
 66
1
 70
0
 10
0
 20
0
 30
0
  0
VERTEX
  5
D439
  8
0
 62
7
 10
52.60835704082475
 20
52.582838098172282
 70
0
  0
VERTEX
  5
D43A
  8
0
 62
7
 10
52.60835704082475
 20
52.03282860395214
 70
0
  0
SEQEND
  5
D43B
  8
0
  0
POLYLINE
  5
D43C
  8
0
 62
7
 66
1
 70
0
 10
0
 20
0
 30
0
  0
VERTEX
  5
D43D
  8
0
 62
7
 10
52.312078829093238
 20
47.71560719661133
 70
0
  0
VERTEX
  5
D43E
  8
0
 62
7
 10
52.312078829093238
 20
52.582838098172282
 70
0
  0
SEQEND
  5
D43F
  8
0
  0
POLYLINE
  5
D440
  8
0
 62
7
 66
1
 70
0
 10
0
 20
0
 30
0
  0
VERTEX
  5
D441
  8
0
 62
7
 10
52.099860947201869
 20
47.756776087660093
 70
0
  0
VERTEX
  5
D442
  8
0
 62
7
 10
52.099860947201869
 20
49.789554678731719
 70
0
  0
SEQEND
  5
D443
  8
0
  0
POLYLINE
  5
D444
  8
0
 62
7
 66
1
 70
0
 10
0
 20
0
 30
0
  0
VERTEX
  5
D445
  8
0
 62
7
 10
51.762241589647388
 20
52.794883725289452
 70
0
  0
VERTEX
  5
D446
  8
0
 62
7
 10
51.762241589647388
 20
49.916161937814671
 70
0
  0
SEQEND
  5
D447
  8
0
  0
POLYLINE
  5
D448
  8
0
 62
7
 66
1
 70
0
 10
0
 20
0
 30
0
  0
VERTEX
  5
D449
  8
0
 62
7
 10
52.312078829093238
 20
52.582838098172282
 70
0
  0
VERTEX
  5
D44A
  8
0
 62
7
 10
52.269359645076172
 20
52.668276466206493
 70
0
  0
SEQEND
  5
D44B
  8
0
  0
POLYLINE
  5
D44C
  8
0
 62
7
 66
1
 70
0
 10
0
 20
0
 30
0
  0
VERTEX
  5
D44D
  8
0
 62
7
 10
51.507304523738881
 20
53.005895823760987
 70
0
  0
VERTEX
  5
D44E
  8
0
 62
7
 10
51.337805825864613
 20
53.175222266861027
 70
0
  0
SEQEND
  5
D44F
  8
0
  0
POLYLINE
  5
D450
  8
0
 62
7
 66
1
 70
0
 10
0
 20
0
 30
0
  0
VERTEX
  5
D451
  8
0
 62
7
 10
51.846301919487459
 20
52.836224871112421
 70
0
  0
VERTEX
  5
D452
  8
0
 62
7
 10
51.592742891773092
 20
53.048442753003791
 70
0
  0
SEQEND
  5
D453
  8
0
  0
POLYLINE
  5
D454
  8
0
 62
7
 66
1
 70
0
 10
0
 20
0
 30
0
  0
VERTEX
  5
D455
  8
0
 62
7
 10
54.005687769642087
 20
50.931776086866343
 70
0
  0
VERTEX
  5
D456
  8
0
 62
7
 10
53.962968585624978
 20
50.974495270883409
 70
0
  0
SEQEND
  5
D457
  8
0
  0
POLYLINE
  5
D458
  8
0
 62
7
 66
1
 70
0
 10
0
 20
0
 30
0
  0
VERTEX
  5
D459
  8
0
 62
7
 10
53.2849737941278
 20
52.371825999700746
 70
0
  0
VERTEX
  5
D45A
  8
0
 62
7
 10
53.3276929781449
 20
52.329106815683673
 70
0
  0
SEQEND
  5
D45B
  8
0
  0
POLYLINE
  5
D45C
  8
0
 62
7
 66
1
 70
0
 10
0
 20
0
 30
0
  0
VERTEX
  5
D45D
  8
0
 62
7
 10
52.52429671098465
 20
52.625557282189412
 70
0
  0
VERTEX
  5
D45E
  8
0
 62
7
 10
52.60835704082475
 20
52.582838098172282
 70
0
  0
SEQEND
  5
D45F
  8
0
  0
POLYLINE
  5
D460
  8
0
 62
7
 66
1
 70
0
 10
0
 20
0
 30
0
  0
VERTEX
  5
D461
  8
0
 62
7
 10
52.438858342950446
 20
52.625557282189412
 70
0
  0
VERTEX
  5
D462
  8
0
 62
7
 10
52.396139158933337
 20
52.668276466206493
 70
0
  0
SEQEND
  5
D463
  8
0
  0
POLYLINE
  5
D464
  8
0
 62
7
 66
1
 70
0
 10
0
 20
0
 30
0
  0
VERTEX
  5
D465
  8
0
 62
7
 10
53.581252005859312
 20
52.159435863035092
 70
0
  0
VERTEX
  5
D466
  8
0
 62
7
 10
53.666690373893481
 20
52.116888933792239
 70
0
  0
SEQEND
  5
D467
  8
0
  0
POLYLINE
  5
D468
  8
0
 62
7
 66
1
 70
0
 10
0
 20
0
 30
0
  0
VERTEX
  5
D469
  8
0
 62
7
 10
53.497191676019213
 20
52.202155047052173
 70
0
  0
VERTEX
  5
D46A
  8
0
 62
7
 10
53.4544724920021
 20
52.243840702423739
 70
0
  0
SEQEND
  5
D46B
  8
0
  0
POLYLINE
  5
D46C
  8
0
 62
7
 66
1
 70
0
 10
0
 20
0
 30
0
  0
VERTEX
  5
D46D
  8
0
 62
7
 10
52.904635252556218
 20
52.498605513557919
 70
0
  0
VERTEX
  5
D46E
  8
0
 62
7
 10
52.820574922716119
 20
52.539774404606668
 70
0
  0
SEQEND
  5
D46F
  8
0
  0
POLYLINE
  5
D470
  8
0
 62
7
 66
1
 70
0
 10
0
 20
0
 30
0
  0
VERTEX
  5
D471
  8
0
 62
7
 10
52.228018499253182
 20
52.668276466206493
 70
0
  0
VERTEX
  5
D472
  8
0
 62
7
 10
52.269359645076172
 20
52.668276466206493
 70
0
  0
SEQEND
  5
D473
  8
0
  0
POLYLINE
  5
D474
  8
0
 62
7
 66
1
 70
0
 10
0
 20
0
 30
0
  0
VERTEX
  5
D475
  8
0
 62
7
 10
51.337805825864613
 20
53.175222266861027
 70
0
  0
VERTEX
  5
D476
  8
0
 62
7
 10
51.296464680041609
 20
53.175222266861027
 70
0
  0
SEQEND
  5
D477
  8
0
  0
POLYLINE
  5
D478
  8
0
 62
7
 66
1
 70
0
 10
0
 20
0
 30
0
  0
VERTEX
  5
D479
  8
0
 62
7
 10
51.592742891773092
 20
53.048442753003791
 70
0
  0
VERTEX
  5
D47A
  8
0
 62
7
 10
51.634084037596089
 20
53.048442753003791
 70
0
  0
SEQEND
  5
D47B
  8
0
  0
POLYLINE
  5
D47C
  8
0
 62
7
 66
1
 70
0
 10
0
 20
0
 30
0
  0
VERTEX
  5
D47D
  8
0
 62
7
 10
53.2849737941278
 20
52.371825999700746
 70
0
  0
VERTEX
  5
D47E
  8
0
 62
7
 10
52.820574922716119
 20
52.539774404606668
 70
0
  0
SEQEND
  5
D47F
  8
0
  0
POLYLINE
  5
D480
  8
0
 62
7
 66
1
 70
0
 10
0
 20
0
 30
0
  0
VERTEX
  5
D481
  8
0
 62
7
 10
62.38691606615788
 20
57.917223947533131
 70
0
  0
VERTEX
  5
D482
  8
0
 62
7
 10
61.243144365054938
 20
57.239229156035982
 70
0
  0
VERTEX
  5
D483
  8
0
 62
7
 10
62.470976395997972
 20
57.958392838581887
 70
0
  0
SEQEND
  5
D484
  8
0
  0
POLYLINE
  5
D485
  8
0
 62
7
 66
1
 70
0
 10
0
 20
0
 30
0
  0
VERTEX
  5
D486
  8
0
 62
7
 10
53.413131346179107
 20
50.720936243169007
 70
0
  0
VERTEX
  5
D487
  8
0
 62
7
 10
53.4544724920021
 20
50.720936243169007
 70
0
  0
SEQEND
  5
D488
  8
0
  0
POLYLINE
  5
D489
  8
0
 62
7
 66
1
 70
0
 10
0
 20
0
 30
0
  0
VERTEX
  5
D48A
  8
0
 62
7
 10
53.3276929781449
 20
51.8204384672865
 70
0
  0
VERTEX
  5
D48B
  8
0
 62
7
 10
53.3276929781449
 20
52.329106815683673
 70
0
  0
SEQEND
  5
D48C
  8
0
  0
POLYLINE
  5
D48D
  8
0
 62
7
 66
1
 70
0
 10
0
 20
0
 30
0
  0
VERTEX
  5
D48E
  8
0
 62
7
 10
53.666690373893481
 20
52.116888933792239
 70
0
  0
VERTEX
  5
D48F
  8
0
 62
7
 10
53.666690373893481
 20
51.609943133137762
 70
0
  0
SEQEND
  5
D490
  8
0
  0
POLYLINE
  5
D491
  8
0
 62
7
 66
1
 70
0
 10
0
 20
0
 30
0
  0
VERTEX
  5
D492
  8
0
 62
7
 10
53.243632648304811
 20
51.693831208203591
 70
0
  0
VERTEX
  5
D493
  8
0
 62
7
 10
53.243632648304811
 20
51.779269576237787
 70
0
  0
SEQEND
  5
D494
  8
0
  0
POLYLINE
  5
D495
  8
0
 62
7
 66
1
 70
0
 10
0
 20
0
 30
0
  0
VERTEX
  5
D496
  8
0
 62
7
 10
52.820574922716119
 20
50.974495270883409
 70
0
  0
VERTEX
  5
D497
  8
0
 62
7
 10
52.735136554681951
 20
51.779269576237787
 70
0
  0
SEQEND
  5
D498
  8
0
  0
POLYLINE
  5
D499
  8
0
 62
7
 66
1
 70
0
 10
0
 20
0
 30
0
  0
VERTEX
  5
D49A
  8
0
 62
7
 10
52.735136554681951
 20
51.01721445490054
 70
0
  0
VERTEX
  5
D49B
  8
0
 62
7
 10
52.651076224841852
 20
51.736550392220657
 70
0
  0
SEQEND
  5
D49C
  8
0
  0
POLYLINE
  5
D49D
  8
0
 62
7
 66
1
 70
0
 10
0
 20
0
 30
0
  0
VERTEX
  5
D49E
  8
0
 62
7
 10
52.396139158933337
 20
47.71560719661133
 70
0
  0
VERTEX
  5
D49F
  8
0
 62
7
 10
52.312078829093238
 20
48.222552997265858
 70
0
  0
SEQEND
  5
D4A0
  8
0
  0
POLYLINE
  5
D4A1
  8
0
 62
7
 66
1
 70
0
 10
0
 20
0
 30
0
  0
VERTEX
  5
D4A2
  8
0
 62
7
 10
54.30196598137357
 20
52.202155047052173
 70
0
  0
VERTEX
  5
D4A3
  8
0
 62
7
 10
54.34330712719656
 20
52.159435863035092
 70
0
  0
SEQEND
  5
D4A4
  8
0
  0
POLYLINE
  5
D4A5
  8
0
 62
7
 66
1
 70
0
 10
0
 20
0
 30
0
  0
VERTEX
  5
D4A6
  8
0
 62
7
 10
53.3276929781449
 20
52.202155047052173
 70
0
  0
VERTEX
  5
D4A7
  8
0
 62
7
 10
53.4544724920021
 20
52.243840702423739
 70
0
  0
SEQEND
  5
D4A8
  8
0
  0
POLYLINE
  5
D4A9
  8
0
 62
7
 66
1
 70
0
 10
0
 20
0
 30
0
  0
VERTEX
  5
D4AA
  8
0
 62
7
 10
52.60835704082475
 20
52.455886329540853
 70
0
  0
VERTEX
  5
D4AB
  8
0
 62
7
 10
52.820574922716119
 20
52.539774404606668
 70
0
  0
SEQEND
  5
D4AC
  8
0
  0
POLYLINE
  5
D4AD
  8
0
 62
7
 66
1
 70
0
 10
0
 20
0
 30
0
  0
VERTEX
  5
D4AE
  8
0
 62
7
 10
53.497191676019213
 20
52.202155047052173
 70
0
  0
VERTEX
  5
D4AF
  8
0
 62
7
 10
53.497191676019213
 20
50.678217059151933
 70
0
  0
VERTEX
  5
D4B0
  8
0
 62
7
 10
53.497191676019213
 20
51.481441071537937
 70
0
  0
SEQEND
  5
D4B1
  8
0
  0
POLYLINE
  5
D4B2
  8
0
 62
7
 66
1
 70
0
 10
0
 20
0
 30
0
  0
VERTEX
  5
D4B3
  8
0
 62
7
 10
51.169685166184422
 20
49.703771801149031
 70
0
  0
VERTEX
  5
D4B4
  8
0
 62
7
 10
51.507304523738881
 20
49.873442753797541
 70
0
  0
SEQEND
  5
D4B5
  8
0
  0
POLYLINE
  5
D4B6
  8
0
 62
7
 66
1
 70
0
 10
0
 20
0
 30
0
  0
VERTEX
  5
D4B7
  8
0
 62
7
 10
51.423244193898789
 20
49.493276467000243
 70
0
  0
VERTEX
  5
D4B8
  8
0
 62
7
 10
51.634084037596089
 20
49.6198837260832
 70
0
  0
SEQEND
  5
D4B9
  8
0
  0
POLYLINE
  5
D4BA
  8
0
 62
7
 66
1
 70
0
 10
0
 20
0
 30
0
  0
VERTEX
  5
D4BB
  8
0
 62
7
 10
52.820574922716119
 20
50.974495270883409
 70
0
  0
VERTEX
  5
D4BC
  8
0
 62
7
 10
52.861916068539117
 20
50.974495270883409
 70
0
  0
SEQEND
  5
D4BD
  8
0
  0
POLYLINE
  5
D4BE
  8
0
 62
7
 66
1
 70
0
 10
0
 20
0
 30
0
  0
VERTEX
  5
D4BF
  8
0
 62
7
 10
53.2009134642877
 20
51.736550392220657
 70
0
  0
VERTEX
  5
D4C0
  8
0
 62
7
 10
53.3276929781449
 20
51.8204384672865
 70
0
  0
SEQEND
  5
D4C1
  8
0
  0
POLYLINE
  5
D4C2
  8
0
 62
7
 66
1
 70
0
 10
0
 20
0
 30
0
  0
VERTEX
  5
D4C3
  8
0
 62
7
 10
52.820574922716119
 20
50.974495270883409
 70
0
  0
VERTEX
  5
D4C4
  8
0
 62
7
 10
52.861916068539117
 20
50.974495270883409
 70
0
  0
SEQEND
  5
D4C5
  8
0
  0
POLYLINE
  5
D4C6
  8
0
 62
7
 66
1
 70
0
 10
0
 20
0
 30
0
  0
VERTEX
  5
D4C7
  8
0
 62
7
 10
58.788858341362939
 20
58.04383120661609
 70
0
  0
VERTEX
  5
D4C8
  8
0
 62
7
 10
58.830199487185943
 20
58.085172352439059
 70
0
  0
SEQEND
  5
D4C9
  8
0
  0
POLYLINE
  5
D4CA
  8
0
 62
7
 66
1
 70
0
 10
0
 20
0
 30
0
  0
VERTEX
  5
D4CB
  8
0
 62
7
 10
58.576640459471562
 20
58.213157649716123
 70
0
  0
VERTEX
  5
D4CC
  8
0
 62
7
 10
58.619359643488671
 20
58.254843305087633
 70
0
  0
SEQEND
  5
D4CD
  8
0
  0
POLYLINE
  5
D4CE
  8
0
 62
7
 66
1
 70
0
 10
0
 20
0
 30
0
  0
VERTEX
  5
D4CF
  8
0
 62
7
 10
58.533921275454468
 20
58.254843305087633
 70
0
  0
VERTEX
  5
D4D0
  8
0
 62
7
 10
58.576640459471562
 20
58.340109418347559
 70
0
  0
SEQEND
  5
D4D1
  8
0
  0
POLYLINE
  5
D4D2
  8
0
 62
7
 66
1
 70
0
 10
0
 20
0
 30
0
  0
VERTEX
  5
D4D3
  8
0
 62
7
 10
58.449860945614368
 20
58.254843305087633
 70
0
  0
VERTEX
  5
D4D4
  8
0
 62
7
 10
55.8674173698711
 20
54.6995047643098
 70
0
  0
SEQEND
  5
D4D5
  8
0
  0
POLYLINE
  5
D4D6
  8
0
 62
7
 66
1
 70
0
 10
0
 20
0
 30
0
  0
VERTEX
  5
D4D7
  8
0
 62
7
 10
58.407141761597259
 20
58.2975624891047
 70
0
  0
VERTEX
  5
D4D8
  8
0
 62
7
 10
55.8260762240481
 20
54.742223948326881
 70
0
  0
SEQEND
  5
D4D9
  8
0
  0
POLYLINE
  5
D4DA
  8
0
 62
7
 66
1
 70
0
 10
0
 20
0
 30
0
  0
VERTEX
  5
D4DB
  8
0
 62
7
 10
53.4544724920021
 20
49.873442753797541
 70
0
  0
VERTEX
  5
D4DC
  8
0
 62
7
 10
52.820574922716119
 20
47.587105135011512
 70
0
  0
SEQEND
  5
D4DD
  8
0
  0
POLYLINE
  5
D4DE
  8
0
 62
7
 66
1
 70
0
 10
0
 20
0
 30
0
  0
VERTEX
  5
D4DF
  8
0
 62
7
 10
53.413131346179107
 20
49.873442753797541
 70
0
  0
VERTEX
  5
D4E0
  8
0
 62
7
 10
52.777855738699017
 20
47.629824319028579
 70
0
  0
SEQEND
  5
D4E1
  8
0
  0
POLYLINE
  5
D4E2
  8
0
 62
7
 66
1
 70
0
 10
0
 20
0
 30
0
  0
VERTEX
  5
D4E3
  8
0
 62
7
 10
54.047028915465077
 20
65.789783895651823
 70
0
  0
VERTEX
  5
D4E4
  8
0
 62
7
 10
54.047028915465077
 20
65.916391154734725
 70
0
  0
SEQEND
  5
D4E5
  8
0
  0
POLYLINE
  5
D4E6
  8
0
 62
7
 66
1
 70
0
 10
0
 20
0
 30
0
  0
VERTEX
  5
D4E7
  8
0
 62
7
 10
53.581252005859312
 20
51.524504765103558
 70
0
  0
VERTEX
  5
D4E8
  8
0
 62
7
 10
53.581252005859312
 20
50.63549787513486
 70
0
  0
SEQEND
  5
D4E9
  8
0
  0
POLYLINE
  5
D4EA
  8
0
 62
7
 66
1
 70
0
 10
0
 20
0
 30
0
  0
VERTEX
  5
D4EB
  8
0
 62
7
 10
51.634084037596089
 20
49.493276467000243
 70
0
  0
VERTEX
  5
D4EC
  8
0
 62
7
 10
51.846301919487459
 20
49.6198837260832
 70
0
  0
VERTEX
  5
D4ED
  8
0
 62
7
 10
52.099860947201869
 20
49.789554678731719
 70
0
  0
SEQEND
  5
D4EE
  8
0
  0
POLYLINE
  5
D4EF
  8
0
 62
7
 66
1
 70
0
 10
0
 20
0
 30
0
  0
VERTEX
  5
D4F0
  8
0
 62
7
 10
56.418632647511053
 20
57.917223947533131
 70
0
  0
VERTEX
  5
D4F1
  8
0
 62
7
 10
56.418632647511053
 20
58.424169748187673
 70
0
  0
SEQEND
  5
D4F2
  8
0
  0
POLYLINE
  5
D4F3
  8
0
 62
7
 66
1
 70
0
 10
0
 20
0
 30
0
  0
VERTEX
  5
D4F4
  8
0
 62
7
 10
56.418632647511053
 20
60.921174955896753
 70
0
  0
VERTEX
  5
D4F5
  8
0
 62
7
 10
56.459973793334051
 20
60.921174955896753
 70
0
  0
SEQEND
  5
D4F6
  8
0
  0
POLYLINE
  5
D4F7
  8
0
 62
7
 66
1
 70
0
 10
0
 20
0
 30
0
  0
VERTEX
  5
D4F8
  8
0
 62
7
 10
56.163695581602582
 20
42.84682600208199
 70
0
  0
VERTEX
  5
D4F9
  8
0
 62
7
 10
56.163695581602582
 20
42.9322643701162
 70
0
  0
SEQEND
  5
D4FA
  8
0
  0
POLYLINE
  5
D4FB
  8
0
 62
7
 66
1
 70
0
 10
0
 20
0
 30
0
  0
VERTEX
  5
D4FC
  8
0
 62
7
 10
56.163695581602582
 20
57.747552994884607
 70
0
  0
VERTEX
  5
D4FD
  8
0
 62
7
 10
56.163695581602582
 20
58.254843305087633
 70
0
  0
SEQEND
  5
D4FE
  8
0
  0
POLYLINE
  5
D4FF
  8
0
 62
7
 66
1
 70
0
 10
0
 20
0
 30
0
  0
VERTEX
  5
D500
  8
0
 62
7
 10
55.8674173698711
 20
43.905159335150749
 70
0
  0
VERTEX
  5
D501
  8
0
 62
7
 10
55.9101365538882
 20
43.905159335150749
 70
0
  0
SEQEND
  5
D502
  8
0
  0
POLYLINE
  5
D503
  8
0
 62
7
 66
1
 70
0
 10
0
 20
0
 30
0
  0
VERTEX
  5
D504
  8
0
 62
7
 10
44.05763004643466
 20
61.556450563376842
 70
0
  0
VERTEX
  5
D505
  8
0
 62
7
 10
43.845412164543262
 20
61.683057822459737
 70
0
  0
SEQEND
  5
D506
  8
0
  0
POLYLINE
  5
D507
  8
0
 62
7
 66
1
 70
0
 10
0
 20
0
 30
0
  0
VERTEX
  5
D508
  8
0
 62
7
 10
45.624459473126272
 20
60.879833810073727
 70
0
  0
VERTEX
  5
D509
  8
0
 62
7
 10
45.496301921074959
 20
60.96372188513957
 70
0
  0
SEQEND
  5
D50A
  8
0
  0
POLYLINE
  5
D50B
  8
0
 62
7
 66
1
 70
0
 10
0
 20
0
 30
0
  0
VERTEX
  5
D50C
  8
0
 62
7
 10
43.930850532577452
 20
61.472562488310949
 70
0
  0
VERTEX
  5
D50D
  8
0
 62
7
 10
43.718632650686047
 20
61.599169747393923
 70
0
  0
SEQEND
  5
D50E
  8
0
  0
POLYLINE
  5
D50F
  8
0
 62
7
 66
1
 70
0
 10
0
 20
0
 30
0
  0
VERTEX
  5
D510
  8
0
 62
7
 10
56.79897118908265
 20
56.0964909835786
 70
0
  0
VERTEX
  5
D511
  8
0
 62
7
 10
55.952855737905267
 20
56.4341103411331
 70
0
  0
SEQEND
  5
D512
  8
0
  0
POLYLINE
  5
D513
  8
0
 62
7
 66
1
 70
0
 10
0
 20
0
 30
0
  0
VERTEX
  5
D514
  8
0
 62
7
 10
56.714910859242551
 20
56.0964909835786
 70
0
  0
VERTEX
  5
D515
  8
0
 62
7
 10
55.952855737905267
 20
56.39276919531008
 70
0
  0
SEQEND
  5
D516
  8
0
  0
POLYLINE
  5
D517
  8
0
 62
7
 66
1
 70
0
 10
0
 20
0
 30
0
  0
VERTEX
  5
D518
  8
0
 62
7
 10
56.629472491208347
 20
55.9698837244957
 70
0
  0
VERTEX
  5
D519
  8
0
 62
7
 10
56.714910859242551
 20
55.9698837244957
 70
0
  0
SEQEND
  5
D51A
  8
0
  0
POLYLINE
  5
D51B
  8
0
 62
7
 66
1
 70
0
 10
0
 20
0
 30
0
  0
VERTEX
  5
D51C
  8
0
 62
7
 10
55.444359644282422
 20
56.47717403469872
 70
0
  0
VERTEX
  5
D51D
  8
0
 62
7
 10
55.783357040031
 20
56.350222266067277
 70
0
  0
SEQEND
  5
D51E
  8
0
  0
POLYLINE
  5
D51F
  8
0
 62
7
 66
1
 70
0
 10
0
 20
0
 30
0
  0
VERTEX
  5
D520
  8
0
 62
7
 10
56.586753307191252
 20
55.9698837244957
 70
0
  0
VERTEX
  5
D521
  8
0
 62
7
 10
56.714910859242551
 20
55.927164540478572
 70
0
  0
SEQEND
  5
D522
  8
0
  0
POLYLINE
  5
D523
  8
0
 62
7
 66
1
 70
0
 10
0
 20
0
 30
0
  0
VERTEX
  5
D524
  8
0
 62
7
 10
55.444359644282422
 20
56.47717403469872
 70
0
  0
VERTEX
  5
D525
  8
0
 62
7
 10
55.783357040031
 20
56.350222266067277
 70
0
  0
SEQEND
  5
D526
  8
0
  0
POLYLINE
  5
D527
  8
0
 62
7
 66
1
 70
0
 10
0
 20
0
 30
0
  0
VERTEX
  5
D528
  8
0
 62
7
 10
43.634572320845948
 20
61.30289153566244
 70
0
  0
VERTEX
  5
D529
  8
0
 62
7
 10
43.381013293131581
 20
61.387124120276809
 70
0
  0
SEQEND
  5
D52A
  8
0
  0
POLYLINE
  5
D52B
  8
0
 62
7
 66
1
 70
0
 10
0
 20
0
 30
0
  0
VERTEX
  5
D52C
  8
0
 62
7
 10
45.158682563520493
 20
60.624724489391014
 70
0
  0
VERTEX
  5
D52D
  8
0
 62
7
 10
45.031903049663292
 20
60.667443673408087
 70
0
  0
SEQEND
  5
D52E
  8
0
  0
POLYLINE
  5
D52F
  8
0
 62
7
 66
1
 70
0
 10
0
 20
0
 30
0
  0
VERTEX
  5
D530
  8
0
 62
7
 10
44.735624837931809
 20
60.371509971225152
 70
0
  0
VERTEX
  5
D531
  8
0
 62
7
 10
44.60746728588051
 20
60.414229155242218
 70
0
  0
SEQEND
  5
D532
  8
0
  0
POLYLINE
  5
D533
  8
0
 62
7
 66
1
 70
0
 10
0
 20
0
 30
0
  0
VERTEX
  5
D534
  8
0
 62
7
 10
44.141690376274717
 20
60.540836414325177
 70
0
  0
VERTEX
  5
D535
  8
0
 62
7
 10
43.46507362297168
 20
60.83711462605666
 70
0
  0
SEQEND
  5
D536
  8
0
  0
POLYLINE
  5
D537
  8
0
 62
7
 66
1
 70
0
 10
0
 20
0
 30
0
  0
VERTEX
  5
D538
  8
0
 62
7
 10
57.687805824277113
 20
59.864219661022076
 70
0
  0
VERTEX
  5
D539
  8
0
 62
7
 10
57.730525008294222
 20
60.032512575476538
 70
0
  0
SEQEND
  5
D53A
  8
0
  0
POLYLINE
  5
D53B
  8
0
 62
7
 66
1
 70
0
 10
0
 20
0
 30
0
  0
VERTEX
  5
D53C
  8
0
 62
7
 10
55.8260762240481
 20
54.656441070744187
 70
0
  0
VERTEX
  5
D53D
  8
0
 62
7
 10
55.74063785601389
 20
54.149495270089659
 70
0
  0
SEQEND
  5
D53E
  8
0
  0
POLYLINE
  5
D53F
  8
0
 62
7
 66
1
 70
0
 10
0
 20
0
 30
0
  0
VERTEX
  5
D540
  8
0
 62
7
 10
55.783357040031
 20
54.615272179695431
 70
0
  0
VERTEX
  5
D541
  8
0
 62
7
 10
55.697918671996788
 20
54.190836415912678
 70
0
  0
SEQEND
  5
D542
  8
0
  0
POLYLINE
  5
D543
  8
0
 62
7
 66
1
 70
0
 10
0
 20
0
 30
0
  0
VERTEX
  5
D544
  8
0
 62
7
 10
55.571139158139587
 20
61.515109417553823
 70
0
  0
VERTEX
  5
D545
  8
0
 62
7
 10
55.571139158139587
 20
61.811559884059562
 70
0
  0
SEQEND
  5
D546
  8
0
  0
POLYLINE
  5
D547
  8
0
 62
7
 66
1
 70
0
 10
0
 20
0
 30
0
  0
VERTEX
  5
D548
  8
0
 62
7
 10
55.571139158139587
 20
61.556450563376842
 70
0
  0
VERTEX
  5
D549
  8
0
 62
7
 10
55.571139158139587
 20
61.768840700042482
 70
0
  0
SEQEND
  5
D54A
  8
0
  0
POLYLINE
  5
D54B
  8
0
 62
7
 66
1
 70
0
 10
0
 20
0
 30
0
  0
VERTEX
  5
D54C
  8
0
 62
7
 10
55.444359644282422
 20
60.753226550990831
 70
0
  0
VERTEX
  5
D54D
  8
0
 62
7
 10
55.444359644282422
 20
60.921174955896753
 70
0
  0
SEQEND
  5
D54E
  8
0
  0
POLYLINE
  5
D54F
  8
0
 62
7
 66
1
 70
0
 10
0
 20
0
 30
0
  0
VERTEX
  5
D550
  8
0
 62
7
 10
55.31758013042522
 20
63.7585555975485
 70
0
  0
VERTEX
  5
D551
  8
0
 62
7
 10
55.31758013042522
 20
64.223126723734453
 70
0
  0
SEQEND
  5
D552
  8
0
  0
POLYLINE
  5
D553
  8
0
 62
7
 66
1
 70
0
 10
0
 20
0
 30
0
  0
VERTEX
  5
D554
  8
0
 62
7
 10
55.528419974122492
 20
53.979824317441079
 70
0
  0
VERTEX
  5
D555
  8
0
 62
7
 10
55.232141762391009
 20
64.181441068362943
 70
0
  0
SEQEND
  5
D556
  8
0
  0
POLYLINE
  5
D557
  8
0
 62
7
 66
1
 70
0
 10
0
 20
0
 30
0
  0
VERTEX
  5
D558
  8
0
 62
7
 10
55.74063785601389
 20
46.444883726876917
 70
0
  0
VERTEX
  5
D559
  8
0
 62
7
 10
55.656577526173791
 20
49.534445358049
 70
0
  0
SEQEND
  5
D55A
  8
0
  0
POLYLINE
  5
D55B
  8
0
 62
7
 66
1
 70
0
 10
0
 20
0
 30
0
  0
VERTEX
  5
D55C
  8
0
 62
7
 10
53.3276929781449
 20
51.524504765103558
 70
0
  0
VERTEX
  5
D55D
  8
0
 62
7
 10
53.413131346179107
 20
50.720936243169007
 70
0
  0
SEQEND
  5
D55E
  8
0
  0
POLYLINE
  5
D55F
  8
0
 62
7
 66
1
 70
0
 10
0
 20
0
 30
0
  0
VERTEX
  5
D560
  8
0
 62
7
 10
54.555525009087972
 20
52.709445357255248
 70
0
  0
VERTEX
  5
D561
  8
0
 62
7
 10
54.598244193105032
 20
52.625557282189412
 70
0
  0
SEQEND
  5
D562
  8
0
  0
POLYLINE
  5
D563
  8
0
 62
7
 66
1
 70
0
 10
0
 20
0
 30
0
  0
VERTEX
  5
D564
  8
0
 62
7
 10
55.697918671996788
 20
54.190836415912678
 70
0
  0
VERTEX
  5
D565
  8
0
 62
7
 10
55.74063785601389
 20
54.149495270089659
 70
0
  0
SEQEND
  5
D566
  8
0
  0
POLYLINE
  5
D567
  8
0
 62
7
 66
1
 70
0
 10
0
 20
0
 30
0
  0
VERTEX
  5
D568
  8
0
 62
7
 10
44.269847928326037
 20
60.117778688736479
 70
0
  0
VERTEX
  5
D569
  8
0
 62
7
 10
44.141690376274717
 20
60.160497872753609
 70
0
  0
SEQEND
  5
D56A
  8
0
  0
POLYLINE
  5
D56B
  8
0
 62
7
 66
1
 70
0
 10
0
 20
0
 30
0
  0
VERTEX
  5
D56C
  8
0
 62
7
 10
43.845412164543262
 20
59.821500477005
 70
0
  0
VERTEX
  5
D56D
  8
0
 62
7
 10
43.718632650686047
 20
59.905388552070832
 70
0
  0
SEQEND
  5
D56E
  8
0
  0
POLYLINE
  5
D56F
  8
0
 62
7
 66
1
 70
0
 10
0
 20
0
 30
0
  0
VERTEX
  5
D570
  8
0
 62
7
 10
55.8674173698711
 20
54.6995047643098
 70
0
  0
VERTEX
  5
D571
  8
0
 62
7
 10
58.576640459471562
 20
53.5569388466267
 70
0
  0
SEQEND
  5
D572
  8
0
  0
POLYLINE
  5
D573
  8
0
 62
7
 66
1
 70
0
 10
0
 20
0
 30
0
  0
VERTEX
  5
D574
  8
0
 62
7
 10
55.8260762240481
 20
54.656441070744187
 70
0
  0
VERTEX
  5
D575
  8
0
 62
7
 10
58.533921275454468
 20
53.51421966260957
 70
0
  0
SEQEND
  5
D576
  8
0
  0
POLYLINE
  5
D577
  8
0
 62
7
 66
1
 70
0
 10
0
 20
0
 30
0
  0
VERTEX
  5
D578
  8
0
 62
7
 10
55.74063785601389
 20
54.149495270089659
 70
0
  0
VERTEX
  5
D579
  8
0
 62
7
 10
58.449860945614368
 20
53.005895823760987
 70
0
  0
SEQEND
  5
D57A
  8
0
  0
POLYLINE
  5
D57B
  8
0
 62
7
 66
1
 70
0
 10
0
 20
0
 30
0
  0
VERTEX
  5
D57C
  8
0
 62
7
 10
53.413131346179107
 20
50.720936243169007
 70
0
  0
VERTEX
  5
D57D
  8
0
 62
7
 10
53.4544724920021
 20
50.720936243169007
 70
0
  0
SEQEND
  5
D57E
  8
0
  0
POLYLINE
  5
D57F
  8
0
 62
7
 66
1
 70
0
 10
0
 20
0
 30
0
  0
VERTEX
  5
D580
  8
0
 62
7
 10
53.497191676019213
 20
51.481441071537937
 70
0
  0
VERTEX
  5
D581
  8
0
 62
7
 10
53.581252005859312
 20
51.524504765103558
 70
0
  0
SEQEND
  5
D582
  8
0
  0
POLYLINE
  5
D583
  8
0
 62
7
 66
1
 70
0
 10
0
 20
0
 30
0
  0
VERTEX
  5
D584
  8
0
 62
7
 10
53.6239711898764
 20
51.609943133137762
 70
0
  0
VERTEX
  5
D585
  8
0
 62
7
 10
53.539910860036308
 20
51.567223949120631
 70
0
  0
SEQEND
  5
D586
  8
0
  0
POLYLINE
  5
D587
  8
0
 62
7
 66
1
 70
0
 10
0
 20
0
 30
0
  0
VERTEX
  5
D588
  8
0
 62
7
 10
56.545412161368247
 20
56.180895822967237
 70
0
  0
VERTEX
  5
D589
  8
0
 62
7
 10
56.545412161368247
 20
56.0964909835786
 70
0
  0
VERTEX
  5
D58A
  8
0
 62
7
 10
56.545412161368247
 20
56.138176638950107
 70
0
  0
SEQEND
  5
D58B
  8
0
  0
POLYLINE
  5
D58C
  8
0
 62
7
 66
1
 70
0
 10
0
 20
0
 30
0
  0
VERTEX
  5
D58D
  8
0
 62
7
 10
58.069522404042793
 20
58.466888932204732
 70
0
  0
VERTEX
  5
D58E
  8
0
 62
7
 10
58.449860945614368
 20
58.2975624891047
 70
0
  0
SEQEND
  5
D58F
  8
0
  0
POLYLINE
  5
D590
  8
0
 62
7
 66
1
 70
0
 10
0
 20
0
 30
0
  0
VERTEX
  5
D591
  8
0
 62
7
 10
58.830199487185943
 20
58.085172352439059
 70
0
  0
VERTEX
  5
D592
  8
0
 62
7
 10
61.243144365054938
 20
57.0695582033874
 70
0
  0
SEQEND
  5
D593
  8
0
  0
POLYLINE
  5
D594
  8
0
 62
7
 66
1
 70
0
 10
0
 20
0
 30
0
  0
VERTEX
  5
D595
  8
0
 62
7
 10
46.724133952018029
 20
63.166171428859819
 70
0
  0
VERTEX
  5
D596
  8
0
 62
7
 10
46.513294108320721
 20
63.250059503925648
 70
0
  0
SEQEND
  5
D597
  8
0
  0
POLYLINE
  5
D598
  8
0
 62
7
 66
1
 70
0
 10
0
 20
0
 30
0
  0
VERTEX
  5
D599
  8
0
 62
7
 10
58.449860945614368
 20
58.254843305087633
 70
0
  0
VERTEX
  5
D59A
  8
0
 62
7
 10
58.576640459471562
 20
58.170438465698993
 70
0
  0
SEQEND
  5
D59B
  8
0
  0
POLYLINE
  5
D59C
  8
0
 62
7
 66
1
 70
0
 10
0
 20
0
 30
0
  0
VERTEX
  5
D59D
  8
0
 62
7
 10
58.788858341362939
 20
58.04383120661609
 70
0
  0
VERTEX
  5
D59E
  8
0
 62
7
 10
61.201803219231941
 20
57.026839019370328
 70
0
  0
SEQEND
  5
D59F
  8
0
  0
POLYLINE
  5
D5A0
  8
0
 62
7
 66
1
 70
0
 10
0
 20
0
 30
0
  0
VERTEX
  5
D5A1
  8
0
 62
7
 10
46.597354438160821
 20
63.080388551277082
 70
0
  0
VERTEX
  5
D5A2
  8
0
 62
7
 10
46.386514594463527
 20
63.166171428859819
 70
0
  0
SEQEND
  5
D5A3
  8
0
  0
POLYLINE
  5
D5A4
  8
0
 62
7
 66
1
 70
0
 10
0
 20
0
 30
0
  0
VERTEX
  5
D5A5
  8
0
 62
7
 10
46.047517198714949
 20
63.292778687942729
 70
0
  0
VERTEX
  5
D5A6
  8
0
 62
7
 10
45.920737684857741
 20
63.334119833765747
 70
0
  0
SEQEND
  5
D5A7
  8
0
  0
POLYLINE
  5
D5A8
  8
0
 62
7
 66
1
 70
0
 10
0
 20
0
 30
0
  0
VERTEX
  5
D5A9
  8
0
 62
7
 10
46.301076226429352
 20
62.868342924159968
 70
0
  0
VERTEX
  5
D5AA
  8
0
 62
7
 10
46.047517198714949
 20
62.996500476211253
 70
0
  0
SEQEND
  5
D5AB
  8
0
  0
POLYLINE
  5
D5AC
  8
0
 62
7
 66
1
 70
0
 10
0
 20
0
 30
0
  0
VERTEX
  5
D5AD
  8
0
 62
7
 10
47.951965982961063
 20
62.149179241614057
 70
0
  0
VERTEX
  5
D5AE
  8
0
 62
7
 10
47.698406955246661
 20
62.275786500696967
 70
0
  0
SEQEND
  5
D5AF
  8
0
  0
POLYLINE
  5
D5B0
  8
0
 62
7
 66
1
 70
0
 10
0
 20
0
 30
0
  0
VERTEX
  5
D5B1
  8
0
 62
7
 10
46.174296712572151
 20
62.82717403311122
 70
0
  0
VERTEX
  5
D5B2
  8
0
 62
7
 10
45.920737684857741
 20
62.911062108177049
 70
0
  0
SEQEND
  5
D5B3
  8
0
  0
POLYLINE
  5
D5B4
  8
0
 62
7
 66
1
 70
0
 10
0
 20
0
 30
0
  0
VERTEX
  5
D5B5
  8
0
 62
7
 10
45.624459473126272
 20
63.037841622034222
 70
0
  0
VERTEX
  5
D5B6
  8
0
 62
7
 10
45.496301921074959
 20
63.080388551277082
 70
0
  0
SEQEND
  5
D5B7
  8
0
  0
POLYLINE
  5
D5B8
  8
0
 62
7
 66
1
 70
0
 10
0
 20
0
 30
0
  0
VERTEX
  5
D5B9
  8
0
 62
7
 10
45.835299316823573
 20
62.614783896445573
 70
0
  0
VERTEX
  5
D5BA
  8
0
 62
7
 10
45.624459473126272
 20
62.741391155528483
 70
0
  0
SEQEND
  5
D5BB
  8
0
  0
POLYLINE
  5
D5BC
  8
0
 62
7
 66
1
 70
0
 10
0
 20
0
 30
0
  0
VERTEX
  5
D5BD
  8
0
 62
7
 10
47.402128743515178
 20
61.938167143142522
 70
0
  0
VERTEX
  5
D5BE
  8
0
 62
7
 10
47.275349229657976
 20
61.979508288965491
 70
0
  0
SEQEND
  5
D5BF
  8
0
  0
POLYLINE
  5
D5C0
  8
0
 62
7
 66
1
 70
0
 10
0
 20
0
 30
0
  0
VERTEX
  5
D5C1
  8
0
 62
7
 10
56.163695581602582
 20
58.254843305087633
 70
0
  0
VERTEX
  5
D5C2
  8
0
 62
7
 10
56.418632647511053
 20
58.170438465698993
 70
0
  0
SEQEND
  5
D5C3
  8
0
  0
POLYLINE
  5
D5C4
  8
0
 62
7
 66
1
 70
0
 10
0
 20
0
 30
0
  0
VERTEX
  5
D5C5
  8
0
 62
7
 10
45.708519802966357
 20
62.530895821379737
 70
0
  0
VERTEX
  5
D5C6
  8
0
 62
7
 10
45.496301921074959
 20
62.657503080462639
 70
0
  0
SEQEND
  5
D5C7
  8
0
  0
POLYLINE
  5
D5C8
  8
0
 62
7
 66
1
 70
0
 10
0
 20
0
 30
0
  0
VERTEX
  5
D5C9
  8
0
 62
7
 10
45.158682563520493
 20
62.741391155528483
 70
0
  0
VERTEX
  5
D5CA
  8
0
 62
7
 10
45.031903049663292
 20
62.82717403311122
 70
0
  0
SEQEND
  5
D5CB
  8
0
  0
POLYLINE
  5
D5CC
  8
0
 62
7
 66
1
 70
0
 10
0
 20
0
 30
0
  0
VERTEX
  5
D5CD
  8
0
 62
7
 10
49.983194281064371
 20
45.13281911131952
 70
0
  0
VERTEX
  5
D5CE
  8
0
 62
7
 10
50.322191676812949
 20
45.343831209791091
 70
0
  0
SEQEND
  5
D5CF
  8
0
  0
POLYLINE
  5
D5D0
  8
0
 62
7
 66
1
 70
0
 10
0
 20
0
 30
0
  0
VERTEX
  5
D5D1
  8
0
 62
7
 10
57.90002370616849
 20
60.117778688736479
 70
0
  0
VERTEX
  5
D5D2
  8
0
 62
7
 10
57.90002370616849
 20
59.9481077360879
 70
0
  0
SEQEND
  5
D5D3
  8
0
  0
POLYLINE
  5
D5D4
  8
0
 62
7
 66
1
 70
0
 10
0
 20
0
 30
0
  0
VERTEX
  5
D5D5
  8
0
 62
7
 10
57.814585338134279
 20
60.032512575476538
 70
0
  0
VERTEX
  5
D5D6
  8
0
 62
7
 10
57.814585338134279
 20
59.905388552070832
 70
0
  0
SEQEND
  5
D5D7
  8
0
  0
POLYLINE
  5
D5D8
  8
0
 62
7
 66
1
 70
0
 10
0
 20
0
 30
0
  0
VERTEX
  5
D5D9
  8
0
 62
7
 10
57.730525008294222
 20
59.525222265273527
 70
0
  0
VERTEX
  5
D5DA
  8
0
 62
7
 10
57.773244192311289
 20
59.525222265273527
 70
0
  0
SEQEND
  5
D5DB
  8
0
  0
POLYLINE
  5
D5DC
  8
0
 62
7
 66
1
 70
0
 10
0
 20
0
 30
0
  0
VERTEX
  5
D5DD
  8
0
 62
7
 10
57.687805824277113
 20
60.075059504719412
 70
0
  0
VERTEX
  5
D5DE
  8
0
 62
7
 10
57.687805824277113
 20
59.9481077360879
 70
0
  0
SEQEND
  5
D5DF
  8
0
  0
POLYLINE
  5
D5E0
  8
0
 62
7
 66
1
 70
0
 10
0
 20
0
 30
0
  0
VERTEX
  5
D5E1
  8
0
 62
7
 10
57.30746728270551
 20
57.535507367767451
 70
0
  0
VERTEX
  5
D5E2
  8
0
 62
7
 10
57.30746728270551
 20
57.451102528378868
 70
0
  0
SEQEND
  5
D5E3
  8
0
  0
POLYLINE
  5
D5E4
  8
0
 62
7
 66
1
 70
0
 10
0
 20
0
 30
0
  0
VERTEX
  5
D5E5
  8
0
 62
7
 10
57.264748098688429
 20
59.7360621089708
 70
0
  0
VERTEX
  5
D5E6
  8
0
 62
7
 10
57.264748098688429
 20
59.778781292987873
 70
0
  0
SEQEND
  5
D5E7
  8
0
  0
POLYLINE
  5
D5E8
  8
0
 62
7
 66
1
 70
0
 10
0
 20
0
 30
0
  0
VERTEX
  5
D5E9
  8
0
 62
7
 10
57.264748098688429
 20
60.328790787208021
 70
0
  0
VERTEX
  5
D5EA
  8
0
 62
7
 10
57.264748098688429
 20
60.244558202593652
 70
0
  0
SEQEND
  5
D5EB
  8
0
  0
POLYLINE
  5
D5EC
  8
0
 62
7
 66
1
 70
0
 10
0
 20
0
 30
0
  0
VERTEX
  5
D5ED
  8
0
 62
7
 10
57.222028914671341
 20
57.239229156035982
 70
0
  0
VERTEX
  5
D5EE
  8
0
 62
7
 10
57.222028914671341
 20
57.451102528378868
 70
0
  0
SEQEND
  5
D5EF
  8
0
  0
POLYLINE
  5
D5F0
  8
0
 62
7
 66
1
 70
0
 10
0
 20
0
 30
0
  0
VERTEX
  5
D5F1
  8
0
 62
7
 10
57.052530216797031
 20
57.365836415118928
 70
0
  0
VERTEX
  5
D5F2
  8
0
 62
7
 10
57.052530216797031
 20
57.281776085278828
 70
0
  0
SEQEND
  5
D5F3
  8
0
  0
POLYLINE
  5
D5F4
  8
0
 62
7
 66
1
 70
0
 10
0
 20
0
 30
0
  0
VERTEX
  5
D5F5
  8
0
 62
7
 10
57.011189070974027
 20
62.403771797974031
 70
0
  0
VERTEX
  5
D5F6
  8
0
 62
7
 10
57.011189070974027
 20
62.234445354873991
 70
0
  0
SEQEND
  5
D5F7
  8
0
  0
POLYLINE
  5
D5F8
  8
0
 62
7
 66
1
 70
0
 10
0
 20
0
 30
0
  0
VERTEX
  5
D5F9
  8
0
 62
7
 10
56.92575070293983
 20
57.1965099720189
 70
0
  0
VERTEX
  5
D5FA
  8
0
 62
7
 10
56.92575070293983
 20
57.281776085278828
 70
0
  0
SEQEND
  5
D5FB
  8
0
  0
POLYLINE
  5
D5FC
  8
0
 62
7
 66
1
 70
0
 10
0
 20
0
 30
0
  0
VERTEX
  5
D5FD
  8
0
 62
7
 10
55.8674173698711
 20
54.6995047643098
 70
0
  0
VERTEX
  5
D5FE
  8
0
 62
7
 10
55.8260762240481
 20
54.742223948326881
 70
0
  0
SEQEND
  5
D5FF
  8
0
  0
POLYLINE
  5
D600
  8
0
 62
7
 66
1
 70
0
 10
0
 20
0
 30
0
  0
VERTEX
  5
D601
  8
0
 62
7
 10
47.105850531783709
 20
61.30289153566244
 70
0
  0
VERTEX
  5
D602
  8
0
 62
7
 10
47.1471916776067
 20
61.30289153566244
 70
0
  0
SEQEND
  5
D603
  8
0
  0
POLYLINE
  5
D604
  8
0
 62
7
 66
1
 70
0
 10
0
 20
0
 30
0
  0
VERTEX
  5
D605
  8
0
 62
7
 10
47.1471916776067
 20
61.21883120582234
 70
0
  0
VERTEX
  5
D606
  8
0
 62
7
 10
47.189910861623808
 20
61.17611202180521
 70
0
  0
SEQEND
  5
D607
  8
0
  0
POLYLINE
  5
D608
  8
0
 62
7
 66
1
 70
0
 10
0
 20
0
 30
0
  0
VERTEX
  5
D609
  8
0
 62
7
 10
57.645086640260011
 20
57.451102528378868
 70
0
  0
VERTEX
  5
D60A
  8
0
 62
7
 10
57.773244192311289
 20
57.408555599136008
 70
0
  0
SEQEND
  5
D60B
  8
0
  0
POLYLINE
  5
D60C
  8
0
 62
7
 66
1
 70
0
 10
0
 20
0
 30
0
  0
VERTEX
  5
D60D
  8
0
 62
7
 10
57.434246796562711
 20
57.492443674201837
 70
0
  0
VERTEX
  5
D60E
  8
0
 62
7
 10
57.011189070974027
 20
57.704833810867477
 70
0
  0
SEQEND
  5
D60F
  8
0
  0
POLYLINE
  5
D610
  8
0
 62
7
 66
1
 70
0
 10
0
 20
0
 30
0
  0
VERTEX
  5
D611
  8
0
 62
7
 10
57.30746728270551
 20
57.451102528378868
 70
0
  0
VERTEX
  5
D612
  8
0
 62
7
 10
57.475587942385708
 20
57.365836415118928
 70
0
  0
SEQEND
  5
D613
  8
0
  0
POLYLINE
  5
D614
  8
0
 62
7
 66
1
 70
0
 10
0
 20
0
 30
0
  0
VERTEX
  5
D615
  8
0
 62
7
 10
56.502692977351153
 20
57.788721885933313
 70
0
  0
VERTEX
  5
D616
  8
0
 62
7
 10
56.883031518922728
 20
57.620773481027392
 70
0
  0
SEQEND
  5
D617
  8
0
  0
POLYLINE
  5
D618
  8
0
 62
7
 66
1
 70
0
 10
0
 20
0
 30
0
  0
VERTEX
  5
D619
  8
0
 62
7
 10
45.4122415912349
 20
62.361224868731171
 70
0
  0
VERTEX
  5
D61A
  8
0
 62
7
 10
45.158682563520493
 20
62.44545745334554
 70
0
  0
SEQEND
  5
D61B
  8
0
  0
POLYLINE
  5
D61C
  8
0
 62
7
 66
1
 70
0
 10
0
 20
0
 30
0
  0
VERTEX
  5
D61D
  8
0
 62
7
 10
46.936351833909413
 20
61.683057822459737
 70
0
  0
VERTEX
  5
D61E
  8
0
 62
7
 10
46.8095723200522
 20
61.725777006476818
 70
0
  0
SEQEND
  5
D61F
  8
0
  0
POLYLINE
  5
D620
  8
0
 62
7
 66
1
 70
0
 10
0
 20
0
 30
0
  0
VERTEX
  5
D621
  8
0
 62
7
 10
45.285462077377687
 20
62.275786500696967
 70
0
  0
VERTEX
  5
D622
  8
0
 62
7
 10
45.031903049663292
 20
62.403771797974031
 70
0
  0
SEQEND
  5
D623
  8
0
  0
POLYLINE
  5
D624
  8
0
 62
7
 66
1
 70
0
 10
0
 20
0
 30
0
  0
VERTEX
  5
D625
  8
0
 62
7
 10
44.735624837931809
 20
62.488176637362614
 70
0
  0
VERTEX
  5
D626
  8
0
 62
7
 10
44.60746728588051
 20
62.530895821379737
 70
0
  0
SEQEND
  5
D627
  8
0
  0
POLYLINE
  5
D628
  8
0
 62
7
 66
1
 70
0
 10
0
 20
0
 30
0
  0
VERTEX
  5
D629
  8
0
 62
7
 10
57.052530216797031
 20
57.281776085278828
 70
0
  0
VERTEX
  5
D62A
  8
0
 62
7
 10
57.222028914671341
 20
57.239229156035982
 70
0
  0
SEQEND
  5
D62B
  8
0
  0
POLYLINE
  5
D62C
  8
0
 62
7
 66
1
 70
0
 10
0
 20
0
 30
0
  0
VERTEX
  5
D62D
  8
0
 62
7
 10
56.249133949636779
 20
57.620773481027392
 70
0
  0
VERTEX
  5
D62E
  8
0
 62
7
 10
56.629472491208347
 20
57.451102528378868
 70
0
  0
SEQEND
  5
D62F
  8
0
  0
POLYLINE
  5
D630
  8
0
 62
7
 66
1
 70
0
 10
0
 20
0
 30
0
  0
VERTEX
  5
D631
  8
0
 62
7
 10
44.141690376274717
 20
62.70022226447977
 70
0
  0
VERTEX
  5
D632
  8
0
 62
7
 10
44.014910862417558
 20
62.741391155528483
 70
0
  0
SEQEND
  5
D633
  8
0
  0
POLYLINE
  5
D634
  8
0
 62
7
 66
1
 70
0
 10
0
 20
0
 30
0
  0
VERTEX
  5
D635
  8
0
 62
7
 10
56.586753307191252
 20
57.451102528378868
 70
0
  0
VERTEX
  5
D636
  8
0
 62
7
 10
56.92575070293983
 20
57.281776085278828
 70
0
  0
SEQEND
  5
D637
  8
0
  0
POLYLINE
  5
D638
  8
0
 62
7
 66
1
 70
0
 10
0
 20
0
 30
0
  0
VERTEX
  5
D639
  8
0
 62
7
 10
56.502692977351153
 20
57.365836415118928
 70
0
  0
VERTEX
  5
D63A
  8
0
 62
7
 10
56.92575070293983
 20
57.1965099720189
 70
0
  0
SEQEND
  5
D63B
  8
0
  0
POLYLINE
  5
D63C
  8
0
 62
7
 66
1
 70
0
 10
0
 20
0
 30
0
  0
VERTEX
  5
D63D
  8
0
 62
7
 10
57.475587942385708
 20
56.985497873547352
 70
0
  0
VERTEX
  5
D63E
  8
0
 62
7
 10
57.095249400814133
 20
57.112105132630262
 70
0
  0
SEQEND
  5
D63F
  8
0
  0
POLYLINE
  5
D640
  8
0
 62
7
 66
1
 70
0
 10
0
 20
0
 30
0
  0
VERTEX
  5
D641
  8
0
 62
7
 10
44.946464681629109
 20
62.107838095791038
 70
0
  0
VERTEX
  5
D642
  8
0
 62
7
 10
44.735624837931809
 20
62.19172617085686
 70
0
  0
SEQEND
  5
D643
  8
0
  0
POLYLINE
  5
D644
  8
0
 62
7
 66
1
 70
0
 10
0
 20
0
 30
0
  0
VERTEX
  5
D645
  8
0
 62
7
 10
43.338294109114472
 20
62.784110339545613
 70
0
  0
VERTEX
  5
D646
  8
0
 62
7
 10
43.168795411240168
 20
62.82717403311122
 70
0
  0
SEQEND
  5
D647
  8
0
  0
POLYLINE
  5
D648
  8
0
 62
7
 66
1
 70
0
 10
0
 20
0
 30
0
  0
VERTEX
  5
D649
  8
0
 62
7
 10
46.513294108320721
 20
61.429843304293883
 70
0
  0
VERTEX
  5
D64A
  8
0
 62
7
 10
46.386514594463527
 20
61.472562488310949
 70
0
  0
SEQEND
  5
D64B
  8
0
  0
POLYLINE
  5
D64C
  8
0
 62
7
 66
1
 70
0
 10
0
 20
0
 30
0
  0
VERTEX
  5
D64D
  8
0
 62
7
 10
57.348808428528507
 20
56.816171430447319
 70
0
  0
VERTEX
  5
D64E
  8
0
 62
7
 10
56.883031518922728
 20
56.985497873547352
 70
0
  0
SEQEND
  5
D64F
  8
0
  0
POLYLINE
  5
D650
  8
0
 62
7
 66
1
 70
0
 10
0
 20
0
 30
0
  0
VERTEX
  5
D651
  8
0
 62
7
 10
44.819685167771908
 20
62.022055218208351
 70
0
  0
VERTEX
  5
D652
  8
0
 62
7
 10
44.60746728588051
 20
62.107838095791038
 70
0
  0
SEQEND
  5
D653
  8
0
  0
POLYLINE
  5
D654
  8
0
 62
7
 66
1
 70
0
 10
0
 20
0
 30
0
  0
VERTEX
  5
D655
  8
0
 62
7
 10
43.1260762272231
 20
62.741391155528483
 70
0
  0
VERTEX
  5
D656
  8
0
 62
7
 10
42.9565775293488
 20
62.82717403311122
 70
0
  0
SEQEND
  5
D657
  8
0
  0
POLYLINE
  5
D658
  8
0
 62
7
 66
1
 70
0
 10
0
 20
0
 30
0
  0
VERTEX
  5
D659
  8
0
 62
7
 10
44.269847928326037
 20
62.234445354873991
 70
0
  0
VERTEX
  5
D65A
  8
0
 62
7
 10
44.141690376274717
 20
62.275786500696967
 70
0
  0
SEQEND
  5
D65B
  8
0
  0
POLYLINE
  5
D65C
  8
0
 62
7
 66
1
 70
0
 10
0
 20
0
 30
0
  0
VERTEX
  5
D65D
  8
0
 62
7
 10
56.629472491208347
 20
56.8588906144644
 70
0
  0
VERTEX
  5
D65E
  8
0
 62
7
 10
57.222028914671341
 20
56.64650047779876
 70
0
  0
SEQEND
  5
D65F
  8
0
  0
POLYLINE
  5
D660
  8
0
 62
7
 66
1
 70
0
 10
0
 20
0
 30
0
  0
VERTEX
  5
D661
  8
0
 62
7
 10
44.523406956040411
 20
61.811559884059562
 70
0
  0
VERTEX
  5
D662
  8
0
 62
7
 10
44.269847928326037
 20
61.938167143142522
 70
0
  0
SEQEND
  5
D663
  8
0
  0
POLYLINE
  5
D664
  8
0
 62
7
 66
1
 70
0
 10
0
 20
0
 30
0
  0
VERTEX
  5
D665
  8
0
 62
7
 10
46.047517198714949
 20
61.133392837788129
 70
0
  0
VERTEX
  5
D666
  8
0
 62
7
 10
45.920737684857741
 20
61.21883120582234
 70
0
  0
SEQEND
  5
D667
  8
0
  0
POLYLINE
  5
D668
  8
0
 62
7
 66
1
 70
0
 10
0
 20
0
 30
0
  0
VERTEX
  5
D669
  8
0
 62
7
 10
44.396627442183231
 20
61.768840700042482
 70
0
  0
VERTEX
  5
D66A
  8
0
 62
7
 10
44.141690376274717
 20
61.852728775108318
 70
0
  0
SEQEND
  5
D66B
  8
0
  0
POLYLINE
  5
D66C
  8
0
 62
7
 66
1
 70
0
 10
0
 20
0
 30
0
  0
VERTEX
  5
D66D
  8
0
 62
7
 10
43.845412164543262
 20
61.979508288965491
 70
0
  0
VERTEX
  5
D66E
  8
0
 62
7
 10
43.718632650686047
 20
62.022055218208351
 70
0
  0
SEQEND
  5
D66F
  8
0
  0
POLYLINE
  5
D670
  8
0
 62
7
 66
1
 70
0
 10
0
 20
0
 30
0
  0
VERTEX
  5
D671
  8
0
 62
7
 10
56.375913463493951
 20
56.68921966181582
 70
0
  0
VERTEX
  5
D672
  8
0
 62
7
 10
57.052530216797031
 20
56.39276919531008
 70
0
  0
SEQEND
  5
D673
  8
0
  0
POLYLINE
  5
D674
  8
0
 62
7
 66
1
 70
0
 10
0
 20
0
 30
0
  0
VERTEX
  5
D675
  8
0
 62
7
 10
61.36992387891214
 20
57.0695582033874
 70
0
  0
VERTEX
  5
D676
  8
0
 62
7
 10
61.28586354907204
 20
56.985497873547352
 70
0
  0
SEQEND
  5
D677
  8
0
  0
POLYLINE
  5
D678
  8
0
 62
7
 66
1
 70
0
 10
0
 20
0
 30
0
  0
VERTEX
  5
D679
  8
0
 62
7
 10
61.201803219231941
 20
57.026839019370328
 70
0
  0
VERTEX
  5
D67A
  8
0
 62
7
 10
61.243144365054938
 20
57.0695582033874
 70
0
  0
SEQEND
  5
D67B
  8
0
  0
POLYLINE
  5
D67C
  8
0
 62
7
 66
1
 70
0
 10
0
 20
0
 30
0
  0
VERTEX
  5
D67D
  8
0
 62
7
 10
61.116364851197737
 20
57.026839019370328
 70
0
  0
VERTEX
  5
D67E
  8
0
 62
7
 10
58.576640459471562
 20
53.5569388466267
 70
0
  0
SEQEND
  5
D67F
  8
0
  0
POLYLINE
  5
D680
  8
0
 62
7
 66
1
 70
0
 10
0
 20
0
 30
0
  0
VERTEX
  5
D681
  8
0
 62
7
 10
55.40164046026532
 20
49.027155047845923
 70
0
  0
VERTEX
  5
D682
  8
0
 62
7
 10
54.809084036802339
 20
46.910488381708433
 70
0
  0
SEQEND
  5
D683
  8
0
  0
POLYLINE
  5
D684
  8
0
 62
7
 66
1
 70
0
 10
0
 20
0
 30
0
  0
VERTEX
  5
D685
  8
0
 62
7
 10
56.756252005065548
 20
61.811559884059562
 70
0
  0
VERTEX
  5
D686
  8
0
 62
7
 10
56.756252005065548
 20
60.287105131836512
 70
0
  0
SEQEND
  5
D687
  8
0
  0
POLYLINE
  5
D688
  8
0
 62
7
 66
1
 70
0
 10
0
 20
0
 30
0
  0
VERTEX
  5
D689
  8
0
 62
7
 10
56.629472491208347
 20
57.704833810867477
 70
0
  0
VERTEX
  5
D68A
  8
0
 62
7
 10
56.629472491208347
 20
57.451102528378868
 70
0
  0
SEQEND
  5
D68B
  8
0
  0
POLYLINE
  5
D68C
  8
0
 62
7
 66
1
 70
0
 10
0
 20
0
 30
0
  0
VERTEX
  5
D68D
  8
0
 62
7
 10
61.328582733089142
 20
57.1965099720189
 70
0
  0
VERTEX
  5
D68E
  8
0
 62
7
 10
58.576640459471562
 20
58.340109418347559
 70
0
  0
VERTEX
  5
D68F
  8
0
 62
7
 10
61.28586354907204
 20
57.239229156035982
 70
0
  0
SEQEND
  5
D690
  8
0
  0
POLYLINE
  5
D691
  8
0
 62
7
 66
1
 70
0
 10
0
 20
0
 30
0
  0
VERTEX
  5
D692
  8
0
 62
7
 10
58.533921275454468
 20
53.51421966260957
 70
0
  0
VERTEX
  5
D693
  8
0
 62
7
 10
58.449860945614368
 20
53.005895823760987
 70
0
  0
SEQEND
  5
D694
  8
0
  0
POLYLINE
  5
D695
  8
0
 62
7
 66
1
 70
0
 10
0
 20
0
 30
0
  0
VERTEX
  5
D696
  8
0
 62
7
 10
57.814585338134279
 20
43.43955468031924
 70
0
  0
VERTEX
  5
D697
  8
0
 62
7
 10
57.773244192311289
 20
43.185823397830568
 70
0
  0
SEQEND
  5
D698
  8
0
  0
POLYLINE
  5
D699
  8
0
 62
7
 66
1
 70
0
 10
0
 20
0
 30
0
  0
VERTEX
  5
D69A
  8
0
 62
7
 10
59.508194278683128
 20
58.424169748187673
 70
0
  0
VERTEX
  5
D69B
  8
0
 62
7
 10
59.508194278683128
 20
58.763167143936272
 70
0
  0
SEQEND
  5
D69C
  8
0
  0
POLYLINE
  5
D69D
  8
0
 62
7
 66
1
 70
0
 10
0
 20
0
 30
0
  0
VERTEX
  5
D69E
  8
0
 62
7
 10
59.169196882934521
 20
60.371509971225152
 70
0
  0
VERTEX
  5
D69F
  8
0
 62
7
 10
59.169196882934521
 20
59.439783897239323
 70
0
  0
SEQEND
  5
D6A0
  8
0
  0
POLYLINE
  5
D6A1
  8
0
 62
7
 66
1
 70
0
 10
0
 20
0
 30
0
  0
VERTEX
  5
D6A2
  8
0
 62
7
 10
58.999698185060247
 20
59.439783897239323
 70
0
  0
VERTEX
  5
D6A3
  8
0
 62
7
 10
58.999698185060247
 20
60.287105131836512
 70
0
  0
SEQEND
  5
D6A4
  8
0
  0
POLYLINE
  5
D6A5
  8
0
 62
7
 66
1
 70
0
 10
0
 20
0
 30
0
  0
VERTEX
  5
D6A6
  8
0
 62
7
 10
58.958357039237249
 20
58.213157649716123
 70
0
  0
VERTEX
  5
D6A7
  8
0
 62
7
 10
58.958357039237249
 20
58.466888932204732
 70
0
  0
SEQEND
  5
D6A8
  8
0
  0
POLYLINE
  5
D6A9
  8
0
 62
7
 66
1
 70
0
 10
0
 20
0
 30
0
  0
VERTEX
  5
D6AA
  8
0
 62
7
 10
58.449860945614368
 20
61.811559884059562
 70
0
  0
VERTEX
  5
D6AB
  8
0
 62
7
 10
58.449860945614368
 20
60.667443673408087
 70
0
  0
SEQEND
  5
D6AC
  8
0
  0
POLYLINE
  5
D6AD
  8
0
 62
7
 66
1
 70
0
 10
0
 20
0
 30
0
  0
VERTEX
  5
D6AE
  8
0
 62
7
 10
58.365800615774269
 20
60.328790787208021
 70
0
  0
VERTEX
  5
D6AF
  8
0
 62
7
 10
58.365800615774269
 20
60.244558202593652
 70
0
  0
SEQEND
  5
D6B0
  8
0
  0
POLYLINE
  5
D6B1
  8
0
 62
7
 66
1
 70
0
 10
0
 20
0
 30
0
  0
VERTEX
  5
D6B2
  8
0
 62
7
 10
46.513294108320721
 20
63.5465099704314
 70
0
  0
VERTEX
  5
D6B3
  8
0
 62
7
 10
46.386514594463527
 20
63.589229154448468
 70
0
  0
SEQEND
  5
D6B4
  8
0
  0
POLYLINE
  5
D6B5
  8
0
 62
7
 66
1
 70
0
 10
0
 20
0
 30
0
  0
VERTEX
  5
D6B6
  8
0
 62
7
 10
49.2225171979212
 20
61.938167143142522
 70
0
  0
VERTEX
  5
D6B7
  8
0
 62
7
 10
49.2638583437442
 20
61.938167143142522
 70
0
  0
SEQEND
  5
D6B8
  8
0
  0
POLYLINE
  5
D6B9
  8
0
 62
7
 66
1
 70
0
 10
0
 20
0
 30
0
  0
VERTEX
  5
D6BA
  8
0
 62
7
 10
47.951965982961063
 20
64.308392836994386
 70
0
  0
VERTEX
  5
D6BB
  8
0
 62
7
 10
47.698406955246661
 20
64.392453166834486
 70
0
  0
SEQEND
  5
D6BC
  8
0
  0
POLYLINE
  5
D6BD
  8
0
 62
7
 66
1
 70
0
 10
0
 20
0
 30
0
  0
VERTEX
  5
D6BE
  8
0
 62
7
 10
60.184811031986179
 20
59.01672617165061
 70
0
  0
VERTEX
  5
D6BF
  8
0
 62
7
 10
59.169196882934521
 20
59.439783897239323
 70
0
  0
SEQEND
  5
D6C0
  8
0
  0
POLYLINE
  5
D6C1
  8
0
 62
7
 66
1
 70
0
 10
0
 20
0
 30
0
  0
VERTEX
  5
D6C2
  8
0
 62
7
 10
62.470976395997972
 20
58.04383120661609
 70
0
  0
VERTEX
  5
D6C3
  8
0
 62
7
 10
60.989585337340529
 20
58.677728775902068
 70
0
  0
SEQEND
  5
D6C4
  8
0
  0
POLYLINE
  5
D6C5
  8
0
 62
7
 66
1
 70
0
 10
0
 20
0
 30
0
  0
VERTEX
  5
D6C6
  8
0
 62
7
 10
55.360299314442322
 20
61.0064410691567
 70
0
  0
VERTEX
  5
D6C7
  8
0
 62
7
 10
55.40164046026532
 20
61.0064410691567
 70
0
  0
SEQEND
  5
D6C8
  8
0
  0
POLYLINE
  5
D6C9
  8
0
 62
7
 66
1
 70
0
 10
0
 20
0
 30
0
  0
VERTEX
  5
D6CA
  8
0
 62
7
 10
55.31758013042522
 20
60.96372188513957
 70
0
  0
VERTEX
  5
D6CB
  8
0
 62
7
 10
55.444359644282422
 20
60.921174955896753
 70
0
  0
SEQEND
  5
D6CC
  8
0
  0
POLYLINE
  5
D6CD
  8
0
 62
7
 66
1
 70
0
 10
0
 20
0
 30
0
  0
VERTEX
  5
D6CE
  8
0
 62
7
 10
60.100750702146073
 20
58.889774403019182
 70
0
  0
VERTEX
  5
D6CF
  8
0
 62
7
 10
59.085136553094451
 20
59.313176638156371
 70
0
  0
SEQEND
  5
D6D0
  8
0
  0
POLYLINE
  5
D6D1
  8
0
 62
7
 66
1
 70
0
 10
0
 20
0
 30
0
  0
VERTEX
  5
D6D2
  8
0
 62
7
 10
62.38691606615788
 20
57.917223947533131
 70
0
  0
VERTEX
  5
D6D3
  8
0
 62
7
 10
60.946866153323462
 20
58.550777007270568
 70
0
  0
SEQEND
  5
D6D4
  8
0
  0
POLYLINE
  5
D6D5
  8
0
 62
7
 66
1
 70
0
 10
0
 20
0
 30
0
  0
VERTEX
  5
D6D6
  8
0
 62
7
 10
60.143469886163182
 20
58.889774403019182
 70
0
  0
VERTEX
  5
D6D7
  8
0
 62
7
 10
60.777367455449159
 20
58.636559884853312
 70
0
  0
SEQEND
  5
D6D8
  8
0
  0
POLYLINE
  5
D6D9
  8
0
 62
7
 66
1
 70
0
 10
0
 20
0
 30
0
  0
VERTEX
  5
D6DA
  8
0
 62
7
 10
55.31758013042522
 20
60.79439544203953
 70
0
  0
VERTEX
  5
D6DB
  8
0
 62
7
 10
55.444359644282422
 20
60.753226550990831
 70
0
  0
SEQEND
  5
D6DC
  8
0
  0
POLYLINE
  5
D6DD
  8
0
 62
7
 66
1
 70
0
 10
0
 20
0
 30
0
  0
VERTEX
  5
D6DE
  8
0
 62
7
 10
47.951965982961063
 20
63.885507366179951
 70
0
  0
VERTEX
  5
D6DF
  8
0
 62
7
 10
47.698406955246661
 20
63.969395441245773
 70
0
  0
SEQEND
  5
D6E0
  8
0
  0
POLYLINE
  5
D6E1
  8
0
 62
7
 66
1
 70
0
 10
0
 20
0
 30
0
  0
VERTEX
  5
D6E2
  8
0
 62
7
 10
59.9312520042718
 20
58.805886327953338
 70
0
  0
VERTEX
  5
D6E3
  8
0
 62
7
 10
60.777367455449159
 20
58.466888932204732
 70
0
  0
SEQEND
  5
D6E4
  8
0
  0
POLYLINE
  5
D6E5
  8
0
 62
7
 66
1
 70
0
 10
0
 20
0
 30
0
  0
VERTEX
  5
D6E6
  8
0
 62
7
 10
47.402128743515178
 20
64.09617495510301
 70
0
  0
VERTEX
  5
D6E7
  8
0
 62
7
 10
47.275349229657976
 20
64.138721884345813
 70
0
  0
SEQEND
  5
D6E8
  8
0
  0
POLYLINE
  5
D6E9
  8
0
 62
7
 66
1
 70
0
 10
0
 20
0
 30
0
  0
VERTEX
  5
D6EA
  8
0
 62
7
 10
61.073645667180642
 20
58.213157649716123
 70
0
  0
VERTEX
  5
D6EB
  8
0
 62
7
 10
60.736026309626162
 20
58.381450564170592
 70
0
  0
SEQEND
  5
D6EC
  8
0
  0
POLYLINE
  5
D6ED
  8
0
 62
7
 66
1
 70
0
 10
0
 20
0
 30
0
  0
VERTEX
  5
D6EE
  8
0
 62
7
 10
57.179309730654232
 20
59.821500477005
 70
0
  0
VERTEX
  5
D6EF
  8
0
 62
7
 10
57.348808428528507
 20
59.778781292987873
 70
0
  0
SEQEND
  5
D6F0
  8
0
  0
POLYLINE
  5
D6F1
  8
0
 62
7
 66
1
 70
0
 10
0
 20
0
 30
0
  0
VERTEX
  5
D6F2
  8
0
 62
7
 10
57.137968584831242
 20
59.821500477005
 70
0
  0
VERTEX
  5
D6F3
  8
0
 62
7
 10
57.30746728270551
 20
59.778781292987873
 70
0
  0
SEQEND
  5
D6F4
  8
0
  0
POLYLINE
  5
D6F5
  8
0
 62
7
 66
1
 70
0
 10
0
 20
0
 30
0
  0
VERTEX
  5
D6F6
  8
0
 62
7
 10
48.75674028831542
 20
63.334119833765747
 70
0
  0
VERTEX
  5
D6F7
  8
0
 62
7
 10
48.078745496818271
 20
63.589229154448468
 70
0
  0
SEQEND
  5
D6F8
  8
0
  0
POLYLINE
  5
D6F9
  8
0
 62
7
 66
1
 70
0
 10
0
 20
0
 30
0
  0
VERTEX
  5
D6FA
  8
0
 62
7
 10
56.714910859242551
 20
59.9481077360879
 70
0
  0
VERTEX
  5
D6FB
  8
0
 62
7
 10
56.883031518922728
 20
59.905388552070832
 70
0
  0
SEQEND
  5
D6FC
  8
0
  0
POLYLINE
  5
D6FD
  8
0
 62
7
 66
1
 70
0
 10
0
 20
0
 30
0
  0
VERTEX
  5
D6FE
  8
0
 62
7
 10
57.30746728270551
 20
59.694893217922044
 70
0
  0
VERTEX
  5
D6FF
  8
0
 62
7
 10
57.730525008294222
 20
59.525222265273527
 70
0
  0
SEQEND
  5
D700
  8
0
  0
POLYLINE
  5
D701
  8
0
 62
7
 66
1
 70
0
 10
0
 20
0
 30
0
  0
VERTEX
  5
D702
  8
0
 62
7
 10
57.264748098688429
 20
59.7360621089708
 70
0
  0
VERTEX
  5
D703
  8
0
 62
7
 10
57.30746728270551
 20
59.7360621089708
 70
0
  0
SEQEND
  5
D704
  8
0
  0
POLYLINE
  5
D705
  8
0
 62
7
 66
1
 70
0
 10
0
 20
0
 30
0
  0
VERTEX
  5
D706
  8
0
 62
7
 10
57.348808428528507
 20
59.694893217922044
 70
0
  0
VERTEX
  5
D707
  8
0
 62
7
 10
57.730525008294222
 20
59.525222265273527
 70
0
  0
SEQEND
  5
D708
  8
0
  0
POLYLINE
  5
D709
  8
0
 62
7
 66
1
 70
0
 10
0
 20
0
 30
0
  0
VERTEX
  5
D70A
  8
0
 62
7
 10
59.8471916744317
 20
58.636559884853312
 70
0
  0
VERTEX
  5
D70B
  8
0
 62
7
 10
58.915637855220147
 20
59.01672617165061
 70
0
  0
SEQEND
  5
D70C
  8
0
  0
POLYLINE
  5
D70D
  8
0
 62
7
 66
1
 70
0
 10
0
 20
0
 30
0
  0
VERTEX
  5
D70E
  8
0
 62
7
 10
48.75674028831542
 20
63.250059503925648
 70
0
  0
VERTEX
  5
D70F
  8
0
 62
7
 10
48.671301920281209
 20
63.250059503925648
 70
0
  0
SEQEND
  5
D710
  8
0
  0
POLYLINE
  5
D711
  8
0
 62
7
 66
1
 70
0
 10
0
 20
0
 30
0
  0
VERTEX
  5
D712
  8
0
 62
7
 10
57.348808428528507
 20
59.609110340339349
 70
0
  0
VERTEX
  5
D713
  8
0
 62
7
 10
57.687805824277113
 20
59.4825030812564
 70
0
  0
SEQEND
  5
D714
  8
0
  0
POLYLINE
  5
D715
  8
0
 62
7
 66
1
 70
0
 10
0
 20
0
 30
0
  0
VERTEX
  5
D716
  8
0
 62
7
 10
47.612968587212478
 20
63.673117229514311
 70
0
  0
VERTEX
  5
D717
  8
0
 62
7
 10
47.402128743515178
 20
63.799724488597263
 70
0
  0
SEQEND
  5
D718
  8
0
  0
POLYLINE
  5
D719
  8
0
 62
7
 66
1
 70
0
 10
0
 20
0
 30
0
  0
VERTEX
  5
D71A
  8
0
 62
7
 10
47.486189073355277
 20
63.589229154448468
 70
0
  0
VERTEX
  5
D71B
  8
0
 62
7
 10
47.275349229657976
 20
63.715836413531441
 70
0
  0
SEQEND
  5
D71C
  8
0
  0
POLYLINE
  5
D71D
  8
0
 62
7
 66
1
 70
0
 10
0
 20
0
 30
0
  0
VERTEX
  5
D71E
  8
0
 62
7
 10
46.936351833909413
 20
63.799724488597263
 70
0
  0
VERTEX
  5
D71F
  8
0
 62
7
 10
46.8095723200522
 20
63.885507366179951
 70
0
  0
SEQEND
  5
D720
  8
0
  0
POLYLINE
  5
D721
  8
0
 62
7
 66
1
 70
0
 10
0
 20
0
 30
0
  0
VERTEX
  5
D722
  8
0
 62
7
 10
58.576640459471562
 20
58.805886327953338
 70
0
  0
VERTEX
  5
D723
  8
0
 62
7
 10
59.508194278683128
 20
58.424169748187673
 70
0
  0
SEQEND
  5
D724
  8
0
  0
POLYLINE
  5
D725
  8
0
 62
7
 66
1
 70
0
 10
0
 20
0
 30
0
  0
VERTEX
  5
D726
  8
0
 62
7
 10
47.189910861623808
 20
63.4195582017999
 70
0
  0
VERTEX
  5
D727
  8
0
 62
7
 10
46.936351833909413
 20
63.503790786414271
 70
0
  0
SEQEND
  5
D728
  8
0
  0
POLYLINE
  5
D729
  8
0
 62
7
 66
1
 70
0
 10
0
 20
0
 30
0
  0
VERTEX
  5
D72A
  8
0
 62
7
 10
59.295976396791723
 20
58.2975624891047
 70
0
  0
VERTEX
  5
D72B
  8
0
 62
7
 10
58.407141761597259
 20
58.677728775902068
 70
0
  0
SEQEND
  5
D72C
  8
0
  0
POLYLINE
  5
D72D
  8
0
 62
7
 66
1
 70
0
 10
0
 20
0
 30
0
  0
VERTEX
  5
D72E
  8
0
 62
7
 10
47.0631313477666
 20
63.334119833765747
 70
0
  0
VERTEX
  5
D72F
  8
0
 62
7
 10
46.8095723200522
 20
63.4195582017999
 70
0
  0
SEQEND
  5
D730
  8
0
  0
POLYLINE
  5
D731
  8
0
 62
7
 66
1
 70
0
 10
0
 20
0
 30
0
  0
VERTEX
  5
D732
  8
0
 62
7
 10
55.31758013042522
 20
61.049504762722307
 70
0
  0
VERTEX
  5
D733
  8
0
 62
7
 10
55.40164046026532
 20
60.96372188513957
 70
0
  0
VERTEX
  5
D734
  8
0
 62
7
 10
55.444359644282422
 20
60.921174955896753
 70
0
  0
VERTEX
  5
D735
  8
0
 62
7
 10
55.528419974122492
 20
60.879833810073727
 70
0
  0
VERTEX
  5
D736
  8
0
 62
7
 10
55.571139158139587
 20
60.79439544203953
 70
0
  0
VERTEX
  5
D737
  8
0
 62
7
 10
55.697918671996788
 20
60.667443673408087
 70
0
  0
VERTEX
  5
D738
  8
0
 62
7
 10
55.783357040031
 20
60.624724489391014
 70
0
  0
VERTEX
  5
D739
  8
0
 62
7
 10
55.8674173698711
 20
60.540836414325177
 70
0
  0
VERTEX
  5
D73A
  8
0
 62
7
 10
55.952855737905267
 20
60.498117230308047
 70
0
  0
VERTEX
  5
D73B
  8
0
 62
7
 10
56.036916067745373
 20
60.414229155242218
 70
0
  0
VERTEX
  5
D73C
  8
0
 62
7
 10
56.122354435779577
 20
60.328790787208021
 70
0
  0
VERTEX
  5
D73D
  8
0
 62
7
 10
56.20641476561967
 20
60.287105131836512
 70
0
  0
VERTEX
  5
D73E
  8
0
 62
7
 10
56.290475095459769
 20
60.201839018576578
 70
0
  0
VERTEX
  5
D73F
  8
0
 62
7
 10
56.375913463493951
 20
60.160497872753609
 70
0
  0
VERTEX
  5
D740
  8
0
 62
7
 10
56.459973793334051
 20
60.117778688736479
 70
0
  0
VERTEX
  5
D741
  8
0
 62
7
 10
56.502692977351153
 20
60.075059504719412
 70
0
  0
VERTEX
  5
D742
  8
0
 62
7
 10
56.586753307191252
 20
60.032512575476538
 70
0
  0
VERTEX
  5
D743
  8
0
 62
7
 10
56.672191675225463
 20
59.991171429653569
 70
0
  0
VERTEX
  5
D744
  8
0
 62
7
 10
56.714910859242551
 20
59.9481077360879
 70
0
  0
SEQEND
  5
D745
  8
0
  0
POLYLINE
  5
D746
  8
0
 62
7
 66
1
 70
0
 10
0
 20
0
 30
0
  0
VERTEX
  5
D747
  8
0
 62
7
 10
48.629960774458219
 20
65.493505683920347
 70
0
  0
VERTEX
  5
D748
  8
0
 62
7
 10
48.75674028831542
 20
65.450786499903217
 70
0
  0
SEQEND
  5
D749
  8
0
  0
POLYLINE
  5
D74A
  8
0
 62
7
 66
1
 70
0
 10
0
 20
0
 30
0
  0
VERTEX
  5
D74B
  8
0
 62
7
 10
48.75674028831542
 20
65.366726170063117
 70
0
  0
VERTEX
  5
D74C
  8
0
 62
7
 10
48.671301920281209
 20
65.409445354080248
 70
0
  0
SEQEND
  5
D74D
  8
0
  0
POLYLINE
  5
D74E
  8
0
 62
7
 66
1
 70
0
 10
0
 20
0
 30
0
  0
VERTEX
  5
D74F
  8
0
 62
7
 10
62.513695580015067
 20
59.4825030812564
 70
0
  0
VERTEX
  5
D750
  8
0
 62
7
 10
62.556414764032169
 20
59.4825030812564
 70
0
  0
SEQEND
  5
D751
  8
0
  0
POLYLINE
  5
D752
  8
0
 62
7
 66
1
 70
0
 10
0
 20
0
 30
0
  0
VERTEX
  5
D753
  8
0
 62
7
 10
59.169196882934521
 20
60.371509971225152
 70
0
  0
VERTEX
  5
D754
  8
0
 62
7
 10
58.449860945614368
 20
60.667443673408087
 70
0
  0
SEQEND
  5
D755
  8
0
  0
POLYLINE
  5
D756
  8
0
 62
7
 66
1
 70
0
 10
0
 20
0
 30
0
  0
VERTEX
  5
D757
  8
0
 62
7
 10
58.999698185060247
 20
60.287105131836512
 70
0
  0
VERTEX
  5
D758
  8
0
 62
7
 10
58.407141761597259
 20
60.540836414325177
 70
0
  0
SEQEND
  5
D759
  8
0
  0
POLYLINE
  5
D75A
  8
0
 62
7
 66
1
 70
0
 10
0
 20
0
 30
0
  0
VERTEX
  5
D75B
  8
0
 62
7
 10
56.122354435779577
 20
61.090845908545283
 70
0
  0
VERTEX
  5
D75C
  8
0
 62
7
 10
56.459973793334051
 20
60.921174955896753
 70
0
  0
SEQEND
  5
D75D
  8
0
  0
POLYLINE
  5
D75E
  8
0
 62
7
 66
1
 70
0
 10
0
 20
0
 30
0
  0
VERTEX
  5
D75F
  8
0
 62
7
 10
56.163695581602582
 20
61.049504762722307
 70
0
  0
VERTEX
  5
D760
  8
0
 62
7
 10
56.418632647511053
 20
60.921174955896753
 70
0
  0
SEQEND
  5
D761
  8
0
  0
POLYLINE
  5
D762
  8
0
 62
7
 66
1
 70
0
 10
0
 20
0
 30
0
  0
VERTEX
  5
D763
  8
0
 62
7
 10
60.86280582348337
 20
60.79439544203953
 70
0
  0
VERTEX
  5
D764
  8
0
 62
7
 10
60.86280582348337
 20
58.677728775902068
 70
0
  0
SEQEND
  5
D765
  8
0
  0
POLYLINE
  5
D766
  8
0
 62
7
 66
1
 70
0
 10
0
 20
0
 30
0
  0
VERTEX
  5
D767
  8
0
 62
7
 10
60.777367455449159
 20
58.636559884853312
 70
0
  0
VERTEX
  5
D768
  8
0
 62
7
 10
60.777367455449159
 20
60.83711462605666
 70
0
  0
SEQEND
  5
D769
  8
0
  0
POLYLINE
  5
D76A
  8
0
 62
7
 66
1
 70
0
 10
0
 20
0
 30
0
  0
VERTEX
  5
D76B
  8
0
 62
7
 10
60.184811031986179
 20
58.974179242407807
 70
0
  0
VERTEX
  5
D76C
  8
0
 62
7
 10
60.184811031986179
 20
61.049504762722307
 70
0
  0
SEQEND
  5
D76D
  8
0
  0
POLYLINE
  5
D76E
  8
0
 62
7
 66
1
 70
0
 10
0
 20
0
 30
0
  0
VERTEX
  5
D76F
  8
0
 62
7
 10
60.184811031986179
 20
59.01672617165061
 70
0
  0
VERTEX
  5
D770
  8
0
 62
7
 10
60.184811031986179
 20
61.090845908545283
 70
0
  0
SEQEND
  5
D771
  8
0
  0
POLYLINE
  5
D772
  8
0
 62
7
 66
1
 70
0
 10
0
 20
0
 30
0
  0
VERTEX
  5
D773
  8
0
 62
7
 10
59.973971188288907
 20
57.788721885933313
 70
0
  0
VERTEX
  5
D774
  8
0
 62
7
 10
59.973971188288907
 20
57.917223947533131
 70
0
  0
SEQEND
  5
D775
  8
0
  0
POLYLINE
  5
D776
  8
0
 62
7
 66
1
 70
0
 10
0
 20
0
 30
0
  0
VERTEX
  5
D777
  8
0
 62
7
 10
58.533921275454468
 20
58.254843305087633
 70
0
  0
VERTEX
  5
D778
  8
0
 62
7
 10
58.576640459471562
 20
58.254843305087633
 70
0
  0
SEQEND
  5
D779
  8
0
  0
POLYLINE
  5
D77A
  8
0
 62
7
 66
1
 70
0
 10
0
 20
0
 30
0
  0
VERTEX
  5
D77B
  8
0
 62
7
 10
56.756252005065548
 20
60.583555598342251
 70
0
  0
VERTEX
  5
D77C
  8
0
 62
7
 10
56.714910859242551
 20
60.583555598342251
 70
0
  0
VERTEX
  5
D77D
  8
0
 62
7
 10
56.672191675225463
 20
60.624724489391014
 70
0
  0
VERTEX
  5
D77E
  8
0
 62
7
 10
56.629472491208347
 20
60.624724489391014
 70
0
  0
VERTEX
  5
D77F
  8
0
 62
7
 10
56.586753307191252
 20
60.667443673408087
 70
0
  0
VERTEX
  5
D780
  8
0
 62
7
 10
56.545412161368247
 20
60.7105073669737
 70
0
  0
VERTEX
  5
D781
  8
0
 62
7
 10
56.459973793334051
 20
60.753226550990831
 70
0
  0
VERTEX
  5
D782
  8
0
 62
7
 10
56.418632647511053
 20
60.79439544203953
 70
0
  0
VERTEX
  5
D783
  8
0
 62
7
 10
56.375913463493951
 20
60.83711462605666
 70
0
  0
VERTEX
  5
D784
  8
0
 62
7
 10
56.290475095459769
 20
60.921174955896753
 70
0
  0
VERTEX
  5
D785
  8
0
 62
7
 10
56.249133949636779
 20
60.96372188513957
 70
0
  0
VERTEX
  5
D786
  8
0
 62
7
 10
56.163695581602582
 20
61.0064410691567
 70
0
  0
VERTEX
  5
D787
  8
0
 62
7
 10
56.122354435779577
 20
61.090845908545283
 70
0
  0
VERTEX
  5
D788
  8
0
 62
7
 10
55.952855737905267
 20
61.21883120582234
 70
0
  0
VERTEX
  5
D789
  8
0
 62
7
 10
55.9101365538882
 20
61.260172351645309
 70
0
  0
VERTEX
  5
D78A
  8
0
 62
7
 10
55.8260762240481
 20
61.345438464905243
 70
0
  0
VERTEX
  5
D78B
  8
0
 62
7
 10
55.74063785601389
 20
61.429843304293883
 70
0
  0
VERTEX
  5
D78C
  8
0
 62
7
 10
55.656577526173791
 20
61.472562488310949
 70
0
  0
VERTEX
  5
D78D
  8
0
 62
7
 10
55.571139158139587
 20
61.556450563376842
 70
0
  0
VERTEX
  5
D78E
  8
0
 62
7
 10
55.487078828299488
 20
61.599169747393923
 70
0
  0
VERTEX
  5
D78F
  8
0
 62
7
 10
55.40164046026532
 20
61.683057822459737
 70
0
  0
VERTEX
  5
D790
  8
0
 62
7
 10
55.31758013042522
 20
61.725777006476818
 70
0
  0
VERTEX
  5
D791
  8
0
 62
7
 10
55.274860946408118
 20
61.768840700042482
 70
0
  0
SEQEND
  5
D792
  8
0
  0
POLYLINE
  5
D793
  8
0
 62
7
 66
1
 70
0
 10
0
 20
0
 30
0
  0
VERTEX
  5
D794
  8
0
 62
7
 10
63.698808426941007
 20
60.7105073669737
 70
0
  0
VERTEX
  5
D795
  8
0
 62
7
 10
63.698808426941007
 20
60.244558202593652
 70
0
  0
SEQEND
  5
D796
  8
0
  0
POLYLINE
  5
D797
  8
0
 62
7
 66
1
 70
0
 10
0
 20
0
 30
0
  0
VERTEX
  5
D798
  8
0
 62
7
 10
49.729635253349969
 20
67.694060425123638
 70
0
  0
VERTEX
  5
D799
  8
0
 62
7
 10
54.047028915465077
 20
65.916391154734725
 70
0
  0
SEQEND
  5
D79A
  8
0
  0
POLYLINE
  5
D79B
  8
0
 62
7
 66
1
 70
0
 10
0
 20
0
 30
0
  0
VERTEX
  5
D79C
  8
0
 62
7
 10
50.322191676812949
 20
67.3564410675692
 70
0
  0
VERTEX
  5
D79D
  8
0
 62
7
 10
54.555525009087972
 20
65.577393758986176
 70
0
  0
SEQEND
  5
D79E
  8
0
  0
POLYLINE
  5
D79F
  8
0
 62
7
 66
1
 70
0
 10
0
 20
0
 30
0
  0
VERTEX
  5
D7A0
  8
0
 62
7
 10
49.729635253349969
 20
67.524733982023662
 70
0
  0
VERTEX
  5
D7A1
  8
0
 62
7
 10
50.025913465081452
 20
67.3981267229407
 70
0
  0
SEQEND
  5
D7A2
  8
0
  0
POLYLINE
  5
D7A3
  8
0
 62
7
 66
1
 70
0
 10
0
 20
0
 30
0
  0
VERTEX
  5
D7A4
  8
0
 62
7
 10
49.518795409652682
 20
67.567453166040735
 70
0
  0
VERTEX
  5
D7A5
  8
0
 62
7
 10
49.686916069332867
 20
67.483392836200636
 70
0
  0
SEQEND
  5
D7A6
  8
0
  0
POLYLINE
  5
D7A7
  8
0
 62
7
 66
1
 70
0
 10
0
 20
0
 30
0
  0
VERTEX
  5
D7A8
  8
0
 62
7
 10
50.40763004484716
 20
67.18711462446916
 70
0
  0
VERTEX
  5
D7A9
  8
0
 62
7
 10
54.639585338928029
 20
65.409445354080248
 70
0
  0
SEQEND
  5
D7AA
  8
0
  0
POLYLINE
  5
D7AB
  8
0
 62
7
 66
1
 70
0
 10
0
 20
0
 30
0
  0
VERTEX
  5
D7AC
  8
0
 62
7
 10
49.686916069332867
 20
67.0605073653862
 70
0
  0
VERTEX
  5
D7AD
  8
0
 62
7
 10
49.518795409652682
 20
67.101676256434956
 70
0
  0
SEQEND
  5
D7AE
  8
0
  0
POLYLINE
  5
D7AF
  8
0
 62
7
 66
1
 70
0
 10
0
 20
0
 30
0
  0
VERTEX
  5
D7B0
  8
0
 62
7
 10
63.656089242923933
 20
60.83711462605666
 70
0
  0
VERTEX
  5
D7B1
  8
0
 62
7
 10
55.232141762391009
 20
64.392453166834486
 70
0
  0
SEQEND
  5
D7B2
  8
0
  0
POLYLINE
  5
D7B3
  8
0
 62
7
 66
1
 70
0
 10
0
 20
0
 30
0
  0
VERTEX
  5
D7B4
  8
0
 62
7
 10
55.31758013042522
 20
64.223126723734453
 70
0
  0
VERTEX
  5
D7B5
  8
0
 62
7
 10
63.698808426941007
 20
60.7105073669737
 70
0
  0
SEQEND
  5
D7B6
  8
0
  0
POLYLINE
  5
D7B7
  8
0
 62
7
 66
1
 70
0
 10
0
 20
0
 30
0
  0
VERTEX
  5
D7B8
  8
0
 62
7
 10
55.232141762391009
 20
64.392453166834486
 70
0
  0
VERTEX
  5
D7B9
  8
0
 62
7
 10
55.274860946408118
 20
64.392453166834486
 70
0
  0
SEQEND
  5
D7BA
  8
0
  0
POLYLINE
  5
D7BB
  8
0
 62
7
 66
1
 70
0
 10
0
 20
0
 30
0
  0
VERTEX
  5
D7BC
  8
0
 62
7
 10
62.556414764032169
 20
60.075059504719412
 70
0
  0
VERTEX
  5
D7BD
  8
0
 62
7
 10
62.556414764032169
 20
59.439783897239323
 70
0
  0
SEQEND
  5
D7BE
  8
0
  0
POLYLINE
  5
D7BF
  8
0
 62
7
 66
1
 70
0
 10
0
 20
0
 30
0
  0
VERTEX
  5
D7C0
  8
0
 62
7
 10
62.513695580015067
 20
60.075059504719412
 70
0
  0
VERTEX
  5
D7C1
  8
0
 62
7
 10
62.513695580015067
 20
59.4825030812564
 70
0
  0
SEQEND
  5
D7C2
  8
0
  0
POLYLINE
  5
D7C3
  8
0
 62
7
 66
1
 70
0
 10
0
 20
0
 30
0
  0
VERTEX
  5
D7C4
  8
0
 62
7
 10
62.513695580015067
 20
58.04383120661609
 70
0
  0
VERTEX
  5
D7C5
  8
0
 62
7
 10
62.513695580015067
 20
60.117778688736479
 70
0
  0
SEQEND
  5
D7C6
  8
0
  0
POLYLINE
  5
D7C7
  8
0
 62
7
 66
1
 70
0
 10
0
 20
0
 30
0
  0
VERTEX
  5
D7C8
  8
0
 62
7
 10
62.470976395997972
 20
58.04383120661609
 70
0
  0
VERTEX
  5
D7C9
  8
0
 62
7
 10
62.470976395997972
 20
60.117778688736479
 70
0
  0
SEQEND
  5
D7CA
  8
0
  0
POLYLINE
  5
D7CB
  8
0
 62
7
 66
1
 70
0
 10
0
 20
0
 30
0
  0
VERTEX
  5
D7CC
  8
0
 62
7
 10
61.328582733089142
 20
57.154824316647328
 70
0
  0
VERTEX
  5
D7CD
  8
0
 62
7
 10
61.328582733089142
 20
57.1965099720189
 70
0
  0
SEQEND
  5
D7CE
  8
0
  0
POLYLINE
  5
D7CF
  8
0
 62
7
 66
1
 70
0
 10
0
 20
0
 30
0
  0
VERTEX
  5
D7D0
  8
0
 62
7
 10
49.3065775277613
 20
66.339793389871971
 70
0
  0
VERTEX
  5
D7D1
  8
0
 62
7
 10
49.137078829886988
 20
66.382512573889045
 70
0
  0
SEQEND
  5
D7D2
  8
0
  0
POLYLINE
  5
D7D3
  8
0
 62
7
 66
1
 70
0
 10
0
 20
0
 30
0
  0
VERTEX
  5
D7D4
  8
0
 62
7
 10
63.275750701352329
 20
59.905388552070832
 70
0
  0
VERTEX
  5
D7D5
  8
0
 62
7
 10
55.74063785601389
 20
63.080388551277082
 70
0
  0
SEQEND
  5
D7D6
  8
0
  0
POLYLINE
  5
D7D7
  8
0
 62
7
 66
1
 70
0
 10
0
 20
0
 30
0
  0
VERTEX
  5
D7D8
  8
0
 62
7
 10
63.148971187495157
 20
59.821500477005
 70
0
  0
VERTEX
  5
D7D9
  8
0
 62
7
 10
55.6138583421567
 20
62.996500476211253
 70
0
  0
SEQEND
  5
D7DA
  8
0
  0
POLYLINE
  5
D7DB
  8
0
 62
7
 66
1
 70
0
 10
0
 20
0
 30
0
  0
VERTEX
  5
D7DC
  8
0
 62
7
 10
60.989585337340529
 20
60.753226550990831
 70
0
  0
VERTEX
  5
D7DD
  8
0
 62
7
 10
60.989585337340529
 20
58.677728775902068
 70
0
  0
SEQEND
  5
D7DE
  8
0
  0
POLYLINE
  5
D7DF
  8
0
 62
7
 66
1
 70
0
 10
0
 20
0
 30
0
  0
VERTEX
  5
D7E0
  8
0
 62
7
 10
57.941364851991487
 20
59.9481077360879
 70
0
  0
VERTEX
  5
D7E1
  8
0
 62
7
 10
57.984084036008589
 20
59.864219661022076
 70
0
  0
SEQEND
  5
D7E2
  8
0
  0
POLYLINE
  5
D7E3
  8
0
 62
7
 66
1
 70
0
 10
0
 20
0
 30
0
  0
VERTEX
  5
D7E4
  8
0
 62
7
 10
57.857304522151388
 20
60.075059504719412
 70
0
  0
VERTEX
  5
D7E5
  8
0
 62
7
 10
57.90002370616849
 20
59.991171429653569
 70
0
  0
SEQEND
  5
D7E6
  8
0
  0
POLYLINE
  5
D7E7
  8
0
 62
7
 66
1
 70
0
 10
0
 20
0
 30
0
  0
VERTEX
  5
D7E8
  8
0
 62
7
 10
58.619359643488671
 20
58.254843305087633
 70
0
  0
VERTEX
  5
D7E9
  8
0
 62
7
 10
58.576640459471562
 20
58.340109418347559
 70
0
  0
SEQEND
  5
D7EA
  8
0
  0
POLYLINE
  5
D7EB
  8
0
 62
7
 66
1
 70
0
 10
0
 20
0
 30
0
  0
VERTEX
  5
D7EC
  8
0
 62
7
 10
58.576640459471562
 20
58.213157649716123
 70
0
  0
VERTEX
  5
D7ED
  8
0
 62
7
 10
58.533921275454468
 20
58.254843305087633
 70
0
  0
SEQEND
  5
D7EE
  8
0
  0
POLYLINE
  5
D7EF
  8
0
 62
7
 66
1
 70
0
 10
0
 20
0
 30
0
  0
VERTEX
  5
D7F0
  8
0
 62
7
 10
58.449860945614368
 20
58.254843305087633
 70
0
  0
VERTEX
  5
D7F1
  8
0
 62
7
 10
58.407141761597259
 20
58.2975624891047
 70
0
  0
SEQEND
  5
D7F2
  8
0
  0
POLYLINE
  5
D7F3
  8
0
 62
7
 66
1
 70
0
 10
0
 20
0
 30
0
  0
VERTEX
  5
D7F4
  8
0
 62
7
 10
47.105850531783709
 20
46.360823397036818
 70
0
  0
VERTEX
  5
D7F5
  8
0
 62
7
 10
47.0204121637495
 20
46.318276467793993
 70
0
  0
VERTEX
  5
D7F6
  8
0
 62
7
 10
46.766853136035117
 20
46.275557283776877
 70
0
  0
SEQEND
  5
D7F7
  8
0
  0
POLYLINE
  5
D7F8
  8
0
 62
7
 66
1
 70
0
 10
0
 20
0
 30
0
  0
VERTEX
  5
D7F9
  8
0
 62
7
 10
44.05763004643466
 20
39.968276469381493
 70
0
  0
VERTEX
  5
D7FA
  8
0
 62
7
 10
44.141690376274717
 20
39.9269353235585
 70
0
  0
SEQEND
  5
D7FB
  8
0
  0
POLYLINE
  5
D7FC
  8
0
 62
7
 66
1
 70
0
 10
0
 20
0
 30
0
  0
VERTEX
  5
D7FD
  8
0
 62
7
 10
43.338294109114472
 20
46.233871628405382
 70
0
  0
VERTEX
  5
D7FE
  8
0
 62
7
 10
43.211514595257277
 20
46.19115244438828
 70
0
  0
SEQEND
  5
D7FF
  8
0
  0
POLYLINE
  5
D800
  8
0
 62
7
 66
1
 70
0
 10
0
 20
0
 30
0
  0
VERTEX
  5
D801
  8
0
 62
7
 10
52.777855738699017
 20
46.02182600128824
 70
0
  0
VERTEX
  5
D802
  8
0
 62
7
 10
52.60835704082475
 20
46.064545185305349
 70
0
  0
SEQEND
  5
D803
  8
0
  0
POLYLINE
  5
D804
  8
0
 62
7
 66
1
 70
0
 10
0
 20
0
 30
0
  0
VERTEX
  5
D805
  8
0
 62
7
 10
47.571627441389481
 20
61.556450563376842
 70
0
  0
VERTEX
  5
D806
  8
0
 62
7
 10
47.443469889338182
 20
61.556450563376842
 70
0
  0
SEQEND
  5
D807
  8
0
  0
POLYLINE
  5
D808
  8
0
 62
7
 66
1
 70
0
 10
0
 20
0
 30
0
  0
VERTEX
  5
D809
  8
0
 62
7
 10
54.005687769642087
 20
45.556221346456731
 70
0
  0
VERTEX
  5
D80A
  8
0
 62
7
 10
54.175186467516362
 20
45.471988761842368
 70
0
  0
VERTEX
  5
D80B
  8
0
 62
7
 10
54.512805825070863
 20
45.302490063968087
 70
0
  0
SEQEND
  5
D80C
  8
0
  0
POLYLINE
  5
D80D
  8
0
 62
7
 66
1
 70
0
 10
0
 20
0
 30
0
  0
VERTEX
  5
D80E
  8
0
 62
7
 10
47.0204121637495
 20
50.128207564931778
 70
0
  0
VERTEX
  5
D80F
  8
0
 62
7
 10
46.9790710179265
 20
50.1698932203033
 70
0
  0
SEQEND
  5
D810
  8
0
  0
POLYLINE
  5
D811
  8
0
 62
7
 66
1
 70
0
 10
0
 20
0
 30
0
  0
VERTEX
  5
D812
  8
0
 62
7
 10
41.730123536599869
 20
42.9322643701162
 70
0
  0
VERTEX
  5
D813
  8
0
 62
7
 10
41.730123536599869
 20
42.84682600208199
 70
0
  0
SEQEND
  5
D814
  8
0
  0
POLYLINE
  5
D815
  8
0
 62
7
 66
1
 70
0
 10
0
 20
0
 30
0
  0
VERTEX
  5
D816
  8
0
 62
7
 10
56.163695581602582
 20
42.84682600208199
 70
0
  0
VERTEX
  5
D817
  8
0
 62
7
 10
56.163695581602582
 20
42.9322643701162
 70
0
  0
SEQEND
  5
D818
  8
0
  0
POLYLINE
  5
D819
  8
0
 62
7
 66
1
 70
0
 10
0
 20
0
 30
0
  0
VERTEX
  5
D81A
  8
0
 62
7
 10
55.9101365538882
 20
43.862440151133647
 70
0
  0
VERTEX
  5
D81B
  8
0
 62
7
 10
55.952855737905267
 20
43.862440151133647
 70
0
  0
SEQEND
  5
D81C
  8
0
  0
POLYLINE
  5
D81D
  8
0
 62
7
 66
1
 70
0
 10
0
 20
0
 30
0
  0
VERTEX
  5
D81E
  8
0
 62
7
 10
55.952855737905267
 20
43.692769198485109
 70
0
  0
VERTEX
  5
D81F
  8
0
 62
7
 10
55.8674173698711
 20
43.905159335150749
 70
0
  0
SEQEND
  5
D820
  8
0
  0
POLYLINE
  5
D821
  8
0
 62
7
 66
1
 70
0
 10
0
 20
0
 30
0
  0
VERTEX
  5
D822
  8
0
 62
7
 10
57.052530216797031
 20
45.343831209791091
 70
0
  0
VERTEX
  5
D823
  8
0
 62
7
 10
57.095249400814133
 20
45.343831209791091
 70
0
  0
SEQEND
  5
D824
  8
0
  0
POLYLINE
  5
D825
  8
0
 62
7
 66
1
 70
0
 10
0
 20
0
 30
0
  0
VERTEX
  5
D826
  8
0
 62
7
 10
42.194522408011537
 20
47.206938848214172
 70
0
  0
VERTEX
  5
D827
  8
0
 62
7
 10
42.153181262188539
 20
47.122878518374108
 70
0
  0
SEQEND
  5
D828
  8
0
  0
POLYLINE
  5
D829
  8
0
 62
7
 66
1
 70
0
 10
0
 20
0
 30
0
  0
VERTEX
  5
D82A
  8
0
 62
7
 10
45.878018500840668
 20
41.831211853030339
 70
0
  0
VERTEX
  5
D82B
  8
0
 62
7
 10
46.08885834453794
 20
41.745773484996157
 70
0
  0
VERTEX
  5
D82C
  8
0
 62
7
 10
46.301076226429352
 20
41.745773484996157
 70
0
  0
VERTEX
  5
D82D
  8
0
 62
7
 10
46.470574924303619
 20
41.831211853030339
 70
0
  0
SEQEND
  5
D82E
  8
0
  0
POLYLINE
  5
D82F
  8
0
 62
7
 66
1
 70
0
 10
0
 20
0
 30
0
  0
VERTEX
  5
D830
  8
0
 62
7
 10
42.153181262188539
 20
47.122878518374108
 70
0
  0
VERTEX
  5
D831
  8
0
 62
7
 10
42.194522408011537
 20
47.122878518374108
 70
0
  0
SEQEND
  5
D832
  8
0
  0
POLYLINE
  5
D833
  8
0
 62
7
 66
1
 70
0
 10
0
 20
0
 30
0
  0
VERTEX
  5
D834
  8
0
 62
7
 10
51.762241589647388
 20
49.662602910100269
 70
0
  0
VERTEX
  5
D835
  8
0
 62
7
 10
51.803582735470393
 20
49.662602910100269
 70
0
  0
VERTEX
  5
D836
  8
0
 62
7
 10
51.803582735470393
 20
49.6198837260832
 70
0
  0
SEQEND
  5
D837
  8
0
  0
POLYLINE
  5
D838
  8
0
 62
7
 66
1
 70
0
 10
0
 20
0
 30
0
  0
VERTEX
  5
D839
  8
0
 62
7
 10
50.195412162955748
 20
67.3981267229407
 70
0
  0
VERTEX
  5
D83A
  8
0
 62
7
 10
49.941853135241381
 20
67.440845906957776
 70
0
  0
SEQEND
  5
D83B
  8
0
  0
POLYLINE
  5
D83C
  8
0
 62
7
 66
1
 70
0
 10
0
 20
0
 30
0
  0
VERTEX
  5
D83D
  8
0
 62
7
 10
50.23813134697285
 20
67.18711462446916
 70
0
  0
VERTEX
  5
D83E
  8
0
 62
7
 10
49.983194281064371
 20
67.228455770292129
 70
0
  0
SEQEND
  5
D83F
  8
0
  0
POLYLINE
  5
D840
  8
0
 62
7
 66
1
 70
0
 10
0
 20
0
 30
0
  0
VERTEX
  5
D841
  8
0
 62
7
 10
47.0631313477666
 20
50.128207564931778
 70
0
  0
VERTEX
  5
D842
  8
0
 62
7
 10
47.0204121637495
 20
50.128207564931778
 70
0
  0
SEQEND
  5
D843
  8
0
  0
POLYLINE
  5
D844
  8
0
 62
7
 66
1
 70
0
 10
0
 20
0
 30
0
  0
VERTEX
  5
D845
  8
0
 62
7
 10
49.729635253349969
 20
45.386550393808193
 70
0
  0
VERTEX
  5
D846
  8
0
 62
7
 10
49.772354437367078
 20
45.386550393808193
 70
0
  0
SEQEND
  5
D847
  8
0
  0
POLYLINE
  5
D848
  8
0
 62
7
 66
1
 70
0
 10
0
 20
0
 30
0
  0
VERTEX
  5
D849
  8
0
 62
7
 10
36.6492967149534
 20
44.879604593153658
 70
0
  0
VERTEX
  5
D84A
  8
0
 62
7
 10
36.6920158989705
 20
44.879604593153658
 70
0
  0
SEQEND
  5
D84B
  8
0
  0
POLYLINE
  5
D84C
  8
0
 62
7
 66
1
 70
0
 10
0
 20
0
 30
0
  0
VERTEX
  5
D84D
  8
0
 62
7
 10
57.645086640260011
 20
60.117778688736479
 70
0
  0
VERTEX
  5
D84E
  8
0
 62
7
 10
57.561026310419912
 20
60.075059504719412
 70
0
  0
VERTEX
  5
D84F
  8
0
 62
7
 10
57.51830712640281
 20
60.075059504719412
 70
0
  0
SEQEND
  5
D850
  8
0
  0
POLYLINE
  5
D851
  8
0
 62
7
 66
1
 70
0
 10
0
 20
0
 30
0
  0
VERTEX
  5
D852
  8
0
 62
7
 10
42.492178657937117
 20
58.636559884853312
 70
0
  0
VERTEX
  5
D853
  8
0
 62
7
 10
42.492178657937117
 20
58.550777007270568
 70
0
  0
VERTEX
  5
D854
  8
0
 62
7
 10
42.492178657937117
 20
58.593840700836239
 70
0
  0
SEQEND
  5
D855
  8
0
  0
POLYLINE
  5
D856
  8
0
 62
7
 66
1
 70
0
 10
0
 20
0
 30
0
  0
VERTEX
  5
D857
  8
0
 62
7
 10
50.322191676812949
 20
67.3564410675692
 70
0
  0
VERTEX
  5
D858
  8
0
 62
7
 10
50.195412162955748
 20
67.3981267229407
 70
0
  0
SEQEND
  5
D859
  8
0
  0
POLYLINE
  5
D85A
  8
0
 62
7
 66
1
 70
0
 10
0
 20
0
 30
0
  0
VERTEX
  5
D85B
  8
0
 62
7
 10
49.2225171979212
 20
61.938167143142522
 70
0
  0
VERTEX
  5
D85C
  8
0
 62
7
 10
49.2638583437442
 20
61.938167143142522
 70
0
  0
SEQEND
  5
D85D
  8
0
  0
POLYLINE
  5
D85E
  8
0
 62
7
 66
1
 70
0
 10
0
 20
0
 30
0
  0
VERTEX
  5
D85F
  8
0
 62
7
 10
42.492178657937117
 20
58.550777007270568
 70
0
  0
VERTEX
  5
D860
  8
0
 62
7
 10
42.533519803760122
 20
58.550777007270568
 70
0
  0
SEQEND
  5
D861
  8
0
  0
POLYLINE
  5
D862
  8
0
 62
7
 66
1
 70
0
 10
0
 20
0
 30
0
  0
VERTEX
  5
D863
  8
0
 62
7
 10
42.703018501634418
 20
58.932838096584788
 70
0
  0
VERTEX
  5
D864
  8
0
 62
7
 10
42.533519803760122
 20
58.805886327953338
 70
0
  0
VERTEX
  5
D865
  8
0
 62
7
 10
42.492178657937117
 20
58.636559884853312
 70
0
  0
SEQEND
  5
D866
  8
0
  0
POLYLINE
  5
D867
  8
0
 62
7
 66
1
 70
0
 10
0
 20
0
 30
0
  0
VERTEX
  5
D868
  8
0
 62
7
 10
52.820574922716119
 20
50.974495270883409
 70
0
  0
VERTEX
  5
D869
  8
0
 62
7
 10
52.861916068539117
 20
50.974495270883409
 70
0
  0
SEQEND
  5
D86A
  8
0
  0
POLYLINE
  5
D86B
  8
0
 62
7
 66
1
 70
0
 10
0
 20
0
 30
0
  0
VERTEX
  5
D86C
  8
0
 62
7
 10
53.413131346179107
 20
50.720936243169007
 70
0
  0
VERTEX
  5
D86D
  8
0
 62
7
 10
53.4544724920021
 20
50.720936243169007
 70
0
  0
SEQEND
  5
D86E
  8
0
  0
POLYLINE
  5
D86F
  8
0
 62
7
 66
1
 70
0
 10
0
 20
0
 30
0
  0
VERTEX
  5
D870
  8
0
 62
7
 10
52.820574922716119
 20
50.974495270883409
 70
0
  0
VERTEX
  5
D871
  8
0
 62
7
 10
52.861916068539117
 20
50.974495270883409
 70
0
  0
SEQEND
  5
D872
  8
0
  0
POLYLINE
  5
D873
  8
0
 62
7
 66
1
 70
0
 10
0
 20
0
 30
0
  0
VERTEX
  5
D874
  8
0
 62
7
 10
53.413131346179107
 20
50.720936243169007
 70
0
  0
VERTEX
  5
D875
  8
0
 62
7
 10
53.4544724920021
 20
50.720936243169007
 70
0
  0
SEQEND
  5
D876
  8
0
  0
POLYLINE
  5
D877
  8
0
 62
7
 66
1
 70
0
 10
0
 20
0
 30
0
  0
VERTEX
  5
D878
  8
0
 62
7
 10
49.686916069332867
 20
67.3564410675692
 70
0
  0
VERTEX
  5
D879
  8
0
 62
7
 10
49.729635253349969
 20
67.3564410675692
 70
0
  0
SEQEND
  5
D87A
  8
0
  0
POLYLINE
  5
D87B
  8
0
 62
7
 66
1
 70
0
 10
0
 20
0
 30
0
  0
VERTEX
  5
D87C
  8
0
 62
7
 10
53.413131346179107
 20
50.720936243169007
 70
0
  0
VERTEX
  5
D87D
  8
0
 62
7
 10
53.4544724920021
 20
50.720936243169007
 70
0
  0
SEQEND
  5
D87E
  8
0
  0
POLYLINE
  5
D87F
  8
0
 62
7
 66
1
 70
0
 10
0
 20
0
 30
0
  0
VERTEX
  5
D880
  8
0
 62
7
 10
52.820574922716119
 20
50.974495270883409
 70
0
  0
VERTEX
  5
D881
  8
0
 62
7
 10
52.861916068539117
 20
50.974495270883409
 70
0
  0
SEQEND
  5
D882
  8
0
  0
POLYLINE
  5
D883
  8
0
 62
7
 66
1
 70
0
 10
0
 20
0
 30
0
  0
VERTEX
  5
D884
  8
0
 62
7
 10
54.682304522945131
 20
65.493505683920347
 70
0
  0
VERTEX
  5
D885
  8
0
 62
7
 10
54.72502370696224
 20
65.493505683920347
 70
0
  0
SEQEND
  5
D886
  8
0
  0
POLYLINE
  5
D887
  8
0
 62
7
 66
1
 70
0
 10
0
 20
0
 30
0
  0
VERTEX
  5
D888
  8
0
 62
7
 10
46.9790710179265
 20
50.1698932203033
 70
0
  0
VERTEX
  5
D889
  8
0
 62
7
 10
47.0204121637495
 20
50.1698932203033
 70
0
  0
SEQEND
  5
D88A
  8
0
  0
POLYLINE
  5
D88B
  8
0
 62
7
 66
1
 70
0
 10
0
 20
0
 30
0
  0
VERTEX
  5
D88C
  8
0
 62
7
 10
47.612968587212478
 20
61.852728775108318
 70
0
  0
VERTEX
  5
D88D
  8
0
 62
7
 10
47.486189073355277
 20
61.811559884059562
 70
0
  0
SEQEND
  5
D88E
  8
0
  0
POLYLINE
  5
D88F
  8
0
 62
7
 66
1
 70
0
 10
0
 20
0
 30
0
  0
VERTEX
  5
D890
  8
0
 62
7
 10
54.682304522945131
 20
65.493505683920347
 70
0
  0
VERTEX
  5
D891
  8
0
 62
7
 10
54.555525009087972
 20
65.577393758986176
 70
0
  0
SEQEND
  5
D892
  8
0
  0
POLYLINE
  5
D893
  8
0
 62
7
 66
1
 70
0
 10
0
 20
0
 30
0
  0
VERTEX
  5
D894
  8
0
 62
7
 10
49.941853135241381
 20
67.440845906957776
 70
0
  0
VERTEX
  5
D895
  8
0
 62
7
 10
49.686916069332867
 20
67.3564410675692
 70
0
  0
SEQEND
  5
D896
  8
0
  0
POLYLINE
  5
D897
  8
0
 62
7
 66
1
 70
0
 10
0
 20
0
 30
0
  0
VERTEX
  5
D898
  8
0
 62
7
 10
55.8674173698711
 20
56.350222266067277
 70
0
  0
VERTEX
  5
D899
  8
0
 62
7
 10
55.783357040031
 20
56.350222266067277
 70
0
  0
SEQEND
  5
D89A
  8
0
  0
POLYLINE
  5
D89B
  8
0
 62
7
 66
1
 70
0
 10
0
 20
0
 30
0
  0
VERTEX
  5
D89C
  8
0
 62
7
 10
60.143469886163182
 20
58.889774403019182
 70
0
  0
VERTEX
  5
D89D
  8
0
 62
7
 10
60.184811031986179
 20
58.974179242407807
 70
0
  0
SEQEND
  5
D89E
  8
0
  0
POLYLINE
  5
D89F
  8
0
 62
7
 66
1
 70
0
 10
0
 20
0
 30
0
  0
VERTEX
  5
D8A0
  8
0
 62
7
 10
62.513695580015067
 20
59.3558958221735
 70
0
  0
VERTEX
  5
D8A1
  8
0
 62
7
 10
62.556414764032169
 20
59.439783897239323
 70
0
  0
SEQEND
  5
D8A2
  8
0
  0
POLYLINE
  5
D8A3
  8
0
 62
7
 66
1
 70
0
 10
0
 20
0
 30
0
  0
VERTEX
  5
D8A4
  8
0
 62
7
 10
62.470976395997972
 20
57.958392838581887
 70
0
  0
VERTEX
  5
D8A5
  8
0
 62
7
 10
62.513695580015067
 20
58.04383120661609
 70
0
  0
SEQEND
  5
D8A6
  8
0
  0
POLYLINE
  5
D8A7
  8
0
 62
7
 66
1
 70
0
 10
0
 20
0
 30
0
  0
VERTEX
  5
D8A8
  8
0
 62
7
 10
56.545412161368247
 20
56.0964909835786
 70
0
  0
VERTEX
  5
D8A9
  8
0
 62
7
 10
56.586753307191252
 20
55.9698837244957
 70
0
  0
SEQEND
  5
D8AA
  8
0
  0
POLYLINE
  5
D8AB
  8
0
 62
7
 66
1
 70
0
 10
0
 20
0
 30
0
  0
VERTEX
  5
D8AC
  8
0
 62
7
 10
56.883031518922728
 20
59.864219661022076
 70
0
  0
VERTEX
  5
D8AD
  8
0
 62
7
 10
56.92575070293983
 20
59.864219661022076
 70
0
  0
SEQEND
  5
D8AE
  8
0
  0
POLYLINE
  5
D8AF
  8
0
 62
7
 66
1
 70
0
 10
0
 20
0
 30
0
  0
VERTEX
  5
D8B0
  8
0
 62
7
 10
57.222028914671341
 20
60.244558202593652
 70
0
  0
VERTEX
  5
D8B1
  8
0
 62
7
 10
57.264748098688429
 20
60.244558202593652
 70
0
  0
SEQEND
  5
D8B2
  8
0
  0
POLYLINE
  5
D8B3
  8
0
 62
7
 66
1
 70
0
 10
0
 20
0
 30
0
  0
VERTEX
  5
D8B4
  8
0
 62
7
 10
58.365800615774269
 20
60.244558202593652
 70
0
  0
VERTEX
  5
D8B5
  8
0
 62
7
 10
58.407141761597259
 20
60.244558202593652
 70
0
  0
SEQEND
  5
D8B6
  8
0
  0
POLYLINE
  5
D8B7
  8
0
 62
7
 66
1
 70
0
 10
0
 20
0
 30
0
  0
VERTEX
  5
D8B8
  8
0
 62
7
 10
57.984084036008589
 20
59.864219661022076
 70
0
  0
VERTEX
  5
D8B9
  8
0
 62
7
 10
58.026803220025691
 20
59.905388552070832
 70
0
  0
SEQEND
  5
D8BA
  8
0
  0
POLYLINE
  5
D8BB
  8
0
 62
7
 66
1
 70
0
 10
0
 20
0
 30
0
  0
VERTEX
  5
D8BC
  8
0
 62
7
 10
56.545412161368247
 20
60.075059504719412
 70
0
  0
VERTEX
  5
D8BD
  8
0
 62
7
 10
56.545412161368247
 20
60.032512575476538
 70
0
  0
SEQEND
  5
D8BE
  8
0
  0
POLYLINE
  5
D8BF
  8
0
 62
7
 66
1
 70
0
 10
0
 20
0
 30
0
  0
VERTEX
  5
D8C0
  8
0
 62
7
 10
58.026803220025691
 20
59.905388552070832
 70
0
  0
VERTEX
  5
D8C1
  8
0
 62
7
 10
58.069522404042793
 20
59.9481077360879
 70
0
  0
SEQEND
  5
D8C2
  8
0
  0
POLYLINE
  5
D8C3
  8
0
 62
7
 66
1
 70
0
 10
0
 20
0
 30
0
  0
VERTEX
  5
D8C4
  8
0
 62
7
 10
58.237643063722992
 20
59.991171429653569
 70
0
  0
VERTEX
  5
D8C5
  8
0
 62
7
 10
58.280362247740058
 20
59.991171429653569
 70
0
  0
SEQEND
  5
D8C6
  8
0
  0
POLYLINE
  5
D8C7
  8
0
 62
7
 66
1
 70
0
 10
0
 20
0
 30
0
  0
VERTEX
  5
D8C8
  8
0
 62
7
 10
57.561026310419912
 20
59.905388552070832
 70
0
  0
VERTEX
  5
D8C9
  8
0
 62
7
 10
57.687805824277113
 20
59.864219661022076
 70
0
  0
SEQEND
  5
D8CA
  8
0
  0
POLYLINE
  5
D8CB
  8
0
 62
7
 66
1
 70
0
 10
0
 20
0
 30
0
  0
VERTEX
  5
D8CC
  8
0
 62
7
 10
57.179309730654232
 20
59.821500477005
 70
0
  0
VERTEX
  5
D8CD
  8
0
 62
7
 10
57.222028914671341
 20
59.821500477005
 70
0
  0
SEQEND
  5
D8CE
  8
0
  0
POLYLINE
  5
D8CF
  8
0
 62
7
 66
1
 70
0
 10
0
 20
0
 30
0
  0
VERTEX
  5
D8D0
  8
0
 62
7
 10
54.005687769642087
 20
50.931776086866343
 70
0
  0
VERTEX
  5
D8D1
  8
0
 62
7
 10
53.4544724920021
 20
49.873442753797541
 70
0
  0
SEQEND
  5
D8D2
  8
0
  0
POLYLINE
  5
D8D3
  8
0
 62
7
 66
1
 70
0
 10
0
 20
0
 30
0
  0
VERTEX
  5
D8D4
  8
0
 62
7
 10
55.994196883728272
 20
50.128207564931778
 70
0
  0
VERTEX
  5
D8D5
  8
0
 62
7
 10
55.40164046026532
 20
49.027155047845923
 70
0
  0
SEQEND
  5
D8D6
  8
0
  0
POLYLINE
  5
D8D7
  8
0
 62
7
 66
1
 70
0
 10
0
 20
0
 30
0
  0
VERTEX
  5
D8D8
  8
0
 62
7
 10
53.962968585624978
 20
50.974495270883409
 70
0
  0
VERTEX
  5
D8D9
  8
0
 62
7
 10
53.413131346179107
 20
49.873442753797541
 70
0
  0
SEQEND
  5
D8DA
  8
0
  0
POLYLINE
  5
D8DB
  8
0
 62
7
 66
1
 70
0
 10
0
 20
0
 30
0
  0
VERTEX
  5
D8DC
  8
0
 62
7
 10
56.92575070293983
 20
51.058555600723508
 70
0
  0
VERTEX
  5
D8DD
  8
0
 62
7
 10
55.994196883728272
 20
50.128207564931778
 70
0
  0
SEQEND
  5
D8DE
  8
0
  0
POLYLINE
  5
D8DF
  8
0
 62
7
 66
1
 70
0
 10
0
 20
0
 30
0
  0
VERTEX
  5
D8E0
  8
0
 62
7
 10
54.34330712719656
 20
52.159435863035092
 70
0
  0
VERTEX
  5
D8E1
  8
0
 62
7
 10
54.005687769642087
 20
50.931776086866343
 70
0
  0
SEQEND
  5
D8E2
  8
0
  0
POLYLINE
  5
D8E3
  8
0
 62
7
 66
1
 70
0
 10
0
 20
0
 30
0
  0
VERTEX
  5
D8E4
  8
0
 62
7
 10
54.30196598137357
 20
52.202155047052173
 70
0
  0
VERTEX
  5
D8E5
  8
0
 62
7
 10
53.962968585624978
 20
50.974495270883409
 70
0
  0
SEQEND
  5
D8E6
  8
0
  0
POLYLINE
  5
D8E7
  8
0
 62
7
 66
1
 70
0
 10
0
 20
0
 30
0
  0
VERTEX
  5
D8E8
  8
0
 62
7
 10
56.418632647511053
 20
60.921174955896753
 70
0
  0
VERTEX
  5
D8E9
  8
0
 62
7
 10
56.459973793334051
 20
60.921174955896753
 70
0
  0
SEQEND
  5
D8EA
  8
0
  0
POLYLINE
  5
D8EB
  8
0
 62
7
 66
1
 70
0
 10
0
 20
0
 30
0
  0
VERTEX
  5
D8EC
  8
0
 62
7
 10
57.941364851991487
 20
60.117778688736479
 70
0
  0
VERTEX
  5
D8ED
  8
0
 62
7
 10
57.773244192311289
 20
60.032512575476538
 70
0
  0
VERTEX
  5
D8EE
  8
0
 62
7
 10
57.645086640260011
 20
60.117778688736479
 70
0
  0
SEQEND
  5
D8EF
  8
0
  0
POLYLINE
  5
D8F0
  8
0
 62
7
 66
1
 70
0
 10
0
 20
0
 30
0
  0
VERTEX
  5
D8F1
  8
0
 62
7
 10
57.687805824277113
 20
59.9481077360879
 70
0
  0
VERTEX
  5
D8F2
  8
0
 62
7
 10
57.561026310419912
 20
59.905388552070832
 70
0
  0
SEQEND
  5
D8F3
  8
0
  0
POLYLINE
  5
D8F4
  8
0
 62
7
 66
1
 70
0
 10
0
 20
0
 30
0
  0
VERTEX
  5
D8F5
  8
0
 62
7
 10
58.069522404042793
 20
60.075059504719412
 70
0
  0
VERTEX
  5
D8F6
  8
0
 62
7
 10
57.941364851991487
 20
60.117778688736479
 70
0
  0
SEQEND
  5
D8F7
  8
0
  0
POLYLINE
  5
D8F8
  8
0
 62
7
 66
1
 70
0
 10
0
 20
0
 30
0
  0
VERTEX
  5
D8F9
  8
0
 62
7
 10
58.069522404042793
 20
59.9481077360879
 70
0
  0
VERTEX
  5
D8FA
  8
0
 62
7
 10
57.90002370616849
 20
59.9481077360879
 70
0
  0
SEQEND
  5
D8FB
  8
0
  0
POLYLINE
  5
D8FC
  8
0
 62
7
 66
1
 70
0
 10
0
 20
0
 30
0
  0
VERTEX
  5
D8FD
  8
0
 62
7
 10
58.153582733882892
 20
59.905388552070832
 70
0
  0
VERTEX
  5
D8FE
  8
0
 62
7
 10
58.280362247740058
 20
60.075059504719412
 70
0
  0
VERTEX
  5
D8FF
  8
0
 62
7
 10
58.365800615774269
 20
60.244558202593652
 70
0
  0
SEQEND
  5
D900
  8
0
  0
POLYLINE
  5
D901
  8
0
 62
7
 66
1
 70
0
 10
0
 20
0
 30
0
  0
VERTEX
  5
D902
  8
0
 62
7
 10
57.264748098688429
 20
60.244558202593652
 70
0
  0
VERTEX
  5
D903
  8
0
 62
7
 10
57.348808428528507
 20
59.991171429653569
 70
0
  0
VERTEX
  5
D904
  8
0
 62
7
 10
57.561026310419912
 20
59.864219661022076
 70
0
  0
VERTEX
  5
D905
  8
0
 62
7
 10
57.814585338134279
 20
59.821500477005
 70
0
  0
VERTEX
  5
D906
  8
0
 62
7
 10
58.069522404042793
 20
59.864219661022076
 70
0
  0
VERTEX
  5
D907
  8
0
 62
7
 10
58.153582733882892
 20
59.905388552070832
 70
0
  0
SEQEND
  5
D908
  8
0
  0
POLYLINE
  5
D909
  8
0
 62
7
 66
1
 70
0
 10
0
 20
0
 30
0
  0
VERTEX
  5
D90A
  8
0
 62
7
 10
57.30746728270551
 20
60.371509971225152
 70
0
  0
VERTEX
  5
D90B
  8
0
 62
7
 10
57.264748098688429
 20
60.244558202593652
 70
0
  0
SEQEND
  5
D90C
  8
0
  0
POLYLINE
  5
D90D
  8
0
 62
7
 66
1
 70
0
 10
0
 20
0
 30
0
  0
VERTEX
  5
D90E
  8
0
 62
7
 10
58.069522404042793
 20
60.075059504719412
 70
0
  0
VERTEX
  5
D90F
  8
0
 62
7
 10
57.90002370616849
 20
59.9481077360879
 70
0
  0
SEQEND
  5
D910
  8
0
  0
POLYLINE
  5
D911
  8
0
 62
7
 66
1
 70
0
 10
0
 20
0
 30
0
  0
VERTEX
  5
D912
  8
0
 62
7
 10
57.687805824277113
 20
59.9481077360879
 70
0
  0
VERTEX
  5
D913
  8
0
 62
7
 10
57.51830712640281
 20
60.075059504719412
 70
0
  0
SEQEND
  5
D914
  8
0
  0
POLYLINE
  5
D915
  8
0
 62
7
 66
1
 70
0
 10
0
 20
0
 30
0
  0
VERTEX
  5
D916
  8
0
 62
7
 10
58.069522404042793
 20
59.905388552070832
 70
0
  0
VERTEX
  5
D917
  8
0
 62
7
 10
58.153582733882892
 20
59.991171429653569
 70
0
  0
VERTEX
  5
D918
  8
0
 62
7
 10
58.153582733882892
 20
60.075059504719412
 70
0
  0
VERTEX
  5
D919
  8
0
 62
7
 10
57.941364851991487
 20
60.160497872753609
 70
0
  0
VERTEX
  5
D91A
  8
0
 62
7
 10
57.51830712640281
 20
60.117778688736479
 70
0
  0
SEQEND
  5
D91B
  8
0
  0
POLYLINE
  5
D91C
  8
0
 62
7
 66
1
 70
0
 10
0
 20
0
 30
0
  0
VERTEX
  5
D91D
  8
0
 62
7
 10
58.365800615774269
 20
60.244558202593652
 70
0
  0
VERTEX
  5
D91E
  8
0
 62
7
 10
58.32308143175716
 20
60.328790787208021
 70
0
  0
SEQEND
  5
D91F
  8
0
  0
POLYLINE
  5
D920
  8
0
 62
7
 66
1
 70
0
 10
0
 20
0
 30
0
  0
VERTEX
  5
D921
  8
0
 62
7
 10
57.687805824277113
 20
59.864219661022076
 70
0
  0
VERTEX
  5
D922
  8
0
 62
7
 10
57.814585338134279
 20
59.905388552070832
 70
0
  0
VERTEX
  5
D923
  8
0
 62
7
 10
57.984084036008589
 20
59.864219661022076
 70
0
  0
SEQEND
  5
D924
  8
0
  0
POLYLINE
  5
D925
  8
0
 62
7
 66
1
 70
0
 10
0
 20
0
 30
0
  0
VERTEX
  5
D926
  8
0
 62
7
 10
57.51830712640281
 20
60.117778688736479
 70
0
  0
VERTEX
  5
D927
  8
0
 62
7
 10
57.434246796562711
 20
60.032512575476538
 70
0
  0
VERTEX
  5
D928
  8
0
 62
7
 10
57.475587942385708
 20
59.9481077360879
 70
0
  0
VERTEX
  5
D929
  8
0
 62
7
 10
57.645086640260011
 20
59.864219661022076
 70
0
  0
VERTEX
  5
D92A
  8
0
 62
7
 10
58.069522404042793
 20
59.905388552070832
 70
0
  0
SEQEND
  5
D92B
  8
0
  0
POLYLINE
  5
D92C
  8
0
 62
7
 66
1
 70
0
 10
0
 20
0
 30
0
  0
VERTEX
  5
D92D
  8
0
 62
7
 10
56.714910859242551
 20
59.9481077360879
 70
0
  0
VERTEX
  5
D92E
  8
0
 62
7
 10
56.756252005065548
 20
59.9481077360879
 70
0
  0
VERTEX
  5
D92F
  8
0
 62
7
 10
56.883031518922728
 20
60.032512575476538
 70
0
  0
SEQEND
  5
D930
  8
0
  0
POLYLINE
  5
D931
  8
0
 62
7
 66
1
 70
0
 10
0
 20
0
 30
0
  0
VERTEX
  5
D932
  8
0
 62
7
 10
60.989585337340529
 20
57.535507367767451
 70
0
  0
VERTEX
  5
D933
  8
0
 62
7
 10
60.905525007500458
 20
57.662114626850411
 70
0
  0
VERTEX
  5
D934
  8
0
 62
7
 10
60.69330712560906
 20
57.704833810867477
 70
0
  0
VERTEX
  5
D935
  8
0
 62
7
 10
60.312968584037492
 20
57.662114626850411
 70
0
  0
SEQEND
  5
D936
  8
0
  0
POLYLINE
  5
D937
  8
0
 62
7
 66
1
 70
0
 10
0
 20
0
 30
0
  0
VERTEX
  5
D938
  8
0
 62
7
 10
61.624860944820618
 20
57.917223947533131
 70
0
  0
VERTEX
  5
D939
  8
0
 62
7
 10
61.539422576786407
 20
58.04383120661609
 70
0
  0
VERTEX
  5
D93A
  8
0
 62
7
 10
61.328582733089142
 20
58.085172352439059
 70
0
  0
VERTEX
  5
D93B
  8
0
 62
7
 10
60.946866153323462
 20
58.04383120661609
 70
0
  0
SEQEND
  5
D93C
  8
0
  0
POLYLINE
  5
D93D
  8
0
 62
7
 66
1
 70
0
 10
0
 20
0
 30
0
  0
VERTEX
  5
D93E
  8
0
 62
7
 10
56.418632647511053
 20
60.921174955896753
 70
0
  0
VERTEX
  5
D93F
  8
0
 62
7
 10
56.459973793334051
 20
60.921174955896753
 70
0
  0
SEQEND
  5
D940
  8
0
  0
POLYLINE
  5
D941
  8
0
 62
7
 66
1
 70
0
 10
0
 20
0
 30
0
  0
VERTEX
  5
D942
  8
0
 62
7
 10
57.348808428528507
 20
60.371509971225152
 70
0
  0
VERTEX
  5
D943
  8
0
 62
7
 10
57.179309730654232
 20
60.201839018576578
 70
0
  0
SEQEND
  5
D944
  8
0
  0
POLYLINE
  5
D945
  8
0
 62
7
 66
1
 70
0
 10
0
 20
0
 30
0
  0
VERTEX
  5
D946
  8
0
 62
7
 10
56.92575070293983
 20
59.9481077360879
 70
0
  0
VERTEX
  5
D947
  8
0
 62
7
 10
56.84169037309973
 20
59.864219661022076
 70
0
  0
SEQEND
  5
D948
  8
0
  0
POLYLINE
  5
D949
  8
0
 62
7
 66
1
 70
0
 10
0
 20
0
 30
0
  0
VERTEX
  5
D94A
  8
0
 62
7
 10
60.312968584037492
 20
57.662114626850411
 70
0
  0
VERTEX
  5
D94B
  8
0
 62
7
 10
60.270249400020383
 20
57.620773481027392
 70
0
  0
SEQEND
  5
D94C
  8
0
  0
POLYLINE
  5
D94D
  8
0
 62
7
 66
1
 70
0
 10
0
 20
0
 30
0
  0
VERTEX
  5
D94E
  8
0
 62
7
 10
60.946866153323462
 20
58.04383120661609
 70
0
  0
VERTEX
  5
D94F
  8
0
 62
7
 10
60.86280582348337
 20
57.917223947533131
 70
0
  0
SEQEND
  5
D950
  8
0
  0
POLYLINE
  5
D951
  8
0
 62
7
 66
1
 70
0
 10
0
 20
0
 30
0
  0
VERTEX
  5
D952
  8
0
 62
7
 10
57.137968584831242
 20
58.00111202259896
 70
0
  0
VERTEX
  5
D953
  8
0
 62
7
 10
57.052530216797031
 20
57.87450476351605
 70
0
  0
SEQEND
  5
D954
  8
0
  0
POLYLINE
  5
D955
  8
0
 62
7
 66
1
 70
0
 10
0
 20
0
 30
0
  0
VERTEX
  5
D956
  8
0
 62
7
 10
55.8674173698711
 20
57.281776085278828
 70
0
  0
VERTEX
  5
D957
  8
0
 62
7
 10
55.783357040031
 20
57.154824316647328
 70
0
  0
SEQEND
  5
D958
  8
0
  0
POLYLINE
  5
D959
  8
0
 62
7
 66
1
 70
0
 10
0
 20
0
 30
0
  0
VERTEX
  5
D95A
  8
0
 62
7
 10
56.756252005065548
 20
60.287105131836512
 70
0
  0
VERTEX
  5
D95B
  8
0
 62
7
 10
56.883031518922728
 20
59.991171429653569
 70
0
  0
VERTEX
  5
D95C
  8
0
 62
7
 10
57.137968584831242
 20
59.821500477005
 70
0
  0
SEQEND
  5
D95D
  8
0
  0
POLYLINE
  5
D95E
  8
0
 62
7
 66
1
 70
0
 10
0
 20
0
 30
0
  0
VERTEX
  5
D95F
  8
0
 62
7
 10
56.502692977351153
 20
57.788721885933313
 70
0
  0
VERTEX
  5
D960
  8
0
 62
7
 10
56.418632647511053
 20
57.917223947533131
 70
0
  0
SEQEND
  5
D961
  8
0
  0
POLYLINE
  5
D962
  8
0
 62
7
 66
1
 70
0
 10
0
 20
0
 30
0
  0
VERTEX
  5
D963
  8
0
 62
7
 10
55.571139158139587
 20
61.768840700042482
 70
0
  0
VERTEX
  5
D964
  8
0
 62
7
 10
55.571139158139587
 20
61.811559884059562
 70
0
  0
SEQEND
  5
D965
  8
0
  0
POLYLINE
  5
D966
  8
0
 62
7
 66
1
 70
0
 10
0
 20
0
 30
0
  0
VERTEX
  5
D967
  8
0
 62
7
 10
58.407141761597259
 20
60.201839018576578
 70
0
  0
VERTEX
  5
D968
  8
0
 62
7
 10
58.280362247740058
 20
60.371509971225152
 70
0
  0
VERTEX
  5
D969
  8
0
 62
7
 10
58.026803220025691
 20
60.456776084485078
 70
0
  0
VERTEX
  5
D96A
  8
0
 62
7
 10
57.51830712640281
 20
60.456776084485078
 70
0
  0
VERTEX
  5
D96B
  8
0
 62
7
 10
57.348808428528507
 20
60.371509971225152
 70
0
  0
SEQEND
  5
D96C
  8
0
  0
POLYLINE
  5
D96D
  8
0
 62
7
 66
1
 70
0
 10
0
 20
0
 30
0
  0
VERTEX
  5
D96E
  8
0
 62
7
 10
56.883031518922728
 20
59.864219661022076
 70
0
  0
VERTEX
  5
D96F
  8
0
 62
7
 10
56.756252005065548
 20
59.864219661022076
 70
0
  0
SEQEND
  5
D970
  8
0
  0
POLYLINE
  5
D971
  8
0
 62
7
 66
1
 70
0
 10
0
 20
0
 30
0
  0
VERTEX
  5
D972
  8
0
 62
7
 10
57.857304522151388
 20
57.87450476351605
 70
0
  0
VERTEX
  5
D973
  8
0
 62
7
 10
57.730525008294222
 20
58.04383120661609
 70
0
  0
VERTEX
  5
D974
  8
0
 62
7
 10
57.51830712640281
 20
58.085172352439059
 70
0
  0
VERTEX
  5
D975
  8
0
 62
7
 10
57.137968584831242
 20
58.00111202259896
 70
0
  0
SEQEND
  5
D976
  8
0
  0
POLYLINE
  5
D977
  8
0
 62
7
 66
1
 70
0
 10
0
 20
0
 30
0
  0
VERTEX
  5
D978
  8
0
 62
7
 10
56.586753307191252
 20
57.154824316647328
 70
0
  0
VERTEX
  5
D979
  8
0
 62
7
 10
56.459973793334051
 20
57.281776085278828
 70
0
  0
VERTEX
  5
D97A
  8
0
 62
7
 10
56.249133949636779
 20
57.3231172311018
 70
0
  0
VERTEX
  5
D97B
  8
0
 62
7
 10
55.8674173698711
 20
57.281776085278828
 70
0
  0
SEQEND
  5
D97C
  8
0
  0
POLYLINE
  5
D97D
  8
0
 62
7
 66
1
 70
0
 10
0
 20
0
 30
0
  0
VERTEX
  5
D97E
  8
0
 62
7
 10
62.556414764032169
 20
59.439783897239323
 70
0
  0
VERTEX
  5
D97F
  8
0
 62
7
 10
62.513695580015067
 20
59.4825030812564
 70
0
  0
SEQEND
  5
D980
  8
0
  0
POLYLINE
  5
D981
  8
0
 62
7
 66
1
 70
0
 10
0
 20
0
 30
0
  0
VERTEX
  5
D982
  8
0
 62
7
 10
60.905525007500458
 20
57.408555599136008
 70
0
  0
VERTEX
  5
D983
  8
0
 62
7
 10
60.989585337340529
 20
57.535507367767451
 70
0
  0
SEQEND
  5
D984
  8
0
  0
POLYLINE
  5
D985
  8
0
 62
7
 66
1
 70
0
 10
0
 20
0
 30
0
  0
VERTEX
  5
D986
  8
0
 62
7
 10
61.539422576786407
 20
57.788721885933313
 70
0
  0
VERTEX
  5
D987
  8
0
 62
7
 10
61.624860944820618
 20
57.917223947533131
 70
0
  0
SEQEND
  5
D988
  8
0
  0
POLYLINE
  5
D989
  8
0
 62
7
 66
1
 70
0
 10
0
 20
0
 30
0
  0
VERTEX
  5
D98A
  8
0
 62
7
 10
56.418632647511053
 20
60.921174955896753
 70
0
  0
VERTEX
  5
D98B
  8
0
 62
7
 10
56.459973793334051
 20
60.921174955896753
 70
0
  0
SEQEND
  5
D98C
  8
0
  0
POLYLINE
  5
D98D
  8
0
 62
7
 66
1
 70
0
 10
0
 20
0
 30
0
  0
VERTEX
  5
D98E
  8
0
 62
7
 10
60.86280582348337
 20
57.365836415118928
 70
0
  0
VERTEX
  5
D98F
  8
0
 62
7
 10
60.905525007500458
 20
57.408555599136008
 70
0
  0
SEQEND
  5
D990
  8
0
  0
POLYLINE
  5
D991
  8
0
 62
7
 66
1
 70
0
 10
0
 20
0
 30
0
  0
VERTEX
  5
D992
  8
0
 62
7
 10
56.545412161368247
 20
56.0964909835786
 70
0
  0
VERTEX
  5
D993
  8
0
 62
7
 10
56.586753307191252
 20
56.0964909835786
 70
0
  0
SEQEND
  5
D994
  8
0
  0
POLYLINE
  5
D995
  8
0
 62
7
 66
1
 70
0
 10
0
 20
0
 30
0
  0
VERTEX
  5
D996
  8
0
 62
7
 10
55.783357040031
 20
56.350222266067277
 70
0
  0
VERTEX
  5
D997
  8
0
 62
7
 10
55.8260762240481
 20
56.350222266067277
 70
0
  0
SEQEND
  5
D998
  8
0
  0
POLYLINE
  5
D999
  8
0
 62
7
 66
1
 70
0
 10
0
 20
0
 30
0
  0
VERTEX
  5
D99A
  8
0
 62
7
 10
55.952855737905267
 20
56.39276919531008
 70
0
  0
VERTEX
  5
D99B
  8
0
 62
7
 10
55.952855737905267
 20
56.4341103411331
 70
0
  0
SEQEND
  5
D99C
  8
0
  0
POLYLINE
  5
D99D
  8
0
 62
7
 66
1
 70
0
 10
0
 20
0
 30
0
  0
VERTEX
  5
D99E
  8
0
 62
7
 10
57.730525008294222
 20
57.788721885933313
 70
0
  0
VERTEX
  5
D99F
  8
0
 62
7
 10
57.857304522151388
 20
57.87450476351605
 70
0
  0
SEQEND
  5
D9A0
  8
0
  0
POLYLINE
  5
D9A1
  8
0
 62
7
 66
1
 70
0
 10
0
 20
0
 30
0
  0
VERTEX
  5
D9A2
  8
0
 62
7
 10
56.502692977351153
 20
57.026839019370328
 70
0
  0
VERTEX
  5
D9A3
  8
0
 62
7
 10
56.586753307191252
 20
57.154824316647328
 70
0
  0
SEQEND
  5
D9A4
  8
0
  0
POLYLINE
  5
D9A5
  8
0
 62
7
 66
1
 70
0
 10
0
 20
0
 30
0
  0
VERTEX
  5
D9A6
  8
0
 62
7
 10
60.86280582348337
 20
57.917223947533131
 70
0
  0
VERTEX
  5
D9A7
  8
0
 62
7
 10
60.989585337340529
 20
57.747552994884607
 70
0
  0
VERTEX
  5
D9A8
  8
0
 62
7
 10
61.159084035214832
 20
57.704833810867477
 70
0
  0
VERTEX
  5
D9A9
  8
0
 62
7
 10
61.539422576786407
 20
57.788721885933313
 70
0
  0
SEQEND
  5
D9AA
  8
0
  0
POLYLINE
  5
D9AB
  8
0
 62
7
 66
1
 70
0
 10
0
 20
0
 30
0
  0
VERTEX
  5
D9AC
  8
0
 62
7
 10
58.280362247740058
 20
59.991171429653569
 70
0
  0
VERTEX
  5
D9AD
  8
0
 62
7
 10
58.407141761597259
 20
60.201839018576578
 70
0
  0
SEQEND
  5
D9AE
  8
0
  0
POLYLINE
  5
D9AF
  8
0
 62
7
 66
1
 70
0
 10
0
 20
0
 30
0
  0
VERTEX
  5
D9B0
  8
0
 62
7
 10
62.513695580015067
 20
58.04383120661609
 70
0
  0
VERTEX
  5
D9B1
  8
0
 62
7
 10
62.470976395997972
 20
58.04383120661609
 70
0
  0
SEQEND
  5
D9B2
  8
0
  0
POLYLINE
  5
D9B3
  8
0
 62
7
 66
1
 70
0
 10
0
 20
0
 30
0
  0
VERTEX
  5
D9B4
  8
0
 62
7
 10
58.407141761597259
 20
60.540836414325177
 70
0
  0
VERTEX
  5
D9B5
  8
0
 62
7
 10
57.857304522151388
 20
60.667443673408087
 70
0
  0
VERTEX
  5
D9B6
  8
0
 62
7
 10
57.30746728270551
 20
60.583555598342251
 70
0
  0
VERTEX
  5
D9B7
  8
0
 62
7
 10
57.052530216797031
 20
60.456776084485078
 70
0
  0
VERTEX
  5
D9B8
  8
0
 62
7
 10
56.883031518922728
 20
60.244558202593652
 70
0
  0
VERTEX
  5
D9B9
  8
0
 62
7
 10
56.92575070293983
 20
59.991171429653569
 70
0
  0
VERTEX
  5
D9BA
  8
0
 62
7
 10
57.179309730654232
 20
59.821500477005
 70
0
  0
SEQEND
  5
D9BB
  8
0
  0
POLYLINE
  5
D9BC
  8
0
 62
7
 66
1
 70
0
 10
0
 20
0
 30
0
  0
VERTEX
  5
D9BD
  8
0
 62
7
 10
56.163695581602582
 20
57.747552994884607
 70
0
  0
VERTEX
  5
D9BE
  8
0
 62
7
 10
56.249133949636779
 20
57.620773481027392
 70
0
  0
SEQEND
  5
D9BF
  8
0
  0
POLYLINE
  5
D9C0
  8
0
 62
7
 66
1
 70
0
 10
0
 20
0
 30
0
  0
VERTEX
  5
D9C1
  8
0
 62
7
 10
57.222028914671341
 20
60.287105131836512
 70
0
  0
VERTEX
  5
D9C2
  8
0
 62
7
 10
57.222028914671341
 20
60.244558202593652
 70
0
  0
SEQEND
  5
D9C3
  8
0
  0
POLYLINE
  5
D9C4
  8
0
 62
7
 66
1
 70
0
 10
0
 20
0
 30
0
  0
VERTEX
  5
D9C5
  8
0
 62
7
 10
57.179309730654232
 20
60.201839018576578
 70
0
  0
VERTEX
  5
D9C6
  8
0
 62
7
 10
57.348808428528507
 20
59.991171429653569
 70
0
  0
SEQEND
  5
D9C7
  8
0
  0
POLYLINE
  5
D9C8
  8
0
 62
7
 66
1
 70
0
 10
0
 20
0
 30
0
  0
VERTEX
  5
D9C9
  8
0
 62
7
 10
56.79897118908265
 20
61.938167143142522
 70
0
  0
VERTEX
  5
D9CA
  8
0
 62
7
 10
56.756252005065548
 20
61.811559884059562
 70
0
  0
SEQEND
  5
D9CB
  8
0
  0
POLYLINE
  5
D9CC
  8
0
 62
7
 66
1
 70
0
 10
0
 20
0
 30
0
  0
VERTEX
  5
D9CD
  8
0
 62
7
 10
58.449860945614368
 20
60.667443673408087
 70
0
  0
VERTEX
  5
D9CE
  8
0
 62
7
 10
57.984084036008589
 20
60.79439544203953
 70
0
  0
VERTEX
  5
D9CF
  8
0
 62
7
 10
57.51830712640281
 20
60.79439544203953
 70
0
  0
VERTEX
  5
D9D0
  8
0
 62
7
 10
57.052530216797031
 20
60.624724489391014
 70
0
  0
VERTEX
  5
D9D1
  8
0
 62
7
 10
56.84169037309973
 20
60.498117230308047
 70
0
  0
VERTEX
  5
D9D2
  8
0
 62
7
 10
56.756252005065548
 20
60.287105131836512
 70
0
  0
SEQEND
  5
D9D3
  8
0
  0
POLYLINE
  5
D9D4
  8
0
 62
7
 66
1
 70
0
 10
0
 20
0
 30
0
  0
VERTEX
  5
D9D5
  8
0
 62
7
 10
56.459973793334051
 20
60.921174955896753
 70
0
  0
VERTEX
  5
D9D6
  8
0
 62
7
 10
56.502692977351153
 20
60.879833810073727
 70
0
  0
SEQEND
  5
D9D7
  8
0
  0
POLYLINE
  5
D9D8
  8
0
 62
7
 66
1
 70
0
 10
0
 20
0
 30
0
  0
VERTEX
  5
D9D9
  8
0
 62
7
 10
56.84169037309973
 20
59.864219661022076
 70
0
  0
VERTEX
  5
D9DA
  8
0
 62
7
 10
56.629472491208347
 20
59.821500477005
 70
0
  0
VERTEX
  5
D9DB
  8
0
 62
7
 10
56.545412161368247
 20
60.032512575476538
 70
0
  0
SEQEND
  5
D9DC
  8
0
  0
POLYLINE
  5
D9DD
  8
0
 62
7
 66
1
 70
0
 10
0
 20
0
 30
0
  0
VERTEX
  5
D9DE
  8
0
 62
7
 10
56.756252005065548
 20
59.864219661022076
 70
0
  0
VERTEX
  5
D9DF
  8
0
 62
7
 10
56.672191675225463
 20
59.9481077360879
 70
0
  0
VERTEX
  5
D9E0
  8
0
 62
7
 10
56.672191675225463
 20
59.991171429653569
 70
0
  0
SEQEND
  5
D9E1
  8
0
  0
POLYLINE
  5
D9E2
  8
0
 62
7
 66
1
 70
0
 10
0
 20
0
 30
0
  0
VERTEX
  5
D9E3
  8
0
 62
7
 10
58.365800615774269
 20
60.244558202593652
 70
0
  0
VERTEX
  5
D9E4
  8
0
 62
7
 10
58.365800615774269
 20
60.287105131836512
 70
0
  0
SEQEND
  5
D9E5
  8
0
  0
POLYLINE
  5
D9E6
  8
0
 62
7
 66
1
 70
0
 10
0
 20
0
 30
0
  0
VERTEX
  5
D9E7
  8
0
 62
7
 10
57.052530216797031
 20
57.87450476351605
 70
0
  0
VERTEX
  5
D9E8
  8
0
 62
7
 10
57.179309730654232
 20
57.747552994884607
 70
0
  0
VERTEX
  5
D9E9
  8
0
 62
7
 10
57.348808428528507
 20
57.704833810867477
 70
0
  0
VERTEX
  5
D9EA
  8
0
 62
7
 10
57.730525008294222
 20
57.788721885933313
 70
0
  0
SEQEND
  5
D9EB
  8
0
  0
POLYLINE
  5
D9EC
  8
0
 62
7
 66
1
 70
0
 10
0
 20
0
 30
0
  0
VERTEX
  5
D9ED
  8
0
 62
7
 10
55.783357040031
 20
57.154824316647328
 70
0
  0
VERTEX
  5
D9EE
  8
0
 62
7
 10
55.9101365538882
 20
56.985497873547352
 70
0
  0
VERTEX
  5
D9EF
  8
0
 62
7
 10
56.122354435779577
 20
56.942778689530222
 70
0
  0
VERTEX
  5
D9F0
  8
0
 62
7
 10
56.502692977351153
 20
57.026839019370328
 70
0
  0
SEQEND
  5
D9F1
  8
0
  0
POLYLINE
  5
D9F2
  8
0
 62
7
 66
1
 70
0
 10
0
 20
0
 30
0
  0
VERTEX
  5
D9F3
  8
0
 62
7
 10
60.100750702146073
 20
58.889774403019182
 70
0
  0
VERTEX
  5
D9F4
  8
0
 62
7
 10
60.184811031986179
 20
59.01672617165061
 70
0
  0
SEQEND
  5
D9F5
  8
0
  0
POLYLINE
  5
D9F6
  8
0
 62
7
 66
1
 70
0
 10
0
 20
0
 30
0
  0
VERTEX
  5
D9F7
  8
0
 62
7
 10
59.169196882934521
 20
59.439783897239323
 70
0
  0
VERTEX
  5
D9F8
  8
0
 62
7
 10
58.999698185060247
 20
59.439783897239323
 70
0
  0
SEQEND
  5
D9F9
  8
0
  0
POLYLINE
  5
D9FA
  8
0
 62
7
 66
1
 70
0
 10
0
 20
0
 30
0
  0
VERTEX
  5
D9FB
  8
0
 62
7
 10
59.169196882934521
 20
59.439783897239323
 70
0
  0
VERTEX
  5
D9FC
  8
0
 62
7
 10
59.085136553094451
 20
59.313176638156371
 70
0
  0
VERTEX
  5
D9FD
  8
0
 62
7
 10
58.999698185060247
 20
59.439783897239323
 70
0
  0
SEQEND
  5
D9FE
  8
0
  0
POLYLINE
  5
D9FF
  8
0
 62
7
 66
1
 70
0
 10
0
 20
0
 30
0
  0
VERTEX
  5
DA00
  8
0
 62
7
 10
59.169196882934521
 20
60.371509971225152
 70
0
  0
VERTEX
  5
DA01
  8
0
 62
7
 10
58.999698185060247
 20
60.287105131836512
 70
0
  0
SEQEND
  5
DA02
  8
0
  0
POLYLINE
  5
DA03
  8
0
 62
7
 66
1
 70
0
 10
0
 20
0
 30
0
  0
VERTEX
  5
DA04
  8
0
 62
7
 10
58.407141761597259
 20
60.540836414325177
 70
0
  0
VERTEX
  5
DA05
  8
0
 62
7
 10
58.449860945614368
 20
60.667443673408087
 70
0
  0
SEQEND
  5
DA06
  8
0
  0
POLYLINE
  5
DA07
  8
0
 62
7
 66
1
 70
0
 10
0
 20
0
 30
0
  0
VERTEX
  5
DA08
  8
0
 62
7
 10
57.348808428528507
 20
59.778781292987873
 70
0
  0
VERTEX
  5
DA09
  8
0
 62
7
 10
57.30746728270551
 20
59.778781292987873
 70
0
  0
SEQEND
  5
DA0A
  8
0
  0
POLYLINE
  5
DA0B
  8
0
 62
7
 66
1
 70
0
 10
0
 20
0
 30
0
  0
VERTEX
  5
DA0C
  8
0
 62
7
 10
57.179309730654232
 20
59.821500477005
 70
0
  0
VERTEX
  5
DA0D
  8
0
 62
7
 10
57.137968584831242
 20
59.821500477005
 70
0
  0
SEQEND
  5
DA0E
  8
0
  0
POLYLINE
  5
DA0F
  8
0
 62
7
 66
1
 70
0
 10
0
 20
0
 30
0
  0
VERTEX
  5
DA10
  8
0
 62
7
 10
57.264748098688429
 20
59.694893217922044
 70
0
  0
VERTEX
  5
DA11
  8
0
 62
7
 10
57.348808428528507
 20
59.609110340339349
 70
0
  0
SEQEND
  5
DA12
  8
0
  0
POLYLINE
  5
DA13
  8
0
 62
7
 66
1
 70
0
 10
0
 20
0
 30
0
  0
VERTEX
  5
DA14
  8
0
 62
7
 10
56.629472491208347
 20
55.9698837244957
 70
0
  0
VERTEX
  5
DA15
  8
0
 62
7
 10
56.586753307191252
 20
55.9698837244957
 70
0
  0
SEQEND
  5
DA16
  8
0
  0
POLYLINE
  5
DA17
  8
0
 62
7
 66
1
 70
0
 10
0
 20
0
 30
0
  0
VERTEX
  5
DA18
  8
0
 62
7
 10
62.38691606615788
 20
57.917223947533131
 70
0
  0
VERTEX
  5
DA19
  8
0
 62
7
 10
62.470976395997972
 20
58.04383120661609
 70
0
  0
SEQEND
  5
DA1A
  8
0
  0
POLYLINE
  5
DA1B
  8
0
 62
7
 66
1
 70
0
 10
0
 20
0
 30
0
  0
VERTEX
  5
DA1C
  8
0
 62
7
 10
60.989585337340529
 20
58.677728775902068
 70
0
  0
VERTEX
  5
DA1D
  8
0
 62
7
 10
60.946866153323462
 20
58.550777007270568
 70
0
  0
SEQEND
  5
DA1E
  8
0
  0
POLYLINE
  5
DA1F
  8
0
 62
7
 66
1
 70
0
 10
0
 20
0
 30
0
  0
VERTEX
  5
DA20
  8
0
 62
7
 10
62.38691606615788
 20
57.917223947533131
 70
0
  0
VERTEX
  5
DA21
  8
0
 62
7
 10
62.470976395997972
 20
57.958392838581887
 70
0
  0
SEQEND
  5
DA22
  8
0
  0
POLYLINE
  5
DA23
  8
0
 62
7
 66
1
 70
0
 10
0
 20
0
 30
0
  0
VERTEX
  5
DA24
  8
0
 62
7
 10
57.264748098688429
 20
59.694893217922044
 70
0
  0
VERTEX
  5
DA25
  8
0
 62
7
 10
57.30746728270551
 20
59.7360621089708
 70
0
  0
VERTEX
  5
DA26
  8
0
 62
7
 10
57.30746728270551
 20
59.694893217922044
 70
0
  0
SEQEND
  5
DA27
  8
0
  0
POLYLINE
  5
DA28
  8
0
 62
7
 66
1
 70
0
 10
0
 20
0
 30
0
  0
VERTEX
  5
DA29
  8
0
 62
7
 10
56.459973793334051
 20
60.921174955896753
 70
0
  0
VERTEX
  5
DA2A
  8
0
 62
7
 10
56.418632647511053
 20
60.921174955896753
 70
0
  0
SEQEND
  5
DA2B
  8
0
  0
POLYLINE
  5
DA2C
  8
0
 62
7
 66
1
 70
0
 10
0
 20
0
 30
0
  0
VERTEX
  5
DA2D
  8
0
 62
7
 10
57.011189070974027
 20
62.234445354873991
 70
0
  0
VERTEX
  5
DA2E
  8
0
 62
7
 10
56.79897118908265
 20
61.938167143142522
 70
0
  0
SEQEND
  5
DA2F
  8
0
  0
POLYLINE
  5
DA30
  8
0
 62
7
 66
1
 70
0
 10
0
 20
0
 30
0
  0
VERTEX
  5
DA31
  8
0
 62
7
 10
57.730525008294222
 20
59.525222265273527
 70
0
  0
VERTEX
  5
DA32
  8
0
 62
7
 10
57.687805824277113
 20
59.4825030812564
 70
0
  0
SEQEND
  5
DA33
  8
0
  0
POLYLINE
  5
DA34
  8
0
 62
7
 66
1
 70
0
 10
0
 20
0
 30
0
  0
VERTEX
  5
DA35
  8
0
 62
7
 10
57.348808428528507
 20
59.694893217922044
 70
0
  0
VERTEX
  5
DA36
  8
0
 62
7
 10
57.348808428528507
 20
59.609110340339349
 70
0
  0
SEQEND
  5
DA37
  8
0
  0
POLYLINE
  5
DA38
  8
0
 62
7
 66
1
 70
0
 10
0
 20
0
 30
0
  0
VERTEX
  5
DA39
  8
0
 62
7
 10
56.502692977351153
 20
60.879833810073727
 70
0
  0
VERTEX
  5
DA3A
  8
0
 62
7
 10
56.418632647511053
 20
60.879833810073727
 70
0
  0
VERTEX
  5
DA3B
  8
0
 62
7
 10
56.418632647511053
 20
60.921174955896753
 70
0
  0
SEQEND
  5
DA3C
  8
0
  0
POLYLINE
  5
DA3D
  8
0
 62
7
 66
1
 70
0
 10
0
 20
0
 30
0
  0
VERTEX
  5
DA3E
  8
0
 62
7
 10
55.783357040031
 20
56.350222266067277
 70
0
  0
VERTEX
  5
DA3F
  8
0
 62
7
 10
55.8674173698711
 20
56.350222266067277
 70
0
  0
SEQEND
  5
DA40
  8
0
  0
POLYLINE
  5
DA41
  8
0
 62
7
 66
1
 70
0
 10
0
 20
0
 30
0
  0
VERTEX
  5
DA42
  8
0
 62
7
 10
56.629472491208347
 20
55.9698837244957
 70
0
  0
VERTEX
  5
DA43
  8
0
 62
7
 10
56.545412161368247
 20
56.0964909835786
 70
0
  0
SEQEND
  5
DA44
  8
0
  0
POLYLINE
  5
DA45
  8
0
 62
7
 66
1
 70
0
 10
0
 20
0
 30
0
  0
VERTEX
  5
DA46
  8
0
 62
7
 10
60.946866153323462
 20
58.550777007270568
 70
0
  0
VERTEX
  5
DA47
  8
0
 62
7
 10
60.86280582348337
 20
58.677728775902068
 70
0
  0
VERTEX
  5
DA48
  8
0
 62
7
 10
60.989585337340529
 20
58.677728775902068
 70
0
  0
SEQEND
  5
DA49
  8
0
  0
POLYLINE
  5
DA4A
  8
0
 62
7
 66
1
 70
0
 10
0
 20
0
 30
0
  0
VERTEX
  5
DA4B
  8
0
 62
7
 10
62.513695580015067
 20
59.4825030812564
 70
0
  0
VERTEX
  5
DA4C
  8
0
 62
7
 10
62.513695580015067
 20
59.439783897239323
 70
0
  0
SEQEND
  5
DA4D
  8
0
  0
POLYLINE
  5
DA4E
  8
0
 62
7
 66
1
 70
0
 10
0
 20
0
 30
0
  0
VERTEX
  5
DA4F
  8
0
 62
7
 10
57.30746728270551
 20
59.694893217922044
 70
0
  0
VERTEX
  5
DA50
  8
0
 62
7
 10
57.348808428528507
 20
59.694893217922044
 70
0
  0
SEQEND
  5
DA51
  8
0
  0
POLYLINE
  5
DA52
  8
0
 62
7
 66
1
 70
0
 10
0
 20
0
 30
0
  0
VERTEX
  5
DA53
  8
0
 62
7
 10
60.777367455449159
 20
58.636559884853312
 70
0
  0
VERTEX
  5
DA54
  8
0
 62
7
 10
60.777367455449159
 20
58.466888932204732
 70
0
  0
SEQEND
  5
DA55
  8
0
  0
POLYLINE
  5
DA56
  8
0
 62
7
 66
1
 70
0
 10
0
 20
0
 30
0
  0
VERTEX
  5
DA57
  8
0
 62
7
 10
59.9312520042718
 20
58.805886327953338
 70
0
  0
VERTEX
  5
DA58
  8
0
 62
7
 10
60.058031518128978
 20
58.8470552190021
 70
0
  0
SEQEND
  5
DA59
  8
0
  0
POLYLINE
  5
DA5A
  8
0
 62
7
 66
1
 70
0
 10
0
 20
0
 30
0
  0
VERTEX
  5
DA5B
  8
0
 62
7
 10
56.79897118908265
 20
56.0964909835786
 70
0
  0
VERTEX
  5
DA5C
  8
0
 62
7
 10
56.714910859242551
 20
56.0964909835786
 70
0
  0
SEQEND
  5
DA5D
  8
0
  0
POLYLINE
  5
DA5E
  8
0
 62
7
 66
1
 70
0
 10
0
 20
0
 30
0
  0
VERTEX
  5
DA5F
  8
0
 62
7
 10
60.100750702146073
 20
58.889774403019182
 70
0
  0
VERTEX
  5
DA60
  8
0
 62
7
 10
60.143469886163182
 20
58.889774403019182
 70
0
  0
SEQEND
  5
DA61
  8
0
  0
POLYLINE
  5
DA62
  8
0
 62
7
 66
1
 70
0
 10
0
 20
0
 30
0
  0
VERTEX
  5
DA63
  8
0
 62
7
 10
60.184811031986179
 20
59.01672617165061
 70
0
  0
VERTEX
  5
DA64
  8
0
 62
7
 10
60.184811031986179
 20
58.974179242407807
 70
0
  0
SEQEND
  5
DA65
  8
0
  0
POLYLINE
  5
DA66
  8
0
 62
7
 66
1
 70
0
 10
0
 20
0
 30
0
  0
VERTEX
  5
DA67
  8
0
 62
7
 10
36.5225172010962
 20
45.090272182076689
 70
0
  0
VERTEX
  5
DA68
  8
0
 62
7
 10
36.5225172010962
 20
44.96349266821948
 70
0
  0
VERTEX
  5
DA69
  8
0
 62
7
 10
36.6079555691304
 20
44.879604593153658
 70
0
  0
SEQEND
  5
DA6A
  8
0
  0
POLYLINE
  5
DA6B
  8
0
 62
7
 66
1
 70
0
 10
0
 20
0
 30
0
  0
VERTEX
  5
DA6C
  8
0
 62
7
 10
46.8095723200522
 20
51.185507369354951
 70
0
  0
VERTEX
  5
DA6D
  8
0
 62
7
 10
46.936351833909413
 20
51.440272180489181
 70
0
  0
SEQEND
  5
DA6E
  8
0
  0
POLYLINE
  5
DA6F
  8
0
 62
7
 66
1
 70
0
 10
0
 20
0
 30
0
  0
VERTEX
  5
DA70
  8
0
 62
7
 10
47.1471916776067
 20
61.21883120582234
 70
0
  0
VERTEX
  5
DA71
  8
0
 62
7
 10
47.105850531783709
 20
61.30289153566244
 70
0
  0
SEQEND
  5
DA72
  8
0
  0
POLYLINE
  5
DA73
  8
0
 62
7
 66
1
 70
0
 10
0
 20
0
 30
0
  0
VERTEX
  5
DA74
  8
0
 62
7
 10
42.533519803760122
 20
48.688157652097367
 70
0
  0
VERTEX
  5
DA75
  8
0
 62
7
 10
42.618958171794318
 20
48.688157652097367
 70
0
  0
SEQEND
  5
DA76
  8
0
  0
POLYLINE
  5
DA77
  8
0
 62
7
 66
1
 70
0
 10
0
 20
0
 30
0
  0
VERTEX
  5
DA78
  8
0
 62
7
 10
42.872517199508692
 20
58.805886327953338
 70
0
  0
VERTEX
  5
DA79
  8
0
 62
7
 10
42.7457376856515
 20
58.550777007270568
 70
0
  0
SEQEND
  5
DA7A
  8
0
  0
POLYLINE
  5
DA7B
  8
0
 62
7
 66
1
 70
0
 10
0
 20
0
 30
0
  0
VERTEX
  5
DA7C
  8
0
 62
7
 10
42.492178657937117
 20
48.773940529680061
 70
0
  0
VERTEX
  5
DA7D
  8
0
 62
7
 10
42.533519803760122
 20
48.688157652097367
 70
0
  0
SEQEND
  5
DA7E
  8
0
  0
POLYLINE
  5
DA7F
  8
0
 62
7
 66
1
 70
0
 10
0
 20
0
 30
0
  0
VERTEX
  5
DA80
  8
0
 62
7
 10
46.9790710179265
 20
51.397552996472122
 70
0
  0
VERTEX
  5
DA81
  8
0
 62
7
 10
46.8095723200522
 20
51.143821713983442
 70
0
  0
SEQEND
  5
DA82
  8
0
  0
POLYLINE
  5
DA83
  8
0
 62
7
 66
1
 70
0
 10
0
 20
0
 30
0
  0
VERTEX
  5
DA84
  8
0
 62
7
 10
42.660299317617323
 20
48.688157652097367
 70
0
  0
VERTEX
  5
DA85
  8
0
 62
7
 10
42.576238987777216
 20
48.645438468080243
 70
0
  0
SEQEND
  5
DA86
  8
0
  0
POLYLINE
  5
DA87
  8
0
 62
7
 66
1
 70
0
 10
0
 20
0
 30
0
  0
VERTEX
  5
DA88
  8
0
 62
7
 10
47.105850531783709
 20
61.30289153566244
 70
0
  0
VERTEX
  5
DA89
  8
0
 62
7
 10
47.0204121637495
 20
61.30289153566244
 70
0
  0
SEQEND
  5
DA8A
  8
0
  0
POLYLINE
  5
DA8B
  8
0
 62
7
 66
1
 70
0
 10
0
 20
0
 30
0
  0
VERTEX
  5
DA8C
  8
0
 62
7
 10
47.1471916776067
 20
61.30289153566244
 70
0
  0
VERTEX
  5
DA8D
  8
0
 62
7
 10
47.189910861623808
 20
61.17611202180521
 70
0
  0
SEQEND
  5
DA8E
  8
0
  0
POLYLINE
  5
DA8F
  8
0
 62
7
 66
1
 70
0
 10
0
 20
0
 30
0
  0
VERTEX
  5
DA90
  8
0
 62
7
 10
39.401238988570967
 20
44.879604593153658
 70
0
  0
VERTEX
  5
DA91
  8
0
 62
7
 10
39.358519804553872
 20
44.920773484202407
 70
0
  0
SEQEND
  5
DA92
  8
0
  0
POLYLINE
  5
DA93
  8
0
 62
7
 66
1
 70
0
 10
0
 20
0
 30
0
  0
VERTEX
  5
DA94
  8
0
 62
7
 10
39.486677356605149
 20
44.54060719740508
 70
0
  0
VERTEX
  5
DA95
  8
0
 62
7
 10
40.247354439748321
 20
44.454824319822357
 70
0
  0
SEQEND
  5
DA96
  8
0
  0
POLYLINE
  5
DA97
  8
0
 62
7
 66
1
 70
0
 10
0
 20
0
 30
0
  0
VERTEX
  5
DA98
  8
0
 62
7
 10
36.734735082987612
 20
45.386550393808193
 70
0
  0
VERTEX
  5
DA99
  8
0
 62
7
 10
36.5652363851133
 20
45.21722395070816
 70
0
  0
SEQEND
  5
DA9A
  8
0
  0
POLYLINE
  5
DA9B
  8
0
 62
7
 66
1
 70
0
 10
0
 20
0
 30
0
  0
VERTEX
  5
DA9C
  8
0
 62
7
 10
49.4760762256356
 20
45.386550393808193
 70
0
  0
VERTEX
  5
DA9D
  8
0
 62
7
 10
49.772354437367078
 20
45.259943134725233
 70
0
  0
VERTEX
  5
DA9E
  8
0
 62
7
 10
50.111351833115663
 20
45.302490063968087
 70
0
  0
VERTEX
  5
DA9F
  8
0
 62
7
 10
50.195412162955748
 20
45.386550393808193
 70
0
  0
SEQEND
  5
DAA0
  8
0
  0
POLYLINE
  5
DAA1
  8
0
 62
7
 66
1
 70
0
 10
0
 20
0
 30
0
  0
VERTEX
  5
DAA2
  8
0
 62
7
 10
49.729635253349969
 20
45.386550393808193
 70
0
  0
VERTEX
  5
DAA3
  8
0
 62
7
 10
49.686916069332867
 20
45.343831209791091
 70
0
  0
VERTEX
  5
DAA4
  8
0
 62
7
 10
49.772354437367078
 20
45.302490063968087
 70
0
  0
VERTEX
  5
DAA5
  8
0
 62
7
 10
49.941853135241381
 20
45.302490063968087
 70
0
  0
VERTEX
  5
DAA6
  8
0
 62
7
 10
49.941853135241381
 20
45.386550393808193
 70
0
  0
SEQEND
  5
DAA7
  8
0
  0
POLYLINE
  5
DAA8
  8
0
 62
7
 66
1
 70
0
 10
0
 20
0
 30
0
  0
VERTEX
  5
DAA9
  8
0
 62
7
 10
46.682792806195032
 20
45.13281911131952
 70
0
  0
VERTEX
  5
DAAA
  8
0
 62
7
 10
47.0204121637495
 20
45.259943134725233
 70
0
  0
VERTEX
  5
DAAB
  8
0
 62
7
 10
47.402128743515178
 20
45.259943134725233
 70
0
  0
VERTEX
  5
DAAC
  8
0
 62
7
 10
47.782467285086753
 20
45.175538295336622
 70
0
  0
VERTEX
  5
DAAD
  8
0
 62
7
 10
47.909246798943961
 20
45.090272182076689
 70
0
  0
VERTEX
  5
DAAE
  8
0
 62
7
 10
47.994685166978172
 20
44.920773484202407
 70
0
  0
SEQEND
  5
DAAF
  8
0
  0
POLYLINE
  5
DAB0
  8
0
 62
7
 66
1
 70
0
 10
0
 20
0
 30
0
  0
VERTEX
  5
DAB1
  8
0
 62
7
 10
44.014910862417558
 20
43.566161939402178
 70
0
  0
VERTEX
  5
DAB2
  8
0
 62
7
 10
44.353908258166143
 20
43.692769198485109
 70
0
  0
VERTEX
  5
DAB3
  8
0
 62
7
 10
44.735624837931809
 20
43.692769198485109
 70
0
  0
VERTEX
  5
DAB4
  8
0
 62
7
 10
45.115963379503391
 20
43.608881123419252
 70
0
  0
VERTEX
  5
DAB5
  8
0
 62
7
 10
45.242742893360592
 20
43.482273864336321
 70
0
  0
VERTEX
  5
DAB6
  8
0
 62
7
 10
45.328181261394789
 20
43.312602911687769
 70
0
  0
SEQEND
  5
DAB7
  8
0
  0
POLYLINE
  5
DAB8
  8
0
 62
7
 66
1
 70
0
 10
0
 20
0
 30
0
  0
VERTEX
  5
DAB9
  8
0
 62
7
 10
45.328181261394789
 20
44.370936244756528
 70
0
  0
VERTEX
  5
DABA
  8
0
 62
7
 10
45.708519802966357
 20
44.454824319822357
 70
0
  0
VERTEX
  5
DABB
  8
0
 62
7
 10
46.08885834453794
 20
44.497888013387971
 70
0
  0
VERTEX
  5
DABC
  8
0
 62
7
 10
46.427855740286518
 20
44.370936244756528
 70
0
  0
VERTEX
  5
DABD
  8
0
 62
7
 10
46.597354438160821
 20
44.286875914916443
 70
0
  0
VERTEX
  5
DABE
  8
0
 62
7
 10
46.682792806195032
 20
44.117204962267863
 70
0
  0
SEQEND
  5
DABF
  8
0
  0
POLYLINE
  5
DAC0
  8
0
 62
7
 66
1
 70
0
 10
0
 20
0
 30
0
  0
VERTEX
  5
DAC1
  8
0
 62
7
 10
49.17979801390409
 20
45.259943134725233
 70
0
  0
VERTEX
  5
DAC2
  8
0
 62
7
 10
49.5601365554757
 20
45.386550393808193
 70
0
  0
VERTEX
  5
DAC3
  8
0
 62
7
 10
49.983194281064371
 20
45.386550393808193
 70
0
  0
VERTEX
  5
DAC4
  8
0
 62
7
 10
50.40763004484716
 20
45.302490063968087
 70
0
  0
VERTEX
  5
DAC5
  8
0
 62
7
 10
50.577128742721428
 20
45.175538295336622
 70
0
  0
VERTEX
  5
DAC6
  8
0
 62
7
 10
50.661189072561541
 20
44.96349266821948
 70
0
  0
SEQEND
  5
DAC7
  8
0
  0
POLYLINE
  5
DAC8
  8
0
 62
7
 66
1
 70
0
 10
0
 20
0
 30
0
  0
VERTEX
  5
DAC9
  8
0
 62
7
 10
45.539021105092068
 20
41.704604593947408
 70
0
  0
VERTEX
  5
DACA
  8
0
 62
7
 10
45.920737684857741
 20
41.831211853030339
 70
0
  0
VERTEX
  5
DACB
  8
0
 62
7
 10
46.343795410446418
 20
41.831211853030339
 70
0
  0
VERTEX
  5
DACC
  8
0
 62
7
 10
46.766853136035117
 20
41.745773484996157
 70
0
  0
VERTEX
  5
DACD
  8
0
 62
7
 10
46.936351833909413
 20
41.618821716364693
 70
0
  0
VERTEX
  5
DACE
  8
0
 62
7
 10
47.0204121637495
 20
41.44949527326466
 70
0
  0
SEQEND
  5
DACF
  8
0
  0
POLYLINE
  5
DAD0
  8
0
 62
7
 66
1
 70
0
 10
0
 20
0
 30
0
  0
VERTEX
  5
DAD1
  8
0
 62
7
 10
47.825186469103862
 20
44.75110253155384
 70
0
  0
VERTEX
  5
DAD2
  8
0
 62
7
 10
47.486189073355277
 20
44.6244952724709
 70
0
  0
VERTEX
  5
DAD3
  8
0
 62
7
 10
47.105850531783709
 20
44.6244952724709
 70
0
  0
VERTEX
  5
DAD4
  8
0
 62
7
 10
46.766853136035117
 20
44.709933640505113
 70
0
  0
VERTEX
  5
DAD5
  8
0
 62
7
 10
46.513294108320721
 20
44.96349266821948
 70
0
  0
SEQEND
  5
DAD6
  8
0
  0
POLYLINE
  5
DAD7
  8
0
 62
7
 66
1
 70
0
 10
0
 20
0
 30
0
  0
VERTEX
  5
DAD8
  8
0
 62
7
 10
45.158682563520493
 20
43.185823397830568
 70
0
  0
VERTEX
  5
DAD9
  8
0
 62
7
 10
44.819685167771908
 20
43.058871629199132
 70
0
  0
VERTEX
  5
DADA
  8
0
 62
7
 10
44.43934662620034
 20
43.058871629199132
 70
0
  0
VERTEX
  5
DADB
  8
0
 62
7
 10
44.100349230451727
 20
43.143276468587743
 70
0
  0
VERTEX
  5
DADC
  8
0
 62
7
 10
43.845412164543262
 20
43.355322095704871
 70
0
  0
SEQEND
  5
DADD
  8
0
  0
POLYLINE
  5
DADE
  8
0
 62
7
 66
1
 70
0
 10
0
 20
0
 30
0
  0
VERTEX
  5
DADF
  8
0
 62
7
 10
46.513294108320721
 20
43.947878519167858
 70
0
  0
VERTEX
  5
DAE0
  8
0
 62
7
 10
46.131577528555049
 20
43.862440151133647
 70
0
  0
VERTEX
  5
DAE1
  8
0
 62
7
 10
45.792580132806471
 20
43.821271260084927
 70
0
  0
VERTEX
  5
DAE2
  8
0
 62
7
 10
45.454960775251962
 20
43.905159335150749
 70
0
  0
VERTEX
  5
DAE3
  8
0
 62
7
 10
45.158682563520493
 20
44.1588906176394
 70
0
  0
SEQEND
  5
DAE4
  8
0
  0
POLYLINE
  5
DAE5
  8
0
 62
7
 66
1
 70
0
 10
0
 20
0
 30
0
  0
VERTEX
  5
DAE6
  8
0
 62
7
 10
50.491690374687231
 20
44.793821715570942
 70
0
  0
VERTEX
  5
DAE7
  8
0
 62
7
 10
50.068632649098546
 20
44.667214456488011
 70
0
  0
VERTEX
  5
DAE8
  8
0
 62
7
 10
49.686916069332867
 20
44.667214456488011
 70
0
  0
VERTEX
  5
DAE9
  8
0
 62
7
 10
49.2638583437442
 20
44.75110253155384
 70
0
  0
VERTEX
  5
DAEA
  8
0
 62
7
 10
49.094359645869922
 20
44.836540899588037
 70
0
  0
VERTEX
  5
DAEB
  8
0
 62
7
 10
48.967580132012721
 20
45.006211852236589
 70
0
  0
SEQEND
  5
DAEC
  8
0
  0
POLYLINE
  5
DAED
  8
0
 62
7
 66
1
 70
0
 10
0
 20
0
 30
0
  0
VERTEX
  5
DAEE
  8
0
 62
7
 10
46.8095723200522
 20
41.23865542956738
 70
0
  0
VERTEX
  5
DAEF
  8
0
 62
7
 10
46.427855740286518
 20
41.111875915710179
 70
0
  0
VERTEX
  5
DAF0
  8
0
 62
7
 10
46.047517198714949
 20
41.111875915710179
 70
0
  0
VERTEX
  5
DAF1
  8
0
 62
7
 10
45.624459473126272
 20
41.195936245550293
 70
0
  0
VERTEX
  5
DAF2
  8
0
 62
7
 10
45.454960775251962
 20
41.322888014181721
 70
0
  0
VERTEX
  5
DAF3
  8
0
 62
7
 10
45.328181261394789
 20
41.492214457281747
 70
0
  0
SEQEND
  5
DAF4
  8
0
  0
POLYLINE
  5
DAF5
  8
0
 62
7
 66
1
 70
0
 10
0
 20
0
 30
0
  0
VERTEX
  5
DAF6
  8
0
 62
7
 10
45.328181261394789
 20
41.44949527326466
 70
0
  0
VERTEX
  5
DAF7
  8
0
 62
7
 10
45.4122415912349
 20
41.577652825315958
 70
0
  0
VERTEX
  5
DAF8
  8
0
 62
7
 10
45.539021105092068
 20
41.704604593947408
 70
0
  0
SEQEND
  5
DAF9
  8
0
  0
POLYLINE
  5
DAFA
  8
0
 62
7
 66
1
 70
0
 10
0
 20
0
 30
0
  0
VERTEX
  5
DAFB
  8
0
 62
7
 10
47.0204121637495
 20
41.492214457281747
 70
0
  0
VERTEX
  5
DAFC
  8
0
 62
7
 10
46.8095723200522
 20
41.23865542956738
 70
0
  0
SEQEND
  5
DAFD
  8
0
  0
POLYLINE
  5
DAFE
  8
0
 62
7
 66
1
 70
0
 10
0
 20
0
 30
0
  0
VERTEX
  5
DAFF
  8
0
 62
7
 10
48.967580132012721
 20
44.96349266821948
 70
0
  0
VERTEX
  5
DB00
  8
0
 62
7
 10
49.053018500046917
 20
45.13281911131952
 70
0
  0
VERTEX
  5
DB01
  8
0
 62
7
 10
49.17979801390409
 20
45.259943134725233
 70
0
  0
SEQEND
  5
DB02
  8
0
  0
POLYLINE
  5
DB03
  8
0
 62
7
 66
1
 70
0
 10
0
 20
0
 30
0
  0
VERTEX
  5
DB04
  8
0
 62
7
 10
55.9101365538882
 20
43.862440151133647
 70
0
  0
VERTEX
  5
DB05
  8
0
 62
7
 10
56.122354435779577
 20
43.3964909867536
 70
0
  0
VERTEX
  5
DB06
  8
0
 62
7
 10
56.163695581602582
 20
42.9322643701162
 70
0
  0
SEQEND
  5
DB07
  8
0
  0
POLYLINE
  5
DB08
  8
0
 62
7
 66
1
 70
0
 10
0
 20
0
 30
0
  0
VERTEX
  5
DB09
  8
0
 62
7
 10
50.661189072561541
 20
45.006211852236589
 70
0
  0
VERTEX
  5
DB0A
  8
0
 62
7
 10
50.491690374687231
 20
44.793821715570942
 70
0
  0
SEQEND
  5
DB0B
  8
0
  0
POLYLINE
  5
DB0C
  8
0
 62
7
 66
1
 70
0
 10
0
 20
0
 30
0
  0
VERTEX
  5
DB0D
  8
0
 62
7
 10
48.078745496818271
 20
39.24894053206134
 70
0
  0
VERTEX
  5
DB0E
  8
0
 62
7
 10
49.3065775277613
 20
39.24894053206134
 70
0
  0
VERTEX
  5
DB0F
  8
0
 62
7
 10
50.491690374687231
 20
39.334206645321267
 70
0
  0
VERTEX
  5
DB10
  8
0
 62
7
 10
51.676803221613191
 20
39.5021550502272
 70
0
  0
VERTEX
  5
DB11
  8
0
 62
7
 10
52.820574922716119
 20
39.798605516732948
 70
0
  0
VERTEX
  5
DB12
  8
0
 62
7
 10
53.962968585624978
 20
40.264554681112962
 70
0
  0
VERTEX
  5
DB13
  8
0
 62
7
 10
54.978582734676642
 20
40.856938849801679
 70
0
  0
VERTEX
  5
DB14
  8
0
 62
7
 10
55.444359644282422
 20
41.23865542956738
 70
0
  0
VERTEX
  5
DB15
  8
0
 62
7
 10
55.8260762240481
 20
41.704604593947408
 70
0
  0
VERTEX
  5
DB16
  8
0
 62
7
 10
56.079635251762483
 20
42.254269578619009
 70
0
  0
VERTEX
  5
DB17
  8
0
 62
7
 10
56.163695581602582
 20
42.84682600208199
 70
0
  0
SEQEND
  5
DB18
  8
0
  0
POLYLINE
  5
DB19
  8
0
 62
7
 66
1
 70
0
 10
0
 20
0
 30
0
  0
VERTEX
  5
DB1A
  8
0
 62
7
 10
41.730123536599869
 20
42.84682600208199
 70
0
  0
VERTEX
  5
DB1B
  8
0
 62
7
 10
41.771464682422867
 20
42.296988762636111
 70
0
  0
VERTEX
  5
DB1C
  8
0
 62
7
 10
42.026401748331338
 20
41.78849266901323
 70
0
  0
SEQEND
  5
DB1D
  8
0
  0
POLYLINE
  5
DB1E
  8
0
 62
7
 66
1
 70
0
 10
0
 20
0
 30
0
  0
VERTEX
  5
DB1F
  8
0
 62
7
 10
41.730123536599869
 20
42.9322643701162
 70
0
  0
VERTEX
  5
DB20
  8
0
 62
7
 10
41.771464682422867
 20
43.43955468031924
 70
0
  0
VERTEX
  5
DB21
  8
0
 62
7
 10
41.940963380297141
 20
43.862440151133647
 70
0
  0
SEQEND
  5
DB22
  8
0
  0
POLYLINE
  5
DB23
  8
0
 62
7
 66
1
 70
0
 10
0
 20
0
 30
0
  0
VERTEX
  5
DB24
  8
0
 62
7
 10
45.328181261394789
 20
43.355322095704871
 70
0
  0
VERTEX
  5
DB25
  8
0
 62
7
 10
45.158682563520493
 20
43.185823397830568
 70
0
  0
SEQEND
  5
DB26
  8
0
  0
POLYLINE
  5
DB27
  8
0
 62
7
 66
1
 70
0
 10
0
 20
0
 30
0
  0
VERTEX
  5
DB28
  8
0
 62
7
 10
43.845412164543262
 20
43.312602911687769
 70
0
  0
VERTEX
  5
DB29
  8
0
 62
7
 10
44.014910862417558
 20
43.566161939402178
 70
0
  0
SEQEND
  5
DB2A
  8
0
  0
POLYLINE
  5
DB2B
  8
0
 62
7
 66
1
 70
0
 10
0
 20
0
 30
0
  0
VERTEX
  5
DB2C
  8
0
 62
7
 10
46.513294108320721
 20
44.920773484202407
 70
0
  0
VERTEX
  5
DB2D
  8
0
 62
7
 10
46.682792806195032
 20
45.13281911131952
 70
0
  0
SEQEND
  5
DB2E
  8
0
  0
POLYLINE
  5
DB2F
  8
0
 62
7
 66
1
 70
0
 10
0
 20
0
 30
0
  0
VERTEX
  5
DB30
  8
0
 62
7
 10
46.682792806195032
 20
44.1588906176394
 70
0
  0
VERTEX
  5
DB31
  8
0
 62
7
 10
46.513294108320721
 20
43.947878519167858
 70
0
  0
SEQEND
  5
DB32
  8
0
  0
POLYLINE
  5
DB33
  8
0
 62
7
 66
1
 70
0
 10
0
 20
0
 30
0
  0
VERTEX
  5
DB34
  8
0
 62
7
 10
47.994685166978172
 20
44.96349266821948
 70
0
  0
VERTEX
  5
DB35
  8
0
 62
7
 10
47.825186469103862
 20
44.75110253155384
 70
0
  0
SEQEND
  5
DB36
  8
0
  0
POLYLINE
  5
DB37
  8
0
 62
7
 66
1
 70
0
 10
0
 20
0
 30
0
  0
VERTEX
  5
DB38
  8
0
 62
7
 10
45.158682563520493
 20
44.117204962267863
 70
0
  0
VERTEX
  5
DB39
  8
0
 62
7
 10
45.328181261394789
 20
44.370936244756528
 70
0
  0
SEQEND
  5
DB3A
  8
0
  0
POLYLINE
  5
DB3B
  8
0
 62
7
 66
1
 70
0
 10
0
 20
0
 30
0
  0
VERTEX
  5
DB3C
  8
0
 62
7
 10
46.513294108320721
 20
43.862440151133647
 70
0
  0
VERTEX
  5
DB3D
  8
0
 62
7
 10
46.131577528555049
 20
43.735488382502183
 70
0
  0
VERTEX
  5
DB3E
  8
0
 62
7
 10
45.751238986983473
 20
43.735488382502183
 70
0
  0
VERTEX
  5
DB3F
  8
0
 62
7
 10
45.4122415912349
 20
43.862440151133647
 70
0
  0
VERTEX
  5
DB40
  8
0
 62
7
 10
45.242742893360592
 20
43.947878519167858
 70
0
  0
VERTEX
  5
DB41
  8
0
 62
7
 10
45.158682563520493
 20
44.117204962267863
 70
0
  0
SEQEND
  5
DB42
  8
0
  0
POLYLINE
  5
DB43
  8
0
 62
7
 66
1
 70
0
 10
0
 20
0
 30
0
  0
VERTEX
  5
DB44
  8
0
 62
7
 10
50.491690374687231
 20
44.709933640505113
 70
0
  0
VERTEX
  5
DB45
  8
0
 62
7
 10
50.068632649098546
 20
44.583326381422182
 70
0
  0
VERTEX
  5
DB46
  8
0
 62
7
 10
49.645574923509869
 20
44.583326381422182
 70
0
  0
VERTEX
  5
DB47
  8
0
 62
7
 10
49.2225171979212
 20
44.667214456488011
 70
0
  0
VERTEX
  5
DB48
  8
0
 62
7
 10
49.053018500046917
 20
44.793821715570942
 70
0
  0
VERTEX
  5
DB49
  8
0
 62
7
 10
48.967580132012721
 20
44.96349266821948
 70
0
  0
SEQEND
  5
DB4A
  8
0
  0
POLYLINE
  5
DB4B
  8
0
 62
7
 66
1
 70
0
 10
0
 20
0
 30
0
  0
VERTEX
  5
DB4C
  8
0
 62
7
 10
45.158682563520493
 20
43.100557284570641
 70
0
  0
VERTEX
  5
DB4D
  8
0
 62
7
 10
44.819685167771908
 20
42.9736055159392
 70
0
  0
VERTEX
  5
DB4E
  8
0
 62
7
 10
44.43934662620034
 20
42.9736055159392
 70
0
  0
VERTEX
  5
DB4F
  8
0
 62
7
 10
44.05763004643466
 20
43.058871629199132
 70
0
  0
VERTEX
  5
DB50
  8
0
 62
7
 10
43.930850532577452
 20
43.143276468587743
 70
0
  0
VERTEX
  5
DB51
  8
0
 62
7
 10
43.845412164543262
 20
43.312602911687769
 70
0
  0
SEQEND
  5
DB52
  8
0
  0
POLYLINE
  5
DB53
  8
0
 62
7
 66
1
 70
0
 10
0
 20
0
 30
0
  0
VERTEX
  5
DB54
  8
0
 62
7
 10
46.8095723200522
 20
41.153217061533176
 70
0
  0
VERTEX
  5
DB55
  8
0
 62
7
 10
46.427855740286518
 20
41.026609802450253
 70
0
  0
VERTEX
  5
DB56
  8
0
 62
7
 10
46.00479801469784
 20
41.026609802450253
 70
0
  0
VERTEX
  5
DB57
  8
0
 62
7
 10
45.58174028910917
 20
41.111875915710179
 70
0
  0
VERTEX
  5
DB58
  8
0
 62
7
 10
45.4122415912349
 20
41.23865542956738
 70
0
  0
VERTEX
  5
DB59
  8
0
 62
7
 10
45.328181261394789
 20
41.44949527326466
 70
0
  0
SEQEND
  5
DB5A
  8
0
  0
POLYLINE
  5
DB5B
  8
0
 62
7
 66
1
 70
0
 10
0
 20
0
 30
0
  0
VERTEX
  5
DB5C
  8
0
 62
7
 10
56.163695581602582
 20
42.9322643701162
 70
0
  0
VERTEX
  5
DB5D
  8
0
 62
7
 10
55.952855737905267
 20
43.692769198485109
 70
0
  0
SEQEND
  5
DB5E
  8
0
  0
POLYLINE
  5
DB5F
  8
0
 62
7
 66
1
 70
0
 10
0
 20
0
 30
0
  0
VERTEX
  5
DB60
  8
0
 62
7
 10
50.661189072561541
 20
44.96349266821948
 70
0
  0
VERTEX
  5
DB61
  8
0
 62
7
 10
50.618469888544432
 20
44.836540899588037
 70
0
  0
VERTEX
  5
DB62
  8
0
 62
7
 10
50.491690374687231
 20
44.709933640505113
 70
0
  0
SEQEND
  5
DB63
  8
0
  0
POLYLINE
  5
DB64
  8
0
 62
7
 66
1
 70
0
 10
0
 20
0
 30
0
  0
VERTEX
  5
DB65
  8
0
 62
7
 10
47.994685166978172
 20
44.920773484202407
 70
0
  0
VERTEX
  5
DB66
  8
0
 62
7
 10
47.825186469103862
 20
44.667214456488011
 70
0
  0
VERTEX
  5
DB67
  8
0
 62
7
 10
47.486189073355277
 20
44.54060719740508
 70
0
  0
VERTEX
  5
DB68
  8
0
 62
7
 10
47.105850531783709
 20
44.54060719740508
 70
0
  0
VERTEX
  5
DB69
  8
0
 62
7
 10
46.724133952018029
 20
44.6244952724709
 70
0
  0
VERTEX
  5
DB6A
  8
0
 62
7
 10
46.597354438160821
 20
44.75110253155384
 70
0
  0
VERTEX
  5
DB6B
  8
0
 62
7
 10
46.513294108320721
 20
44.920773484202407
 70
0
  0
SEQEND
  5
DB6C
  8
0
  0
POLYLINE
  5
DB6D
  8
0
 62
7
 66
1
 70
0
 10
0
 20
0
 30
0
  0
VERTEX
  5
DB6E
  8
0
 62
7
 10
46.766853136035117
 20
46.275557283776877
 70
0
  0
VERTEX
  5
DB6F
  8
0
 62
7
 10
45.200023709343483
 20
45.937937926222418
 70
0
  0
VERTEX
  5
DB70
  8
0
 62
7
 10
43.677291504863049
 20
45.343831209791091
 70
0
  0
VERTEX
  5
DB71
  8
0
 62
7
 10
42.9992967133659
 20
44.920773484202407
 70
0
  0
VERTEX
  5
DB72
  8
0
 62
7
 10
42.40674028990292
 20
44.370936244756528
 70
0
  0
VERTEX
  5
DB73
  8
0
 62
7
 10
41.940963380297141
 20
43.692769198485109
 70
0
  0
VERTEX
  5
DB74
  8
0
 62
7
 10
41.730123536599869
 20
42.9322643701162
 70
0
  0
SEQEND
  5
DB75
  8
0
  0
POLYLINE
  5
DB76
  8
0
 62
7
 66
1
 70
0
 10
0
 20
0
 30
0
  0
VERTEX
  5
DB77
  8
0
 62
7
 10
47.0204121637495
 20
41.44949527326466
 70
0
  0
VERTEX
  5
DB78
  8
0
 62
7
 10
46.9790710179265
 20
41.281202358810219
 70
0
  0
VERTEX
  5
DB79
  8
0
 62
7
 10
46.8095723200522
 20
41.153217061533176
 70
0
  0
SEQEND
  5
DB7A
  8
0
  0
POLYLINE
  5
DB7B
  8
0
 62
7
 66
1
 70
0
 10
0
 20
0
 30
0
  0
VERTEX
  5
DB7C
  8
0
 62
7
 10
52.52429671098465
 20
52.116888933792239
 70
0
  0
VERTEX
  5
DB7D
  8
0
 62
7
 10
52.651076224841852
 20
51.906221344869238
 70
0
  0
SEQEND
  5
DB7E
  8
0
  0
POLYLINE
  5
DB7F
  8
0
 62
7
 66
1
 70
0
 10
0
 20
0
 30
0
  0
VERTEX
  5
DB80
  8
0
 62
7
 10
53.3276929781449
 20
51.524504765103558
 70
0
  0
VERTEX
  5
DB81
  8
0
 62
7
 10
53.158194280270621
 20
51.736550392220657
 70
0
  0
SEQEND
  5
DB82
  8
0
  0
POLYLINE
  5
DB83
  8
0
 62
7
 66
1
 70
0
 10
0
 20
0
 30
0
  0
VERTEX
  5
DB84
  8
0
 62
7
 10
52.861916068539117
 20
51.863157651303631
 70
0
  0
VERTEX
  5
DB85
  8
0
 62
7
 10
52.735136554681951
 20
51.863157651303631
 70
0
  0
SEQEND
  5
DB86
  8
0
  0
POLYLINE
  5
DB87
  8
0
 62
7
 66
1
 70
0
 10
0
 20
0
 30
0
  0
VERTEX
  5
DB88
  8
0
 62
7
 10
55.783357040031
 20
54.615272179695431
 70
0
  0
VERTEX
  5
DB89
  8
0
 62
7
 10
55.8260762240481
 20
54.742223948326881
 70
0
  0
SEQEND
  5
DB8A
  8
0
  0
POLYLINE
  5
DB8B
  8
0
 62
7
 66
1
 70
0
 10
0
 20
0
 30
0
  0
VERTEX
  5
DB8C
  8
0
 62
7
 10
58.407141761597259
 20
58.2975624891047
 70
0
  0
VERTEX
  5
DB8D
  8
0
 62
7
 10
58.576640459471562
 20
58.340109418347559
 70
0
  0
SEQEND
  5
DB8E
  8
0
  0
POLYLINE
  5
DB8F
  8
0
 62
7
 66
1
 70
0
 10
0
 20
0
 30
0
  0
VERTEX
  5
DB90
  8
0
 62
7
 10
61.328582733089142
 20
57.154824316647328
 70
0
  0
VERTEX
  5
DB91
  8
0
 62
7
 10
61.36992387891214
 20
57.0695582033874
 70
0
  0
SEQEND
  5
DB92
  8
0
  0
POLYLINE
  5
DB93
  8
0
 62
7
 66
1
 70
0
 10
0
 20
0
 30
0
  0
VERTEX
  5
DB94
  8
0
 62
7
 10
61.28586354907204
 20
57.239229156035982
 70
0
  0
VERTEX
  5
DB95
  8
0
 62
7
 10
61.328582733089142
 20
57.1965099720189
 70
0
  0
SEQEND
  5
DB96
  8
0
  0
POLYLINE
  5
DB97
  8
0
 62
7
 66
1
 70
0
 10
0
 20
0
 30
0
  0
VERTEX
  5
DB98
  8
0
 62
7
 10
53.6239711898764
 20
51.609943133137762
 70
0
  0
VERTEX
  5
DB99
  8
0
 62
7
 10
53.709409557910583
 20
51.609943133137762
 70
0
  0
SEQEND
  5
DB9A
  8
0
  0
POLYLINE
  5
DB9B
  8
0
 62
7
 66
1
 70
0
 10
0
 20
0
 30
0
  0
VERTEX
  5
DB9C
  8
0
 62
7
 10
45.328181261394789
 20
43.312602911687769
 70
0
  0
VERTEX
  5
DB9D
  8
0
 62
7
 10
45.158682563520493
 20
43.100557284570641
 70
0
  0
SEQEND
  5
DB9E
  8
0
  0
POLYLINE
  5
DB9F
  8
0
 62
7
 66
1
 70
0
 10
0
 20
0
 30
0
  0
VERTEX
  5
DBA0
  8
0
 62
7
 10
46.682792806195032
 20
44.117204962267863
 70
0
  0
VERTEX
  5
DBA1
  8
0
 62
7
 10
46.513294108320721
 20
43.862440151133647
 70
0
  0
SEQEND
  5
DBA2
  8
0
  0
POLYLINE
  5
DBA3
  8
0
 62
7
 66
1
 70
0
 10
0
 20
0
 30
0
  0
VERTEX
  5
DBA4
  8
0
 62
7
 10
54.30196598137357
 20
52.202155047052173
 70
0
  0
VERTEX
  5
DBA5
  8
0
 62
7
 10
54.555525009087972
 20
52.709445357255248
 70
0
  0
VERTEX
  5
DBA6
  8
0
 62
7
 10
55.697918671996788
 20
54.190836415912678
 70
0
  0
SEQEND
  5
DBA7
  8
0
  0
POLYLINE
  5
DBA8
  8
0
 62
7
 66
1
 70
0
 10
0
 20
0
 30
0
  0
VERTEX
  5
DBA9
  8
0
 62
7
 10
52.735136554681951
 20
51.863157651303631
 70
0
  0
VERTEX
  5
DBAA
  8
0
 62
7
 10
52.735136554681951
 20
51.779269576237787
 70
0
  0
SEQEND
  5
DBAB
  8
0
  0
POLYLINE
  5
DBAC
  8
0
 62
7
 66
1
 70
0
 10
0
 20
0
 30
0
  0
VERTEX
  5
DBAD
  8
0
 62
7
 10
58.576640459471562
 20
58.340109418347559
 70
0
  0
VERTEX
  5
DBAE
  8
0
 62
7
 10
58.619359643488671
 20
58.340109418347559
 70
0
  0
SEQEND
  5
DBAF
  8
0
  0
POLYLINE
  5
DBB0
  8
0
 62
7
 66
1
 70
0
 10
0
 20
0
 30
0
  0
VERTEX
  5
DBB1
  8
0
 62
7
 10
58.830199487185943
 20
58.085172352439059
 70
0
  0
VERTEX
  5
DBB2
  8
0
 62
7
 10
58.619359643488671
 20
58.254843305087633
 70
0
  0
SEQEND
  5
DBB3
  8
0
  0
POLYLINE
  5
DBB4
  8
0
 62
7
 66
1
 70
0
 10
0
 20
0
 30
0
  0
VERTEX
  5
DBB5
  8
0
 62
7
 10
61.36992387891214
 20
57.0695582033874
 70
0
  0
VERTEX
  5
DBB6
  8
0
 62
7
 10
61.243144365054938
 20
57.0695582033874
 70
0
  0
SEQEND
  5
DBB7
  8
0
  0
POLYLINE
  5
DBB8
  8
0
 62
7
 66
1
 70
0
 10
0
 20
0
 30
0
  0
VERTEX
  5
DBB9
  8
0
 62
7
 10
53.581252005859312
 20
51.524504765103558
 70
0
  0
VERTEX
  5
DBBA
  8
0
 62
7
 10
53.581252005859312
 20
51.567223949120631
 70
0
  0
VERTEX
  5
DBBB
  8
0
 62
7
 10
53.6239711898764
 20
51.609943133137762
 70
0
  0
SEQEND
  5
DBBC
  8
0
  0
POLYLINE
  5
DBBD
  8
0
 62
7
 66
1
 70
0
 10
0
 20
0
 30
0
  0
VERTEX
  5
DBBE
  8
0
 62
7
 10
47.739748101069686
 20
62.234445354873991
 70
0
  0
VERTEX
  5
DBBF
  8
0
 62
7
 10
47.909246798943961
 20
62.403771797974031
 70
0
  0
VERTEX
  5
DBC0
  8
0
 62
7
 10
47.951965982961063
 20
62.614783896445573
 70
0
  0
SEQEND
  5
DBC1
  8
0
  0
POLYLINE
  5
DBC2
  8
0
 62
7
 66
1
 70
0
 10
0
 20
0
 30
0
  0
VERTEX
  5
DBC3
  8
0
 62
7
 10
47.739748101069686
 20
64.392453166834486
 70
0
  0
VERTEX
  5
DBC4
  8
0
 62
7
 10
47.909246798943961
 20
64.519060425917388
 70
0
  0
VERTEX
  5
DBC5
  8
0
 62
7
 10
47.951965982961063
 20
64.731450562583092
 70
0
  0
SEQEND
  5
DBC6
  8
0
  0
POLYLINE
  5
DBC7
  8
0
 62
7
 66
1
 70
0
 10
0
 20
0
 30
0
  0
VERTEX
  5
DBC8
  8
0
 62
7
 10
46.258357042412243
 20
61.599169747393923
 70
0
  0
VERTEX
  5
DBC9
  8
0
 62
7
 10
46.343795410446418
 20
61.472562488310949
 70
0
  0
SEQEND
  5
DBCA
  8
0
  0
POLYLINE
  5
DBCB
  8
0
 62
7
 66
1
 70
0
 10
0
 20
0
 30
0
  0
VERTEX
  5
DBCC
  8
0
 62
7
 10
47.909246798943961
 20
62.741391155528483
 70
0
  0
VERTEX
  5
DBCD
  8
0
 62
7
 10
47.951965982961063
 20
62.741391155528483
 70
0
  0
SEQEND
  5
DBCE
  8
0
  0
POLYLINE
  5
DBCF
  8
0
 62
7
 66
1
 70
0
 10
0
 20
0
 30
0
  0
VERTEX
  5
DBD0
  8
0
 62
7
 10
43.930850532577452
 20
60.371509971225152
 70
0
  0
VERTEX
  5
DBD1
  8
0
 62
7
 10
43.973569716594561
 20
60.371509971225152
 70
0
  0
SEQEND
  5
DBD2
  8
0
  0
POLYLINE
  5
DBD3
  8
0
 62
7
 66
1
 70
0
 10
0
 20
0
 30
0
  0
VERTEX
  5
DBD4
  8
0
 62
7
 10
44.353908258166143
 20
60.624724489391014
 70
0
  0
VERTEX
  5
DBD5
  8
0
 62
7
 10
44.396627442183231
 20
60.624724489391014
 70
0
  0
SEQEND
  5
DBD6
  8
0
  0
POLYLINE
  5
DBD7
  8
0
 62
7
 66
1
 70
0
 10
0
 20
0
 30
0
  0
VERTEX
  5
DBD8
  8
0
 62
7
 10
44.819685167771908
 20
60.879833810073727
 70
0
  0
VERTEX
  5
DBD9
  8
0
 62
7
 10
44.862404351789017
 20
60.879833810073727
 70
0
  0
SEQEND
  5
DBDA
  8
0
  0
POLYLINE
  5
DBDB
  8
0
 62
7
 66
1
 70
0
 10
0
 20
0
 30
0
  0
VERTEX
  5
DBDC
  8
0
 62
7
 10
45.242742893360592
 20
61.133392837788129
 70
0
  0
VERTEX
  5
DBDD
  8
0
 62
7
 10
45.242742893360592
 20
61.17611202180521
 70
0
  0
SEQEND
  5
DBDE
  8
0
  0
POLYLINE
  5
DBDF
  8
0
 62
7
 66
1
 70
0
 10
0
 20
0
 30
0
  0
VERTEX
  5
DBE0
  8
0
 62
7
 10
45.708519802966357
 20
61.429843304293883
 70
0
  0
VERTEX
  5
DBE1
  8
0
 62
7
 10
45.751238986983473
 20
61.429843304293883
 70
0
  0
SEQEND
  5
DBE2
  8
0
  0
POLYLINE
  5
DBE3
  8
0
 62
7
 66
1
 70
0
 10
0
 20
0
 30
0
  0
VERTEX
  5
DBE4
  8
0
 62
7
 10
46.131577528555049
 20
61.683057822459737
 70
0
  0
VERTEX
  5
DBE5
  8
0
 62
7
 10
46.174296712572151
 20
61.683057822459737
 70
0
  0
SEQEND
  5
DBE6
  8
0
  0
POLYLINE
  5
DBE7
  8
0
 62
7
 66
1
 70
0
 10
0
 20
0
 30
0
  0
VERTEX
  5
DBE8
  8
0
 62
7
 10
46.554635254143719
 20
61.938167143142522
 70
0
  0
VERTEX
  5
DBE9
  8
0
 62
7
 10
46.597354438160821
 20
61.938167143142522
 70
0
  0
SEQEND
  5
DBEA
  8
0
  0
POLYLINE
  5
DBEB
  8
0
 62
7
 66
1
 70
0
 10
0
 20
0
 30
0
  0
VERTEX
  5
DBEC
  8
0
 62
7
 10
47.0204121637495
 20
62.19172617085686
 70
0
  0
VERTEX
  5
DBED
  8
0
 62
7
 10
47.0631313477666
 20
62.19172617085686
 70
0
  0
SEQEND
  5
DBEE
  8
0
  0
POLYLINE
  5
DBEF
  8
0
 62
7
 66
1
 70
0
 10
0
 20
0
 30
0
  0
VERTEX
  5
DBF0
  8
0
 62
7
 10
47.443469889338182
 20
62.488176637362614
 70
0
  0
VERTEX
  5
DBF1
  8
0
 62
7
 10
47.486189073355277
 20
62.488176637362614
 70
0
  0
SEQEND
  5
DBF2
  8
0
  0
POLYLINE
  5
DBF3
  8
0
 62
7
 66
1
 70
0
 10
0
 20
0
 30
0
  0
VERTEX
  5
DBF4
  8
0
 62
7
 10
47.909246798943961
 20
64.858057821666
 70
0
  0
VERTEX
  5
DBF5
  8
0
 62
7
 10
47.951965982961063
 20
64.858057821666
 70
0
  0
SEQEND
  5
DBF6
  8
0
  0
POLYLINE
  5
DBF7
  8
0
 62
7
 66
1
 70
0
 10
0
 20
0
 30
0
  0
VERTEX
  5
DBF8
  8
0
 62
7
 10
43.930850532577452
 20
62.488176637362614
 70
0
  0
VERTEX
  5
DBF9
  8
0
 62
7
 10
43.973569716594561
 20
62.488176637362614
 70
0
  0
SEQEND
  5
DBFA
  8
0
  0
POLYLINE
  5
DBFB
  8
0
 62
7
 66
1
 70
0
 10
0
 20
0
 30
0
  0
VERTEX
  5
DBFC
  8
0
 62
7
 10
44.353908258166143
 20
62.741391155528483
 70
0
  0
VERTEX
  5
DBFD
  8
0
 62
7
 10
44.396627442183231
 20
62.741391155528483
 70
0
  0
SEQEND
  5
DBFE
  8
0
  0
POLYLINE
  5
DBFF
  8
0
 62
7
 66
1
 70
0
 10
0
 20
0
 30
0
  0
VERTEX
  5
DC00
  8
0
 62
7
 10
44.819685167771908
 20
63.037841622034222
 70
0
  0
VERTEX
  5
DC01
  8
0
 62
7
 10
44.862404351789017
 20
63.037841622034222
 70
0
  0
SEQEND
  5
DC02
  8
0
  0
POLYLINE
  5
DC03
  8
0
 62
7
 66
1
 70
0
 10
0
 20
0
 30
0
  0
VERTEX
  5
DC04
  8
0
 62
7
 10
45.242742893360592
 20
63.292778687942729
 70
0
  0
VERTEX
  5
DC05
  8
0
 62
7
 10
45.285462077377687
 20
63.292778687942729
 70
0
  0
SEQEND
  5
DC06
  8
0
  0
POLYLINE
  5
DC07
  8
0
 62
7
 66
1
 70
0
 10
0
 20
0
 30
0
  0
VERTEX
  5
DC08
  8
0
 62
7
 10
45.708519802966357
 20
63.5465099704314
 70
0
  0
VERTEX
  5
DC09
  8
0
 62
7
 10
45.751238986983473
 20
63.5465099704314
 70
0
  0
SEQEND
  5
DC0A
  8
0
  0
POLYLINE
  5
DC0B
  8
0
 62
7
 66
1
 70
0
 10
0
 20
0
 30
0
  0
VERTEX
  5
DC0C
  8
0
 62
7
 10
46.131577528555049
 20
63.799724488597263
 70
0
  0
VERTEX
  5
DC0D
  8
0
 62
7
 10
46.174296712572151
 20
63.799724488597263
 70
0
  0
SEQEND
  5
DC0E
  8
0
  0
POLYLINE
  5
DC0F
  8
0
 62
7
 66
1
 70
0
 10
0
 20
0
 30
0
  0
VERTEX
  5
DC10
  8
0
 62
7
 10
46.554635254143719
 20
64.09617495510301
 70
0
  0
VERTEX
  5
DC11
  8
0
 62
7
 10
46.597354438160821
 20
64.09617495510301
 70
0
  0
SEQEND
  5
DC12
  8
0
  0
POLYLINE
  5
DC13
  8
0
 62
7
 66
1
 70
0
 10
0
 20
0
 30
0
  0
VERTEX
  5
DC14
  8
0
 62
7
 10
47.0204121637495
 20
64.35111202101146
 70
0
  0
VERTEX
  5
DC15
  8
0
 62
7
 10
47.0631313477666
 20
64.35111202101146
 70
0
  0
SEQEND
  5
DC16
  8
0
  0
POLYLINE
  5
DC17
  8
0
 62
7
 66
1
 70
0
 10
0
 20
0
 30
0
  0
VERTEX
  5
DC18
  8
0
 62
7
 10
47.443469889338182
 20
64.604843303500132
 70
0
  0
VERTEX
  5
DC19
  8
0
 62
7
 10
47.486189073355277
 20
64.604843303500132
 70
0
  0
SEQEND
  5
DC1A
  8
0
  0
POLYLINE
  5
DC1B
  8
0
 62
7
 66
1
 70
0
 10
0
 20
0
 30
0
  0
VERTEX
  5
DC1C
  8
0
 62
7
 10
43.88813134856035
 20
62.149179241614057
 70
0
  0
VERTEX
  5
DC1D
  8
0
 62
7
 10
43.973569716594561
 20
62.361224868731171
 70
0
  0
SEQEND
  5
DC1E
  8
0
  0
POLYLINE
  5
DC1F
  8
0
 62
7
 66
1
 70
0
 10
0
 20
0
 30
0
  0
VERTEX
  5
DC20
  8
0
 62
7
 10
43.761351834703149
 20
61.979508288965491
 70
0
  0
VERTEX
  5
DC21
  8
0
 62
7
 10
43.845412164543262
 20
62.064774402225417
 70
0
  0
SEQEND
  5
DC22
  8
0
  0
POLYLINE
  5
DC23
  8
0
 62
7
 66
1
 70
0
 10
0
 20
0
 30
0
  0
VERTEX
  5
DC24
  8
0
 62
7
 10
43.88813134856035
 20
59.991171429653569
 70
0
  0
VERTEX
  5
DC25
  8
0
 62
7
 10
43.973569716594561
 20
60.244558202593652
 70
0
  0
SEQEND
  5
DC26
  8
0
  0
POLYLINE
  5
DC27
  8
0
 62
7
 66
1
 70
0
 10
0
 20
0
 30
0
  0
VERTEX
  5
DC28
  8
0
 62
7
 10
43.761351834703149
 20
59.864219661022076
 70
0
  0
VERTEX
  5
DC29
  8
0
 62
7
 10
43.845412164543262
 20
59.905388552070832
 70
0
  0
SEQEND
  5
DC2A
  8
0
  0
POLYLINE
  5
DC2B
  8
0
 62
7
 66
1
 70
0
 10
0
 20
0
 30
0
  0
VERTEX
  5
DC2C
  8
0
 62
7
 10
44.353908258166143
 20
62.403771797974031
 70
0
  0
VERTEX
  5
DC2D
  8
0
 62
7
 10
44.396627442183231
 20
62.614783896445573
 70
0
  0
SEQEND
  5
DC2E
  8
0
  0
POLYLINE
  5
DC2F
  8
0
 62
7
 66
1
 70
0
 10
0
 20
0
 30
0
  0
VERTEX
  5
DC30
  8
0
 62
7
 10
44.227128744308928
 20
62.275786500696967
 70
0
  0
VERTEX
  5
DC31
  8
0
 62
7
 10
44.269847928326037
 20
62.3185056847141
 70
0
  0
SEQEND
  5
DC32
  8
0
  0
POLYLINE
  5
DC33
  8
0
 62
7
 66
1
 70
0
 10
0
 20
0
 30
0
  0
VERTEX
  5
DC34
  8
0
 62
7
 10
44.353908258166143
 20
60.287105131836512
 70
0
  0
VERTEX
  5
DC35
  8
0
 62
7
 10
44.396627442183231
 20
60.498117230308047
 70
0
  0
SEQEND
  5
DC36
  8
0
  0
POLYLINE
  5
DC37
  8
0
 62
7
 66
1
 70
0
 10
0
 20
0
 30
0
  0
VERTEX
  5
DC38
  8
0
 62
7
 10
44.227128744308928
 20
60.117778688736479
 70
0
  0
VERTEX
  5
DC39
  8
0
 62
7
 10
44.269847928326037
 20
60.160497872753609
 70
0
  0
SEQEND
  5
DC3A
  8
0
  0
POLYLINE
  5
DC3B
  8
0
 62
7
 66
1
 70
0
 10
0
 20
0
 30
0
  0
VERTEX
  5
DC3C
  8
0
 62
7
 10
44.776965983754813
 20
62.657503080462639
 70
0
  0
VERTEX
  5
DC3D
  8
0
 62
7
 10
44.862404351789017
 20
62.868342924159968
 70
0
  0
SEQEND
  5
DC3E
  8
0
  0
POLYLINE
  5
DC3F
  8
0
 62
7
 66
1
 70
0
 10
0
 20
0
 30
0
  0
VERTEX
  5
DC40
  8
0
 62
7
 10
44.650186469897612
 20
62.530895821379737
 70
0
  0
VERTEX
  5
DC41
  8
0
 62
7
 10
44.735624837931809
 20
62.572064712428443
 70
0
  0
SEQEND
  5
DC42
  8
0
  0
POLYLINE
  5
DC43
  8
0
 62
7
 66
1
 70
0
 10
0
 20
0
 30
0
  0
VERTEX
  5
DC44
  8
0
 62
7
 10
44.776965983754813
 20
60.540836414325177
 70
0
  0
VERTEX
  5
DC45
  8
0
 62
7
 10
44.862404351789017
 20
60.753226550990831
 70
0
  0
SEQEND
  5
DC46
  8
0
  0
POLYLINE
  5
DC47
  8
0
 62
7
 66
1
 70
0
 10
0
 20
0
 30
0
  0
VERTEX
  5
DC48
  8
0
 62
7
 10
44.650186469897612
 20
60.414229155242218
 70
0
  0
VERTEX
  5
DC49
  8
0
 62
7
 10
44.735624837931809
 20
60.456776084485078
 70
0
  0
SEQEND
  5
DC4A
  8
0
  0
POLYLINE
  5
DC4B
  8
0
 62
7
 66
1
 70
0
 10
0
 20
0
 30
0
  0
VERTEX
  5
DC4C
  8
0
 62
7
 10
45.242742893360592
 20
62.911062108177049
 70
0
  0
VERTEX
  5
DC4D
  8
0
 62
7
 10
45.285462077377687
 20
63.166171428859819
 70
0
  0
SEQEND
  5
DC4E
  8
0
  0
POLYLINE
  5
DC4F
  8
0
 62
7
 66
1
 70
0
 10
0
 20
0
 30
0
  0
VERTEX
  5
DC50
  8
0
 62
7
 10
45.073244195486289
 20
62.784110339545613
 70
0
  0
VERTEX
  5
DC51
  8
0
 62
7
 10
45.158682563520493
 20
62.82717403311122
 70
0
  0
SEQEND
  5
DC52
  8
0
  0
POLYLINE
  5
DC53
  8
0
 62
7
 66
1
 70
0
 10
0
 20
0
 30
0
  0
VERTEX
  5
DC54
  8
0
 62
7
 10
45.242742893360592
 20
60.79439544203953
 70
0
  0
VERTEX
  5
DC55
  8
0
 62
7
 10
45.285462077377687
 20
61.0064410691567
 70
0
  0
SEQEND
  5
DC56
  8
0
  0
POLYLINE
  5
DC57
  8
0
 62
7
 66
1
 70
0
 10
0
 20
0
 30
0
  0
VERTEX
  5
DC58
  8
0
 62
7
 10
45.073244195486289
 20
60.667443673408087
 70
0
  0
VERTEX
  5
DC59
  8
0
 62
7
 10
45.158682563520493
 20
60.7105073669737
 70
0
  0
SEQEND
  5
DC5A
  8
0
  0
POLYLINE
  5
DC5B
  8
0
 62
7
 66
1
 70
0
 10
0
 20
0
 30
0
  0
VERTEX
  5
DC5C
  8
0
 62
7
 10
44.396627442183231
 20
60.498117230308047
 70
0
  0
VERTEX
  5
DC5D
  8
0
 62
7
 10
44.353908258166143
 20
60.624724489391014
 70
0
  0
SEQEND
  5
DC5E
  8
0
  0
POLYLINE
  5
DC5F
  8
0
 62
7
 66
1
 70
0
 10
0
 20
0
 30
0
  0
VERTEX
  5
DC60
  8
0
 62
7
 10
43.973569716594561
 20
60.244558202593652
 70
0
  0
VERTEX
  5
DC61
  8
0
 62
7
 10
43.930850532577452
 20
60.371509971225152
 70
0
  0
SEQEND
  5
DC62
  8
0
  0
POLYLINE
  5
DC63
  8
0
 62
7
 66
1
 70
0
 10
0
 20
0
 30
0
  0
VERTEX
  5
DC64
  8
0
 62
7
 10
47.951965982961063
 20
62.614783896445573
 70
0
  0
VERTEX
  5
DC65
  8
0
 62
7
 10
47.909246798943961
 20
62.741391155528483
 70
0
  0
SEQEND
  5
DC66
  8
0
  0
POLYLINE
  5
DC67
  8
0
 62
7
 66
1
 70
0
 10
0
 20
0
 30
0
  0
VERTEX
  5
DC68
  8
0
 62
7
 10
47.528908257372379
 20
62.3185056847141
 70
0
  0
VERTEX
  5
DC69
  8
0
 62
7
 10
47.443469889338182
 20
62.488176637362614
 70
0
  0
SEQEND
  5
DC6A
  8
0
  0
POLYLINE
  5
DC6B
  8
0
 62
7
 66
1
 70
0
 10
0
 20
0
 30
0
  0
VERTEX
  5
DC6C
  8
0
 62
7
 10
47.0631313477666
 20
62.064774402225417
 70
0
  0
VERTEX
  5
DC6D
  8
0
 62
7
 10
47.0204121637495
 20
62.19172617085686
 70
0
  0
SEQEND
  5
DC6E
  8
0
  0
POLYLINE
  5
DC6F
  8
0
 62
7
 66
1
 70
0
 10
0
 20
0
 30
0
  0
VERTEX
  5
DC70
  8
0
 62
7
 10
46.64007362217793
 20
61.811559884059562
 70
0
  0
VERTEX
  5
DC71
  8
0
 62
7
 10
46.554635254143719
 20
61.938167143142522
 70
0
  0
SEQEND
  5
DC72
  8
0
  0
POLYLINE
  5
DC73
  8
0
 62
7
 66
1
 70
0
 10
0
 20
0
 30
0
  0
VERTEX
  5
DC74
  8
0
 62
7
 10
46.174296712572151
 20
61.556450563376842
 70
0
  0
VERTEX
  5
DC75
  8
0
 62
7
 10
46.131577528555049
 20
61.683057822459737
 70
0
  0
SEQEND
  5
DC76
  8
0
  0
POLYLINE
  5
DC77
  8
0
 62
7
 66
1
 70
0
 10
0
 20
0
 30
0
  0
VERTEX
  5
DC78
  8
0
 62
7
 10
45.751238986983473
 20
61.260172351645309
 70
0
  0
VERTEX
  5
DC79
  8
0
 62
7
 10
45.708519802966357
 20
61.429843304293883
 70
0
  0
SEQEND
  5
DC7A
  8
0
  0
POLYLINE
  5
DC7B
  8
0
 62
7
 66
1
 70
0
 10
0
 20
0
 30
0
  0
VERTEX
  5
DC7C
  8
0
 62
7
 10
45.285462077377687
 20
61.0064410691567
 70
0
  0
VERTEX
  5
DC7D
  8
0
 62
7
 10
45.242742893360592
 20
61.133392837788129
 70
0
  0
SEQEND
  5
DC7E
  8
0
  0
POLYLINE
  5
DC7F
  8
0
 62
7
 66
1
 70
0
 10
0
 20
0
 30
0
  0
VERTEX
  5
DC80
  8
0
 62
7
 10
44.862404351789017
 20
60.753226550990831
 70
0
  0
VERTEX
  5
DC81
  8
0
 62
7
 10
44.819685167771908
 20
60.879833810073727
 70
0
  0
SEQEND
  5
DC82
  8
0
  0
POLYLINE
  5
DC83
  8
0
 62
7
 66
1
 70
0
 10
0
 20
0
 30
0
  0
VERTEX
  5
DC84
  8
0
 62
7
 10
44.396627442183231
 20
62.614783896445573
 70
0
  0
VERTEX
  5
DC85
  8
0
 62
7
 10
44.353908258166143
 20
62.741391155528483
 70
0
  0
SEQEND
  5
DC86
  8
0
  0
POLYLINE
  5
DC87
  8
0
 62
7
 66
1
 70
0
 10
0
 20
0
 30
0
  0
VERTEX
  5
DC88
  8
0
 62
7
 10
43.973569716594561
 20
62.361224868731171
 70
0
  0
VERTEX
  5
DC89
  8
0
 62
7
 10
43.930850532577452
 20
62.488176637362614
 70
0
  0
SEQEND
  5
DC8A
  8
0
  0
POLYLINE
  5
DC8B
  8
0
 62
7
 66
1
 70
0
 10
0
 20
0
 30
0
  0
VERTEX
  5
DC8C
  8
0
 62
7
 10
47.951965982961063
 20
64.731450562583092
 70
0
  0
VERTEX
  5
DC8D
  8
0
 62
7
 10
47.909246798943961
 20
64.858057821666
 70
0
  0
SEQEND
  5
DC8E
  8
0
  0
POLYLINE
  5
DC8F
  8
0
 62
7
 66
1
 70
0
 10
0
 20
0
 30
0
  0
VERTEX
  5
DC90
  8
0
 62
7
 10
47.528908257372379
 20
64.477891534868689
 70
0
  0
VERTEX
  5
DC91
  8
0
 62
7
 10
47.443469889338182
 20
64.604843303500132
 70
0
  0
SEQEND
  5
DC92
  8
0
  0
POLYLINE
  5
DC93
  8
0
 62
7
 66
1
 70
0
 10
0
 20
0
 30
0
  0
VERTEX
  5
DC94
  8
0
 62
7
 10
47.0631313477666
 20
64.223126723734453
 70
0
  0
VERTEX
  5
DC95
  8
0
 62
7
 10
47.0204121637495
 20
64.35111202101146
 70
0
  0
SEQEND
  5
DC96
  8
0
  0
POLYLINE
  5
DC97
  8
0
 62
7
 66
1
 70
0
 10
0
 20
0
 30
0
  0
VERTEX
  5
DC98
  8
0
 62
7
 10
46.64007362217793
 20
63.926676257228713
 70
0
  0
VERTEX
  5
DC99
  8
0
 62
7
 10
46.554635254143719
 20
64.09617495510301
 70
0
  0
SEQEND
  5
DC9A
  8
0
  0
POLYLINE
  5
DC9B
  8
0
 62
7
 66
1
 70
0
 10
0
 20
0
 30
0
  0
VERTEX
  5
DC9C
  8
0
 62
7
 10
46.174296712572151
 20
63.673117229514311
 70
0
  0
VERTEX
  5
DC9D
  8
0
 62
7
 10
46.131577528555049
 20
63.799724488597263
 70
0
  0
SEQEND
  5
DC9E
  8
0
  0
POLYLINE
  5
DC9F
  8
0
 62
7
 66
1
 70
0
 10
0
 20
0
 30
0
  0
VERTEX
  5
DCA0
  8
0
 62
7
 10
45.751238986983473
 20
63.4195582017999
 70
0
  0
VERTEX
  5
DCA1
  8
0
 62
7
 10
45.708519802966357
 20
63.5465099704314
 70
0
  0
SEQEND
  5
DCA2
  8
0
  0
POLYLINE
  5
DCA3
  8
0
 62
7
 66
1
 70
0
 10
0
 20
0
 30
0
  0
VERTEX
  5
DCA4
  8
0
 62
7
 10
45.285462077377687
 20
63.166171428859819
 70
0
  0
VERTEX
  5
DCA5
  8
0
 62
7
 10
45.242742893360592
 20
63.292778687942729
 70
0
  0
SEQEND
  5
DCA6
  8
0
  0
POLYLINE
  5
DCA7
  8
0
 62
7
 66
1
 70
0
 10
0
 20
0
 30
0
  0
VERTEX
  5
DCA8
  8
0
 62
7
 10
44.862404351789017
 20
62.868342924159968
 70
0
  0
VERTEX
  5
DCA9
  8
0
 62
7
 10
44.819685167771908
 20
63.037841622034222
 70
0
  0
SEQEND
  5
DCAA
  8
0
  0
POLYLINE
  5
DCAB
  8
0
 62
7
 66
1
 70
0
 10
0
 20
0
 30
0
  0
VERTEX
  5
DCAC
  8
0
 62
7
 10
45.66580061894927
 20
63.2075125746828
 70
0
  0
VERTEX
  5
DCAD
  8
0
 62
7
 10
45.751238986983473
 20
63.4195582017999
 70
0
  0
SEQEND
  5
DCAE
  8
0
  0
POLYLINE
  5
DCAF
  8
0
 62
7
 66
1
 70
0
 10
0
 20
0
 30
0
  0
VERTEX
  5
DCB0
  8
0
 62
7
 10
45.539021105092068
 20
63.037841622034222
 70
0
  0
VERTEX
  5
DCB1
  8
0
 62
7
 10
45.624459473126272
 20
63.080388551277082
 70
0
  0
SEQEND
  5
DCB2
  8
0
  0
POLYLINE
  5
DCB3
  8
0
 62
7
 66
1
 70
0
 10
0
 20
0
 30
0
  0
VERTEX
  5
DCB4
  8
0
 62
7
 10
45.66580061894927
 20
61.049504762722307
 70
0
  0
VERTEX
  5
DCB5
  8
0
 62
7
 10
45.751238986983473
 20
61.260172351645309
 70
0
  0
SEQEND
  5
DCB6
  8
0
  0
POLYLINE
  5
DCB7
  8
0
 62
7
 66
1
 70
0
 10
0
 20
0
 30
0
  0
VERTEX
  5
DCB8
  8
0
 62
7
 10
45.539021105092068
 20
60.921174955896753
 70
0
  0
VERTEX
  5
DCB9
  8
0
 62
7
 10
45.624459473126272
 20
60.96372188513957
 70
0
  0
SEQEND
  5
DCBA
  8
0
  0
POLYLINE
  5
DCBB
  8
0
 62
7
 66
1
 70
0
 10
0
 20
0
 30
0
  0
VERTEX
  5
DCBC
  8
0
 62
7
 10
46.131577528555049
 20
63.462105131042762
 70
0
  0
VERTEX
  5
DCBD
  8
0
 62
7
 10
46.174296712572151
 20
63.673117229514311
 70
0
  0
SEQEND
  5
DCBE
  8
0
  0
POLYLINE
  5
DCBF
  8
0
 62
7
 66
1
 70
0
 10
0
 20
0
 30
0
  0
VERTEX
  5
DCC0
  8
0
 62
7
 10
45.962078830680738
 20
63.334119833765747
 70
0
  0
VERTEX
  5
DCC1
  8
0
 62
7
 10
46.047517198714949
 20
63.376839017782828
 70
0
  0
SEQEND
  5
DCC2
  8
0
  0
POLYLINE
  5
DCC3
  8
0
 62
7
 66
1
 70
0
 10
0
 20
0
 30
0
  0
VERTEX
  5
DCC4
  8
0
 62
7
 10
46.131577528555049
 20
61.345438464905243
 70
0
  0
VERTEX
  5
DCC5
  8
0
 62
7
 10
46.174296712572151
 20
61.556450563376842
 70
0
  0
SEQEND
  5
DCC6
  8
0
  0
POLYLINE
  5
DCC7
  8
0
 62
7
 66
1
 70
0
 10
0
 20
0
 30
0
  0
VERTEX
  5
DCC8
  8
0
 62
7
 10
45.962078830680738
 20
61.17611202180521
 70
0
  0
VERTEX
  5
DCC9
  8
0
 62
7
 10
46.047517198714949
 20
61.21883120582234
 70
0
  0
SEQEND
  5
DCCA
  8
0
  0
POLYLINE
  5
DCCB
  8
0
 62
7
 66
1
 70
0
 10
0
 20
0
 30
0
  0
VERTEX
  5
DCCC
  8
0
 62
7
 10
46.554635254143719
 20
63.715836413531441
 70
0
  0
VERTEX
  5
DCCD
  8
0
 62
7
 10
46.64007362217793
 20
63.926676257228713
 70
0
  0
SEQEND
  5
DCCE
  8
0
  0
POLYLINE
  5
DCCF
  8
0
 62
7
 66
1
 70
0
 10
0
 20
0
 30
0
  0
VERTEX
  5
DCD0
  8
0
 62
7
 10
46.427855740286518
 20
63.589229154448468
 70
0
  0
VERTEX
  5
DCD1
  8
0
 62
7
 10
46.513294108320721
 20
63.63039804549723
 70
0
  0
SEQEND
  5
DCD2
  8
0
  0
POLYLINE
  5
DCD3
  8
0
 62
7
 66
1
 70
0
 10
0
 20
0
 30
0
  0
VERTEX
  5
DCD4
  8
0
 62
7
 10
46.554635254143719
 20
61.599169747393923
 70
0
  0
VERTEX
  5
DCD5
  8
0
 62
7
 10
46.64007362217793
 20
61.811559884059562
 70
0
  0
SEQEND
  5
DCD6
  8
0
  0
POLYLINE
  5
DCD7
  8
0
 62
7
 66
1
 70
0
 10
0
 20
0
 30
0
  0
VERTEX
  5
DCD8
  8
0
 62
7
 10
46.427855740286518
 20
61.429843304293883
 70
0
  0
VERTEX
  5
DCD9
  8
0
 62
7
 10
46.513294108320721
 20
61.515109417553823
 70
0
  0
SEQEND
  5
DCDA
  8
0
  0
POLYLINE
  5
DCDB
  8
0
 62
7
 66
1
 70
0
 10
0
 20
0
 30
0
  0
VERTEX
  5
DCDC
  8
0
 62
7
 10
47.0204121637495
 20
63.969395441245773
 70
0
  0
VERTEX
  5
DCDD
  8
0
 62
7
 10
47.0631313477666
 20
64.223126723734453
 70
0
  0
SEQEND
  5
DCDE
  8
0
  0
POLYLINE
  5
DCDF
  8
0
 62
7
 66
1
 70
0
 10
0
 20
0
 30
0
  0
VERTEX
  5
DCE0
  8
0
 62
7
 10
46.8509134658752
 20
63.842443672614337
 70
0
  0
VERTEX
  5
DCE1
  8
0
 62
7
 10
46.936351833909413
 20
63.885507366179951
 70
0
  0
SEQEND
  5
DCE2
  8
0
  0
POLYLINE
  5
DCE3
  8
0
 62
7
 66
1
 70
0
 10
0
 20
0
 30
0
  0
VERTEX
  5
DCE4
  8
0
 62
7
 10
47.0204121637495
 20
61.852728775108318
 70
0
  0
VERTEX
  5
DCE5
  8
0
 62
7
 10
47.0631313477666
 20
62.064774402225417
 70
0
  0
SEQEND
  5
DCE6
  8
0
  0
POLYLINE
  5
DCE7
  8
0
 62
7
 66
1
 70
0
 10
0
 20
0
 30
0
  0
VERTEX
  5
DCE8
  8
0
 62
7
 10
46.8509134658752
 20
61.725777006476818
 70
0
  0
VERTEX
  5
DCE9
  8
0
 62
7
 10
46.936351833909413
 20
61.768840700042482
 70
0
  0
SEQEND
  5
DCEA
  8
0
  0
POLYLINE
  5
DCEB
  8
0
 62
7
 66
1
 70
0
 10
0
 20
0
 30
0
  0
VERTEX
  5
DCEC
  8
0
 62
7
 10
47.443469889338182
 20
64.265845907751526
 70
0
  0
VERTEX
  5
DCED
  8
0
 62
7
 10
47.528908257372379
 20
64.477891534868689
 70
0
  0
SEQEND
  5
DCEE
  8
0
  0
POLYLINE
  5
DCEF
  8
0
 62
7
 66
1
 70
0
 10
0
 20
0
 30
0
  0
VERTEX
  5
DCF0
  8
0
 62
7
 10
47.316690375480981
 20
64.09617495510301
 70
0
  0
VERTEX
  5
DCF1
  8
0
 62
7
 10
47.402128743515178
 20
64.138721884345813
 70
0
  0
SEQEND
  5
DCF2
  8
0
  0
POLYLINE
  5
DCF3
  8
0
 62
7
 66
1
 70
0
 10
0
 20
0
 30
0
  0
VERTEX
  5
DCF4
  8
0
 62
7
 10
47.443469889338182
 20
62.107838095791038
 70
0
  0
VERTEX
  5
DCF5
  8
0
 62
7
 10
47.528908257372379
 20
62.3185056847141
 70
0
  0
SEQEND
  5
DCF6
  8
0
  0
POLYLINE
  5
DCF7
  8
0
 62
7
 66
1
 70
0
 10
0
 20
0
 30
0
  0
VERTEX
  5
DCF8
  8
0
 62
7
 10
47.316690375480981
 20
61.979508288965491
 70
0
  0
VERTEX
  5
DCF9
  8
0
 62
7
 10
47.402128743515178
 20
62.022055218208351
 70
0
  0
SEQEND
  5
DCFA
  8
0
  0
POLYLINE
  5
DCFB
  8
0
 62
7
 66
1
 70
0
 10
0
 20
0
 30
0
  0
VERTEX
  5
DCFC
  8
0
 62
7
 10
46.766853136035117
 20
62.064774402225417
 70
0
  0
VERTEX
  5
DCFD
  8
0
 62
7
 10
46.724133952018029
 20
61.852728775108318
 70
0
  0
VERTEX
  5
DCFE
  8
0
 62
7
 10
46.766853136035117
 20
61.725777006476818
 70
0
  0
SEQEND
  5
DCFF
  8
0
  0
POLYLINE
  5
DD00
  8
0
 62
7
 66
1
 70
0
 10
0
 20
0
 30
0
  0
VERTEX
  5
DD01
  8
0
 62
7
 10
47.23263004564091
 20
62.3185056847141
 70
0
  0
VERTEX
  5
DD02
  8
0
 62
7
 10
47.1471916776067
 20
62.107838095791038
 70
0
  0
VERTEX
  5
DD03
  8
0
 62
7
 10
47.23263004564091
 20
61.979508288965491
 70
0
  0
SEQEND
  5
DD04
  8
0
  0
POLYLINE
  5
DD05
  8
0
 62
7
 66
1
 70
0
 10
0
 20
0
 30
0
  0
VERTEX
  5
DD06
  8
0
 62
7
 10
47.65568777122958
 20
62.572064712428443
 70
0
  0
VERTEX
  5
DD07
  8
0
 62
7
 10
47.612968587212478
 20
62.403771797974031
 70
0
  0
VERTEX
  5
DD08
  8
0
 62
7
 10
47.65568777122958
 20
62.234445354873991
 70
0
  0
SEQEND
  5
DD09
  8
0
  0
POLYLINE
  5
DD0A
  8
0
 62
7
 66
1
 70
0
 10
0
 20
0
 30
0
  0
VERTEX
  5
DD0B
  8
0
 62
7
 10
43.677291504863049
 20
60.201839018576578
 70
0
  0
VERTEX
  5
DD0C
  8
0
 62
7
 10
43.634572320845948
 20
60.032512575476538
 70
0
  0
VERTEX
  5
DD0D
  8
0
 62
7
 10
43.677291504863049
 20
59.864219661022076
 70
0
  0
SEQEND
  5
DD0E
  8
0
  0
POLYLINE
  5
DD0F
  8
0
 62
7
 66
1
 70
0
 10
0
 20
0
 30
0
  0
VERTEX
  5
DD10
  8
0
 62
7
 10
44.100349230451727
 20
60.498117230308047
 70
0
  0
VERTEX
  5
DD11
  8
0
 62
7
 10
44.05763004643466
 20
60.287105131836512
 70
0
  0
VERTEX
  5
DD12
  8
0
 62
7
 10
44.100349230451727
 20
60.117778688736479
 70
0
  0
SEQEND
  5
DD13
  8
0
  0
POLYLINE
  5
DD14
  8
0
 62
7
 66
1
 70
0
 10
0
 20
0
 30
0
  0
VERTEX
  5
DD15
  8
0
 62
7
 10
45.708519802966357
 20
63.5465099704314
 70
0
  0
VERTEX
  5
DD16
  8
0
 62
7
 10
45.454960775251962
 20
63.4195582017999
 70
0
  0
SEQEND
  5
DD17
  8
0
  0
POLYLINE
  5
DD18
  8
0
 62
7
 66
1
 70
0
 10
0
 20
0
 30
0
  0
VERTEX
  5
DD19
  8
0
 62
7
 10
45.708519802966357
 20
61.429843304293883
 70
0
  0
VERTEX
  5
DD1A
  8
0
 62
7
 10
45.454960775251962
 20
61.260172351645309
 70
0
  0
SEQEND
  5
DD1B
  8
0
  0
POLYLINE
  5
DD1C
  8
0
 62
7
 66
1
 70
0
 10
0
 20
0
 30
0
  0
VERTEX
  5
DD1D
  8
0
 62
7
 10
46.131577528555049
 20
63.799724488597263
 70
0
  0
VERTEX
  5
DD1E
  8
0
 62
7
 10
45.878018500840668
 20
63.673117229514311
 70
0
  0
SEQEND
  5
DD1F
  8
0
  0
POLYLINE
  5
DD20
  8
0
 62
7
 66
1
 70
0
 10
0
 20
0
 30
0
  0
VERTEX
  5
DD21
  8
0
 62
7
 10
46.131577528555049
 20
61.683057822459737
 70
0
  0
VERTEX
  5
DD22
  8
0
 62
7
 10
45.878018500840668
 20
61.515109417553823
 70
0
  0
SEQEND
  5
DD23
  8
0
  0
POLYLINE
  5
DD24
  8
0
 62
7
 66
1
 70
0
 10
0
 20
0
 30
0
  0
VERTEX
  5
DD25
  8
0
 62
7
 10
46.554635254143719
 20
64.09617495510301
 70
0
  0
VERTEX
  5
DD26
  8
0
 62
7
 10
46.343795410446418
 20
63.926676257228713
 70
0
  0
SEQEND
  5
DD27
  8
0
  0
POLYLINE
  5
DD28
  8
0
 62
7
 66
1
 70
0
 10
0
 20
0
 30
0
  0
VERTEX
  5
DD29
  8
0
 62
7
 10
46.554635254143719
 20
61.938167143142522
 70
0
  0
VERTEX
  5
DD2A
  8
0
 62
7
 10
46.343795410446418
 20
61.811559884059562
 70
0
  0
SEQEND
  5
DD2B
  8
0
  0
POLYLINE
  5
DD2C
  8
0
 62
7
 66
1
 70
0
 10
0
 20
0
 30
0
  0
VERTEX
  5
DD2D
  8
0
 62
7
 10
47.0204121637495
 20
64.35111202101146
 70
0
  0
VERTEX
  5
DD2E
  8
0
 62
7
 10
46.766853136035117
 20
64.181441068362943
 70
0
  0
SEQEND
  5
DD2F
  8
0
  0
POLYLINE
  5
DD30
  8
0
 62
7
 66
1
 70
0
 10
0
 20
0
 30
0
  0
VERTEX
  5
DD31
  8
0
 62
7
 10
47.0204121637495
 20
62.19172617085686
 70
0
  0
VERTEX
  5
DD32
  8
0
 62
7
 10
46.766853136035117
 20
62.064774402225417
 70
0
  0
SEQEND
  5
DD33
  8
0
  0
POLYLINE
  5
DD34
  8
0
 62
7
 66
1
 70
0
 10
0
 20
0
 30
0
  0
VERTEX
  5
DD35
  8
0
 62
7
 10
47.443469889338182
 20
64.604843303500132
 70
0
  0
VERTEX
  5
DD36
  8
0
 62
7
 10
47.23263004564091
 20
64.477891534868689
 70
0
  0
SEQEND
  5
DD37
  8
0
  0
POLYLINE
  5
DD38
  8
0
 62
7
 66
1
 70
0
 10
0
 20
0
 30
0
  0
VERTEX
  5
DD39
  8
0
 62
7
 10
47.443469889338182
 20
62.488176637362614
 70
0
  0
VERTEX
  5
DD3A
  8
0
 62
7
 10
47.23263004564091
 20
62.3185056847141
 70
0
  0
SEQEND
  5
DD3B
  8
0
  0
POLYLINE
  5
DD3C
  8
0
 62
7
 66
1
 70
0
 10
0
 20
0
 30
0
  0
VERTEX
  5
DD3D
  8
0
 62
7
 10
43.930850532577452
 20
62.488176637362614
 70
0
  0
VERTEX
  5
DD3E
  8
0
 62
7
 10
43.677291504863049
 20
62.361224868731171
 70
0
  0
SEQEND
  5
DD3F
  8
0
  0
POLYLINE
  5
DD40
  8
0
 62
7
 66
1
 70
0
 10
0
 20
0
 30
0
  0
VERTEX
  5
DD41
  8
0
 62
7
 10
47.909246798943961
 20
64.858057821666
 70
0
  0
VERTEX
  5
DD42
  8
0
 62
7
 10
47.65568777122958
 20
64.731450562583092
 70
0
  0
SEQEND
  5
DD43
  8
0
  0
POLYLINE
  5
DD44
  8
0
 62
7
 66
1
 70
0
 10
0
 20
0
 30
0
  0
VERTEX
  5
DD45
  8
0
 62
7
 10
43.930850532577452
 20
60.371509971225152
 70
0
  0
VERTEX
  5
DD46
  8
0
 62
7
 10
43.677291504863049
 20
60.201839018576578
 70
0
  0
SEQEND
  5
DD47
  8
0
  0
POLYLINE
  5
DD48
  8
0
 62
7
 66
1
 70
0
 10
0
 20
0
 30
0
  0
VERTEX
  5
DD49
  8
0
 62
7
 10
44.353908258166143
 20
62.741391155528483
 70
0
  0
VERTEX
  5
DD4A
  8
0
 62
7
 10
44.100349230451727
 20
62.614783896445573
 70
0
  0
SEQEND
  5
DD4B
  8
0
  0
POLYLINE
  5
DD4C
  8
0
 62
7
 66
1
 70
0
 10
0
 20
0
 30
0
  0
VERTEX
  5
DD4D
  8
0
 62
7
 10
44.353908258166143
 20
60.624724489391014
 70
0
  0
VERTEX
  5
DD4E
  8
0
 62
7
 10
44.100349230451727
 20
60.498117230308047
 70
0
  0
SEQEND
  5
DD4F
  8
0
  0
POLYLINE
  5
DD50
  8
0
 62
7
 66
1
 70
0
 10
0
 20
0
 30
0
  0
VERTEX
  5
DD51
  8
0
 62
7
 10
47.909246798943961
 20
62.741391155528483
 70
0
  0
VERTEX
  5
DD52
  8
0
 62
7
 10
47.65568777122958
 20
62.572064712428443
 70
0
  0
SEQEND
  5
DD53
  8
0
  0
POLYLINE
  5
DD54
  8
0
 62
7
 66
1
 70
0
 10
0
 20
0
 30
0
  0
VERTEX
  5
DD55
  8
0
 62
7
 10
44.819685167771908
 20
63.037841622034222
 70
0
  0
VERTEX
  5
DD56
  8
0
 62
7
 10
44.566126140057513
 20
62.868342924159968
 70
0
  0
SEQEND
  5
DD57
  8
0
  0
POLYLINE
  5
DD58
  8
0
 62
7
 66
1
 70
0
 10
0
 20
0
 30
0
  0
VERTEX
  5
DD59
  8
0
 62
7
 10
44.819685167771908
 20
60.879833810073727
 70
0
  0
VERTEX
  5
DD5A
  8
0
 62
7
 10
44.566126140057513
 20
60.753226550990831
 70
0
  0
SEQEND
  5
DD5B
  8
0
  0
POLYLINE
  5
DD5C
  8
0
 62
7
 66
1
 70
0
 10
0
 20
0
 30
0
  0
VERTEX
  5
DD5D
  8
0
 62
7
 10
45.242742893360592
 20
63.292778687942729
 70
0
  0
VERTEX
  5
DD5E
  8
0
 62
7
 10
44.98918386564619
 20
63.123107735294148
 70
0
  0
SEQEND
  5
DD5F
  8
0
  0
POLYLINE
  5
DD60
  8
0
 62
7
 66
1
 70
0
 10
0
 20
0
 30
0
  0
VERTEX
  5
DD61
  8
0
 62
7
 10
45.242742893360592
 20
61.17611202180521
 70
0
  0
VERTEX
  5
DD62
  8
0
 62
7
 10
44.98918386564619
 20
61.0064410691567
 70
0
  0
SEQEND
  5
DD63
  8
0
  0
POLYLINE
  5
DD64
  8
0
 62
7
 66
1
 70
0
 10
0
 20
0
 30
0
  0
VERTEX
  5
DD65
  8
0
 62
7
 10
44.566126140057513
 20
62.868342924159968
 70
0
  0
VERTEX
  5
DD66
  8
0
 62
7
 10
44.48068777202333
 20
62.657503080462639
 70
0
  0
VERTEX
  5
DD67
  8
0
 62
7
 10
44.566126140057513
 20
62.530895821379737
 70
0
  0
SEQEND
  5
DD68
  8
0
  0
POLYLINE
  5
DD69
  8
0
 62
7
 66
1
 70
0
 10
0
 20
0
 30
0
  0
VERTEX
  5
DD6A
  8
0
 62
7
 10
44.98918386564619
 20
63.123107735294148
 70
0
  0
VERTEX
  5
DD6B
  8
0
 62
7
 10
44.946464681629109
 20
62.953781292194122
 70
0
  0
VERTEX
  5
DD6C
  8
0
 62
7
 10
44.98918386564619
 20
62.784110339545613
 70
0
  0
SEQEND
  5
DD6D
  8
0
  0
POLYLINE
  5
DD6E
  8
0
 62
7
 66
1
 70
0
 10
0
 20
0
 30
0
  0
VERTEX
  5
DD6F
  8
0
 62
7
 10
45.454960775251962
 20
63.4195582017999
 70
0
  0
VERTEX
  5
DD70
  8
0
 62
7
 10
45.369522407217787
 20
63.2075125746828
 70
0
  0
VERTEX
  5
DD71
  8
0
 62
7
 10
45.454960775251962
 20
63.037841622034222
 70
0
  0
SEQEND
  5
DD72
  8
0
  0
POLYLINE
  5
DD73
  8
0
 62
7
 66
1
 70
0
 10
0
 20
0
 30
0
  0
VERTEX
  5
DD74
  8
0
 62
7
 10
45.878018500840668
 20
63.673117229514311
 70
0
  0
VERTEX
  5
DD75
  8
0
 62
7
 10
45.835299316823573
 20
63.462105131042762
 70
0
  0
VERTEX
  5
DD76
  8
0
 62
7
 10
45.878018500840668
 20
63.334119833765747
 70
0
  0
SEQEND
  5
DD77
  8
0
  0
POLYLINE
  5
DD78
  8
0
 62
7
 66
1
 70
0
 10
0
 20
0
 30
0
  0
VERTEX
  5
DD79
  8
0
 62
7
 10
46.343795410446418
 20
63.926676257228713
 70
0
  0
VERTEX
  5
DD7A
  8
0
 62
7
 10
46.258357042412243
 20
63.715836413531441
 70
0
  0
VERTEX
  5
DD7B
  8
0
 62
7
 10
46.343795410446418
 20
63.589229154448468
 70
0
  0
SEQEND
  5
DD7C
  8
0
  0
POLYLINE
  5
DD7D
  8
0
 62
7
 66
1
 70
0
 10
0
 20
0
 30
0
  0
VERTEX
  5
DD7E
  8
0
 62
7
 10
46.766853136035117
 20
64.181441068362943
 70
0
  0
VERTEX
  5
DD7F
  8
0
 62
7
 10
46.724133952018029
 20
64.01211462526291
 70
0
  0
VERTEX
  5
DD80
  8
0
 62
7
 10
46.766853136035117
 20
63.842443672614337
 70
0
  0
SEQEND
  5
DD81
  8
0
  0
POLYLINE
  5
DD82
  8
0
 62
7
 66
1
 70
0
 10
0
 20
0
 30
0
  0
VERTEX
  5
DD83
  8
0
 62
7
 10
47.23263004564091
 20
64.477891534868689
 70
0
  0
VERTEX
  5
DD84
  8
0
 62
7
 10
47.1471916776067
 20
64.265845907751526
 70
0
  0
VERTEX
  5
DD85
  8
0
 62
7
 10
47.23263004564091
 20
64.09617495510301
 70
0
  0
SEQEND
  5
DD86
  8
0
  0
POLYLINE
  5
DD87
  8
0
 62
7
 66
1
 70
0
 10
0
 20
0
 30
0
  0
VERTEX
  5
DD88
  8
0
 62
7
 10
47.65568777122958
 20
64.731450562583092
 70
0
  0
VERTEX
  5
DD89
  8
0
 62
7
 10
47.612968587212478
 20
64.519060425917388
 70
0
  0
VERTEX
  5
DD8A
  8
0
 62
7
 10
47.65568777122958
 20
64.392453166834486
 70
0
  0
SEQEND
  5
DD8B
  8
0
  0
POLYLINE
  5
DD8C
  8
0
 62
7
 66
1
 70
0
 10
0
 20
0
 30
0
  0
VERTEX
  5
DD8D
  8
0
 62
7
 10
43.677291504863049
 20
62.361224868731171
 70
0
  0
VERTEX
  5
DD8E
  8
0
 62
7
 10
43.634572320845948
 20
62.149179241614057
 70
0
  0
VERTEX
  5
DD8F
  8
0
 62
7
 10
43.677291504863049
 20
61.979508288965491
 70
0
  0
SEQEND
  5
DD90
  8
0
  0
POLYLINE
  5
DD91
  8
0
 62
7
 66
1
 70
0
 10
0
 20
0
 30
0
  0
VERTEX
  5
DD92
  8
0
 62
7
 10
44.100349230451727
 20
62.614783896445573
 70
0
  0
VERTEX
  5
DD93
  8
0
 62
7
 10
44.05763004643466
 20
62.403771797974031
 70
0
  0
VERTEX
  5
DD94
  8
0
 62
7
 10
44.100349230451727
 20
62.275786500696967
 70
0
  0
SEQEND
  5
DD95
  8
0
  0
POLYLINE
  5
DD96
  8
0
 62
7
 66
1
 70
0
 10
0
 20
0
 30
0
  0
VERTEX
  5
DD97
  8
0
 62
7
 10
44.566126140057513
 20
60.753226550990831
 70
0
  0
VERTEX
  5
DD98
  8
0
 62
7
 10
44.48068777202333
 20
60.540836414325177
 70
0
  0
VERTEX
  5
DD99
  8
0
 62
7
 10
44.566126140057513
 20
60.414229155242218
 70
0
  0
SEQEND
  5
DD9A
  8
0
  0
POLYLINE
  5
DD9B
  8
0
 62
7
 66
1
 70
0
 10
0
 20
0
 30
0
  0
VERTEX
  5
DD9C
  8
0
 62
7
 10
44.98918386564619
 20
61.0064410691567
 70
0
  0
VERTEX
  5
DD9D
  8
0
 62
7
 10
44.946464681629109
 20
60.79439544203953
 70
0
  0
VERTEX
  5
DD9E
  8
0
 62
7
 10
44.98918386564619
 20
60.667443673408087
 70
0
  0
SEQEND
  5
DD9F
  8
0
  0
POLYLINE
  5
DDA0
  8
0
 62
7
 66
1
 70
0
 10
0
 20
0
 30
0
  0
VERTEX
  5
DDA1
  8
0
 62
7
 10
45.454960775251962
 20
61.260172351645309
 70
0
  0
VERTEX
  5
DDA2
  8
0
 62
7
 10
45.369522407217787
 20
61.049504762722307
 70
0
  0
VERTEX
  5
DDA3
  8
0
 62
7
 10
45.454960775251962
 20
60.921174955896753
 70
0
  0
SEQEND
  5
DDA4
  8
0
  0
POLYLINE
  5
DDA5
  8
0
 62
7
 66
1
 70
0
 10
0
 20
0
 30
0
  0
VERTEX
  5
DDA6
  8
0
 62
7
 10
45.878018500840668
 20
61.515109417553823
 70
0
  0
VERTEX
  5
DDA7
  8
0
 62
7
 10
45.835299316823573
 20
61.345438464905243
 70
0
  0
VERTEX
  5
DDA8
  8
0
 62
7
 10
45.878018500840668
 20
61.17611202180521
 70
0
  0
SEQEND
  5
DDA9
  8
0
  0
POLYLINE
  5
DDAA
  8
0
 62
7
 66
1
 70
0
 10
0
 20
0
 30
0
  0
VERTEX
  5
DDAB
  8
0
 62
7
 10
63.445249399226633
 20
59.821500477005
 70
0
  0
VERTEX
  5
DDAC
  8
0
 62
7
 10
63.148971187495157
 20
59.821500477005
 70
0
  0
SEQEND
  5
DDAD
  8
0
  0
POLYLINE
  5
DDAE
  8
0
 62
7
 66
1
 70
0
 10
0
 20
0
 30
0
  0
VERTEX
  5
DDAF
  8
0
 62
7
 10
46.343795410446418
 20
61.811559884059562
 70
0
  0
VERTEX
  5
DDB0
  8
0
 62
7
 10
46.258357042412243
 20
61.599169747393923
 70
0
  0
SEQEND
  5
DDB1
  8
0
  0
POLYLINE
  5
DDB2
  8
0
 62
7
 66
1
 70
0
 10
0
 20
0
 30
0
  0
VERTEX
  5
DDB3
  8
0
 62
7
 10
55.6138583421567
 20
62.996500476211253
 70
0
  0
VERTEX
  5
DDB4
  8
0
 62
7
 10
55.40164046026532
 20
63.166171428859819
 70
0
  0
VERTEX
  5
DDB5
  8
0
 62
7
 10
55.232141762391009
 20
63.376839017782828
 70
0
  0
SEQEND
  5
DDB6
  8
0
  0
POLYLINE
  5
DDB7
  8
0
 62
7
 66
1
 70
0
 10
0
 20
0
 30
0
  0
VERTEX
  5
DDB8
  8
0
 62
7
 10
43.338294109114472
 20
62.784110339545613
 70
0
  0
VERTEX
  5
DDB9
  8
0
 62
7
 10
43.1260762272231
 20
62.741391155528483
 70
0
  0
SEQEND
  5
DDBA
  8
0
  0
POLYLINE
  5
DDBB
  8
0
 62
7
 66
1
 70
0
 10
0
 20
0
 30
0
  0
VERTEX
  5
DDBC
  8
0
 62
7
 10
49.686916069332867
 20
67.0605073653862
 70
0
  0
VERTEX
  5
DDBD
  8
0
 62
7
 10
49.5601365554757
 20
66.6357270920549
 70
0
  0
VERTEX
  5
DDBE
  8
0
 62
7
 10
49.3065775277613
 20
66.339793389871971
 70
0
  0
SEQEND
  5
DDBF
  8
0
  0
POLYLINE
  5
DDC0
  8
0
 62
7
 66
1
 70
0
 10
0
 20
0
 30
0
  0
VERTEX
  5
DDC1
  8
0
 62
7
 10
49.686916069332867
 20
67.483392836200636
 70
0
  0
VERTEX
  5
DDC2
  8
0
 62
7
 10
49.686916069332867
 20
67.524733982023662
 70
0
  0
VERTEX
  5
DDC3
  8
0
 62
7
 10
49.729635253349969
 20
67.524733982023662
 70
0
  0
SEQEND
  5
DDC4
  8
0
  0
POLYLINE
  5
DDC5
  8
0
 62
7
 66
1
 70
0
 10
0
 20
0
 30
0
  0
VERTEX
  5
DDC6
  8
0
 62
7
 10
49.772354437367078
 20
46.444883726876917
 70
0
  0
VERTEX
  5
DDC7
  8
0
 62
7
 10
48.587241590441153
 20
46.444883726876917
 70
0
  0
VERTEX
  5
DDC8
  8
0
 62
7
 10
47.359409559498083
 20
46.360823397036818
 70
0
  0
VERTEX
  5
DDC9
  8
0
 62
7
 10
46.217015896589253
 20
46.19115244438828
 70
0
  0
VERTEX
  5
DDCA
  8
0
 62
7
 10
45.031903049663292
 20
45.8948742326568
 70
0
  0
VERTEX
  5
DDCB
  8
0
 62
7
 10
43.930850532577452
 20
45.471988761842368
 70
0
  0
VERTEX
  5
DDCC
  8
0
 62
7
 10
42.9152363835258
 20
44.879604593153658
 70
0
  0
VERTEX
  5
DDCD
  8
0
 62
7
 10
42.449459473920022
 20
44.497888013387971
 70
0
  0
VERTEX
  5
DDCE
  8
0
 62
7
 10
42.067742894154343
 20
44.031938849007929
 70
0
  0
VERTEX
  5
DDCF
  8
0
 62
7
 10
41.771464682422867
 20
43.524993048353423
 70
0
  0
VERTEX
  5
DDD0
  8
0
 62
7
 10
41.644685168565658
 20
42.9322643701162
 70
0
  0
SEQEND
  5
DDD1
  8
0
  0
POLYLINE
  5
DDD2
  8
0
 62
7
 66
1
 70
0
 10
0
 20
0
 30
0
  0
VERTEX
  5
DDD3
  8
0
 62
7
 10
42.153181262188539
 20
46.444883726876917
 70
0
  0
VERTEX
  5
DDD4
  8
0
 62
7
 10
43.168795411240168
 20
46.953207565725528
 70
0
  0
VERTEX
  5
DDD5
  8
0
 62
7
 10
44.184409560291833
 20
47.333890616845643
 70
0
  0
VERTEX
  5
DDD6
  8
0
 62
7
 10
45.285462077377687
 20
47.629824319028579
 70
0
  0
VERTEX
  5
DDD7
  8
0
 62
7
 10
46.386514594463527
 20
47.842214455694283
 70
0
  0
VERTEX
  5
DDD8
  8
0
 62
7
 10
48.587241590441153
 20
48.011540898794259
 70
0
  0
VERTEX
  5
DDD9
  8
0
 62
7
 10
50.830687770435837
 20
47.926102530760119
 70
0
  0
VERTEX
  5
DDDA
  8
0
 62
7
 10
53.031414766413427
 20
47.503217059945683
 70
0
  0
VERTEX
  5
DDDB
  8
0
 62
7
 10
54.13246728349926
 20
47.1642196641971
 70
0
  0
VERTEX
  5
DDDC
  8
0
 62
7
 10
55.14808143255091
 20
46.741161938608421
 70
0
  0
VERTEX
  5
DDDD
  8
0
 62
7
 10
56.122354435779577
 20
46.19115244438828
 70
0
  0
VERTEX
  5
DDDE
  8
0
 62
7
 10
56.968469886956932
 20
45.471988761842368
 70
0
  0
VERTEX
  5
DDDF
  8
0
 62
7
 10
57.30746728270551
 20
45.006211852236589
 70
0
  0
VERTEX
  5
DDE0
  8
0
 62
7
 10
57.603745494437007
 20
44.54060719740508
 70
0
  0
VERTEX
  5
DDE1
  8
0
 62
7
 10
57.773244192311289
 20
43.990597703184932
 70
0
  0
VERTEX
  5
DDE2
  8
0
 62
7
 10
57.814585338134279
 20
43.43955468031924
 70
0
  0
SEQEND
  5
DDE3
  8
0
  0
POLYLINE
  5
DDE4
  8
0
 62
7
 66
1
 70
0
 10
0
 20
0
 30
0
  0
VERTEX
  5
DDE5
  8
0
 62
7
 10
47.571627441389481
 20
45.175538295336622
 70
0
  0
VERTEX
  5
DDE6
  8
0
 62
7
 10
47.23263004564091
 20
45.13281911131952
 70
0
  0
VERTEX
  5
DDE7
  8
0
 62
7
 10
46.8936326498923
 20
45.21722395070816
 70
0
  0
SEQEND
  5
DDE8
  8
0
  0
POLYLINE
  5
DDE9
  8
0
 62
7
 66
1
 70
0
 10
0
 20
0
 30
0
  0
VERTEX
  5
DDEA
  8
0
 62
7
 10
46.217015896589253
 20
44.41365542877363
 70
0
  0
VERTEX
  5
DDEB
  8
0
 62
7
 10
45.878018500840668
 20
44.328217060739433
 70
0
  0
VERTEX
  5
DDEC
  8
0
 62
7
 10
45.58174028910917
 20
44.454824319822357
 70
0
  0
SEQEND
  5
DDED
  8
0
  0
POLYLINE
  5
DDEE
  8
0
 62
7
 66
1
 70
0
 10
0
 20
0
 30
0
  0
VERTEX
  5
DDEF
  8
0
 62
7
 10
44.903745497612007
 20
43.608881123419252
 70
0
  0
VERTEX
  5
DDF0
  8
0
 62
7
 10
44.566126140057513
 20
43.524993048353423
 70
0
  0
VERTEX
  5
DDF1
  8
0
 62
7
 10
44.227128744308928
 20
43.651600307436347
 70
0
  0
SEQEND
  5
DDF2
  8
0
  0
POLYLINE
  5
DDF3
  8
0
 62
7
 66
1
 70
0
 10
0
 20
0
 30
0
  0
VERTEX
  5
DDF4
  8
0
 62
7
 10
50.280850530989959
 20
45.21722395070816
 70
0
  0
VERTEX
  5
DDF5
  8
0
 62
7
 10
49.729635253349969
 20
45.090272182076689
 70
0
  0
VERTEX
  5
DDF6
  8
0
 62
7
 10
49.4760762256356
 20
45.13281911131952
 70
0
  0
VERTEX
  5
DDF7
  8
0
 62
7
 10
49.2638583437442
 20
45.302490063968087
 70
0
  0
SEQEND
  5
DDF8
  8
0
  0
POLYLINE
  5
DDF9
  8
0
 62
7
 66
1
 70
0
 10
0
 20
0
 30
0
  0
VERTEX
  5
DDFA
  8
0
 62
7
 10
46.64007362217793
 20
41.661540900381787
 70
0
  0
VERTEX
  5
DDFB
  8
0
 62
7
 10
46.08885834453794
 20
41.534933641298863
 70
0
  0
VERTEX
  5
DDFC
  8
0
 62
7
 10
45.835299316823573
 20
41.618821716364693
 70
0
  0
VERTEX
  5
DDFD
  8
0
 62
7
 10
45.624459473126272
 20
41.745773484996157
 70
0
  0
SEQEND
  5
DDFE
  8
0
  0
POLYLINE
  5
DDFF
  8
0
 62
7
 66
1
 70
0
 10
0
 20
0
 30
0
  0
VERTEX
  5
DE00
  8
0
 62
7
 10
46.174296712572151
 20
44.370936244756528
 70
0
  0
VERTEX
  5
DE01
  8
0
 62
7
 10
46.217015896589253
 20
44.454824319822357
 70
0
  0
SEQEND
  5
DE02
  8
0
  0
POLYLINE
  5
DE03
  8
0
 62
7
 66
1
 70
0
 10
0
 20
0
 30
0
  0
VERTEX
  5
DE04
  8
0
 62
7
 10
47.612968587212478
 20
45.21722395070816
 70
0
  0
VERTEX
  5
DE05
  8
0
 62
7
 10
47.571627441389481
 20
45.175538295336622
 70
0
  0
SEQEND
  5
DE06
  8
0
  0
POLYLINE
  5
DE07
  8
0
 62
7
 66
1
 70
0
 10
0
 20
0
 30
0
  0
VERTEX
  5
DE08
  8
0
 62
7
 10
46.258357042412243
 20
44.454824319822357
 70
0
  0
VERTEX
  5
DE09
  8
0
 62
7
 10
46.217015896589253
 20
44.41365542877363
 70
0
  0
SEQEND
  5
DE0A
  8
0
  0
POLYLINE
  5
DE0B
  8
0
 62
7
 66
1
 70
0
 10
0
 20
0
 30
0
  0
VERTEX
  5
DE0C
  8
0
 62
7
 10
44.946464681629109
 20
43.651600307436347
 70
0
  0
VERTEX
  5
DE0D
  8
0
 62
7
 10
44.903745497612007
 20
43.608881123419252
 70
0
  0
SEQEND
  5
DE0E
  8
0
  0
POLYLINE
  5
DE0F
  8
0
 62
7
 66
1
 70
0
 10
0
 20
0
 30
0
  0
VERTEX
  5
DE10
  8
0
 62
7
 10
50.364910860830058
 20
45.302490063968087
 70
0
  0
VERTEX
  5
DE11
  8
0
 62
7
 10
50.280850530989959
 20
45.21722395070816
 70
0
  0
SEQEND
  5
DE12
  8
0
  0
POLYLINE
  5
DE13
  8
0
 62
7
 66
1
 70
0
 10
0
 20
0
 30
0
  0
VERTEX
  5
DE14
  8
0
 62
7
 10
46.724133952018029
 20
41.745773484996157
 70
0
  0
VERTEX
  5
DE15
  8
0
 62
7
 10
46.64007362217793
 20
41.661540900381787
 70
0
  0
SEQEND
  5
DE16
  8
0
  0
POLYLINE
  5
DE17
  8
0
 62
7
 66
1
 70
0
 10
0
 20
0
 30
0
  0
VERTEX
  5
DE18
  8
0
 62
7
 10
42.194522408011537
 20
46.487602910894019
 70
0
  0
VERTEX
  5
DE19
  8
0
 62
7
 10
41.433845324868372
 20
45.937937926222418
 70
0
  0
VERTEX
  5
DE1A
  8
0
 62
7
 10
40.798569717388311
 20
45.302490063968087
 70
0
  0
SEQEND
  5
DE1B
  8
0
  0
POLYLINE
  5
DE1C
  8
0
 62
7
 66
1
 70
0
 10
0
 20
0
 30
0
  0
VERTEX
  5
DE1D
  8
0
 62
7
 10
57.052530216797031
 20
45.343831209791091
 70
0
  0
VERTEX
  5
DE1E
  8
0
 62
7
 10
56.333194279476878
 20
46.02182600128824
 70
0
  0
VERTEX
  5
DE1F
  8
0
 62
7
 10
55.528419974122492
 20
46.571490985959862
 70
0
  0
VERTEX
  5
DE20
  8
0
 62
7
 10
54.639585338928029
 20
46.994893221097072
 70
0
  0
VERTEX
  5
DE21
  8
0
 62
7
 10
53.709409557910583
 20
47.333890616845643
 70
0
  0
VERTEX
  5
DE22
  8
0
 62
7
 10
51.762241589647388
 20
47.799495271677152
 70
0
  0
VERTEX
  5
DE23
  8
0
 62
7
 10
49.81507362138418
 20
48.011540898794259
 70
0
  0
VERTEX
  5
DE24
  8
0
 62
7
 10
47.867905653120957
 20
48.011540898794259
 70
0
  0
VERTEX
  5
DE25
  8
0
 62
7
 10
45.878018500840668
 20
47.799495271677152
 70
0
  0
VERTEX
  5
DE26
  8
0
 62
7
 10
43.973569716594561
 20
47.291171432828577
 70
0
  0
VERTEX
  5
DE27
  8
0
 62
7
 10
43.0847350814001
 20
46.910488381708433
 70
0
  0
VERTEX
  5
DE28
  8
0
 62
7
 10
42.194522408011537
 20
46.487602910894019
 70
0
  0
SEQEND
  5
DE29
  8
0
  0
POLYLINE
  5
DE2A
  8
0
 62
7
 66
1
 70
0
 10
0
 20
0
 30
0
  0
VERTEX
  5
DE2B
  8
0
 62
7
 10
40.07923378006813
 20
43.185823397830568
 70
0
  0
VERTEX
  5
DE2C
  8
0
 62
7
 10
40.206013293925317
 20
42.635986158384689
 70
0
  0
VERTEX
  5
DE2D
  8
0
 62
7
 10
40.375511991799627
 20
42.127490064761837
 70
0
  0
VERTEX
  5
DE2E
  8
0
 62
7
 10
41.009409561085583
 20
41.23865542956738
 70
0
  0
VERTEX
  5
DE2F
  8
0
 62
7
 10
41.856903050457042
 20
40.560488383295933
 70
0
  0
VERTEX
  5
DE30
  8
0
 62
7
 10
42.82979801549159
 20
39.968276469381493
 70
0
  0
VERTEX
  5
DE31
  8
0
 62
7
 10
43.845412164543262
 20
39.5448742342443
 70
0
  0
VERTEX
  5
DE32
  8
0
 62
7
 10
44.903745497612007
 20
39.24894053206134
 70
0
  0
VERTEX
  5
DE33
  8
0
 62
7
 10
47.0631313477666
 20
38.825538296924123
 70
0
  0
VERTEX
  5
DE34
  8
0
 62
7
 10
49.2638583437442
 20
38.7416502218583
 70
0
  0
VERTEX
  5
DE35
  8
0
 62
7
 10
51.465963377915891
 20
38.909943136312727
 70
0
  0
VERTEX
  5
DE36
  8
0
 62
7
 10
52.52429671098465
 20
39.121988763429869
 70
0
  0
VERTEX
  5
DE37
  8
0
 62
7
 10
53.581252005859312
 20
39.41826697516138
 70
0
  0
VERTEX
  5
DE38
  8
0
 62
7
 10
54.639585338928029
 20
39.798605516732948
 70
0
  0
VERTEX
  5
DE39
  8
0
 62
7
 10
55.6138583421567
 20
40.307273865130071
 70
0
  0
VERTEX
  5
DE3A
  8
0
 62
7
 10
56.375913463493951
 20
40.815597703978682
 70
0
  0
VERTEX
  5
DE3B
  8
0
 62
7
 10
57.052530216797031
 20
41.492214457281747
 70
0
  0
VERTEX
  5
DE3C
  8
0
 62
7
 10
57.561026310419912
 20
42.296988762636111
 70
0
  0
VERTEX
  5
DE3D
  8
0
 62
7
 10
57.773244192311289
 20
43.185823397830568
 70
0
  0
SEQEND
  5
DE3E
  8
0
  0
POLYLINE
  5
DE3F
  8
0
 62
7
 66
1
 70
0
 10
0
 20
0
 30
0
  0
VERTEX
  5
DE40
  8
0
 62
7
 10
56.249133949636779
 20
42.9322643701162
 70
0
  0
VERTEX
  5
DE41
  8
0
 62
7
 10
56.122354435779577
 20
43.3964909867536
 70
0
  0
VERTEX
  5
DE42
  8
0
 62
7
 10
55.952855737905267
 20
43.862440151133647
 70
0
  0
SEQEND
  5
DE43
  8
0
  0
POLYLINE
  5
DE44
  8
0
 62
7
 66
1
 70
0
 10
0
 20
0
 30
0
  0
VERTEX
  5
DE45
  8
0
 62
7
 10
40.07923378006813
 20
43.43955468031924
 70
0
  0
VERTEX
  5
DE46
  8
0
 62
7
 10
40.120574925891127
 20
43.905159335150749
 70
0
  0
VERTEX
  5
DE47
  8
0
 62
7
 10
40.206013293925317
 20
44.370936244756528
 70
0
  0
VERTEX
  5
DE48
  8
0
 62
7
 10
40.713131349354107
 20
45.21722395070816
 70
0
  0
VERTEX
  5
DE49
  8
0
 62
7
 10
41.348406956834161
 20
45.8948742326568
 70
0
  0
VERTEX
  5
DE4A
  8
0
 62
7
 10
42.153181262188539
 20
46.444883726876917
 70
0
  0
SEQEND
  5
DE4B
  8
0
  0
POLYLINE
  5
DE4C
  8
0
 62
7
 66
1
 70
0
 10
0
 20
0
 30
0
  0
VERTEX
  5
DE4D
  8
0
 62
7
 10
46.301076226429352
 20
44.41365542877363
 70
0
  0
VERTEX
  5
DE4E
  8
0
 62
7
 10
46.217015896589253
 20
44.328217060739433
 70
0
  0
SEQEND
  5
DE4F
  8
0
  0
POLYLINE
  5
DE50
  8
0
 62
7
 66
1
 70
0
 10
0
 20
0
 30
0
  0
VERTEX
  5
DE51
  8
0
 62
7
 10
49.772354437367078
 20
46.444883726876917
 70
0
  0
VERTEX
  5
DE52
  8
0
 62
7
 10
49.856414767207177
 20
46.402164542859822
 70
0
  0
SEQEND
  5
DE53
  8
0
  0
POLYLINE
  5
DE54
  8
0
 62
7
 66
1
 70
0
 10
0
 20
0
 30
0
  0
VERTEX
  5
DE55
  8
0
 62
7
 10
55.8674173698711
 20
43.905159335150749
 70
0
  0
VERTEX
  5
DE56
  8
0
 62
7
 10
55.952855737905267
 20
43.862440151133647
 70
0
  0
SEQEND
  5
DE57
  8
0
  0
POLYLINE
  5
DE58
  8
0
 62
7
 66
1
 70
0
 10
0
 20
0
 30
0
  0
VERTEX
  5
DE59
  8
0
 62
7
 10
46.597354438160821
 20
45.090272182076689
 70
0
  0
VERTEX
  5
DE5A
  8
0
 62
7
 10
46.597354438160821
 20
44.879604593153658
 70
0
  0
VERTEX
  5
DE5B
  8
0
 62
7
 10
46.724133952018029
 20
44.75110253155384
 70
0
  0
VERTEX
  5
DE5C
  8
0
 62
7
 10
47.0631313477666
 20
44.667214456488011
 70
0
  0
VERTEX
  5
DE5D
  8
0
 62
7
 10
47.443469889338182
 20
44.667214456488011
 70
0
  0
VERTEX
  5
DE5E
  8
0
 62
7
 10
47.782467285086753
 20
44.75110253155384
 70
0
  0
SEQEND
  5
DE5F
  8
0
  0
POLYLINE
  5
DE60
  8
0
 62
7
 66
1
 70
0
 10
0
 20
0
 30
0
  0
VERTEX
  5
DE61
  8
0
 62
7
 10
41.940963380297141
 20
41.915272182870439
 70
0
  0
VERTEX
  5
DE62
  8
0
 62
7
 10
41.983682564314243
 20
41.873931037047441
 70
0
  0
SEQEND
  5
DE63
  8
0
  0
POLYLINE
  5
DE64
  8
0
 62
7
 66
1
 70
0
 10
0
 20
0
 30
0
  0
VERTEX
  5
DE65
  8
0
 62
7
 10
54.639585338928029
 20
40.433881124213
 70
0
  0
VERTEX
  5
DE66
  8
0
 62
7
 10
55.40164046026532
 20
40.942204963061613
 70
0
  0
VERTEX
  5
DE67
  8
0
 62
7
 10
55.994196883728272
 20
41.661540900381787
 70
0
  0
VERTEX
  5
DE68
  8
0
 62
7
 10
56.20641476561967
 20
42.043601989695979
 70
0
  0
VERTEX
  5
DE69
  8
0
 62
7
 10
56.333194279476878
 20
42.507828606333419
 70
0
  0
VERTEX
  5
DE6A
  8
0
 62
7
 10
56.375913463493951
 20
42.9322643701162
 70
0
  0
VERTEX
  5
DE6B
  8
0
 62
7
 10
56.290475095459769
 20
43.3964909867536
 70
0
  0
VERTEX
  5
DE6C
  8
0
 62
7
 10
55.994196883728272
 20
43.990597703184932
 70
0
  0
VERTEX
  5
DE6D
  8
0
 62
7
 10
55.571139158139587
 20
44.497888013387971
 70
0
  0
VERTEX
  5
DE6E
  8
0
 62
7
 10
55.064021102710818
 20
44.920773484202407
 70
0
  0
VERTEX
  5
DE6F
  8
0
 62
7
 10
54.512805825070863
 20
45.302490063968087
 70
0
  0
SEQEND
  5
DE70
  8
0
  0
POLYLINE
  5
DE71
  8
0
 62
7
 66
1
 70
0
 10
0
 20
0
 30
0
  0
VERTEX
  5
DE72
  8
0
 62
7
 10
54.005687769642087
 20
45.556221346456731
 70
0
  0
VERTEX
  5
DE73
  8
0
 62
7
 10
52.777855738699017
 20
45.979106817271138
 70
0
  0
VERTEX
  5
DE74
  8
0
 62
7
 10
52.777855738699017
 20
46.02182600128824
 70
0
  0
SEQEND
  5
DE75
  8
0
  0
POLYLINE
  5
DE76
  8
0
 62
7
 66
1
 70
0
 10
0
 20
0
 30
0
  0
VERTEX
  5
DE77
  8
0
 62
7
 10
52.60835704082475
 20
46.064545185305349
 70
0
  0
VERTEX
  5
DE78
  8
0
 62
7
 10
51.423244193898789
 20
46.318276467793993
 70
0
  0
VERTEX
  5
DE79
  8
0
 62
7
 10
50.23813134697285
 20
46.487602910894019
 70
0
  0
VERTEX
  5
DE7A
  8
0
 62
7
 10
49.053018500046917
 20
46.530322094911121
 70
0
  0
VERTEX
  5
DE7B
  8
0
 62
7
 10
47.825186469103862
 20
46.487602910894019
 70
0
  0
VERTEX
  5
DE7C
  8
0
 62
7
 10
46.64007362217793
 20
46.360823397036818
 70
0
  0
VERTEX
  5
DE7D
  8
0
 62
7
 10
45.454960775251962
 20
46.105886331128339
 70
0
  0
VERTEX
  5
DE7E
  8
0
 62
7
 10
44.311189074149027
 20
45.725547789556771
 70
0
  0
VERTEX
  5
DE7F
  8
0
 62
7
 10
43.252855741080268
 20
45.21722395070816
 70
0
  0
SEQEND
  5
DE80
  8
0
  0
POLYLINE
  5
DE81
  8
0
 62
7
 66
1
 70
0
 10
0
 20
0
 30
0
  0
VERTEX
  5
DE82
  8
0
 62
7
 10
47.65568777122958
 20
45.21722395070816
 70
0
  0
VERTEX
  5
DE83
  8
0
 62
7
 10
47.571627441389481
 20
45.090272182076689
 70
0
  0
SEQEND
  5
DE84
  8
0
  0
POLYLINE
  5
DE85
  8
0
 62
7
 66
1
 70
0
 10
0
 20
0
 30
0
  0
VERTEX
  5
DE86
  8
0
 62
7
 10
47.782467285086753
 20
44.75110253155384
 70
0
  0
VERTEX
  5
DE87
  8
0
 62
7
 10
47.909246798943961
 20
44.879604593153658
 70
0
  0
VERTEX
  5
DE88
  8
0
 62
7
 10
47.909246798943961
 20
45.090272182076689
 70
0
  0
SEQEND
  5
DE89
  8
0
  0
POLYLINE
  5
DE8A
  8
0
 62
7
 66
1
 70
0
 10
0
 20
0
 30
0
  0
VERTEX
  5
DE8B
  8
0
 62
7
 10
43.252855741080268
 20
45.21722395070816
 70
0
  0
VERTEX
  5
DE8C
  8
0
 62
7
 10
42.322679960062821
 20
44.54060719740508
 70
0
  0
VERTEX
  5
DE8D
  8
0
 62
7
 10
41.983682564314243
 20
44.117204962267863
 70
0
  0
VERTEX
  5
DE8E
  8
0
 62
7
 10
41.687404352582767
 20
43.608881123419252
 70
0
  0
VERTEX
  5
DE8F
  8
0
 62
7
 10
41.517905654708457
 20
43.100557284570641
 70
0
  0
VERTEX
  5
DE90
  8
0
 62
7
 10
41.517905654708457
 20
42.507828606333419
 70
0
  0
VERTEX
  5
DE91
  8
0
 62
7
 10
41.687404352582767
 20
42.000538296130372
 70
0
  0
VERTEX
  5
DE92
  8
0
 62
7
 10
41.983682564314243
 20
41.492214457281747
 70
0
  0
VERTEX
  5
DE93
  8
0
 62
7
 10
42.788456869668593
 20
40.7301593359445
 70
0
  0
VERTEX
  5
DE94
  8
0
 62
7
 10
43.761351834703149
 20
40.137602912481533
 70
0
  0
VERTEX
  5
DE95
  8
0
 62
7
 10
44.776965983754813
 20
39.714545186892849
 70
0
  0
VERTEX
  5
DE96
  8
0
 62
7
 10
45.878018500840668
 20
39.41826697516138
 70
0
  0
VERTEX
  5
DE97
  8
0
 62
7
 10
46.9790710179265
 20
39.206221348044238
 70
0
  0
VERTEX
  5
DE98
  8
0
 62
7
 10
48.078745496818271
 20
39.121988763429869
 70
0
  0
VERTEX
  5
DE99
  8
0
 62
7
 10
49.2225171979212
 20
39.079269579412767
 70
0
  0
VERTEX
  5
DE9A
  8
0
 62
7
 10
50.364910860830058
 20
39.1645356926727
 70
0
  0
VERTEX
  5
DE9B
  8
0
 62
7
 10
51.465963377915891
 20
39.334206645321267
 70
0
  0
VERTEX
  5
DE9C
  8
0
 62
7
 10
52.565637856807641
 20
39.5448742342443
 70
0
  0
VERTEX
  5
DE9D
  8
0
 62
7
 10
53.6239711898764
 20
39.9269353235585
 70
0
  0
VERTEX
  5
DE9E
  8
0
 62
7
 10
54.639585338928029
 20
40.433881124213
 70
0
  0
SEQEND
  5
DE9F
  8
0
  0
POLYLINE
  5
DEA0
  8
0
 62
7
 66
1
 70
0
 10
0
 20
0
 30
0
  0
VERTEX
  5
DEA1
  8
0
 62
7
 10
42.153181262188539
 20
46.19115244438828
 70
0
  0
VERTEX
  5
DEA2
  8
0
 62
7
 10
41.391126140851263
 20
45.640109421522567
 70
0
  0
VERTEX
  5
DEA3
  8
0
 62
7
 10
40.713131349354107
 20
44.96349266821948
 70
0
  0
VERTEX
  5
DEA4
  8
0
 62
7
 10
40.247354439748321
 20
44.117204962267863
 70
0
  0
VERTEX
  5
DEA5
  8
0
 62
7
 10
40.120574925891127
 20
43.651600307436347
 70
0
  0
VERTEX
  5
DEA6
  8
0
 62
7
 10
40.07923378006813
 20
43.185823397830568
 70
0
  0
SEQEND
  5
DEA7
  8
0
  0
POLYLINE
  5
DEA8
  8
0
 62
7
 66
1
 70
0
 10
0
 20
0
 30
0
  0
VERTEX
  5
DEA9
  8
0
 62
7
 10
55.74063785601389
 20
41.661540900381787
 70
0
  0
VERTEX
  5
DEAA
  8
0
 62
7
 10
56.122354435779577
 20
42.296988762636111
 70
0
  0
VERTEX
  5
DEAB
  8
0
 62
7
 10
56.20641476561967
 20
42.9736055159392
 70
0
  0
SEQEND
  5
DEAC
  8
0
  0
POLYLINE
  5
DEAD
  8
0
 62
7
 66
1
 70
0
 10
0
 20
0
 30
0
  0
VERTEX
  5
DEAE
  8
0
 62
7
 10
43.168795411240168
 20
45.259943134725233
 70
0
  0
VERTEX
  5
DEAF
  8
0
 62
7
 10
42.449459473920022
 20
44.709933640505113
 70
0
  0
VERTEX
  5
DEB0
  8
0
 62
7
 10
41.81418386643994
 20
44.031938849007929
 70
0
  0
VERTEX
  5
DEB1
  8
0
 62
7
 10
41.601965984548563
 20
43.651600307436347
 70
0
  0
VERTEX
  5
DEB2
  8
0
 62
7
 10
41.475186470691362
 20
43.228542581847677
 70
0
  0
VERTEX
  5
DEB3
  8
0
 62
7
 10
41.433845324868372
 20
42.762937927016168
 70
0
  0
VERTEX
  5
DEB4
  8
0
 62
7
 10
41.475186470691362
 20
42.33953569187895
 70
0
  0
VERTEX
  5
DEB5
  8
0
 62
7
 10
41.644685168565658
 20
41.915272182870439
 70
0
  0
VERTEX
  5
DEB6
  8
0
 62
7
 10
41.856903050457042
 20
41.534933641298863
 70
0
  0
VERTEX
  5
DEB7
  8
0
 62
7
 10
42.492178657937117
 20
40.856938849801679
 70
0
  0
VERTEX
  5
DEB8
  8
0
 62
7
 10
43.252855741080268
 20
40.349993049147173
 70
0
  0
VERTEX
  5
DEB9
  8
0
 62
7
 10
44.05763004643466
 20
39.968276469381493
 70
0
  0
SEQEND
  5
DEBA
  8
0
  0
POLYLINE
  5
DEBB
  8
0
 62
7
 66
1
 70
0
 10
0
 20
0
 30
0
  0
VERTEX
  5
DEBC
  8
0
 62
7
 10
44.141690376274717
 20
39.9269353235585
 70
0
  0
VERTEX
  5
DEBD
  8
0
 62
7
 10
45.4122415912349
 20
39.5021550502272
 70
0
  0
VERTEX
  5
DEBE
  8
0
 62
7
 10
46.766853136035117
 20
39.206221348044238
 70
0
  0
VERTEX
  5
DEBF
  8
0
 62
7
 10
48.121464680835359
 20
39.079269579412767
 70
0
  0
VERTEX
  5
DEC0
  8
0
 62
7
 10
49.4760762256356
 20
39.079269579412767
 70
0
  0
VERTEX
  5
DEC1
  8
0
 62
7
 10
50.830687770435837
 20
39.1645356926727
 70
0
  0
VERTEX
  5
DEC2
  8
0
 62
7
 10
52.185299315236072
 20
39.41826697516138
 70
0
  0
VERTEX
  5
DEC3
  8
0
 62
7
 10
53.4544724920021
 20
39.84115244597578
 70
0
  0
VERTEX
  5
DEC4
  8
0
 62
7
 10
54.682304522945131
 20
40.39253997839
 70
0
  0
SEQEND
  5
DEC5
  8
0
  0
POLYLINE
  5
DEC6
  8
0
 62
7
 66
1
 70
0
 10
0
 20
0
 30
0
  0
VERTEX
  5
DEC7
  8
0
 62
7
 10
42.40674028990292
 20
45.768266973573873
 70
0
  0
VERTEX
  5
DEC8
  8
0
 62
7
 10
41.348406956834161
 20
45.006211852236589
 70
0
  0
VERTEX
  5
DEC9
  8
0
 62
7
 10
40.925349231245477
 20
44.497888013387971
 70
0
  0
VERTEX
  5
DECA
  8
0
 62
7
 10
40.5863518354969
 20
43.947878519167858
 70
0
  0
VERTEX
  5
DECB
  8
0
 62
7
 10
40.416853137622631
 20
43.312602911687769
 70
0
  0
VERTEX
  5
DECC
  8
0
 62
7
 10
40.416853137622631
 20
42.677155049433452
 70
0
  0
VERTEX
  5
DECD
  8
0
 62
7
 10
40.629071019514008
 20
42.084943135518976
 70
0
  0
VERTEX
  5
DECE
  8
0
 62
7
 10
40.925349231245477
 20
41.534933641298863
 70
0
  0
VERTEX
  5
DECF
  8
0
 62
7
 10
41.391126140851263
 20
41.026609802450253
 70
0
  0
VERTEX
  5
DED0
  8
0
 62
7
 10
41.856903050457042
 20
40.603207567313028
 70
0
  0
VERTEX
  5
DED1
  8
0
 62
7
 10
42.9565775293488
 20
39.968276469381493
 70
0
  0
VERTEX
  5
DED2
  8
0
 62
7
 10
44.184409560291833
 20
39.460986159178447
 70
0
  0
VERTEX
  5
DED3
  8
0
 62
7
 10
45.4122415912349
 20
39.121988763429869
 70
0
  0
VERTEX
  5
DED4
  8
0
 62
7
 10
46.682792806195032
 20
38.909943136312727
 70
0
  0
VERTEX
  5
DED5
  8
0
 62
7
 10
47.994685166978172
 20
38.782819112907021
 70
0
  0
VERTEX
  5
DED6
  8
0
 62
7
 10
49.2638583437442
 20
38.7416502218583
 70
0
  0
VERTEX
  5
DED7
  8
0
 62
7
 10
50.577128742721428
 20
38.825538296924123
 70
0
  0
VERTEX
  5
DED8
  8
0
 62
7
 10
51.846301919487459
 20
38.995209249572667
 70
0
  0
VERTEX
  5
DED9
  8
0
 62
7
 10
53.116853134447631
 20
39.291659716078442
 70
0
  0
VERTEX
  5
DEDA
  8
0
 62
7
 10
54.30196598137357
 20
39.714545186892849
 70
0
  0
VERTEX
  5
DEDB
  8
0
 62
7
 10
55.487078828299488
 20
40.264554681112962
 70
0
  0
SEQEND
  5
DEDC
  8
0
  0
POLYLINE
  5
DEDD
  8
0
 62
7
 66
1
 70
0
 10
0
 20
0
 30
0
  0
VERTEX
  5
DEDE
  8
0
 62
7
 10
41.644685168565658
 20
42.9322643701162
 70
0
  0
VERTEX
  5
DEDF
  8
0
 62
7
 10
41.730123536599869
 20
42.33953569187895
 70
0
  0
VERTEX
  5
DEE0
  8
0
 62
7
 10
41.940963380297141
 20
41.78849266901323
 70
0
  0
SEQEND
  5
DEE1
  8
0
  0
POLYLINE
  5
DEE2
  8
0
 62
7
 66
1
 70
0
 10
0
 20
0
 30
0
  0
VERTEX
  5
DEE3
  8
0
 62
7
 10
41.644685168565658
 20
42.9736055159392
 70
0
  0
VERTEX
  5
DEE4
  8
0
 62
7
 10
41.730123536599869
 20
42.423940531267583
 70
0
  0
VERTEX
  5
DEE5
  8
0
 62
7
 10
41.940963380297141
 20
41.915272182870439
 70
0
  0
SEQEND
  5
DEE6
  8
0
  0
POLYLINE
  5
DEE7
  8
0
 62
7
 66
1
 70
0
 10
0
 20
0
 30
0
  0
VERTEX
  5
DEE8
  8
0
 62
7
 10
54.682304522945131
 20
40.39253997839
 70
0
  0
VERTEX
  5
DEE9
  8
0
 62
7
 10
55.487078828299488
 20
40.942204963061613
 70
0
  0
VERTEX
  5
DEEA
  8
0
 62
7
 10
56.079635251762483
 20
41.661540900381787
 70
0
  0
VERTEX
  5
DEEB
  8
0
 62
7
 10
56.290475095459769
 20
42.084943135518976
 70
0
  0
VERTEX
  5
DEEC
  8
0
 62
7
 10
56.418632647511053
 20
42.507828606333419
 70
0
  0
VERTEX
  5
DEED
  8
0
 62
7
 10
56.459973793334051
 20
42.9736055159392
 70
0
  0
VERTEX
  5
DEEE
  8
0
 62
7
 10
56.375913463493951
 20
43.43955468031924
 70
0
  0
VERTEX
  5
DEEF
  8
0
 62
7
 10
55.994196883728272
 20
44.117204962267863
 70
0
  0
VERTEX
  5
DEF0
  8
0
 62
7
 10
55.487078828299488
 20
44.709933640505113
 70
0
  0
VERTEX
  5
DEF1
  8
0
 62
7
 10
54.851803220819441
 20
45.13281911131952
 70
0
  0
VERTEX
  5
DEF2
  8
0
 62
7
 10
54.175186467516362
 20
45.513157652891117
 70
0
  0
VERTEX
  5
DEF3
  8
0
 62
7
 10
52.861916068539117
 20
46.02182600128824
 70
0
  0
VERTEX
  5
DEF4
  8
0
 62
7
 10
51.465963377915891
 20
46.360823397036818
 70
0
  0
VERTEX
  5
DEF5
  8
0
 62
7
 10
50.068632649098546
 20
46.530322094911121
 70
0
  0
VERTEX
  5
DEF6
  8
0
 62
7
 10
48.629960774458219
 20
46.571490985959862
 70
0
  0
VERTEX
  5
DEF7
  8
0
 62
7
 10
47.23263004564091
 20
46.487602910894019
 70
0
  0
VERTEX
  5
DEF8
  8
0
 62
7
 10
45.835299316823573
 20
46.233871628405382
 70
0
  0
VERTEX
  5
DEF9
  8
0
 62
7
 10
44.43934662620034
 20
45.8521550486397
 70
0
  0
VERTEX
  5
DEFA
  8
0
 62
7
 10
43.168795411240168
 20
45.259943134725233
 70
0
  0
SEQEND
  5
DEFB
  8
0
  0
POLYLINE
  5
DEFC
  8
0
 62
7
 66
1
 70
0
 10
0
 20
0
 30
0
  0
VERTEX
  5
DEFD
  8
0
 62
7
 10
57.773244192311289
 20
43.185823397830568
 70
0
  0
VERTEX
  5
DEFE
  8
0
 62
7
 10
57.730525008294222
 20
43.778207566519278
 70
0
  0
VERTEX
  5
DEFF
  8
0
 62
7
 10
57.561026310419912
 20
44.370936244756528
 70
0
  0
VERTEX
  5
DF00
  8
0
 62
7
 10
57.222028914671341
 20
44.879604593153658
 70
0
  0
VERTEX
  5
DF01
  8
0
 62
7
 10
56.84169037309973
 20
45.302490063968087
 70
0
  0
VERTEX
  5
DF02
  8
0
 62
7
 10
55.9101365538882
 20
46.064545185305349
 70
0
  0
VERTEX
  5
DF03
  8
0
 62
7
 10
54.851803220819441
 20
46.61455467952549
 70
0
  0
VERTEX
  5
DF04
  8
0
 62
7
 10
53.836189071767777
 20
46.994893221097072
 70
0
  0
VERTEX
  5
DF05
  8
0
 62
7
 10
51.7195224056303
 20
47.54593624396275
 70
0
  0
VERTEX
  5
DF06
  8
0
 62
7
 10
49.602855739492782
 20
47.756776087660093
 70
0
  0
VERTEX
  5
DF07
  8
0
 62
7
 10
47.443469889338182
 20
47.67288801259425
 70
0
  0
VERTEX
  5
DF08
  8
0
 62
7
 10
45.285462077377687
 20
47.376609800862717
 70
0
  0
VERTEX
  5
DF09
  8
0
 62
7
 10
43.677291504863049
 20
46.867769197691359
 70
0
  0
VERTEX
  5
DF0A
  8
0
 62
7
 10
42.153181262188539
 20
46.19115244438828
 70
0
  0
SEQEND
  5
DF0B
  8
0
  0
POLYLINE
  5
DF0C
  8
0
 62
7
 66
1
 70
0
 10
0
 20
0
 30
0
  0
VERTEX
  5
DF0D
  8
0
 62
7
 10
55.487078828299488
 20
40.264554681112962
 70
0
  0
VERTEX
  5
DF0E
  8
0
 62
7
 10
56.375913463493951
 20
40.942204963061613
 70
0
  0
VERTEX
  5
DF0F
  8
0
 62
7
 10
57.095249400814133
 20
41.78849266901323
 70
0
  0
VERTEX
  5
DF10
  8
0
 62
7
 10
57.348808428528507
 20
42.254269578619009
 70
0
  0
VERTEX
  5
DF11
  8
0
 62
7
 10
57.475587942385708
 20
42.804106818064888
 70
0
  0
VERTEX
  5
DF12
  8
0
 62
7
 10
57.434246796562711
 20
43.355322095704871
 70
0
  0
VERTEX
  5
DF13
  8
0
 62
7
 10
57.30746728270551
 20
43.905159335150749
 70
0
  0
VERTEX
  5
DF14
  8
0
 62
7
 10
57.011189070974027
 20
44.41365542877363
 70
0
  0
VERTEX
  5
DF15
  8
0
 62
7
 10
56.672191675225463
 20
44.836540899588037
 70
0
  0
VERTEX
  5
DF16
  8
0
 62
7
 10
55.8260762240481
 20
45.556221346456731
 70
0
  0
VERTEX
  5
DF17
  8
0
 62
7
 10
54.851803220819441
 20
46.105886331128339
 70
0
  0
VERTEX
  5
DF18
  8
0
 62
7
 10
53.793469887750682
 20
46.530322094911121
 70
0
  0
VERTEX
  5
DF19
  8
0
 62
7
 10
52.312078829093238
 20
46.910488381708433
 70
0
  0
VERTEX
  5
DF1A
  8
0
 62
7
 10
50.830687770435837
 20
47.1642196641971
 70
0
  0
VERTEX
  5
DF1B
  8
0
 62
7
 10
48.926238986189723
 20
47.291171432828577
 70
0
  0
VERTEX
  5
DF1C
  8
0
 62
7
 10
47.0204121637495
 20
47.1642196641971
 70
0
  0
VERTEX
  5
DF1D
  8
0
 62
7
 10
45.158682563520493
 20
46.8266003066426
 70
0
  0
VERTEX
  5
DF1E
  8
0
 62
7
 10
43.338294109114472
 20
46.233871628405382
 70
0
  0
SEQEND
  5
DF1F
  8
0
  0
POLYLINE
  5
DF20
  8
0
 62
7
 66
1
 70
0
 10
0
 20
0
 30
0
  0
VERTEX
  5
DF21
  8
0
 62
7
 10
43.211514595257277
 20
46.19115244438828
 70
0
  0
VERTEX
  5
DF22
  8
0
 62
7
 10
42.40674028990292
 20
45.768266973573873
 70
0
  0
SEQEND
  5
DF23
  8
0
  0
POLYLINE
  5
DF24
  8
0
 62
7
 66
1
 70
0
 10
0
 20
0
 30
0
  0
VERTEX
  5
DF25
  8
0
 62
7
 10
46.427855740286518
 20
43.990597703184932
 70
0
  0
VERTEX
  5
DF26
  8
0
 62
7
 10
46.597354438160821
 20
44.117204962267863
 70
0
  0
VERTEX
  5
DF27
  8
0
 62
7
 10
46.597354438160821
 20
44.286875914916443
 70
0
  0
SEQEND
  5
DF28
  8
0
  0
POLYLINE
  5
DF29
  8
0
 62
7
 66
1
 70
0
 10
0
 20
0
 30
0
  0
VERTEX
  5
DF2A
  8
0
 62
7
 10
48.121464680835359
 20
39.206221348044238
 70
0
  0
VERTEX
  5
DF2B
  8
0
 62
7
 10
48.121464680835359
 20
39.24894053206134
 70
0
  0
SEQEND
  5
DF2C
  8
0
  0
POLYLINE
  5
DF2D
  8
0
 62
7
 66
1
 70
0
 10
0
 20
0
 30
0
  0
VERTEX
  5
DF2E
  8
0
 62
7
 10
47.994685166978172
 20
39.206221348044238
 70
0
  0
VERTEX
  5
DF2F
  8
0
 62
7
 10
47.994685166978172
 20
39.291659716078442
 70
0
  0
SEQEND
  5
DF30
  8
0
  0
POLYLINE
  5
DF31
  8
0
 62
7
 66
1
 70
0
 10
0
 20
0
 30
0
  0
VERTEX
  5
DF32
  8
0
 62
7
 10
42.026401748331338
 20
41.745773484996157
 70
0
  0
VERTEX
  5
DF33
  8
0
 62
7
 10
42.026401748331338
 20
41.831211853030339
 70
0
  0
SEQEND
  5
DF34
  8
0
  0
POLYLINE
  5
DF35
  8
0
 62
7
 66
1
 70
0
 10
0
 20
0
 30
0
  0
VERTEX
  5
DF36
  8
0
 62
7
 10
41.940963380297141
 20
41.78849266901323
 70
0
  0
VERTEX
  5
DF37
  8
0
 62
7
 10
41.940963380297141
 20
41.915272182870439
 70
0
  0
SEQEND
  5
DF38
  8
0
  0
POLYLINE
  5
DF39
  8
0
 62
7
 66
1
 70
0
 10
0
 20
0
 30
0
  0
VERTEX
  5
DF3A
  8
0
 62
7
 10
45.4122415912349
 20
41.618821716364693
 70
0
  0
VERTEX
  5
DF3B
  8
0
 62
7
 10
45.4122415912349
 20
41.408326382215932
 70
0
  0
VERTEX
  5
DF3C
  8
0
 62
7
 10
45.58174028910917
 20
41.281202358810219
 70
0
  0
VERTEX
  5
DF3D
  8
0
 62
7
 10
45.962078830680738
 20
41.153217061533176
 70
0
  0
VERTEX
  5
DF3E
  8
0
 62
7
 10
46.386514594463527
 20
41.153217061533176
 70
0
  0
VERTEX
  5
DF3F
  8
0
 62
7
 10
46.766853136035117
 20
41.281202358810219
 70
0
  0
SEQEND
  5
DF40
  8
0
  0
POLYLINE
  5
DF41
  8
0
 62
7
 66
1
 70
0
 10
0
 20
0
 30
0
  0
VERTEX
  5
DF42
  8
0
 62
7
 10
46.766853136035117
 20
41.745773484996157
 70
0
  0
VERTEX
  5
DF43
  8
0
 62
7
 10
46.64007362217793
 20
41.577652825315958
 70
0
  0
SEQEND
  5
DF44
  8
0
  0
POLYLINE
  5
DF45
  8
0
 62
7
 66
1
 70
0
 10
0
 20
0
 30
0
  0
VERTEX
  5
DF46
  8
0
 62
7
 10
45.115963379503391
 20
43.185823397830568
 70
0
  0
VERTEX
  5
DF47
  8
0
 62
7
 10
45.242742893360592
 20
43.312602911687769
 70
0
  0
VERTEX
  5
DF48
  8
0
 62
7
 10
45.242742893360592
 20
43.482273864336321
 70
0
  0
SEQEND
  5
DF49
  8
0
  0
POLYLINE
  5
DF4A
  8
0
 62
7
 66
1
 70
0
 10
0
 20
0
 30
0
  0
VERTEX
  5
DF4B
  8
0
 62
7
 10
49.053018500046917
 20
45.175538295336622
 70
0
  0
VERTEX
  5
DF4C
  8
0
 62
7
 10
49.053018500046917
 20
44.96349266821948
 70
0
  0
VERTEX
  5
DF4D
  8
0
 62
7
 10
49.2225171979212
 20
44.836540899588037
 70
0
  0
VERTEX
  5
DF4E
  8
0
 62
7
 10
49.602855739492782
 20
44.709933640505113
 70
0
  0
VERTEX
  5
DF4F
  8
0
 62
7
 10
50.025913465081452
 20
44.709933640505113
 70
0
  0
VERTEX
  5
DF50
  8
0
 62
7
 10
50.40763004484716
 20
44.836540899588037
 70
0
  0
SEQEND
  5
DF51
  8
0
  0
POLYLINE
  5
DF52
  8
0
 62
7
 66
1
 70
0
 10
0
 20
0
 30
0
  0
VERTEX
  5
DF53
  8
0
 62
7
 10
50.40763004484716
 20
45.302490063968087
 70
0
  0
VERTEX
  5
DF54
  8
0
 62
7
 10
50.280850530989959
 20
45.13281911131952
 70
0
  0
SEQEND
  5
DF55
  8
0
  0
POLYLINE
  5
DF56
  8
0
 62
7
 66
1
 70
0
 10
0
 20
0
 30
0
  0
VERTEX
  5
DF57
  8
0
 62
7
 10
43.930850532577452
 20
43.482273864336321
 70
0
  0
VERTEX
  5
DF58
  8
0
 62
7
 10
43.930850532577452
 20
43.312602911687769
 70
0
  0
VERTEX
  5
DF59
  8
0
 62
7
 10
44.05763004643466
 20
43.185823397830568
 70
0
  0
VERTEX
  5
DF5A
  8
0
 62
7
 10
44.396627442183231
 20
43.058871629199132
 70
0
  0
VERTEX
  5
DF5B
  8
0
 62
7
 10
44.776965983754813
 20
43.058871629199132
 70
0
  0
VERTEX
  5
DF5C
  8
0
 62
7
 10
45.115963379503391
 20
43.185823397830568
 70
0
  0
SEQEND
  5
DF5D
  8
0
  0
POLYLINE
  5
DF5E
  8
0
 62
7
 66
1
 70
0
 10
0
 20
0
 30
0
  0
VERTEX
  5
DF5F
  8
0
 62
7
 10
48.121464680835359
 20
39.206221348044238
 70
0
  0
VERTEX
  5
DF60
  8
0
 62
7
 10
49.3492967117784
 20
39.1645356926727
 70
0
  0
VERTEX
  5
DF61
  8
0
 62
7
 10
50.534409558704333
 20
39.24894053206134
 70
0
  0
VERTEX
  5
DF62
  8
0
 62
7
 10
51.762241589647388
 20
39.460986159178447
 70
0
  0
VERTEX
  5
DF63
  8
0
 62
7
 10
52.947354436573328
 20
39.757264370909951
 70
0
  0
VERTEX
  5
DF64
  8
0
 62
7
 10
54.089748099482193
 20
40.22286902574146
 70
0
  0
VERTEX
  5
DF65
  8
0
 62
7
 10
55.105362248533822
 20
40.856938849801679
 70
0
  0
VERTEX
  5
DF66
  8
0
 62
7
 10
55.571139158139587
 20
41.281202358810219
 70
0
  0
VERTEX
  5
DF67
  8
0
 62
7
 10
55.9101365538882
 20
41.745773484996157
 70
0
  0
VERTEX
  5
DF68
  8
0
 62
7
 10
56.163695581602582
 20
42.33953569187895
 70
0
  0
VERTEX
  5
DF69
  8
0
 62
7
 10
56.249133949636779
 20
42.9322643701162
 70
0
  0
SEQEND
  5
DF6A
  8
0
  0
POLYLINE
  5
DF6B
  8
0
 62
7
 66
1
 70
0
 10
0
 20
0
 30
0
  0
VERTEX
  5
DF6C
  8
0
 62
7
 10
50.40763004484716
 20
44.836540899588037
 70
0
  0
VERTEX
  5
DF6D
  8
0
 62
7
 10
50.577128742721428
 20
44.96349266821948
 70
0
  0
VERTEX
  5
DF6E
  8
0
 62
7
 10
50.577128742721428
 20
45.175538295336622
 70
0
  0
SEQEND
  5
DF6F
  8
0
  0
POLYLINE
  5
DF70
  8
0
 62
7
 66
1
 70
0
 10
0
 20
0
 30
0
  0
VERTEX
  5
DF71
  8
0
 62
7
 10
44.98918386564619
 20
43.651600307436347
 70
0
  0
VERTEX
  5
DF72
  8
0
 62
7
 10
44.903745497612007
 20
43.524993048353423
 70
0
  0
SEQEND
  5
DF73
  8
0
  0
POLYLINE
  5
DF74
  8
0
 62
7
 66
1
 70
0
 10
0
 20
0
 30
0
  0
VERTEX
  5
DF75
  8
0
 62
7
 10
45.242742893360592
 20
44.286875914916443
 70
0
  0
VERTEX
  5
DF76
  8
0
 62
7
 10
45.242742893360592
 20
44.117204962267863
 70
0
  0
VERTEX
  5
DF77
  8
0
 62
7
 10
45.369522407217787
 20
43.990597703184932
 70
0
  0
VERTEX
  5
DF78
  8
0
 62
7
 10
45.751238986983473
 20
43.862440151133647
 70
0
  0
VERTEX
  5
DF79
  8
0
 62
7
 10
46.08885834453794
 20
43.862440151133647
 70
0
  0
VERTEX
  5
DF7A
  8
0
 62
7
 10
46.427855740286518
 20
43.990597703184932
 70
0
  0
SEQEND
  5
DF7B
  8
0
  0
POLYLINE
  5
DF7C
  8
0
 62
7
 66
1
 70
0
 10
0
 20
0
 30
0
  0
VERTEX
  5
DF7D
  8
0
 62
7
 10
46.766853136035117
 20
41.281202358810219
 70
0
  0
VERTEX
  5
DF7E
  8
0
 62
7
 10
46.936351833909413
 20
41.408326382215932
 70
0
  0
VERTEX
  5
DF7F
  8
0
 62
7
 10
46.936351833909413
 20
41.618821716364693
 70
0
  0
SEQEND
  5
DF80
  8
0
  0
POLYLINE
  5
DF81
  8
0
 62
7
 66
1
 70
0
 10
0
 20
0
 30
0
  0
VERTEX
  5
DF82
  8
0
 62
7
 10
47.571627441389481
 20
45.090272182076689
 70
0
  0
VERTEX
  5
DF83
  8
0
 62
7
 10
47.189910861623808
 20
45.047552998059587
 70
0
  0
VERTEX
  5
DF84
  8
0
 62
7
 10
46.9790710179265
 20
45.090272182076689
 70
0
  0
VERTEX
  5
DF85
  8
0
 62
7
 10
46.8509134658752
 20
45.21722395070816
 70
0
  0
SEQEND
  5
DF86
  8
0
  0
POLYLINE
  5
DF87
  8
0
 62
7
 66
1
 70
0
 10
0
 20
0
 30
0
  0
VERTEX
  5
DF88
  8
0
 62
7
 10
46.217015896589253
 20
44.328217060739433
 70
0
  0
VERTEX
  5
DF89
  8
0
 62
7
 10
45.835299316823573
 20
44.244156730899327
 70
0
  0
VERTEX
  5
DF8A
  8
0
 62
7
 10
45.66580061894927
 20
44.286875914916443
 70
0
  0
VERTEX
  5
DF8B
  8
0
 62
7
 10
45.539021105092068
 20
44.41365542877363
 70
0
  0
SEQEND
  5
DF8C
  8
0
  0
POLYLINE
  5
DF8D
  8
0
 62
7
 66
1
 70
0
 10
0
 20
0
 30
0
  0
VERTEX
  5
DF8E
  8
0
 62
7
 10
44.903745497612007
 20
43.524993048353423
 70
0
  0
VERTEX
  5
DF8F
  8
0
 62
7
 10
44.523406956040411
 20
43.43955468031924
 70
0
  0
VERTEX
  5
DF90
  8
0
 62
7
 10
44.311189074149027
 20
43.482273864336321
 70
0
  0
VERTEX
  5
DF91
  8
0
 62
7
 10
44.184409560291833
 20
43.651600307436347
 70
0
  0
SEQEND
  5
DF92
  8
0
  0
POLYLINE
  5
DF93
  8
0
 62
7
 66
1
 70
0
 10
0
 20
0
 30
0
  0
VERTEX
  5
DF94
  8
0
 62
7
 10
50.280850530989959
 20
45.13281911131952
 70
0
  0
VERTEX
  5
DF95
  8
0
 62
7
 10
49.983194281064371
 20
45.006211852236589
 70
0
  0
VERTEX
  5
DF96
  8
0
 62
7
 10
49.729635253349969
 20
45.006211852236589
 70
0
  0
VERTEX
  5
DF97
  8
0
 62
7
 10
49.433357041618493
 20
45.090272182076689
 70
0
  0
VERTEX
  5
DF98
  8
0
 62
7
 10
49.2225171979212
 20
45.302490063968087
 70
0
  0
SEQEND
  5
DF99
  8
0
  0
POLYLINE
  5
DF9A
  8
0
 62
7
 66
1
 70
0
 10
0
 20
0
 30
0
  0
VERTEX
  5
DF9B
  8
0
 62
7
 10
46.64007362217793
 20
41.577652825315958
 70
0
  0
VERTEX
  5
DF9C
  8
0
 62
7
 10
46.343795410446418
 20
41.492214457281747
 70
0
  0
VERTEX
  5
DF9D
  8
0
 62
7
 10
46.047517198714949
 20
41.44949527326466
 70
0
  0
VERTEX
  5
DF9E
  8
0
 62
7
 10
45.792580132806471
 20
41.534933641298863
 70
0
  0
VERTEX
  5
DF9F
  8
0
 62
7
 10
45.58174028910917
 20
41.745773484996157
 70
0
  0
SEQEND
  5
DFA0
  8
0
  0
POLYLINE
  5
DFA1
  8
0
 62
7
 66
1
 70
0
 10
0
 20
0
 30
0
  0
VERTEX
  5
DFA2
  8
0
 62
7
 10
42.026401748331338
 20
41.745773484996157
 70
0
  0
VERTEX
  5
DFA3
  8
0
 62
7
 10
41.940963380297141
 20
41.78849266901323
 70
0
  0
SEQEND
  5
DFA4
  8
0
  0
POLYLINE
  5
DFA5
  8
0
 62
7
 66
1
 70
0
 10
0
 20
0
 30
0
  0
VERTEX
  5
DFA6
  8
0
 62
7
 10
48.121464680835359
 20
39.206221348044238
 70
0
  0
VERTEX
  5
DFA7
  8
0
 62
7
 10
47.994685166978172
 20
39.206221348044238
 70
0
  0
SEQEND
  5
DFA8
  8
0
  0
POLYLINE
  5
DFA9
  8
0
 62
7
 66
1
 70
0
 10
0
 20
0
 30
0
  0
VERTEX
  5
DFAA
  8
0
 62
7
 10
46.047517198714949
 20
41.745773484996157
 70
0
  0
VERTEX
  5
DFAB
  8
0
 62
7
 10
45.920737684857741
 20
41.577652825315958
 70
0
  0
VERTEX
  5
DFAC
  8
0
 62
7
 10
45.708519802966357
 20
41.661540900381787
 70
0
  0
SEQEND
  5
DFAD
  8
0
  0
POLYLINE
  5
DFAE
  8
0
 62
7
 66
1
 70
0
 10
0
 20
0
 30
0
  0
VERTEX
  5
DFAF
  8
0
 62
7
 10
47.612968587212478
 20
61.852728775108318
 70
0
  0
VERTEX
  5
DFB0
  8
0
 62
7
 10
49.2225171979212
 20
61.938167143142522
 70
0
  0
SEQEND
  5
DFB1
  8
0
  0
POLYLINE
  5
DFB2
  8
0
 62
7
 66
1
 70
0
 10
0
 20
0
 30
0
  0
VERTEX
  5
DFB3
  8
0
 62
7
 10
48.714021104298318
 20
65.493505683920347
 70
0
  0
VERTEX
  5
DFB4
  8
0
 62
7
 10
48.75674028831542
 20
65.409445354080248
 70
0
  0
SEQEND
  5
DFB5
  8
0
  0
POLYLINE
  5
DFB6
  8
0
 62
7
 66
1
 70
0
 10
0
 20
0
 30
0
  0
VERTEX
  5
DFB7
  8
0
 62
7
 10
42.153181262188539
 20
47.122878518374108
 70
0
  0
VERTEX
  5
DFB8
  8
0
 62
7
 10
42.194522408011537
 20
47.122878518374108
 70
0
  0
SEQEND
  5
DFB9
  8
0
  0
POLYLINE
  5
DFBA
  8
0
 62
7
 66
1
 70
0
 10
0
 20
0
 30
0
  0
VERTEX
  5
DFBB
  8
0
 62
7
 10
54.682304522945131
 20
65.493505683920347
 70
0
  0
VERTEX
  5
DFBC
  8
0
 62
7
 10
55.064021102710818
 20
64.858057821666
 70
0
  0
VERTEX
  5
DFBD
  8
0
 62
7
 10
55.232141762391009
 20
64.181441068362943
 70
0
  0
SEQEND
  5
DFBE
  8
0
  0
POLYLINE
  5
DFBF
  8
0
 62
7
 66
1
 70
0
 10
0
 20
0
 30
0
  0
VERTEX
  5
DFC0
  8
0
 62
7
 10
50.957467284293
 20
53.091161937020921
 70
0
  0
VERTEX
  5
DFC1
  8
0
 62
7
 10
51.126965982167313
 20
53.091161937020921
 70
0
  0
SEQEND
  5
DFC2
  8
0
  0
POLYLINE
  5
DFC3
  8
0
 62
7
 66
1
 70
0
 10
0
 20
0
 30
0
  0
VERTEX
  5
DFC4
  8
0
 62
7
 10
51.465963377915891
 20
49.493276467000243
 70
0
  0
VERTEX
  5
DFC5
  8
0
 62
7
 10
51.634084037596089
 20
49.493276467000243
 70
0
  0
SEQEND
  5
DFC6
  8
0
  0
POLYLINE
  5
DFC7
  8
0
 62
7
 66
1
 70
0
 10
0
 20
0
 30
0
  0
VERTEX
  5
DFC8
  8
0
 62
7
 10
51.634084037596089
 20
49.6198837260832
 70
0
  0
VERTEX
  5
DFC9
  8
0
 62
7
 10
51.803582735470393
 20
49.662602910100269
 70
0
  0
SEQEND
  5
DFCA
  8
0
  0
POLYLINE
  5
DFCB
  8
0
 62
7
 66
1
 70
0
 10
0
 20
0
 30
0
  0
VERTEX
  5
DFCC
  8
0
 62
7
 10
44.141690376274717
 20
49.111559887234563
 70
0
  0
VERTEX
  5
DFCD
  8
0
 62
7
 10
43.845412164543262
 20
48.900547788763021
 70
0
  0
SEQEND
  5
DFCE
  8
0
  0
POLYLINE
  5
DFCF
  8
0
 62
7
 66
1
 70
0
 10
0
 20
0
 30
0
  0
VERTEX
  5
DFD0
  8
0
 62
7
 10
43.507792806988782
 20
47.884933639711363
 70
0
  0
VERTEX
  5
DFD1
  8
0
 62
7
 10
44.014910862417558
 20
48.138492667425758
 70
0
  0
SEQEND
  5
DFD2
  8
0
  0
POLYLINE
  5
DFD3
  8
0
 62
7
 66
1
 70
0
 10
0
 20
0
 30
0
  0
VERTEX
  5
DFD4
  8
0
 62
7
 10
51.296464680041609
 20
53.175222266861027
 70
0
  0
VERTEX
  5
DFD5
  8
0
 62
7
 10
51.253745496024507
 20
53.175222266861027
 70
0
  0
SEQEND
  5
DFD6
  8
0
  0
POLYLINE
  5
DFD7
  8
0
 62
7
 66
1
 70
0
 10
0
 20
0
 30
0
  0
VERTEX
  5
DFD8
  8
0
 62
7
 10
44.311189074149027
 20
49.407838098966039
 70
0
  0
VERTEX
  5
DFD9
  8
0
 62
7
 10
45.496301921074959
 20
49.832273862748849
 70
0
  0
VERTEX
  5
DFDA
  8
0
 62
7
 10
46.682792806195032
 20
50.128207564931778
 70
0
  0
SEQEND
  5
DFDB
  8
0
  0
POLYLINE
  5
DFDC
  8
0
 62
7
 66
1
 70
0
 10
0
 20
0
 30
0
  0
VERTEX
  5
DFDD
  8
0
 62
7
 10
42.194522408011537
 20
47.122878518374108
 70
0
  0
VERTEX
  5
DFDE
  8
0
 62
7
 10
42.364021105885811
 20
47.629824319028579
 70
0
  0
VERTEX
  5
DFDF
  8
0
 62
7
 10
42.618958171794318
 20
48.095773483408628
 70
0
  0
VERTEX
  5
DFE0
  8
0
 62
7
 10
43.381013293131581
 20
48.85782860474589
 70
0
  0
SEQEND
  5
DFE1
  8
0
  0
POLYLINE
  5
DFE2
  8
0
 62
7
 66
1
 70
0
 10
0
 20
0
 30
0
  0
VERTEX
  5
DFE3
  8
0
 62
7
 10
47.486189073355277
 20
61.811559884059562
 70
0
  0
VERTEX
  5
DFE4
  8
0
 62
7
 10
47.359409559498083
 20
61.599169747393923
 70
0
  0
SEQEND
  5
DFE5
  8
0
  0
POLYLINE
  5
DFE6
  8
0
 62
7
 66
1
 70
0
 10
0
 20
0
 30
0
  0
VERTEX
  5
DFE7
  8
0
 62
7
 10
47.612968587212478
 20
61.852728775108318
 70
0
  0
VERTEX
  5
DFE8
  8
0
 62
7
 10
47.571627441389481
 20
61.641888931410989
 70
0
  0
SEQEND
  5
DFE9
  8
0
  0
POLYLINE
  5
DFEA
  8
0
 62
7
 66
1
 70
0
 10
0
 20
0
 30
0
  0
VERTEX
  5
DFEB
  8
0
 62
7
 10
42.703018501634418
 20
58.932838096584788
 70
0
  0
VERTEX
  5
DFEC
  8
0
 62
7
 10
42.576238987777216
 20
58.763167143936272
 70
0
  0
SEQEND
  5
DFED
  8
0
  0
POLYLINE
  5
DFEE
  8
0
 62
7
 66
1
 70
0
 10
0
 20
0
 30
0
  0
VERTEX
  5
DFEF
  8
0
 62
7
 10
54.639585338928029
 20
65.409445354080248
 70
0
  0
VERTEX
  5
DFF0
  8
0
 62
7
 10
54.767742890979342
 20
65.324179240820314
 70
0
  0
SEQEND
  5
DFF1
  8
0
  0
POLYLINE
  5
DFF2
  8
0
 62
7
 66
1
 70
0
 10
0
 20
0
 30
0
  0
VERTEX
  5
DFF3
  8
0
 62
7
 10
50.23813134697285
 20
67.18711462446916
 70
0
  0
VERTEX
  5
DFF4
  8
0
 62
7
 10
50.40763004484716
 20
67.18711462446916
 70
0
  0
SEQEND
  5
DFF5
  8
0
  0
POLYLINE
  5
DFF6
  8
0
 62
7
 66
1
 70
0
 10
0
 20
0
 30
0
  0
VERTEX
  5
DFF7
  8
0
 62
7
 10
51.762241589647388
 20
49.916161937814671
 70
0
  0
VERTEX
  5
DFF8
  8
0
 62
7
 10
51.507304523738881
 20
49.873442753797541
 70
0
  0
SEQEND
  5
DFF9
  8
0
  0
POLYLINE
  5
DFFA
  8
0
 62
7
 66
1
 70
0
 10
0
 20
0
 30
0
  0
VERTEX
  5
DFFB
  8
0
 62
7
 10
46.343795410446418
 20
50.042769196897581
 70
0
  0
VERTEX
  5
DFFC
  8
0
 62
7
 10
46.343795410446418
 20
50.128207564931778
 70
0
  0
SEQEND
  5
DFFD
  8
0
  0
POLYLINE
  5
DFFE
  8
0
 62
7
 66
1
 70
0
 10
0
 20
0
 30
0
  0
VERTEX
  5
DFFF
  8
0
 62
7
 10
49.137078829886988
 20
61.938167143142522
 70
0
  0
VERTEX
  5
E000
  8
0
 62
7
 10
49.17979801390409
 20
62.064774402225417
 70
0
  0
SEQEND
  5
E001
  8
0
  0
POLYLINE
  5
E002
  8
0
 62
7
 66
1
 70
0
 10
0
 20
0
 30
0
  0
VERTEX
  5
E003
  8
0
 62
7
 10
42.492178657937117
 20
58.593840700836239
 70
0
  0
VERTEX
  5
E004
  8
0
 62
7
 10
42.618958171794318
 20
58.677728775902068
 70
0
  0
SEQEND
  5
E005
  8
0
  0
POLYLINE
  5
E006
  8
0
 62
7
 66
1
 70
0
 10
0
 20
0
 30
0
  0
VERTEX
  5
E007
  8
0
 62
7
 10
47.275349229657976
 20
61.472562488310949
 70
0
  0
VERTEX
  5
E008
  8
0
 62
7
 10
47.443469889338182
 20
61.556450563376842
 70
0
  0
SEQEND
  5
E009
  8
0
  0
POLYLINE
  5
E00A
  8
0
 62
7
 66
1
 70
0
 10
0
 20
0
 30
0
  0
VERTEX
  5
E00B
  8
0
 62
7
 10
49.2225171979212
 20
61.938167143142522
 70
0
  0
VERTEX
  5
E00C
  8
0
 62
7
 10
49.2638583437442
 20
61.938167143142522
 70
0
  0
SEQEND
  5
E00D
  8
0
  0
POLYLINE
  5
E00E
  8
0
 62
7
 66
1
 70
0
 10
0
 20
0
 30
0
  0
VERTEX
  5
E00F
  8
0
 62
7
 10
46.682792806195032
 20
50.128207564931778
 70
0
  0
VERTEX
  5
E010
  8
0
 62
7
 10
46.9790710179265
 20
50.1698932203033
 70
0
  0
SEQEND
  5
E011
  8
0
  0
POLYLINE
  5
E012
  8
0
 62
7
 66
1
 70
0
 10
0
 20
0
 30
0
  0
VERTEX
  5
E013
  8
0
 62
7
 10
51.169685166184422
 20
49.703771801149031
 70
0
  0
VERTEX
  5
E014
  8
0
 62
7
 10
51.041527614133109
 20
49.662602910100269
 70
0
  0
SEQEND
  5
E015
  8
0
  0
POLYLINE
  5
E016
  8
0
 62
7
 66
1
 70
0
 10
0
 20
0
 30
0
  0
VERTEX
  5
E017
  8
0
 62
7
 10
47.0204121637495
 20
50.1698932203033
 70
0
  0
VERTEX
  5
E018
  8
0
 62
7
 10
47.0204121637495
 20
50.128207564931778
 70
0
  0
SEQEND
  5
E019
  8
0
  0
POLYLINE
  5
E01A
  8
0
 62
7
 66
1
 70
0
 10
0
 20
0
 30
0
  0
VERTEX
  5
E01B
  8
0
 62
7
 10
47.105850531783709
 20
50.085488380914711
 70
0
  0
VERTEX
  5
E01C
  8
0
 62
7
 10
47.0631313477666
 20
50.128207564931778
 70
0
  0
SEQEND
  5
E01D
  8
0
  0
POLYLINE
  5
E01E
  8
0
 62
7
 66
1
 70
0
 10
0
 20
0
 30
0
  0
VERTEX
  5
E01F
  8
0
 62
7
 10
46.9790710179265
 20
50.381938847420457
 70
0
  0
VERTEX
  5
E020
  8
0
 62
7
 10
47.0631313477666
 20
50.1698932203033
 70
0
  0
SEQEND
  5
E021
  8
0
  0
POLYLINE
  5
E022
  8
0
 62
7
 66
1
 70
0
 10
0
 20
0
 30
0
  0
VERTEX
  5
E023
  8
0
 62
7
 10
55.105362248533822
 20
47.884933639711363
 70
0
  0
VERTEX
  5
E024
  8
0
 62
7
 10
55.105362248533822
 20
46.7838811226255
 70
0
  0
SEQEND
  5
E025
  8
0
  0
POLYLINE
  5
E026
  8
0
 62
7
 66
1
 70
0
 10
0
 20
0
 30
0
  0
VERTEX
  5
E027
  8
0
 62
7
 10
54.639585338928029
 20
65.409445354080248
 70
0
  0
VERTEX
  5
E028
  8
0
 62
7
 10
54.935863550659541
 20
53.260488380120961
 70
0
  0
SEQEND
  5
E029
  8
0
  0
POLYLINE
  5
E02A
  8
0
 62
7
 66
1
 70
0
 10
0
 20
0
 30
0
  0
VERTEX
  5
E02B
  8
0
 62
7
 10
50.661189072561541
 20
47.968821714777192
 70
0
  0
VERTEX
  5
E02C
  8
0
 62
7
 10
50.40763004484716
 20
67.18711462446916
 70
0
  0
SEQEND
  5
E02D
  8
0
  0
POLYLINE
  5
E02E
  8
0
 62
7
 66
1
 70
0
 10
0
 20
0
 30
0
  0
VERTEX
  5
E02F
  8
0
 62
7
 10
54.682304522945131
 20
65.493505683920347
 70
0
  0
VERTEX
  5
E030
  8
0
 62
7
 10
54.767742890979342
 20
65.324179240820314
 70
0
  0
SEQEND
  5
E031
  8
0
  0
POLYLINE
  5
E032
  8
0
 62
7
 66
1
 70
0
 10
0
 20
0
 30
0
  0
VERTEX
  5
E033
  8
0
 62
7
 10
47.0631313477666
 20
50.128207564931778
 70
0
  0
VERTEX
  5
E034
  8
0
 62
7
 10
47.105850531783709
 20
50.00022226765477
 70
0
  0
SEQEND
  5
E035
  8
0
  0
POLYLINE
  5
E036
  8
0
 62
7
 66
1
 70
0
 10
0
 20
0
 30
0
  0
VERTEX
  5
E037
  8
0
 62
7
 10
50.322191676812949
 20
67.3564410675692
 70
0
  0
VERTEX
  5
E038
  8
0
 62
7
 10
50.40763004484716
 20
67.18711462446916
 70
0
  0
SEQEND
  5
E039
  8
0
  0
POLYLINE
  5
E03A
  8
0
 62
7
 66
1
 70
0
 10
0
 20
0
 30
0
  0
VERTEX
  5
E03B
  8
0
 62
7
 10
54.555525009087972
 20
65.577393758986176
 70
0
  0
VERTEX
  5
E03C
  8
0
 62
7
 10
54.639585338928029
 20
65.409445354080248
 70
0
  0
SEQEND
  5
E03D
  8
0
  0
POLYLINE
  5
E03E
  8
0
 62
7
 66
1
 70
0
 10
0
 20
0
 30
0
  0
VERTEX
  5
E03F
  8
0
 62
7
 10
49.941853135241381
 20
67.440845906957776
 70
0
  0
VERTEX
  5
E040
  8
0
 62
7
 10
49.983194281064371
 20
67.228455770292129
 70
0
  0
SEQEND
  5
E041
  8
0
  0
POLYLINE
  5
E042
  8
0
 62
7
 66
1
 70
0
 10
0
 20
0
 30
0
  0
VERTEX
  5
E043
  8
0
 62
7
 10
50.195412162955748
 20
67.3981267229407
 70
0
  0
VERTEX
  5
E044
  8
0
 62
7
 10
50.23813134697285
 20
67.18711462446916
 70
0
  0
SEQEND
  5
E045
  8
0
  0
POLYLINE
  5
E046
  8
0
 62
7
 66
1
 70
0
 10
0
 20
0
 30
0
  0
VERTEX
  5
E047
  8
0
 62
7
 10
42.153181262188539
 20
47.080159334357
 70
0
  0
VERTEX
  5
E048
  8
0
 62
7
 10
42.194522408011537
 20
47.122878518374108
 70
0
  0
SEQEND
  5
E049
  8
0
  0
POLYLINE
  5
E04A
  8
0
 62
7
 66
1
 70
0
 10
0
 20
0
 30
0
  0
VERTEX
  5
E04B
  8
0
 62
7
 10
43.295574925097377
 20
48.645438468080243
 70
0
  0
VERTEX
  5
E04C
  8
0
 62
7
 10
43.381013293131581
 20
48.85782860474589
 70
0
  0
SEQEND
  5
E04D
  8
0
  0
POLYLINE
  5
E1AC
  8
0
 62
7
 66
1
 70
8
  0
VERTEX
  5
E1AD
  8
0
 62
7
 10
42.1532
 20
47.1229
 30
0
 70
32
  0
VERTEX
  5
E1AE
  8
0
 62
7
 10
42.1532
 20
47.1229
 30
0
 70
32
  0
VERTEX
  5
E1AF
  8
0
 62
7
 10
42.1532
 20
47.1228
 30
0
 70
32
  0
VERTEX
  5
E1B0
  8
0
 62
7
 10
42.1532
 20
47.1228
 30
0
 70
32
  0
VERTEX
  5
E1B1
  8
0
 62
7
 10
42.1532
 20
47.1227
 30
0
 70
32
  0
VERTEX
  5
E1B2
  8
0
 62
7
 10
42.1532
 20
47.1226
 30
0
 70
32
  0
VERTEX
  5
E1B3
  8
0
 62
7
 10
42.1532
 20
47.1225
 30
0
 70
32
  0
VERTEX
  5
E1B4
  8
0
 62
7
 10
42.1532
 20
47.1224
 30
0
 70
32
  0
VERTEX
  5
E1B5
  8
0
 62
7
 10
42.1532
 20
47.1223
 30
0
 70
32
  0
VERTEX
  5
E1B6
  8
0
 62
7
 10
42.1532
 20
47.1221
 30
0
 70
32
  0
VERTEX
  5
E1B7
  8
0
 62
7
 10
42.1532
 20
47.1219
 30
0
 70
32
  0
VERTEX
  5
E1B8
  8
0
 62
7
 10
42.1532
 20
47.1217
 30
0
 70
32
  0
VERTEX
  5
E1B9
  8
0
 62
7
 10
42.1532
 20
47.1215
 30
0
 70
32
  0
VERTEX
  5
E1BA
  8
0
 62
7
 10
42.1532
 20
47.1213
 30
0
 70
32
  0
VERTEX
  5
E1BB
  8
0
 62
7
 10
42.1532
 20
47.121
 30
0
 70
32
  0
VERTEX
  5
E1BC
  8
0
 62
7
 10
42.1532
 20
47.1208
 30
0
 70
32
  0
VERTEX
  5
E1BD
  8
0
 62
7
 10
42.1532
 20
47.1205
 30
0
 70
32
  0
VERTEX
  5
E1BE
  8
0
 62
7
 10
42.1532
 20
47.1202
 30
0
 70
32
  0
VERTEX
  5
E1BF
  8
0
 62
7
 10
42.1532
 20
47.1199
 30
0
 70
32
  0
VERTEX
  5
E1C0
  8
0
 62
7
 10
42.1532
 20
47.1196
 30
0
 70
32
  0
VERTEX
  5
E1C1
  8
0
 62
7
 10
42.1532
 20
47.1192
 30
0
 70
32
  0
VERTEX
  5
E1C2
  8
0
 62
7
 10
42.1532
 20
47.1189
 30
0
 70
32
  0
VERTEX
  5
E1C3
  8
0
 62
7
 10
42.1532
 20
47.1185
 30
0
 70
32
  0
VERTEX
  5
E1C4
  8
0
 62
7
 10
42.1532
 20
47.1182
 30
0
 70
32
  0
VERTEX
  5
E1C5
  8
0
 62
7
 10
42.1532
 20
47.1178
 30
0
 70
32
  0
VERTEX
  5
E1C6
  8
0
 62
7
 10
42.1532
 20
47.1174
 30
0
 70
32
  0
VERTEX
  5
E1C7
  8
0
 62
7
 10
42.1532
 20
47.117
 30
0
 70
32
  0
VERTEX
  5
E1C8
  8
0
 62
7
 10
42.1532
 20
47.1166
 30
0
 70
32
  0
VERTEX
  5
E1C9
  8
0
 62
7
 10
42.1532
 20
47.1161
 30
0
 70
32
  0
VERTEX
  5
E1CA
  8
0
 62
7
 10
42.1532
 20
47.1157
 30
0
 70
32
  0
VERTEX
  5
E1CB
  8
0
 62
7
 10
42.1532
 20
47.1153
 30
0
 70
32
  0
VERTEX
  5
E1CC
  8
0
 62
7
 10
42.1532
 20
47.1148
 30
0
 70
32
  0
VERTEX
  5
E1CD
  8
0
 62
7
 10
42.1532
 20
47.1143
 30
0
 70
32
  0
VERTEX
  5
E1CE
  8
0
 62
7
 10
42.1532
 20
47.1139
 30
0
 70
32
  0
VERTEX
  5
E1CF
  8
0
 62
7
 10
42.1532
 20
47.1134
 30
0
 70
32
  0
VERTEX
  5
E1D0
  8
0
 62
7
 10
42.1532
 20
47.1129
 30
0
 70
32
  0
VERTEX
  5
E1D1
  8
0
 62
7
 10
42.1532
 20
47.1124
 30
0
 70
32
  0
VERTEX
  5
E1D2
  8
0
 62
7
 10
42.1532
 20
47.1119
 30
0
 70
32
  0
VERTEX
  5
E1D3
  8
0
 62
7
 10
42.1532
 20
47.1114
 30
0
 70
32
  0
VERTEX
  5
E1D4
  8
0
 62
7
 10
42.1532
 20
47.1109
 30
0
 70
32
  0
VERTEX
  5
E1D5
  8
0
 62
7
 10
42.1532
 20
47.1103
 30
0
 70
32
  0
VERTEX
  5
E1D6
  8
0
 62
7
 10
42.1532
 20
47.1098
 30
0
 70
32
  0
VERTEX
  5
E1D7
  8
0
 62
7
 10
42.1532
 20
47.1093
 30
0
 70
32
  0
VERTEX
  5
E1D8
  8
0
 62
7
 10
42.1532
 20
47.1087
 30
0
 70
32
  0
VERTEX
  5
E1D9
  8
0
 62
7
 10
42.1532
 20
47.1082
 30
0
 70
32
  0
VERTEX
  5
E1DA
  8
0
 62
7
 10
42.1532
 20
47.1076
 30
0
 70
32
  0
VERTEX
  5
E1DB
  8
0
 62
7
 10
42.1532
 20
47.1071
 30
0
 70
32
  0
VERTEX
  5
E1DC
  8
0
 62
7
 10
42.1532
 20
47.1065
 30
0
 70
32
  0
VERTEX
  5
E1DD
  8
0
 62
7
 10
42.1532
 20
47.1059
 30
0
 70
32
  0
VERTEX
  5
E1DE
  8
0
 62
7
 10
42.1532
 20
47.1054
 30
0
 70
32
  0
VERTEX
  5
E1DF
  8
0
 62
7
 10
42.1532
 20
47.1048
 30
0
 70
32
  0
VERTEX
  5
E1E0
  8
0
 62
7
 10
42.1532
 20
47.1042
 30
0
 70
32
  0
VERTEX
  5
E1E1
  8
0
 62
7
 10
42.1532
 20
47.1037
 30
0
 70
32
  0
VERTEX
  5
E1E2
  8
0
 62
7
 10
42.1532
 20
47.1031
 30
0
 70
32
  0
VERTEX
  5
E1E3
  8
0
 62
7
 10
42.1532
 20
47.1025
 30
0
 70
32
  0
VERTEX
  5
E1E4
  8
0
 62
7
 10
42.1532
 20
47.1019
 30
0
 70
32
  0
VERTEX
  5
E1E5
  8
0
 62
7
 10
42.1532
 20
47.1014
 30
0
 70
32
  0
VERTEX
  5
E1E6
  8
0
 62
7
 10
42.1532
 20
47.1008
 30
0
 70
32
  0
VERTEX
  5
E1E7
  8
0
 62
7
 10
42.1532
 20
47.1002
 30
0
 70
32
  0
VERTEX
  5
E1E8
  8
0
 62
7
 10
42.1532
 20
47.0997
 30
0
 70
32
  0
VERTEX
  5
E1E9
  8
0
 62
7
 10
42.1532
 20
47.0991
 30
0
 70
32
  0
VERTEX
  5
E1EA
  8
0
 62
7
 10
42.1532
 20
47.0985
 30
0
 70
32
  0
VERTEX
  5
E1EB
  8
0
 62
7
 10
42.1532
 20
47.0979
 30
0
 70
32
  0
VERTEX
  5
E1EC
  8
0
 62
7
 10
42.1532
 20
47.0974
 30
0
 70
32
  0
VERTEX
  5
E1ED
  8
0
 62
7
 10
42.1532
 20
47.0968
 30
0
 70
32
  0
VERTEX
  5
E1EE
  8
0
 62
7
 10
42.1532
 20
47.0963
 30
0
 70
32
  0
VERTEX
  5
E1EF
  8
0
 62
7
 10
42.1532
 20
47.0957
 30
0
 70
32
  0
VERTEX
  5
E1F0
  8
0
 62
7
 10
42.1532
 20
47.0951
 30
0
 70
32
  0
VERTEX
  5
E1F1
  8
0
 62
7
 10
42.1532
 20
47.0946
 30
0
 70
32
  0
VERTEX
  5
E1F2
  8
0
 62
7
 10
42.1532
 20
47.094
 30
0
 70
32
  0
VERTEX
  5
E1F3
  8
0
 62
7
 10
42.1532
 20
47.0935
 30
0
 70
32
  0
VERTEX
  5
E1F4
  8
0
 62
7
 10
42.1532
 20
47.093
 30
0
 70
32
  0
VERTEX
  5
E1F5
  8
0
 62
7
 10
42.1532
 20
47.0924
 30
0
 70
32
  0
VERTEX
  5
E1F6
  8
0
 62
7
 10
42.1532
 20
47.0919
 30
0
 70
32
  0
VERTEX
  5
E1F7
  8
0
 62
7
 10
42.1532
 20
47.0914
 30
0
 70
32
  0
VERTEX
  5
E1F8
  8
0
 62
7
 10
42.1532
 20
47.0909
 30
0
 70
32
  0
VERTEX
  5
E1F9
  8
0
 62
7
 10
42.1532
 20
47.0904
 30
0
 70
32
  0
VERTEX
  5
E1FA
  8
0
 62
7
 10
42.1532
 20
47.0899
 30
0
 70
32
  0
VERTEX
  5
E1FB
  8
0
 62
7
 10
42.1532
 20
47.0894
 30
0
 70
32
  0
VERTEX
  5
E1FC
  8
0
 62
7
 10
42.1532
 20
47.0889
 30
0
 70
32
  0
VERTEX
  5
E1FD
  8
0
 62
7
 10
42.1532
 20
47.0885
 30
0
 70
32
  0
VERTEX
  5
E1FE
  8
0
 62
7
 10
42.1532
 20
47.088
 30
0
 70
32
  0
VERTEX
  5
E1FF
  8
0
 62
7
 10
42.1532
 20
47.0875
 30
0
 70
32
  0
VERTEX
  5
E200
  8
0
 62
7
 10
42.1532
 20
47.0871
 30
0
 70
32
  0
VERTEX
  5
E201
  8
0
 62
7
 10
42.1532
 20
47.0867
 30
0
 70
32
  0
VERTEX
  5
E202
  8
0
 62
7
 10
42.1532
 20
47.0863
 30
0
 70
32
  0
VERTEX
  5
E203
  8
0
 62
7
 10
42.1532
 20
47.0858
 30
0
 70
32
  0
VERTEX
  5
E204
  8
0
 62
7
 10
42.1532
 20
47.0854
 30
0
 70
32
  0
VERTEX
  5
E205
  8
0
 62
7
 10
42.1532
 20
47.0851
 30
0
 70
32
  0
VERTEX
  5
E206
  8
0
 62
7
 10
42.1532
 20
47.0847
 30
0
 70
32
  0
VERTEX
  5
E207
  8
0
 62
7
 10
42.1532
 20
47.0843
 30
0
 70
32
  0
VERTEX
  5
E208
  8
0
 62
7
 10
42.1532
 20
47.084
 30
0
 70
32
  0
VERTEX
  5
E209
  8
0
 62
7
 10
42.1532
 20
47.0836
 30
0
 70
32
  0
VERTEX
  5
E20A
  8
0
 62
7
 10
42.1532
 20
47.0833
 30
0
 70
32
  0
VERTEX
  5
E20B
  8
0
 62
7
 10
42.1532
 20
47.083
 30
0
 70
32
  0
VERTEX
  5
E20C
  8
0
 62
7
 10
42.1532
 20
47.0827
 30
0
 70
32
  0
VERTEX
  5
E20D
  8
0
 62
7
 10
42.1532
 20
47.0824
 30
0
 70
32
  0
VERTEX
  5
E20E
  8
0
 62
7
 10
42.1532
 20
47.0821
 30
0
 70
32
  0
VERTEX
  5
E20F
  8
0
 62
7
 10
42.1532
 20
47.0819
 30
0
 70
32
  0
VERTEX
  5
E210
  8
0
 62
7
 10
42.1532
 20
47.0816
 30
0
 70
32
  0
VERTEX
  5
E211
  8
0
 62
7
 10
42.1532
 20
47.0814
 30
0
 70
32
  0
VERTEX
  5
E212
  8
0
 62
7
 10
42.1532
 20
47.0812
 30
0
 70
32
  0
VERTEX
  5
E213
  8
0
 62
7
 10
42.1532
 20
47.081
 30
0
 70
32
  0
VERTEX
  5
E214
  8
0
 62
7
 10
42.1532
 20
47.0809
 30
0
 70
32
  0
VERTEX
  5
E215
  8
0
 62
7
 10
42.1532
 20
47.0807
 30
0
 70
32
  0
VERTEX
  5
E216
  8
0
 62
7
 10
42.1532
 20
47.0806
 30
0
 70
32
  0
VERTEX
  5
E217
  8
0
 62
7
 10
42.1532
 20
47.0805
 30
0
 70
32
  0
VERTEX
  5
E218
  8
0
 62
7
 10
42.1532
 20
47.0804
 30
0
 70
32
  0
VERTEX
  5
E219
  8
0
 62
7
 10
42.1532
 20
47.0803
 30
0
 70
32
  0
VERTEX
  5
E21A
  8
0
 62
7
 10
42.1532
 20
47.0802
 30
0
 70
32
  0
VERTEX
  5
E21B
  8
0
 62
7
 10
42.1532
 20
47.0802
 30
0
 70
32
  0
VERTEX
  5
E21C
  8
0
 62
7
 10
42.1532
 20
47.0802
 30
0
 70
32
  0
VERTEX
  5
E21D
  8
0
 62
7
 10
42.1532
 20
47.0802
 30
0
 70
32
  0
VERTEX
  5
E21E
  8
0
 62
7
 10
42.1532
 20
47.0802
 30
0
 70
32
  0
VERTEX
  5
E21F
  8
0
 62
7
 10
42.1532
 20
47.0802
 30
0
 70
32
  0
VERTEX
  5
E220
  8
0
 62
7
 10
42.1532
 20
47.0803
 30
0
 70
32
  0
VERTEX
  5
E221
  8
0
 62
7
 10
42.1532
 20
47.0804
 30
0
 70
32
  0
VERTEX
  5
E222
  8
0
 62
7
 10
42.1532
 20
47.0805
 30
0
 70
32
  0
VERTEX
  5
E223
  8
0
 62
7
 10
42.1532
 20
47.0806
 30
0
 70
32
  0
VERTEX
  5
E224
  8
0
 62
7
 10
42.1532
 20
47.0807
 30
0
 70
32
  0
VERTEX
  5
E225
  8
0
 62
7
 10
42.1532
 20
47.0809
 30
0
 70
32
  0
VERTEX
  5
E226
  8
0
 62
7
 10
42.1532
 20
47.081
 30
0
 70
32
  0
VERTEX
  5
E227
  8
0
 62
7
 10
42.1532
 20
47.0812
 30
0
 70
32
  0
VERTEX
  5
E228
  8
0
 62
7
 10
42.1532
 20
47.0814
 30
0
 70
32
  0
VERTEX
  5
E229
  8
0
 62
7
 10
42.1532
 20
47.0816
 30
0
 70
32
  0
VERTEX
  5
E22A
  8
0
 62
7
 10
42.1532
 20
47.0819
 30
0
 70
32
  0
VERTEX
  5
E22B
  8
0
 62
7
 10
42.1532
 20
47.0821
 30
0
 70
32
  0
VERTEX
  5
E22C
  8
0
 62
7
 10
42.1532
 20
47.0824
 30
0
 70
32
  0
VERTEX
  5
E22D
  8
0
 62
7
 10
42.1532
 20
47.0827
 30
0
 70
32
  0
VERTEX
  5
E22E
  8
0
 62
7
 10
42.1532
 20
47.083
 30
0
 70
32
  0
VERTEX
  5
E22F
  8
0
 62
7
 10
42.1532
 20
47.0833
 30
0
 70
32
  0
VERTEX
  5
E230
  8
0
 62
7
 10
42.1532
 20
47.0836
 30
0
 70
32
  0
VERTEX
  5
E231
  8
0
 62
7
 10
42.1532
 20
47.084
 30
0
 70
32
  0
VERTEX
  5
E232
  8
0
 62
7
 10
42.1532
 20
47.0843
 30
0
 70
32
  0
VERTEX
  5
E233
  8
0
 62
7
 10
42.1532
 20
47.0847
 30
0
 70
32
  0
VERTEX
  5
E234
  8
0
 62
7
 10
42.1532
 20
47.0851
 30
0
 70
32
  0
VERTEX
  5
E235
  8
0
 62
7
 10
42.1532
 20
47.0854
 30
0
 70
32
  0
VERTEX
  5
E236
  8
0
 62
7
 10
42.1532
 20
47.0858
 30
0
 70
32
  0
VERTEX
  5
E237
  8
0
 62
7
 10
42.1532
 20
47.0863
 30
0
 70
32
  0
VERTEX
  5
E238
  8
0
 62
7
 10
42.1532
 20
47.0867
 30
0
 70
32
  0
VERTEX
  5
E239
  8
0
 62
7
 10
42.1532
 20
47.0871
 30
0
 70
32
  0
VERTEX
  5
E23A
  8
0
 62
7
 10
42.1532
 20
47.0875
 30
0
 70
32
  0
VERTEX
  5
E23B
  8
0
 62
7
 10
42.1532
 20
47.088
 30
0
 70
32
  0
VERTEX
  5
E23C
  8
0
 62
7
 10
42.1532
 20
47.0885
 30
0
 70
32
  0
VERTEX
  5
E23D
  8
0
 62
7
 10
42.1532
 20
47.0889
 30
0
 70
32
  0
VERTEX
  5
E23E
  8
0
 62
7
 10
42.1532
 20
47.0894
 30
0
 70
32
  0
VERTEX
  5
E23F
  8
0
 62
7
 10
42.1532
 20
47.0899
 30
0
 70
32
  0
VERTEX
  5
E240
  8
0
 62
7
 10
42.1532
 20
47.0904
 30
0
 70
32
  0
VERTEX
  5
E241
  8
0
 62
7
 10
42.1532
 20
47.0909
 30
0
 70
32
  0
VERTEX
  5
E242
  8
0
 62
7
 10
42.1532
 20
47.0914
 30
0
 70
32
  0
VERTEX
  5
E243
  8
0
 62
7
 10
42.1532
 20
47.0919
 30
0
 70
32
  0
VERTEX
  5
E244
  8
0
 62
7
 10
42.1532
 20
47.0924
 30
0
 70
32
  0
VERTEX
  5
E245
  8
0
 62
7
 10
42.1532
 20
47.093
 30
0
 70
32
  0
VERTEX
  5
E246
  8
0
 62
7
 10
42.1532
 20
47.0935
 30
0
 70
32
  0
VERTEX
  5
E247
  8
0
 62
7
 10
42.1532
 20
47.094
 30
0
 70
32
  0
VERTEX
  5
E248
  8
0
 62
7
 10
42.1532
 20
47.0946
 30
0
 70
32
  0
VERTEX
  5
E249
  8
0
 62
7
 10
42.1532
 20
47.0951
 30
0
 70
32
  0
VERTEX
  5
E24A
  8
0
 62
7
 10
42.1532
 20
47.0957
 30
0
 70
32
  0
VERTEX
  5
E24B
  8
0
 62
7
 10
42.1532
 20
47.0963
 30
0
 70
32
  0
VERTEX
  5
E24C
  8
0
 62
7
 10
42.1532
 20
47.0968
 30
0
 70
32
  0
VERTEX
  5
E24D
  8
0
 62
7
 10
42.1532
 20
47.0974
 30
0
 70
32
  0
VERTEX
  5
E24E
  8
0
 62
7
 10
42.1532
 20
47.0979
 30
0
 70
32
  0
VERTEX
  5
E24F
  8
0
 62
7
 10
42.1532
 20
47.0985
 30
0
 70
32
  0
VERTEX
  5
E250
  8
0
 62
7
 10
42.1532
 20
47.0991
 30
0
 70
32
  0
VERTEX
  5
E251
  8
0
 62
7
 10
42.1532
 20
47.0997
 30
0
 70
32
  0
VERTEX
  5
E252
  8
0
 62
7
 10
42.1532
 20
47.1002
 30
0
 70
32
  0
VERTEX
  5
E253
  8
0
 62
7
 10
42.1532
 20
47.1008
 30
0
 70
32
  0
VERTEX
  5
E254
  8
0
 62
7
 10
42.1532
 20
47.1014
 30
0
 70
32
  0
VERTEX
  5
E255
  8
0
 62
7
 10
42.1532
 20
47.1019
 30
0
 70
32
  0
VERTEX
  5
E256
  8
0
 62
7
 10
42.1532
 20
47.1025
 30
0
 70
32
  0
VERTEX
  5
E257
  8
0
 62
7
 10
42.1532
 20
47.1031
 30
0
 70
32
  0
VERTEX
  5
E258
  8
0
 62
7
 10
42.1532
 20
47.1037
 30
0
 70
32
  0
VERTEX
  5
E259
  8
0
 62
7
 10
42.1532
 20
47.1042
 30
0
 70
32
  0
VERTEX
  5
E25A
  8
0
 62
7
 10
42.1532
 20
47.1048
 30
0
 70
32
  0
VERTEX
  5
E25B
  8
0
 62
7
 10
42.1532
 20
47.1054
 30
0
 70
32
  0
VERTEX
  5
E25C
  8
0
 62
7
 10
42.1532
 20
47.1059
 30
0
 70
32
  0
VERTEX
  5
E25D
  8
0
 62
7
 10
42.1532
 20
47.1065
 30
0
 70
32
  0
VERTEX
  5
E25E
  8
0
 62
7
 10
42.1532
 20
47.1071
 30
0
 70
32
  0
VERTEX
  5
E25F
  8
0
 62
7
 10
42.1532
 20
47.1076
 30
0
 70
32
  0
VERTEX
  5
E260
  8
0
 62
7
 10
42.1532
 20
47.1082
 30
0
 70
32
  0
VERTEX
  5
E261
  8
0
 62
7
 10
42.1532
 20
47.1087
 30
0
 70
32
  0
VERTEX
  5
E262
  8
0
 62
7
 10
42.1532
 20
47.1093
 30
0
 70
32
  0
VERTEX
  5
E263
  8
0
 62
7
 10
42.1532
 20
47.1098
 30
0
 70
32
  0
VERTEX
  5
E264
  8
0
 62
7
 10
42.1532
 20
47.1103
 30
0
 70
32
  0
VERTEX
  5
E265
  8
0
 62
7
 10
42.1532
 20
47.1109
 30
0
 70
32
  0
VERTEX
  5
E266
  8
0
 62
7
 10
42.1532
 20
47.1114
 30
0
 70
32
  0
VERTEX
  5
E267
  8
0
 62
7
 10
42.1532
 20
47.1119
 30
0
 70
32
  0
VERTEX
  5
E268
  8
0
 62
7
 10
42.1532
 20
47.1124
 30
0
 70
32
  0
VERTEX
  5
E269
  8
0
 62
7
 10
42.1532
 20
47.1129
 30
0
 70
32
  0
VERTEX
  5
E26A
  8
0
 62
7
 10
42.1532
 20
47.1134
 30
0
 70
32
  0
VERTEX
  5
E26B
  8
0
 62
7
 10
42.1532
 20
47.1139
 30
0
 70
32
  0
VERTEX
  5
E26C
  8
0
 62
7
 10
42.1532
 20
47.1143
 30
0
 70
32
  0
VERTEX
  5
E26D
  8
0
 62
7
 10
42.1532
 20
47.1148
 30
0
 70
32
  0
VERTEX
  5
E26E
  8
0
 62
7
 10
42.1532
 20
47.1153
 30
0
 70
32
  0
VERTEX
  5
E26F
  8
0
 62
7
 10
42.1532
 20
47.1157
 30
0
 70
32
  0
VERTEX
  5
E270
  8
0
 62
7
 10
42.1532
 20
47.1161
 30
0
 70
32
  0
VERTEX
  5
E271
  8
0
 62
7
 10
42.1532
 20
47.1166
 30
0
 70
32
  0
VERTEX
  5
E272
  8
0
 62
7
 10
42.1532
 20
47.117
 30
0
 70
32
  0
VERTEX
  5
E273
  8
0
 62
7
 10
42.1532
 20
47.1174
 30
0
 70
32
  0
VERTEX
  5
E274
  8
0
 62
7
 10
42.1532
 20
47.1178
 30
0
 70
32
  0
VERTEX
  5
E275
  8
0
 62
7
 10
42.1532
 20
47.1182
 30
0
 70
32
  0
VERTEX
  5
E276
  8
0
 62
7
 10
42.1532
 20
47.1185
 30
0
 70
32
  0
VERTEX
  5
E277
  8
0
 62
7
 10
42.1532
 20
47.1189
 30
0
 70
32
  0
VERTEX
  5
E278
  8
0
 62
7
 10
42.1532
 20
47.1192
 30
0
 70
32
  0
VERTEX
  5
E279
  8
0
 62
7
 10
42.1532
 20
47.1196
 30
0
 70
32
  0
VERTEX
  5
E27A
  8
0
 62
7
 10
42.1532
 20
47.1199
 30
0
 70
32
  0
VERTEX
  5
E27B
  8
0
 62
7
 10
42.1532
 20
47.1202
 30
0
 70
32
  0
VERTEX
  5
E27C
  8
0
 62
7
 10
42.1532
 20
47.1205
 30
0
 70
32
  0
VERTEX
  5
E27D
  8
0
 62
7
 10
42.1532
 20
47.1208
 30
0
 70
32
  0
VERTEX
  5
E27E
  8
0
 62
7
 10
42.1532
 20
47.121
 30
0
 70
32
  0
VERTEX
  5
E27F
  8
0
 62
7
 10
42.1532
 20
47.1213
 30
0
 70
32
  0
VERTEX
  5
E280
  8
0
 62
7
 10
42.1532
 20
47.1215
 30
0
 70
32
  0
VERTEX
  5
E281
  8
0
 62
7
 10
42.1532
 20
47.1217
 30
0
 70
32
  0
VERTEX
  5
E282
  8
0
 62
7
 10
42.1532
 20
47.1219
 30
0
 70
32
  0
VERTEX
  5
E283
  8
0
 62
7
 10
42.1532
 20
47.1221
 30
0
 70
32
  0
VERTEX
  5
E284
  8
0
 62
7
 10
42.1532
 20
47.1223
 30
0
 70
32
  0
VERTEX
  5
E285
  8
0
 62
7
 10
42.1532
 20
47.1224
 30
0
 70
32
  0
VERTEX
  5
E286
  8
0
 62
7
 10
42.1532
 20
47.1225
 30
0
 70
32
  0
VERTEX
  5
E287
  8
0
 62
7
 10
42.1532
 20
47.1226
 30
0
 70
32
  0
VERTEX
  5
E288
  8
0
 62
7
 10
42.1532
 20
47.1227
 30
0
 70
32
  0
VERTEX
  5
E289
  8
0
 62
7
 10
42.1532
 20
47.1228
 30
0
 70
32
  0
VERTEX
  5
E28A
  8
0
 62
7
 10
42.1532
 20
47.1228
 30
0
 70
32
  0
VERTEX
  5
E28B
  8
0
 62
7
 10
42.1532
 20
47.1229
 30
0
 70
32
  0
VERTEX
  5
E28C
  8
0
 62
7
 10
42.1532
 20
47.1229
 30
0
 70
32
  0
SEQEND
  5
E28D
  8
0
  0
POLYLINE
  5
E04F
  8
0
 62
7
 66
1
 70
0
 10
0
 20
0
 30
0
  0
VERTEX
  5
E050
  8
0
 62
7
 10
55.190800616568019
 20
48.222552997265858
 70
0
  0
VERTEX
  5
E051
  8
0
 62
7
 10
55.232141762391009
 20
46.741161938608421
 70
0
  0
SEQEND
  5
E052
  8
0
  0
POLYLINE
  5
E053
  8
0
 62
7
 66
1
 70
0
 10
0
 20
0
 30
0
  0
VERTEX
  5
E054
  8
0
 62
7
 10
54.767742890979342
 20
65.324179240820314
 70
0
  0
VERTEX
  5
E055
  8
0
 62
7
 10
55.064021102710818
 20
53.3874401487524
 70
0
  0
SEQEND
  5
E056
  8
0
  0
POLYLINE
  5
E057
  8
0
 62
7
 66
1
 70
0
 10
0
 20
0
 30
0
  0
VERTEX
  5
E058
  8
0
 62
7
 10
43.591853136828881
 20
47.884933639711363
 70
0
  0
VERTEX
  5
E059
  8
0
 62
7
 10
43.591853136828881
 20
47.926102530760119
 70
0
  0
SEQEND
  5
E05A
  8
0
  0
POLYLINE
  5
E05B
  8
0
 62
7
 66
1
 70
0
 10
0
 20
0
 30
0
  0
VERTEX
  5
E05C
  8
0
 62
7
 10
43.677291504863049
 20
48.900547788763021
 70
0
  0
VERTEX
  5
E05D
  8
0
 62
7
 10
43.677291504863049
 20
48.815109420728817
 70
0
  0
SEQEND
  5
E05E
  8
0
  0
POLYLINE
  5
E05F
  8
0
 62
7
 66
1
 70
0
 10
0
 20
0
 30
0
  0
VERTEX
  5
E060
  8
0
 62
7
 10
43.507792806988782
 20
48.900547788763021
 70
0
  0
VERTEX
  5
E061
  8
0
 62
7
 10
43.677291504863049
 20
48.773940529680061
 70
0
  0
SEQEND
  5
E062
  8
0
  0
POLYLINE
  5
E063
  8
0
 62
7
 66
1
 70
0
 10
0
 20
0
 30
0
  0
VERTEX
  5
E064
  8
0
 62
7
 10
43.845412164543262
 20
48.900547788763021
 70
0
  0
VERTEX
  5
E065
  8
0
 62
7
 10
43.804071018720258
 20
48.815109420728817
 70
0
  0
SEQEND
  5
E066
  8
0
  0
POLYLINE
  5
E067
  8
0
 62
7
 66
1
 70
0
 10
0
 20
0
 30
0
  0
VERTEX
  5
E068
  8
0
 62
7
 10
44.311189074149027
 20
49.407838098966039
 70
0
  0
VERTEX
  5
E069
  8
0
 62
7
 10
44.227128744308928
 20
49.1968260004945
 70
0
  0
SEQEND
  5
E06A
  8
0
  0
POLYLINE
  5
E06B
  8
0
 62
7
 66
1
 70
0
 10
0
 20
0
 30
0
  0
VERTEX
  5
E06C
  8
0
 62
7
 10
54.767742890979342
 20
65.324179240820314
 70
0
  0
VERTEX
  5
E06D
  8
0
 62
7
 10
55.064021102710818
 20
64.774169746600165
 70
0
  0
VERTEX
  5
E06E
  8
0
 62
7
 10
55.232141762391009
 20
64.181441068362943
 70
0
  0
SEQEND
  5
E06F
  8
0
  0
POLYLINE
  5
E070
  8
0
 62
7
 66
1
 70
0
 10
0
 20
0
 30
0
  0
VERTEX
  5
E071
  8
0
 62
7
 10
43.46507362297168
 20
47.756776087660093
 70
0
  0
VERTEX
  5
E072
  8
0
 62
7
 10
43.338294109114472
 20
47.756776087660093
 70
0
  0
VERTEX
  5
E073
  8
0
 62
7
 10
43.295574925097377
 20
47.884933639711363
 70
0
  0
SEQEND
  5
E074
  8
0
  0
POLYLINE
  5
E075
  8
0
 62
7
 66
1
 70
0
 10
0
 20
0
 30
0
  0
VERTEX
  5
E076
  8
0
 62
7
 10
43.973569716594561
 20
48.053226554165832
 70
0
  0
VERTEX
  5
E077
  8
0
 62
7
 10
43.46507362297168
 20
47.756776087660093
 70
0
  0
SEQEND
  5
E078
  8
0
  0
POLYLINE
  5
E079
  8
0
 62
7
 66
1
 70
0
 10
0
 20
0
 30
0
  0
VERTEX
  5
E07A
  8
0
 62
7
 10
44.184409560291833
 20
48.392223949914381
 70
0
  0
VERTEX
  5
E07B
  8
0
 62
7
 10
44.100349230451727
 20
48.222552997265858
 70
0
  0
VERTEX
  5
E07C
  8
0
 62
7
 10
43.973569716594561
 20
48.053226554165832
 70
0
  0
SEQEND
  5
E07D
  8
0
  0
POLYLINE
  5
E07E
  8
0
 62
7
 66
1
 70
0
 10
0
 20
0
 30
0
  0
VERTEX
  5
E07F
  8
0
 62
7
 10
44.184409560291833
 20
48.392223949914381
 70
0
  0
VERTEX
  5
E080
  8
0
 62
7
 10
44.227128744308928
 20
49.1968260004945
 70
0
  0
VERTEX
  5
E081
  8
0
 62
7
 10
45.624459473126272
 20
49.703771801149031
 70
0
  0
VERTEX
  5
E082
  8
0
 62
7
 10
47.105850531783709
 20
50.00022226765477
 70
0
  0
SEQEND
  5
E083
  8
0
  0
POLYLINE
  5
E084
  8
0
 62
7
 66
1
 70
0
 10
0
 20
0
 30
0
  0
VERTEX
  5
E085
  8
0
 62
7
 10
47.105850531783709
 20
50.085488380914711
 70
0
  0
VERTEX
  5
E086
  8
0
 62
7
 10
47.189910861623808
 20
50.085488380914711
 70
0
  0
VERTEX
  5
E087
  8
0
 62
7
 10
47.443469889338182
 20
61.556450563376842
 70
0
  0
SEQEND
  5
E088
  8
0
  0
POLYLINE
  5
E089
  8
0
 62
7
 66
1
 70
0
 10
0
 20
0
 30
0
  0
VERTEX
  5
E08A
  8
0
 62
7
 10
47.571627441389481
 20
61.641888931410989
 70
0
  0
VERTEX
  5
E08B
  8
0
 62
7
 10
48.75674028831542
 20
61.725777006476818
 70
0
  0
VERTEX
  5
E08C
  8
0
 62
7
 10
49.899133951224279
 20
61.683057822459737
 70
0
  0
SEQEND
  5
E08D
  8
0
  0
POLYLINE
  5
E08E
  8
0
 62
7
 66
1
 70
0
 10
0
 20
0
 30
0
  0
VERTEX
  5
E08F
  8
0
 62
7
 10
47.189910861623808
 20
50.085488380914711
 70
0
  0
VERTEX
  5
E090
  8
0
 62
7
 10
47.0631313477666
 20
50.1698932203033
 70
0
  0
SEQEND
  5
E091
  8
0
  0
POLYLINE
  5
E092
  8
0
 62
7
 66
1
 70
0
 10
0
 20
0
 30
0
  0
VERTEX
  5
E093
  8
0
 62
7
 10
50.534409558704333
 20
47.968821714777192
 70
0
  0
VERTEX
  5
E094
  8
0
 62
7
 10
50.23813134697285
 20
67.18711462446916
 70
0
  0
SEQEND
  5
E095
  8
0
  0
POLYLINE
  5
E096
  8
0
 62
7
 66
1
 70
0
 10
0
 20
0
 30
0
  0
VERTEX
  5
E097
  8
0
 62
7
 10
47.275349229657976
 20
61.472562488310949
 70
0
  0
VERTEX
  5
E098
  8
0
 62
7
 10
47.0631313477666
 20
50.1698932203033
 70
0
  0
SEQEND
  5
E099
  8
0
  0
POLYLINE
  5
E09A
  8
0
 62
7
 66
1
 70
0
 10
0
 20
0
 30
0
  0
VERTEX
  5
E09B
  8
0
 62
7
 10
42.279960776045712
 20
47.460497875928553
 70
0
  0
VERTEX
  5
E09C
  8
0
 62
7
 10
42.618958171794318
 20
58.677728775902068
 70
0
  0
SEQEND
  5
E09D
  8
0
  0
POLYLINE
  5
E09E
  8
0
 62
7
 66
1
 70
0
 10
0
 20
0
 30
0
  0
VERTEX
  5
E09F
  8
0
 62
7
 10
47.105850531783709
 20
50.00022226765477
 70
0
  0
VERTEX
  5
E0A0
  8
0
 62
7
 10
47.105850531783709
 20
50.085488380914711
 70
0
  0
SEQEND
  5
E0A1
  8
0
  0
POLYLINE
  5
E0A2
  8
0
 62
7
 66
1
 70
0
 10
0
 20
0
 30
0
  0
VERTEX
  5
E0A3
  8
0
 62
7
 10
42.153181262188539
 20
47.122878518374108
 70
0
  0
VERTEX
  5
E0A4
  8
0
 62
7
 10
42.153181262188539
 20
47.080159334357
 70
0
  0
SEQEND
  5
E0A5
  8
0
  0
POLYLINE
  5
E0A6
  8
0
 62
7
 66
1
 70
0
 10
0
 20
0
 30
0
  0
VERTEX
  5
E0A7
  8
0
 62
7
 10
47.0204121637495
 20
50.128207564931778
 70
0
  0
VERTEX
  5
E0A8
  8
0
 62
7
 10
47.0204121637495
 20
50.1698932203033
 70
0
  0
SEQEND
  5
E0A9
  8
0
  0
POLYLINE
  5
E0AA
  8
0
 62
7
 66
1
 70
0
 10
0
 20
0
 30
0
  0
VERTEX
  5
E0AB
  8
0
 62
7
 10
49.2225171979212
 20
61.938167143142522
 70
0
  0
VERTEX
  5
E0AC
  8
0
 62
7
 10
49.433357041618493
 20
61.979508288965491
 70
0
  0
VERTEX
  5
E0AD
  8
0
 62
7
 10
49.5601365554757
 20
62.19172617085686
 70
0
  0
SEQEND
  5
E0AE
  8
0
  0
POLYLINE
  5
E0AF
  8
0
 62
7
 66
1
 70
0
 10
0
 20
0
 30
0
  0
VERTEX
  5
E0B0
  8
0
 62
7
 10
49.2225171979212
 20
61.938167143142522
 70
0
  0
VERTEX
  5
E0B1
  8
0
 62
7
 10
49.899133951224279
 20
61.683057822459737
 70
0
  0
VERTEX
  5
E0B2
  8
0
 62
7
 10
49.983194281064371
 20
67.228455770292129
 70
0
  0
VERTEX
  5
E0B3
  8
0
 62
7
 10
49.686916069332867
 20
67.18711462446916
 70
0
  0
SEQEND
  5
E0B4
  8
0
  0
POLYLINE
  5
E0B5
  8
0
 62
7
 66
1
 70
0
 10
0
 20
0
 30
0
  0
VERTEX
  5
E0B6
  8
0
 62
7
 10
44.141690376274717
 20
49.027155047845923
 70
0
  0
VERTEX
  5
E0B7
  8
0
 62
7
 10
43.804071018720258
 20
48.815109420728817
 70
0
  0
VERTEX
  5
E0B8
  8
0
 62
7
 10
43.804071018720258
 20
48.053226554165832
 70
0
  0
SEQEND
  5
E0B9
  8
0
  0
POLYLINE
  5
E0BA
  8
0
 62
7
 66
1
 70
0
 10
0
 20
0
 30
0
  0
VERTEX
  5
E0BB
  8
0
 62
7
 10
49.602855739492782
 20
66.721509969637651
 70
0
  0
VERTEX
  5
E0BC
  8
0
 62
7
 10
49.5601365554757
 20
62.19172617085686
 70
0
  0
VERTEX
  5
E0BD
  8
0
 62
7
 10
49.899133951224279
 20
61.683057822459737
 70
0
  0
SEQEND
  5
E0BE
  8
0
  0
POLYLINE
  5
E0BF
  8
0
 62
7
 66
1
 70
0
 10
0
 20
0
 30
0
  0
VERTEX
  5
E0C0
  8
0
 62
7
 10
42.492178657937117
 20
58.636559884853312
 70
0
  0
VERTEX
  5
E0C1
  8
0
 62
7
 10
42.576238987777216
 20
58.763167143936272
 70
0
  0
SEQEND
  5
E0C2
  8
0
  0
POLYLINE
  5
E0C3
  8
0
 62
7
 66
1
 70
0
 10
0
 20
0
 30
0
  0
VERTEX
  5
E0C4
  8
0
 62
7
 10
42.492178657937117
 20
58.550777007270568
 70
0
  0
VERTEX
  5
E0C5
  8
0
 62
7
 10
42.492178657937117
 20
58.636559884853312
 70
0
  0
SEQEND
  5
E0C6
  8
0
  0
POLYLINE
  5
E0C7
  8
0
 62
7
 66
1
 70
0
 10
0
 20
0
 30
0
  0
VERTEX
  5
E0C8
  8
0
 62
7
 10
43.591853136828881
 20
47.926102530760119
 70
0
  0
VERTEX
  5
E0C9
  8
0
 62
7
 10
43.591853136828881
 20
48.688157652097367
 70
0
  0
VERTEX
  5
E0CA
  8
0
 62
7
 10
43.677291504863049
 20
48.773940529680061
 70
0
  0
VERTEX
  5
E0CB
  8
0
 62
7
 10
43.634572320845948
 20
47.968821714777192
 70
0
  0
SEQEND
  5
E0CC
  8
0
  0
POLYLINE
  5
E0CD
  8
0
 62
7
 66
1
 70
0
 10
0
 20
0
 30
0
  0
VERTEX
  5
E0CE
  8
0
 62
7
 10
43.677291504863049
 20
48.773940529680061
 70
0
  0
VERTEX
  5
E0CF
  8
0
 62
7
 10
43.677291504863049
 20
48.815109420728817
 70
0
  0
VERTEX
  5
E0D0
  8
0
 62
7
 10
43.804071018720258
 20
48.815109420728817
 70
0
  0
SEQEND
  5
E0D1
  8
0
  0
POLYLINE
  5
E0D2
  8
0
 62
7
 66
1
 70
0
 10
0
 20
0
 30
0
  0
VERTEX
  5
E0D3
  8
0
 62
7
 10
47.571627441389481
 20
61.556450563376842
 70
0
  0
VERTEX
  5
E0D4
  8
0
 62
7
 10
47.571627441389481
 20
61.641888931410989
 70
0
  0
VERTEX
  5
E0D5
  8
0
 62
7
 10
47.359409559498083
 20
61.599169747393923
 70
0
  0
VERTEX
  5
E0D6
  8
0
 62
7
 10
47.359409559498083
 20
61.556450563376842
 70
0
  0
SEQEND
  5
E0D7
  8
0
  0
POLYLINE
  5
E0D8
  8
0
 62
7
 66
1
 70
0
 10
0
 20
0
 30
0
  0
VERTEX
  5
E0D9
  8
0
 62
7
 10
43.973569716594561
 20
48.053226554165832
 70
0
  0
VERTEX
  5
E0DA
  8
0
 62
7
 10
44.014910862417558
 20
48.138492667425758
 70
0
  0
SEQEND
  5
E0DB
  8
0
  0
POLYLINE
  5
E0DC
  8
0
 62
7
 66
1
 70
0
 10
0
 20
0
 30
0
  0
VERTEX
  5
E0DD
  8
0
 62
7
 10
44.184409560291833
 20
48.392223949914381
 70
0
  0
VERTEX
  5
E0DE
  8
0
 62
7
 10
44.100349230451727
 20
48.349504765897308
 70
0
  0
SEQEND
  5
E0DF
  8
0
  0
POLYLINE
  5
E0E0
  8
0
 62
7
 66
1
 70
0
 10
0
 20
0
 30
0
  0
VERTEX
  5
E0E1
  8
0
 62
7
 10
44.227128744308928
 20
49.1968260004945
 70
0
  0
VERTEX
  5
E0E2
  8
0
 62
7
 10
44.141690376274717
 20
49.111559887234563
 70
0
  0
SEQEND
  5
E0E3
  8
0
  0
POLYLINE
  5
E0E4
  8
0
 62
7
 66
1
 70
0
 10
0
 20
0
 30
0
  0
VERTEX
  5
E0E5
  8
0
 62
7
 10
51.507304523738881
 20
53.005895823760987
 70
0
  0
VERTEX
  5
E0E6
  8
0
 62
7
 10
51.762241589647388
 20
52.794883725289452
 70
0
  0
SEQEND
  5
E0E7
  8
0
  0
POLYLINE
  5
E0E8
  8
0
 62
7
 66
1
 70
0
 10
0
 20
0
 30
0
  0
VERTEX
  5
E0E9
  8
0
 62
7
 10
43.295574925097377
 20
48.645438468080243
 70
0
  0
VERTEX
  5
E0EA
  8
0
 62
7
 10
43.591853136828881
 20
48.688157652097367
 70
0
  0
SEQEND
  5
E0EB
  8
0
  0
POLYLINE
  5
E0EC
  8
0
 62
7
 66
1
 70
0
 10
0
 20
0
 30
0
  0
VERTEX
  5
E0ED
  8
0
 62
7
 10
43.295574925097377
 20
47.884933639711363
 70
0
  0
VERTEX
  5
E0EE
  8
0
 62
7
 10
43.591853136828881
 20
47.926102530760119
 70
0
  0
SEQEND
  5
E0EF
  8
0
  0
POLYLINE
  5
E0F0
  8
0
 62
7
 66
1
 70
0
 10
0
 20
0
 30
0
  0
VERTEX
  5
E0F1
  8
0
 62
7
 10
43.46507362297168
 20
47.756776087660093
 70
0
  0
VERTEX
  5
E0F2
  8
0
 62
7
 10
43.507792806988782
 20
47.884933639711363
 70
0
  0
SEQEND
  5
E0F3
  8
0
  0
POLYLINE
  5
E0F4
  8
0
 62
7
 66
1
 70
0
 10
0
 20
0
 30
0
  0
VERTEX
  5
E0F5
  8
0
 62
7
 10
42.153181262188539
 20
47.080159334357
 70
0
  0
VERTEX
  5
E0F6
  8
0
 62
7
 10
42.153181262188539
 20
47.122878518374108
 70
0
  0
VERTEX
  5
E0F7
  8
0
 62
7
 10
42.492178657937117
 20
58.593840700836239
 70
0
  0
SEQEND
  5
E0F8
  8
0
  0
POLYLINE
  5
E0F9
  8
0
 62
7
 66
1
 70
0
 10
0
 20
0
 30
0
  0
VERTEX
  5
E0FA
  8
0
 62
7
 10
42.153181262188539
 20
47.080159334357
 70
0
  0
VERTEX
  5
E0FB
  8
0
 62
7
 10
42.322679960062821
 20
47.54593624396275
 70
0
  0
VERTEX
  5
E0FC
  8
0
 62
7
 10
42.576238987777216
 20
47.968821714777192
 70
0
  0
VERTEX
  5
E0FD
  8
0
 62
7
 10
43.295574925097377
 20
48.645438468080243
 70
0
  0
VERTEX
  5
E0FE
  8
0
 62
7
 10
43.295574925097377
 20
47.884933639711363
 70
0
  0
SEQEND
  5
E0FF
  8
0
  0
POLYLINE
  5
E100
  8
0
 62
7
 66
1
 70
0
 10
0
 20
0
 30
0
  0
VERTEX
  5
E101
  8
0
 62
7
 10
36.6920158989705
 20
45.259943134725233
 70
0
  0
VERTEX
  5
E102
  8
0
 62
7
 10
36.6079555691304
 20
45.175538295336622
 70
0
  0
SEQEND
  5
E103
  8
0
  0
POLYLINE
  5
E104
  8
0
 62
7
 66
1
 70
0
 10
0
 20
0
 30
0
  0
VERTEX
  5
E105
  8
0
 62
7
 10
39.104960776839469
 20
43.821271260084927
 70
0
  0
VERTEX
  5
E106
  8
0
 62
7
 10
39.317178658730882
 20
43.947878519167858
 70
0
  0
SEQEND
  5
E107
  8
0
  0
POLYLINE
  5
E108
  8
0
 62
7
 66
1
 70
0
 10
0
 20
0
 30
0
  0
VERTEX
  5
E109
  8
0
 62
7
 10
39.317178658730882
 20
44.793821715570942
 70
0
  0
VERTEX
  5
E10A
  8
0
 62
7
 10
39.317178658730882
 20
44.836540899588037
 70
0
  0
SEQEND
  5
E10B
  8
0
  0
POLYLINE
  5
E10C
  8
0
 62
7
 66
1
 70
0
 10
0
 20
0
 30
0
  0
VERTEX
  5
E10D
  8
0
 62
7
 10
39.401238988570967
 20
44.117204962267863
 70
0
  0
VERTEX
  5
E10E
  8
0
 62
7
 10
39.317178658730882
 20
44.074485778250782
 70
0
  0
SEQEND
  5
E10F
  8
0
  0
POLYLINE
  5
E110
  8
0
 62
7
 66
1
 70
0
 10
0
 20
0
 30
0
  0
VERTEX
  5
E111
  8
0
 62
7
 10
44.014910862417558
 20
62.741391155528483
 70
0
  0
VERTEX
  5
E112
  8
0
 62
7
 10
43.88813134856035
 20
62.530895821379737
 70
0
  0
SEQEND
  5
E113
  8
0
  0
POLYLINE
  5
E114
  8
0
 62
7
 66
1
 70
0
 10
0
 20
0
 30
0
  0
VERTEX
  5
E115
  8
0
 62
7
 10
42.9565775293488
 20
59.102164539684821
 70
0
  0
VERTEX
  5
E116
  8
0
 62
7
 10
43.0847350814001
 20
62.741391155528483
 70
0
  0
SEQEND
  5
E117
  8
0
  0
POLYLINE
  5
E118
  8
0
 62
7
 66
1
 70
0
 10
0
 20
0
 30
0
  0
VERTEX
  5
E119
  8
0
 62
7
 10
49.17979801390409
 20
62.064774402225417
 70
0
  0
VERTEX
  5
E11A
  8
0
 62
7
 10
49.5601365554757
 20
62.19172617085686
 70
0
  0
SEQEND
  5
E11B
  8
0
  0
POLYLINE
  5
E11C
  8
0
 62
7
 66
1
 70
0
 10
0
 20
0
 30
0
  0
VERTEX
  5
E11D
  8
0
 62
7
 10
48.629960774458219
 20
65.493505683920347
 70
0
  0
VERTEX
  5
E11E
  8
0
 62
7
 10
48.714021104298318
 20
65.493505683920347
 70
0
  0
SEQEND
  5
E11F
  8
0
  0
POLYLINE
  5
E120
  8
0
 62
7
 66
1
 70
0
 10
0
 20
0
 30
0
  0
VERTEX
  5
E121
  8
0
 62
7
 10
46.343795410446418
 20
50.128207564931778
 70
0
  0
VERTEX
  5
E122
  8
0
 62
7
 10
46.9790710179265
 20
50.381938847420457
 70
0
  0
SEQEND
  5
E123
  8
0
  0
POLYLINE
  5
E124
  8
0
 62
7
 66
1
 70
0
 10
0
 20
0
 30
0
  0
VERTEX
  5
E125
  8
0
 62
7
 10
42.576238987777216
 20
58.677728775902068
 70
0
  0
VERTEX
  5
E126
  8
0
 62
7
 10
42.576238987777216
 20
58.763167143936272
 70
0
  0
SEQEND
  5
E127
  8
0
  0
POLYLINE
  5
E128
  8
0
 62
7
 66
1
 70
0
 10
0
 20
0
 30
0
  0
VERTEX
  5
E129
  8
0
 62
7
 10
36.6079555691304
 20
45.090272182076689
 70
0
  0
VERTEX
  5
E12A
  8
0
 62
7
 10
36.6492967149534
 20
44.879604593153658
 70
0
  0
VERTEX
  5
E12B
  8
0
 62
7
 10
36.6920158989705
 20
44.836540899588037
 70
0
  0
SEQEND
  5
E12C
  8
0
  0
POLYLINE
  5
E12D
  8
0
 62
7
 66
1
 70
0
 10
0
 20
0
 30
0
  0
VERTEX
  5
E12E
  8
0
 62
7
 10
55.8260762240481
 20
54.656441070744187
 70
0
  0
VERTEX
  5
E12F
  8
0
 62
7
 10
55.8674173698711
 20
54.6995047643098
 70
0
  0
SEQEND
  5
E130
  8
0
  0
POLYLINE
  5
E131
  8
0
 62
7
 66
1
 70
0
 10
0
 20
0
 30
0
  0
VERTEX
  5
E132
  8
0
 62
7
 10
58.449860945614368
 20
58.254843305087633
 70
0
  0
VERTEX
  5
E133
  8
0
 62
7
 10
58.533921275454468
 20
58.254843305087633
 70
0
  0
SEQEND
  5
E134
  8
0
  0
POLYLINE
  5
E135
  8
0
 62
7
 66
1
 70
0
 10
0
 20
0
 30
0
  0
VERTEX
  5
E136
  8
0
 62
7
 10
58.449860945614368
 20
53.005895823760987
 70
0
  0
VERTEX
  5
E137
  8
0
 62
7
 10
57.30746728270551
 20
51.524504765103558
 70
0
  0
SEQEND
  5
E138
  8
0
  0
POLYLINE
  5
E139
  8
0
 62
7
 66
1
 70
0
 10
0
 20
0
 30
0
  0
VERTEX
  5
E13A
  8
0
 62
7
 10
52.651076224841852
 20
51.779269576237787
 70
0
  0
VERTEX
  5
E13B
  8
0
 62
7
 10
52.692417370664849
 20
51.8204384672865
 70
0
  0
SEQEND
  5
E13C
  8
0
  0
POLYLINE
  5
E13D
  8
0
 62
7
 66
1
 70
0
 10
0
 20
0
 30
0
  0
VERTEX
  5
E13E
  8
0
 62
7
 10
61.28586354907204
 20
56.985497873547352
 70
0
  0
VERTEX
  5
E13F
  8
0
 62
7
 10
61.201803219231941
 20
57.026839019370328
 70
0
  0
SEQEND
  5
E140
  8
0
  0
POLYLINE
  5
E141
  8
0
 62
7
 66
1
 70
0
 10
0
 20
0
 30
0
  0
VERTEX
  5
E142
  8
0
 62
7
 10
58.533921275454468
 20
53.51421966260957
 70
0
  0
VERTEX
  5
E143
  8
0
 62
7
 10
58.576640459471562
 20
53.5569388466267
 70
0
  0
SEQEND
  5
E144
  8
0
  0
POLYLINE
  5
E145
  8
0
 62
7
 66
1
 70
0
 10
0
 20
0
 30
0
  0
VERTEX
  5
E146
  8
0
 62
7
 10
53.497191676019213
 20
51.481441071537937
 70
0
  0
VERTEX
  5
E147
  8
0
 62
7
 10
53.539910860036308
 20
51.567223949120631
 70
0
  0
SEQEND
  5
E148
  8
0
  0
POLYLINE
  5
E149
  8
0
 62
7
 66
1
 70
0
 10
0
 20
0
 30
0
  0
VERTEX
  5
E14A
  8
0
 62
7
 10
56.92575070293983
 20
51.058555600723508
 70
0
  0
VERTEX
  5
E14B
  8
0
 62
7
 10
57.30746728270551
 20
51.524504765103558
 70
0
  0
SEQEND
  5
E14C
  8
0
  0
POLYLINE
  5
E14D
  8
0
 62
7
 66
1
 70
0
 10
0
 20
0
 30
0
  0
VERTEX
  5
E14E
  8
0
 62
7
 10
58.788858341362939
 20
58.04383120661609
 70
0
  0
VERTEX
  5
E14F
  8
0
 62
7
 10
58.576640459471562
 20
58.213157649716123
 70
0
  0
SEQEND
  5
E150
  8
0
  0
POLYLINE
  5
E151
  8
0
 62
7
 66
1
 70
0
 10
0
 20
0
 30
0
  0
VERTEX
  5
E152
  8
0
 62
7
 10
39.443958172588083
 20
44.41365542877363
 70
0
  0
VERTEX
  5
E153
  8
0
 62
7
 10
40.206013293925317
 20
44.370936244756528
 70
0
  0
SEQEND
  5
E154
  8
0
  0
POLYLINE
  5
E155
  8
0
 62
7
 66
1
 70
0
 10
0
 20
0
 30
0
  0
VERTEX
  5
E156
  8
0
 62
7
 10
54.34330712719656
 20
52.159435863035092
 70
0
  0
VERTEX
  5
E157
  8
0
 62
7
 10
54.598244193105032
 20
52.625557282189412
 70
0
  0
VERTEX
  5
E158
  8
0
 62
7
 10
55.74063785601389
 20
54.149495270089659
 70
0
  0
SEQEND
  5
E159
  8
0
  0
POLYLINE
  5
E15A
  8
0
 62
7
 66
1
 70
0
 10
0
 20
0
 30
0
  0
VERTEX
  5
E15B
  8
0
 62
7
 10
54.047028915465077
 20
65.916391154734725
 70
0
  0
VERTEX
  5
E15C
  8
0
 62
7
 10
54.34330712719656
 20
65.663176636568863
 70
0
  0
SEQEND
  5
E15D
  8
0
  0
POLYLINE
  5
E15E
  8
0
 62
7
 66
1
 70
0
 10
0
 20
0
 30
0
  0
VERTEX
  5
E15F
  8
0
 62
7
 10
63.572028913083827
 20
59.905388552070832
 70
0
  0
VERTEX
  5
E160
  8
0
 62
7
 10
63.698808426941007
 20
60.032512575476538
 70
0
  0
VERTEX
  5
E161
  8
0
 62
7
 10
63.698808426941007
 20
60.244558202593652
 70
0
  0
SEQEND
  5
E162
  8
0
  0
POLYLINE
  5
E163
  8
0
 62
7
 66
1
 70
0
 10
0
 20
0
 30
0
  0
VERTEX
  5
E164
  8
0
 62
7
 10
63.698808426941007
 20
60.7105073669737
 70
0
  0
VERTEX
  5
E165
  8
0
 62
7
 10
63.656089242923933
 20
60.83711462605666
 70
0
  0
SEQEND
  5
E166
  8
0
  0
POLYLINE
  5
E167
  8
0
 62
7
 66
1
 70
0
 10
0
 20
0
 30
0
  0
VERTEX
  5
E168
  8
0
 62
7
 10
55.232141762391009
 20
64.392453166834486
 70
0
  0
VERTEX
  5
E169
  8
0
 62
7
 10
55.190800616568019
 20
64.392453166834486
 70
0
  0
SEQEND
  5
E16A
  8
0
  0
POLYLINE
  5
E16B
  8
0
 62
7
 66
1
 70
0
 10
0
 20
0
 30
0
  0
VERTEX
  5
E16C
  8
0
 62
7
 10
49.602855739492782
 20
67.694060425123638
 70
0
  0
VERTEX
  5
E16D
  8
0
 62
7
 10
49.729635253349969
 20
67.694060425123638
 70
0
  0
SEQEND
  5
E16E
  8
0
  0
POLYLINE
  5
E16F
  8
0
 62
7
 66
1
 70
0
 10
0
 20
0
 30
0
  0
VERTEX
  5
E170
  8
0
 62
7
 10
42.788456869668593
 20
63.123107735294148
 70
0
  0
VERTEX
  5
E171
  8
0
 62
7
 10
42.82979801549159
 20
62.953781292194122
 70
0
  0
VERTEX
  5
E172
  8
0
 62
7
 10
42.9565775293488
 20
62.82717403311122
 70
0
  0
SEQEND
  5
E173
  8
0
  0
POLYLINE
  5
E174
  8
0
 62
7
 66
1
 70
0
 10
0
 20
0
 30
0
  0
VERTEX
  5
E175
  8
0
 62
7
 10
63.275750701352329
 20
59.905388552070832
 70
0
  0
VERTEX
  5
E176
  8
0
 62
7
 10
63.572028913083827
 20
59.905388552070832
 70
0
  0
SEQEND
  5
E177
  8
0
  0
POLYLINE
  5
E178
  8
0
 62
7
 66
1
 70
0
 10
0
 20
0
 30
0
  0
VERTEX
  5
E179
  8
0
 62
7
 10
42.9565775293488
 20
62.82717403311122
 70
0
  0
VERTEX
  5
E17A
  8
0
 62
7
 10
43.168795411240168
 20
62.82717403311122
 70
0
  0
SEQEND
  5
E17B
  8
0
  0
POLYLINE
  5
E17C
  8
0
 62
7
 66
1
 70
0
 10
0
 20
0
 30
0
  0
VERTEX
  5
E17D
  8
0
 62
7
 10
49.518795409652682
 20
67.567453166040735
 70
0
  0
VERTEX
  5
E17E
  8
0
 62
7
 10
49.602855739492782
 20
67.694060425123638
 70
0
  0
SEQEND
  5
E17F
  8
0
  0
POLYLINE
  5
E180
  8
0
 62
7
 66
1
 70
0
 10
0
 20
0
 30
0
  0
VERTEX
  5
E181
  8
0
 62
7
 10
42.788456869668593
 20
63.5465099704314
 70
0
  0
VERTEX
  5
E182
  8
0
 62
7
 10
42.872517199508692
 20
63.715836413531441
 70
0
  0
SEQEND
  5
E183
  8
0
  0
POLYLINE
  5
E184
  8
0
 62
7
 66
1
 70
0
 10
0
 20
0
 30
0
  0
VERTEX
  5
E185
  8
0
 62
7
 10
55.31758013042522
 20
63.7585555975485
 70
0
  0
VERTEX
  5
E186
  8
0
 62
7
 10
55.444359644282422
 20
63.334119833765747
 70
0
  0
VERTEX
  5
E187
  8
0
 62
7
 10
55.74063785601389
 20
63.080388551277082
 70
0
  0
SEQEND
  5
E188
  8
0
  0
POLYLINE
  5
E189
  8
0
 62
7
 66
1
 70
0
 10
0
 20
0
 30
0
  0
VERTEX
  5
E18A
  8
0
 62
7
 10
55.31758013042522
 20
64.223126723734453
 70
0
  0
VERTEX
  5
E18B
  8
0
 62
7
 10
55.232141762391009
 20
64.392453166834486
 70
0
  0
SEQEND
  5
E18C
  8
0
  0
POLYLINE
  5
E18D
  8
0
 62
7
 66
1
 70
0
 10
0
 20
0
 30
0
  0
VERTEX
  5
E18E
  8
0
 62
7
 10
49.137078829886988
 20
66.382512573889045
 70
0
  0
VERTEX
  5
E18F
  8
0
 62
7
 10
49.433357041618493
 20
66.721509969637651
 70
0
  0
VERTEX
  5
E190
  8
0
 62
7
 10
49.518795409652682
 20
67.101676256434956
 70
0
  0
SEQEND
  5
E191
  8
0
  0
INSERT
  5
E2AE
  8
0
  2
SPECMS683S
 10
122.16088515047071
 20
22
 30
0
 41
1
 42
1
 43
1
 50
0
  0
ENDSEC
999
Created By CadLib version 4.0.36.7
999
CadLib website: www.woutware.com
  0
EOF
