  0
SECTION
  2
HEADER
  9
$ACADVER
  1
AC1015
  9
$ACADMAINTVER
 70
6
  9
$DWGCODEPAGE
  3
ANSI_932
  9
$INSBASE
 10
0.0
 20
0.0
 30
0.0
  9
$EXTMIN
 10
0.0
 20
0.0
 30
0.0
  9
$EXTMAX
 10
0.0
 20
0.0
 30
0.0
  9
$LIMMIN
 10
0.0
 20
0.0
  9
$LIMMAX
 10
12.0
 20
9.0
  9
$ORTHOMODE
 70
0
  9
$REGENMODE
 70
1
  9
$FILLMODE
 70
1
  9
$QTEXTMODE
 70
0
  9
$MIRRTEXT
 70
1
  9
$LTSCALE
 40
1.0
  9
$ATTMODE
 70
1
  9
$TEXTSIZE
 40
0.2
  9
$TRACEWID
 40
1.0
  9
$TEXTSTYLE
  7
STANDARD
  9
$CLAYER
  8
__
  9
$CELTYPE
  6
ByLayer
  9
$CECOLOR
 62
256
  9
$CELTSCALE
 40
1.0
  9
$DISPSILH
 70
0
  9
$DIMSCALE
 40
1.0
  9
$DIMASZ
 40
0.18
  9
$DIMEXO
 40
0.0625
  9
$DIMDLI
 40
0.38
  9
$DIMRND
 40
0.0
  9
$DIMDLE
 40
0.0
  9
$DIMEXE
 40
0.18
  9
$DIMTP
 40
0.0
  9
$DIMTM
 40
0.0
  9
$DIMTXT
 40
0.18
  9
$DIMCEN
 40
0.09
  9
$DIMTSZ
 40
0.0
  9
$DIMTOL
 70
0
  9
$DIMLIM
 70
0
  9
$DIMTIH
 70
1
  9
$DIMTOH
 70
1
  9
$DIMSE1
 70
0
  9
$DIMSE2
 70
0
  9
$DIMTAD
 70
0
  9
$DIMZIN
 70
0
  9
$DIMBLK
  1

  9
$DIMASO
 70
1
  9
$DIMSHO
 70
1
  9
$DIMPOST
  1

  9
$DIMAPOST
  1

  9
$DIMALT
 70
0
  9
$DIMALTD
 70
2
  9
$DIMALTF
 40
25.4
  9
$DIMLFAC
 40
1.0
  9
$DIMTOFL
 70
0
  9
$DIMTVP
 40
0.0
  9
$DIMTIX
 70
0
  9
$DIMSOXD
 70
0
  9
$DIMSAH
 70
0
  9
$DIMBLK1
  1

  9
$DIMBLK2
  1

  9
$DIMSTYLE
  2
STANDARD
  9
$DIMCLRD
 70
0
  9
$DIMCLRE
 70
0
  9
$DIMCLRT
 70
0
  9
$DIMTFAC
 40
1.0
  9
$DIMGAP
 40
0.09
  9
$DIMJUST
 70
0
  9
$DIMSD1
 70
0
  9
$DIMSD2
 70
0
  9
$DIMTOLJ
 70
1
  9
$DIMTZIN
 70
0
  9
$DIMALTZ
 70
0
  9
$DIMALTTZ
 70
0
  9
$DIMUPT
 70
0
  9
$DIMDEC
 70
4
  9
$DIMTDEC
 70
4
  9
$DIMALTU
 70
2
  9
$DIMALTTD
 70
2
  9
$DIMTXSTY
  7
STANDARD
  9
$DIMAUNIT
 70
0
  9
$DIMADEC
 70
0
  9
$DIMALTRND
 40
0.0
  9
$DIMAZIN
 70
0
  9
$DIMDSEP
 70
46
  9
$DIMATFIT
 70
3
  9
$DIMFRAC
 70
0
  9
$DIMLDRBLK
  1

  9
$DIMLUNIT
 70
2
  9
$DIMLWD
 70
-2
  9
$DIMLWE
 70
-2
  9
$DIMTMOVE
 70
0
  9
$LUNITS
 70
2
  9
$LUPREC
 70
2
  9
$SKETCHINC
 40
0.1
  9
$FILLETRAD
 40
0.5
  9
$AUNITS
 70
0
  9
$AUPREC
 70
2
  9
$MENU
  1
.
  9
$ELEVATION
 40
0.0
  9
$PELEVATION
 40
0.0
  9
$THICKNESS
 40
0.0
  9
$LIMCHECK
 70
0
  9
$CHAMFERA
 40
0.0
  9
$CHAMFERB
 40
0.0
  9
$CHAMFERC
 40
0.0
  9
$CHAMFERD
 40
0.0
  9
$SKPOLY
 70
0
  9
$TDCREATE
 40
2459829.5410300926
  9
$TDUCREATE
 40
2459044.413842593
  9
$TDUPDATE
 40
2459829.5410300926
  9
$TDUUPDATE
 40
2459045.001064815
  9
$TDINDWG
 40
0.001006956
  9
$TDUSRTIMER
 40
0.0009953819
  9
$USRTIMER
 70
1
  9
$ANGBASE
 50
0.0
  9
$ANGDIR
 70
0
  9
$PDMODE
 70
1
  9
$PDSIZE
 40
-2.0
  9
$PLINEWID
 40
0.0
  9
$SPLFRAME
 70
0
  9
$SPLINETYPE
 70
6
  9
$SPLINESEGS
 70
8
  9
$HANDSEED
  5
D77
  9
$SURFTAB1
 70
6
  9
$SURFTAB2
 70
6
  9
$SURFTYPE
 70
6
  9
$SURFU
 70
6
  9
$SURFV
 70
6
  9
$UCSBASE
  2

  9
$UCSNAME
  2

  9
$UCSORG
 10
0.0
 20
0.0
 30
0.0
  9
$UCSXDIR
 10
1.0
 20
0.0
 30
0.0
  9
$UCSYDIR
 10
0.0
 20
1.0
 30
0.0
  9
$UCSORTHOREF
  2

  9
$UCSORTHOVIEW
 70
0
  9
$UCSORGTOP
 10
0.0
 20
0.0
 30
0.0
  9
$UCSORGBOTTOM
 10
0.0
 20
0.0
 30
0.0
  9
$UCSORGLEFT
 10
0.0
 20
0.0
 30
0.0
  9
$UCSORGRIGHT
 10
0.0
 20
0.0
 30
0.0
  9
$UCSORGFRONT
 10
0.0
 20
0.0
 30
0.0
  9
$UCSORGBACK
 10
0.0
 20
0.0
 30
0.0
  9
$PUCSBASE
  2

  9
$PUCSNAME
  2

  9
$PUCSORG
 10
0.0
 20
0.0
 30
0.0
  9
$PUCSXDIR
 10
1.0
 20
0.0
 30
0.0
  9
$PUCSYDIR
 10
0.0
 20
1.0
 30
0.0
  9
$PUCSORTHOREF
  2

  9
$PUCSORTHOVIEW
 70
0
  9
$PUCSORGTOP
 10
0.0
 20
0.0
 30
0.0
  9
$PUCSORGBOTTOM
 10
0.0
 20
0.0
 30
0.0
  9
$PUCSORGLEFT
 10
0.0
 20
0.0
 30
0.0
  9
$PUCSORGRIGHT
 10
0.0
 20
0.0
 30
0.0
  9
$PUCSORGFRONT
 10
0.0
 20
0.0
 30
0.0
  9
$PUCSORGBACK
 10
0.0
 20
0.0
 30
0.0
  9
$USERI1
 70
0
  9
$USERI2
 70
0
  9
$USERI3
 70
0
  9
$USERI4
 70
0
  9
$USERI5
 70
0
  9
$USERR1
 40
0.0
  9
$USERR2
 40
0.0
  9
$USERR3
 40
0.0
  9
$USERR4
 40
0.0
  9
$USERR5
 40
0.0
  9
$WORLDVIEW
 70
1
  9
$SHADEDGE
 70
3
  9
$SHADEDIF
 70
70
  9
$TILEMODE
 70
1
  9
$MAXACTVP
 70
64
  9
$PINSBASE
 10
0.0
 20
0.0
 30
0.0
  9
$PLIMCHECK
 70
0
  9
$PEXTMIN
 10
1e+20
 20
1e+20
 30
1e+20
  9
$PEXTMAX
 10
-1e+20
 20
-1e+20
 30
-1e+20
  9
$PLIMMIN
 10
-20.0
 20
-7.5
  9
$PLIMMAX
 10
277.0
 20
202.5
  9
$UNITMODE
 70
0
  9
$VISRETAIN
 70
1
  9
$PLINEGEN
 70
0
  9
$PSLTSCALE
 70
1
  9
$TREEDEPTH
 70
3020
  9
$CMLSTYLE
  2
Standard
  9
$CMLJUST
 70
0
  9
$CMLSCALE
 40
1.0
  9
$PROXYGRAPHICS
 70
1
  9
$MEASUREMENT
 70
0
  9
$CELWEIGHT
370
-1
  9
$ENDCAPS
280
0
  9
$JOINSTYLE
280
0
  9
$LWDISPLAY
290
0
  9
$INSUNITS
 70
0
  9
$HYPERLINKBASE
  1

  9
$STYLESHEET
  1

  9
$XEDIT
290
1
  9
$CEPSNTYPE
380
0
  9
$PSTYLEMODE
290
1
  9
$FINGERPRINTGUID
  2
{9E268123-BF54-4117-98E7-71B08D23C9F1}
  9
$VERSIONGUID
  2
{9A214A05-71B2-4D17-9C69-CC041886727F}
  9
$EXTNAMES
290
1
  9
$PSVPSCALE
 40
0.0
  9
$OLESTARTUP
290
0
  0
ENDSEC
  0
SECTION
  2
CLASSES
  0
CLASS
  1
ACDBDICTIONARYWDFLT
  2
AcDbDictionaryWithDefault
  3
ObjectDBX Classes
 90
0
280
0
281
0
  0
CLASS
  1
MATERIAL
  2
AcDbMaterial
  3
ObjectDBX Classes
 90
1153
280
0
281
0
  0
CLASS
  1
VISUALSTYLE
  2
AcDbVisualStyle
  3
ObjectDBX Classes
 90
4095
280
0
281
0
  0
CLASS
  1
SCALE
  2
AcDbScale
  3
ObjectDBX Classes
 90
1153
280
0
281
0
  0
CLASS
  1
TABLESTYLE
  2
AcDbTableStyle
  3
ObjectDBX Classes
 90
4095
280
0
281
0
  0
CLASS
  1
MLEADERSTYLE
  2
AcDbMLeaderStyle
  3
ACDB_MLEADERSTYLE_CLASS
 90
4095
280
0
281
0
  0
CLASS
  1
ACDBSECTIONVIEWSTYLE
  2
AcDbSectionViewStyle
  3
ObjectDBX Classes
 90
1025
280
0
281
0
  0
CLASS
  1
ACDBDETAILVIEWSTYLE
  2
AcDbDetailViewStyle
  3
ObjectDBX Classes
 90
1025
280
0
281
0
  0
CLASS
  1
DICTIONARYVAR
  2
AcDbDictionaryVar
  3
ObjectDBX Classes
 90
0
280
0
281
0
  0
CLASS
  1
CELLSTYLEMAP
  2
AcDbCellStyleMap
  3
ObjectDBX Classes
 90
1152
280
0
281
0
  0
CLASS
  1
ACDBPLACEHOLDER
  2
AcDbPlaceHolder
  3
ObjectDBX Classes
 90
0
280
0
281
0
  0
CLASS
  1
LAYOUT
  2
AcDbLayout
  3
ObjectDBX Classes
 90
0
280
0
281
0
  0
CLASS
  1
SUN
  2
AcDbSun
  3
SCENEOE
 90
1153
280
0
281
0
  0
CLASS
  1
MENTALRAYRENDERSETTINGS
  2
AcDbMentalRayRenderSettings
  3
SCENEOE
 90
1024
280
0
281
0
  0
CLASS
  1
RASTERVARIABLES
  2
AcDbRasterVariables
  3
ISM
 90
0
280
0
281
0
  0
ENDSEC
  0
SECTION
  2
TABLES
  0
TABLE
  2
VPORT
  5
9CE
330
0
100
AcDbSymbolTable
 70
1
  0
VPORT
  5
A3A
330
9CE
100
AcDbSymbolTableRecord
100
AcDbViewportTableRecord
  2
*ACTIVE
 70
0
 10
0.0
 20
0.0
 11
1.0
 21
1.0
 12
50.22649720630994
 22
14.7479721186084
 13
0.0
 23
0.0
 14
0.5
 24
0.5
 15
0.5
 25
0.5
 16
0.0
 26
0.0
 36
1.0
 17
0.0
 27
0.0
 37
0.0
 40
167.9470367482983
 41
2.193641618497109
 42
50.0
 43
0.0
 44
0.0
 50
0.0
 51
0.0
 71
0
 72
1000
 73
1
 74
3
 75
0
 76
0
 77
0
 78
0
281
0
 65
1
110
0.0
120
0.0
130
0.0
111
1.0
121
0.0
131
0.0
112
0.0
122
1.0
132
0.0
 79
0
146
0.0
1001
ACAD_NAV_VCDISPLAY
1070
3
  0
ENDTAB
  0
TABLE
  2
LTYPE
  5
9CB
330
0
100
AcDbSymbolTable
 70
3
  0
LTYPE
  5
A3B
330
9CB
100
AcDbSymbolTableRecord
100
AcDbLinetypeTableRecord
  2
BYBLOCK
 70
0
  3

 72
65
 73
0
 40
0.0
  0
LTYPE
  5
A3C
330
9CB
100
AcDbSymbolTableRecord
100
AcDbLinetypeTableRecord
  2
BYLAYER
 70
0
  3

 72
65
 73
0
 40
0.0
  0
LTYPE
  5
A22
330
9CB
100
AcDbSymbolTableRecord
100
AcDbLinetypeTableRecord
  2
CONTINUOUS
 70
0
  3
Solid line
 72
65
 73
0
 40
0.0
  0
ENDTAB
  0
TABLE
  2
LAYER
  5
9C8
330
0
100
AcDbSymbolTable
 70
4
  0
LAYER
  5
A1A
102
{ACAD_XDICTIONARY
360
A49
102
}
330
9C8
100
AcDbSymbolTableRecord
100
AcDbLayerTableRecord
  2
0
 70
0
 62
7
  6
CONTINUOUS
370
-3
390
9D5
  0
LAYER
  5
A39
102
{ACAD_XDICTIONARY
360
A4B
102
}
330
9C8
100
AcDbSymbolTableRecord
100
AcDbLayerTableRecord
  2
__
 70
0
 62
7
  6
CONTINUOUS
370
-3
390
9D5
  0
LAYER
  5
A3D
102
{ACAD_XDICTIONARY
360
A4D
102
}
330
9C8
100
AcDbSymbolTableRecord
100
AcDbLayerTableRecord
  2
_____1
 70
0
 62
7
  6
CONTINUOUS
370
-3
390
9D5
  0
LAYER
  5
A3E
330
9C8
100
AcDbSymbolTableRecord
100
AcDbLayerTableRecord
  2
DEFPOINTS
 70
0
 62
7
  6
CONTINUOUS
290
0
370
-3
390
9D5
  0
ENDTAB
  0
TABLE
  2
STYLE
  5
9C9
330
0
100
AcDbSymbolTable
 70
2
  0
STYLE
  5
A1B
330
9C9
100
AcDbSymbolTableRecord
100
AcDbTextStyleTableRecord
  2
STANDARD
 70
0
 40
0.0
 41
1.0
 50
0.0
 71
0
 42
0.2
  3
txt
  4
BIGFONT.SHX
  0
STYLE
  5
A1F
330
9C9
100
AcDbSymbolTableRecord
100
AcDbTextStyleTableRecord
  2
Annotative
 70
0
 40
0.0
 41
1.0
 50
0.0
 71
0
 42
0.2
  3
txt
  4

1001
AcadAnnotative
1000
AnnotativeData
1002
{
1070
1
1070
1
1002
}
  0
ENDTAB
  0
TABLE
  2
VIEW
  5
9CC
330
0
100
AcDbSymbolTable
 70
0
  0
ENDTAB
  0
TABLE
  2
UCS
  5
9CD
330
0
100
AcDbSymbolTable
 70
0
  0
ENDTAB
  0
TABLE
  2
APPID
  5
9CF
330
0
100
AcDbSymbolTable
 70
8
  0
APPID
  5
A1C
330
9CF
100
AcDbSymbolTableRecord
100
AcDbRegAppTableRecord
  2
ACAD
 70
0
  0
APPID
  5
A23
330
9CF
100
AcDbSymbolTableRecord
100
AcDbRegAppTableRecord
  2
AcadAnnotative
 70
0
  0
APPID
  5
A3F
330
9CF
100
AcDbSymbolTableRecord
100
AcDbRegAppTableRecord
  2
ACCMTRANSPARENCY
 70
0
  0
APPID
  5
A40
330
9CF
100
AcDbSymbolTableRecord
100
AcDbRegAppTableRecord
  2
ACAECLAYERSTANDARD
 70
0
  0
APPID
  5
A59
330
9CF
100
AcDbSymbolTableRecord
100
AcDbRegAppTableRecord
  2
ACAD_NAV_VCDISPLAY
 70
0
  0
APPID
  5
A94
330
9CF
100
AcDbSymbolTableRecord
100
AcDbRegAppTableRecord
  2
ACAD_MLEADERVER
 70
0
  0
APPID
  5
D73
330
9CF
100
AcDbSymbolTableRecord
100
AcDbRegAppTableRecord
  2
HATCHBACKGROUNDCOLOR
 70
0
  0
APPID
  5
D74
330
9CF
100
AcDbSymbolTableRecord
100
AcDbRegAppTableRecord
  2
EZDXF
 70
0
  0
ENDTAB
  0
TABLE
  2
DIMSTYLE
  5
9D0
330
0
100
AcDbSymbolTable
 70
2
100
AcDbDimStyleTable
  0
DIMSTYLE
105
A1D
330
9D0
100
AcDbSymbolTableRecord
100
AcDbDimStyleTableRecord
  2
STANDARD
 70
0
  3

  4

 40
1.0
 41
2.5
 42
0.625
 43
3.75
 44
1.25
 45
0.0
 46
0.0
 47
0.0
 48
0.0
140
2.5
141
2.5
142
0.0
143
0.03937007874
144
1.0
145
0.0
146
1.0
147
0.625
148
0.0
 71
0
 72
0
 73
0
 74
0
 75
0
 76
0
 77
1
 78
8
 79
0
170
0
171
3
172
1
173
0
174
0
175
0
176
0
177
0
178
0
179
0
271
2
272
2
273
2
274
3
275
0
276
0
277
2
278
44
279
2
280
0
281
0
282
0
283
0
284
8
285
0
286
0
288
0
289
3
371
-2
372
-2
  0
DIMSTYLE
105
A1E
330
9D0
100
AcDbSymbolTableRecord
100
AcDbDimStyleTableRecord
  2
Annotative
 70
0
  3

  4

 40
1.0
 41
2.5
 42
0.625
 43
3.75
 44
1.25
 45
0.0
 46
0.0
 47
0.0
 48
0.0
140
2.5
141
2.5
142
0.0
143
0.03937007874
144
1.0
145
0.0
146
1.0
147
0.625
148
0.0
 71
0
 72
0
 73
0
 74
0
 75
0
 76
0
 77
1
 78
8
 79
0
170
0
171
3
172
1
173
0
174
0
175
0
176
0
177
0
178
0
179
0
271
0
272
2
273
2
274
3
275
0
276
0
277
2
278
44
279
0
280
0
281
0
282
0
283
0
284
8
285
0
286
0
288
0
289
3
371
-2
372
-2
1001
AcadAnnotative
1000
AnnotativeData
1002
{
1070
1
1070
1
1002
}
  0
ENDTAB
  0
TABLE
  2
BLOCK_RECORD
  5
9C7
330
0
100
AcDbSymbolTable
 70
4
  0
BLOCK_RECORD
  5
A35
330
9C7
100
AcDbSymbolTableRecord
100
AcDbBlockTableRecord
  2
*Model_Space
340
A38
  0
BLOCK_RECORD
  5
A31
330
9C7
100
AcDbSymbolTableRecord
100
AcDbBlockTableRecord
  2
*Paper_Space
340
A34
  0
BLOCK_RECORD
  5
A43
330
9C7
100
AcDbSymbolTableRecord
100
AcDbBlockTableRecord
  2
$MODEL_SPACE
340
0
  0
BLOCK_RECORD
  5
A44
330
9C7
100
AcDbSymbolTableRecord
100
AcDbBlockTableRecord
  2
$PAPER_SPACE
340
0
  0
ENDTAB
  0
ENDSEC
  0
SECTION
  2
BLOCKS
  0
BLOCK
  5
A36
330
A35
100
AcDbEntity
  8
0
100
AcDbBlockBegin
  2
*Model_Space
 70
0
 10
0.0
 20
0.0
 30
0.0
  3
*Model_Space
  1

  0
ENDBLK
  5
A37
330
A35
100
AcDbEntity
  8
0
100
AcDbBlockEnd
  0
BLOCK
  5
A32
330
A31
100
AcDbEntity
 67
1
  8
0
100
AcDbBlockBegin
  2
*Paper_Space
 70
0
 10
0.0
 20
0.0
 30
0.0
  3
*Paper_Space
  1

  0
ENDBLK
  5
A33
330
A31
100
AcDbEntity
 67
1
  8
0
100
AcDbBlockEnd
  0
BLOCK
  5
470
330
A43
100
AcDbEntity
  8
0
100
AcDbBlockBegin
  2
$MODEL_SPACE
 70
0
 10
0.0
 20
0.0
 30
0.0
  3
$MODEL_SPACE
  1

  0
ENDBLK
  5
21
330
A43
100
AcDbEntity
  8
0
100
AcDbBlockEnd
  0
BLOCK
  5
471
330
A44
100
AcDbEntity
  8
0
100
AcDbBlockBegin
  2
$PAPER_SPACE
 70
0
 10
0.0
 20
0.0
 30
0.0
  3
$PAPER_SPACE
  1

  0
ENDBLK
  5
1D
330
A44
100
AcDbEntity
  8
0
100
AcDbBlockEnd
  0
ENDSEC
  0
SECTION
  2
ENTITIES
  0
LINE
  5
A9D
330
A35
100
AcDbEntity
  8
0
100
AcDbLine
 10
12.84
 20
55.84
 30
0.0
 11
25.28
 21
60.36
 31
0.0
  0
LINE
  5
A9E
330
A35
100
AcDbEntity
  8
0
100
AcDbLine
 10
39.72
 20
65.62
 30
0.0
 11
53.22
 21
70.54
 31
0.0
  0
LINE
  5
A9F
330
A35
100
AcDbEntity
  8
0
100
AcDbLine
 10
0.56
 20
72.82
 30
0.0
 11
0.56
 21
72.88
 31
0.0
  0
LINE
  5
AA0
330
A35
100
AcDbEntity
  8
0
100
AcDbLine
 10
1.22
 20
75.74
 30
0.0
 11
1.64
 21
76.4
 31
0.0
  0
LINE
  5
AA1
330
A35
100
AcDbEntity
  8
0
100
AcDbLine
 10
1.22
 20
73.9
 30
0.0
 11
1.22
 21
75.74
 31
0.0
  0
LINE
  5
AA2
330
A35
100
AcDbEntity
  8
0
100
AcDbLine
 10
13.48
 20
80.58
 30
0.0
 11
1.64
 21
76.4
 31
0.0
  0
LINE
  5
AA3
330
A35
100
AcDbEntity
  8
0
100
AcDbLine
 10
14.04
 20
77.62
 30
0.0
 11
14.04
 21
77.66
 31
0.0
  0
LINE
  5
AA4
330
A35
100
AcDbEntity
  8
0
100
AcDbLine
 10
9.3
 20
77.66
 30
0.0
 11
5.82
 21
76.4
 31
0.0
  0
LINE
  5
AA5
330
A35
100
AcDbEntity
  8
0
100
AcDbLine
 10
0.0
 20
73.44
 30
0.0
 11
14.08
 21
78.46
 31
0.0
  0
LINE
  5
AA6
330
A35
100
AcDbEntity
  8
0
100
AcDbLine
 10
13.9
 20
80.24
 30
0.0
 11
13.9
 21
78.42
 31
0.0
  0
LINE
  5
AA7
330
A35
100
AcDbEntity
  8
0
100
AcDbLine
 10
13.94
 20
80.24
 30
0.0
 11
13.94
 21
78.42
 31
0.0
  0
LINE
  5
AA8
330
A35
100
AcDbEntity
  8
0
100
AcDbLine
 10
14.04
 20
75.32
 30
0.0
 11
14.04
 21
75.26
 31
0.0
  0
LINE
  5
AA9
330
A35
100
AcDbEntity
  8
0
100
AcDbLine
 10
14.04
 20
77.62
 30
0.0
 11
14.04
 21
77.66
 31
0.0
  0
LINE
  5
AAA
330
A35
100
AcDbEntity
  8
0
100
AcDbLine
 10
0.0
 20
73.16
 30
0.0
 11
14.08
 21
78.14
 31
0.0
  0
LINE
  5
AAB
330
A35
100
AcDbEntity
  8
0
100
AcDbLine
 10
0.04
 20
73.06
 30
0.0
 11
14.14
 21
78.08
 31
0.0
  0
LINE
  5
AAC
330
A35
100
AcDbEntity
  8
0
100
AcDbLine
 10
14.64
 20
78.18
 30
0.0
 11
14.64
 21
78.14
 31
0.0
  0
LINE
  5
AAD
330
A35
100
AcDbEntity
  8
0
100
AcDbLine
 10
14.64
 20
77.9
 30
0.0
 11
14.64
 21
77.86
 31
0.0
  0
LINE
  5
AAE
330
A35
100
AcDbEntity
  8
0
100
AcDbLine
 10
1.08
 20
73.06
 30
0.0
 11
14.04
 21
77.66
 31
0.0
  0
LINE
  5
AAF
330
A35
100
AcDbEntity
  8
0
100
AcDbLine
 10
14.56
 20
77.86
 30
0.0
 11
14.08
 21
77.66
 31
0.0
  0
LINE
  5
AB0
330
A35
100
AcDbEntity
  8
0
100
AcDbLine
 10
1.02
 20
73.02
 30
0.0
 11
0.56
 21
72.88
 31
0.0
  0
LINE
  5
AB1
330
A35
100
AcDbEntity
  8
0
100
AcDbLine
 10
14.64
 20
78.28
 30
0.0
 11
14.64
 21
77.94
 31
0.0
  0
LINE
  5
AB2
330
A35
100
AcDbEntity
  8
0
100
AcDbLine
 10
59.52
 20
55.3
 30
0.0
 11
59.48
 21
55.3
 31
0.0
  0
LINE
  5
AB3
330
A35
100
AcDbEntity
  8
0
100
AcDbLine
 10
0.56
 20
72.82
 30
0.0
 11
45.34
 21
50.28
 31
0.0
  0
LINE
  5
AB4
330
A35
100
AcDbEntity
  8
0
100
AcDbLine
 10
45.9
 20
50.04
 30
0.0
 11
45.38
 21
50.22
 31
0.0
  0
LINE
  5
AB5
330
A35
100
AcDbEntity
  8
0
100
AcDbLine
 10
0.5
 20
72.88
 30
0.0
 11
0.04
 21
73.06
 31
0.0
  0
LINE
  5
AB6
330
A35
100
AcDbEntity
  8
0
100
AcDbLine
 10
1.12
 20
73.06
 30
0.0
 11
45.94
 21
50.46
 31
0.0
  0
LINE
  5
AB7
330
A35
100
AcDbEntity
  8
0
100
AcDbLine
 10
1.12
 20
73.06
 30
0.0
 11
45.94
 21
50.46
 31
0.0
  0
LINE
  5
AB8
330
A35
100
AcDbEntity
  8
0
100
AcDbLine
 10
7.42
 20
75.26
 30
0.0
 11
50.32
 21
53.7
 31
0.0
  0
LINE
  5
AB9
330
A35
100
AcDbEntity
  8
0
100
AcDbLine
 10
7.42
 20
75.26
 30
0.0
 11
50.32
 21
53.7
 31
0.0
  0
LINE
  5
ABA
330
A35
100
AcDbEntity
  8
0
100
AcDbLine
 10
5.76
 20
77.24
 30
0.0
 11
5.72
 21
77.24
 31
0.0
  0
LINE
  5
ABB
330
A35
100
AcDbEntity
  8
0
100
AcDbLine
 10
53.12
 20
55.02
 30
0.0
 11
53.28
 21
54.98
 31
0.0
  0
LINE
  5
ABC
330
A35
100
AcDbEntity
  8
0
100
AcDbLine
 10
6.56
 20
77.76
 30
0.0
 11
7.78
 21
77.14
 31
0.0
  0
LINE
  5
ABD
330
A35
100
AcDbEntity
  8
0
100
AcDbLine
 10
6.62
 20
77.76
 30
0.0
 11
7.84
 21
77.14
 31
0.0
  0
LINE
  5
ABE
330
A35
100
AcDbEntity
  8
0
100
AcDbLine
 10
10.66
 20
76.44
 30
0.0
 11
53.12
 21
55.02
 31
0.0
  0
LINE
  5
ABF
330
A35
100
AcDbEntity
  8
0
100
AcDbLine
 10
10.7
 20
76.44
 30
0.0
 11
53.12
 21
55.12
 31
0.0
  0
LINE
  5
AC0
330
A35
100
AcDbEntity
  8
0
100
AcDbLine
 10
10.98
 20
76.58
 30
0.0
 11
53.18
 21
55.3
 31
0.0
  0
LINE
  5
AC1
330
A35
100
AcDbEntity
  8
0
100
AcDbLine
 10
11.6
 20
76.78
 30
0.0
 11
54.5
 21
55.16
 31
0.0
  0
LINE
  5
AC2
330
A35
100
AcDbEntity
  8
0
100
AcDbLine
 10
11.6
 20
76.78
 30
0.0
 11
54.5
 21
55.16
 31
0.0
  0
LINE
  5
AC3
330
A35
100
AcDbEntity
  8
0
100
AcDbLine
 10
53.18
 20
55.12
 30
0.0
 11
53.28
 21
55.02
 31
0.0
  0
LINE
  5
AC4
330
A35
100
AcDbEntity
  8
0
100
AcDbLine
 10
13.48
 20
80.58
 30
0.0
 11
13.9
 21
80.24
 31
0.0
  0
LINE
  5
AC5
330
A35
100
AcDbEntity
  8
0
100
AcDbLine
 10
13.52
 20
80.62
 30
0.0
 11
13.94
 21
80.24
 31
0.0
  0
LINE
  5
AC6
330
A35
100
AcDbEntity
  8
0
100
AcDbLine
 10
14.04
 20
77.62
 30
0.0
 11
58.86
 21
55.02
 31
0.0
  0
LINE
  5
AC7
330
A35
100
AcDbEntity
  8
0
100
AcDbLine
 10
14.04
 20
77.62
 30
0.0
 11
58.86
 21
55.02
 31
0.0
  0
LINE
  5
AC8
330
A35
100
AcDbEntity
  8
0
100
AcDbLine
 10
14.14
 20
78.08
 30
0.0
 11
14.6
 21
77.86
 31
0.0
  0
LINE
  5
AC9
330
A35
100
AcDbEntity
  8
0
100
AcDbLine
 10
59.48
 20
55.26
 30
0.0
 11
59.94
 21
55.02
 31
0.0
  0
LINE
  5
ACA
330
A35
100
AcDbEntity
  8
0
100
AcDbLine
 10
14.64
 20
77.86
 30
0.0
 11
59.42
 21
55.26
 31
0.0
  0
LINE
  5
ACB
330
A35
100
AcDbEntity
  8
0
100
AcDbLine
 10
14.64
 20
77.9
 30
0.0
 11
59.48
 21
55.3
 31
0.0
  0
LINE
  5
ACC
330
A35
100
AcDbEntity
  8
0
100
AcDbLine
 10
14.18
 20
78.14
 30
0.0
 11
14.64
 21
77.9
 31
0.0
  0
LINE
  5
ACD
330
A35
100
AcDbEntity
  8
0
100
AcDbLine
 10
59.52
 20
55.3
 30
0.0
 11
60.0
 21
55.06
 31
0.0
  0
LINE
  5
ACE
330
A35
100
AcDbEntity
  8
0
100
AcDbLine
 10
14.08
 20
78.46
 30
0.0
 11
14.14
 21
78.42
 31
0.0
  0
LINE
  5
ACF
330
A35
100
AcDbEntity
  8
0
100
AcDbLine
 10
14.64
 20
78.18
 30
0.0
 11
59.48
 21
55.58
 31
0.0
  0
LINE
  5
AD0
330
A35
100
AcDbEntity
  8
0
100
AcDbLine
 10
13.38
 20
80.06
 30
0.0
 11
13.38
 21
80.1
 31
0.0
  0
LINE
  5
AD1
330
A35
100
AcDbEntity
  8
0
100
AcDbLine
 10
45.38
 20
50.22
 30
0.0
 11
45.38
 21
50.28
 31
0.0
  0
LINE
  5
AD2
330
A35
100
AcDbEntity
  8
0
100
AcDbLine
 10
53.12
 20
54.74
 30
0.0
 11
53.78
 21
54.98
 31
0.0
  0
LINE
  5
AD3
330
A35
100
AcDbEntity
  8
0
100
AcDbLine
 10
53.12
 20
54.68
 30
0.0
 11
53.84
 21
54.98
 31
0.0
  0
LINE
  5
AD4
330
A35
100
AcDbEntity
  8
0
100
AcDbLine
 10
49.46
 20
57.32
 30
0.0
 11
49.46
 21
57.28
 31
0.0
  0
LINE
  5
AD5
330
A35
100
AcDbEntity
  8
0
100
AcDbLine
 10
45.38
 20
50.22
 30
0.0
 11
45.38
 21
50.28
 31
0.0
  0
LINE
  5
AD6
330
A35
100
AcDbEntity
  8
0
100
AcDbLine
 10
59.52
 20
55.34
 30
0.0
 11
59.48
 21
55.34
 31
0.0
  0
LINE
  5
AD7
330
A35
100
AcDbEntity
  8
0
100
AcDbLine
 10
58.72
 20
55.02
 30
0.0
 11
46.08
 21
50.56
 31
0.0
  0
LINE
  5
AD8
330
A35
100
AcDbEntity
  8
0
100
AcDbLine
 10
59.52
 20
55.3
 30
0.0
 11
59.48
 21
55.3
 31
0.0
  0
LINE
  5
AD9
330
A35
100
AcDbEntity
  8
0
100
AcDbLine
 10
45.42
 20
50.28
 30
0.0
 11
45.9
 21
50.46
 31
0.0
  0
LINE
  5
ADA
330
A35
100
AcDbEntity
  8
0
100
AcDbLine
 10
58.96
 20
55.06
 30
0.0
 11
59.42
 21
55.26
 31
0.0
  0
LINE
  5
ADB
330
A35
100
AcDbEntity
  8
0
100
AcDbLine
 10
58.92
 20
55.02
 30
0.0
 11
45.94
 21
50.46
 31
0.0
  0
LINE
  5
ADC
330
A35
100
AcDbEntity
  8
0
100
AcDbLine
 10
59.94
 20
55.02
 30
0.0
 11
45.9
 21
50.04
 31
0.0
  0
LINE
  5
ADD
330
A35
100
AcDbEntity
  8
0
100
AcDbLine
 10
59.48
 20
55.26
 30
0.0
 11
59.48
 21
55.3
 31
0.0
  0
LINE
  5
ADE
330
A35
100
AcDbEntity
  8
0
100
AcDbLine
 10
59.48
 20
55.26
 30
0.0
 11
59.48
 21
55.3
 31
0.0
  0
LINE
  5
ADF
330
A35
100
AcDbEntity
  8
0
100
AcDbLine
 10
59.52
 20
55.34
 30
0.0
 11
59.52
 21
55.68
 31
0.0
  0
LINE
  5
AE0
330
A35
100
AcDbEntity
  8
0
100
AcDbLine
 10
53.18
 20
55.3
 30
0.0
 11
53.32
 21
55.26
 31
0.0
  0
LINE
  5
AE1
330
A35
100
AcDbEntity
  8
0
100
AcDbLine
 10
50.68
 20
53.7
 30
0.0
 11
50.6
 21
53.7
 31
0.0
  0
LINE
  5
AE2
330
A35
100
AcDbEntity
  8
0
100
AcDbLine
 10
50.6
 20
53.7
 30
0.0
 11
50.54
 21
53.74
 31
0.0
  0
LINE
  5
AE3
330
A35
100
AcDbEntity
  8
0
100
AcDbLine
 10
1.64
 20
76.4
 30
0.0
 11
1.22
 21
75.74
 31
0.0
  0
LINE
  5
AE4
330
A35
100
AcDbEntity
  8
0
100
AcDbLine
 10
1.22
 20
75.74
 30
0.0
 11
1.22
 21
73.9
 31
0.0
  0
LINE
  5
AE5
330
A35
100
AcDbEntity
  8
0
100
AcDbLine
 10
5.72
 20
76.4
 30
0.0
 11
5.72
 21
77.24
 31
0.0
  0
LINE
  5
AE6
330
A35
100
AcDbEntity
  8
0
100
AcDbLine
 10
6.14
 20
77.58
 30
0.0
 11
6.14
 21
76.64
 31
0.0
  0
LINE
  5
AE7
330
A35
100
AcDbEntity
  8
0
100
AcDbLine
 10
8.16
 20
77.62
 30
0.0
 11
8.16
 21
77.66
 31
0.0
  0
LINE
  5
AE8
330
A35
100
AcDbEntity
  8
0
100
AcDbLine
 10
9.02
 20
77.62
 30
0.0
 11
9.02
 21
78.6
 31
0.0
  0
LINE
  5
AE9
330
A35
100
AcDbEntity
  8
0
100
AcDbLine
 10
9.38
 20
78.56
 30
0.0
 11
9.38
 21
77.66
 31
0.0
  0
LINE
  5
AEA
330
A35
100
AcDbEntity
  8
0
100
AcDbLine
 10
14.32
 20
80.1
 30
0.0
 11
14.32
 21
80.06
 31
0.0
  0
LINE
  5
AEB
330
A35
100
AcDbEntity
  8
0
100
AcDbLine
 10
14.22
 20
78.46
 30
0.0
 11
14.36
 21
78.56
 31
0.0
  0
LINE
  5
AEC
330
A35
100
AcDbEntity
  8
0
100
AcDbLine
 10
13.48
 20
80.62
 30
0.0
 11
1.68
 21
76.44
 31
0.0
  0
LINE
  5
AED
330
A35
100
AcDbEntity
  8
0
100
AcDbLine
 10
5.9
 20
77.52
 30
0.0
 11
9.24
 21
78.7
 31
0.0
  0
LINE
  5
AEE
330
A35
100
AcDbEntity
  8
0
100
AcDbLine
 10
8.26
 20
77.66
 30
0.0
 11
8.16
 21
77.66
 31
0.0
  0
LINE
  5
AEF
330
A35
100
AcDbEntity
  8
0
100
AcDbLine
 10
6.2
 20
76.64
 30
0.0
 11
6.14
 21
76.64
 31
0.0
  0
LINE
  5
AF0
330
A35
100
AcDbEntity
  8
0
100
AcDbLine
 10
8.96
 20
77.62
 30
0.0
 11
9.02
 21
77.62
 31
0.0
  0
LINE
  5
AF1
330
A35
100
AcDbEntity
  8
0
100
AcDbLine
 10
5.82
 20
76.44
 30
0.0
 11
9.3
 21
77.66
 31
0.0
  0
LINE
  5
AF2
330
A35
100
AcDbEntity
  8
0
100
AcDbLine
 10
9.38
 20
77.66
 30
0.0
 11
9.3
 21
77.66
 31
0.0
  0
LINE
  5
AF3
330
A35
100
AcDbEntity
  8
0
100
AcDbLine
 10
5.82
 20
76.4
 30
0.0
 11
5.72
 21
76.4
 31
0.0
  0
LINE
  5
AF4
330
A35
100
AcDbEntity
  8
0
100
AcDbLine
 10
14.18
 20
78.5
 30
0.0
 11
14.14
 21
78.5
 31
0.0
  0
LINE
  5
AF5
330
A35
100
AcDbEntity
  8
0
100
AcDbLine
 10
14.14
 20
78.08
 30
0.0
 11
14.14
 21
78.14
 31
0.0
  0
LINE
  5
AF6
330
A35
100
AcDbEntity
  8
0
100
AcDbLine
 10
14.14
 20
78.14
 30
0.0
 11
14.14
 21
78.5
 31
0.0
  0
LINE
  5
AF7
330
A35
100
AcDbEntity
  8
0
100
AcDbLine
 10
14.36
 20
79.92
 30
0.0
 11
14.36
 21
78.66
 31
0.0
  0
LINE
  5
AF8
330
A35
100
AcDbEntity
  8
0
100
AcDbLine
 10
14.18
 20
78.14
 30
0.0
 11
14.14
 21
78.14
 31
0.0
  0
LINE
  5
AF9
330
A35
100
AcDbEntity
  8
0
100
AcDbLine
 10
14.64
 20
77.86
 30
0.0
 11
14.6
 21
77.86
 31
0.0
  0
LINE
  5
AFA
330
A35
100
AcDbEntity
  8
0
100
AcDbLine
 10
14.64
 20
77.94
 30
0.0
 11
14.64
 21
77.86
 31
0.0
  0
LINE
  5
AFB
330
A35
100
AcDbEntity
  8
0
100
AcDbLine
 10
50.4
 20
53.84
 30
0.0
 11
50.54
 21
53.74
 31
0.0
  0
LINE
  5
AFC
330
A35
100
AcDbEntity
  8
0
100
AcDbLine
 10
7.6
 20
75.36
 30
0.0
 11
50.32
 21
53.84
 31
0.0
  0
LINE
  5
AFD
330
A35
100
AcDbEntity
  8
0
100
AcDbLine
 10
6.14
 20
76.64
 30
0.0
 11
6.24
 21
76.58
 31
0.0
  0
LINE
  5
AFE
330
A35
100
AcDbEntity
  8
0
100
AcDbLine
 10
8.16
 20
77.66
 30
0.0
 11
7.98
 21
77.72
 31
0.0
  0
LINE
  5
AFF
330
A35
100
AcDbEntity
  8
0
100
AcDbLine
 10
53.18
 20
55.34
 30
0.0
 11
11.04
 21
76.58
 31
0.0
  0
LINE
  5
B00
330
A35
100
AcDbEntity
  8
0
100
AcDbLine
 10
9.02
 20
77.62
 30
0.0
 11
9.1
 21
77.58
 31
0.0
  0
LINE
  5
B01
330
A35
100
AcDbEntity
  8
0
100
AcDbLine
 10
9.34
 20
77.66
 30
0.0
 11
9.38
 21
77.66
 31
0.0
  0
LINE
  5
B02
330
A35
100
AcDbEntity
  8
0
100
AcDbLine
 10
14.0
 20
80.34
 30
0.0
 11
14.32
 21
80.1
 31
0.0
  0
LINE
  5
B03
330
A35
100
AcDbEntity
  8
0
100
AcDbLine
 10
14.08
 20
78.14
 30
0.0
 11
14.14
 21
78.14
 31
0.0
  0
LINE
  5
B04
330
A35
100
AcDbEntity
  8
0
100
AcDbLine
 10
14.32
 20
80.06
 30
0.0
 11
13.94
 21
80.24
 31
0.0
  0
LINE
  5
B05
330
A35
100
AcDbEntity
  8
0
100
AcDbLine
 10
14.32
 20
80.1
 30
0.0
 11
13.94
 21
80.24
 31
0.0
  0
LINE
  5
B06
330
A35
100
AcDbEntity
  8
0
100
AcDbLine
 10
13.9
 20
80.44
 30
0.0
 11
13.52
 21
80.62
 31
0.0
  0
LINE
  5
B07
330
A35
100
AcDbEntity
  8
0
100
AcDbLine
 10
59.48
 20
55.68
 30
0.0
 11
59.42
 21
55.68
 31
0.0
  0
LINE
  5
B08
330
A35
100
AcDbEntity
  8
0
100
AcDbLine
 10
59.52
 20
55.34
 30
0.0
 11
59.48
 21
55.34
 31
0.0
  0
LINE
  5
B09
330
A35
100
AcDbEntity
  8
0
100
AcDbLine
 10
59.48
 20
55.3
 30
0.0
 11
59.48
 21
55.26
 31
0.0
  0
LINE
  5
B0A
330
A35
100
AcDbEntity
  8
0
100
AcDbLine
 10
53.32
 20
55.2
 30
0.0
 11
53.32
 21
55.26
 31
0.0
  0
LINE
  5
B0B
330
A35
100
AcDbEntity
  8
0
100
AcDbLine
 10
53.32
 20
54.98
 30
0.0
 11
53.32
 21
55.02
 31
0.0
  0
LINE
  5
B0C
330
A35
100
AcDbEntity
  8
0
100
AcDbLine
 10
59.48
 20
55.3
 30
0.0
 11
59.48
 21
55.34
 31
0.0
  0
LINE
  5
B0D
330
A35
100
AcDbEntity
  8
0
100
AcDbLine
 10
53.08
 20
54.98
 30
0.0
 11
53.12
 21
55.02
 31
0.0
  0
LINE
  5
B0E
330
A35
100
AcDbEntity
  8
0
100
AcDbLine
 10
50.4
 20
53.8
 30
0.0
 11
50.4
 21
53.84
 31
0.0
  0
LINE
  5
B0F
330
A35
100
AcDbEntity
  8
0
100
AcDbLine
 10
50.4
 20
53.84
 30
0.0
 11
50.36
 21
53.84
 31
0.0
  0
LINE
  5
B10
330
A35
100
AcDbEntity
  8
0
100
AcDbLine
 10
50.36
 20
53.84
 30
0.0
 11
50.4
 21
53.84
 31
0.0
  0
LINE
  5
B11
330
A35
100
AcDbEntity
  8
0
100
AcDbLine
 10
50.36
 20
53.84
 30
0.0
 11
50.32
 21
53.84
 31
0.0
  0
LINE
  5
B12
330
A35
100
AcDbEntity
  8
0
100
AcDbLine
 10
50.32
 20
53.84
 30
0.0
 11
50.36
 21
53.84
 31
0.0
  0
LINE
  5
B13
330
A35
100
AcDbEntity
  8
0
100
AcDbLine
 10
9.34
 20
78.7
 30
0.0
 11
9.3
 21
78.7
 31
0.0
  0
LINE
  5
B14
330
A35
100
AcDbEntity
  8
0
100
AcDbLine
 10
13.62
 20
80.24
 30
0.0
 11
13.56
 21
80.3
 31
0.0
  0
LINE
  5
B15
330
A35
100
AcDbEntity
  8
0
100
AcDbLine
 10
0.0
 20
73.16
 30
0.0
 11
0.0
 21
73.48
 31
0.0
  0
LINE
  5
B16
330
A35
100
AcDbEntity
  8
0
100
AcDbLine
 10
0.0
 20
73.16
 30
0.0
 11
0.0
 21
73.44
 31
0.0
  0
LINE
  5
B17
330
A35
100
AcDbEntity
  8
0
100
AcDbLine
 10
5.76
 20
76.4
 30
0.0
 11
5.76
 21
77.24
 31
0.0
  0
LINE
  5
B18
330
A35
100
AcDbEntity
  8
0
100
AcDbLine
 10
6.2
 20
77.62
 30
0.0
 11
6.2
 21
76.64
 31
0.0
  0
LINE
  5
B19
330
A35
100
AcDbEntity
  8
0
100
AcDbLine
 10
1.22
 20
73.06
 30
0.0
 11
1.12
 21
73.06
 31
0.0
  0
LINE
  5
B1A
330
A35
100
AcDbEntity
  8
0
100
AcDbLine
 10
8.96
 20
77.62
 30
0.0
 11
8.96
 21
78.6
 31
0.0
  0
LINE
  5
B1B
330
A35
100
AcDbEntity
  8
0
100
AcDbLine
 10
10.24
 20
74.0
 30
0.0
 11
10.24
 21
74.04
 31
0.0
  0
LINE
  5
B1C
330
A35
100
AcDbEntity
  8
0
100
AcDbLine
 10
13.76
 20
75.26
 30
0.0
 11
13.8
 21
75.36
 31
0.0
  0
LINE
  5
B1D
330
A35
100
AcDbEntity
  8
0
100
AcDbLine
 10
14.08
 20
75.36
 30
0.0
 11
14.04
 21
75.32
 31
0.0
  0
LINE
  5
B1E
330
A35
100
AcDbEntity
  8
0
100
AcDbLine
 10
14.08
 20
75.36
 30
0.0
 11
14.04
 21
75.26
 31
0.0
  0
LINE
  5
B1F
330
A35
100
AcDbEntity
  8
0
100
AcDbLine
 10
13.42
 20
80.2
 30
0.0
 11
13.62
 21
80.24
 31
0.0
  0
LINE
  5
B20
330
A35
100
AcDbEntity
  8
0
100
AcDbLine
 10
5.9
 20
77.52
 30
0.0
 11
9.24
 21
78.7
 31
0.0
  0
LINE
  5
B21
330
A35
100
AcDbEntity
  8
0
100
AcDbLine
 10
7.98
 20
77.72
 30
0.0
 11
8.12
 21
77.76
 31
0.0
  0
LINE
  5
B22
330
A35
100
AcDbEntity
  8
0
100
AcDbLine
 10
8.3
 20
77.66
 30
0.0
 11
8.16
 21
77.62
 31
0.0
  0
LINE
  5
B23
330
A35
100
AcDbEntity
  8
0
100
AcDbLine
 10
0.0
 20
73.48
 30
0.0
 11
14.14
 21
78.5
 31
0.0
  0
LINE
  5
B24
330
A35
100
AcDbEntity
  8
0
100
AcDbLine
 10
14.08
 20
78.14
 30
0.0
 11
14.08
 21
78.46
 31
0.0
  0
LINE
  5
B25
330
A35
100
AcDbEntity
  8
0
100
AcDbLine
 10
14.18
 20
78.14
 30
0.0
 11
14.18
 21
78.5
 31
0.0
  0
LINE
  5
B26
330
A35
100
AcDbEntity
  8
0
100
AcDbLine
 10
14.6
 20
77.86
 30
0.0
 11
14.56
 21
77.86
 31
0.0
  0
LINE
  5
B27
330
A35
100
AcDbEntity
  8
0
100
AcDbLine
 10
0.5
 20
72.88
 30
0.0
 11
0.56
 21
72.88
 31
0.0
  0
LINE
  5
B28
330
A35
100
AcDbEntity
  8
0
100
AcDbLine
 10
14.04
 20
77.66
 30
0.0
 11
1.12
 21
73.06
 31
0.0
  0
LINE
  5
B29
330
A35
100
AcDbEntity
  8
0
100
AcDbLine
 10
14.56
 20
77.8
 30
0.0
 11
14.08
 21
77.66
 31
0.0
  0
LINE
  5
B2A
330
A35
100
AcDbEntity
  8
0
100
AcDbLine
 10
1.02
 20
73.02
 30
0.0
 11
0.56
 21
72.88
 31
0.0
  0
LINE
  5
B2B
330
A35
100
AcDbEntity
  8
0
100
AcDbLine
 10
14.64
 20
77.86
 30
0.0
 11
14.04
 21
77.62
 31
0.0
  0
LINE
  5
B2C
330
A35
100
AcDbEntity
  8
0
100
AcDbLine
 10
1.12
 20
73.06
 30
0.0
 11
0.56
 21
72.82
 31
0.0
  0
LINE
  5
B2D
330
A35
100
AcDbEntity
  8
0
100
AcDbLine
 10
14.64
 20
77.9
 30
0.0
 11
14.64
 21
77.94
 31
0.0
  0
LINE
  5
B2E
330
A35
100
AcDbEntity
  8
0
100
AcDbLine
 10
14.64
 20
78.28
 30
0.0
 11
14.64
 21
77.94
 31
0.0
  0
LINE
  5
B2F
330
A35
100
AcDbEntity
  8
0
100
AcDbLine
 10
14.64
 20
78.18
 30
0.0
 11
14.64
 21
77.9
 31
0.0
  0
LINE
  5
B30
330
A35
100
AcDbEntity
  8
0
100
AcDbLine
 10
45.94
 20
56.06
 30
0.0
 11
45.9
 21
56.06
 31
0.0
  0
LINE
  5
B31
330
A35
100
AcDbEntity
  8
0
100
AcDbLine
 10
45.94
 20
56.06
 30
0.0
 11
45.9
 21
56.06
 31
0.0
  0
LINE
  5
B32
330
A35
100
AcDbEntity
  8
0
100
AcDbLine
 10
49.7
 20
57.32
 30
0.0
 11
49.46
 21
57.28
 31
0.0
  0
LINE
  5
B33
330
A35
100
AcDbEntity
  8
0
100
AcDbLine
 10
49.7
 20
57.32
 30
0.0
 11
49.46
 21
57.32
 31
0.0
  0
LINE
  5
B34
330
A35
100
AcDbEntity
  8
0
100
AcDbLine
 10
49.52
 20
57.42
 30
0.0
 11
49.74
 21
57.42
 31
0.0
  0
LINE
  5
B35
330
A35
100
AcDbEntity
  8
0
100
AcDbLine
 10
58.86
 20
55.02
 30
0.0
 11
54.5
 21
55.16
 31
0.0
  0
LINE
  5
B36
330
A35
100
AcDbEntity
  8
0
100
AcDbLine
 10
45.34
 20
50.28
 30
0.0
 11
0.5
 21
72.82
 31
0.0
  0
LINE
  5
B37
330
A35
100
AcDbEntity
  8
0
100
AcDbLine
 10
0.0
 20
73.1
 30
0.0
 11
0.5
 21
72.88
 31
0.0
  0
LINE
  5
B38
330
A35
100
AcDbEntity
  8
0
100
AcDbLine
 10
45.38
 20
50.22
 30
0.0
 11
45.84
 21
50.04
 31
0.0
  0
LINE
  5
B39
330
A35
100
AcDbEntity
  8
0
100
AcDbLine
 10
1.02
 20
73.02
 30
0.0
 11
1.08
 21
73.02
 31
0.0
  0
LINE
  5
B3A
330
A35
100
AcDbEntity
  8
0
100
AcDbLine
 10
45.84
 20
50.46
 30
0.0
 11
45.9
 21
50.46
 31
0.0
  0
LINE
  5
B3B
330
A35
100
AcDbEntity
  8
0
100
AcDbLine
 10
1.12
 20
73.06
 30
0.0
 11
1.08
 21
73.06
 31
0.0
  0
LINE
  5
B3C
330
A35
100
AcDbEntity
  8
0
100
AcDbLine
 10
6.2
 20
76.64
 30
0.0
 11
6.28
 21
76.58
 31
0.0
  0
LINE
  5
B3D
330
A35
100
AcDbEntity
  8
0
100
AcDbLine
 10
8.16
 20
77.62
 30
0.0
 11
7.98
 21
77.72
 31
0.0
  0
LINE
  5
B3E
330
A35
100
AcDbEntity
  8
0
100
AcDbLine
 10
8.12
 20
77.76
 30
0.0
 11
8.3
 21
77.66
 31
0.0
  0
LINE
  5
B3F
330
A35
100
AcDbEntity
  8
0
100
AcDbLine
 10
53.84
 20
54.92
 30
0.0
 11
53.32
 21
55.2
 31
0.0
  0
LINE
  5
B40
330
A35
100
AcDbEntity
  8
0
100
AcDbLine
 10
8.96
 20
77.62
 30
0.0
 11
9.06
 21
77.58
 31
0.0
  0
LINE
  5
B41
330
A35
100
AcDbEntity
  8
0
100
AcDbLine
 10
14.04
 20
77.66
 30
0.0
 11
14.04
 21
77.62
 31
0.0
  0
LINE
  5
B42
330
A35
100
AcDbEntity
  8
0
100
AcDbLine
 10
58.86
 20
55.06
 30
0.0
 11
58.92
 21
55.02
 31
0.0
  0
LINE
  5
B43
330
A35
100
AcDbEntity
  8
0
100
AcDbLine
 10
58.96
 20
55.06
 30
0.0
 11
58.96
 21
55.12
 31
0.0
  0
LINE
  5
B44
330
A35
100
AcDbEntity
  8
0
100
AcDbLine
 10
14.14
 20
77.66
 30
0.0
 11
14.08
 21
77.66
 31
0.0
  0
LINE
  5
B45
330
A35
100
AcDbEntity
  8
0
100
AcDbLine
 10
14.64
 20
78.22
 30
0.0
 11
59.48
 21
55.68
 31
0.0
  0
LINE
  5
B46
330
A35
100
AcDbEntity
  8
0
100
AcDbLine
 10
14.18
 20
78.5
 30
0.0
 11
14.64
 21
78.28
 31
0.0
  0
LINE
  5
B47
330
A35
100
AcDbEntity
  8
0
100
AcDbLine
 10
59.52
 20
55.68
 30
0.0
 11
60.0
 21
55.44
 31
0.0
  0
LINE
  5
B48
330
A35
100
AcDbEntity
  8
0
100
AcDbLine
 10
10.28
 20
74.0
 30
0.0
 11
10.24
 21
74.0
 31
0.0
  0
LINE
  5
B49
330
A35
100
AcDbEntity
  8
0
100
AcDbLine
 10
10.28
 20
74.0
 30
0.0
 11
10.24
 21
74.0
 31
0.0
  0
LINE
  5
B4A
330
A35
100
AcDbEntity
  8
0
100
AcDbLine
 10
14.0
 20
75.26
 30
0.0
 11
13.8
 21
75.26
 31
0.0
  0
LINE
  5
B4B
330
A35
100
AcDbEntity
  8
0
100
AcDbLine
 10
14.0
 20
75.26
 30
0.0
 11
13.8
 21
75.26
 31
0.0
  0
LINE
  5
B4C
330
A35
100
AcDbEntity
  8
0
100
AcDbLine
 10
13.86
 20
75.36
 30
0.0
 11
14.08
 21
75.4
 31
0.0
  0
LINE
  5
B4D
330
A35
100
AcDbEntity
  8
0
100
AcDbLine
 10
14.04
 20
77.62
 30
0.0
 11
13.94
 21
77.62
 31
0.0
  0
LINE
  5
B4E
330
A35
100
AcDbEntity
  8
0
100
AcDbLine
 10
45.9
 20
56.06
 30
0.0
 11
45.9
 21
56.1
 31
0.0
  0
LINE
  5
B4F
330
A35
100
AcDbEntity
  8
0
100
AcDbLine
 10
54.5
 20
55.16
 30
0.0
 11
53.84
 21
54.92
 31
0.0
  0
LINE
  5
B50
330
A35
100
AcDbEntity
  8
0
100
AcDbLine
 10
50.54
 20
53.74
 30
0.0
 11
50.32
 21
53.7
 31
0.0
  0
LINE
  5
B51
330
A35
100
AcDbEntity
  8
0
100
AcDbLine
 10
49.42
 20
57.32
 30
0.0
 11
49.46
 21
57.42
 31
0.0
  0
LINE
  5
B52
330
A35
100
AcDbEntity
  8
0
100
AcDbLine
 10
49.74
 20
57.42
 30
0.0
 11
49.7
 21
57.32
 31
0.0
  0
LINE
  5
B53
330
A35
100
AcDbEntity
  8
0
100
AcDbLine
 10
49.74
 20
57.42
 30
0.0
 11
49.7
 21
57.32
 31
0.0
  0
LINE
  5
B54
330
A35
100
AcDbEntity
  8
0
100
AcDbLine
 10
59.42
 20
55.26
 30
0.0
 11
58.86
 21
55.02
 31
0.0
  0
LINE
  5
B55
330
A35
100
AcDbEntity
  8
0
100
AcDbLine
 10
45.94
 20
50.46
 30
0.0
 11
45.34
 21
50.28
 31
0.0
  0
LINE
  5
B56
330
A35
100
AcDbEntity
  8
0
100
AcDbLine
 10
59.48
 20
55.26
 30
0.0
 11
59.42
 21
55.26
 31
0.0
  0
LINE
  5
B57
330
A35
100
AcDbEntity
  8
0
100
AcDbLine
 10
45.38
 20
50.22
 30
0.0
 11
45.42
 21
50.28
 31
0.0
  0
LINE
  5
B58
330
A35
100
AcDbEntity
  8
0
100
AcDbLine
 10
45.9
 20
50.0
 30
0.0
 11
60.0
 21
55.02
 31
0.0
  0
LINE
  5
B59
330
A35
100
AcDbEntity
  8
0
100
AcDbLine
 10
50.32
 20
53.7
 30
0.0
 11
45.94
 21
50.46
 31
0.0
  0
LINE
  5
B5A
330
A35
100
AcDbEntity
  8
0
100
AcDbLine
 10
59.48
 20
55.58
 30
0.0
 11
59.48
 21
55.3
 31
0.0
  0
LINE
  5
B5B
330
A35
100
AcDbEntity
  8
0
100
AcDbLine
 10
59.52
 20
55.3
 30
0.0
 11
59.52
 21
55.34
 31
0.0
  0
LINE
  5
B5C
330
A35
100
AcDbEntity
  8
0
100
AcDbLine
 10
60.0
 20
55.06
 30
0.0
 11
60.0
 21
55.44
 31
0.0
  0
LINE
  5
B5D
330
A35
100
AcDbEntity
  8
0
100
AcDbLine
 10
53.32
 20
54.98
 30
0.0
 11
53.28
 21
54.98
 31
0.0
  0
LINE
  5
B5E
330
A35
100
AcDbEntity
  8
0
100
AcDbLine
 10
53.32
 20
55.2
 30
0.0
 11
53.32
 21
55.26
 31
0.0
  0
LINE
  5
B5F
330
A35
100
AcDbEntity
  8
0
100
AcDbLine
 10
53.28
 20
55.02
 30
0.0
 11
53.32
 21
55.02
 31
0.0
  0
LINE
  5
B60
330
A35
100
AcDbEntity
  8
0
100
AcDbLine
 10
9.3
 20
77.66
 30
0.0
 11
9.34
 21
77.66
 31
0.0
  0
LINE
  5
B61
330
A35
100
AcDbEntity
  8
0
100
AcDbLine
 10
14.36
 20
78.56
 30
0.0
 11
14.36
 21
78.66
 31
0.0
  0
LINE
  5
B62
330
A35
100
AcDbEntity
  8
0
100
AcDbLine
 10
13.48
 20
80.62
 30
0.0
 11
13.52
 21
80.62
 31
0.0
  0
LINE
  5
B63
330
A35
100
AcDbEntity
  8
0
100
AcDbLine
 10
13.62
 20
80.24
 30
0.0
 11
13.62
 21
80.2
 31
0.0
  0
LINE
  5
B64
330
A35
100
AcDbEntity
  8
0
100
AcDbLine
 10
5.82
 20
76.4
 30
0.0
 11
5.82
 21
76.44
 31
0.0
  0
LINE
  5
B65
330
A35
100
AcDbEntity
  8
0
100
AcDbLine
 10
13.9
 20
80.24
 30
0.0
 11
13.94
 21
80.24
 31
0.0
  0
LINE
  5
B66
330
A35
100
AcDbEntity
  8
0
100
AcDbLine
 10
9.24
 20
78.7
 30
0.0
 11
9.3
 21
78.7
 31
0.0
  0
LINE
  5
B67
330
A35
100
AcDbEntity
  8
0
100
AcDbLine
 10
13.48
 20
80.58
 30
0.0
 11
13.48
 21
80.62
 31
0.0
  0
LINE
  5
B68
330
A35
100
AcDbEntity
  8
0
100
AcDbLine
 10
13.9
 20
80.24
 30
0.0
 11
13.94
 21
80.24
 31
0.0
  0
LINE
  5
B69
330
A35
100
AcDbEntity
  8
0
100
AcDbLine
 10
53.18
 20
55.3
 30
0.0
 11
53.18
 21
55.34
 31
0.0
  0
LINE
  5
B6A
330
A35
100
AcDbEntity
  8
0
100
AcDbLine
 10
45.9
 20
50.04
 30
0.0
 11
45.84
 21
50.04
 31
0.0
  0
LINE
  5
B6B
330
A35
100
AcDbEntity
  8
0
100
AcDbLine
 10
59.94
 20
55.02
 30
0.0
 11
60.0
 21
55.02
 31
0.0
  0
LINE
  5
B6C
330
A35
100
AcDbEntity
  8
0
100
AcDbLine
 10
60.0
 20
55.02
 30
0.0
 11
60.0
 21
55.06
 31
0.0
  0
LINE
  5
B6D
330
A35
100
AcDbEntity
  8
0
100
AcDbLine
 10
45.9
 20
50.04
 30
0.0
 11
45.9
 21
50.0
 31
0.0
  0
LINE
  5
B6E
330
A35
100
AcDbEntity
  8
0
100
AcDbLine
 10
58.96
 20
55.12
 30
0.0
 11
58.96
 21
55.06
 31
0.0
  0
LINE
  5
B6F
330
A35
100
AcDbEntity
  8
0
100
AcDbLine
 10
59.48
 20
55.68
 30
0.0
 11
59.52
 21
55.68
 31
0.0
  0
LINE
  5
B70
330
A35
100
AcDbEntity
  8
0
100
AcDbLine
 10
59.48
 20
55.26
 30
0.0
 11
59.52
 21
55.3
 31
0.0
  0
LINE
  5
B71
330
A35
100
AcDbEntity
  8
0
100
AcDbLine
 10
59.94
 20
55.02
 30
0.0
 11
60.0
 21
55.02
 31
0.0
  0
LINE
  5
B72
330
A35
100
AcDbEntity
  8
0
100
AcDbLine
 10
1.12
 20
73.06
 30
0.0
 11
1.08
 21
73.06
 31
0.0
  0
LINE
  5
B73
330
A35
100
AcDbEntity
  8
0
100
AcDbLine
 10
0.0
 20
73.1
 30
0.0
 11
0.0
 21
73.16
 31
0.0
  0
LINE
  5
B74
330
A35
100
AcDbEntity
  8
0
100
AcDbLine
 10
0.0
 20
73.44
 30
0.0
 11
0.0
 21
73.48
 31
0.0
  0
LINE
  5
B75
330
A35
100
AcDbEntity
  8
0
100
AcDbLine
 10
14.56
 20
77.8
 30
0.0
 11
14.56
 21
77.86
 31
0.0
  0
LINE
  5
B76
330
A35
100
AcDbEntity
  8
0
100
AcDbLine
 10
0.5
 20
72.88
 30
0.0
 11
0.5
 21
72.82
 31
0.0
  0
LINE
  5
B77
330
A35
100
AcDbEntity
  8
0
100
AcDbLine
 10
49.52
 20
57.42
 30
0.0
 11
49.46
 21
57.42
 31
0.0
  0
LINE
  5
B78
330
A35
100
AcDbEntity
  8
0
100
AcDbLine
 10
13.86
 20
75.36
 30
0.0
 11
13.8
 21
75.36
 31
0.0
  0
LINE
  5
B79
330
A35
100
AcDbEntity
  8
0
100
AcDbLine
 10
14.08
 20
75.36
 30
0.0
 11
14.08
 21
75.4
 31
0.0
  0
LINE
  5
B7A
330
A35
100
AcDbEntity
  8
0
100
AcDbLine
 10
59.48
 20
55.68
 30
0.0
 11
59.48
 21
55.58
 31
0.0
  0
LINE
  5
B7B
330
A35
100
AcDbEntity
  8
0
100
AcDbLine
 10
13.8
 20
75.26
 30
0.0
 11
13.76
 21
75.26
 31
0.0
  0
LINE
  5
B7C
330
A35
100
AcDbEntity
  8
0
100
AcDbLine
 10
49.46
 20
57.32
 30
0.0
 11
49.42
 21
57.32
 31
0.0
  0
LINE
  5
B7D
330
A35
100
AcDbEntity
  8
0
100
AcDbLine
 10
14.64
 20
77.86
 30
0.0
 11
14.64
 21
77.9
 31
0.0
  0
LINE
  5
B7E
330
A35
100
AcDbEntity
  8
0
100
AcDbLine
 10
14.64
 20
78.22
 30
0.0
 11
14.64
 21
78.18
 31
0.0
  0
LINE
  5
B7F
330
A35
100
AcDbEntity
  8
0
100
AcDbLine
 10
0.5
 20
72.82
 30
0.0
 11
0.56
 21
72.82
 31
0.0
  0
LINE
  5
B80
330
A35
100
AcDbEntity
  8
0
100
AcDbLine
 10
14.0
 20
75.26
 30
0.0
 11
14.04
 21
75.26
 31
0.0
  0
LINE
  5
B81
330
A35
100
AcDbEntity
  8
0
100
AcDbLine
 10
13.76
 20
75.26
 30
0.0
 11
13.8
 21
75.26
 31
0.0
  0
POLYLINE
  5
B82
330
A35
100
AcDbEntity
  8
0
100
AcDb2dPolyline
 66
1
 10
0.0
 20
0.0
 30
0.0
 70
0
  0
VERTEX
  5
B84
330
A35
100
AcDbEntity
  8
0
100
AcDbVertex
100
AcDb2dVertex
 10
53.32
 20
55.26
 30
0.0
 70
0
  0
VERTEX
  5
B85
330
A35
100
AcDbEntity
  8
0
100
AcDbVertex
100
AcDb2dVertex
 10
53.28
 20
55.3
 30
0.0
 70
0
  0
VERTEX
  5
B86
330
A35
100
AcDbEntity
  8
0
100
AcDbVertex
100
AcDb2dVertex
 10
53.22
 20
55.3
 30
0.0
 70
0
  0
VERTEX
  5
B87
330
A35
100
AcDbEntity
  8
0
100
AcDbVertex
100
AcDb2dVertex
 10
53.18
 20
55.34
 30
0.0
 70
0
  0
SEQEND
  5
B83
330
A35
100
AcDbEntity
  8
0
  0
POLYLINE
  5
B88
330
A35
100
AcDbEntity
  8
0
100
AcDb2dPolyline
 66
1
 10
0.0
 20
0.0
 30
0.0
 70
0
  0
VERTEX
  5
B8A
330
A35
100
AcDbEntity
  8
0
100
AcDbVertex
100
AcDb2dVertex
 10
53.32
 20
55.02
 30
0.0
 70
0
  0
VERTEX
  5
B8B
330
A35
100
AcDbEntity
  8
0
100
AcDbVertex
100
AcDb2dVertex
 10
53.28
 20
55.02
 30
0.0
 70
0
  0
VERTEX
  5
B8C
330
A35
100
AcDbEntity
  8
0
100
AcDbVertex
100
AcDb2dVertex
 10
53.28
 20
55.16
 30
0.0
 70
0
  0
VERTEX
  5
B8D
330
A35
100
AcDbEntity
  8
0
100
AcDbVertex
100
AcDb2dVertex
 10
53.32
 20
55.16
 30
0.0
 70
0
  0
VERTEX
  5
B8E
330
A35
100
AcDbEntity
  8
0
100
AcDbVertex
100
AcDb2dVertex
 10
53.32
 20
55.2
 30
0.0
 70
0
  0
SEQEND
  5
B89
330
A35
100
AcDbEntity
  8
0
  0
POLYLINE
  5
B8F
330
A35
100
AcDbEntity
  8
0
100
AcDb2dPolyline
 66
1
 10
0.0
 20
0.0
 30
0.0
 70
0
  0
VERTEX
  5
B91
330
A35
100
AcDbEntity
  8
0
100
AcDbVertex
100
AcDb2dVertex
 10
53.32
 20
54.98
 30
0.0
 70
0
  0
VERTEX
  5
B92
330
A35
100
AcDbEntity
  8
0
100
AcDbVertex
100
AcDb2dVertex
 10
53.28
 20
54.98
 30
0.0
 70
0
  0
VERTEX
  5
B93
330
A35
100
AcDbEntity
  8
0
100
AcDbVertex
100
AcDb2dVertex
 10
53.22
 20
54.88
 30
0.0
 70
0
  0
VERTEX
  5
B94
330
A35
100
AcDbEntity
  8
0
100
AcDbVertex
100
AcDb2dVertex
 10
53.22
 20
54.84
 30
0.0
 70
0
  0
VERTEX
  5
B95
330
A35
100
AcDbEntity
  8
0
100
AcDbVertex
100
AcDb2dVertex
 10
53.18
 20
54.78
 30
0.0
 70
0
  0
VERTEX
  5
B96
330
A35
100
AcDbEntity
  8
0
100
AcDbVertex
100
AcDb2dVertex
 10
53.18
 20
54.74
 30
0.0
 70
0
  0
VERTEX
  5
B97
330
A35
100
AcDbEntity
  8
0
100
AcDbVertex
100
AcDb2dVertex
 10
53.12
 20
54.68
 30
0.0
 70
0
  0
VERTEX
  5
B98
330
A35
100
AcDbEntity
  8
0
100
AcDbVertex
100
AcDb2dVertex
 10
53.08
 20
54.68
 30
0.0
 70
0
  0
VERTEX
  5
B99
330
A35
100
AcDbEntity
  8
0
100
AcDbVertex
100
AcDb2dVertex
 10
53.04
 20
54.6
 30
0.0
 70
0
  0
VERTEX
  5
B9A
330
A35
100
AcDbEntity
  8
0
100
AcDbVertex
100
AcDb2dVertex
 10
52.94
 20
54.54
 30
0.0
 70
0
  0
VERTEX
  5
B9B
330
A35
100
AcDbEntity
  8
0
100
AcDbVertex
100
AcDb2dVertex
 10
52.94
 20
54.5
 30
0.0
 70
0
  0
VERTEX
  5
B9C
330
A35
100
AcDbEntity
  8
0
100
AcDbVertex
100
AcDb2dVertex
 10
52.9
 20
54.46
 30
0.0
 70
0
  0
VERTEX
  5
B9D
330
A35
100
AcDbEntity
  8
0
100
AcDbVertex
100
AcDb2dVertex
 10
52.84
 20
54.46
 30
0.0
 70
0
  0
VERTEX
  5
B9E
330
A35
100
AcDbEntity
  8
0
100
AcDbVertex
100
AcDb2dVertex
 10
52.8
 20
54.36
 30
0.0
 70
0
  0
VERTEX
  5
B9F
330
A35
100
AcDbEntity
  8
0
100
AcDbVertex
100
AcDb2dVertex
 10
52.7
 20
54.32
 30
0.0
 70
0
  0
VERTEX
  5
BA0
330
A35
100
AcDbEntity
  8
0
100
AcDbVertex
100
AcDb2dVertex
 10
52.7
 20
54.26
 30
0.0
 70
0
  0
VERTEX
  5
BA1
330
A35
100
AcDbEntity
  8
0
100
AcDbVertex
100
AcDb2dVertex
 10
52.66
 20
54.22
 30
0.0
 70
0
  0
VERTEX
  5
BA2
330
A35
100
AcDbEntity
  8
0
100
AcDbVertex
100
AcDb2dVertex
 10
52.56
 20
54.18
 30
0.0
 70
0
  0
VERTEX
  5
BA3
330
A35
100
AcDbEntity
  8
0
100
AcDbVertex
100
AcDb2dVertex
 10
52.48
 20
54.12
 30
0.0
 70
0
  0
VERTEX
  5
BA4
330
A35
100
AcDbEntity
  8
0
100
AcDbVertex
100
AcDb2dVertex
 10
52.48
 20
54.08
 30
0.0
 70
0
  0
VERTEX
  5
BA5
330
A35
100
AcDbEntity
  8
0
100
AcDbVertex
100
AcDb2dVertex
 10
52.42
 20
54.04
 30
0.0
 70
0
  0
VERTEX
  5
BA6
330
A35
100
AcDbEntity
  8
0
100
AcDbVertex
100
AcDb2dVertex
 10
52.38
 20
54.04
 30
0.0
 70
0
  0
VERTEX
  5
BA7
330
A35
100
AcDbEntity
  8
0
100
AcDbVertex
100
AcDb2dVertex
 10
52.34
 20
53.98
 30
0.0
 70
0
  0
VERTEX
  5
BA8
330
A35
100
AcDbEntity
  8
0
100
AcDbVertex
100
AcDb2dVertex
 10
52.28
 20
53.98
 30
0.0
 70
0
  0
VERTEX
  5
BA9
330
A35
100
AcDbEntity
  8
0
100
AcDbVertex
100
AcDb2dVertex
 10
52.24
 20
53.94
 30
0.0
 70
0
  0
VERTEX
  5
BAA
330
A35
100
AcDbEntity
  8
0
100
AcDbVertex
100
AcDb2dVertex
 10
52.14
 20
53.88
 30
0.0
 70
0
  0
VERTEX
  5
BAB
330
A35
100
AcDbEntity
  8
0
100
AcDbVertex
100
AcDb2dVertex
 10
52.04
 20
53.84
 30
0.0
 70
0
  0
VERTEX
  5
BAC
330
A35
100
AcDbEntity
  8
0
100
AcDbVertex
100
AcDb2dVertex
 10
51.96
 20
53.8
 30
0.0
 70
0
  0
VERTEX
  5
BAD
330
A35
100
AcDbEntity
  8
0
100
AcDbVertex
100
AcDb2dVertex
 10
51.86
 20
53.74
 30
0.0
 70
0
  0
VERTEX
  5
BAE
330
A35
100
AcDbEntity
  8
0
100
AcDbVertex
100
AcDb2dVertex
 10
51.76
 20
53.74
 30
0.0
 70
0
  0
VERTEX
  5
BAF
330
A35
100
AcDbEntity
  8
0
100
AcDbVertex
100
AcDb2dVertex
 10
51.72
 20
53.7
 30
0.0
 70
0
  0
VERTEX
  5
BB0
330
A35
100
AcDbEntity
  8
0
100
AcDbVertex
100
AcDb2dVertex
 10
51.58
 20
53.7
 30
0.0
 70
0
  0
VERTEX
  5
BB1
330
A35
100
AcDbEntity
  8
0
100
AcDbVertex
100
AcDb2dVertex
 10
51.54
 20
53.66
 30
0.0
 70
0
  0
VERTEX
  5
BB2
330
A35
100
AcDbEntity
  8
0
100
AcDbVertex
100
AcDb2dVertex
 10
51.44
 20
53.66
 30
0.0
 70
0
  0
VERTEX
  5
BB3
330
A35
100
AcDbEntity
  8
0
100
AcDbVertex
100
AcDb2dVertex
 10
51.44
 20
53.6
 30
0.0
 70
0
  0
VERTEX
  5
BB4
330
A35
100
AcDbEntity
  8
0
100
AcDbVertex
100
AcDb2dVertex
 10
51.12
 20
53.6
 30
0.0
 70
0
  0
VERTEX
  5
BB5
330
A35
100
AcDbEntity
  8
0
100
AcDbVertex
100
AcDb2dVertex
 10
51.02
 20
53.6
 30
0.0
 70
0
  0
VERTEX
  5
BB6
330
A35
100
AcDbEntity
  8
0
100
AcDbVertex
100
AcDb2dVertex
 10
50.92
 20
53.6
 30
0.0
 70
0
  0
VERTEX
  5
BB7
330
A35
100
AcDbEntity
  8
0
100
AcDbVertex
100
AcDb2dVertex
 10
50.88
 20
53.66
 30
0.0
 70
0
  0
VERTEX
  5
BB8
330
A35
100
AcDbEntity
  8
0
100
AcDbVertex
100
AcDb2dVertex
 10
50.74
 20
53.66
 30
0.0
 70
0
  0
VERTEX
  5
BB9
330
A35
100
AcDbEntity
  8
0
100
AcDbVertex
100
AcDb2dVertex
 10
50.68
 20
53.7
 30
0.0
 70
0
  0
VERTEX
  5
BBA
330
A35
100
AcDbEntity
  8
0
100
AcDbVertex
100
AcDb2dVertex
 10
50.6
 20
53.7
 30
0.0
 70
0
  0
VERTEX
  5
BBB
330
A35
100
AcDbEntity
  8
0
100
AcDbVertex
100
AcDb2dVertex
 10
50.54
 20
53.74
 30
0.0
 70
0
  0
SEQEND
  5
B90
330
A35
100
AcDbEntity
  8
0
  0
POLYLINE
  5
BBC
330
A35
100
AcDbEntity
  8
0
100
AcDb2dPolyline
 66
1
 10
0.0
 20
0.0
 30
0.0
 70
0
  0
VERTEX
  5
BBE
330
A35
100
AcDbEntity
  8
0
100
AcDbVertex
100
AcDb2dVertex
 10
53.28
 20
55.02
 30
0.0
 70
0
  0
VERTEX
  5
BBF
330
A35
100
AcDbEntity
  8
0
100
AcDbVertex
100
AcDb2dVertex
 10
53.32
 20
55.02
 30
0.0
 70
0
  0
VERTEX
  5
BC0
330
A35
100
AcDbEntity
  8
0
100
AcDbVertex
100
AcDb2dVertex
 10
53.32
 20
54.98
 30
0.0
 70
0
  0
VERTEX
  5
BC1
330
A35
100
AcDbEntity
  8
0
100
AcDbVertex
100
AcDb2dVertex
 10
53.28
 20
54.98
 30
0.0
 70
0
  0
SEQEND
  5
BBD
330
A35
100
AcDbEntity
  8
0
  0
POLYLINE
  5
BC2
330
A35
100
AcDbEntity
  8
0
100
AcDb2dPolyline
 66
1
 10
0.0
 20
0.0
 30
0.0
 70
0
  0
VERTEX
  5
BC4
330
A35
100
AcDbEntity
  8
0
100
AcDbVertex
100
AcDb2dVertex
 10
53.28
 20
54.98
 30
0.0
 70
0
  0
VERTEX
  5
BC5
330
A35
100
AcDbEntity
  8
0
100
AcDbVertex
100
AcDb2dVertex
 10
53.22
 20
54.88
 30
0.0
 70
0
  0
VERTEX
  5
BC6
330
A35
100
AcDbEntity
  8
0
100
AcDbVertex
100
AcDb2dVertex
 10
53.18
 20
54.78
 30
0.0
 70
0
  0
VERTEX
  5
BC7
330
A35
100
AcDbEntity
  8
0
100
AcDbVertex
100
AcDb2dVertex
 10
53.12
 20
54.78
 30
0.0
 70
0
  0
VERTEX
  5
BC8
330
A35
100
AcDbEntity
  8
0
100
AcDbVertex
100
AcDb2dVertex
 10
53.08
 20
54.68
 30
0.0
 70
0
  0
VERTEX
  5
BC9
330
A35
100
AcDbEntity
  8
0
100
AcDbVertex
100
AcDb2dVertex
 10
53.04
 20
54.6
 30
0.0
 70
0
  0
VERTEX
  5
BCA
330
A35
100
AcDbEntity
  8
0
100
AcDbVertex
100
AcDb2dVertex
 10
52.98
 20
54.6
 30
0.0
 70
0
  0
VERTEX
  5
BCB
330
A35
100
AcDbEntity
  8
0
100
AcDbVertex
100
AcDb2dVertex
 10
52.94
 20
54.54
 30
0.0
 70
0
  0
VERTEX
  5
BCC
330
A35
100
AcDbEntity
  8
0
100
AcDbVertex
100
AcDb2dVertex
 10
52.9
 20
54.46
 30
0.0
 70
0
  0
VERTEX
  5
BCD
330
A35
100
AcDbEntity
  8
0
100
AcDbVertex
100
AcDb2dVertex
 10
52.84
 20
54.46
 30
0.0
 70
0
  0
VERTEX
  5
BCE
330
A35
100
AcDbEntity
  8
0
100
AcDbVertex
100
AcDb2dVertex
 10
52.8
 20
54.4
 30
0.0
 70
0
  0
VERTEX
  5
BCF
330
A35
100
AcDbEntity
  8
0
100
AcDbVertex
100
AcDb2dVertex
 10
52.7
 20
54.32
 30
0.0
 70
0
  0
VERTEX
  5
BD0
330
A35
100
AcDbEntity
  8
0
100
AcDbVertex
100
AcDb2dVertex
 10
52.66
 20
54.26
 30
0.0
 70
0
  0
VERTEX
  5
BD1
330
A35
100
AcDbEntity
  8
0
100
AcDbVertex
100
AcDb2dVertex
 10
52.56
 20
54.18
 30
0.0
 70
0
  0
VERTEX
  5
BD2
330
A35
100
AcDbEntity
  8
0
100
AcDbVertex
100
AcDb2dVertex
 10
52.52
 20
54.12
 30
0.0
 70
0
  0
VERTEX
  5
BD3
330
A35
100
AcDbEntity
  8
0
100
AcDbVertex
100
AcDb2dVertex
 10
52.48
 20
54.12
 30
0.0
 70
0
  0
VERTEX
  5
BD4
330
A35
100
AcDbEntity
  8
0
100
AcDbVertex
100
AcDb2dVertex
 10
52.42
 20
54.08
 30
0.0
 70
0
  0
VERTEX
  5
BD5
330
A35
100
AcDbEntity
  8
0
100
AcDbVertex
100
AcDb2dVertex
 10
52.42
 20
54.04
 30
0.0
 70
0
  0
VERTEX
  5
BD6
330
A35
100
AcDbEntity
  8
0
100
AcDbVertex
100
AcDb2dVertex
 10
52.34
 20
54.04
 30
0.0
 70
0
  0
VERTEX
  5
BD7
330
A35
100
AcDbEntity
  8
0
100
AcDbVertex
100
AcDb2dVertex
 10
52.34
 20
53.98
 30
0.0
 70
0
  0
VERTEX
  5
BD8
330
A35
100
AcDbEntity
  8
0
100
AcDbVertex
100
AcDb2dVertex
 10
52.24
 20
53.98
 30
0.0
 70
0
  0
VERTEX
  5
BD9
330
A35
100
AcDbEntity
  8
0
100
AcDbVertex
100
AcDb2dVertex
 10
52.24
 20
53.94
 30
0.0
 70
0
  0
VERTEX
  5
BDA
330
A35
100
AcDbEntity
  8
0
100
AcDbVertex
100
AcDb2dVertex
 10
52.14
 20
53.88
 30
0.0
 70
0
  0
VERTEX
  5
BDB
330
A35
100
AcDbEntity
  8
0
100
AcDbVertex
100
AcDb2dVertex
 10
52.1
 20
53.84
 30
0.0
 70
0
  0
VERTEX
  5
BDC
330
A35
100
AcDbEntity
  8
0
100
AcDbVertex
100
AcDb2dVertex
 10
52.0
 20
53.84
 30
0.0
 70
0
  0
VERTEX
  5
BDD
330
A35
100
AcDbEntity
  8
0
100
AcDbVertex
100
AcDb2dVertex
 10
51.9
 20
53.8
 30
0.0
 70
0
  0
VERTEX
  5
BDE
330
A35
100
AcDbEntity
  8
0
100
AcDbVertex
100
AcDb2dVertex
 10
51.9
 20
53.74
 30
0.0
 70
0
  0
VERTEX
  5
BDF
330
A35
100
AcDbEntity
  8
0
100
AcDbVertex
100
AcDb2dVertex
 10
51.82
 20
53.74
 30
0.0
 70
0
  0
VERTEX
  5
BE0
330
A35
100
AcDbEntity
  8
0
100
AcDbVertex
100
AcDb2dVertex
 10
51.72
 20
53.7
 30
0.0
 70
0
  0
VERTEX
  5
BE1
330
A35
100
AcDbEntity
  8
0
100
AcDbVertex
100
AcDb2dVertex
 10
51.68
 20
53.7
 30
0.0
 70
0
  0
VERTEX
  5
BE2
330
A35
100
AcDbEntity
  8
0
100
AcDbVertex
100
AcDb2dVertex
 10
51.58
 20
53.7
 30
0.0
 70
0
  0
VERTEX
  5
BE3
330
A35
100
AcDbEntity
  8
0
100
AcDbVertex
100
AcDb2dVertex
 10
51.48
 20
53.66
 30
0.0
 70
0
  0
VERTEX
  5
BE4
330
A35
100
AcDbEntity
  8
0
100
AcDbVertex
100
AcDb2dVertex
 10
51.4
 20
53.66
 30
0.0
 70
0
  0
VERTEX
  5
BE5
330
A35
100
AcDbEntity
  8
0
100
AcDbVertex
100
AcDb2dVertex
 10
51.4
 20
53.6
 30
0.0
 70
0
  0
VERTEX
  5
BE6
330
A35
100
AcDbEntity
  8
0
100
AcDbVertex
100
AcDb2dVertex
 10
51.3
 20
53.6
 30
0.0
 70
0
  0
VERTEX
  5
BE7
330
A35
100
AcDbEntity
  8
0
100
AcDbVertex
100
AcDb2dVertex
 10
51.26
 20
53.6
 30
0.0
 70
0
  0
VERTEX
  5
BE8
330
A35
100
AcDbEntity
  8
0
100
AcDbVertex
100
AcDb2dVertex
 10
51.16
 20
53.6
 30
0.0
 70
0
  0
VERTEX
  5
BE9
330
A35
100
AcDbEntity
  8
0
100
AcDbVertex
100
AcDb2dVertex
 10
50.88
 20
53.6
 30
0.0
 70
0
  0
VERTEX
  5
BEA
330
A35
100
AcDbEntity
  8
0
100
AcDbVertex
100
AcDb2dVertex
 10
50.82
 20
53.66
 30
0.0
 70
0
  0
VERTEX
  5
BEB
330
A35
100
AcDbEntity
  8
0
100
AcDbVertex
100
AcDb2dVertex
 10
50.78
 20
53.66
 30
0.0
 70
0
  0
VERTEX
  5
BEC
330
A35
100
AcDbEntity
  8
0
100
AcDbVertex
100
AcDb2dVertex
 10
50.74
 20
53.7
 30
0.0
 70
0
  0
VERTEX
  5
BED
330
A35
100
AcDbEntity
  8
0
100
AcDbVertex
100
AcDb2dVertex
 10
50.68
 20
53.7
 30
0.0
 70
0
  0
SEQEND
  5
BC3
330
A35
100
AcDbEntity
  8
0
  0
POLYLINE
  5
BEE
330
A35
100
AcDbEntity
  8
0
100
AcDb2dPolyline
 66
1
 10
0.0
 20
0.0
 30
0.0
 70
0
  0
VERTEX
  5
BF0
330
A35
100
AcDbEntity
  8
0
100
AcDbVertex
100
AcDb2dVertex
 10
53.18
 20
55.06
 30
0.0
 70
0
  0
VERTEX
  5
BF1
330
A35
100
AcDbEntity
  8
0
100
AcDbVertex
100
AcDb2dVertex
 10
53.18
 20
55.02
 30
0.0
 70
0
  0
VERTEX
  5
BF2
330
A35
100
AcDbEntity
  8
0
100
AcDbVertex
100
AcDb2dVertex
 10
53.12
 20
55.02
 30
0.0
 70
0
  0
SEQEND
  5
BEF
330
A35
100
AcDbEntity
  8
0
  0
POLYLINE
  5
BF3
330
A35
100
AcDbEntity
  8
0
100
AcDb2dPolyline
 66
1
 10
0.0
 20
0.0
 30
0.0
 70
0
  0
VERTEX
  5
BF5
330
A35
100
AcDbEntity
  8
0
100
AcDbVertex
100
AcDb2dVertex
 10
53.08
 20
54.98
 30
0.0
 70
0
  0
VERTEX
  5
BF6
330
A35
100
AcDbEntity
  8
0
100
AcDbVertex
100
AcDb2dVertex
 10
53.08
 20
54.92
 30
0.0
 70
0
  0
VERTEX
  5
BF7
330
A35
100
AcDbEntity
  8
0
100
AcDbVertex
100
AcDb2dVertex
 10
52.98
 20
54.84
 30
0.0
 70
0
  0
VERTEX
  5
BF8
330
A35
100
AcDbEntity
  8
0
100
AcDbVertex
100
AcDb2dVertex
 10
52.94
 20
54.74
 30
0.0
 70
0
  0
VERTEX
  5
BF9
330
A35
100
AcDbEntity
  8
0
100
AcDbVertex
100
AcDb2dVertex
 10
52.84
 20
54.68
 30
0.0
 70
0
  0
VERTEX
  5
BFA
330
A35
100
AcDbEntity
  8
0
100
AcDbVertex
100
AcDb2dVertex
 10
52.8
 20
54.6
 30
0.0
 70
0
  0
VERTEX
  5
BFB
330
A35
100
AcDbEntity
  8
0
100
AcDbVertex
100
AcDb2dVertex
 10
52.7
 20
54.54
 30
0.0
 70
0
  0
VERTEX
  5
BFC
330
A35
100
AcDbEntity
  8
0
100
AcDbVertex
100
AcDb2dVertex
 10
52.7
 20
54.5
 30
0.0
 70
0
  0
VERTEX
  5
BFD
330
A35
100
AcDbEntity
  8
0
100
AcDbVertex
100
AcDb2dVertex
 10
52.66
 20
54.46
 30
0.0
 70
0
  0
VERTEX
  5
BFE
330
A35
100
AcDbEntity
  8
0
100
AcDbVertex
100
AcDb2dVertex
 10
52.56
 20
54.36
 30
0.0
 70
0
  0
VERTEX
  5
BFF
330
A35
100
AcDbEntity
  8
0
100
AcDbVertex
100
AcDb2dVertex
 10
52.52
 20
54.32
 30
0.0
 70
0
  0
VERTEX
  5
C00
330
A35
100
AcDbEntity
  8
0
100
AcDbVertex
100
AcDb2dVertex
 10
52.48
 20
54.32
 30
0.0
 70
0
  0
VERTEX
  5
C01
330
A35
100
AcDbEntity
  8
0
100
AcDbVertex
100
AcDb2dVertex
 10
52.42
 20
54.26
 30
0.0
 70
0
  0
VERTEX
  5
C02
330
A35
100
AcDbEntity
  8
0
100
AcDbVertex
100
AcDb2dVertex
 10
52.38
 20
54.22
 30
0.0
 70
0
  0
VERTEX
  5
C03
330
A35
100
AcDbEntity
  8
0
100
AcDbVertex
100
AcDb2dVertex
 10
52.34
 20
54.18
 30
0.0
 70
0
  0
VERTEX
  5
C04
330
A35
100
AcDbEntity
  8
0
100
AcDbVertex
100
AcDb2dVertex
 10
52.28
 20
54.18
 30
0.0
 70
0
  0
VERTEX
  5
C05
330
A35
100
AcDbEntity
  8
0
100
AcDbVertex
100
AcDb2dVertex
 10
52.24
 20
54.12
 30
0.0
 70
0
  0
VERTEX
  5
C06
330
A35
100
AcDbEntity
  8
0
100
AcDbVertex
100
AcDb2dVertex
 10
52.14
 20
54.04
 30
0.0
 70
0
  0
VERTEX
  5
C07
330
A35
100
AcDbEntity
  8
0
100
AcDbVertex
100
AcDb2dVertex
 10
52.1
 20
53.98
 30
0.0
 70
0
  0
VERTEX
  5
C08
330
A35
100
AcDbEntity
  8
0
100
AcDbVertex
100
AcDb2dVertex
 10
52.0
 20
53.98
 30
0.0
 70
0
  0
VERTEX
  5
C09
330
A35
100
AcDbEntity
  8
0
100
AcDbVertex
100
AcDb2dVertex
 10
51.96
 20
53.94
 30
0.0
 70
0
  0
VERTEX
  5
C0A
330
A35
100
AcDbEntity
  8
0
100
AcDbVertex
100
AcDb2dVertex
 10
51.9
 20
53.88
 30
0.0
 70
0
  0
VERTEX
  5
C0B
330
A35
100
AcDbEntity
  8
0
100
AcDbVertex
100
AcDb2dVertex
 10
51.82
 20
53.88
 30
0.0
 70
0
  0
VERTEX
  5
C0C
330
A35
100
AcDbEntity
  8
0
100
AcDbVertex
100
AcDb2dVertex
 10
51.82
 20
53.84
 30
0.0
 70
0
  0
VERTEX
  5
C0D
330
A35
100
AcDbEntity
  8
0
100
AcDbVertex
100
AcDb2dVertex
 10
51.72
 20
53.84
 30
0.0
 70
0
  0
VERTEX
  5
C0E
330
A35
100
AcDbEntity
  8
0
100
AcDbVertex
100
AcDb2dVertex
 10
51.68
 20
53.8
 30
0.0
 70
0
  0
VERTEX
  5
C0F
330
A35
100
AcDbEntity
  8
0
100
AcDbVertex
100
AcDb2dVertex
 10
51.62
 20
53.8
 30
0.0
 70
0
  0
VERTEX
  5
C10
330
A35
100
AcDbEntity
  8
0
100
AcDbVertex
100
AcDb2dVertex
 10
51.54
 20
53.74
 30
0.0
 70
0
  0
VERTEX
  5
C11
330
A35
100
AcDbEntity
  8
0
100
AcDbVertex
100
AcDb2dVertex
 10
51.44
 20
53.74
 30
0.0
 70
0
  0
VERTEX
  5
C12
330
A35
100
AcDbEntity
  8
0
100
AcDbVertex
100
AcDb2dVertex
 10
51.4
 20
53.74
 30
0.0
 70
0
  0
VERTEX
  5
C13
330
A35
100
AcDbEntity
  8
0
100
AcDbVertex
100
AcDb2dVertex
 10
51.4
 20
53.7
 30
0.0
 70
0
  0
VERTEX
  5
C14
330
A35
100
AcDbEntity
  8
0
100
AcDbVertex
100
AcDb2dVertex
 10
51.3
 20
53.7
 30
0.0
 70
0
  0
VERTEX
  5
C15
330
A35
100
AcDbEntity
  8
0
100
AcDbVertex
100
AcDb2dVertex
 10
51.2
 20
53.7
 30
0.0
 70
0
  0
VERTEX
  5
C16
330
A35
100
AcDbEntity
  8
0
100
AcDbVertex
100
AcDb2dVertex
 10
51.12
 20
53.7
 30
0.0
 70
0
  0
VERTEX
  5
C17
330
A35
100
AcDbEntity
  8
0
100
AcDbVertex
100
AcDb2dVertex
 10
51.02
 20
53.7
 30
0.0
 70
0
  0
VERTEX
  5
C18
330
A35
100
AcDbEntity
  8
0
100
AcDbVertex
100
AcDb2dVertex
 10
50.96
 20
53.7
 30
0.0
 70
0
  0
VERTEX
  5
C19
330
A35
100
AcDbEntity
  8
0
100
AcDbVertex
100
AcDb2dVertex
 10
50.88
 20
53.7
 30
0.0
 70
0
  0
VERTEX
  5
C1A
330
A35
100
AcDbEntity
  8
0
100
AcDbVertex
100
AcDb2dVertex
 10
50.78
 20
53.7
 30
0.0
 70
0
  0
VERTEX
  5
C1B
330
A35
100
AcDbEntity
  8
0
100
AcDbVertex
100
AcDb2dVertex
 10
50.68
 20
53.7
 30
0.0
 70
0
  0
VERTEX
  5
C1C
330
A35
100
AcDbEntity
  8
0
100
AcDbVertex
100
AcDb2dVertex
 10
50.64
 20
53.74
 30
0.0
 70
0
  0
VERTEX
  5
C1D
330
A35
100
AcDbEntity
  8
0
100
AcDbVertex
100
AcDb2dVertex
 10
50.54
 20
53.74
 30
0.0
 70
0
  0
VERTEX
  5
C1E
330
A35
100
AcDbEntity
  8
0
100
AcDbVertex
100
AcDb2dVertex
 10
50.46
 20
53.74
 30
0.0
 70
0
  0
VERTEX
  5
C1F
330
A35
100
AcDbEntity
  8
0
100
AcDbVertex
100
AcDb2dVertex
 10
50.4
 20
53.8
 30
0.0
 70
0
  0
SEQEND
  5
BF4
330
A35
100
AcDbEntity
  8
0
  0
POLYLINE
  5
C20
330
A35
100
AcDbEntity
  8
0
100
AcDb2dPolyline
 66
1
 10
0.0
 20
0.0
 30
0.0
 70
0
  0
VERTEX
  5
C22
330
A35
100
AcDbEntity
  8
0
100
AcDbVertex
100
AcDb2dVertex
 10
53.28
 20
55.02
 30
0.0
 70
0
  0
VERTEX
  5
C23
330
A35
100
AcDbEntity
  8
0
100
AcDbVertex
100
AcDb2dVertex
 10
53.28
 20
55.2
 30
0.0
 70
0
  0
VERTEX
  5
C24
330
A35
100
AcDbEntity
  8
0
100
AcDbVertex
100
AcDb2dVertex
 10
53.32
 20
55.2
 30
0.0
 70
0
  0
VERTEX
  5
C25
330
A35
100
AcDbEntity
  8
0
100
AcDbVertex
100
AcDb2dVertex
 10
53.32
 20
55.26
 30
0.0
 70
0
  0
SEQEND
  5
C21
330
A35
100
AcDbEntity
  8
0
  0
POLYLINE
  5
C26
330
A35
100
AcDbEntity
  8
0
100
AcDb2dPolyline
 66
1
 10
0.0
 20
0.0
 30
0.0
 70
0
  0
VERTEX
  5
C28
330
A35
100
AcDbEntity
  8
0
100
AcDbVertex
100
AcDb2dVertex
 10
9.34
 20
78.7
 30
0.0
 70
0
  0
VERTEX
  5
C29
330
A35
100
AcDbEntity
  8
0
100
AcDbVertex
100
AcDb2dVertex
 10
9.38
 20
78.7
 30
0.0
 70
0
  0
VERTEX
  5
C2A
330
A35
100
AcDbEntity
  8
0
100
AcDbVertex
100
AcDb2dVertex
 10
9.38
 20
78.56
 30
0.0
 70
0
  0
SEQEND
  5
C27
330
A35
100
AcDbEntity
  8
0
  0
POLYLINE
  5
C2B
330
A35
100
AcDbEntity
  8
0
100
AcDb2dPolyline
 66
1
 10
0.0
 20
0.0
 30
0.0
 70
0
  0
VERTEX
  5
C2D
330
A35
100
AcDbEntity
  8
0
100
AcDbVertex
100
AcDb2dVertex
 10
14.0
 20
80.34
 30
0.0
 70
0
  0
VERTEX
  5
C2E
330
A35
100
AcDbEntity
  8
0
100
AcDbVertex
100
AcDb2dVertex
 10
13.94
 20
80.38
 30
0.0
 70
0
  0
VERTEX
  5
C2F
330
A35
100
AcDbEntity
  8
0
100
AcDbVertex
100
AcDb2dVertex
 10
13.9
 20
80.38
 30
0.0
 70
0
  0
VERTEX
  5
C30
330
A35
100
AcDbEntity
  8
0
100
AcDbVertex
100
AcDb2dVertex
 10
13.9
 20
80.44
 30
0.0
 70
0
  0
SEQEND
  5
C2C
330
A35
100
AcDbEntity
  8
0
  0
POLYLINE
  5
C31
330
A35
100
AcDbEntity
  8
0
100
AcDb2dPolyline
 66
1
 10
0.0
 20
0.0
 30
0.0
 70
0
  0
VERTEX
  5
C33
330
A35
100
AcDbEntity
  8
0
100
AcDbVertex
100
AcDb2dVertex
 10
14.36
 20
79.92
 30
0.0
 70
0
  0
VERTEX
  5
C34
330
A35
100
AcDbEntity
  8
0
100
AcDbVertex
100
AcDb2dVertex
 10
14.36
 20
80.06
 30
0.0
 70
0
  0
VERTEX
  5
C35
330
A35
100
AcDbEntity
  8
0
100
AcDbVertex
100
AcDb2dVertex
 10
14.32
 20
80.06
 30
0.0
 70
0
  0
SEQEND
  5
C32
330
A35
100
AcDbEntity
  8
0
  0
POLYLINE
  5
C36
330
A35
100
AcDbEntity
  8
0
100
AcDb2dPolyline
 66
1
 10
0.0
 20
0.0
 30
0.0
 70
0
  0
VERTEX
  5
C38
330
A35
100
AcDbEntity
  8
0
100
AcDbVertex
100
AcDb2dVertex
 10
1.72
 20
75.98
 30
0.0
 70
0
  0
VERTEX
  5
C39
330
A35
100
AcDbEntity
  8
0
100
AcDbVertex
100
AcDb2dVertex
 10
1.72
 20
75.88
 30
0.0
 70
0
  0
VERTEX
  5
C3A
330
A35
100
AcDbEntity
  8
0
100
AcDbVertex
100
AcDb2dVertex
 10
1.68
 20
75.88
 30
0.0
 70
0
  0
VERTEX
  5
C3B
330
A35
100
AcDbEntity
  8
0
100
AcDbVertex
100
AcDb2dVertex
 10
1.68
 20
75.78
 30
0.0
 70
0
  0
VERTEX
  5
C3C
330
A35
100
AcDbEntity
  8
0
100
AcDbVertex
100
AcDb2dVertex
 10
1.64
 20
75.78
 30
0.0
 70
0
  0
VERTEX
  5
C3D
330
A35
100
AcDbEntity
  8
0
100
AcDbVertex
100
AcDb2dVertex
 10
1.64
 20
75.74
 30
0.0
 70
0
  0
VERTEX
  5
C3E
330
A35
100
AcDbEntity
  8
0
100
AcDbVertex
100
AcDb2dVertex
 10
1.58
 20
75.74
 30
0.0
 70
0
  0
VERTEX
  5
C3F
330
A35
100
AcDbEntity
  8
0
100
AcDbVertex
100
AcDb2dVertex
 10
1.54
 20
75.74
 30
0.0
 70
0
  0
SEQEND
  5
C37
330
A35
100
AcDbEntity
  8
0
  0
POLYLINE
  5
C40
330
A35
100
AcDbEntity
  8
0
100
AcDb2dPolyline
 66
1
 10
0.0
 20
0.0
 30
0.0
 70
0
  0
VERTEX
  5
C42
330
A35
100
AcDbEntity
  8
0
100
AcDbVertex
100
AcDb2dVertex
 10
13.62
 20
80.2
 30
0.0
 70
0
  0
VERTEX
  5
C43
330
A35
100
AcDbEntity
  8
0
100
AcDbVertex
100
AcDb2dVertex
 10
13.62
 20
80.06
 30
0.0
 70
0
  0
VERTEX
  5
C44
330
A35
100
AcDbEntity
  8
0
100
AcDbVertex
100
AcDb2dVertex
 10
13.56
 20
80.06
 30
0.0
 70
0
  0
VERTEX
  5
C45
330
A35
100
AcDbEntity
  8
0
100
AcDbVertex
100
AcDb2dVertex
 10
13.56
 20
80.02
 30
0.0
 70
0
  0
VERTEX
  5
C46
330
A35
100
AcDbEntity
  8
0
100
AcDbVertex
100
AcDb2dVertex
 10
13.52
 20
80.02
 30
0.0
 70
0
  0
VERTEX
  5
C47
330
A35
100
AcDbEntity
  8
0
100
AcDbVertex
100
AcDb2dVertex
 10
13.52
 20
79.96
 30
0.0
 70
0
  0
VERTEX
  5
C48
330
A35
100
AcDbEntity
  8
0
100
AcDbVertex
100
AcDb2dVertex
 10
13.48
 20
79.96
 30
0.0
 70
0
  0
VERTEX
  5
C49
330
A35
100
AcDbEntity
  8
0
100
AcDbVertex
100
AcDb2dVertex
 10
13.42
 20
79.96
 30
0.0
 70
0
  0
SEQEND
  5
C41
330
A35
100
AcDbEntity
  8
0
  0
POLYLINE
  5
C4A
330
A35
100
AcDbEntity
  8
0
100
AcDb2dPolyline
 66
1
 10
0.0
 20
0.0
 30
0.0
 70
0
  0
VERTEX
  5
C4C
330
A35
100
AcDbEntity
  8
0
100
AcDbVertex
100
AcDb2dVertex
 10
1.68
 20
76.06
 30
0.0
 70
0
  0
VERTEX
  5
C4D
330
A35
100
AcDbEntity
  8
0
100
AcDbVertex
100
AcDb2dVertex
 10
1.68
 20
76.02
 30
0.0
 70
0
  0
VERTEX
  5
C4E
330
A35
100
AcDbEntity
  8
0
100
AcDbVertex
100
AcDb2dVertex
 10
1.72
 20
76.02
 30
0.0
 70
0
  0
VERTEX
  5
C4F
330
A35
100
AcDbEntity
  8
0
100
AcDbVertex
100
AcDb2dVertex
 10
1.72
 20
75.98
 30
0.0
 70
0
  0
SEQEND
  5
C4B
330
A35
100
AcDbEntity
  8
0
  0
POLYLINE
  5
C50
330
A35
100
AcDbEntity
  8
0
100
AcDb2dPolyline
 66
1
 10
0.0
 20
0.0
 30
0.0
 70
0
  0
VERTEX
  5
C52
330
A35
100
AcDbEntity
  8
0
100
AcDbVertex
100
AcDb2dVertex
 10
1.64
 20
76.4
 30
0.0
 70
0
  0
VERTEX
  5
C53
330
A35
100
AcDbEntity
  8
0
100
AcDbVertex
100
AcDb2dVertex
 10
1.68
 20
76.4
 30
0.0
 70
0
  0
VERTEX
  5
C54
330
A35
100
AcDbEntity
  8
0
100
AcDbVertex
100
AcDb2dVertex
 10
1.68
 20
76.44
 30
0.0
 70
0
  0
SEQEND
  5
C51
330
A35
100
AcDbEntity
  8
0
  0
POLYLINE
  5
C55
330
A35
100
AcDbEntity
  8
0
100
AcDb2dPolyline
 66
1
 10
0.0
 20
0.0
 30
0.0
 70
0
  0
VERTEX
  5
C57
330
A35
100
AcDbEntity
  8
0
100
AcDbVertex
100
AcDb2dVertex
 10
13.48
 20
80.58
 30
0.0
 70
0
  0
VERTEX
  5
C58
330
A35
100
AcDbEntity
  8
0
100
AcDbVertex
100
AcDb2dVertex
 10
13.48
 20
80.62
 30
0.0
 70
0
  0
VERTEX
  5
C59
330
A35
100
AcDbEntity
  8
0
100
AcDbVertex
100
AcDb2dVertex
 10
13.52
 20
80.62
 30
0.0
 70
0
  0
SEQEND
  5
C56
330
A35
100
AcDbEntity
  8
0
  0
POLYLINE
  5
C5A
330
A35
100
AcDbEntity
  8
0
100
AcDb2dPolyline
 66
1
 10
0.0
 20
0.0
 30
0.0
 70
0
  0
VERTEX
  5
C5C
330
A35
100
AcDbEntity
  8
0
100
AcDbVertex
100
AcDb2dVertex
 10
14.14
 20
78.14
 30
0.0
 70
0
  0
VERTEX
  5
C5D
330
A35
100
AcDbEntity
  8
0
100
AcDbVertex
100
AcDb2dVertex
 10
14.12
 20
78.14
 30
0.0
 70
0
  0
VERTEX
  5
C5E
330
A35
100
AcDbEntity
  8
0
100
AcDbVertex
100
AcDb2dVertex
 10
14.1
 20
78.14
 30
0.0
 70
0
  0
VERTEX
  5
C5F
330
A35
100
AcDbEntity
  8
0
100
AcDbVertex
100
AcDb2dVertex
 10
14.08
 20
78.14
 30
0.0
 70
0
  0
VERTEX
  5
C60
330
A35
100
AcDbEntity
  8
0
100
AcDbVertex
100
AcDb2dVertex
 10
14.1
 20
78.14
 30
0.0
 70
0
  0
VERTEX
  5
C61
330
A35
100
AcDbEntity
  8
0
100
AcDbVertex
100
AcDb2dVertex
 10
14.12
 20
78.14
 30
0.0
 70
0
  0
VERTEX
  5
C62
330
A35
100
AcDbEntity
  8
0
100
AcDbVertex
100
AcDb2dVertex
 10
14.14
 20
78.14
 30
0.0
 70
0
  0
SEQEND
  5
C5B
330
A35
100
AcDbEntity
  8
0
  0
POLYLINE
  5
C63
330
A35
100
AcDbEntity
  8
0
100
AcDb2dPolyline
 66
1
 10
0.0
 20
0.0
 30
0.0
 70
0
  0
VERTEX
  5
C65
330
A35
100
AcDbEntity
  8
0
100
AcDbVertex
100
AcDb2dVertex
 10
13.42
 20
79.96
 30
0.0
 70
0
  0
VERTEX
  5
C66
330
A35
100
AcDbEntity
  8
0
100
AcDbVertex
100
AcDb2dVertex
 10
13.38
 20
79.96
 30
0.0
 70
0
  0
VERTEX
  5
C67
330
A35
100
AcDbEntity
  8
0
100
AcDbVertex
100
AcDb2dVertex
 10
13.38
 20
80.1
 30
0.0
 70
0
  0
SEQEND
  5
C64
330
A35
100
AcDbEntity
  8
0
  0
POLYLINE
  5
C68
330
A35
100
AcDbEntity
  8
0
100
AcDb2dPolyline
 66
1
 10
0.0
 20
0.0
 30
0.0
 70
0
  0
VERTEX
  5
C6A
330
A35
100
AcDbEntity
  8
0
100
AcDbVertex
100
AcDb2dVertex
 10
1.54
 20
75.74
 30
0.0
 70
0
  0
VERTEX
  5
C6B
330
A35
100
AcDbEntity
  8
0
100
AcDbVertex
100
AcDb2dVertex
 10
1.54
 20
75.78
 30
0.0
 70
0
  0
VERTEX
  5
C6C
330
A35
100
AcDbEntity
  8
0
100
AcDbVertex
100
AcDb2dVertex
 10
1.5
 20
75.78
 30
0.0
 70
0
  0
VERTEX
  5
C6D
330
A35
100
AcDbEntity
  8
0
100
AcDbVertex
100
AcDb2dVertex
 10
1.5
 20
75.88
 30
0.0
 70
0
  0
SEQEND
  5
C69
330
A35
100
AcDbEntity
  8
0
  0
POLYLINE
  5
C6E
330
A35
100
AcDbEntity
  8
0
100
AcDb2dPolyline
 66
1
 10
0.0
 20
0.0
 30
0.0
 70
0
  0
VERTEX
  5
C70
330
A35
100
AcDbEntity
  8
0
100
AcDbVertex
100
AcDb2dVertex
 10
5.72
 20
77.24
 30
0.0
 70
0
  0
VERTEX
  5
C71
330
A35
100
AcDbEntity
  8
0
100
AcDbVertex
100
AcDb2dVertex
 10
5.72
 20
77.38
 30
0.0
 70
0
  0
VERTEX
  5
C72
330
A35
100
AcDbEntity
  8
0
100
AcDbVertex
100
AcDb2dVertex
 10
5.76
 20
77.38
 30
0.0
 70
0
  0
VERTEX
  5
C73
330
A35
100
AcDbEntity
  8
0
100
AcDbVertex
100
AcDb2dVertex
 10
5.76
 20
77.42
 30
0.0
 70
0
  0
VERTEX
  5
C74
330
A35
100
AcDbEntity
  8
0
100
AcDbVertex
100
AcDb2dVertex
 10
5.82
 20
77.48
 30
0.0
 70
0
  0
VERTEX
  5
C75
330
A35
100
AcDbEntity
  8
0
100
AcDbVertex
100
AcDb2dVertex
 10
5.86
 20
77.52
 30
0.0
 70
0
  0
VERTEX
  5
C76
330
A35
100
AcDbEntity
  8
0
100
AcDbVertex
100
AcDb2dVertex
 10
5.9
 20
77.52
 30
0.0
 70
0
  0
SEQEND
  5
C6F
330
A35
100
AcDbEntity
  8
0
  0
POLYLINE
  5
C77
330
A35
100
AcDbEntity
  8
0
100
AcDb2dPolyline
 66
1
 10
0.0
 20
0.0
 30
0.0
 70
0
  0
VERTEX
  5
C79
330
A35
100
AcDbEntity
  8
0
100
AcDbVertex
100
AcDb2dVertex
 10
1.5
 20
75.88
 30
0.0
 70
0
  0
VERTEX
  5
C7A
330
A35
100
AcDbEntity
  8
0
100
AcDbVertex
100
AcDb2dVertex
 10
1.5
 20
75.98
 30
0.0
 70
0
  0
VERTEX
  5
C7B
330
A35
100
AcDbEntity
  8
0
100
AcDbVertex
100
AcDb2dVertex
 10
1.54
 20
75.98
 30
0.0
 70
0
  0
VERTEX
  5
C7C
330
A35
100
AcDbEntity
  8
0
100
AcDbVertex
100
AcDb2dVertex
 10
1.54
 20
76.02
 30
0.0
 70
0
  0
VERTEX
  5
C7D
330
A35
100
AcDbEntity
  8
0
100
AcDbVertex
100
AcDb2dVertex
 10
1.58
 20
76.02
 30
0.0
 70
0
  0
VERTEX
  5
C7E
330
A35
100
AcDbEntity
  8
0
100
AcDbVertex
100
AcDb2dVertex
 10
1.58
 20
76.06
 30
0.0
 70
0
  0
VERTEX
  5
C7F
330
A35
100
AcDbEntity
  8
0
100
AcDbVertex
100
AcDb2dVertex
 10
1.64
 20
76.06
 30
0.0
 70
0
  0
VERTEX
  5
C80
330
A35
100
AcDbEntity
  8
0
100
AcDbVertex
100
AcDb2dVertex
 10
1.68
 20
76.06
 30
0.0
 70
0
  0
SEQEND
  5
C78
330
A35
100
AcDbEntity
  8
0
  0
POLYLINE
  5
C81
330
A35
100
AcDbEntity
  8
0
100
AcDb2dPolyline
 66
1
 10
0.0
 20
0.0
 30
0.0
 70
0
  0
VERTEX
  5
C83
330
A35
100
AcDbEntity
  8
0
100
AcDbVertex
100
AcDb2dVertex
 10
13.38
 20
80.1
 30
0.0
 70
0
  0
VERTEX
  5
C84
330
A35
100
AcDbEntity
  8
0
100
AcDbVertex
100
AcDb2dVertex
 10
13.38
 20
80.2
 30
0.0
 70
0
  0
VERTEX
  5
C85
330
A35
100
AcDbEntity
  8
0
100
AcDbVertex
100
AcDb2dVertex
 10
13.42
 20
80.2
 30
0.0
 70
0
  0
VERTEX
  5
C86
330
A35
100
AcDbEntity
  8
0
100
AcDbVertex
100
AcDb2dVertex
 10
13.42
 20
80.24
 30
0.0
 70
0
  0
VERTEX
  5
C87
330
A35
100
AcDbEntity
  8
0
100
AcDbVertex
100
AcDb2dVertex
 10
13.48
 20
80.24
 30
0.0
 70
0
  0
VERTEX
  5
C88
330
A35
100
AcDbEntity
  8
0
100
AcDbVertex
100
AcDb2dVertex
 10
13.52
 20
80.3
 30
0.0
 70
0
  0
VERTEX
  5
C89
330
A35
100
AcDbEntity
  8
0
100
AcDbVertex
100
AcDb2dVertex
 10
13.56
 20
80.3
 30
0.0
 70
0
  0
SEQEND
  5
C82
330
A35
100
AcDbEntity
  8
0
  0
POLYLINE
  5
C8A
330
A35
100
AcDbEntity
  8
0
100
AcDb2dPolyline
 66
1
 10
0.0
 20
0.0
 30
0.0
 70
0
  0
VERTEX
  5
C8C
330
A35
100
AcDbEntity
  8
0
100
AcDbVertex
100
AcDb2dVertex
 10
53.12
 20
55.02
 30
0.0
 70
0
  0
VERTEX
  5
C8D
330
A35
100
AcDbEntity
  8
0
100
AcDbVertex
100
AcDb2dVertex
 10
53.18
 20
55.02
 30
0.0
 70
0
  0
VERTEX
  5
C8E
330
A35
100
AcDbEntity
  8
0
100
AcDbVertex
100
AcDb2dVertex
 10
53.18
 20
55.12
 30
0.0
 70
0
  0
VERTEX
  5
C8F
330
A35
100
AcDbEntity
  8
0
100
AcDbVertex
100
AcDb2dVertex
 10
53.12
 20
55.12
 30
0.0
 70
0
  0
SEQEND
  5
C8B
330
A35
100
AcDbEntity
  8
0
  0
POLYLINE
  5
C90
330
A35
100
AcDbEntity
  8
0
100
AcDb2dPolyline
 66
1
 10
0.0
 20
0.0
 30
0.0
 70
0
  0
VERTEX
  5
C92
330
A35
100
AcDbEntity
  8
0
100
AcDbVertex
100
AcDb2dVertex
 10
53.18
 20
55.3
 30
0.0
 70
0
  0
VERTEX
  5
C93
330
A35
100
AcDbEntity
  8
0
100
AcDbVertex
100
AcDb2dVertex
 10
53.18
 20
55.26
 30
0.0
 70
0
  0
VERTEX
  5
C94
330
A35
100
AcDbEntity
  8
0
100
AcDbVertex
100
AcDb2dVertex
 10
53.12
 20
55.26
 30
0.0
 70
0
  0
VERTEX
  5
C95
330
A35
100
AcDbEntity
  8
0
100
AcDbVertex
100
AcDb2dVertex
 10
53.12
 20
55.12
 30
0.0
 70
0
  0
SEQEND
  5
C91
330
A35
100
AcDbEntity
  8
0
  0
POLYLINE
  5
C96
330
A35
100
AcDbEntity
  8
0
100
AcDb2dPolyline
 66
1
 10
0.0
 20
0.0
 30
0.0
 70
0
  0
VERTEX
  5
C98
330
A35
100
AcDbEntity
  8
0
100
AcDbVertex
100
AcDb2dVertex
 10
53.12
 20
55.02
 30
0.0
 70
0
  0
VERTEX
  5
C99
330
A35
100
AcDbEntity
  8
0
100
AcDbVertex
100
AcDb2dVertex
 10
53.12
 20
54.98
 30
0.0
 70
0
  0
VERTEX
  5
C9A
330
A35
100
AcDbEntity
  8
0
100
AcDbVertex
100
AcDb2dVertex
 10
53.08
 20
54.92
 30
0.0
 70
0
  0
VERTEX
  5
C9B
330
A35
100
AcDbEntity
  8
0
100
AcDbVertex
100
AcDb2dVertex
 10
53.04
 20
54.88
 30
0.0
 70
0
  0
VERTEX
  5
C9C
330
A35
100
AcDbEntity
  8
0
100
AcDbVertex
100
AcDb2dVertex
 10
52.98
 20
54.84
 30
0.0
 70
0
  0
VERTEX
  5
C9D
330
A35
100
AcDbEntity
  8
0
100
AcDbVertex
100
AcDb2dVertex
 10
52.98
 20
54.78
 30
0.0
 70
0
  0
VERTEX
  5
C9E
330
A35
100
AcDbEntity
  8
0
100
AcDbVertex
100
AcDb2dVertex
 10
52.94
 20
54.74
 30
0.0
 70
0
  0
VERTEX
  5
C9F
330
A35
100
AcDbEntity
  8
0
100
AcDbVertex
100
AcDb2dVertex
 10
52.9
 20
54.68
 30
0.0
 70
0
  0
VERTEX
  5
CA0
330
A35
100
AcDbEntity
  8
0
100
AcDbVertex
100
AcDb2dVertex
 10
52.84
 20
54.64
 30
0.0
 70
0
  0
VERTEX
  5
CA1
330
A35
100
AcDbEntity
  8
0
100
AcDbVertex
100
AcDb2dVertex
 10
52.8
 20
54.6
 30
0.0
 70
0
  0
VERTEX
  5
CA2
330
A35
100
AcDbEntity
  8
0
100
AcDbVertex
100
AcDb2dVertex
 10
52.8
 20
54.54
 30
0.0
 70
0
  0
VERTEX
  5
CA3
330
A35
100
AcDbEntity
  8
0
100
AcDbVertex
100
AcDb2dVertex
 10
52.7
 20
54.54
 30
0.0
 70
0
  0
VERTEX
  5
CA4
330
A35
100
AcDbEntity
  8
0
100
AcDbVertex
100
AcDb2dVertex
 10
52.7
 20
54.46
 30
0.0
 70
0
  0
VERTEX
  5
CA5
330
A35
100
AcDbEntity
  8
0
100
AcDbVertex
100
AcDb2dVertex
 10
52.66
 20
54.46
 30
0.0
 70
0
  0
VERTEX
  5
CA6
330
A35
100
AcDbEntity
  8
0
100
AcDbVertex
100
AcDb2dVertex
 10
52.62
 20
54.4
 30
0.0
 70
0
  0
VERTEX
  5
CA7
330
A35
100
AcDbEntity
  8
0
100
AcDbVertex
100
AcDb2dVertex
 10
52.56
 20
54.36
 30
0.0
 70
0
  0
VERTEX
  5
CA8
330
A35
100
AcDbEntity
  8
0
100
AcDbVertex
100
AcDb2dVertex
 10
52.52
 20
54.32
 30
0.0
 70
0
  0
VERTEX
  5
CA9
330
A35
100
AcDbEntity
  8
0
100
AcDbVertex
100
AcDb2dVertex
 10
52.48
 20
54.26
 30
0.0
 70
0
  0
VERTEX
  5
CAA
330
A35
100
AcDbEntity
  8
0
100
AcDbVertex
100
AcDb2dVertex
 10
52.42
 20
54.26
 30
0.0
 70
0
  0
VERTEX
  5
CAB
330
A35
100
AcDbEntity
  8
0
100
AcDbVertex
100
AcDb2dVertex
 10
52.38
 20
54.22
 30
0.0
 70
0
  0
VERTEX
  5
CAC
330
A35
100
AcDbEntity
  8
0
100
AcDbVertex
100
AcDb2dVertex
 10
52.34
 20
54.18
 30
0.0
 70
0
  0
VERTEX
  5
CAD
330
A35
100
AcDbEntity
  8
0
100
AcDbVertex
100
AcDb2dVertex
 10
52.28
 20
54.18
 30
0.0
 70
0
  0
VERTEX
  5
CAE
330
A35
100
AcDbEntity
  8
0
100
AcDbVertex
100
AcDb2dVertex
 10
52.24
 20
54.12
 30
0.0
 70
0
  0
VERTEX
  5
CAF
330
A35
100
AcDbEntity
  8
0
100
AcDbVertex
100
AcDb2dVertex
 10
52.2
 20
54.08
 30
0.0
 70
0
  0
VERTEX
  5
CB0
330
A35
100
AcDbEntity
  8
0
100
AcDbVertex
100
AcDb2dVertex
 10
52.14
 20
54.04
 30
0.0
 70
0
  0
VERTEX
  5
CB1
330
A35
100
AcDbEntity
  8
0
100
AcDbVertex
100
AcDb2dVertex
 10
52.1
 20
54.04
 30
0.0
 70
0
  0
VERTEX
  5
CB2
330
A35
100
AcDbEntity
  8
0
100
AcDbVertex
100
AcDb2dVertex
 10
52.1
 20
53.98
 30
0.0
 70
0
  0
VERTEX
  5
CB3
330
A35
100
AcDbEntity
  8
0
100
AcDbVertex
100
AcDb2dVertex
 10
52.0
 20
53.98
 30
0.0
 70
0
  0
VERTEX
  5
CB4
330
A35
100
AcDbEntity
  8
0
100
AcDbVertex
100
AcDb2dVertex
 10
51.96
 20
53.94
 30
0.0
 70
0
  0
VERTEX
  5
CB5
330
A35
100
AcDbEntity
  8
0
100
AcDbVertex
100
AcDb2dVertex
 10
51.86
 20
53.88
 30
0.0
 70
0
  0
VERTEX
  5
CB6
330
A35
100
AcDbEntity
  8
0
100
AcDbVertex
100
AcDb2dVertex
 10
51.82
 20
53.88
 30
0.0
 70
0
  0
VERTEX
  5
CB7
330
A35
100
AcDbEntity
  8
0
100
AcDbVertex
100
AcDb2dVertex
 10
51.82
 20
53.84
 30
0.0
 70
0
  0
VERTEX
  5
CB8
330
A35
100
AcDbEntity
  8
0
100
AcDbVertex
100
AcDb2dVertex
 10
51.68
 20
53.84
 30
0.0
 70
0
  0
VERTEX
  5
CB9
330
A35
100
AcDbEntity
  8
0
100
AcDbVertex
100
AcDb2dVertex
 10
51.68
 20
53.8
 30
0.0
 70
0
  0
VERTEX
  5
CBA
330
A35
100
AcDbEntity
  8
0
100
AcDbVertex
100
AcDb2dVertex
 10
51.58
 20
53.8
 30
0.0
 70
0
  0
VERTEX
  5
CBB
330
A35
100
AcDbEntity
  8
0
100
AcDbVertex
100
AcDb2dVertex
 10
51.54
 20
53.74
 30
0.0
 70
0
  0
VERTEX
  5
CBC
330
A35
100
AcDbEntity
  8
0
100
AcDbVertex
100
AcDb2dVertex
 10
51.4
 20
53.74
 30
0.0
 70
0
  0
VERTEX
  5
CBD
330
A35
100
AcDbEntity
  8
0
100
AcDbVertex
100
AcDb2dVertex
 10
51.4
 20
53.7
 30
0.0
 70
0
  0
VERTEX
  5
CBE
330
A35
100
AcDbEntity
  8
0
100
AcDbVertex
100
AcDb2dVertex
 10
51.26
 20
53.7
 30
0.0
 70
0
  0
VERTEX
  5
CBF
330
A35
100
AcDbEntity
  8
0
100
AcDbVertex
100
AcDb2dVertex
 10
51.12
 20
53.7
 30
0.0
 70
0
  0
VERTEX
  5
CC0
330
A35
100
AcDbEntity
  8
0
100
AcDbVertex
100
AcDb2dVertex
 10
50.96
 20
53.7
 30
0.0
 70
0
  0
VERTEX
  5
CC1
330
A35
100
AcDbEntity
  8
0
100
AcDbVertex
100
AcDb2dVertex
 10
50.88
 20
53.7
 30
0.0
 70
0
  0
VERTEX
  5
CC2
330
A35
100
AcDbEntity
  8
0
100
AcDbVertex
100
AcDb2dVertex
 10
50.68
 20
53.7
 30
0.0
 70
0
  0
VERTEX
  5
CC3
330
A35
100
AcDbEntity
  8
0
100
AcDbVertex
100
AcDb2dVertex
 10
50.64
 20
53.74
 30
0.0
 70
0
  0
VERTEX
  5
CC4
330
A35
100
AcDbEntity
  8
0
100
AcDbVertex
100
AcDb2dVertex
 10
50.54
 20
53.74
 30
0.0
 70
0
  0
VERTEX
  5
CC5
330
A35
100
AcDbEntity
  8
0
100
AcDbVertex
100
AcDb2dVertex
 10
50.46
 20
53.74
 30
0.0
 70
0
  0
VERTEX
  5
CC6
330
A35
100
AcDbEntity
  8
0
100
AcDbVertex
100
AcDb2dVertex
 10
50.46
 20
53.8
 30
0.0
 70
0
  0
VERTEX
  5
CC7
330
A35
100
AcDbEntity
  8
0
100
AcDbVertex
100
AcDb2dVertex
 10
50.4
 20
53.8
 30
0.0
 70
0
  0
VERTEX
  5
CC8
330
A35
100
AcDbEntity
  8
0
100
AcDbVertex
100
AcDb2dVertex
 10
50.4
 20
53.84
 30
0.0
 70
0
  0
SEQEND
  5
C97
330
A35
100
AcDbEntity
  8
0
  0
POLYLINE
  5
CC9
330
A35
100
AcDbEntity
  8
0
100
AcDb2dPolyline
 66
1
 10
0.0
 20
0.0
 30
0.0
 70
0
  0
VERTEX
  5
CCB
330
A35
100
AcDbEntity
  8
0
100
AcDbVertex
100
AcDb2dVertex
 10
8.16
 20
75.54
 30
0.0
 70
0
  0
VERTEX
  5
CCC
330
A35
100
AcDbEntity
  8
0
100
AcDbVertex
100
AcDb2dVertex
 10
8.22
 20
75.6
 30
0.0
 70
0
  0
VERTEX
  5
CCD
330
A35
100
AcDbEntity
  8
0
100
AcDbVertex
100
AcDb2dVertex
 10
8.26
 20
75.6
 30
0.0
 70
0
  0
VERTEX
  5
CCE
330
A35
100
AcDbEntity
  8
0
100
AcDbVertex
100
AcDb2dVertex
 10
8.3
 20
75.6
 30
0.0
 70
0
  0
VERTEX
  5
CCF
330
A35
100
AcDbEntity
  8
0
100
AcDbVertex
100
AcDb2dVertex
 10
8.36
 20
75.6
 30
0.0
 70
0
  0
VERTEX
  5
CD0
330
A35
100
AcDbEntity
  8
0
100
AcDbVertex
100
AcDb2dVertex
 10
8.4
 20
75.64
 30
0.0
 70
0
  0
VERTEX
  5
CD1
330
A35
100
AcDbEntity
  8
0
100
AcDbVertex
100
AcDb2dVertex
 10
8.44
 20
75.64
 30
0.0
 70
0
  0
VERTEX
  5
CD2
330
A35
100
AcDbEntity
  8
0
100
AcDbVertex
100
AcDb2dVertex
 10
8.44
 20
75.7
 30
0.0
 70
0
  0
VERTEX
  5
CD3
330
A35
100
AcDbEntity
  8
0
100
AcDbVertex
100
AcDb2dVertex
 10
8.54
 20
75.7
 30
0.0
 70
0
  0
SEQEND
  5
CCA
330
A35
100
AcDbEntity
  8
0
  0
POLYLINE
  5
CD4
330
A35
100
AcDbEntity
  8
0
100
AcDb2dPolyline
 66
1
 10
0.0
 20
0.0
 30
0.0
 70
0
  0
VERTEX
  5
CD6
330
A35
100
AcDbEntity
  8
0
100
AcDbVertex
100
AcDb2dVertex
 10
8.58
 20
77.9
 30
0.0
 70
0
  0
VERTEX
  5
CD7
330
A35
100
AcDbEntity
  8
0
100
AcDbVertex
100
AcDb2dVertex
 10
8.58
 20
77.86
 30
0.0
 70
0
  0
VERTEX
  5
CD8
330
A35
100
AcDbEntity
  8
0
100
AcDbVertex
100
AcDb2dVertex
 10
8.64
 20
77.86
 30
0.0
 70
0
  0
VERTEX
  5
CD9
330
A35
100
AcDbEntity
  8
0
100
AcDbVertex
100
AcDb2dVertex
 10
8.68
 20
77.86
 30
0.0
 70
0
  0
VERTEX
  5
CDA
330
A35
100
AcDbEntity
  8
0
100
AcDbVertex
100
AcDb2dVertex
 10
8.74
 20
77.86
 30
0.0
 70
0
  0
VERTEX
  5
CDB
330
A35
100
AcDbEntity
  8
0
100
AcDbVertex
100
AcDb2dVertex
 10
8.78
 20
77.86
 30
0.0
 70
0
  0
VERTEX
  5
CDC
330
A35
100
AcDbEntity
  8
0
100
AcDbVertex
100
AcDb2dVertex
 10
8.82
 20
77.86
 30
0.0
 70
0
  0
SEQEND
  5
CD5
330
A35
100
AcDbEntity
  8
0
  0
POLYLINE
  5
CDD
330
A35
100
AcDbEntity
  8
0
100
AcDb2dPolyline
 66
1
 10
0.0
 20
0.0
 30
0.0
 70
0
  0
VERTEX
  5
CDF
330
A35
100
AcDbEntity
  8
0
100
AcDbVertex
100
AcDb2dVertex
 10
8.82
 20
77.86
 30
0.0
 70
0
  0
VERTEX
  5
CE0
330
A35
100
AcDbEntity
  8
0
100
AcDbVertex
100
AcDb2dVertex
 10
8.82
 20
77.9
 30
0.0
 70
0
  0
VERTEX
  5
CE1
330
A35
100
AcDbEntity
  8
0
100
AcDbVertex
100
AcDb2dVertex
 10
8.88
 20
77.9
 30
0.0
 70
0
  0
SEQEND
  5
CDE
330
A35
100
AcDbEntity
  8
0
  0
POLYLINE
  5
CE2
330
A35
100
AcDbEntity
  8
0
100
AcDb2dPolyline
 66
1
 10
0.0
 20
0.0
 30
0.0
 70
0
  0
VERTEX
  5
CE4
330
A35
100
AcDbEntity
  8
0
100
AcDbVertex
100
AcDb2dVertex
 10
45.38
 20
50.22
 30
0.0
 70
0
  0
VERTEX
  5
CE5
330
A35
100
AcDbEntity
  8
0
100
AcDbVertex
100
AcDb2dVertex
 10
45.34
 20
50.22
 30
0.0
 70
0
  0
VERTEX
  5
CE6
330
A35
100
AcDbEntity
  8
0
100
AcDbVertex
100
AcDb2dVertex
 10
45.34
 20
50.28
 30
0.0
 70
0
  0
SEQEND
  5
CE3
330
A35
100
AcDbEntity
  8
0
  0
POLYLINE
  5
CE7
330
A35
100
AcDbEntity
  8
0
100
AcDb2dPolyline
 66
1
 10
0.0
 20
0.0
 30
0.0
 70
0
  0
VERTEX
  5
CE9
330
A35
100
AcDbEntity
  8
0
100
AcDbVertex
100
AcDb2dVertex
 10
59.48
 20
55.4
 30
0.0
 70
0
  0
VERTEX
  5
CEA
330
A35
100
AcDbEntity
  8
0
100
AcDbVertex
100
AcDb2dVertex
 10
59.48
 20
55.34
 30
0.0
 70
0
  0
VERTEX
  5
CEB
330
A35
100
AcDbEntity
  8
0
100
AcDbVertex
100
AcDb2dVertex
 10
59.52
 20
55.34
 30
0.0
 70
0
  0
SEQEND
  5
CE8
330
A35
100
AcDbEntity
  8
0
  0
POLYLINE
  5
CEC
330
A35
100
AcDbEntity
  8
0
100
AcDb2dPolyline
 66
1
 10
0.0
 20
0.0
 30
0.0
 70
0
  0
VERTEX
  5
CEE
330
A35
100
AcDbEntity
  8
0
100
AcDbVertex
100
AcDb2dVertex
 10
1.5
 20
75.88
 30
0.0
 70
0
  0
VERTEX
  5
CEF
330
A35
100
AcDbEntity
  8
0
100
AcDbVertex
100
AcDb2dVertex
 10
1.5
 20
75.92
 30
0.0
 70
0
  0
VERTEX
  5
CF0
330
A35
100
AcDbEntity
  8
0
100
AcDbVertex
100
AcDb2dVertex
 10
1.54
 20
75.92
 30
0.0
 70
0
  0
VERTEX
  5
CF1
330
A35
100
AcDbEntity
  8
0
100
AcDbVertex
100
AcDb2dVertex
 10
1.54
 20
76.02
 30
0.0
 70
0
  0
VERTEX
  5
CF2
330
A35
100
AcDbEntity
  8
0
100
AcDbVertex
100
AcDb2dVertex
 10
1.58
 20
76.02
 30
0.0
 70
0
  0
VERTEX
  5
CF3
330
A35
100
AcDbEntity
  8
0
100
AcDbVertex
100
AcDb2dVertex
 10
1.64
 20
76.02
 30
0.0
 70
0
  0
VERTEX
  5
CF4
330
A35
100
AcDbEntity
  8
0
100
AcDbVertex
100
AcDb2dVertex
 10
1.64
 20
76.06
 30
0.0
 70
0
  0
VERTEX
  5
CF5
330
A35
100
AcDbEntity
  8
0
100
AcDbVertex
100
AcDb2dVertex
 10
1.68
 20
76.06
 30
0.0
 70
0
  0
SEQEND
  5
CED
330
A35
100
AcDbEntity
  8
0
  0
POLYLINE
  5
CF6
330
A35
100
AcDbEntity
  8
0
100
AcDb2dPolyline
 66
1
 10
0.0
 20
0.0
 30
0.0
 70
0
  0
VERTEX
  5
CF8
330
A35
100
AcDbEntity
  8
0
100
AcDbVertex
100
AcDb2dVertex
 10
13.38
 20
80.06
 30
0.0
 70
0
  0
VERTEX
  5
CF9
330
A35
100
AcDbEntity
  8
0
100
AcDbVertex
100
AcDb2dVertex
 10
13.38
 20
80.16
 30
0.0
 70
0
  0
VERTEX
  5
CFA
330
A35
100
AcDbEntity
  8
0
100
AcDbVertex
100
AcDb2dVertex
 10
13.42
 20
80.16
 30
0.0
 70
0
  0
VERTEX
  5
CFB
330
A35
100
AcDbEntity
  8
0
100
AcDbVertex
100
AcDb2dVertex
 10
13.42
 20
80.2
 30
0.0
 70
0
  0
VERTEX
  5
CFC
330
A35
100
AcDbEntity
  8
0
100
AcDbVertex
100
AcDb2dVertex
 10
13.48
 20
80.2
 30
0.0
 70
0
  0
VERTEX
  5
CFD
330
A35
100
AcDbEntity
  8
0
100
AcDbVertex
100
AcDb2dVertex
 10
13.48
 20
80.24
 30
0.0
 70
0
  0
VERTEX
  5
CFE
330
A35
100
AcDbEntity
  8
0
100
AcDbVertex
100
AcDb2dVertex
 10
13.52
 20
80.24
 30
0.0
 70
0
  0
VERTEX
  5
CFF
330
A35
100
AcDbEntity
  8
0
100
AcDbVertex
100
AcDb2dVertex
 10
13.56
 20
80.24
 30
0.0
 70
0
  0
VERTEX
  5
D00
330
A35
100
AcDbEntity
  8
0
100
AcDbVertex
100
AcDb2dVertex
 10
13.62
 20
80.24
 30
0.0
 70
0
  0
SEQEND
  5
CF7
330
A35
100
AcDbEntity
  8
0
  0
POLYLINE
  5
D01
330
A35
100
AcDbEntity
  8
0
100
AcDb2dPolyline
 66
1
 10
0.0
 20
0.0
 30
0.0
 70
0
  0
VERTEX
  5
D03
330
A35
100
AcDbEntity
  8
0
100
AcDbVertex
100
AcDb2dVertex
 10
9.34
 20
78.7
 30
0.0
 70
0
  0
VERTEX
  5
D04
330
A35
100
AcDbEntity
  8
0
100
AcDbVertex
100
AcDb2dVertex
 10
9.3
 20
78.7
 30
0.0
 70
0
  0
VERTEX
  5
D05
330
A35
100
AcDbEntity
  8
0
100
AcDbVertex
100
AcDb2dVertex
 10
9.24
 20
78.7
 30
0.0
 70
0
  0
SEQEND
  5
D02
330
A35
100
AcDbEntity
  8
0
  0
POLYLINE
  5
D06
330
A35
100
AcDbEntity
  8
0
100
AcDb2dPolyline
 66
1
 10
0.0
 20
0.0
 30
0.0
 70
0
  0
VERTEX
  5
D08
330
A35
100
AcDbEntity
  8
0
100
AcDbVertex
100
AcDb2dVertex
 10
13.42
 20
79.96
 30
0.0
 70
0
  0
VERTEX
  5
D09
330
A35
100
AcDbEntity
  8
0
100
AcDbVertex
100
AcDb2dVertex
 10
13.42
 20
80.02
 30
0.0
 70
0
  0
VERTEX
  5
D0A
330
A35
100
AcDbEntity
  8
0
100
AcDbVertex
100
AcDb2dVertex
 10
13.38
 20
80.02
 30
0.0
 70
0
  0
VERTEX
  5
D0B
330
A35
100
AcDbEntity
  8
0
100
AcDbVertex
100
AcDb2dVertex
 10
13.38
 20
80.06
 30
0.0
 70
0
  0
SEQEND
  5
D07
330
A35
100
AcDbEntity
  8
0
  0
POLYLINE
  5
D0C
330
A35
100
AcDbEntity
  8
0
100
AcDb2dPolyline
 66
1
 10
0.0
 20
0.0
 30
0.0
 70
0
  0
VERTEX
  5
D0E
330
A35
100
AcDbEntity
  8
0
100
AcDbVertex
100
AcDb2dVertex
 10
1.54
 20
75.74
 30
0.0
 70
0
  0
VERTEX
  5
D0F
330
A35
100
AcDbEntity
  8
0
100
AcDbVertex
100
AcDb2dVertex
 10
1.54
 20
75.78
 30
0.0
 70
0
  0
VERTEX
  5
D10
330
A35
100
AcDbEntity
  8
0
100
AcDbVertex
100
AcDb2dVertex
 10
1.5
 20
75.84
 30
0.0
 70
0
  0
VERTEX
  5
D11
330
A35
100
AcDbEntity
  8
0
100
AcDbVertex
100
AcDb2dVertex
 10
1.5
 20
75.88
 30
0.0
 70
0
  0
SEQEND
  5
D0D
330
A35
100
AcDbEntity
  8
0
  0
POLYLINE
  5
D12
330
A35
100
AcDbEntity
  8
0
100
AcDb2dPolyline
 66
1
 10
0.0
 20
0.0
 30
0.0
 70
0
  0
VERTEX
  5
D14
330
A35
100
AcDbEntity
  8
0
100
AcDbVertex
100
AcDb2dVertex
 10
0.04
 20
73.06
 30
0.0
 70
0
  0
VERTEX
  5
D15
330
A35
100
AcDbEntity
  8
0
100
AcDbVertex
100
AcDb2dVertex
 10
0.04
 20
73.1
 30
0.0
 70
0
  0
VERTEX
  5
D16
330
A35
100
AcDbEntity
  8
0
100
AcDbVertex
100
AcDb2dVertex
 10
0.0
 20
73.1
 30
0.0
 70
0
  0
VERTEX
  5
D17
330
A35
100
AcDbEntity
  8
0
100
AcDbVertex
100
AcDb2dVertex
 10
0.0
 20
73.16
 30
0.0
 70
0
  0
SEQEND
  5
D13
330
A35
100
AcDbEntity
  8
0
  0
POLYLINE
  5
D18
330
A35
100
AcDbEntity
  8
0
100
AcDb2dPolyline
 66
1
 10
0.0
 20
0.0
 30
0.0
 70
0
  0
VERTEX
  5
D1A
330
A35
100
AcDbEntity
  8
0
100
AcDbVertex
100
AcDb2dVertex
 10
14.6
 20
77.86
 30
0.0
 70
0
  0
VERTEX
  5
D1B
330
A35
100
AcDbEntity
  8
0
100
AcDbVertex
100
AcDb2dVertex
 10
14.64
 20
77.86
 30
0.0
 70
0
  0
VERTEX
  5
D1C
330
A35
100
AcDbEntity
  8
0
100
AcDbVertex
100
AcDb2dVertex
 10
14.64
 20
77.9
 30
0.0
 70
0
  0
SEQEND
  5
D19
330
A35
100
AcDbEntity
  8
0
  0
POLYLINE
  5
D1D
330
A35
100
AcDbEntity
  8
0
100
AcDb2dPolyline
 66
1
 10
0.0
 20
0.0
 30
0.0
 70
0
  0
VERTEX
  5
D1F
330
A35
100
AcDbEntity
  8
0
100
AcDbVertex
100
AcDb2dVertex
 10
5.9
 20
77.52
 30
0.0
 70
0
  0
VERTEX
  5
D20
330
A35
100
AcDbEntity
  8
0
100
AcDbVertex
100
AcDb2dVertex
 10
5.86
 20
77.52
 30
0.0
 70
0
  0
VERTEX
  5
D21
330
A35
100
AcDbEntity
  8
0
100
AcDbVertex
100
AcDb2dVertex
 10
5.86
 20
77.42
 30
0.0
 70
0
  0
VERTEX
  5
D22
330
A35
100
AcDbEntity
  8
0
100
AcDbVertex
100
AcDb2dVertex
 10
5.82
 20
77.42
 30
0.0
 70
0
  0
VERTEX
  5
D23
330
A35
100
AcDbEntity
  8
0
100
AcDbVertex
100
AcDb2dVertex
 10
5.76
 20
77.42
 30
0.0
 70
0
  0
VERTEX
  5
D24
330
A35
100
AcDbEntity
  8
0
100
AcDbVertex
100
AcDb2dVertex
 10
5.76
 20
77.24
 30
0.0
 70
0
  0
SEQEND
  5
D1E
330
A35
100
AcDbEntity
  8
0
  0
POLYLINE
  5
D25
330
A35
100
AcDbEntity
  8
0
100
AcDb2dPolyline
 66
1
 10
0.0
 20
0.0
 30
0.0
 70
0
  0
VERTEX
  5
D27
330
A35
100
AcDbEntity
  8
0
100
AcDbVertex
100
AcDb2dVertex
 10
14.6
 20
77.86
 30
0.0
 70
0
  0
VERTEX
  5
D28
330
A35
100
AcDbEntity
  8
0
100
AcDbVertex
100
AcDb2dVertex
 10
14.56
 20
77.86
 30
0.0
 70
0
  0
VERTEX
  5
D29
330
A35
100
AcDbEntity
  8
0
100
AcDbVertex
100
AcDb2dVertex
 10
14.56
 20
77.8
 30
0.0
 70
0
  0
SEQEND
  5
D26
330
A35
100
AcDbEntity
  8
0
  0
POLYLINE
  5
D2A
330
A35
100
AcDbEntity
  8
0
100
AcDb2dPolyline
 66
1
 10
0.0
 20
0.0
 30
0.0
 70
0
  0
VERTEX
  5
D2C
330
A35
100
AcDbEntity
  8
0
100
AcDbVertex
100
AcDb2dVertex
 10
14.14
 20
78.08
 30
0.0
 70
0
  0
VERTEX
  5
D2D
330
A35
100
AcDbEntity
  8
0
100
AcDbVertex
100
AcDb2dVertex
 10
14.14
 20
78.14
 30
0.0
 70
0
  0
VERTEX
  5
D2E
330
A35
100
AcDbEntity
  8
0
100
AcDbVertex
100
AcDb2dVertex
 10
14.18
 20
78.14
 30
0.0
 70
0
  0
SEQEND
  5
D2B
330
A35
100
AcDbEntity
  8
0
  0
POLYLINE
  5
D2F
330
A35
100
AcDbEntity
  8
0
100
AcDb2dPolyline
 66
1
 10
0.0
 20
0.0
 30
0.0
 70
0
  0
VERTEX
  5
D31
330
A35
100
AcDbEntity
  8
0
100
AcDbVertex
100
AcDb2dVertex
 10
0.04
 20
73.06
 30
0.0
 70
0
  0
VERTEX
  5
D32
330
A35
100
AcDbEntity
  8
0
100
AcDbVertex
100
AcDb2dVertex
 10
0.0
 20
73.06
 30
0.0
 70
0
  0
VERTEX
  5
D33
330
A35
100
AcDbEntity
  8
0
100
AcDbVertex
100
AcDb2dVertex
 10
0.0
 20
73.1
 30
0.0
 70
0
  0
SEQEND
  5
D30
330
A35
100
AcDbEntity
  8
0
  0
POLYLINE
  5
D34
330
A35
100
AcDbEntity
  8
0
100
AcDb2dPolyline
 66
1
 10
0.0
 20
0.0
 30
0.0
 70
0
  0
VERTEX
  5
D36
330
A35
100
AcDbEntity
  8
0
100
AcDbVertex
100
AcDb2dVertex
 10
14.14
 20
78.08
 30
0.0
 70
0
  0
VERTEX
  5
D37
330
A35
100
AcDbEntity
  8
0
100
AcDbVertex
100
AcDb2dVertex
 10
14.08
 20
78.08
 30
0.0
 70
0
  0
VERTEX
  5
D38
330
A35
100
AcDbEntity
  8
0
100
AcDbVertex
100
AcDb2dVertex
 10
14.08
 20
78.14
 30
0.0
 70
0
  0
SEQEND
  5
D35
330
A35
100
AcDbEntity
  8
0
  0
POLYLINE
  5
D39
330
A35
100
AcDbEntity
  8
0
100
AcDb2dPolyline
 66
1
 10
0.0
 20
0.0
 30
0.0
 70
0
  0
VERTEX
  5
D3B
330
A35
100
AcDbEntity
  8
0
100
AcDbVertex
100
AcDb2dVertex
 10
14.08
 20
78.46
 30
0.0
 70
0
  0
VERTEX
  5
D3C
330
A35
100
AcDbEntity
  8
0
100
AcDbVertex
100
AcDb2dVertex
 10
14.08
 20
78.5
 30
0.0
 70
0
  0
VERTEX
  5
D3D
330
A35
100
AcDbEntity
  8
0
100
AcDbVertex
100
AcDb2dVertex
 10
14.14
 20
78.5
 30
0.0
 70
0
  0
SEQEND
  5
D3A
330
A35
100
AcDbEntity
  8
0
  0
POLYLINE
  5
D3E
330
A35
100
AcDbEntity
  8
0
100
AcDb2dPolyline
 66
1
 10
0.0
 20
0.0
 30
0.0
 70
0
  0
VERTEX
  5
D40
330
A35
100
AcDbEntity
  8
0
100
AcDbVertex
100
AcDb2dVertex
 10
59.42
 20
55.26
 30
0.0
 70
0
  0
VERTEX
  5
D41
330
A35
100
AcDbEntity
  8
0
100
AcDbVertex
100
AcDb2dVertex
 10
59.48
 20
55.26
 30
0.0
 70
0
  0
VERTEX
  5
D42
330
A35
100
AcDbEntity
  8
0
100
AcDbVertex
100
AcDb2dVertex
 10
59.48
 20
55.3
 30
0.0
 70
0
  0
SEQEND
  5
D3F
330
A35
100
AcDbEntity
  8
0
  0
POLYLINE
  5
D43
330
A35
100
AcDbEntity
  8
0
100
AcDb2dPolyline
 66
1
 10
0.0
 20
0.0
 30
0.0
 70
0
  0
VERTEX
  5
D45
330
A35
100
AcDbEntity
  8
0
100
AcDbVertex
100
AcDb2dVertex
 10
8.64
 20
77.94
 30
0.0
 70
0
  0
VERTEX
  5
D46
330
A35
100
AcDbEntity
  8
0
100
AcDbVertex
100
AcDb2dVertex
 10
8.58
 20
77.94
 30
0.0
 70
0
  0
VERTEX
  5
D47
330
A35
100
AcDbEntity
  8
0
100
AcDbVertex
100
AcDb2dVertex
 10
8.58
 20
77.9
 30
0.0
 70
0
  0
SEQEND
  5
D44
330
A35
100
AcDbEntity
  8
0
  0
POLYLINE
  5
D48
330
A35
100
AcDbEntity
  8
0
100
AcDb2dPolyline
 66
1
 10
0.0
 20
0.0
 30
0.0
 70
0
  0
VERTEX
  5
D4A
330
A35
100
AcDbEntity
  8
0
100
AcDbVertex
100
AcDb2dVertex
 10
8.88
 20
77.9
 30
0.0
 70
0
  0
VERTEX
  5
D4B
330
A35
100
AcDbEntity
  8
0
100
AcDbVertex
100
AcDb2dVertex
 10
8.82
 20
77.9
 30
0.0
 70
0
  0
VERTEX
  5
D4C
330
A35
100
AcDbEntity
  8
0
100
AcDbVertex
100
AcDb2dVertex
 10
8.82
 20
77.94
 30
0.0
 70
0
  0
VERTEX
  5
D4D
330
A35
100
AcDbEntity
  8
0
100
AcDbVertex
100
AcDb2dVertex
 10
8.78
 20
77.94
 30
0.0
 70
0
  0
VERTEX
  5
D4E
330
A35
100
AcDbEntity
  8
0
100
AcDbVertex
100
AcDb2dVertex
 10
8.74
 20
77.94
 30
0.0
 70
0
  0
VERTEX
  5
D4F
330
A35
100
AcDbEntity
  8
0
100
AcDbVertex
100
AcDb2dVertex
 10
8.68
 20
77.94
 30
0.0
 70
0
  0
VERTEX
  5
D50
330
A35
100
AcDbEntity
  8
0
100
AcDbVertex
100
AcDb2dVertex
 10
8.64
 20
77.94
 30
0.0
 70
0
  0
SEQEND
  5
D49
330
A35
100
AcDbEntity
  8
0
  0
POLYLINE
  5
D51
330
A35
100
AcDbEntity
  8
0
100
AcDb2dPolyline
 66
1
 10
0.0
 20
0.0
 30
0.0
 70
0
  0
VERTEX
  5
D53
330
A35
100
AcDbEntity
  8
0
100
AcDbVertex
100
AcDb2dVertex
 10
14.04
 20
75.32
 30
0.0
 70
0
  0
VERTEX
  5
D54
330
A35
100
AcDbEntity
  8
0
100
AcDbVertex
100
AcDb2dVertex
 10
14.04
 20
75.26
 30
0.0
 70
0
  0
VERTEX
  5
D55
330
A35
100
AcDbEntity
  8
0
100
AcDbVertex
100
AcDb2dVertex
 10
14.0
 20
75.26
 30
0.0
 70
0
  0
SEQEND
  5
D52
330
A35
100
AcDbEntity
  8
0
  0
POLYLINE
  5
D56
330
A35
100
AcDbEntity
  8
0
100
AcDb2dPolyline
 66
1
 10
0.0
 20
0.0
 30
0.0
 70
0
  0
VERTEX
  5
D58
330
A35
100
AcDbEntity
  8
0
100
AcDbVertex
100
AcDb2dVertex
 10
8.82
 20
77.86
 30
0.0
 70
0
  0
VERTEX
  5
D59
330
A35
100
AcDbEntity
  8
0
100
AcDbVertex
100
AcDb2dVertex
 10
8.88
 20
77.86
 30
0.0
 70
0
  0
VERTEX
  5
D5A
330
A35
100
AcDbEntity
  8
0
100
AcDbVertex
100
AcDb2dVertex
 10
8.88
 20
77.9
 30
0.0
 70
0
  0
SEQEND
  5
D57
330
A35
100
AcDbEntity
  8
0
  0
POLYLINE
  5
D5B
330
A35
100
AcDbEntity
  8
0
100
AcDb2dPolyline
 66
1
 10
0.0
 20
0.0
 30
0.0
 70
0
  0
VERTEX
  5
D5D
330
A35
100
AcDbEntity
  8
0
100
AcDbVertex
100
AcDb2dVertex
 10
8.58
 20
77.9
 30
0.0
 70
0
  0
VERTEX
  5
D5E
330
A35
100
AcDbEntity
  8
0
100
AcDbVertex
100
AcDb2dVertex
 10
8.58
 20
77.86
 30
0.0
 70
0
  0
VERTEX
  5
D5F
330
A35
100
AcDbEntity
  8
0
100
AcDbVertex
100
AcDb2dVertex
 10
8.64
 20
77.86
 30
0.0
 70
0
  0
VERTEX
  5
D60
330
A35
100
AcDbEntity
  8
0
100
AcDbVertex
100
AcDb2dVertex
 10
8.68
 20
77.86
 30
0.0
 70
0
  0
VERTEX
  5
D61
330
A35
100
AcDbEntity
  8
0
100
AcDbVertex
100
AcDb2dVertex
 10
8.68
 20
77.8
 30
0.0
 70
0
  0
VERTEX
  5
D62
330
A35
100
AcDbEntity
  8
0
100
AcDbVertex
100
AcDb2dVertex
 10
8.74
 20
77.8
 30
0.0
 70
0
  0
VERTEX
  5
D63
330
A35
100
AcDbEntity
  8
0
100
AcDbVertex
100
AcDb2dVertex
 10
8.74
 20
77.86
 30
0.0
 70
0
  0
VERTEX
  5
D64
330
A35
100
AcDbEntity
  8
0
100
AcDbVertex
100
AcDb2dVertex
 10
8.78
 20
77.86
 30
0.0
 70
0
  0
VERTEX
  5
D65
330
A35
100
AcDbEntity
  8
0
100
AcDbVertex
100
AcDb2dVertex
 10
8.82
 20
77.86
 30
0.0
 70
0
  0
SEQEND
  5
D5C
330
A35
100
AcDbEntity
  8
0
  0
POLYLINE
  5
D66
330
A35
100
AcDbEntity
  8
0
100
AcDb2dPolyline
 66
1
 10
0.0
 20
0.0
 30
0.0
 70
0
  0
VERTEX
  5
D68
330
A35
100
AcDbEntity
  8
0
100
AcDbVertex
100
AcDb2dVertex
 10
49.42
 20
57.32
 30
0.0
 70
0
  0
VERTEX
  5
D69
330
A35
100
AcDbEntity
  8
0
100
AcDbVertex
100
AcDb2dVertex
 10
49.42
 20
57.28
 30
0.0
 70
0
  0
VERTEX
  5
D6A
330
A35
100
AcDbEntity
  8
0
100
AcDbVertex
100
AcDb2dVertex
 10
49.46
 20
57.28
 30
0.0
 70
0
  0
SEQEND
  5
D67
330
A35
100
AcDbEntity
  8
0
  0
TEXT
  5
D6B
330
A35
100
AcDbEntity
  8
0
100
AcDbText
 10
0.0
 20
95.0
 30
0.0
 40
3.0
  1
My40形2500CISPR連調 埋込300幅
 11
0.0
 21
95.0
 31
0.0
100
AcDbText
  0
TEXT
  5
D6C
330
A35
100
AcDbEntity
  8
0
100
AcDbText
 10
0.0
 20
10.0
 30
0.0
 40
3.0
  1
三菱 MY-B425335/N VCTZ
 11
0.0
 21
10.0
 31
0.0
100
AcDbText
  0
TEXT
  5
D6D
330
A35
100
AcDbEntity
  8
0
100
AcDbText
 10
50.0
 20
35.0
 30
0.0
 40
1.5
  1
Myｼﾘｰｽﾞ 昼白色(5000K) Ra83
 11
50.0
 21
35.0
 31
0.0
100
AcDbText
  0
TEXT
  5
D6E
330
A35
100
AcDbEntity
  8
0
100
AcDbText
 10
50.0
 20
32.0
 30
0.0
 40
1.5
  1
AC100V～254V共用ﾀｲﾌﾟ
 11
50.0
 21
32.0
 31
0.0
100
AcDbText
  0
TEXT
  5
D6F
330
A35
100
AcDbEntity
  8
0
100
AcDbText
 10
50.0
 20
29.0
 30
0.0
 40
1.5
  1
連続調光 5～100 段調光機能
 11
50.0
 21
29.0
 31
0.0
100
AcDbText
  0
TEXT
  5
D70
330
A35
100
AcDbEntity
  8
0
100
AcDbText
 10
50.0
 20
26.0
 30
0.0
 40
1.5
  1
ﾊｲﾌﾞﾘｯﾄﾞﾅﾉｺｰﾃｨﾝｸﾞ(ﾎｺﾘ,すす汚れ防止ｺｰﾃｨﾝｸﾞ)ﾗｲﾄﾕﾆｯﾄ
 11
50.0
 21
26.0
 31
0.0
100
AcDbText
  0
TEXT
  5
D71
330
A35
100
AcDbEntity
  8
0
100
AcDbText
 10
50.0
 20
23.0
 30
0.0
 40
1.5
  1
光源寿命：40000時間
 11
50.0
 21
23.0
 31
0.0
100
AcDbText
  0
TEXT
  5
D72
330
A35
100
AcDbEntity
  8
0
100
AcDbText
 10
50.0
 20
20.0
 30
0.0
 40
1.5
  1
光束：2450lm 消費電力：16.7W 消費効率：146.7lm/W
 11
50.0
 21
20.0
 31
0.0
100
AcDbText
  0
VIEWPORT
  5
45B
102
{ACAD_XDICTIONARY
360
A5E
102
}
330
A31
100
AcDbEntity
 67
1
  8
0
100
AcDbViewport
 10
128.5
 20
97.5
 30
0.0
 40
314.226
 41
222.18
 68
1
 69
1
 12
0.0
 22
0.0
 13
0.0
 23
0.0
 14
10.0
 24
10.0
 15
10.0
 25
10.0
 16
0.0
 26
0.0
 36
0.0
 17
0.0
 27
0.0
 37
0.0
 42
50.0
 43
0.0
 44
0.0
 45
1.0
 50
0.0
 51
0.0
 72
100
 90
32768
  1

281
0
 71
0
 74
0
110
0.0
120
0.0
130
0.0
111
1.0
121
0.0
131
0.0
112
0.0
122
1.0
132
0.0
 79
0
146
0.0
  0
ENDSEC
  0
SECTION
  2
OBJECTS
  0
DICTIONARY
  5
9D2
330
0
100
AcDbDictionary
281
1
  3
ACAD_CIP_PREVIOUS_PRODUCT_INFO
350
A48
  3
ACAD_COLOR
350
A28
  3
ACAD_DETAILVIEWSTYLE
350
A2F
  3
ACAD_GROUP
350
9D3
  3
ACAD_LAYOUT
350
A27
  3
ACAD_MATERIAL
350
9D6
  3
ACAD_MLEADERSTYLE
350
A2B
  3
ACAD_MLINESTYLE
350
A24
  3
ACAD_PLOTSETTINGS
350
A26
  3
ACAD_PLOTSTYLENAME
350
9D4
  3
ACAD_SCALELIST
350
A08
  3
ACAD_SECTIONVIEWSTYLE
350
A2D
  3
ACAD_TABLESTYLE
350
A29
  3
ACAD_VISUALSTYLE
350
9EF
  3
ACDB_RECOMPOSE_DATA
350
A5C
  3
AcDbVariableDictionary
350
A4F
  3
DWGPROPS
350
A5D
  3
EZDXF_META
350
D75
  0
DICTIONARY
  5
A49
330
A1A
100
AcDbDictionary
280
1
281
1
  3
ADSK_XREC_LAYER_RECONCILED
360
A4A
  0
DICTIONARY
  5
A4B
330
A39
100
AcDbDictionary
280
1
281
1
  3
ADSK_XREC_LAYER_RECONCILED
360
A4C
  0
DICTIONARY
  5
A4D
330
A3D
100
AcDbDictionary
280
1
281
1
  3
ADSK_XREC_LAYER_RECONCILED
360
A4E
  0
DICTIONARY
  5
A5E
330
45B
100
AcDbDictionary
280
1
281
1
  3
ACAD_XREC_ROUNDTRIP
360
A5F
  0
XRECORD
  5
A48
102
{ACAD_REACTORS
330
9D2
102
}
330
9D2
100
AcDbXrecord
280
1
300
ACDLT
300
2019
300
87085ACDLT_2019_0F
  0
DICTIONARY
  5
A28
102
{ACAD_REACTORS
330
9D2
102
}
330
9D2
100
AcDbDictionary
281
1
  0
DICTIONARY
  5
A2F
102
{ACAD_REACTORS
330
9D2
102
}
330
9D2
100
AcDbDictionary
281
1
  3
Imperial24
350
A30
  0
DICTIONARY
  5
9D3
102
{ACAD_REACTORS
330
9D2
102
}
330
9D2
100
AcDbDictionary
281
1
  0
DICTIONARY
  5
A27
102
{ACAD_REACTORS
330
9D2
102
}
330
9D2
100
AcDbDictionary
281
1
  3
Model
350
A38
  3
レイアウト1
350
A34
  0
DICTIONARY
  5
9D6
102
{ACAD_REACTORS
330
9D2
102
}
330
9D2
100
AcDbDictionary
281
1
  3
ByBlock
350
9DF
  3
ByLayer
350
9D7
  3
Global
350
9E7
  0
DICTIONARY
  5
A2B
102
{ACAD_REACTORS
330
9D2
102
}
330
9D2
100
AcDbDictionary
281
1
  3
Standard
350
A2C
  0
DICTIONARY
  5
A24
102
{ACAD_REACTORS
330
9D2
102
}
330
9D2
100
AcDbDictionary
281
1
  3
Standard
350
A25
  0
DICTIONARY
  5
A26
102
{ACAD_REACTORS
330
9D2
102
}
330
9D2
100
AcDbDictionary
281
1
  0
ACDBDICTIONARYWDFLT
  5
9D4
102
{ACAD_REACTORS
330
9D2
102
}
330
9D2
100
AcDbDictionary
281
1
  3
Normal
350
9D5
100
AcDbDictionaryWithDefault
340
9D5
  0
DICTIONARY
  5
A08
102
{ACAD_REACTORS
330
9D2
102
}
330
9D2
100
AcDbDictionary
281
1
  3
A0
350
A09
  3
A1
350
A0A
  3
A2
350
A0B
  3
A3
350
A0C
  3
A4
350
A0D
  3
A5
350
A0E
  3
A6
350
A0F
  3
A7
350
A10
  3
A8
350
A11
  3
A9
350
A12
  3
B0
350
A13
  3
B1
350
A14
  3
B2
350
A15
  3
B3
350
A16
  3
B4
350
A17
  3
B5
350
A18
  3
B6
350
A19
  0
DICTIONARY
  5
A2D
102
{ACAD_REACTORS
330
9D2
102
}
330
9D2
100
AcDbDictionary
281
1
  3
Imperial24
350
A2E
  0
DICTIONARY
  5
A29
102
{ACAD_REACTORS
330
9D2
102
}
330
9D2
100
AcDbDictionary
281
1
  3
Standard
350
A2A
  0
DICTIONARY
  5
9EF
102
{ACAD_REACTORS
330
9D2
102
}
330
9D2
100
AcDbDictionary
281
1
  3
2dWireframe
350
9F5
  3
Basic
350
9F4
  3
Brighten
350
9FB
  3
ColorChange
350
9FF
  3
Conceptual
350
9F8
  3
Dim
350
9FA
  3
EdgeColorOff
350
A07
  3
Facepattern
350
9FE
  3
Flat
350
9F0
  3
FlatWithEdges
350
9F1
  3
Gouraud
350
9F2
  3
GouraudWithEdges
350
9F3
  3
Hidden
350
9F7
  3
JitterOff
350
A05
  3
Linepattern
350
9FD
  3
OverhangOff
350
A06
  3
Realistic
350
9F9
  3
Shaded
350
A04
  3
Shaded with edges
350
A03
  3
Shades of Gray
350
A00
  3
Sketchy
350
A01
  3
Thicken
350
9FC
  3
Wireframe
350
9F6
  3
X-Ray
350
A02
  0
XRECORD
  5
A5C
102
{ACAD_REACTORS
330
9D2
102
}
330
9D2
100
AcDbXrecord
280
1
 90
1
330
A2A
  0
DICTIONARY
  5
A4F
102
{ACAD_REACTORS
330
9D2
102
}
330
9D2
100
AcDbDictionary
281
1
  3
CANNOSCALE
350
A54
  3
CMLEADERSTYLE
350
A51
  3
CTABLESTYLE
350
A50
  3
CVIEWDETAILSTYLE
350
A52
  3
CVIEWSECTIONSTYLE
350
A53
  3
DIMASSOC
350
A57
  3
INDEXCTL
350
A56
  3
SORTENTS
350
A55
  3
XCLIPFRAME
350
A58
  0
XRECORD
  5
A5D
102
{ACAD_REACTORS
330
9D2
102
}
330
9D2
100
AcDbXrecord
280
1
  1
DWGPROPS COOKIE
  2

  3

  4

  6

  7

  8
1992517
  9

300
=
301
=
302
=
303
=
304
=
305
=
306
=
307
=
308
=
309
=
 40
0.0010069560185185
 41
2459044.788842593
 42
2459045.376064815
  1

 90
0
  0
XRECORD
  5
A4A
102
{ACAD_REACTORS
330
A49
102
}
330
A49
100
AcDbXrecord
280
1
290
1
  0
XRECORD
  5
A4C
102
{ACAD_REACTORS
330
A4B
102
}
330
A4B
100
AcDbXrecord
280
1
290
1
  0
XRECORD
  5
A4E
102
{ACAD_REACTORS
330
A4D
102
}
330
A4D
100
AcDbXrecord
280
1
290
1
  0
XRECORD
  5
A5F
102
{ACAD_REACTORS
330
A5E
102
}
330
A5E
100
AcDbXrecord
280
1
102
SHADEPLOT
 70
0
  0
ACDBDETAILVIEWSTYLE
  5
A30
102
{ACAD_XDICTIONARY
360
A97
102
}
102
{ACAD_REACTORS
330
A2F
102
}
330
A2F
100
AcDbModelDocViewStyle
 70
0
  3
Imperial24
290
0
100
AcDbDetailViewStyle
 70
0
 71
0
 90
3
 71
1
340
A1B
 40
0.24
340
0
 40
0.24
300

 40
0.36
280
3
 71
2
340
A22
 90
25
 71
3
340
A1B
 40
0.24
 90
1
 40
0.75
 90
1
300
%<\AcVar ViewType \f "%tc1">% %<\AcVar ViewDetailId>%\PSCALE %<\AcVar ViewScale \f "%sn">%
 71
4
340
A22
 90
25
340
A22
 90
25
280
0
  0
LAYOUT
  5
A38
102
{ACAD_XDICTIONARY
360
A9B
102
}
102
{ACAD_REACTORS
330
A27
102
}
330
A27
100
AcDbPlotSettings
  1

  2
LBP8720
  4

  6

 40
0.0
 41
0.0
 42
0.0
 43
0.0
 44
0.0
 45
0.0
 46
0.0
 47
0.0
 48
0.0
 49
0.0
140
0.0
141
0.0
142
1.0
143
1.0
 70
1712
 72
0
 73
0
 74
0
  7

 75
0
 76
0
 77
2
 78
300
147
1.0
148
0.0
149
0.0
100
AcDbLayout
  1
Model
 70
1
 71
0
 10
0.0
 20
0.0
 11
12.0
 21
9.0
 12
0.0
 22
0.0
 32
0.0
 14
0.0
 24
0.0
 34
0.0
 15
0.0
 25
0.0
 35
0.0
146
0.0
 13
0.0
 23
0.0
 33
0.0
 16
1.0
 26
0.0
 36
0.0
 17
0.0
 27
1.0
 37
0.0
 76
0
330
A35
331
A3A
  0
LAYOUT
  5
A34
102
{ACAD_XDICTIONARY
360
A99
102
}
102
{ACAD_REACTORS
330
A27
102
}
330
A27
100
AcDbPlotSettings
  1

  2
LBP8720
  4

  6

 40
0.0
 41
0.0
 42
0.0
 43
0.0
 44
0.0
 45
0.0
 46
0.0
 47
0.0
 48
0.0
 49
0.0
140
0.0
141
0.0
142
1.0
143
1.0
 70
688
 72
0
 73
0
 74
5
  7

 75
16
 76
0
 77
2
 78
300
147
1.0
148
0.0
149
0.0
100
AcDbLayout
  1
レイアウト1
 70
1
 71
1
 10
-20.0
 20
-7.5
 11
277.0
 21
202.5
 12
0.0
 22
0.0
 32
0.0
 14
1e+20
 24
1e+20
 34
1e+20
 15
-1e+20
 25
-1e+20
 35
-1e+20
146
0.0
 13
0.0
 23
0.0
 33
0.0
 16
1.0
 26
0.0
 36
0.0
 17
0.0
 27
1.0
 37
0.0
 76
0
330
A31
331
45B
  0
MATERIAL
  5
9DF
102
{ACAD_XDICTIONARY
360
9E0
102
}
102
{ACAD_REACTORS
330
9D6
102
}
330
9D6
100
AcDbMaterial
  1
ByBlock
  2

 70
0
 40
1.0
 71
0
 41
1.0
 91
-1023410177
 42
1.0
 72
0
  3

 73
1
 74
1
 75
1
 43
0.0208333333333333
 43
0.0
 43
0.0
 43
0.0
 43
0.0
 43
0.0208333333333333
 43
0.0
 43
0.0
 43
0.0
 43
0.0
 43
1.0
 43
0.0
 43
0.0
 43
0.0
 43
0.0
 43
1.0
 44
0.5
 73
0
 45
1.0
 46
1.0
 77
0
  4

 78
1
 79
1
170
1
 47
0.0208333333333333
 47
0.0
 47
0.0
 47
0.0
 47
0.0
 47
0.0208333333333333
 47
0.0
 47
0.0
 47
0.0
 47
0.0
 47
1.0
 47
0.0
 47
0.0
 47
0.0
 47
0.0
 47
1.0
 48
1.0
171
0
  6

172
1
173
1
174
1
 49
0.0208333333333333
 49
0.0
 49
0.0
 49
0.0
 49
0.0
 49
0.0208333333333333
 49
0.0
 49
0.0
 49
0.0
 49
0.0
 49
1.0
 49
0.0
 49
0.0
 49
0.0
 49
0.0
 49
1.0
140
1.0
141
1.0
175
0
  7

176
1
177
1
178
1
142
0.0208333333333333
142
0.0
142
0.0
142
0.0
142
0.0
142
0.0208333333333333
142
0.0
142
0.0
142
0.0
142
0.0
142
1.0
142
0.0
142
0.0
142
0.0
142
0.0
142
1.0
143
1.0
179
0
  8

270
1
271
1
272
1
144
0.0208333333333333
144
0.0
144
0.0
144
0.0
144
0.0
144
0.0208333333333333
144
0.0
144
0.0
144
0.0
144
0.0
144
1.0
144
0.0
144
0.0
144
0.0
144
0.0
144
1.0
145
1.0
146
1.0
273
1
  9

274
1
275
1
276
1
147
0.0208333333333333
147
0.0
147
0.0
147
0.0
147
0.0
147
0.0208333333333333
147
0.0
147
0.0
147
0.0
147
0.0
147
1.0
147
0.0
147
0.0
147
0.0
147
0.0
147
1.0
 42
1.0
 72
1
  3

 73
1
 74
1
 75
1
 94
63
  0
MATERIAL
  5
9D7
102
{ACAD_XDICTIONARY
360
9D8
102
}
102
{ACAD_REACTORS
330
9D6
102
}
330
9D6
100
AcDbMaterial
  1
ByLayer
  2

 70
0
 40
1.0
 71
0
 41
1.0
 91
-1023410177
 42
1.0
 72
0
  3

 73
1
 74
1
 75
1
 43
0.0208333333333333
 43
0.0
 43
0.0
 43
0.0
 43
0.0
 43
0.0208333333333333
 43
0.0
 43
0.0
 43
0.0
 43
0.0
 43
1.0
 43
0.0
 43
0.0
 43
0.0
 43
0.0
 43
1.0
 44
0.5
 73
0
 45
1.0
 46
1.0
 77
0
  4

 78
1
 79
1
170
1
 47
0.0208333333333333
 47
0.0
 47
0.0
 47
0.0
 47
0.0
 47
0.0208333333333333
 47
0.0
 47
0.0
 47
0.0
 47
0.0
 47
1.0
 47
0.0
 47
0.0
 47
0.0
 47
0.0
 47
1.0
 48
1.0
171
0
  6

172
1
173
1
174
1
 49
0.0208333333333333
 49
0.0
 49
0.0
 49
0.0
 49
0.0
 49
0.0208333333333333
 49
0.0
 49
0.0
 49
0.0
 49
0.0
 49
1.0
 49
0.0
 49
0.0
 49
0.0
 49
0.0
 49
1.0
140
1.0
141
1.0
175
0
  7

176
1
177
1
178
1
142
0.0208333333333333
142
0.0
142
0.0
142
0.0
142
0.0
142
0.0208333333333333
142
0.0
142
0.0
142
0.0
142
0.0
142
1.0
142
0.0
142
0.0
142
0.0
142
0.0
142
1.0
143
1.0
179
0
  8

270
1
271
1
272
1
144
0.0208333333333333
144
0.0
144
0.0
144
0.0
144
0.0
144
0.0208333333333333
144
0.0
144
0.0
144
0.0
144
0.0
144
1.0
144
0.0
144
0.0
144
0.0
144
0.0
144
1.0
145
1.0
146
1.0
273
1
  9

274
1
275
1
276
1
147
0.0208333333333333
147
0.0
147
0.0
147
0.0
147
0.0
147
0.0208333333333333
147
0.0
147
0.0
147
0.0
147
0.0
147
1.0
147
0.0
147
0.0
147
0.0
147
0.0
147
1.0
 42
1.0
 72
1
  3

 73
1
 74
1
 75
1
 94
63
  0
MATERIAL
  5
9E7
102
{ACAD_XDICTIONARY
360
9E8
102
}
102
{ACAD_REACTORS
330
9D6
102
}
330
9D6
100
AcDbMaterial
  1
Global
  2

 70
0
 40
1.0
 71
0
 41
1.0
 91
-1023410177
 42
1.0
 72
0
  3

 73
1
 74
1
 75
1
 43
0.0208333333333333
 43
0.0
 43
0.0
 43
0.0
 43
0.0
 43
0.0208333333333333
 43
0.0
 43
0.0
 43
0.0
 43
0.0
 43
1.0
 43
0.0
 43
0.0
 43
0.0
 43
0.0
 43
1.0
 44
0.5
 73
0
 45
1.0
 46
1.0
 77
0
  4

 78
1
 79
1
170
1
 47
0.0208333333333333
 47
0.0
 47
0.0
 47
0.0
 47
0.0
 47
0.0208333333333333
 47
0.0
 47
0.0
 47
0.0
 47
0.0
 47
1.0
 47
0.0
 47
0.0
 47
0.0
 47
0.0
 47
1.0
 48
1.0
171
0
  6

172
1
173
1
174
1
 49
0.0208333333333333
 49
0.0
 49
0.0
 49
0.0
 49
0.0
 49
0.0208333333333333
 49
0.0
 49
0.0
 49
0.0
 49
0.0
 49
1.0
 49
0.0
 49
0.0
 49
0.0
 49
0.0
 49
1.0
140
1.0
141
1.0
175
0
  7

176
1
177
1
178
1
142
0.0208333333333333
142
0.0
142
0.0
142
0.0
142
0.0
142
0.0208333333333333
142
0.0
142
0.0
142
0.0
142
0.0
142
1.0
142
0.0
142
0.0
142
0.0
142
0.0
142
1.0
143
1.0
179
0
  8

270
1
271
1
272
1
144
0.0208333333333333
144
0.0
144
0.0
144
0.0
144
0.0
144
0.0208333333333333
144
0.0
144
0.0
144
0.0
144
0.0
144
1.0
144
0.0
144
0.0
144
0.0
144
0.0
144
1.0
145
1.0
146
1.0
273
1
  9

274
1
275
1
276
1
147
0.0208333333333333
147
0.0
147
0.0
147
0.0
147
0.0
147
0.0208333333333333
147
0.0
147
0.0
147
0.0
147
0.0
147
1.0
147
0.0
147
0.0
147
0.0
147
0.0
147
1.0
 42
1.0
 72
1
  3

 73
1
 74
1
 75
1
 94
63
  0
MLEADERSTYLE
  5
A2C
102
{ACAD_REACTORS
330
A2B
102
}
330
A2B
100
AcDbMLeaderStyle
179
2
170
2
171
1
172
0
 90
2
 40
0.0
 41
0.0
173
1
 91
-1056964608
340
A20
 92
-2
290
1
 42
0.09
291
1
 43
0.36
  3
Standard
 44
0.18
300

342
A1B
174
1
175
1
176
0
178
6
 93
-1056964608
 45
0.18
292
0
297
0
 46
0.18
293
1
 94
-1056964608
 47
1.0
 49
1.0
140
1.0
294
1
141
0.0
177
0
142
1.0
295
0
296
0
143
0.125
271
0
272
9
273
9
1001
ACAD_MLEADERVER
1070
2
  0
MLINESTYLE
  5
A25
102
{ACAD_REACTORS
330
A24
102
}
330
A24
100
AcDbMlineStyle
  2
STANDARD
 70
0
  3

 62
256
 51
90.0
 52
90.0
 71
2
 49
0.5
 62
256
  6
BYLAYER
 49
-0.5
 62
256
  6
BYLAYER
  0
ACDBPLACEHOLDER
  5
9D5
102
{ACAD_REACTORS
330
9D4
102
}
330
9D4
  0
SCALE
  5
A09
102
{ACAD_REACTORS
330
A08
102
}
330
A08
100
AcDbScale
 70
0
300
1:1
140
1.0
141
1.0
290
1
  0
SCALE
  5
A0A
102
{ACAD_REACTORS
330
A08
102
}
330
A08
100
AcDbScale
 70
0
300
1/128" = 1'-0"
140
0.0078125
141
12.0
290
0
  0
SCALE
  5
A0B
102
{ACAD_REACTORS
330
A08
102
}
330
A08
100
AcDbScale
 70
0
300
1/64" = 1'-0"
140
0.015625
141
12.0
290
0
  0
SCALE
  5
A0C
102
{ACAD_REACTORS
330
A08
102
}
330
A08
100
AcDbScale
 70
0
300
1/32" = 1'-0"
140
0.03125
141
12.0
290
0
  0
SCALE
  5
A0D
102
{ACAD_REACTORS
330
A08
102
}
330
A08
100
AcDbScale
 70
0
300
1/16" = 1'-0"
140
0.0625
141
12.0
290
0
  0
SCALE
  5
A0E
102
{ACAD_REACTORS
330
A08
102
}
330
A08
100
AcDbScale
 70
0
300
3/32" = 1'-0"
140
0.09375
141
12.0
290
0
  0
SCALE
  5
A0F
102
{ACAD_REACTORS
330
A08
102
}
330
A08
100
AcDbScale
 70
0
300
1/8" = 1'-0"
140
0.125
141
12.0
290
0
  0
SCALE
  5
A10
102
{ACAD_REACTORS
330
A08
102
}
330
A08
100
AcDbScale
 70
0
300
3/16" = 1'-0"
140
0.1875
141
12.0
290
0
  0
SCALE
  5
A11
102
{ACAD_REACTORS
330
A08
102
}
330
A08
100
AcDbScale
 70
0
300
1/4" = 1'-0"
140
0.25
141
12.0
290
0
  0
SCALE
  5
A12
102
{ACAD_REACTORS
330
A08
102
}
330
A08
100
AcDbScale
 70
0
300
3/8" = 1'-0"
140
0.375
141
12.0
290
0
  0
SCALE
  5
A13
102
{ACAD_REACTORS
330
A08
102
}
330
A08
100
AcDbScale
 70
0
300
1/2" = 1'-0"
140
0.5
141
12.0
290
0
  0
SCALE
  5
A14
102
{ACAD_REACTORS
330
A08
102
}
330
A08
100
AcDbScale
 70
0
300
3/4" = 1'-0"
140
0.75
141
12.0
290
0
  0
SCALE
  5
A15
102
{ACAD_REACTORS
330
A08
102
}
330
A08
100
AcDbScale
 70
0
300
1" = 1'-0"
140
1.0
141
12.0
290
0
  0
SCALE
  5
A16
102
{ACAD_REACTORS
330
A08
102
}
330
A08
100
AcDbScale
 70
0
300
1-1/2" = 1'-0"
140
1.5
141
12.0
290
0
  0
SCALE
  5
A17
102
{ACAD_REACTORS
330
A08
102
}
330
A08
100
AcDbScale
 70
0
300
3" = 1'-0"
140
3.0
141
12.0
290
0
  0
SCALE
  5
A18
102
{ACAD_REACTORS
330
A08
102
}
330
A08
100
AcDbScale
 70
0
300
6" = 1'-0"
140
6.0
141
12.0
290
0
  0
SCALE
  5
A19
102
{ACAD_REACTORS
330
A08
102
}
330
A08
100
AcDbScale
 70
0
300
1'-0" = 1'-0"
140
12.0
141
12.0
290
0
  0
ACDBSECTIONVIEWSTYLE
  5
A2E
102
{ACAD_XDICTIONARY
360
A95
102
}
102
{ACAD_REACTORS
330
A2D
102
}
330
A2D
100
AcDbModelDocViewStyle
 70
0
  3
Imperial24
290
0
100
AcDbSectionViewStyle
 70
0
 71
0
 90
78
 71
1
340
A1B
 40
0.24
340
0
340
0
 40
0.24
300
I, O, Q, S, X, Z
 40
0.48
 90
3
 40
0.18
 90
1
 71
2
340
A22
 90
25
340
A22
 90
50
 40
0.24
 40
0.0
 40
0.24
 71
3
340
A1B
 40
0.24
 90
1
 40
0.75
 90
1
300
%<\AcVar ViewType \f "%tc1">% %<\AcVar ViewSectionStartId>%-%<\AcVar ViewSectionEndId>%\PSCALE %<\AcVar ViewScale \f "%sn">%
 71
4
300
ANSI31
 40
1.0
 90
0
290
0
290
0
 90
6
 40
0.0
 40
1.570796326794896
 40
0.2617993877991494
 40
1.308996938995747
 40
-0.2617993877991494
 40
1.832595714594046
  0
TABLESTYLE
  5
A2A
102
{ACAD_XDICTIONARY
360
A5A
102
}
102
{ACAD_REACTORS
330
A29
102
}
330
A29
100
AcDbTableStyle
  3
Standard
 70
0
 71
0
 40
0.06
 41
0.06
280
0
281
0
  7
STANDARD
140
0.18
170
2
 62
0
 63
7
283
0
274
-2
284
1
 64
0
275
-2
285
1
 65
0
276
-2
286
1
 66
0
277
-2
287
1
 67
0
278
-2
288
1
 68
0
279
-2
289
1
 69
0
  7
STANDARD
140
0.25
170
5
 62
0
 63
7
283
0
274
-2
284
1
 64
0
275
-2
285
1
 65
0
276
-2
286
1
 66
0
277
-2
287
1
 67
0
278
-2
288
1
 68
0
279
-2
289
1
 69
0
  7
STANDARD
140
0.18
170
5
 62
0
 63
7
283
0
274
-2
284
1
 64
0
275
-2
285
1
 65
0
276
-2
286
1
 66
0
277
-2
287
1
 67
0
278
-2
288
1
 68
0
279
-2
289
1
 69
0
  0
VISUALSTYLE
  5
9F5
102
{ACAD_XDICTIONARY
360
A6D
102
}
102
{ACAD_REACTORS
330
9EF
102
}
330
9EF
100
AcDbVisualStyle
  2
2dWireframe
 70
4
 71
0
 72
2
 73
0
 90
0
 40
-0.6
 41
-30.0
 62
5
 63
7
 74
1
 91
4
 64
7
 65
257
 75
1
175
1
 42
1.0
 92
0
 66
257
 43
1.0
 76
1
 77
6
 78
2
 67
7
 79
5
170
0
171
0
290
0
174
0
 93
1
 44
0.0
173
0
291
0
 45
0.0
1001
ACAD
1000
AcDbSavedByObjectVersion
1070
0
  0
VISUALSTYLE
  5
9F4
102
{ACAD_XDICTIONARY
360
A6B
102
}
102
{ACAD_REACTORS
330
9EF
102
}
330
9EF
100
AcDbVisualStyle
  2
Basic
 70
7
 71
1
 72
0
 73
1
 90
0
 40
-0.6
 41
-30.0
 62
5
 63
7
 74
0
 91
4
 64
7
 65
257
 75
1
175
1
 42
1.0
 92
8
 66
7
 43
1.0
 76
1
 77
6
 78
2
 67
7
 79
5
170
0
171
0
290
0
174
0
 93
1
 44
0.0
173
0
291
1
 45
0.0
1001
ACAD
1000
AcDbSavedByObjectVersion
1070
0
  0
VISUALSTYLE
  5
9FB
102
{ACAD_XDICTIONARY
360
A79
102
}
102
{ACAD_REACTORS
330
9EF
102
}
330
9EF
100
AcDbVisualStyle
  2
Brighten
 70
12
 71
2
 72
2
 73
0
 90
0
 40
-0.6
 41
-30.0
 62
5
 63
7
 74
1
 91
4
 64
7
 65
257
 75
1
175
1
 42
1.0
 92
8
 66
7
 43
1.0
 76
1
 77
6
 78
2
 67
7
 79
5
170
0
171
0
290
0
174
0
 93
1
 44
50.0
173
0
291
1
 45
0.0
1001
ACAD
1000
AcDbSavedByObjectVersion
1070
0
  0
VISUALSTYLE
  5
9FF
102
{ACAD_XDICTIONARY
360
A81
102
}
102
{ACAD_REACTORS
330
9EF
102
}
330
9EF
100
AcDbVisualStyle
  2
ColorChange
 70
16
 71
2
 72
2
 73
3
 90
0
 40
-0.6
 41
-30.0
 62
5
 63
8
 74
1
 91
4
 64
7
 65
257
 75
1
175
1
 42
1.0
 92
8
 66
8
 43
1.0
 76
1
 77
6
 78
2
 67
7
 79
5
170
0
171
0
290
0
174
0
 93
1
 44
0.0
173
0
291
1
 45
0.0
1001
ACAD
1000
AcDbSavedByObjectVersion
1070
0
  0
VISUALSTYLE
  5
9F8
102
{ACAD_XDICTIONARY
360
A73
102
}
102
{ACAD_REACTORS
330
9EF
102
}
330
9EF
100
AcDbVisualStyle
  2
Conceptual
 70
9
 71
3
 72
2
 73
0
 90
0
 40
-0.6
 41
-30.0
 62
5
 63
7
 74
2
 91
2
 64
7
 65
257
 75
1
175
1
 42
179.0
 92
8
 66
7
 43
1.0
 76
1
 77
6
 78
2
 67
7
 79
3
170
0
171
0
290
0
174
0
 93
1
 44
0.0
173
0
291
0
 45
0.0
1001
ACAD
1000
AcDbSavedByObjectVersion
1070
0
  0
VISUALSTYLE
  5
9FA
102
{ACAD_XDICTIONARY
360
A77
102
}
102
{ACAD_REACTORS
330
9EF
102
}
330
9EF
100
AcDbVisualStyle
  2
Dim
 70
11
 71
2
 72
2
 73
0
 90
0
 40
-0.6
 41
-30.0
 62
5
 63
7
 74
1
 91
4
 64
7
 65
257
 75
1
175
1
 42
1.0
 92
8
 66
7
 43
1.0
 76
1
 77
6
 78
2
 67
7
 79
5
170
0
171
0
290
0
174
0
 93
1
 44
-50.0
173
0
291
1
 45
0.0
1001
ACAD
1000
AcDbSavedByObjectVersion
1070
0
  0
VISUALSTYLE
  5
A07
102
{ACAD_XDICTIONARY
360
A91
102
}
102
{ACAD_REACTORS
330
9EF
102
}
330
9EF
100
AcDbVisualStyle
  2
EdgeColorOff
 70
22
 71
2
 72
2
 73
0
 90
0
 40
-0.6
 41
-30.0
 62
5
 63
7
 74
1
 91
4
 64
7
 65
257
 75
1
175
1
 42
1.0
 92
8
 66
7
 43
1.0
 76
1
 77
6
 78
2
 67
7
 79
5
170
0
171
0
290
0
174
0
 93
1
 44
0.0
173
0
291
1
 45
0.0
1001
ACAD
1000
AcDbSavedByObjectVersion
1070
0
  0
VISUALSTYLE
  5
9FE
102
{ACAD_XDICTIONARY
360
A7F
102
}
102
{ACAD_REACTORS
330
9EF
102
}
330
9EF
100
AcDbVisualStyle
  2
Facepattern
 70
15
 71
2
 72
2
 73
0
 90
0
 40
-0.6
 41
-30.0
 62
5
 63
7
 74
1
 91
4
 64
7
 65
257
 75
1
175
1
 42
1.0
 92
8
 66
7
 43
1.0
 76
1
 77
6
 78
2
 67
7
 79
5
170
0
171
0
290
0
174
0
 93
1
 44
0.0
173
0
291
1
 45
0.0
1001
ACAD
1000
AcDbSavedByObjectVersion
1070
0
  0
VISUALSTYLE
  5
9F0
102
{ACAD_XDICTIONARY
360
A63
102
}
102
{ACAD_REACTORS
330
9EF
102
}
330
9EF
100
AcDbVisualStyle
  2
Flat
 70
0
 71
2
 72
1
 73
1
 90
2
 40
-0.6
 41
30.0
 62
5
 63
7
 74
0
 91
0
 64
7
 65
257
 75
1
175
1
 42
1.0
 92
8
 66
7
 43
1.0
 76
1
 77
6
 78
2
 67
7
 79
5
170
0
171
0
290
0
174
0
 93
13
 44
0.0
173
0
291
1
 45
0.0
1001
ACAD
1000
AcDbSavedByObjectVersion
1070
0
  0
VISUALSTYLE
  5
9F1
102
{ACAD_XDICTIONARY
360
A65
102
}
102
{ACAD_REACTORS
330
9EF
102
}
330
9EF
100
AcDbVisualStyle
  2
FlatWithEdges
 70
1
 71
2
 72
1
 73
1
 90
2
 40
-0.6
 41
30.0
 62
5
 63
7
 74
1
 91
0
 64
7
 65
257
 75
1
175
1
 42
1.0
 92
0
 66
257
 43
1.0
 76
1
 77
6
 78
2
 67
7
 79
5
170
0
171
0
290
0
174
0
 93
13
 44
0.0
173
0
291
1
 45
0.0
1001
ACAD
1000
AcDbSavedByObjectVersion
1070
0
  0
VISUALSTYLE
  5
9F2
102
{ACAD_XDICTIONARY
360
A67
102
}
102
{ACAD_REACTORS
330
9EF
102
}
330
9EF
100
AcDbVisualStyle
  2
Gouraud
 70
2
 71
2
 72
2
 73
1
 90
2
 40
-0.6
 41
30.0
 62
5
 63
7
 74
0
 91
0
 64
7
 65
257
 75
1
175
1
 42
1.0
 92
0
 66
7
 43
1.0
 76
1
 77
6
 78
2
 67
7
 79
5
170
0
171
0
290
0
174
0
 93
13
 44
0.0
173
0
291
1
 45
0.0
1001
ACAD
1000
AcDbSavedByObjectVersion
1070
0
  0
VISUALSTYLE
  5
9F3
102
{ACAD_XDICTIONARY
360
A69
102
}
102
{ACAD_REACTORS
330
9EF
102
}
330
9EF
100
AcDbVisualStyle
  2
GouraudWithEdges
 70
3
 71
2
 72
2
 73
1
 90
2
 40
-0.6
 41
30.0
 62
5
 63
7
 74
1
 91
0
 64
7
 65
257
 75
1
175
1
 42
1.0
 92
0
 66
257
 43
1.0
 76
1
 77
6
 78
2
 67
7
 79
5
170
0
171
0
290
0
174
0
 93
13
 44
0.0
173
0
291
1
 45
0.0
1001
ACAD
1000
AcDbSavedByObjectVersion
1070
0
  0
VISUALSTYLE
  5
9F7
102
{ACAD_XDICTIONARY
360
A71
102
}
102
{ACAD_REACTORS
330
9EF
102
}
330
9EF
100
AcDbVisualStyle
  2
Hidden
 70
6
 71
1
 72
2
 73
2
 90
0
 40
-0.6
 41
-30.0
 62
5
 63
7
 74
2
 91
2
 64
7
 65
257
 75
2
175
1
 42
40.0
 92
0
 66
257
 43
1.0
 76
1
 77
6
 78
2
 67
7
 79
3
170
0
171
0
290
0
174
0
 93
1
 44
0.0
173
0
291
0
 45
0.0
1001
ACAD
1000
AcDbSavedByObjectVersion
1070
0
  0
VISUALSTYLE
  5
A05
102
{ACAD_XDICTIONARY
360
A8D
102
}
102
{ACAD_REACTORS
330
9EF
102
}
330
9EF
100
AcDbVisualStyle
  2
JitterOff
 70
20
 71
2
 72
2
 73
0
 90
0
 40
-0.6
 41
-30.0
 62
5
 63
7
 74
1
 91
4
 64
7
 65
257
 75
1
175
1
 42
1.0
 92
10
 66
7
 43
1.0
 76
1
 77
6
 78
2
 67
7
 79
5
170
0
171
0
290
0
174
0
 93
1
 44
0.0
173
0
291
1
 45
0.0
1001
ACAD
1000
AcDbSavedByObjectVersion
1070
0
  0
VISUALSTYLE
  5
9FD
102
{ACAD_XDICTIONARY
360
A7D
102
}
102
{ACAD_REACTORS
330
9EF
102
}
330
9EF
100
AcDbVisualStyle
  2
Linepattern
 70
14
 71
2
 72
2
 73
0
 90
0
 40
-0.6
 41
-30.0
 62
5
 63
7
 74
1
 91
4
 64
7
 65
257
 75
7
175
7
 42
1.0
 92
8
 66
7
 43
1.0
 76
1
 77
6
 78
2
 67
7
 79
5
170
0
171
0
290
0
174
0
 93
1
 44
0.0
173
0
291
1
 45
0.0
1001
ACAD
1000
AcDbSavedByObjectVersion
1070
0
  0
VISUALSTYLE
  5
A06
102
{ACAD_XDICTIONARY
360
A8F
102
}
102
{ACAD_REACTORS
330
9EF
102
}
330
9EF
100
AcDbVisualStyle
  2
OverhangOff
 70
21
 71
2
 72
2
 73
0
 90
0
 40
-0.6
 41
-30.0
 62
5
 63
7
 74
1
 91
4
 64
7
 65
257
 75
1
175
1
 42
1.0
 92
9
 66
7
 43
1.0
 76
1
 77
6
 78
2
 67
7
 79
5
170
0
171
0
290
0
174
0
 93
1
 44
0.0
173
0
291
1
 45
0.0
1001
ACAD
1000
AcDbSavedByObjectVersion
1070
0
  0
VISUALSTYLE
  5
9F9
102
{ACAD_XDICTIONARY
360
A75
102
}
102
{ACAD_REACTORS
330
9EF
102
}
330
9EF
100
AcDbVisualStyle
  2
Realistic
 70
8
 71
2
 72
3
 73
0
 90
2
 40
-0.6
 41
30.0
 62
5
 63
7
 74
0
 91
0
 64
7
 65
257
 75
1
175
1
 42
1.0
 92
8
 66
257
 43
1.0
 76
1
 77
6
 78
2
 67
7
 79
3
170
0
171
0
290
0
174
0
 93
13
 44
0.0
173
0
291
0
 45
0.0
1001
ACAD
1000
AcDbSavedByObjectVersion
1070
0
  0
VISUALSTYLE
  5
A04
102
{ACAD_XDICTIONARY
360
A8B
102
}
102
{ACAD_REACTORS
330
9EF
102
}
330
9EF
100
AcDbVisualStyle
  2
Shaded
 70
27
 71
2
 72
2
 73
1
 90
2
 40
-0.6
 41
30.0
 62
5
 63
7
 74
0
 91
4
 64
7
 65
257
 75
1
175
1
 42
1.0
 92
8
 66
257
 43
1.0
 76
1
 77
6
 78
2
 67
8
 79
3
170
0
171
0
290
0
174
0
 93
5
 44
0.0
173
0
291
0
 45
0.0
1001
ACAD
1000
AcDbSavedByObjectVersion
1070
0
  0
VISUALSTYLE
  5
A03
102
{ACAD_XDICTIONARY
360
A89
102
}
102
{ACAD_REACTORS
330
9EF
102
}
330
9EF
100
AcDbVisualStyle
  2
Shaded with edges
 70
26
 71
2
 72
2
 73
1
 90
2
 40
-0.6
 41
30.0
 62
5
 63
7
 74
1
 91
2
 64
7
 65
257
 75
2
175
1
 42
1.0
 92
8
 66
257
 43
1.0
 76
1
 77
6
 78
2
 67
7
 79
3
170
0
171
0
290
0
174
0
 93
5
 44
0.0
173
0
291
0
 45
0.0
1001
ACAD
1000
AcDbSavedByObjectVersion
1070
0
  0
VISUALSTYLE
  5
A00
102
{ACAD_XDICTIONARY
360
A83
102
}
102
{ACAD_REACTORS
330
9EF
102
}
330
9EF
100
AcDbVisualStyle
  2
Shades of Gray
 70
23
 71
2
 72
2
 73
3
 90
0
 40
-0.6
 41
-30.0
 62
5
 63
7
 74
2
 91
2
 64
7
 65
7
 75
1
175
1
 42
40.0
 92
8
 66
7
 43
1.0
 76
1
 77
6
 78
2
 67
7
 79
3
170
0
171
0
290
0
174
0
 93
1
 44
0.0
173
0
291
0
 45
0.0
1001
ACAD
1000
AcDbSavedByObjectVersion
1070
0
  0
VISUALSTYLE
  5
A01
102
{ACAD_XDICTIONARY
360
A85
102
}
102
{ACAD_REACTORS
330
9EF
102
}
330
9EF
100
AcDbVisualStyle
  2
Sketchy
 70
24
 71
1
 72
2
 73
2
 90
0
 40
-0.6
 41
-30.0
 62
5
 63
7
 74
2
 91
2
 64
7
 65
7
 75
1
175
1
 42
40.0
 92
11
 66
7
 43
1.0
 76
1
 77
6
 78
2
 67
7
 79
6
170
0
171
0
290
0
174
0
 93
1
 44
0.0
173
0
291
0
 45
0.0
1001
ACAD
1000
AcDbSavedByObjectVersion
1070
0
  0
VISUALSTYLE
  5
9FC
102
{ACAD_XDICTIONARY
360
A7B
102
}
102
{ACAD_REACTORS
330
9EF
102
}
330
9EF
100
AcDbVisualStyle
  2
Thicken
 70
13
 71
2
 72
2
 73
0
 90
0
 40
-0.6
 41
-30.0
 62
5
 63
7
 74
1
 91
4
 64
7
 65
257
 75
1
175
1
 42
1.0
 92
12
 66
7
 43
1.0
 76
1
 77
6
 78
2
 67
7
 79
5
170
0
171
0
290
0
174
0
 93
1
 44
0.0
173
0
291
1
 45
0.0
1001
ACAD
1000
AcDbSavedByObjectVersion
1070
0
  0
VISUALSTYLE
  5
9F6
102
{ACAD_XDICTIONARY
360
A6F
102
}
102
{ACAD_REACTORS
330
9EF
102
}
330
9EF
100
AcDbVisualStyle
  2
Wireframe
 70
5
 71
0
 72
2
 73
0
 90
0
 40
-0.6
 41
-30.0
 62
5
 63
7
 74
1
 91
4
 64
7
 65
257
 75
1
175
1
 42
1.0
 92
0
 66
257
 43
1.0
 76
1
 77
6
 78
2
 67
7
 79
3
170
0
171
0
290
0
174
0
 93
1
 44
0.0
173
0
291
0
 45
0.0
1001
ACAD
1000
AcDbSavedByObjectVersion
1070
0
  0
VISUALSTYLE
  5
A02
102
{ACAD_XDICTIONARY
360
A87
102
}
102
{ACAD_REACTORS
330
9EF
102
}
330
9EF
100
AcDbVisualStyle
  2
X-Ray
 70
25
 71
2
 72
2
 73
1
 90
1
 40
0.5
 41
-30.0
 62
5
 63
7
 74
1
 91
0
 64
7
 65
257
 75
1
175
1
 42
1.0
 92
8
 66
7
 43
1.0
 76
1
 77
6
 78
2
 67
7
 79
3
170
0
171
0
290
0
174
0
 93
13
 44
0.0
173
0
291
0
 45
0.0
1001
ACAD
1000
AcDbSavedByObjectVersion
1070
0
  0
DICTIONARYVAR
  5
A54
102
{ACAD_REACTORS
330
A4F
102
}
330
A4F
100
DictionaryVariables
280
0
  1
1:1
  0
DICTIONARYVAR
  5
A51
102
{ACAD_REACTORS
330
A4F
102
}
330
A4F
100
DictionaryVariables
280
0
  1
STANDARD
  0
DICTIONARYVAR
  5
A50
102
{ACAD_REACTORS
330
A4F
102
}
330
A4F
100
DictionaryVariables
280
0
  1
STANDARD
  0
DICTIONARYVAR
  5
A52
102
{ACAD_REACTORS
330
A4F
102
}
330
A4F
100
DictionaryVariables
280
0
  1
Imperial24
  0
DICTIONARYVAR
  5
A53
102
{ACAD_REACTORS
330
A4F
102
}
330
A4F
100
DictionaryVariables
280
0
  1
Imperial24
  0
DICTIONARYVAR
  5
A57
102
{ACAD_REACTORS
330
A4F
102
}
330
A4F
100
DictionaryVariables
280
0
  1
1
  0
DICTIONARYVAR
  5
A56
102
{ACAD_REACTORS
330
A4F
102
}
330
A4F
100
DictionaryVariables
280
0
  1
0
  0
DICTIONARYVAR
  5
A55
102
{ACAD_REACTORS
330
A4F
102
}
330
A4F
100
DictionaryVariables
280
0
  1
127
  0
DICTIONARYVAR
  5
A58
102
{ACAD_REACTORS
330
A4F
102
}
330
A4F
100
DictionaryVariables
280
0
  1
2
  0
DICTIONARY
  5
A97
330
A30
100
AcDbDictionary
280
1
281
1
  3
ACAD_XREC_ROUNDTRIP
360
A98
  0
DICTIONARY
  5
A9B
330
A38
100
AcDbDictionary
280
1
281
1
  3
ACAD_XREC_ROUNDTRIP
360
A9C
  0
DICTIONARY
  5
A99
330
A34
100
AcDbDictionary
280
1
281
1
  3
ACAD_XREC_ROUNDTRIP
360
A9A
  0
DICTIONARY
  5
9E0
330
9DF
100
AcDbDictionary
280
1
281
1
  3
ACAD_XREC_ROUNDTRIP
360
A61
  3
BUMPTILE
360
9E2
  3
DIFFUSETILE
360
9E1
  3
OPACITYTILE
360
9E5
  3
REFLECTIONTILE
360
9E4
  3
REFRACTIONTILE
360
9E6
  3
SPECULARTILE
360
9E3
  0
DICTIONARY
  5
9D8
330
9D7
100
AcDbDictionary
280
1
281
1
  3
ACAD_XREC_ROUNDTRIP
360
A60
  3
BUMPTILE
360
9DA
  3
DIFFUSETILE
360
9D9
  3
OPACITYTILE
360
9DD
  3
REFLECTIONTILE
360
9DC
  3
REFRACTIONTILE
360
9DE
  3
SPECULARTILE
360
9DB
  0
DICTIONARY
  5
9E8
330
9E7
100
AcDbDictionary
280
1
281
1
  3
ACAD_XREC_ROUNDTRIP
360
A62
  3
BUMPTILE
360
9EA
  3
DIFFUSETILE
360
9E9
  3
OPACITYTILE
360
9ED
  3
REFLECTIONTILE
360
9EC
  3
REFRACTIONTILE
360
9EE
  3
SPECULARTILE
360
9EB
  0
DICTIONARY
  5
A95
330
A2E
100
AcDbDictionary
280
1
281
1
  3
ACAD_XREC_ROUNDTRIP
360
A96
  0
DICTIONARY
  5
A5A
330
A2A
100
AcDbDictionary
280
1
281
1
  3
ACAD_ROUNDTRIP_2008_TABLESTYLE_CELLSTYLEMAP
360
A5B
  3
ACAD_XREC_ROUNDTRIP
360
A93
  0
DICTIONARY
  5
A6D
330
9F5
100
AcDbDictionary
280
1
281
1
  3
ACAD_XREC_ROUNDTRIP
360
A6E
  0
DICTIONARY
  5
A6B
330
9F4
100
AcDbDictionary
280
1
281
1
  3
ACAD_XREC_ROUNDTRIP
360
A6C
  0
DICTIONARY
  5
A79
330
9FB
100
AcDbDictionary
280
1
281
1
  3
ACAD_XREC_ROUNDTRIP
360
A7A
  0
DICTIONARY
  5
A81
330
9FF
100
AcDbDictionary
280
1
281
1
  3
ACAD_XREC_ROUNDTRIP
360
A82
  0
DICTIONARY
  5
A73
330
9F8
100
AcDbDictionary
280
1
281
1
  3
ACAD_XREC_ROUNDTRIP
360
A74
  0
DICTIONARY
  5
A77
330
9FA
100
AcDbDictionary
280
1
281
1
  3
ACAD_XREC_ROUNDTRIP
360
A78
  0
DICTIONARY
  5
A91
330
A07
100
AcDbDictionary
280
1
281
1
  3
ACAD_XREC_ROUNDTRIP
360
A92
  0
DICTIONARY
  5
A7F
330
9FE
100
AcDbDictionary
280
1
281
1
  3
ACAD_XREC_ROUNDTRIP
360
A80
  0
DICTIONARY
  5
A63
330
9F0
100
AcDbDictionary
280
1
281
1
  3
ACAD_XREC_ROUNDTRIP
360
A64
  0
DICTIONARY
  5
A65
330
9F1
100
AcDbDictionary
280
1
281
1
  3
ACAD_XREC_ROUNDTRIP
360
A66
  0
DICTIONARY
  5
A67
330
9F2
100
AcDbDictionary
280
1
281
1
  3
ACAD_XREC_ROUNDTRIP
360
A68
  0
DICTIONARY
  5
A69
330
9F3
100
AcDbDictionary
280
1
281
1
  3
ACAD_XREC_ROUNDTRIP
360
A6A
  0
DICTIONARY
  5
A71
330
9F7
100
AcDbDictionary
280
1
281
1
  3
ACAD_XREC_ROUNDTRIP
360
A72
  0
DICTIONARY
  5
A8D
330
A05
100
AcDbDictionary
280
1
281
1
  3
ACAD_XREC_ROUNDTRIP
360
A8E
  0
DICTIONARY
  5
A7D
330
9FD
100
AcDbDictionary
280
1
281
1
  3
ACAD_XREC_ROUNDTRIP
360
A7E
  0
DICTIONARY
  5
A8F
330
A06
100
AcDbDictionary
280
1
281
1
  3
ACAD_XREC_ROUNDTRIP
360
A90
  0
DICTIONARY
  5
A75
330
9F9
100
AcDbDictionary
280
1
281
1
  3
ACAD_XREC_ROUNDTRIP
360
A76
  0
DICTIONARY
  5
A8B
330
A04
100
AcDbDictionary
280
1
281
1
  3
ACAD_XREC_ROUNDTRIP
360
A8C
  0
DICTIONARY
  5
A89
330
A03
100
AcDbDictionary
280
1
281
1
  3
ACAD_XREC_ROUNDTRIP
360
A8A
  0
DICTIONARY
  5
A83
330
A00
100
AcDbDictionary
280
1
281
1
  3
ACAD_XREC_ROUNDTRIP
360
A84
  0
DICTIONARY
  5
A85
330
A01
100
AcDbDictionary
280
1
281
1
  3
ACAD_XREC_ROUNDTRIP
360
A86
  0
DICTIONARY
  5
A7B
330
9FC
100
AcDbDictionary
280
1
281
1
  3
ACAD_XREC_ROUNDTRIP
360
A7C
  0
DICTIONARY
  5
A6F
330
9F6
100
AcDbDictionary
280
1
281
1
  3
ACAD_XREC_ROUNDTRIP
360
A70
  0
DICTIONARY
  5
A87
330
A02
100
AcDbDictionary
280
1
281
1
  3
ACAD_XREC_ROUNDTRIP
360
A88
  0
XRECORD
  5
A98
102
{ACAD_REACTORS
330
A97
102
}
330
A97
100
AcDbXrecord
280
1
102
DISPLAYNAME
  1
Imperial24
102
FLAGS
 90
0
  0
XRECORD
  5
A9C
102
{ACAD_REACTORS
330
A9B
102
}
330
A9B
100
AcDbXrecord
280
1
102
SHADEPLOT
 70
0
102
SHADEPLOTRESLEVEL
 70
2
102
SHADEPLOTCUSTOMDPI
 70
300
  0
XRECORD
  5
A9A
102
{ACAD_REACTORS
330
A99
102
}
330
A99
100
AcDbXrecord
280
1
102
SHADEPLOT
 70
0
102
SHADEPLOTRESLEVEL
 70
2
102
SHADEPLOTCUSTOMDPI
 70
300
  0
XRECORD
  5
A61
102
{ACAD_REACTORS
330
9E0
102
}
330
9E0
100
AcDbXrecord
280
1
102
MATERIAL
148
0.0
149
0.0
149
0.0
 93
0
 94
127
282
0
 72
0
 77
0
171
0
175
0
179
0
273
0
  0
XRECORD
  5
9E2
102
{ACAD_REACTORS
330
9E0
102
}
330
9E0
100
AcDbXrecord
280
1
270
1
271
1
  0
XRECORD
  5
9E1
102
{ACAD_REACTORS
330
9E0
102
}
330
9E0
100
AcDbXrecord
280
1
270
1
271
1
  0
XRECORD
  5
9E5
102
{ACAD_REACTORS
330
9E0
102
}
330
9E0
100
AcDbXrecord
280
1
270
1
271
1
  0
XRECORD
  5
9E4
102
{ACAD_REACTORS
330
9E0
102
}
330
9E0
100
AcDbXrecord
280
1
270
1
271
1
  0
XRECORD
  5
9E6
102
{ACAD_REACTORS
330
9E0
102
}
330
9E0
100
AcDbXrecord
280
1
270
1
271
1
  0
XRECORD
  5
9E3
102
{ACAD_REACTORS
330
9E0
102
}
330
9E0
100
AcDbXrecord
280
1
270
1
271
1
  0
XRECORD
  5
A60
102
{ACAD_REACTORS
330
9D8
102
}
330
9D8
100
AcDbXrecord
280
1
102
MATERIAL
148
0.0
149
0.0
149
0.0
 93
0
 94
127
282
0
 72
0
 77
0
171
0
175
0
179
0
273
0
  0
XRECORD
  5
9DA
102
{ACAD_REACTORS
330
9D8
102
}
330
9D8
100
AcDbXrecord
280
1
270
1
271
1
  0
XRECORD
  5
9D9
102
{ACAD_REACTORS
330
9D8
102
}
330
9D8
100
AcDbXrecord
280
1
270
1
271
1
  0
XRECORD
  5
9DD
102
{ACAD_REACTORS
330
9D8
102
}
330
9D8
100
AcDbXrecord
280
1
270
1
271
1
  0
XRECORD
  5
9DC
102
{ACAD_REACTORS
330
9D8
102
}
330
9D8
100
AcDbXrecord
280
1
270
1
271
1
  0
XRECORD
  5
9DE
102
{ACAD_REACTORS
330
9D8
102
}
330
9D8
100
AcDbXrecord
280
1
270
1
271
1
  0
XRECORD
  5
9DB
102
{ACAD_REACTORS
330
9D8
102
}
330
9D8
100
AcDbXrecord
280
1
270
1
271
1
  0
XRECORD
  5
A62
102
{ACAD_REACTORS
330
9E8
102
}
330
9E8
100
AcDbXrecord
280
1
102
MATERIAL
148
0.0
149
0.0
149
0.0
 93
0
 94
127
282
0
 72
0
 77
0
171
0
175
0
179
0
273
0
  0
XRECORD
  5
9EA
102
{ACAD_REACTORS
330
9E8
102
}
330
9E8
100
AcDbXrecord
280
1
270
1
271
1
  0
XRECORD
  5
9E9
102
{ACAD_REACTORS
330
9E8
102
}
330
9E8
100
AcDbXrecord
280
1
270
1
271
1
  0
XRECORD
  5
9ED
102
{ACAD_REACTORS
330
9E8
102
}
330
9E8
100
AcDbXrecord
280
1
270
1
271
1
  0
XRECORD
  5
9EC
102
{ACAD_REACTORS
330
9E8
102
}
330
9E8
100
AcDbXrecord
280
1
270
1
271
1
  0
XRECORD
  5
9EE
102
{ACAD_REACTORS
330
9E8
102
}
330
9E8
100
AcDbXrecord
280
1
270
1
271
1
  0
XRECORD
  5
9EB
102
{ACAD_REACTORS
330
9E8
102
}
330
9E8
100
AcDbXrecord
280
1
270
1
271
1
  0
XRECORD
  5
A96
102
{ACAD_REACTORS
330
A95
102
}
330
A95
100
AcDbXrecord
280
1
102
DISPLAYNAME
  1
Imperial24
102
FLAGS
 90
0
  0
CELLSTYLEMAP
  5
A5B
102
{ACAD_REACTORS
330
A5A
102
}
330
A5A
100
AcDbCellStyleMap
 90
3
300
CELLSTYLE
  1
TABLEFORMAT_BEGIN
 90
5
170
1
 91
0
 92
32768
 62
257
 93
1
300
CONTENTFORMAT
  1
CONTENTFORMAT_BEGIN
 90
0
 91
0
 92
512
 93
0
300

 40
0.0
140
1.0
 94
5
 62
0
340
A1B
144
0.25
309
CONTENTFORMAT_END
171
0
 94
0
309
TABLEFORMAT_END
  1
CELLSTYLE_BEGIN
 90
1
 91
1
300
_TITLE
309
CELLSTYLE_END
300
CELLSTYLE
  1
TABLEFORMAT_BEGIN
 90
5
170
1
 91
0
 92
0
 62
257
 93
1
300
CONTENTFORMAT
  1
CONTENTFORMAT_BEGIN
 90
0
 91
0
 92
512
 93
0
300

 40
0.0
140
1.0
 94
5
 62
0
340
A1B
144
0.18
309
CONTENTFORMAT_END
171
0
 94
0
309
TABLEFORMAT_END
  1
CELLSTYLE_BEGIN
 90
2
 91
1
300
_HEADER
309
CELLSTYLE_END
300
CELLSTYLE
  1
TABLEFORMAT_BEGIN
 90
5
170
1
 91
0
 92
0
 62
257
 93
1
300
CONTENTFORMAT
  1
CONTENTFORMAT_BEGIN
 90
0
 91
0
 92
512
 93
0
300

 40
0.0
140
1.0
 94
2
 62
0
340
A1B
144
0.18
309
CONTENTFORMAT_END
171
0
 94
0
309
TABLEFORMAT_END
  1
CELLSTYLE_BEGIN
 90
3
 91
2
300
_DATA
309
CELLSTYLE_END
  0
XRECORD
  5
A93
102
{ACAD_REACTORS
330
A5A
102
}
330
A5A
100
AcDbXrecord
280
1
102
ACAD_ROUNDTRIP_PRE2007_TABLESTYLE
 90
512
 91
0
  1

 92
512
 93
0
  2

 94
512
 95
0
  3

  0
XRECORD
  5
A6E
102
{ACAD_REACTORS
330
A6D
102
}
330
A6D
100
AcDbXrecord
280
1
102
RTVSPost2010Prop28
280
1
102
RTVSPost2010PropOp28
 70
1
102
RTVSPost2010Prop29
280
1
102
RTVSPost2010PropOp29
 70
1
102
RTVSPost2010Prop30
280
0
102
RTVSPost2010PropOp30
 70
1
102
RTVSPost2010Prop31
280
0
102
RTVSPost2010PropOp31
 70
1
102
RTVSPost2010Prop32
280
0
102
RTVSPost2010PropOp32
 70
1
102
RTVSPost2010Prop33
280
0
102
RTVSPost2010PropOp33
 70
1
102
RTVSPost2010Prop34
280
0
102
RTVSPost2010PropOp34
 70
1
102
RTVSPost2010Prop35
280
0
102
RTVSPost2010PropOp35
 70
1
102
RTVSPost2010Prop36
280
0
102
RTVSPost2010PropOp36
 70
1
102
RTVSPost2010Prop37
 90
50
102
RTVSPost2010PropOp37
 70
1
102
RTVSPost2010Prop38
140
0.0
102
RTVSPost2010PropOp38
 70
1
102
RTVSPost2010Prop39
140
1.0
102
RTVSPost2010PropOp39
 70
1
102
RTVSPost2010Prop40
 90
0
102
RTVSPost2010PropOp40
 70
1
102
RTVSPost2010Prop41ColorIndex
 90
18
102
RTVSPost2010Prop41ColorRGB
 90
0
102
RTVSPost2010PropOp41
 70
1
102
RTVSPost2010Prop42
 90
50
102
RTVSPost2010PropOp42
 70
1
102
RTVSPost2010Prop43
 90
3
102
RTVSPost2010PropOp43
 70
1
102
RTVSPost2010Prop44ColorIndex
 90
5
102
RTVSPost2010Prop44ColorRGB
 90
255
102
RTVSPost2010PropOp44
 70
1
102
RTVSPost2010Prop45
280
0
102
RTVSPost2010PropOp45
 70
1
102
RTVSPost2010Prop46
 90
50
102
RTVSPost2010PropOp46
 70
1
102
RTVSPost2010Prop47
 90
50
102
RTVSPost2010PropOp47
 70
1
102
RTVSPost2010Prop48
 90
50
102
RTVSPost2010PropOp48
 70
1
102
RTVSPost2010Prop49
280
0
102
RTVSPost2010PropOp49
 70
1
102
RTVSPost2010Prop50
 90
50
102
RTVSPost2010PropOp50
 70
1
102
RTVSPost2010Prop51ColorIndex
 90
256
102
RTVSPost2010Prop51ColorRGB
 90
-16777216
102
RTVSPost2010PropOp51
 70
0
102
RTVSPost2010Prop52
140
1.0
102
RTVSPost2010PropOp52
 70
0
102
RTVSPost2010Prop53
 90
2
102
RTVSPost2010PropOp53
 70
1
102
RTVSPost2010Prop54
  1
strokes_ogs.tif
102
RTVSPost2010PropOp54
 70
1
102
RTVSPost2010Prop55
280
0
102
RTVSPost2010PropOp55
 70
1
102
RTVSPost2010Prop56
140
1.0
102
RTVSPost2010PropOp56
 70
1
102
RTVSPost2010Prop57
140
1.0
102
RTVSPost2010PropOp57
 70
1
102
RTVSPropertyOp0
 70
1
102
RTVSPropertyOp1
 70
1
102
RTVSPropertyOp2
 70
1
102
RTVSPropertyOp3
 70
1
102
RTVSPropertyOp4
 70
1
102
RTVSPropertyOp5
 70
1
102
RTVSPropertyOp6
 70
1
102
RTVSPropertyOp7
 70
1
102
RTVSPropertyOp8
 70
1
102
RTVSPropertyOp9
 70
1
102
RTVSPropertyOp10
 70
1
102
RTVSPropertyOp11
 70
1
102
RTVSPropertyOp12
 70
1
102
RTVSPropertyOp13
 70
1
102
RTVSPropertyOp14
 70
1
102
RTVSPropertyOp15
 70
1
102
RTVSPropertyOp16
 70
1
102
RTVSPropertyOp17
 70
1
102
RTVSPropertyOp18
 70
1
102
RTVSPropertyOp19
 70
1
102
RTVSPropertyOp20
 70
1
102
RTVSPropertyOp21
 70
1
102
RTVSPropertyOp22
 70
1
102
RTVSPropertyOp23
 70
1
102
RTVSPropertyOp24
 70
1
102
RTVSPropertyOp25
 70
1
102
RTVSPropertyOp26
 70
1
102
RTVSPropertyOp27
 70
1
102
RTVSPropertyOp28
 70
1
102
RTVSPropertyOp29
 70
1
102
RTVSPropertyOp30
 70
1
102
RTVSPropertyOp31
 70
1
102
RTVSPropertyOp32
 70
1
102
RTVSPropertyOp33
 70
1
102
RTVSPropertyOp34
 70
1
102
RTVSPropertyOp35
 70
1
102
RTVSPropertyOp36
 70
1
102
RTVSPropertyOp37
 70
1
102
RTVSPropertyOp38
 70
1
102
RTVSPropertyOp39
 70
1
102
RTVSPropertyOp40
 70
1
102
RTVSPropertyOp41
 70
1
102
RTVSPropertyOp42
 70
1
102
RTVSPropertyOp43
 70
1
102
RTVSPropertyOp44
 70
1
102
RTVSPropertyOp45
 70
1
102
RTVSPropertyOp46
 70
1
102
RTVSPropertyOp47
 70
1
102
RTVSPropertyOp48
 70
1
102
RTVSPropertyOp49
 70
1
102
RTVSPropertyOp50
 70
1
102
RTVSPropertyOp51
 70
0
102
RTVSPropertyOp52
 70
0
102
RTVSPropertyOp53
 70
1
102
RTVSPropertyOp54
 70
1
102
RTVSPropertyOp55
 70
1
102
RTVSPropertyOp56
 70
1
102
RTVSPropertyOp57
 70
1
102
RTVSPropertyOp58
 70
1
102
RTVSPropertyOp59
 70
1
102
RTVSPropertyOp60
 70
1
102
RTVSPropertyOp61
 70
1
102
RTVSPropertyOp62
 70
1
  0
XRECORD
  5
A6C
102
{ACAD_REACTORS
330
A6B
102
}
330
A6B
100
AcDbXrecord
280
1
102
RTVSPost2010Prop28
280
0
102
RTVSPost2010PropOp28
 70
1
102
RTVSPost2010Prop29
280
1
102
RTVSPost2010PropOp29
 70
1
102
RTVSPost2010Prop30
280
1
102
RTVSPost2010PropOp30
 70
1
102
RTVSPost2010Prop31
280
0
102
RTVSPost2010PropOp31
 70
1
102
RTVSPost2010Prop32
280
0
102
RTVSPost2010PropOp32
 70
1
102
RTVSPost2010Prop33
280
0
102
RTVSPost2010PropOp33
 70
1
102
RTVSPost2010Prop34
280
0
102
RTVSPost2010PropOp34
 70
1
102
RTVSPost2010Prop35
280
0
102
RTVSPost2010PropOp35
 70
1
102
RTVSPost2010Prop36
280
0
102
RTVSPost2010PropOp36
 70
1
102
RTVSPost2010Prop37
 90
50
102
RTVSPost2010PropOp37
 70
1
102
RTVSPost2010Prop38
140
0.0
102
RTVSPost2010PropOp38
 70
1
102
RTVSPost2010Prop39
140
1.0
102
RTVSPost2010PropOp39
 70
1
102
RTVSPost2010Prop40
 90
0
102
RTVSPost2010PropOp40
 70
1
102
RTVSPost2010Prop41ColorIndex
 90
18
102
RTVSPost2010Prop41ColorRGB
 90
0
102
RTVSPost2010PropOp41
 70
1
102
RTVSPost2010Prop42
 90
50
102
RTVSPost2010PropOp42
 70
1
102
RTVSPost2010Prop43
 90
3
102
RTVSPost2010PropOp43
 70
1
102
RTVSPost2010Prop44ColorIndex
 90
5
102
RTVSPost2010Prop44ColorRGB
 90
255
102
RTVSPost2010PropOp44
 70
1
102
RTVSPost2010Prop45
280
0
102
RTVSPost2010PropOp45
 70
1
102
RTVSPost2010Prop46
 90
50
102
RTVSPost2010PropOp46
 70
1
102
RTVSPost2010Prop47
 90
50
102
RTVSPost2010PropOp47
 70
1
102
RTVSPost2010Prop48
 90
50
102
RTVSPost2010PropOp48
 70
1
102
RTVSPost2010Prop49
280
0
102
RTVSPost2010PropOp49
 70
1
102
RTVSPost2010Prop50
 90
50
102
RTVSPost2010PropOp50
 70
1
102
RTVSPost2010Prop51ColorIndex
 90
256
102
RTVSPost2010Prop51ColorRGB
 90
-16777216
102
RTVSPost2010PropOp51
 70
0
102
RTVSPost2010Prop52
140
1.0
102
RTVSPost2010PropOp52
 70
0
102
RTVSPost2010Prop53
 90
2
102
RTVSPost2010PropOp53
 70
1
102
RTVSPost2010Prop54
  1
strokes_ogs.tif
102
RTVSPost2010PropOp54
 70
1
102
RTVSPost2010Prop55
280
0
102
RTVSPost2010PropOp55
 70
1
102
RTVSPost2010Prop56
140
1.0
102
RTVSPost2010PropOp56
 70
1
102
RTVSPost2010Prop57
140
1.0
102
RTVSPost2010PropOp57
 70
1
102
RTVSPropertyOp0
 70
1
102
RTVSPropertyOp1
 70
1
102
RTVSPropertyOp2
 70
1
102
RTVSPropertyOp3
 70
1
102
RTVSPropertyOp4
 70
1
102
RTVSPropertyOp5
 70
1
102
RTVSPropertyOp6
 70
1
102
RTVSPropertyOp7
 70
1
102
RTVSPropertyOp8
 70
1
102
RTVSPropertyOp9
 70
1
102
RTVSPropertyOp10
 70
1
102
RTVSPropertyOp11
 70
1
102
RTVSPropertyOp12
 70
1
102
RTVSPropertyOp13
 70
1
102
RTVSPropertyOp14
 70
1
102
RTVSPropertyOp15
 70
1
102
RTVSPropertyOp16
 70
1
102
RTVSPropertyOp17
 70
1
102
RTVSPropertyOp18
 70
1
102
RTVSPropertyOp19
 70
1
102
RTVSPropertyOp20
 70
1
102
RTVSPropertyOp21
 70
1
102
RTVSPropertyOp22
 70
1
102
RTVSPropertyOp23
 70
1
102
RTVSPropertyOp24
 70
1
102
RTVSPropertyOp25
 70
1
102
RTVSPropertyOp26
 70
1
102
RTVSPropertyOp27
 70
1
102
RTVSPropertyOp28
 70
1
102
RTVSPropertyOp29
 70
1
102
RTVSPropertyOp30
 70
1
102
RTVSPropertyOp31
 70
1
102
RTVSPropertyOp32
 70
1
102
RTVSPropertyOp33
 70
1
102
RTVSPropertyOp34
 70
1
102
RTVSPropertyOp35
 70
1
102
RTVSPropertyOp36
 70
1
102
RTVSPropertyOp37
 70
1
102
RTVSPropertyOp38
 70
1
102
RTVSPropertyOp39
 70
1
102
RTVSPropertyOp40
 70
1
102
RTVSPropertyOp41
 70
1
102
RTVSPropertyOp42
 70
1
102
RTVSPropertyOp43
 70
1
102
RTVSPropertyOp44
 70
1
102
RTVSPropertyOp45
 70
1
102
RTVSPropertyOp46
 70
1
102
RTVSPropertyOp47
 70
1
102
RTVSPropertyOp48
 70
1
102
RTVSPropertyOp49
 70
1
102
RTVSPropertyOp50
 70
1
102
RTVSPropertyOp51
 70
0
102
RTVSPropertyOp52
 70
0
102
RTVSPropertyOp53
 70
1
102
RTVSPropertyOp54
 70
1
102
RTVSPropertyOp55
 70
1
102
RTVSPropertyOp56
 70
1
102
RTVSPropertyOp57
 70
1
102
RTVSPropertyOp58
 70
1
102
RTVSPropertyOp59
 70
1
102
RTVSPropertyOp60
 70
1
102
RTVSPropertyOp61
 70
1
102
RTVSPropertyOp62
 70
1
  0
XRECORD
  5
A7A
102
{ACAD_REACTORS
330
A79
102
}
330
A79
100
AcDbXrecord
280
1
102
RTVSPost2010Prop28
280
0
102
RTVSPost2010PropOp28
 70
1
102
RTVSPost2010Prop29
280
1
102
RTVSPost2010PropOp29
 70
1
102
RTVSPost2010Prop30
280
1
102
RTVSPost2010PropOp30
 70
1
102
RTVSPost2010Prop31
280
0
102
RTVSPost2010PropOp31
 70
1
102
RTVSPost2010Prop32
280
0
102
RTVSPost2010PropOp32
 70
1
102
RTVSPost2010Prop33
280
0
102
RTVSPost2010PropOp33
 70
1
102
RTVSPost2010Prop34
280
0
102
RTVSPost2010PropOp34
 70
1
102
RTVSPost2010Prop35
280
0
102
RTVSPost2010PropOp35
 70
1
102
RTVSPost2010Prop36
280
0
102
RTVSPost2010PropOp36
 70
1
102
RTVSPost2010Prop37
 90
50
102
RTVSPost2010PropOp37
 70
1
102
RTVSPost2010Prop38
140
0.0
102
RTVSPost2010PropOp38
 70
1
102
RTVSPost2010Prop39
140
1.0
102
RTVSPost2010PropOp39
 70
1
102
RTVSPost2010Prop40
 90
0
102
RTVSPost2010PropOp40
 70
1
102
RTVSPost2010Prop41ColorIndex
 90
18
102
RTVSPost2010Prop41ColorRGB
 90
0
102
RTVSPost2010PropOp41
 70
1
102
RTVSPost2010Prop42
 90
50
102
RTVSPost2010PropOp42
 70
1
102
RTVSPost2010Prop43
 90
3
102
RTVSPost2010PropOp43
 70
1
102
RTVSPost2010Prop44ColorIndex
 90
5
102
RTVSPost2010Prop44ColorRGB
 90
255
102
RTVSPost2010PropOp44
 70
1
102
RTVSPost2010Prop45
280
0
102
RTVSPost2010PropOp45
 70
1
102
RTVSPost2010Prop46
 90
50
102
RTVSPost2010PropOp46
 70
1
102
RTVSPost2010Prop47
 90
50
102
RTVSPost2010PropOp47
 70
1
102
RTVSPost2010Prop48
 90
50
102
RTVSPost2010PropOp48
 70
1
102
RTVSPost2010Prop49
280
0
102
RTVSPost2010PropOp49
 70
1
102
RTVSPost2010Prop50
 90
50
102
RTVSPost2010PropOp50
 70
1
102
RTVSPost2010Prop51ColorIndex
 90
256
102
RTVSPost2010Prop51ColorRGB
 90
-16777216
102
RTVSPost2010PropOp51
 70
0
102
RTVSPost2010Prop52
140
1.0
102
RTVSPost2010PropOp52
 70
0
102
RTVSPost2010Prop53
 90
2
102
RTVSPost2010PropOp53
 70
1
102
RTVSPost2010Prop54
  1
strokes_ogs.tif
102
RTVSPost2010PropOp54
 70
1
102
RTVSPost2010Prop55
280
0
102
RTVSPost2010PropOp55
 70
1
102
RTVSPost2010Prop56
140
1.0
102
RTVSPost2010PropOp56
 70
1
102
RTVSPost2010Prop57
140
1.0
102
RTVSPost2010PropOp57
 70
1
102
RTVSPropertyOp0
 70
1
102
RTVSPropertyOp1
 70
1
102
RTVSPropertyOp2
 70
1
102
RTVSPropertyOp3
 70
1
102
RTVSPropertyOp4
 70
1
102
RTVSPropertyOp5
 70
1
102
RTVSPropertyOp6
 70
1
102
RTVSPropertyOp7
 70
1
102
RTVSPropertyOp8
 70
1
102
RTVSPropertyOp9
 70
1
102
RTVSPropertyOp10
 70
1
102
RTVSPropertyOp11
 70
1
102
RTVSPropertyOp12
 70
1
102
RTVSPropertyOp13
 70
1
102
RTVSPropertyOp14
 70
1
102
RTVSPropertyOp15
 70
1
102
RTVSPropertyOp16
 70
1
102
RTVSPropertyOp17
 70
1
102
RTVSPropertyOp18
 70
1
102
RTVSPropertyOp19
 70
1
102
RTVSPropertyOp20
 70
1
102
RTVSPropertyOp21
 70
1
102
RTVSPropertyOp22
 70
1
102
RTVSPropertyOp23
 70
1
102
RTVSPropertyOp24
 70
1
102
RTVSPropertyOp25
 70
1
102
RTVSPropertyOp26
 70
1
102
RTVSPropertyOp27
 70
1
102
RTVSPropertyOp28
 70
1
102
RTVSPropertyOp29
 70
1
102
RTVSPropertyOp30
 70
1
102
RTVSPropertyOp31
 70
1
102
RTVSPropertyOp32
 70
1
102
RTVSPropertyOp33
 70
1
102
RTVSPropertyOp34
 70
1
102
RTVSPropertyOp35
 70
1
102
RTVSPropertyOp36
 70
1
102
RTVSPropertyOp37
 70
1
102
RTVSPropertyOp38
 70
1
102
RTVSPropertyOp39
 70
1
102
RTVSPropertyOp40
 70
1
102
RTVSPropertyOp41
 70
1
102
RTVSPropertyOp42
 70
1
102
RTVSPropertyOp43
 70
1
102
RTVSPropertyOp44
 70
1
102
RTVSPropertyOp45
 70
1
102
RTVSPropertyOp46
 70
1
102
RTVSPropertyOp47
 70
1
102
RTVSPropertyOp48
 70
1
102
RTVSPropertyOp49
 70
1
102
RTVSPropertyOp50
 70
1
102
RTVSPropertyOp51
 70
0
102
RTVSPropertyOp52
 70
0
102
RTVSPropertyOp53
 70
1
102
RTVSPropertyOp54
 70
1
102
RTVSPropertyOp55
 70
1
102
RTVSPropertyOp56
 70
1
102
RTVSPropertyOp57
 70
1
102
RTVSPropertyOp58
 70
1
102
RTVSPropertyOp59
 70
1
102
RTVSPropertyOp60
 70
1
102
RTVSPropertyOp61
 70
1
102
RTVSPropertyOp62
 70
1
  0
XRECORD
  5
A82
102
{ACAD_REACTORS
330
A81
102
}
330
A81
100
AcDbXrecord
280
1
102
RTVSPost2010Prop28
280
0
102
RTVSPost2010PropOp28
 70
1
102
RTVSPost2010Prop29
280
1
102
RTVSPost2010PropOp29
 70
1
102
RTVSPost2010Prop30
280
1
102
RTVSPost2010PropOp30
 70
1
102
RTVSPost2010Prop31
280
0
102
RTVSPost2010PropOp31
 70
1
102
RTVSPost2010Prop32
280
0
102
RTVSPost2010PropOp32
 70
1
102
RTVSPost2010Prop33
280
0
102
RTVSPost2010PropOp33
 70
1
102
RTVSPost2010Prop34
280
0
102
RTVSPost2010PropOp34
 70
1
102
RTVSPost2010Prop35
280
0
102
RTVSPost2010PropOp35
 70
1
102
RTVSPost2010Prop36
280
0
102
RTVSPost2010PropOp36
 70
1
102
RTVSPost2010Prop37
 90
50
102
RTVSPost2010PropOp37
 70
1
102
RTVSPost2010Prop38
140
0.0
102
RTVSPost2010PropOp38
 70
1
102
RTVSPost2010Prop39
140
1.0
102
RTVSPost2010PropOp39
 70
1
102
RTVSPost2010Prop40
 90
0
102
RTVSPost2010PropOp40
 70
1
102
RTVSPost2010Prop41ColorIndex
 90
18
102
RTVSPost2010Prop41ColorRGB
 90
0
102
RTVSPost2010PropOp41
 70
1
102
RTVSPost2010Prop42
 90
50
102
RTVSPost2010PropOp42
 70
1
102
RTVSPost2010Prop43
 90
3
102
RTVSPost2010PropOp43
 70
1
102
RTVSPost2010Prop44ColorIndex
 90
5
102
RTVSPost2010Prop44ColorRGB
 90
255
102
RTVSPost2010PropOp44
 70
1
102
RTVSPost2010Prop45
280
0
102
RTVSPost2010PropOp45
 70
1
102
RTVSPost2010Prop46
 90
50
102
RTVSPost2010PropOp46
 70
1
102
RTVSPost2010Prop47
 90
50
102
RTVSPost2010PropOp47
 70
1
102
RTVSPost2010Prop48
 90
50
102
RTVSPost2010PropOp48
 70
1
102
RTVSPost2010Prop49
280
0
102
RTVSPost2010PropOp49
 70
1
102
RTVSPost2010Prop50
 90
50
102
RTVSPost2010PropOp50
 70
1
102
RTVSPost2010Prop51ColorIndex
 90
256
102
RTVSPost2010Prop51ColorRGB
 90
-16777216
102
RTVSPost2010PropOp51
 70
0
102
RTVSPost2010Prop52
140
1.0
102
RTVSPost2010PropOp52
 70
0
102
RTVSPost2010Prop53
 90
2
102
RTVSPost2010PropOp53
 70
1
102
RTVSPost2010Prop54
  1
strokes_ogs.tif
102
RTVSPost2010PropOp54
 70
1
102
RTVSPost2010Prop55
280
0
102
RTVSPost2010PropOp55
 70
1
102
RTVSPost2010Prop56
140
1.0
102
RTVSPost2010PropOp56
 70
1
102
RTVSPost2010Prop57
140
1.0
102
RTVSPost2010PropOp57
 70
1
102
RTVSPropertyOp0
 70
1
102
RTVSPropertyOp1
 70
1
102
RTVSPropertyOp2
 70
1
102
RTVSPropertyOp3
 70
1
102
RTVSPropertyOp4
 70
1
102
RTVSPropertyOp5
 70
1
102
RTVSPropertyOp6
 70
1
102
RTVSPropertyOp7
 70
1
102
RTVSPropertyOp8
 70
1
102
RTVSPropertyOp9
 70
1
102
RTVSPropertyOp10
 70
1
102
RTVSPropertyOp11
 70
1
102
RTVSPropertyOp12
 70
1
102
RTVSPropertyOp13
 70
1
102
RTVSPropertyOp14
 70
1
102
RTVSPropertyOp15
 70
1
102
RTVSPropertyOp16
 70
1
102
RTVSPropertyOp17
 70
1
102
RTVSPropertyOp18
 70
1
102
RTVSPropertyOp19
 70
1
102
RTVSPropertyOp20
 70
1
102
RTVSPropertyOp21
 70
1
102
RTVSPropertyOp22
 70
1
102
RTVSPropertyOp23
 70
1
102
RTVSPropertyOp24
 70
1
102
RTVSPropertyOp25
 70
1
102
RTVSPropertyOp26
 70
1
102
RTVSPropertyOp27
 70
1
102
RTVSPropertyOp28
 70
1
102
RTVSPropertyOp29
 70
1
102
RTVSPropertyOp30
 70
1
102
RTVSPropertyOp31
 70
1
102
RTVSPropertyOp32
 70
1
102
RTVSPropertyOp33
 70
1
102
RTVSPropertyOp34
 70
1
102
RTVSPropertyOp35
 70
1
102
RTVSPropertyOp36
 70
1
102
RTVSPropertyOp37
 70
1
102
RTVSPropertyOp38
 70
1
102
RTVSPropertyOp39
 70
1
102
RTVSPropertyOp40
 70
1
102
RTVSPropertyOp41
 70
1
102
RTVSPropertyOp42
 70
1
102
RTVSPropertyOp43
 70
1
102
RTVSPropertyOp44
 70
1
102
RTVSPropertyOp45
 70
1
102
RTVSPropertyOp46
 70
1
102
RTVSPropertyOp47
 70
1
102
RTVSPropertyOp48
 70
1
102
RTVSPropertyOp49
 70
1
102
RTVSPropertyOp50
 70
1
102
RTVSPropertyOp51
 70
0
102
RTVSPropertyOp52
 70
0
102
RTVSPropertyOp53
 70
1
102
RTVSPropertyOp54
 70
1
102
RTVSPropertyOp55
 70
1
102
RTVSPropertyOp56
 70
1
102
RTVSPropertyOp57
 70
1
102
RTVSPropertyOp58
 70
1
102
RTVSPropertyOp59
 70
1
102
RTVSPropertyOp60
 70
1
102
RTVSPropertyOp61
 70
1
102
RTVSPropertyOp62
 70
1
  0
XRECORD
  5
A74
102
{ACAD_REACTORS
330
A73
102
}
330
A73
100
AcDbXrecord
280
1
102
RTVSPost2010Prop28
280
0
102
RTVSPost2010PropOp28
 70
1
102
RTVSPost2010Prop29
280
1
102
RTVSPost2010PropOp29
 70
1
102
RTVSPost2010Prop30
280
1
102
RTVSPost2010PropOp30
 70
1
102
RTVSPost2010Prop31
280
0
102
RTVSPost2010PropOp31
 70
1
102
RTVSPost2010Prop32
280
0
102
RTVSPost2010PropOp32
 70
1
102
RTVSPost2010Prop33
280
0
102
RTVSPost2010PropOp33
 70
1
102
RTVSPost2010Prop34
280
0
102
RTVSPost2010PropOp34
 70
1
102
RTVSPost2010Prop35
280
0
102
RTVSPost2010PropOp35
 70
1
102
RTVSPost2010Prop36
280
0
102
RTVSPost2010PropOp36
 70
1
102
RTVSPost2010Prop37
 90
50
102
RTVSPost2010PropOp37
 70
1
102
RTVSPost2010Prop38
140
0.0
102
RTVSPost2010PropOp38
 70
1
102
RTVSPost2010Prop39
140
1.0
102
RTVSPost2010PropOp39
 70
1
102
RTVSPost2010Prop40
 90
0
102
RTVSPost2010PropOp40
 70
1
102
RTVSPost2010Prop41ColorIndex
 90
18
102
RTVSPost2010Prop41ColorRGB
 90
0
102
RTVSPost2010PropOp41
 70
1
102
RTVSPost2010Prop42
 90
50
102
RTVSPost2010PropOp42
 70
1
102
RTVSPost2010Prop43
 90
3
102
RTVSPost2010PropOp43
 70
1
102
RTVSPost2010Prop44ColorIndex
 90
5
102
RTVSPost2010Prop44ColorRGB
 90
255
102
RTVSPost2010PropOp44
 70
1
102
RTVSPost2010Prop45
280
0
102
RTVSPost2010PropOp45
 70
1
102
RTVSPost2010Prop46
 90
50
102
RTVSPost2010PropOp46
 70
1
102
RTVSPost2010Prop47
 90
50
102
RTVSPost2010PropOp47
 70
1
102
RTVSPost2010Prop48
 90
50
102
RTVSPost2010PropOp48
 70
1
102
RTVSPost2010Prop49
280
0
102
RTVSPost2010PropOp49
 70
1
102
RTVSPost2010Prop50
 90
50
102
RTVSPost2010PropOp50
 70
1
102
RTVSPost2010Prop51ColorIndex
 90
256
102
RTVSPost2010Prop51ColorRGB
 90
-16777216
102
RTVSPost2010PropOp51
 70
0
102
RTVSPost2010Prop52
140
1.0
102
RTVSPost2010PropOp52
 70
0
102
RTVSPost2010Prop53
 90
2
102
RTVSPost2010PropOp53
 70
1
102
RTVSPost2010Prop54
  1
strokes_ogs.tif
102
RTVSPost2010PropOp54
 70
1
102
RTVSPost2010Prop55
280
0
102
RTVSPost2010PropOp55
 70
1
102
RTVSPost2010Prop56
140
1.0
102
RTVSPost2010PropOp56
 70
1
102
RTVSPost2010Prop57
140
1.0
102
RTVSPost2010PropOp57
 70
1
102
RTVSPropertyOp0
 70
1
102
RTVSPropertyOp1
 70
1
102
RTVSPropertyOp2
 70
1
102
RTVSPropertyOp3
 70
1
102
RTVSPropertyOp4
 70
1
102
RTVSPropertyOp5
 70
1
102
RTVSPropertyOp6
 70
1
102
RTVSPropertyOp7
 70
1
102
RTVSPropertyOp8
 70
1
102
RTVSPropertyOp9
 70
1
102
RTVSPropertyOp10
 70
1
102
RTVSPropertyOp11
 70
1
102
RTVSPropertyOp12
 70
1
102
RTVSPropertyOp13
 70
1
102
RTVSPropertyOp14
 70
1
102
RTVSPropertyOp15
 70
1
102
RTVSPropertyOp16
 70
1
102
RTVSPropertyOp17
 70
1
102
RTVSPropertyOp18
 70
1
102
RTVSPropertyOp19
 70
1
102
RTVSPropertyOp20
 70
1
102
RTVSPropertyOp21
 70
1
102
RTVSPropertyOp22
 70
1
102
RTVSPropertyOp23
 70
1
102
RTVSPropertyOp24
 70
1
102
RTVSPropertyOp25
 70
1
102
RTVSPropertyOp26
 70
1
102
RTVSPropertyOp27
 70
1
102
RTVSPropertyOp28
 70
1
102
RTVSPropertyOp29
 70
1
102
RTVSPropertyOp30
 70
1
102
RTVSPropertyOp31
 70
1
102
RTVSPropertyOp32
 70
1
102
RTVSPropertyOp33
 70
1
102
RTVSPropertyOp34
 70
1
102
RTVSPropertyOp35
 70
1
102
RTVSPropertyOp36
 70
1
102
RTVSPropertyOp37
 70
1
102
RTVSPropertyOp38
 70
1
102
RTVSPropertyOp39
 70
1
102
RTVSPropertyOp40
 70
1
102
RTVSPropertyOp41
 70
1
102
RTVSPropertyOp42
 70
1
102
RTVSPropertyOp43
 70
1
102
RTVSPropertyOp44
 70
1
102
RTVSPropertyOp45
 70
1
102
RTVSPropertyOp46
 70
1
102
RTVSPropertyOp47
 70
1
102
RTVSPropertyOp48
 70
1
102
RTVSPropertyOp49
 70
1
102
RTVSPropertyOp50
 70
1
102
RTVSPropertyOp51
 70
0
102
RTVSPropertyOp52
 70
0
102
RTVSPropertyOp53
 70
1
102
RTVSPropertyOp54
 70
1
102
RTVSPropertyOp55
 70
1
102
RTVSPropertyOp56
 70
1
102
RTVSPropertyOp57
 70
1
102
RTVSPropertyOp58
 70
1
102
RTVSPropertyOp59
 70
1
102
RTVSPropertyOp60
 70
1
102
RTVSPropertyOp61
 70
1
102
RTVSPropertyOp62
 70
1
  0
XRECORD
  5
A78
102
{ACAD_REACTORS
330
A77
102
}
330
A77
100
AcDbXrecord
280
1
102
RTVSPost2010Prop28
280
0
102
RTVSPost2010PropOp28
 70
1
102
RTVSPost2010Prop29
280
1
102
RTVSPost2010PropOp29
 70
1
102
RTVSPost2010Prop30
280
1
102
RTVSPost2010PropOp30
 70
1
102
RTVSPost2010Prop31
280
0
102
RTVSPost2010PropOp31
 70
1
102
RTVSPost2010Prop32
280
0
102
RTVSPost2010PropOp32
 70
1
102
RTVSPost2010Prop33
280
0
102
RTVSPost2010PropOp33
 70
1
102
RTVSPost2010Prop34
280
0
102
RTVSPost2010PropOp34
 70
1
102
RTVSPost2010Prop35
280
0
102
RTVSPost2010PropOp35
 70
1
102
RTVSPost2010Prop36
280
0
102
RTVSPost2010PropOp36
 70
1
102
RTVSPost2010Prop37
 90
50
102
RTVSPost2010PropOp37
 70
1
102
RTVSPost2010Prop38
140
0.0
102
RTVSPost2010PropOp38
 70
1
102
RTVSPost2010Prop39
140
1.0
102
RTVSPost2010PropOp39
 70
1
102
RTVSPost2010Prop40
 90
0
102
RTVSPost2010PropOp40
 70
1
102
RTVSPost2010Prop41ColorIndex
 90
18
102
RTVSPost2010Prop41ColorRGB
 90
0
102
RTVSPost2010PropOp41
 70
1
102
RTVSPost2010Prop42
 90
50
102
RTVSPost2010PropOp42
 70
1
102
RTVSPost2010Prop43
 90
3
102
RTVSPost2010PropOp43
 70
1
102
RTVSPost2010Prop44ColorIndex
 90
5
102
RTVSPost2010Prop44ColorRGB
 90
255
102
RTVSPost2010PropOp44
 70
1
102
RTVSPost2010Prop45
280
0
102
RTVSPost2010PropOp45
 70
1
102
RTVSPost2010Prop46
 90
50
102
RTVSPost2010PropOp46
 70
1
102
RTVSPost2010Prop47
 90
50
102
RTVSPost2010PropOp47
 70
1
102
RTVSPost2010Prop48
 90
50
102
RTVSPost2010PropOp48
 70
1
102
RTVSPost2010Prop49
280
0
102
RTVSPost2010PropOp49
 70
1
102
RTVSPost2010Prop50
 90
50
102
RTVSPost2010PropOp50
 70
1
102
RTVSPost2010Prop51ColorIndex
 90
256
102
RTVSPost2010Prop51ColorRGB
 90
-16777216
102
RTVSPost2010PropOp51
 70
0
102
RTVSPost2010Prop52
140
1.0
102
RTVSPost2010PropOp52
 70
0
102
RTVSPost2010Prop53
 90
2
102
RTVSPost2010PropOp53
 70
1
102
RTVSPost2010Prop54
  1
strokes_ogs.tif
102
RTVSPost2010PropOp54
 70
1
102
RTVSPost2010Prop55
280
0
102
RTVSPost2010PropOp55
 70
1
102
RTVSPost2010Prop56
140
1.0
102
RTVSPost2010PropOp56
 70
1
102
RTVSPost2010Prop57
140
1.0
102
RTVSPost2010PropOp57
 70
1
102
RTVSPropertyOp0
 70
1
102
RTVSPropertyOp1
 70
1
102
RTVSPropertyOp2
 70
1
102
RTVSPropertyOp3
 70
1
102
RTVSPropertyOp4
 70
1
102
RTVSPropertyOp5
 70
1
102
RTVSPropertyOp6
 70
1
102
RTVSPropertyOp7
 70
1
102
RTVSPropertyOp8
 70
1
102
RTVSPropertyOp9
 70
1
102
RTVSPropertyOp10
 70
1
102
RTVSPropertyOp11
 70
1
102
RTVSPropertyOp12
 70
1
102
RTVSPropertyOp13
 70
1
102
RTVSPropertyOp14
 70
1
102
RTVSPropertyOp15
 70
1
102
RTVSPropertyOp16
 70
1
102
RTVSPropertyOp17
 70
1
102
RTVSPropertyOp18
 70
1
102
RTVSPropertyOp19
 70
1
102
RTVSPropertyOp20
 70
1
102
RTVSPropertyOp21
 70
1
102
RTVSPropertyOp22
 70
1
102
RTVSPropertyOp23
 70
1
102
RTVSPropertyOp24
 70
1
102
RTVSPropertyOp25
 70
1
102
RTVSPropertyOp26
 70
1
102
RTVSPropertyOp27
 70
1
102
RTVSPropertyOp28
 70
1
102
RTVSPropertyOp29
 70
1
102
RTVSPropertyOp30
 70
1
102
RTVSPropertyOp31
 70
1
102
RTVSPropertyOp32
 70
1
102
RTVSPropertyOp33
 70
1
102
RTVSPropertyOp34
 70
1
102
RTVSPropertyOp35
 70
1
102
RTVSPropertyOp36
 70
1
102
RTVSPropertyOp37
 70
1
102
RTVSPropertyOp38
 70
1
102
RTVSPropertyOp39
 70
1
102
RTVSPropertyOp40
 70
1
102
RTVSPropertyOp41
 70
1
102
RTVSPropertyOp42
 70
1
102
RTVSPropertyOp43
 70
1
102
RTVSPropertyOp44
 70
1
102
RTVSPropertyOp45
 70
1
102
RTVSPropertyOp46
 70
1
102
RTVSPropertyOp47
 70
1
102
RTVSPropertyOp48
 70
1
102
RTVSPropertyOp49
 70
1
102
RTVSPropertyOp50
 70
1
102
RTVSPropertyOp51
 70
0
102
RTVSPropertyOp52
 70
0
102
RTVSPropertyOp53
 70
1
102
RTVSPropertyOp54
 70
1
102
RTVSPropertyOp55
 70
1
102
RTVSPropertyOp56
 70
1
102
RTVSPropertyOp57
 70
1
102
RTVSPropertyOp58
 70
1
102
RTVSPropertyOp59
 70
1
102
RTVSPropertyOp60
 70
1
102
RTVSPropertyOp61
 70
1
102
RTVSPropertyOp62
 70
1
  0
XRECORD
  5
A92
102
{ACAD_REACTORS
330
A91
102
}
330
A91
100
AcDbXrecord
280
1
102
RTVSPost2010Prop28
280
0
102
RTVSPost2010PropOp28
 70
1
102
RTVSPost2010Prop29
280
1
102
RTVSPost2010PropOp29
 70
1
102
RTVSPost2010Prop30
280
1
102
RTVSPost2010PropOp30
 70
1
102
RTVSPost2010Prop31
280
0
102
RTVSPost2010PropOp31
 70
1
102
RTVSPost2010Prop32
280
0
102
RTVSPost2010PropOp32
 70
1
102
RTVSPost2010Prop33
280
0
102
RTVSPost2010PropOp33
 70
1
102
RTVSPost2010Prop34
280
0
102
RTVSPost2010PropOp34
 70
1
102
RTVSPost2010Prop35
280
0
102
RTVSPost2010PropOp35
 70
1
102
RTVSPost2010Prop36
280
0
102
RTVSPost2010PropOp36
 70
1
102
RTVSPost2010Prop37
 90
50
102
RTVSPost2010PropOp37
 70
0
102
RTVSPost2010Prop38
140
0.0
102
RTVSPost2010PropOp38
 70
0
102
RTVSPost2010Prop39
140
1.0
102
RTVSPost2010PropOp39
 70
0
102
RTVSPost2010Prop40
 90
0
102
RTVSPost2010PropOp40
 70
0
102
RTVSPost2010Prop41ColorIndex
 90
18
102
RTVSPost2010Prop41ColorRGB
 90
0
102
RTVSPost2010PropOp41
 70
0
102
RTVSPost2010Prop42
 90
50
102
RTVSPost2010PropOp42
 70
0
102
RTVSPost2010Prop43
 90
3
102
RTVSPost2010PropOp43
 70
0
102
RTVSPost2010Prop44ColorIndex
 90
5
102
RTVSPost2010Prop44ColorRGB
 90
255
102
RTVSPost2010PropOp44
 70
0
102
RTVSPost2010Prop45
280
0
102
RTVSPost2010PropOp45
 70
1
102
RTVSPost2010Prop46
 90
50
102
RTVSPost2010PropOp46
 70
0
102
RTVSPost2010Prop47
 90
50
102
RTVSPost2010PropOp47
 70
0
102
RTVSPost2010Prop48
 90
50
102
RTVSPost2010PropOp48
 70
0
102
RTVSPost2010Prop49
280
0
102
RTVSPost2010PropOp49
 70
1
102
RTVSPost2010Prop50
 90
50
102
RTVSPost2010PropOp50
 70
0
102
RTVSPost2010Prop51ColorIndex
 90
256
102
RTVSPost2010Prop51ColorRGB
 90
-16777216
102
RTVSPost2010PropOp51
 70
0
102
RTVSPost2010Prop52
140
1.0
102
RTVSPost2010PropOp52
 70
0
102
RTVSPost2010Prop53
 90
2
102
RTVSPost2010PropOp53
 70
0
102
RTVSPost2010Prop54
  1
strokes_ogs.tif
102
RTVSPost2010PropOp54
 70
0
102
RTVSPost2010Prop55
280
0
102
RTVSPost2010PropOp55
 70
1
102
RTVSPost2010Prop56
140
1.0
102
RTVSPost2010PropOp56
 70
0
102
RTVSPost2010Prop57
140
1.0
102
RTVSPost2010PropOp57
 70
0
102
RTVSPropertyOp0
 70
0
102
RTVSPropertyOp1
 70
0
102
RTVSPropertyOp2
 70
0
102
RTVSPropertyOp3
 70
0
102
RTVSPropertyOp4
 70
0
102
RTVSPropertyOp5
 70
0
102
RTVSPropertyOp6
 70
0
102
RTVSPropertyOp7
 70
0
102
RTVSPropertyOp8
 70
0
102
RTVSPropertyOp9
 70
0
102
RTVSPropertyOp10
 70
0
102
RTVSPropertyOp11
 70
0
102
RTVSPropertyOp12
 70
0
102
RTVSPropertyOp13
 70
0
102
RTVSPropertyOp14
 70
2
102
RTVSPropertyOp15
 70
0
102
RTVSPropertyOp16
 70
0
102
RTVSPropertyOp17
 70
0
102
RTVSPropertyOp18
 70
0
102
RTVSPropertyOp19
 70
0
102
RTVSPropertyOp20
 70
0
102
RTVSPropertyOp21
 70
0
102
RTVSPropertyOp22
 70
0
102
RTVSPropertyOp23
 70
0
102
RTVSPropertyOp24
 70
0
102
RTVSPropertyOp25
 70
0
102
RTVSPropertyOp26
 70
0
102
RTVSPropertyOp27
 70
0
102
RTVSPropertyOp28
 70
1
102
RTVSPropertyOp29
 70
1
102
RTVSPropertyOp30
 70
1
102
RTVSPropertyOp31
 70
1
102
RTVSPropertyOp32
 70
1
102
RTVSPropertyOp33
 70
1
102
RTVSPropertyOp34
 70
1
102
RTVSPropertyOp35
 70
1
102
RTVSPropertyOp36
 70
1
102
RTVSPropertyOp37
 70
0
102
RTVSPropertyOp38
 70
0
102
RTVSPropertyOp39
 70
0
102
RTVSPropertyOp40
 70
0
102
RTVSPropertyOp41
 70
0
102
RTVSPropertyOp42
 70
0
102
RTVSPropertyOp43
 70
0
102
RTVSPropertyOp44
 70
0
102
RTVSPropertyOp45
 70
1
102
RTVSPropertyOp46
 70
0
102
RTVSPropertyOp47
 70
0
102
RTVSPropertyOp48
 70
0
102
RTVSPropertyOp49
 70
1
102
RTVSPropertyOp50
 70
0
102
RTVSPropertyOp51
 70
0
102
RTVSPropertyOp52
 70
0
102
RTVSPropertyOp53
 70
0
102
RTVSPropertyOp54
 70
0
102
RTVSPropertyOp55
 70
1
102
RTVSPropertyOp56
 70
0
102
RTVSPropertyOp57
 70
0
102
RTVSPropertyOp58
 70
0
102
RTVSPropertyOp59
 70
0
102
RTVSPropertyOp60
 70
0
102
RTVSPropertyOp61
 70
0
102
RTVSPropertyOp62
 70
0
  0
XRECORD
  5
A80
102
{ACAD_REACTORS
330
A7F
102
}
330
A7F
100
AcDbXrecord
280
1
102
RTVSPost2010Prop28
280
0
102
RTVSPost2010PropOp28
 70
1
102
RTVSPost2010Prop29
280
1
102
RTVSPost2010PropOp29
 70
1
102
RTVSPost2010Prop30
280
1
102
RTVSPost2010PropOp30
 70
1
102
RTVSPost2010Prop31
280
0
102
RTVSPost2010PropOp31
 70
1
102
RTVSPost2010Prop32
280
0
102
RTVSPost2010PropOp32
 70
1
102
RTVSPost2010Prop33
280
0
102
RTVSPost2010PropOp33
 70
1
102
RTVSPost2010Prop34
280
0
102
RTVSPost2010PropOp34
 70
1
102
RTVSPost2010Prop35
280
0
102
RTVSPost2010PropOp35
 70
1
102
RTVSPost2010Prop36
280
0
102
RTVSPost2010PropOp36
 70
1
102
RTVSPost2010Prop37
 90
50
102
RTVSPost2010PropOp37
 70
1
102
RTVSPost2010Prop38
140
0.0
102
RTVSPost2010PropOp38
 70
1
102
RTVSPost2010Prop39
140
1.0
102
RTVSPost2010PropOp39
 70
1
102
RTVSPost2010Prop40
 90
0
102
RTVSPost2010PropOp40
 70
1
102
RTVSPost2010Prop41ColorIndex
 90
18
102
RTVSPost2010Prop41ColorRGB
 90
0
102
RTVSPost2010PropOp41
 70
1
102
RTVSPost2010Prop42
 90
50
102
RTVSPost2010PropOp42
 70
1
102
RTVSPost2010Prop43
 90
3
102
RTVSPost2010PropOp43
 70
1
102
RTVSPost2010Prop44ColorIndex
 90
5
102
RTVSPost2010Prop44ColorRGB
 90
255
102
RTVSPost2010PropOp44
 70
1
102
RTVSPost2010Prop45
280
0
102
RTVSPost2010PropOp45
 70
1
102
RTVSPost2010Prop46
 90
50
102
RTVSPost2010PropOp46
 70
1
102
RTVSPost2010Prop47
 90
50
102
RTVSPost2010PropOp47
 70
1
102
RTVSPost2010Prop48
 90
50
102
RTVSPost2010PropOp48
 70
1
102
RTVSPost2010Prop49
280
0
102
RTVSPost2010PropOp49
 70
1
102
RTVSPost2010Prop50
 90
50
102
RTVSPost2010PropOp50
 70
1
102
RTVSPost2010Prop51ColorIndex
 90
256
102
RTVSPost2010Prop51ColorRGB
 90
-16777216
102
RTVSPost2010PropOp51
 70
0
102
RTVSPost2010Prop52
140
1.0
102
RTVSPost2010PropOp52
 70
0
102
RTVSPost2010Prop53
 90
2
102
RTVSPost2010PropOp53
 70
1
102
RTVSPost2010Prop54
  1
strokes_ogs.tif
102
RTVSPost2010PropOp54
 70
1
102
RTVSPost2010Prop55
280
0
102
RTVSPost2010PropOp55
 70
1
102
RTVSPost2010Prop56
140
1.0
102
RTVSPost2010PropOp56
 70
1
102
RTVSPost2010Prop57
140
1.0
102
RTVSPost2010PropOp57
 70
1
102
RTVSPropertyOp0
 70
1
102
RTVSPropertyOp1
 70
1
102
RTVSPropertyOp2
 70
1
102
RTVSPropertyOp3
 70
1
102
RTVSPropertyOp4
 70
1
102
RTVSPropertyOp5
 70
1
102
RTVSPropertyOp6
 70
1
102
RTVSPropertyOp7
 70
1
102
RTVSPropertyOp8
 70
1
102
RTVSPropertyOp9
 70
1
102
RTVSPropertyOp10
 70
1
102
RTVSPropertyOp11
 70
1
102
RTVSPropertyOp12
 70
1
102
RTVSPropertyOp13
 70
1
102
RTVSPropertyOp14
 70
1
102
RTVSPropertyOp15
 70
1
102
RTVSPropertyOp16
 70
1
102
RTVSPropertyOp17
 70
1
102
RTVSPropertyOp18
 70
1
102
RTVSPropertyOp19
 70
1
102
RTVSPropertyOp20
 70
1
102
RTVSPropertyOp21
 70
1
102
RTVSPropertyOp22
 70
1
102
RTVSPropertyOp23
 70
1
102
RTVSPropertyOp24
 70
1
102
RTVSPropertyOp25
 70
1
102
RTVSPropertyOp26
 70
1
102
RTVSPropertyOp27
 70
1
102
RTVSPropertyOp28
 70
1
102
RTVSPropertyOp29
 70
1
102
RTVSPropertyOp30
 70
1
102
RTVSPropertyOp31
 70
1
102
RTVSPropertyOp32
 70
1
102
RTVSPropertyOp33
 70
1
102
RTVSPropertyOp34
 70
1
102
RTVSPropertyOp35
 70
1
102
RTVSPropertyOp36
 70
1
102
RTVSPropertyOp37
 70
1
102
RTVSPropertyOp38
 70
1
102
RTVSPropertyOp39
 70
1
102
RTVSPropertyOp40
 70
1
102
RTVSPropertyOp41
 70
1
102
RTVSPropertyOp42
 70
1
102
RTVSPropertyOp43
 70
1
102
RTVSPropertyOp44
 70
1
102
RTVSPropertyOp45
 70
1
102
RTVSPropertyOp46
 70
1
102
RTVSPropertyOp47
 70
1
102
RTVSPropertyOp48
 70
1
102
RTVSPropertyOp49
 70
1
102
RTVSPropertyOp50
 70
1
102
RTVSPropertyOp51
 70
0
102
RTVSPropertyOp52
 70
0
102
RTVSPropertyOp53
 70
1
102
RTVSPropertyOp54
 70
1
102
RTVSPropertyOp55
 70
1
102
RTVSPropertyOp56
 70
1
102
RTVSPropertyOp57
 70
1
102
RTVSPropertyOp58
 70
1
102
RTVSPropertyOp59
 70
1
102
RTVSPropertyOp60
 70
1
102
RTVSPropertyOp61
 70
1
102
RTVSPropertyOp62
 70
1
  0
XRECORD
  5
A64
102
{ACAD_REACTORS
330
A63
102
}
330
A63
100
AcDbXrecord
280
1
102
RTVSPost2010Prop28
280
0
102
RTVSPost2010PropOp28
 70
1
102
RTVSPost2010Prop29
280
1
102
RTVSPost2010PropOp29
 70
1
102
RTVSPost2010Prop30
280
1
102
RTVSPost2010PropOp30
 70
1
102
RTVSPost2010Prop31
280
0
102
RTVSPost2010PropOp31
 70
1
102
RTVSPost2010Prop32
280
0
102
RTVSPost2010PropOp32
 70
1
102
RTVSPost2010Prop33
280
0
102
RTVSPost2010PropOp33
 70
1
102
RTVSPost2010Prop34
280
0
102
RTVSPost2010PropOp34
 70
1
102
RTVSPost2010Prop35
280
0
102
RTVSPost2010PropOp35
 70
1
102
RTVSPost2010Prop36
280
0
102
RTVSPost2010PropOp36
 70
1
102
RTVSPost2010Prop37
 90
50
102
RTVSPost2010PropOp37
 70
1
102
RTVSPost2010Prop38
140
0.0
102
RTVSPost2010PropOp38
 70
1
102
RTVSPost2010Prop39
140
1.0
102
RTVSPost2010PropOp39
 70
1
102
RTVSPost2010Prop40
 90
0
102
RTVSPost2010PropOp40
 70
1
102
RTVSPost2010Prop41ColorIndex
 90
18
102
RTVSPost2010Prop41ColorRGB
 90
0
102
RTVSPost2010PropOp41
 70
1
102
RTVSPost2010Prop42
 90
50
102
RTVSPost2010PropOp42
 70
1
102
RTVSPost2010Prop43
 90
3
102
RTVSPost2010PropOp43
 70
1
102
RTVSPost2010Prop44ColorIndex
 90
5
102
RTVSPost2010Prop44ColorRGB
 90
255
102
RTVSPost2010PropOp44
 70
1
102
RTVSPost2010Prop45
280
0
102
RTVSPost2010PropOp45
 70
1
102
RTVSPost2010Prop46
 90
50
102
RTVSPost2010PropOp46
 70
1
102
RTVSPost2010Prop47
 90
50
102
RTVSPost2010PropOp47
 70
1
102
RTVSPost2010Prop48
 90
50
102
RTVSPost2010PropOp48
 70
1
102
RTVSPost2010Prop49
280
0
102
RTVSPost2010PropOp49
 70
1
102
RTVSPost2010Prop50
 90
50
102
RTVSPost2010PropOp50
 70
1
102
RTVSPost2010Prop51ColorIndex
 90
256
102
RTVSPost2010Prop51ColorRGB
 90
-16777216
102
RTVSPost2010PropOp51
 70
0
102
RTVSPost2010Prop52
140
1.0
102
RTVSPost2010PropOp52
 70
0
102
RTVSPost2010Prop53
 90
2
102
RTVSPost2010PropOp53
 70
1
102
RTVSPost2010Prop54
  1
strokes_ogs.tif
102
RTVSPost2010PropOp54
 70
1
102
RTVSPost2010Prop55
280
0
102
RTVSPost2010PropOp55
 70
1
102
RTVSPost2010Prop56
140
1.0
102
RTVSPost2010PropOp56
 70
1
102
RTVSPost2010Prop57
140
1.0
102
RTVSPost2010PropOp57
 70
1
102
RTVSPropertyOp0
 70
1
102
RTVSPropertyOp1
 70
1
102
RTVSPropertyOp2
 70
1
102
RTVSPropertyOp3
 70
1
102
RTVSPropertyOp4
 70
1
102
RTVSPropertyOp5
 70
1
102
RTVSPropertyOp6
 70
1
102
RTVSPropertyOp7
 70
1
102
RTVSPropertyOp8
 70
1
102
RTVSPropertyOp9
 70
1
102
RTVSPropertyOp10
 70
1
102
RTVSPropertyOp11
 70
1
102
RTVSPropertyOp12
 70
1
102
RTVSPropertyOp13
 70
1
102
RTVSPropertyOp14
 70
1
102
RTVSPropertyOp15
 70
1
102
RTVSPropertyOp16
 70
1
102
RTVSPropertyOp17
 70
1
102
RTVSPropertyOp18
 70
1
102
RTVSPropertyOp19
 70
1
102
RTVSPropertyOp20
 70
1
102
RTVSPropertyOp21
 70
1
102
RTVSPropertyOp22
 70
1
102
RTVSPropertyOp23
 70
1
102
RTVSPropertyOp24
 70
1
102
RTVSPropertyOp25
 70
1
102
RTVSPropertyOp26
 70
1
102
RTVSPropertyOp27
 70
1
102
RTVSPropertyOp28
 70
1
102
RTVSPropertyOp29
 70
1
102
RTVSPropertyOp30
 70
1
102
RTVSPropertyOp31
 70
1
102
RTVSPropertyOp32
 70
1
102
RTVSPropertyOp33
 70
1
102
RTVSPropertyOp34
 70
1
102
RTVSPropertyOp35
 70
1
102
RTVSPropertyOp36
 70
1
102
RTVSPropertyOp37
 70
1
102
RTVSPropertyOp38
 70
1
102
RTVSPropertyOp39
 70
1
102
RTVSPropertyOp40
 70
1
102
RTVSPropertyOp41
 70
1
102
RTVSPropertyOp42
 70
1
102
RTVSPropertyOp43
 70
1
102
RTVSPropertyOp44
 70
1
102
RTVSPropertyOp45
 70
1
102
RTVSPropertyOp46
 70
1
102
RTVSPropertyOp47
 70
1
102
RTVSPropertyOp48
 70
1
102
RTVSPropertyOp49
 70
1
102
RTVSPropertyOp50
 70
1
102
RTVSPropertyOp51
 70
0
102
RTVSPropertyOp52
 70
0
102
RTVSPropertyOp53
 70
1
102
RTVSPropertyOp54
 70
1
102
RTVSPropertyOp55
 70
1
102
RTVSPropertyOp56
 70
1
102
RTVSPropertyOp57
 70
1
102
RTVSPropertyOp58
 70
1
102
RTVSPropertyOp59
 70
1
102
RTVSPropertyOp60
 70
1
102
RTVSPropertyOp61
 70
1
102
RTVSPropertyOp62
 70
1
  0
XRECORD
  5
A66
102
{ACAD_REACTORS
330
A65
102
}
330
A65
100
AcDbXrecord
280
1
102
RTVSPost2010Prop28
280
0
102
RTVSPost2010PropOp28
 70
1
102
RTVSPost2010Prop29
280
1
102
RTVSPost2010PropOp29
 70
1
102
RTVSPost2010Prop30
280
1
102
RTVSPost2010PropOp30
 70
1
102
RTVSPost2010Prop31
280
0
102
RTVSPost2010PropOp31
 70
1
102
RTVSPost2010Prop32
280
0
102
RTVSPost2010PropOp32
 70
1
102
RTVSPost2010Prop33
280
0
102
RTVSPost2010PropOp33
 70
1
102
RTVSPost2010Prop34
280
0
102
RTVSPost2010PropOp34
 70
1
102
RTVSPost2010Prop35
280
0
102
RTVSPost2010PropOp35
 70
1
102
RTVSPost2010Prop36
280
0
102
RTVSPost2010PropOp36
 70
1
102
RTVSPost2010Prop37
 90
50
102
RTVSPost2010PropOp37
 70
1
102
RTVSPost2010Prop38
140
0.0
102
RTVSPost2010PropOp38
 70
1
102
RTVSPost2010Prop39
140
1.0
102
RTVSPost2010PropOp39
 70
1
102
RTVSPost2010Prop40
 90
0
102
RTVSPost2010PropOp40
 70
1
102
RTVSPost2010Prop41ColorIndex
 90
18
102
RTVSPost2010Prop41ColorRGB
 90
0
102
RTVSPost2010PropOp41
 70
1
102
RTVSPost2010Prop42
 90
50
102
RTVSPost2010PropOp42
 70
1
102
RTVSPost2010Prop43
 90
3
102
RTVSPost2010PropOp43
 70
1
102
RTVSPost2010Prop44ColorIndex
 90
5
102
RTVSPost2010Prop44ColorRGB
 90
255
102
RTVSPost2010PropOp44
 70
1
102
RTVSPost2010Prop45
280
0
102
RTVSPost2010PropOp45
 70
1
102
RTVSPost2010Prop46
 90
50
102
RTVSPost2010PropOp46
 70
1
102
RTVSPost2010Prop47
 90
50
102
RTVSPost2010PropOp47
 70
1
102
RTVSPost2010Prop48
 90
50
102
RTVSPost2010PropOp48
 70
1
102
RTVSPost2010Prop49
280
0
102
RTVSPost2010PropOp49
 70
1
102
RTVSPost2010Prop50
 90
50
102
RTVSPost2010PropOp50
 70
1
102
RTVSPost2010Prop51ColorIndex
 90
256
102
RTVSPost2010Prop51ColorRGB
 90
-16777216
102
RTVSPost2010PropOp51
 70
0
102
RTVSPost2010Prop52
140
1.0
102
RTVSPost2010PropOp52
 70
0
102
RTVSPost2010Prop53
 90
2
102
RTVSPost2010PropOp53
 70
1
102
RTVSPost2010Prop54
  1
strokes_ogs.tif
102
RTVSPost2010PropOp54
 70
1
102
RTVSPost2010Prop55
280
0
102
RTVSPost2010PropOp55
 70
1
102
RTVSPost2010Prop56
140
1.0
102
RTVSPost2010PropOp56
 70
1
102
RTVSPost2010Prop57
140
1.0
102
RTVSPost2010PropOp57
 70
1
102
RTVSPropertyOp0
 70
1
102
RTVSPropertyOp1
 70
1
102
RTVSPropertyOp2
 70
1
102
RTVSPropertyOp3
 70
1
102
RTVSPropertyOp4
 70
1
102
RTVSPropertyOp5
 70
1
102
RTVSPropertyOp6
 70
1
102
RTVSPropertyOp7
 70
1
102
RTVSPropertyOp8
 70
1
102
RTVSPropertyOp9
 70
1
102
RTVSPropertyOp10
 70
1
102
RTVSPropertyOp11
 70
1
102
RTVSPropertyOp12
 70
1
102
RTVSPropertyOp13
 70
1
102
RTVSPropertyOp14
 70
1
102
RTVSPropertyOp15
 70
1
102
RTVSPropertyOp16
 70
1
102
RTVSPropertyOp17
 70
1
102
RTVSPropertyOp18
 70
1
102
RTVSPropertyOp19
 70
1
102
RTVSPropertyOp20
 70
1
102
RTVSPropertyOp21
 70
1
102
RTVSPropertyOp22
 70
1
102
RTVSPropertyOp23
 70
1
102
RTVSPropertyOp24
 70
1
102
RTVSPropertyOp25
 70
1
102
RTVSPropertyOp26
 70
1
102
RTVSPropertyOp27
 70
1
102
RTVSPropertyOp28
 70
1
102
RTVSPropertyOp29
 70
1
102
RTVSPropertyOp30
 70
1
102
RTVSPropertyOp31
 70
1
102
RTVSPropertyOp32
 70
1
102
RTVSPropertyOp33
 70
1
102
RTVSPropertyOp34
 70
1
102
RTVSPropertyOp35
 70
1
102
RTVSPropertyOp36
 70
1
102
RTVSPropertyOp37
 70
1
102
RTVSPropertyOp38
 70
1
102
RTVSPropertyOp39
 70
1
102
RTVSPropertyOp40
 70
1
102
RTVSPropertyOp41
 70
1
102
RTVSPropertyOp42
 70
1
102
RTVSPropertyOp43
 70
1
102
RTVSPropertyOp44
 70
1
102
RTVSPropertyOp45
 70
1
102
RTVSPropertyOp46
 70
1
102
RTVSPropertyOp47
 70
1
102
RTVSPropertyOp48
 70
1
102
RTVSPropertyOp49
 70
1
102
RTVSPropertyOp50
 70
1
102
RTVSPropertyOp51
 70
0
102
RTVSPropertyOp52
 70
0
102
RTVSPropertyOp53
 70
1
102
RTVSPropertyOp54
 70
1
102
RTVSPropertyOp55
 70
1
102
RTVSPropertyOp56
 70
1
102
RTVSPropertyOp57
 70
1
102
RTVSPropertyOp58
 70
1
102
RTVSPropertyOp59
 70
1
102
RTVSPropertyOp60
 70
1
102
RTVSPropertyOp61
 70
1
102
RTVSPropertyOp62
 70
1
  0
XRECORD
  5
A68
102
{ACAD_REACTORS
330
A67
102
}
330
A67
100
AcDbXrecord
280
1
102
RTVSPost2010Prop28
280
0
102
RTVSPost2010PropOp28
 70
1
102
RTVSPost2010Prop29
280
1
102
RTVSPost2010PropOp29
 70
1
102
RTVSPost2010Prop30
280
1
102
RTVSPost2010PropOp30
 70
1
102
RTVSPost2010Prop31
280
0
102
RTVSPost2010PropOp31
 70
1
102
RTVSPost2010Prop32
280
0
102
RTVSPost2010PropOp32
 70
1
102
RTVSPost2010Prop33
280
0
102
RTVSPost2010PropOp33
 70
1
102
RTVSPost2010Prop34
280
0
102
RTVSPost2010PropOp34
 70
1
102
RTVSPost2010Prop35
280
0
102
RTVSPost2010PropOp35
 70
1
102
RTVSPost2010Prop36
280
0
102
RTVSPost2010PropOp36
 70
1
102
RTVSPost2010Prop37
 90
50
102
RTVSPost2010PropOp37
 70
1
102
RTVSPost2010Prop38
140
0.0
102
RTVSPost2010PropOp38
 70
1
102
RTVSPost2010Prop39
140
1.0
102
RTVSPost2010PropOp39
 70
1
102
RTVSPost2010Prop40
 90
0
102
RTVSPost2010PropOp40
 70
1
102
RTVSPost2010Prop41ColorIndex
 90
18
102
RTVSPost2010Prop41ColorRGB
 90
0
102
RTVSPost2010PropOp41
 70
1
102
RTVSPost2010Prop42
 90
50
102
RTVSPost2010PropOp42
 70
1
102
RTVSPost2010Prop43
 90
3
102
RTVSPost2010PropOp43
 70
1
102
RTVSPost2010Prop44ColorIndex
 90
5
102
RTVSPost2010Prop44ColorRGB
 90
255
102
RTVSPost2010PropOp44
 70
1
102
RTVSPost2010Prop45
280
0
102
RTVSPost2010PropOp45
 70
1
102
RTVSPost2010Prop46
 90
50
102
RTVSPost2010PropOp46
 70
1
102
RTVSPost2010Prop47
 90
50
102
RTVSPost2010PropOp47
 70
1
102
RTVSPost2010Prop48
 90
50
102
RTVSPost2010PropOp48
 70
1
102
RTVSPost2010Prop49
280
0
102
RTVSPost2010PropOp49
 70
1
102
RTVSPost2010Prop50
 90
50
102
RTVSPost2010PropOp50
 70
1
102
RTVSPost2010Prop51ColorIndex
 90
256
102
RTVSPost2010Prop51ColorRGB
 90
-16777216
102
RTVSPost2010PropOp51
 70
0
102
RTVSPost2010Prop52
140
1.0
102
RTVSPost2010PropOp52
 70
0
102
RTVSPost2010Prop53
 90
2
102
RTVSPost2010PropOp53
 70
1
102
RTVSPost2010Prop54
  1
strokes_ogs.tif
102
RTVSPost2010PropOp54
 70
1
102
RTVSPost2010Prop55
280
0
102
RTVSPost2010PropOp55
 70
1
102
RTVSPost2010Prop56
140
1.0
102
RTVSPost2010PropOp56
 70
1
102
RTVSPost2010Prop57
140
1.0
102
RTVSPost2010PropOp57
 70
1
102
RTVSPropertyOp0
 70
1
102
RTVSPropertyOp1
 70
1
102
RTVSPropertyOp2
 70
1
102
RTVSPropertyOp3
 70
1
102
RTVSPropertyOp4
 70
1
102
RTVSPropertyOp5
 70
1
102
RTVSPropertyOp6
 70
1
102
RTVSPropertyOp7
 70
1
102
RTVSPropertyOp8
 70
1
102
RTVSPropertyOp9
 70
1
102
RTVSPropertyOp10
 70
1
102
RTVSPropertyOp11
 70
1
102
RTVSPropertyOp12
 70
1
102
RTVSPropertyOp13
 70
1
102
RTVSPropertyOp14
 70
1
102
RTVSPropertyOp15
 70
1
102
RTVSPropertyOp16
 70
1
102
RTVSPropertyOp17
 70
1
102
RTVSPropertyOp18
 70
1
102
RTVSPropertyOp19
 70
1
102
RTVSPropertyOp20
 70
1
102
RTVSPropertyOp21
 70
1
102
RTVSPropertyOp22
 70
1
102
RTVSPropertyOp23
 70
1
102
RTVSPropertyOp24
 70
1
102
RTVSPropertyOp25
 70
1
102
RTVSPropertyOp26
 70
1
102
RTVSPropertyOp27
 70
1
102
RTVSPropertyOp28
 70
1
102
RTVSPropertyOp29
 70
1
102
RTVSPropertyOp30
 70
1
102
RTVSPropertyOp31
 70
1
102
RTVSPropertyOp32
 70
1
102
RTVSPropertyOp33
 70
1
102
RTVSPropertyOp34
 70
1
102
RTVSPropertyOp35
 70
1
102
RTVSPropertyOp36
 70
1
102
RTVSPropertyOp37
 70
1
102
RTVSPropertyOp38
 70
1
102
RTVSPropertyOp39
 70
1
102
RTVSPropertyOp40
 70
1
102
RTVSPropertyOp41
 70
1
102
RTVSPropertyOp42
 70
1
102
RTVSPropertyOp43
 70
1
102
RTVSPropertyOp44
 70
1
102
RTVSPropertyOp45
 70
1
102
RTVSPropertyOp46
 70
1
102
RTVSPropertyOp47
 70
1
102
RTVSPropertyOp48
 70
1
102
RTVSPropertyOp49
 70
1
102
RTVSPropertyOp50
 70
1
102
RTVSPropertyOp51
 70
0
102
RTVSPropertyOp52
 70
0
102
RTVSPropertyOp53
 70
1
102
RTVSPropertyOp54
 70
1
102
RTVSPropertyOp55
 70
1
102
RTVSPropertyOp56
 70
1
102
RTVSPropertyOp57
 70
1
102
RTVSPropertyOp58
 70
1
102
RTVSPropertyOp59
 70
1
102
RTVSPropertyOp60
 70
1
102
RTVSPropertyOp61
 70
1
102
RTVSPropertyOp62
 70
1
  0
XRECORD
  5
A6A
102
{ACAD_REACTORS
330
A69
102
}
330
A69
100
AcDbXrecord
280
1
102
RTVSPost2010Prop28
280
0
102
RTVSPost2010PropOp28
 70
1
102
RTVSPost2010Prop29
280
1
102
RTVSPost2010PropOp29
 70
1
102
RTVSPost2010Prop30
280
1
102
RTVSPost2010PropOp30
 70
1
102
RTVSPost2010Prop31
280
0
102
RTVSPost2010PropOp31
 70
1
102
RTVSPost2010Prop32
280
0
102
RTVSPost2010PropOp32
 70
1
102
RTVSPost2010Prop33
280
0
102
RTVSPost2010PropOp33
 70
1
102
RTVSPost2010Prop34
280
0
102
RTVSPost2010PropOp34
 70
1
102
RTVSPost2010Prop35
280
0
102
RTVSPost2010PropOp35
 70
1
102
RTVSPost2010Prop36
280
0
102
RTVSPost2010PropOp36
 70
1
102
RTVSPost2010Prop37
 90
50
102
RTVSPost2010PropOp37
 70
1
102
RTVSPost2010Prop38
140
0.0
102
RTVSPost2010PropOp38
 70
1
102
RTVSPost2010Prop39
140
1.0
102
RTVSPost2010PropOp39
 70
1
102
RTVSPost2010Prop40
 90
0
102
RTVSPost2010PropOp40
 70
1
102
RTVSPost2010Prop41ColorIndex
 90
18
102
RTVSPost2010Prop41ColorRGB
 90
0
102
RTVSPost2010PropOp41
 70
1
102
RTVSPost2010Prop42
 90
50
102
RTVSPost2010PropOp42
 70
1
102
RTVSPost2010Prop43
 90
3
102
RTVSPost2010PropOp43
 70
1
102
RTVSPost2010Prop44ColorIndex
 90
5
102
RTVSPost2010Prop44ColorRGB
 90
255
102
RTVSPost2010PropOp44
 70
1
102
RTVSPost2010Prop45
280
0
102
RTVSPost2010PropOp45
 70
1
102
RTVSPost2010Prop46
 90
50
102
RTVSPost2010PropOp46
 70
1
102
RTVSPost2010Prop47
 90
50
102
RTVSPost2010PropOp47
 70
1
102
RTVSPost2010Prop48
 90
50
102
RTVSPost2010PropOp48
 70
1
102
RTVSPost2010Prop49
280
0
102
RTVSPost2010PropOp49
 70
1
102
RTVSPost2010Prop50
 90
50
102
RTVSPost2010PropOp50
 70
1
102
RTVSPost2010Prop51ColorIndex
 90
256
102
RTVSPost2010Prop51ColorRGB
 90
-16777216
102
RTVSPost2010PropOp51
 70
0
102
RTVSPost2010Prop52
140
1.0
102
RTVSPost2010PropOp52
 70
0
102
RTVSPost2010Prop53
 90
2
102
RTVSPost2010PropOp53
 70
1
102
RTVSPost2010Prop54
  1
strokes_ogs.tif
102
RTVSPost2010PropOp54
 70
1
102
RTVSPost2010Prop55
280
0
102
RTVSPost2010PropOp55
 70
1
102
RTVSPost2010Prop56
140
1.0
102
RTVSPost2010PropOp56
 70
1
102
RTVSPost2010Prop57
140
1.0
102
RTVSPost2010PropOp57
 70
1
102
RTVSPropertyOp0
 70
1
102
RTVSPropertyOp1
 70
1
102
RTVSPropertyOp2
 70
1
102
RTVSPropertyOp3
 70
1
102
RTVSPropertyOp4
 70
1
102
RTVSPropertyOp5
 70
1
102
RTVSPropertyOp6
 70
1
102
RTVSPropertyOp7
 70
1
102
RTVSPropertyOp8
 70
1
102
RTVSPropertyOp9
 70
1
102
RTVSPropertyOp10
 70
1
102
RTVSPropertyOp11
 70
1
102
RTVSPropertyOp12
 70
1
102
RTVSPropertyOp13
 70
1
102
RTVSPropertyOp14
 70
1
102
RTVSPropertyOp15
 70
1
102
RTVSPropertyOp16
 70
1
102
RTVSPropertyOp17
 70
1
102
RTVSPropertyOp18
 70
1
102
RTVSPropertyOp19
 70
1
102
RTVSPropertyOp20
 70
1
102
RTVSPropertyOp21
 70
1
102
RTVSPropertyOp22
 70
1
102
RTVSPropertyOp23
 70
1
102
RTVSPropertyOp24
 70
1
102
RTVSPropertyOp25
 70
1
102
RTVSPropertyOp26
 70
1
102
RTVSPropertyOp27
 70
1
102
RTVSPropertyOp28
 70
1
102
RTVSPropertyOp29
 70
1
102
RTVSPropertyOp30
 70
1
102
RTVSPropertyOp31
 70
1
102
RTVSPropertyOp32
 70
1
102
RTVSPropertyOp33
 70
1
102
RTVSPropertyOp34
 70
1
102
RTVSPropertyOp35
 70
1
102
RTVSPropertyOp36
 70
1
102
RTVSPropertyOp37
 70
1
102
RTVSPropertyOp38
 70
1
102
RTVSPropertyOp39
 70
1
102
RTVSPropertyOp40
 70
1
102
RTVSPropertyOp41
 70
1
102
RTVSPropertyOp42
 70
1
102
RTVSPropertyOp43
 70
1
102
RTVSPropertyOp44
 70
1
102
RTVSPropertyOp45
 70
1
102
RTVSPropertyOp46
 70
1
102
RTVSPropertyOp47
 70
1
102
RTVSPropertyOp48
 70
1
102
RTVSPropertyOp49
 70
1
102
RTVSPropertyOp50
 70
1
102
RTVSPropertyOp51
 70
0
102
RTVSPropertyOp52
 70
0
102
RTVSPropertyOp53
 70
1
102
RTVSPropertyOp54
 70
1
102
RTVSPropertyOp55
 70
1
102
RTVSPropertyOp56
 70
1
102
RTVSPropertyOp57
 70
1
102
RTVSPropertyOp58
 70
1
102
RTVSPropertyOp59
 70
1
102
RTVSPropertyOp60
 70
1
102
RTVSPropertyOp61
 70
1
102
RTVSPropertyOp62
 70
1
  0
XRECORD
  5
A72
102
{ACAD_REACTORS
330
A71
102
}
330
A71
100
AcDbXrecord
280
1
102
RTVSPost2010Prop28
280
0
102
RTVSPost2010PropOp28
 70
1
102
RTVSPost2010Prop29
280
1
102
RTVSPost2010PropOp29
 70
1
102
RTVSPost2010Prop30
280
1
102
RTVSPost2010PropOp30
 70
1
102
RTVSPost2010Prop31
280
0
102
RTVSPost2010PropOp31
 70
1
102
RTVSPost2010Prop32
280
0
102
RTVSPost2010PropOp32
 70
1
102
RTVSPost2010Prop33
280
0
102
RTVSPost2010PropOp33
 70
1
102
RTVSPost2010Prop34
280
0
102
RTVSPost2010PropOp34
 70
1
102
RTVSPost2010Prop35
280
0
102
RTVSPost2010PropOp35
 70
1
102
RTVSPost2010Prop36
280
0
102
RTVSPost2010PropOp36
 70
1
102
RTVSPost2010Prop37
 90
50
102
RTVSPost2010PropOp37
 70
1
102
RTVSPost2010Prop38
140
0.0
102
RTVSPost2010PropOp38
 70
1
102
RTVSPost2010Prop39
140
1.0
102
RTVSPost2010PropOp39
 70
1
102
RTVSPost2010Prop40
 90
0
102
RTVSPost2010PropOp40
 70
1
102
RTVSPost2010Prop41ColorIndex
 90
18
102
RTVSPost2010Prop41ColorRGB
 90
0
102
RTVSPost2010PropOp41
 70
1
102
RTVSPost2010Prop42
 90
50
102
RTVSPost2010PropOp42
 70
1
102
RTVSPost2010Prop43
 90
3
102
RTVSPost2010PropOp43
 70
1
102
RTVSPost2010Prop44ColorIndex
 90
5
102
RTVSPost2010Prop44ColorRGB
 90
255
102
RTVSPost2010PropOp44
 70
1
102
RTVSPost2010Prop45
280
0
102
RTVSPost2010PropOp45
 70
1
102
RTVSPost2010Prop46
 90
50
102
RTVSPost2010PropOp46
 70
1
102
RTVSPost2010Prop47
 90
50
102
RTVSPost2010PropOp47
 70
1
102
RTVSPost2010Prop48
 90
50
102
RTVSPost2010PropOp48
 70
1
102
RTVSPost2010Prop49
280
0
102
RTVSPost2010PropOp49
 70
1
102
RTVSPost2010Prop50
 90
50
102
RTVSPost2010PropOp50
 70
1
102
RTVSPost2010Prop51ColorIndex
 90
256
102
RTVSPost2010Prop51ColorRGB
 90
-16777216
102
RTVSPost2010PropOp51
 70
0
102
RTVSPost2010Prop52
140
1.0
102
RTVSPost2010PropOp52
 70
0
102
RTVSPost2010Prop53
 90
2
102
RTVSPost2010PropOp53
 70
1
102
RTVSPost2010Prop54
  1
strokes_ogs.tif
102
RTVSPost2010PropOp54
 70
1
102
RTVSPost2010Prop55
280
0
102
RTVSPost2010PropOp55
 70
1
102
RTVSPost2010Prop56
140
1.0
102
RTVSPost2010PropOp56
 70
1
102
RTVSPost2010Prop57
140
1.0
102
RTVSPost2010PropOp57
 70
1
102
RTVSPropertyOp0
 70
1
102
RTVSPropertyOp1
 70
1
102
RTVSPropertyOp2
 70
1
102
RTVSPropertyOp3
 70
1
102
RTVSPropertyOp4
 70
1
102
RTVSPropertyOp5
 70
1
102
RTVSPropertyOp6
 70
1
102
RTVSPropertyOp7
 70
1
102
RTVSPropertyOp8
 70
1
102
RTVSPropertyOp9
 70
1
102
RTVSPropertyOp10
 70
1
102
RTVSPropertyOp11
 70
1
102
RTVSPropertyOp12
 70
1
102
RTVSPropertyOp13
 70
1
102
RTVSPropertyOp14
 70
1
102
RTVSPropertyOp15
 70
1
102
RTVSPropertyOp16
 70
1
102
RTVSPropertyOp17
 70
1
102
RTVSPropertyOp18
 70
1
102
RTVSPropertyOp19
 70
1
102
RTVSPropertyOp20
 70
1
102
RTVSPropertyOp21
 70
1
102
RTVSPropertyOp22
 70
1
102
RTVSPropertyOp23
 70
1
102
RTVSPropertyOp24
 70
1
102
RTVSPropertyOp25
 70
1
102
RTVSPropertyOp26
 70
1
102
RTVSPropertyOp27
 70
1
102
RTVSPropertyOp28
 70
1
102
RTVSPropertyOp29
 70
1
102
RTVSPropertyOp30
 70
1
102
RTVSPropertyOp31
 70
1
102
RTVSPropertyOp32
 70
1
102
RTVSPropertyOp33
 70
1
102
RTVSPropertyOp34
 70
1
102
RTVSPropertyOp35
 70
1
102
RTVSPropertyOp36
 70
1
102
RTVSPropertyOp37
 70
1
102
RTVSPropertyOp38
 70
1
102
RTVSPropertyOp39
 70
1
102
RTVSPropertyOp40
 70
1
102
RTVSPropertyOp41
 70
1
102
RTVSPropertyOp42
 70
1
102
RTVSPropertyOp43
 70
1
102
RTVSPropertyOp44
 70
1
102
RTVSPropertyOp45
 70
1
102
RTVSPropertyOp46
 70
1
102
RTVSPropertyOp47
 70
1
102
RTVSPropertyOp48
 70
1
102
RTVSPropertyOp49
 70
1
102
RTVSPropertyOp50
 70
1
102
RTVSPropertyOp51
 70
0
102
RTVSPropertyOp52
 70
0
102
RTVSPropertyOp53
 70
1
102
RTVSPropertyOp54
 70
1
102
RTVSPropertyOp55
 70
1
102
RTVSPropertyOp56
 70
1
102
RTVSPropertyOp57
 70
1
102
RTVSPropertyOp58
 70
1
102
RTVSPropertyOp59
 70
1
102
RTVSPropertyOp60
 70
1
102
RTVSPropertyOp61
 70
1
102
RTVSPropertyOp62
 70
1
  0
XRECORD
  5
A8E
102
{ACAD_REACTORS
330
A8D
102
}
330
A8D
100
AcDbXrecord
280
1
102
RTVSPost2010Prop28
280
0
102
RTVSPost2010PropOp28
 70
1
102
RTVSPost2010Prop29
280
1
102
RTVSPost2010PropOp29
 70
1
102
RTVSPost2010Prop30
280
1
102
RTVSPost2010PropOp30
 70
1
102
RTVSPost2010Prop31
280
0
102
RTVSPost2010PropOp31
 70
1
102
RTVSPost2010Prop32
280
0
102
RTVSPost2010PropOp32
 70
1
102
RTVSPost2010Prop33
280
0
102
RTVSPost2010PropOp33
 70
1
102
RTVSPost2010Prop34
280
0
102
RTVSPost2010PropOp34
 70
1
102
RTVSPost2010Prop35
280
0
102
RTVSPost2010PropOp35
 70
1
102
RTVSPost2010Prop36
280
0
102
RTVSPost2010PropOp36
 70
1
102
RTVSPost2010Prop37
 90
50
102
RTVSPost2010PropOp37
 70
0
102
RTVSPost2010Prop38
140
0.0
102
RTVSPost2010PropOp38
 70
0
102
RTVSPost2010Prop39
140
1.0
102
RTVSPost2010PropOp39
 70
0
102
RTVSPost2010Prop40
 90
0
102
RTVSPost2010PropOp40
 70
0
102
RTVSPost2010Prop41ColorIndex
 90
18
102
RTVSPost2010Prop41ColorRGB
 90
0
102
RTVSPost2010PropOp41
 70
0
102
RTVSPost2010Prop42
 90
50
102
RTVSPost2010PropOp42
 70
0
102
RTVSPost2010Prop43
 90
3
102
RTVSPost2010PropOp43
 70
0
102
RTVSPost2010Prop44ColorIndex
 90
5
102
RTVSPost2010Prop44ColorRGB
 90
255
102
RTVSPost2010PropOp44
 70
0
102
RTVSPost2010Prop45
280
0
102
RTVSPost2010PropOp45
 70
1
102
RTVSPost2010Prop46
 90
50
102
RTVSPost2010PropOp46
 70
0
102
RTVSPost2010Prop47
 90
50
102
RTVSPost2010PropOp47
 70
0
102
RTVSPost2010Prop48
 90
50
102
RTVSPost2010PropOp48
 70
0
102
RTVSPost2010Prop49
280
0
102
RTVSPost2010PropOp49
 70
1
102
RTVSPost2010Prop50
 90
50
102
RTVSPost2010PropOp50
 70
0
102
RTVSPost2010Prop51ColorIndex
 90
256
102
RTVSPost2010Prop51ColorRGB
 90
-16777216
102
RTVSPost2010PropOp51
 70
0
102
RTVSPost2010Prop52
140
1.0
102
RTVSPost2010PropOp52
 70
0
102
RTVSPost2010Prop53
 90
2
102
RTVSPost2010PropOp53
 70
0
102
RTVSPost2010Prop54
  1
strokes_ogs.tif
102
RTVSPost2010PropOp54
 70
0
102
RTVSPost2010Prop55
280
0
102
RTVSPost2010PropOp55
 70
1
102
RTVSPost2010Prop56
140
1.0
102
RTVSPost2010PropOp56
 70
0
102
RTVSPost2010Prop57
140
1.0
102
RTVSPost2010PropOp57
 70
0
102
RTVSPropertyOp0
 70
0
102
RTVSPropertyOp1
 70
0
102
RTVSPropertyOp2
 70
0
102
RTVSPropertyOp3
 70
0
102
RTVSPropertyOp4
 70
0
102
RTVSPropertyOp5
 70
0
102
RTVSPropertyOp6
 70
0
102
RTVSPropertyOp7
 70
0
102
RTVSPropertyOp8
 70
0
102
RTVSPropertyOp9
 70
0
102
RTVSPropertyOp10
 70
0
102
RTVSPropertyOp11
 70
0
102
RTVSPropertyOp12
 70
0
102
RTVSPropertyOp13
 70
0
102
RTVSPropertyOp14
 70
2
102
RTVSPropertyOp15
 70
0
102
RTVSPropertyOp16
 70
0
102
RTVSPropertyOp17
 70
0
102
RTVSPropertyOp18
 70
0
102
RTVSPropertyOp19
 70
0
102
RTVSPropertyOp20
 70
0
102
RTVSPropertyOp21
 70
0
102
RTVSPropertyOp22
 70
0
102
RTVSPropertyOp23
 70
0
102
RTVSPropertyOp24
 70
0
102
RTVSPropertyOp25
 70
0
102
RTVSPropertyOp26
 70
0
102
RTVSPropertyOp27
 70
0
102
RTVSPropertyOp28
 70
1
102
RTVSPropertyOp29
 70
1
102
RTVSPropertyOp30
 70
1
102
RTVSPropertyOp31
 70
1
102
RTVSPropertyOp32
 70
1
102
RTVSPropertyOp33
 70
1
102
RTVSPropertyOp34
 70
1
102
RTVSPropertyOp35
 70
1
102
RTVSPropertyOp36
 70
1
102
RTVSPropertyOp37
 70
0
102
RTVSPropertyOp38
 70
0
102
RTVSPropertyOp39
 70
0
102
RTVSPropertyOp40
 70
0
102
RTVSPropertyOp41
 70
0
102
RTVSPropertyOp42
 70
0
102
RTVSPropertyOp43
 70
0
102
RTVSPropertyOp44
 70
0
102
RTVSPropertyOp45
 70
1
102
RTVSPropertyOp46
 70
0
102
RTVSPropertyOp47
 70
0
102
RTVSPropertyOp48
 70
0
102
RTVSPropertyOp49
 70
1
102
RTVSPropertyOp50
 70
0
102
RTVSPropertyOp51
 70
0
102
RTVSPropertyOp52
 70
0
102
RTVSPropertyOp53
 70
0
102
RTVSPropertyOp54
 70
0
102
RTVSPropertyOp55
 70
1
102
RTVSPropertyOp56
 70
0
102
RTVSPropertyOp57
 70
0
102
RTVSPropertyOp58
 70
0
102
RTVSPropertyOp59
 70
0
102
RTVSPropertyOp60
 70
0
102
RTVSPropertyOp61
 70
0
102
RTVSPropertyOp62
 70
0
  0
XRECORD
  5
A7E
102
{ACAD_REACTORS
330
A7D
102
}
330
A7D
100
AcDbXrecord
280
1
102
RTVSPost2010Prop28
280
0
102
RTVSPost2010PropOp28
 70
1
102
RTVSPost2010Prop29
280
1
102
RTVSPost2010PropOp29
 70
1
102
RTVSPost2010Prop30
280
1
102
RTVSPost2010PropOp30
 70
1
102
RTVSPost2010Prop31
280
0
102
RTVSPost2010PropOp31
 70
1
102
RTVSPost2010Prop32
280
0
102
RTVSPost2010PropOp32
 70
1
102
RTVSPost2010Prop33
280
0
102
RTVSPost2010PropOp33
 70
1
102
RTVSPost2010Prop34
280
0
102
RTVSPost2010PropOp34
 70
1
102
RTVSPost2010Prop35
280
0
102
RTVSPost2010PropOp35
 70
1
102
RTVSPost2010Prop36
280
0
102
RTVSPost2010PropOp36
 70
1
102
RTVSPost2010Prop37
 90
50
102
RTVSPost2010PropOp37
 70
1
102
RTVSPost2010Prop38
140
0.0
102
RTVSPost2010PropOp38
 70
1
102
RTVSPost2010Prop39
140
1.0
102
RTVSPost2010PropOp39
 70
1
102
RTVSPost2010Prop40
 90
0
102
RTVSPost2010PropOp40
 70
1
102
RTVSPost2010Prop41ColorIndex
 90
18
102
RTVSPost2010Prop41ColorRGB
 90
0
102
RTVSPost2010PropOp41
 70
1
102
RTVSPost2010Prop42
 90
50
102
RTVSPost2010PropOp42
 70
1
102
RTVSPost2010Prop43
 90
3
102
RTVSPost2010PropOp43
 70
1
102
RTVSPost2010Prop44ColorIndex
 90
5
102
RTVSPost2010Prop44ColorRGB
 90
255
102
RTVSPost2010PropOp44
 70
1
102
RTVSPost2010Prop45
280
0
102
RTVSPost2010PropOp45
 70
1
102
RTVSPost2010Prop46
 90
50
102
RTVSPost2010PropOp46
 70
1
102
RTVSPost2010Prop47
 90
50
102
RTVSPost2010PropOp47
 70
1
102
RTVSPost2010Prop48
 90
50
102
RTVSPost2010PropOp48
 70
1
102
RTVSPost2010Prop49
280
0
102
RTVSPost2010PropOp49
 70
1
102
RTVSPost2010Prop50
 90
50
102
RTVSPost2010PropOp50
 70
1
102
RTVSPost2010Prop51ColorIndex
 90
256
102
RTVSPost2010Prop51ColorRGB
 90
-16777216
102
RTVSPost2010PropOp51
 70
0
102
RTVSPost2010Prop52
140
1.0
102
RTVSPost2010PropOp52
 70
0
102
RTVSPost2010Prop53
 90
2
102
RTVSPost2010PropOp53
 70
1
102
RTVSPost2010Prop54
  1
strokes_ogs.tif
102
RTVSPost2010PropOp54
 70
1
102
RTVSPost2010Prop55
280
0
102
RTVSPost2010PropOp55
 70
1
102
RTVSPost2010Prop56
140
1.0
102
RTVSPost2010PropOp56
 70
1
102
RTVSPost2010Prop57
140
1.0
102
RTVSPost2010PropOp57
 70
1
102
RTVSPropertyOp0
 70
1
102
RTVSPropertyOp1
 70
1
102
RTVSPropertyOp2
 70
1
102
RTVSPropertyOp3
 70
1
102
RTVSPropertyOp4
 70
1
102
RTVSPropertyOp5
 70
1
102
RTVSPropertyOp6
 70
1
102
RTVSPropertyOp7
 70
1
102
RTVSPropertyOp8
 70
1
102
RTVSPropertyOp9
 70
1
102
RTVSPropertyOp10
 70
1
102
RTVSPropertyOp11
 70
1
102
RTVSPropertyOp12
 70
1
102
RTVSPropertyOp13
 70
1
102
RTVSPropertyOp14
 70
1
102
RTVSPropertyOp15
 70
1
102
RTVSPropertyOp16
 70
1
102
RTVSPropertyOp17
 70
1
102
RTVSPropertyOp18
 70
1
102
RTVSPropertyOp19
 70
1
102
RTVSPropertyOp20
 70
1
102
RTVSPropertyOp21
 70
1
102
RTVSPropertyOp22
 70
1
102
RTVSPropertyOp23
 70
1
102
RTVSPropertyOp24
 70
1
102
RTVSPropertyOp25
 70
1
102
RTVSPropertyOp26
 70
1
102
RTVSPropertyOp27
 70
1
102
RTVSPropertyOp28
 70
1
102
RTVSPropertyOp29
 70
1
102
RTVSPropertyOp30
 70
1
102
RTVSPropertyOp31
 70
1
102
RTVSPropertyOp32
 70
1
102
RTVSPropertyOp33
 70
1
102
RTVSPropertyOp34
 70
1
102
RTVSPropertyOp35
 70
1
102
RTVSPropertyOp36
 70
1
102
RTVSPropertyOp37
 70
1
102
RTVSPropertyOp38
 70
1
102
RTVSPropertyOp39
 70
1
102
RTVSPropertyOp40
 70
1
102
RTVSPropertyOp41
 70
1
102
RTVSPropertyOp42
 70
1
102
RTVSPropertyOp43
 70
1
102
RTVSPropertyOp44
 70
1
102
RTVSPropertyOp45
 70
1
102
RTVSPropertyOp46
 70
1
102
RTVSPropertyOp47
 70
1
102
RTVSPropertyOp48
 70
1
102
RTVSPropertyOp49
 70
1
102
RTVSPropertyOp50
 70
1
102
RTVSPropertyOp51
 70
0
102
RTVSPropertyOp52
 70
0
102
RTVSPropertyOp53
 70
1
102
RTVSPropertyOp54
 70
1
102
RTVSPropertyOp55
 70
1
102
RTVSPropertyOp56
 70
1
102
RTVSPropertyOp57
 70
1
102
RTVSPropertyOp58
 70
1
102
RTVSPropertyOp59
 70
1
102
RTVSPropertyOp60
 70
1
102
RTVSPropertyOp61
 70
1
102
RTVSPropertyOp62
 70
1
  0
XRECORD
  5
A90
102
{ACAD_REACTORS
330
A8F
102
}
330
A8F
100
AcDbXrecord
280
1
102
RTVSPost2010Prop28
280
0
102
RTVSPost2010PropOp28
 70
1
102
RTVSPost2010Prop29
280
1
102
RTVSPost2010PropOp29
 70
1
102
RTVSPost2010Prop30
280
1
102
RTVSPost2010PropOp30
 70
1
102
RTVSPost2010Prop31
280
0
102
RTVSPost2010PropOp31
 70
1
102
RTVSPost2010Prop32
280
0
102
RTVSPost2010PropOp32
 70
1
102
RTVSPost2010Prop33
280
0
102
RTVSPost2010PropOp33
 70
1
102
RTVSPost2010Prop34
280
0
102
RTVSPost2010PropOp34
 70
1
102
RTVSPost2010Prop35
280
0
102
RTVSPost2010PropOp35
 70
1
102
RTVSPost2010Prop36
280
0
102
RTVSPost2010PropOp36
 70
1
102
RTVSPost2010Prop37
 90
50
102
RTVSPost2010PropOp37
 70
0
102
RTVSPost2010Prop38
140
0.0
102
RTVSPost2010PropOp38
 70
0
102
RTVSPost2010Prop39
140
1.0
102
RTVSPost2010PropOp39
 70
0
102
RTVSPost2010Prop40
 90
0
102
RTVSPost2010PropOp40
 70
0
102
RTVSPost2010Prop41ColorIndex
 90
18
102
RTVSPost2010Prop41ColorRGB
 90
0
102
RTVSPost2010PropOp41
 70
0
102
RTVSPost2010Prop42
 90
50
102
RTVSPost2010PropOp42
 70
0
102
RTVSPost2010Prop43
 90
3
102
RTVSPost2010PropOp43
 70
0
102
RTVSPost2010Prop44ColorIndex
 90
5
102
RTVSPost2010Prop44ColorRGB
 90
255
102
RTVSPost2010PropOp44
 70
0
102
RTVSPost2010Prop45
280
0
102
RTVSPost2010PropOp45
 70
1
102
RTVSPost2010Prop46
 90
50
102
RTVSPost2010PropOp46
 70
0
102
RTVSPost2010Prop47
 90
50
102
RTVSPost2010PropOp47
 70
0
102
RTVSPost2010Prop48
 90
50
102
RTVSPost2010PropOp48
 70
0
102
RTVSPost2010Prop49
280
0
102
RTVSPost2010PropOp49
 70
1
102
RTVSPost2010Prop50
 90
50
102
RTVSPost2010PropOp50
 70
0
102
RTVSPost2010Prop51ColorIndex
 90
256
102
RTVSPost2010Prop51ColorRGB
 90
-16777216
102
RTVSPost2010PropOp51
 70
0
102
RTVSPost2010Prop52
140
1.0
102
RTVSPost2010PropOp52
 70
0
102
RTVSPost2010Prop53
 90
2
102
RTVSPost2010PropOp53
 70
0
102
RTVSPost2010Prop54
  1
strokes_ogs.tif
102
RTVSPost2010PropOp54
 70
0
102
RTVSPost2010Prop55
280
0
102
RTVSPost2010PropOp55
 70
1
102
RTVSPost2010Prop56
140
1.0
102
RTVSPost2010PropOp56
 70
0
102
RTVSPost2010Prop57
140
1.0
102
RTVSPost2010PropOp57
 70
0
102
RTVSPropertyOp0
 70
0
102
RTVSPropertyOp1
 70
0
102
RTVSPropertyOp2
 70
0
102
RTVSPropertyOp3
 70
0
102
RTVSPropertyOp4
 70
0
102
RTVSPropertyOp5
 70
0
102
RTVSPropertyOp6
 70
0
102
RTVSPropertyOp7
 70
0
102
RTVSPropertyOp8
 70
0
102
RTVSPropertyOp9
 70
0
102
RTVSPropertyOp10
 70
0
102
RTVSPropertyOp11
 70
0
102
RTVSPropertyOp12
 70
0
102
RTVSPropertyOp13
 70
0
102
RTVSPropertyOp14
 70
2
102
RTVSPropertyOp15
 70
0
102
RTVSPropertyOp16
 70
0
102
RTVSPropertyOp17
 70
0
102
RTVSPropertyOp18
 70
0
102
RTVSPropertyOp19
 70
0
102
RTVSPropertyOp20
 70
0
102
RTVSPropertyOp21
 70
0
102
RTVSPropertyOp22
 70
0
102
RTVSPropertyOp23
 70
0
102
RTVSPropertyOp24
 70
0
102
RTVSPropertyOp25
 70
0
102
RTVSPropertyOp26
 70
0
102
RTVSPropertyOp27
 70
0
102
RTVSPropertyOp28
 70
1
102
RTVSPropertyOp29
 70
1
102
RTVSPropertyOp30
 70
1
102
RTVSPropertyOp31
 70
1
102
RTVSPropertyOp32
 70
1
102
RTVSPropertyOp33
 70
1
102
RTVSPropertyOp34
 70
1
102
RTVSPropertyOp35
 70
1
102
RTVSPropertyOp36
 70
1
102
RTVSPropertyOp37
 70
0
102
RTVSPropertyOp38
 70
0
102
RTVSPropertyOp39
 70
0
102
RTVSPropertyOp40
 70
0
102
RTVSPropertyOp41
 70
0
102
RTVSPropertyOp42
 70
0
102
RTVSPropertyOp43
 70
0
102
RTVSPropertyOp44
 70
0
102
RTVSPropertyOp45
 70
1
102
RTVSPropertyOp46
 70
0
102
RTVSPropertyOp47
 70
0
102
RTVSPropertyOp48
 70
0
102
RTVSPropertyOp49
 70
1
102
RTVSPropertyOp50
 70
0
102
RTVSPropertyOp51
 70
0
102
RTVSPropertyOp52
 70
0
102
RTVSPropertyOp53
 70
0
102
RTVSPropertyOp54
 70
0
102
RTVSPropertyOp55
 70
1
102
RTVSPropertyOp56
 70
0
102
RTVSPropertyOp57
 70
0
102
RTVSPropertyOp58
 70
0
102
RTVSPropertyOp59
 70
0
102
RTVSPropertyOp60
 70
0
102
RTVSPropertyOp61
 70
0
102
RTVSPropertyOp62
 70
0
  0
XRECORD
  5
A76
102
{ACAD_REACTORS
330
A75
102
}
330
A75
100
AcDbXrecord
280
1
102
RTVSPost2010Prop28
280
0
102
RTVSPost2010PropOp28
 70
1
102
RTVSPost2010Prop29
280
1
102
RTVSPost2010PropOp29
 70
1
102
RTVSPost2010Prop30
280
1
102
RTVSPost2010PropOp30
 70
1
102
RTVSPost2010Prop31
280
0
102
RTVSPost2010PropOp31
 70
1
102
RTVSPost2010Prop32
280
0
102
RTVSPost2010PropOp32
 70
1
102
RTVSPost2010Prop33
280
0
102
RTVSPost2010PropOp33
 70
1
102
RTVSPost2010Prop34
280
0
102
RTVSPost2010PropOp34
 70
1
102
RTVSPost2010Prop35
280
0
102
RTVSPost2010PropOp35
 70
1
102
RTVSPost2010Prop36
280
0
102
RTVSPost2010PropOp36
 70
1
102
RTVSPost2010Prop37
 90
50
102
RTVSPost2010PropOp37
 70
1
102
RTVSPost2010Prop38
140
0.0
102
RTVSPost2010PropOp38
 70
1
102
RTVSPost2010Prop39
140
1.0
102
RTVSPost2010PropOp39
 70
1
102
RTVSPost2010Prop40
 90
0
102
RTVSPost2010PropOp40
 70
1
102
RTVSPost2010Prop41ColorIndex
 90
18
102
RTVSPost2010Prop41ColorRGB
 90
0
102
RTVSPost2010PropOp41
 70
1
102
RTVSPost2010Prop42
 90
50
102
RTVSPost2010PropOp42
 70
1
102
RTVSPost2010Prop43
 90
3
102
RTVSPost2010PropOp43
 70
1
102
RTVSPost2010Prop44ColorIndex
 90
5
102
RTVSPost2010Prop44ColorRGB
 90
255
102
RTVSPost2010PropOp44
 70
1
102
RTVSPost2010Prop45
280
0
102
RTVSPost2010PropOp45
 70
1
102
RTVSPost2010Prop46
 90
50
102
RTVSPost2010PropOp46
 70
1
102
RTVSPost2010Prop47
 90
50
102
RTVSPost2010PropOp47
 70
1
102
RTVSPost2010Prop48
 90
50
102
RTVSPost2010PropOp48
 70
1
102
RTVSPost2010Prop49
280
0
102
RTVSPost2010PropOp49
 70
1
102
RTVSPost2010Prop50
 90
50
102
RTVSPost2010PropOp50
 70
1
102
RTVSPost2010Prop51ColorIndex
 90
256
102
RTVSPost2010Prop51ColorRGB
 90
-16777216
102
RTVSPost2010PropOp51
 70
0
102
RTVSPost2010Prop52
140
1.0
102
RTVSPost2010PropOp52
 70
0
102
RTVSPost2010Prop53
 90
2
102
RTVSPost2010PropOp53
 70
1
102
RTVSPost2010Prop54
  1
strokes_ogs.tif
102
RTVSPost2010PropOp54
 70
1
102
RTVSPost2010Prop55
280
0
102
RTVSPost2010PropOp55
 70
1
102
RTVSPost2010Prop56
140
1.0
102
RTVSPost2010PropOp56
 70
1
102
RTVSPost2010Prop57
140
1.0
102
RTVSPost2010PropOp57
 70
1
102
RTVSPropertyOp0
 70
1
102
RTVSPropertyOp1
 70
1
102
RTVSPropertyOp2
 70
1
102
RTVSPropertyOp3
 70
1
102
RTVSPropertyOp4
 70
1
102
RTVSPropertyOp5
 70
1
102
RTVSPropertyOp6
 70
1
102
RTVSPropertyOp7
 70
1
102
RTVSPropertyOp8
 70
1
102
RTVSPropertyOp9
 70
1
102
RTVSPropertyOp10
 70
1
102
RTVSPropertyOp11
 70
1
102
RTVSPropertyOp12
 70
1
102
RTVSPropertyOp13
 70
1
102
RTVSPropertyOp14
 70
1
102
RTVSPropertyOp15
 70
1
102
RTVSPropertyOp16
 70
1
102
RTVSPropertyOp17
 70
1
102
RTVSPropertyOp18
 70
1
102
RTVSPropertyOp19
 70
1
102
RTVSPropertyOp20
 70
1
102
RTVSPropertyOp21
 70
1
102
RTVSPropertyOp22
 70
1
102
RTVSPropertyOp23
 70
1
102
RTVSPropertyOp24
 70
1
102
RTVSPropertyOp25
 70
1
102
RTVSPropertyOp26
 70
1
102
RTVSPropertyOp27
 70
1
102
RTVSPropertyOp28
 70
1
102
RTVSPropertyOp29
 70
1
102
RTVSPropertyOp30
 70
1
102
RTVSPropertyOp31
 70
1
102
RTVSPropertyOp32
 70
1
102
RTVSPropertyOp33
 70
1
102
RTVSPropertyOp34
 70
1
102
RTVSPropertyOp35
 70
1
102
RTVSPropertyOp36
 70
1
102
RTVSPropertyOp37
 70
1
102
RTVSPropertyOp38
 70
1
102
RTVSPropertyOp39
 70
1
102
RTVSPropertyOp40
 70
1
102
RTVSPropertyOp41
 70
1
102
RTVSPropertyOp42
 70
1
102
RTVSPropertyOp43
 70
1
102
RTVSPropertyOp44
 70
1
102
RTVSPropertyOp45
 70
1
102
RTVSPropertyOp46
 70
1
102
RTVSPropertyOp47
 70
1
102
RTVSPropertyOp48
 70
1
102
RTVSPropertyOp49
 70
1
102
RTVSPropertyOp50
 70
1
102
RTVSPropertyOp51
 70
0
102
RTVSPropertyOp52
 70
0
102
RTVSPropertyOp53
 70
1
102
RTVSPropertyOp54
 70
1
102
RTVSPropertyOp55
 70
1
102
RTVSPropertyOp56
 70
1
102
RTVSPropertyOp57
 70
1
102
RTVSPropertyOp58
 70
1
102
RTVSPropertyOp59
 70
1
102
RTVSPropertyOp60
 70
1
102
RTVSPropertyOp61
 70
1
102
RTVSPropertyOp62
 70
1
  0
XRECORD
  5
A8C
102
{ACAD_REACTORS
330
A8B
102
}
330
A8B
100
AcDbXrecord
280
1
102
RTVSPost2010Prop28
280
0
102
RTVSPost2010PropOp28
 70
1
102
RTVSPost2010Prop29
280
1
102
RTVSPost2010PropOp29
 70
1
102
RTVSPost2010Prop30
280
1
102
RTVSPost2010PropOp30
 70
1
102
RTVSPost2010Prop31
280
0
102
RTVSPost2010PropOp31
 70
1
102
RTVSPost2010Prop32
280
0
102
RTVSPost2010PropOp32
 70
1
102
RTVSPost2010Prop33
280
0
102
RTVSPost2010PropOp33
 70
1
102
RTVSPost2010Prop34
280
0
102
RTVSPost2010PropOp34
 70
1
102
RTVSPost2010Prop35
280
0
102
RTVSPost2010PropOp35
 70
1
102
RTVSPost2010Prop36
280
0
102
RTVSPost2010PropOp36
 70
1
102
RTVSPost2010Prop37
 90
50
102
RTVSPost2010PropOp37
 70
1
102
RTVSPost2010Prop38
140
0.0
102
RTVSPost2010PropOp38
 70
1
102
RTVSPost2010Prop39
140
1.0
102
RTVSPost2010PropOp39
 70
1
102
RTVSPost2010Prop40
 90
0
102
RTVSPost2010PropOp40
 70
1
102
RTVSPost2010Prop41ColorIndex
 90
18
102
RTVSPost2010Prop41ColorRGB
 90
0
102
RTVSPost2010PropOp41
 70
1
102
RTVSPost2010Prop42
 90
50
102
RTVSPost2010PropOp42
 70
1
102
RTVSPost2010Prop43
 90
3
102
RTVSPost2010PropOp43
 70
1
102
RTVSPost2010Prop44ColorIndex
 90
5
102
RTVSPost2010Prop44ColorRGB
 90
255
102
RTVSPost2010PropOp44
 70
1
102
RTVSPost2010Prop45
280
0
102
RTVSPost2010PropOp45
 70
1
102
RTVSPost2010Prop46
 90
50
102
RTVSPost2010PropOp46
 70
1
102
RTVSPost2010Prop47
 90
50
102
RTVSPost2010PropOp47
 70
1
102
RTVSPost2010Prop48
 90
50
102
RTVSPost2010PropOp48
 70
1
102
RTVSPost2010Prop49
280
0
102
RTVSPost2010PropOp49
 70
1
102
RTVSPost2010Prop50
 90
50
102
RTVSPost2010PropOp50
 70
1
102
RTVSPost2010Prop51ColorIndex
 90
256
102
RTVSPost2010Prop51ColorRGB
 90
-16777216
102
RTVSPost2010PropOp51
 70
0
102
RTVSPost2010Prop52
140
1.0
102
RTVSPost2010PropOp52
 70
0
102
RTVSPost2010Prop53
 90
2
102
RTVSPost2010PropOp53
 70
1
102
RTVSPost2010Prop54
  1
strokes_ogs.tif
102
RTVSPost2010PropOp54
 70
1
102
RTVSPost2010Prop55
280
0
102
RTVSPost2010PropOp55
 70
1
102
RTVSPost2010Prop56
140
1.0
102
RTVSPost2010PropOp56
 70
1
102
RTVSPost2010Prop57
140
1.0
102
RTVSPost2010PropOp57
 70
1
102
RTVSPropertyOp0
 70
1
102
RTVSPropertyOp1
 70
1
102
RTVSPropertyOp2
 70
1
102
RTVSPropertyOp3
 70
1
102
RTVSPropertyOp4
 70
1
102
RTVSPropertyOp5
 70
1
102
RTVSPropertyOp6
 70
1
102
RTVSPropertyOp7
 70
1
102
RTVSPropertyOp8
 70
1
102
RTVSPropertyOp9
 70
1
102
RTVSPropertyOp10
 70
1
102
RTVSPropertyOp11
 70
1
102
RTVSPropertyOp12
 70
1
102
RTVSPropertyOp13
 70
1
102
RTVSPropertyOp14
 70
1
102
RTVSPropertyOp15
 70
1
102
RTVSPropertyOp16
 70
1
102
RTVSPropertyOp17
 70
1
102
RTVSPropertyOp18
 70
1
102
RTVSPropertyOp19
 70
1
102
RTVSPropertyOp20
 70
1
102
RTVSPropertyOp21
 70
1
102
RTVSPropertyOp22
 70
1
102
RTVSPropertyOp23
 70
1
102
RTVSPropertyOp24
 70
1
102
RTVSPropertyOp25
 70
1
102
RTVSPropertyOp26
 70
1
102
RTVSPropertyOp27
 70
1
102
RTVSPropertyOp28
 70
1
102
RTVSPropertyOp29
 70
1
102
RTVSPropertyOp30
 70
1
102
RTVSPropertyOp31
 70
1
102
RTVSPropertyOp32
 70
1
102
RTVSPropertyOp33
 70
1
102
RTVSPropertyOp34
 70
1
102
RTVSPropertyOp35
 70
1
102
RTVSPropertyOp36
 70
1
102
RTVSPropertyOp37
 70
1
102
RTVSPropertyOp38
 70
1
102
RTVSPropertyOp39
 70
1
102
RTVSPropertyOp40
 70
1
102
RTVSPropertyOp41
 70
1
102
RTVSPropertyOp42
 70
1
102
RTVSPropertyOp43
 70
1
102
RTVSPropertyOp44
 70
1
102
RTVSPropertyOp45
 70
1
102
RTVSPropertyOp46
 70
1
102
RTVSPropertyOp47
 70
1
102
RTVSPropertyOp48
 70
1
102
RTVSPropertyOp49
 70
1
102
RTVSPropertyOp50
 70
1
102
RTVSPropertyOp51
 70
0
102
RTVSPropertyOp52
 70
0
102
RTVSPropertyOp53
 70
1
102
RTVSPropertyOp54
 70
1
102
RTVSPropertyOp55
 70
1
102
RTVSPropertyOp56
 70
1
102
RTVSPropertyOp57
 70
1
102
RTVSPropertyOp58
 70
1
102
RTVSPropertyOp59
 70
1
102
RTVSPropertyOp60
 70
1
102
RTVSPropertyOp61
 70
1
102
RTVSPropertyOp62
 70
1
  0
XRECORD
  5
A8A
102
{ACAD_REACTORS
330
A89
102
}
330
A89
100
AcDbXrecord
280
1
102
RTVSPost2010Prop28
280
0
102
RTVSPost2010PropOp28
 70
1
102
RTVSPost2010Prop29
280
1
102
RTVSPost2010PropOp29
 70
1
102
RTVSPost2010Prop30
280
1
102
RTVSPost2010PropOp30
 70
1
102
RTVSPost2010Prop31
280
0
102
RTVSPost2010PropOp31
 70
1
102
RTVSPost2010Prop32
280
0
102
RTVSPost2010PropOp32
 70
1
102
RTVSPost2010Prop33
280
0
102
RTVSPost2010PropOp33
 70
1
102
RTVSPost2010Prop34
280
0
102
RTVSPost2010PropOp34
 70
1
102
RTVSPost2010Prop35
280
0
102
RTVSPost2010PropOp35
 70
1
102
RTVSPost2010Prop36
280
0
102
RTVSPost2010PropOp36
 70
1
102
RTVSPost2010Prop37
 90
50
102
RTVSPost2010PropOp37
 70
1
102
RTVSPost2010Prop38
140
0.0
102
RTVSPost2010PropOp38
 70
1
102
RTVSPost2010Prop39
140
1.0
102
RTVSPost2010PropOp39
 70
1
102
RTVSPost2010Prop40
 90
0
102
RTVSPost2010PropOp40
 70
1
102
RTVSPost2010Prop41ColorIndex
 90
18
102
RTVSPost2010Prop41ColorRGB
 90
0
102
RTVSPost2010PropOp41
 70
1
102
RTVSPost2010Prop42
 90
50
102
RTVSPost2010PropOp42
 70
1
102
RTVSPost2010Prop43
 90
3
102
RTVSPost2010PropOp43
 70
1
102
RTVSPost2010Prop44ColorIndex
 90
5
102
RTVSPost2010Prop44ColorRGB
 90
255
102
RTVSPost2010PropOp44
 70
1
102
RTVSPost2010Prop45
280
0
102
RTVSPost2010PropOp45
 70
1
102
RTVSPost2010Prop46
 90
50
102
RTVSPost2010PropOp46
 70
1
102
RTVSPost2010Prop47
 90
50
102
RTVSPost2010PropOp47
 70
1
102
RTVSPost2010Prop48
 90
50
102
RTVSPost2010PropOp48
 70
1
102
RTVSPost2010Prop49
280
0
102
RTVSPost2010PropOp49
 70
1
102
RTVSPost2010Prop50
 90
50
102
RTVSPost2010PropOp50
 70
1
102
RTVSPost2010Prop51ColorIndex
 90
256
102
RTVSPost2010Prop51ColorRGB
 90
-16777216
102
RTVSPost2010PropOp51
 70
0
102
RTVSPost2010Prop52
140
1.0
102
RTVSPost2010PropOp52
 70
0
102
RTVSPost2010Prop53
 90
2
102
RTVSPost2010PropOp53
 70
1
102
RTVSPost2010Prop54
  1
strokes_ogs.tif
102
RTVSPost2010PropOp54
 70
1
102
RTVSPost2010Prop55
280
0
102
RTVSPost2010PropOp55
 70
1
102
RTVSPost2010Prop56
140
1.0
102
RTVSPost2010PropOp56
 70
1
102
RTVSPost2010Prop57
140
1.0
102
RTVSPost2010PropOp57
 70
1
102
RTVSPropertyOp0
 70
1
102
RTVSPropertyOp1
 70
1
102
RTVSPropertyOp2
 70
1
102
RTVSPropertyOp3
 70
1
102
RTVSPropertyOp4
 70
1
102
RTVSPropertyOp5
 70
1
102
RTVSPropertyOp6
 70
1
102
RTVSPropertyOp7
 70
1
102
RTVSPropertyOp8
 70
1
102
RTVSPropertyOp9
 70
1
102
RTVSPropertyOp10
 70
1
102
RTVSPropertyOp11
 70
1
102
RTVSPropertyOp12
 70
1
102
RTVSPropertyOp13
 70
1
102
RTVSPropertyOp14
 70
1
102
RTVSPropertyOp15
 70
1
102
RTVSPropertyOp16
 70
1
102
RTVSPropertyOp17
 70
1
102
RTVSPropertyOp18
 70
1
102
RTVSPropertyOp19
 70
1
102
RTVSPropertyOp20
 70
1
102
RTVSPropertyOp21
 70
1
102
RTVSPropertyOp22
 70
1
102
RTVSPropertyOp23
 70
1
102
RTVSPropertyOp24
 70
1
102
RTVSPropertyOp25
 70
1
102
RTVSPropertyOp26
 70
1
102
RTVSPropertyOp27
 70
1
102
RTVSPropertyOp28
 70
1
102
RTVSPropertyOp29
 70
1
102
RTVSPropertyOp30
 70
1
102
RTVSPropertyOp31
 70
1
102
RTVSPropertyOp32
 70
1
102
RTVSPropertyOp33
 70
1
102
RTVSPropertyOp34
 70
1
102
RTVSPropertyOp35
 70
1
102
RTVSPropertyOp36
 70
1
102
RTVSPropertyOp37
 70
1
102
RTVSPropertyOp38
 70
1
102
RTVSPropertyOp39
 70
1
102
RTVSPropertyOp40
 70
1
102
RTVSPropertyOp41
 70
1
102
RTVSPropertyOp42
 70
1
102
RTVSPropertyOp43
 70
1
102
RTVSPropertyOp44
 70
1
102
RTVSPropertyOp45
 70
1
102
RTVSPropertyOp46
 70
1
102
RTVSPropertyOp47
 70
1
102
RTVSPropertyOp48
 70
1
102
RTVSPropertyOp49
 70
1
102
RTVSPropertyOp50
 70
1
102
RTVSPropertyOp51
 70
0
102
RTVSPropertyOp52
 70
0
102
RTVSPropertyOp53
 70
1
102
RTVSPropertyOp54
 70
1
102
RTVSPropertyOp55
 70
1
102
RTVSPropertyOp56
 70
1
102
RTVSPropertyOp57
 70
1
102
RTVSPropertyOp58
 70
1
102
RTVSPropertyOp59
 70
1
102
RTVSPropertyOp60
 70
1
102
RTVSPropertyOp61
 70
1
102
RTVSPropertyOp62
 70
1
  0
XRECORD
  5
A84
102
{ACAD_REACTORS
330
A83
102
}
330
A83
100
AcDbXrecord
280
1
102
RTVSPost2010Prop28
280
0
102
RTVSPost2010PropOp28
 70
1
102
RTVSPost2010Prop29
280
1
102
RTVSPost2010PropOp29
 70
1
102
RTVSPost2010Prop30
280
1
102
RTVSPost2010PropOp30
 70
1
102
RTVSPost2010Prop31
280
0
102
RTVSPost2010PropOp31
 70
1
102
RTVSPost2010Prop32
280
0
102
RTVSPost2010PropOp32
 70
1
102
RTVSPost2010Prop33
280
0
102
RTVSPost2010PropOp33
 70
1
102
RTVSPost2010Prop34
280
0
102
RTVSPost2010PropOp34
 70
1
102
RTVSPost2010Prop35
280
0
102
RTVSPost2010PropOp35
 70
1
102
RTVSPost2010Prop36
280
0
102
RTVSPost2010PropOp36
 70
1
102
RTVSPost2010Prop37
 90
50
102
RTVSPost2010PropOp37
 70
1
102
RTVSPost2010Prop38
140
0.0
102
RTVSPost2010PropOp38
 70
1
102
RTVSPost2010Prop39
140
1.0
102
RTVSPost2010PropOp39
 70
1
102
RTVSPost2010Prop40
 90
0
102
RTVSPost2010PropOp40
 70
1
102
RTVSPost2010Prop41ColorIndex
 90
18
102
RTVSPost2010Prop41ColorRGB
 90
0
102
RTVSPost2010PropOp41
 70
1
102
RTVSPost2010Prop42
 90
50
102
RTVSPost2010PropOp42
 70
1
102
RTVSPost2010Prop43
 90
3
102
RTVSPost2010PropOp43
 70
1
102
RTVSPost2010Prop44ColorIndex
 90
5
102
RTVSPost2010Prop44ColorRGB
 90
255
102
RTVSPost2010PropOp44
 70
1
102
RTVSPost2010Prop45
280
0
102
RTVSPost2010PropOp45
 70
1
102
RTVSPost2010Prop46
 90
50
102
RTVSPost2010PropOp46
 70
1
102
RTVSPost2010Prop47
 90
50
102
RTVSPost2010PropOp47
 70
1
102
RTVSPost2010Prop48
 90
50
102
RTVSPost2010PropOp48
 70
1
102
RTVSPost2010Prop49
280
0
102
RTVSPost2010PropOp49
 70
1
102
RTVSPost2010Prop50
 90
50
102
RTVSPost2010PropOp50
 70
1
102
RTVSPost2010Prop51ColorIndex
 90
256
102
RTVSPost2010Prop51ColorRGB
 90
-16777216
102
RTVSPost2010PropOp51
 70
0
102
RTVSPost2010Prop52
140
1.0
102
RTVSPost2010PropOp52
 70
0
102
RTVSPost2010Prop53
 90
2
102
RTVSPost2010PropOp53
 70
1
102
RTVSPost2010Prop54
  1
strokes_ogs.tif
102
RTVSPost2010PropOp54
 70
1
102
RTVSPost2010Prop55
280
0
102
RTVSPost2010PropOp55
 70
1
102
RTVSPost2010Prop56
140
1.0
102
RTVSPost2010PropOp56
 70
1
102
RTVSPost2010Prop57
140
1.0
102
RTVSPost2010PropOp57
 70
1
102
RTVSPropertyOp0
 70
1
102
RTVSPropertyOp1
 70
1
102
RTVSPropertyOp2
 70
1
102
RTVSPropertyOp3
 70
1
102
RTVSPropertyOp4
 70
1
102
RTVSPropertyOp5
 70
1
102
RTVSPropertyOp6
 70
1
102
RTVSPropertyOp7
 70
1
102
RTVSPropertyOp8
 70
1
102
RTVSPropertyOp9
 70
1
102
RTVSPropertyOp10
 70
1
102
RTVSPropertyOp11
 70
1
102
RTVSPropertyOp12
 70
1
102
RTVSPropertyOp13
 70
1
102
RTVSPropertyOp14
 70
1
102
RTVSPropertyOp15
 70
1
102
RTVSPropertyOp16
 70
1
102
RTVSPropertyOp17
 70
1
102
RTVSPropertyOp18
 70
1
102
RTVSPropertyOp19
 70
1
102
RTVSPropertyOp20
 70
1
102
RTVSPropertyOp21
 70
1
102
RTVSPropertyOp22
 70
1
102
RTVSPropertyOp23
 70
1
102
RTVSPropertyOp24
 70
1
102
RTVSPropertyOp25
 70
1
102
RTVSPropertyOp26
 70
1
102
RTVSPropertyOp27
 70
1
102
RTVSPropertyOp28
 70
1
102
RTVSPropertyOp29
 70
1
102
RTVSPropertyOp30
 70
1
102
RTVSPropertyOp31
 70
1
102
RTVSPropertyOp32
 70
1
102
RTVSPropertyOp33
 70
1
102
RTVSPropertyOp34
 70
1
102
RTVSPropertyOp35
 70
1
102
RTVSPropertyOp36
 70
1
102
RTVSPropertyOp37
 70
1
102
RTVSPropertyOp38
 70
1
102
RTVSPropertyOp39
 70
1
102
RTVSPropertyOp40
 70
1
102
RTVSPropertyOp41
 70
1
102
RTVSPropertyOp42
 70
1
102
RTVSPropertyOp43
 70
1
102
RTVSPropertyOp44
 70
1
102
RTVSPropertyOp45
 70
1
102
RTVSPropertyOp46
 70
1
102
RTVSPropertyOp47
 70
1
102
RTVSPropertyOp48
 70
1
102
RTVSPropertyOp49
 70
1
102
RTVSPropertyOp50
 70
1
102
RTVSPropertyOp51
 70
0
102
RTVSPropertyOp52
 70
0
102
RTVSPropertyOp53
 70
1
102
RTVSPropertyOp54
 70
1
102
RTVSPropertyOp55
 70
1
102
RTVSPropertyOp56
 70
1
102
RTVSPropertyOp57
 70
1
102
RTVSPropertyOp58
 70
1
102
RTVSPropertyOp59
 70
1
102
RTVSPropertyOp60
 70
1
102
RTVSPropertyOp61
 70
1
102
RTVSPropertyOp62
 70
1
  0
XRECORD
  5
A86
102
{ACAD_REACTORS
330
A85
102
}
330
A85
100
AcDbXrecord
280
1
102
RTVSPost2010Prop28
280
0
102
RTVSPost2010PropOp28
 70
1
102
RTVSPost2010Prop29
280
1
102
RTVSPost2010PropOp29
 70
1
102
RTVSPost2010Prop30
280
1
102
RTVSPost2010PropOp30
 70
1
102
RTVSPost2010Prop31
280
0
102
RTVSPost2010PropOp31
 70
1
102
RTVSPost2010Prop32
280
0
102
RTVSPost2010PropOp32
 70
1
102
RTVSPost2010Prop33
280
0
102
RTVSPost2010PropOp33
 70
1
102
RTVSPost2010Prop34
280
0
102
RTVSPost2010PropOp34
 70
1
102
RTVSPost2010Prop35
280
0
102
RTVSPost2010PropOp35
 70
1
102
RTVSPost2010Prop36
280
0
102
RTVSPost2010PropOp36
 70
1
102
RTVSPost2010Prop37
 90
50
102
RTVSPost2010PropOp37
 70
1
102
RTVSPost2010Prop38
140
0.0
102
RTVSPost2010PropOp38
 70
1
102
RTVSPost2010Prop39
140
1.0
102
RTVSPost2010PropOp39
 70
1
102
RTVSPost2010Prop40
 90
0
102
RTVSPost2010PropOp40
 70
1
102
RTVSPost2010Prop41ColorIndex
 90
18
102
RTVSPost2010Prop41ColorRGB
 90
0
102
RTVSPost2010PropOp41
 70
1
102
RTVSPost2010Prop42
 90
50
102
RTVSPost2010PropOp42
 70
1
102
RTVSPost2010Prop43
 90
3
102
RTVSPost2010PropOp43
 70
1
102
RTVSPost2010Prop44ColorIndex
 90
5
102
RTVSPost2010Prop44ColorRGB
 90
255
102
RTVSPost2010PropOp44
 70
1
102
RTVSPost2010Prop45
280
0
102
RTVSPost2010PropOp45
 70
1
102
RTVSPost2010Prop46
 90
50
102
RTVSPost2010PropOp46
 70
1
102
RTVSPost2010Prop47
 90
50
102
RTVSPost2010PropOp47
 70
1
102
RTVSPost2010Prop48
 90
50
102
RTVSPost2010PropOp48
 70
1
102
RTVSPost2010Prop49
280
0
102
RTVSPost2010PropOp49
 70
1
102
RTVSPost2010Prop50
 90
50
102
RTVSPost2010PropOp50
 70
1
102
RTVSPost2010Prop51ColorIndex
 90
256
102
RTVSPost2010Prop51ColorRGB
 90
-16777216
102
RTVSPost2010PropOp51
 70
0
102
RTVSPost2010Prop52
140
1.0
102
RTVSPost2010PropOp52
 70
0
102
RTVSPost2010Prop53
 90
2
102
RTVSPost2010PropOp53
 70
1
102
RTVSPost2010Prop54
  1
strokes_ogs.tif
102
RTVSPost2010PropOp54
 70
1
102
RTVSPost2010Prop55
280
0
102
RTVSPost2010PropOp55
 70
1
102
RTVSPost2010Prop56
140
1.0
102
RTVSPost2010PropOp56
 70
1
102
RTVSPost2010Prop57
140
1.0
102
RTVSPost2010PropOp57
 70
1
102
RTVSPropertyOp0
 70
1
102
RTVSPropertyOp1
 70
1
102
RTVSPropertyOp2
 70
1
102
RTVSPropertyOp3
 70
1
102
RTVSPropertyOp4
 70
1
102
RTVSPropertyOp5
 70
1
102
RTVSPropertyOp6
 70
1
102
RTVSPropertyOp7
 70
1
102
RTVSPropertyOp8
 70
1
102
RTVSPropertyOp9
 70
1
102
RTVSPropertyOp10
 70
1
102
RTVSPropertyOp11
 70
1
102
RTVSPropertyOp12
 70
1
102
RTVSPropertyOp13
 70
1
102
RTVSPropertyOp14
 70
1
102
RTVSPropertyOp15
 70
1
102
RTVSPropertyOp16
 70
1
102
RTVSPropertyOp17
 70
1
102
RTVSPropertyOp18
 70
1
102
RTVSPropertyOp19
 70
1
102
RTVSPropertyOp20
 70
1
102
RTVSPropertyOp21
 70
1
102
RTVSPropertyOp22
 70
1
102
RTVSPropertyOp23
 70
1
102
RTVSPropertyOp24
 70
1
102
RTVSPropertyOp25
 70
1
102
RTVSPropertyOp26
 70
1
102
RTVSPropertyOp27
 70
1
102
RTVSPropertyOp28
 70
1
102
RTVSPropertyOp29
 70
1
102
RTVSPropertyOp30
 70
1
102
RTVSPropertyOp31
 70
1
102
RTVSPropertyOp32
 70
1
102
RTVSPropertyOp33
 70
1
102
RTVSPropertyOp34
 70
1
102
RTVSPropertyOp35
 70
1
102
RTVSPropertyOp36
 70
1
102
RTVSPropertyOp37
 70
1
102
RTVSPropertyOp38
 70
1
102
RTVSPropertyOp39
 70
1
102
RTVSPropertyOp40
 70
1
102
RTVSPropertyOp41
 70
1
102
RTVSPropertyOp42
 70
1
102
RTVSPropertyOp43
 70
1
102
RTVSPropertyOp44
 70
1
102
RTVSPropertyOp45
 70
1
102
RTVSPropertyOp46
 70
1
102
RTVSPropertyOp47
 70
1
102
RTVSPropertyOp48
 70
1
102
RTVSPropertyOp49
 70
1
102
RTVSPropertyOp50
 70
1
102
RTVSPropertyOp51
 70
0
102
RTVSPropertyOp52
 70
0
102
RTVSPropertyOp53
 70
1
102
RTVSPropertyOp54
 70
1
102
RTVSPropertyOp55
 70
1
102
RTVSPropertyOp56
 70
1
102
RTVSPropertyOp57
 70
1
102
RTVSPropertyOp58
 70
1
102
RTVSPropertyOp59
 70
1
102
RTVSPropertyOp60
 70
1
102
RTVSPropertyOp61
 70
1
102
RTVSPropertyOp62
 70
1
  0
XRECORD
  5
A7C
102
{ACAD_REACTORS
330
A7B
102
}
330
A7B
100
AcDbXrecord
280
1
102
RTVSPost2010Prop28
280
0
102
RTVSPost2010PropOp28
 70
1
102
RTVSPost2010Prop29
280
1
102
RTVSPost2010PropOp29
 70
1
102
RTVSPost2010Prop30
280
1
102
RTVSPost2010PropOp30
 70
1
102
RTVSPost2010Prop31
280
0
102
RTVSPost2010PropOp31
 70
1
102
RTVSPost2010Prop32
280
0
102
RTVSPost2010PropOp32
 70
1
102
RTVSPost2010Prop33
280
0
102
RTVSPost2010PropOp33
 70
1
102
RTVSPost2010Prop34
280
0
102
RTVSPost2010PropOp34
 70
1
102
RTVSPost2010Prop35
280
0
102
RTVSPost2010PropOp35
 70
1
102
RTVSPost2010Prop36
280
0
102
RTVSPost2010PropOp36
 70
1
102
RTVSPost2010Prop37
 90
50
102
RTVSPost2010PropOp37
 70
1
102
RTVSPost2010Prop38
140
0.0
102
RTVSPost2010PropOp38
 70
1
102
RTVSPost2010Prop39
140
1.0
102
RTVSPost2010PropOp39
 70
1
102
RTVSPost2010Prop40
 90
0
102
RTVSPost2010PropOp40
 70
1
102
RTVSPost2010Prop41ColorIndex
 90
18
102
RTVSPost2010Prop41ColorRGB
 90
0
102
RTVSPost2010PropOp41
 70
1
102
RTVSPost2010Prop42
 90
50
102
RTVSPost2010PropOp42
 70
1
102
RTVSPost2010Prop43
 90
3
102
RTVSPost2010PropOp43
 70
1
102
RTVSPost2010Prop44ColorIndex
 90
5
102
RTVSPost2010Prop44ColorRGB
 90
255
102
RTVSPost2010PropOp44
 70
1
102
RTVSPost2010Prop45
280
0
102
RTVSPost2010PropOp45
 70
1
102
RTVSPost2010Prop46
 90
50
102
RTVSPost2010PropOp46
 70
1
102
RTVSPost2010Prop47
 90
50
102
RTVSPost2010PropOp47
 70
1
102
RTVSPost2010Prop48
 90
50
102
RTVSPost2010PropOp48
 70
1
102
RTVSPost2010Prop49
280
0
102
RTVSPost2010PropOp49
 70
1
102
RTVSPost2010Prop50
 90
50
102
RTVSPost2010PropOp50
 70
1
102
RTVSPost2010Prop51ColorIndex
 90
256
102
RTVSPost2010Prop51ColorRGB
 90
-16777216
102
RTVSPost2010PropOp51
 70
0
102
RTVSPost2010Prop52
140
1.0
102
RTVSPost2010PropOp52
 70
0
102
RTVSPost2010Prop53
 90
2
102
RTVSPost2010PropOp53
 70
1
102
RTVSPost2010Prop54
  1
strokes_ogs.tif
102
RTVSPost2010PropOp54
 70
1
102
RTVSPost2010Prop55
280
0
102
RTVSPost2010PropOp55
 70
1
102
RTVSPost2010Prop56
140
1.0
102
RTVSPost2010PropOp56
 70
1
102
RTVSPost2010Prop57
140
1.0
102
RTVSPost2010PropOp57
 70
1
102
RTVSPropertyOp0
 70
1
102
RTVSPropertyOp1
 70
1
102
RTVSPropertyOp2
 70
1
102
RTVSPropertyOp3
 70
1
102
RTVSPropertyOp4
 70
1
102
RTVSPropertyOp5
 70
1
102
RTVSPropertyOp6
 70
1
102
RTVSPropertyOp7
 70
1
102
RTVSPropertyOp8
 70
1
102
RTVSPropertyOp9
 70
1
102
RTVSPropertyOp10
 70
1
102
RTVSPropertyOp11
 70
1
102
RTVSPropertyOp12
 70
1
102
RTVSPropertyOp13
 70
1
102
RTVSPropertyOp14
 70
1
102
RTVSPropertyOp15
 70
1
102
RTVSPropertyOp16
 70
1
102
RTVSPropertyOp17
 70
1
102
RTVSPropertyOp18
 70
1
102
RTVSPropertyOp19
 70
1
102
RTVSPropertyOp20
 70
1
102
RTVSPropertyOp21
 70
1
102
RTVSPropertyOp22
 70
1
102
RTVSPropertyOp23
 70
1
102
RTVSPropertyOp24
 70
1
102
RTVSPropertyOp25
 70
1
102
RTVSPropertyOp26
 70
1
102
RTVSPropertyOp27
 70
1
102
RTVSPropertyOp28
 70
1
102
RTVSPropertyOp29
 70
1
102
RTVSPropertyOp30
 70
1
102
RTVSPropertyOp31
 70
1
102
RTVSPropertyOp32
 70
1
102
RTVSPropertyOp33
 70
1
102
RTVSPropertyOp34
 70
1
102
RTVSPropertyOp35
 70
1
102
RTVSPropertyOp36
 70
1
102
RTVSPropertyOp37
 70
1
102
RTVSPropertyOp38
 70
1
102
RTVSPropertyOp39
 70
1
102
RTVSPropertyOp40
 70
1
102
RTVSPropertyOp41
 70
1
102
RTVSPropertyOp42
 70
1
102
RTVSPropertyOp43
 70
1
102
RTVSPropertyOp44
 70
1
102
RTVSPropertyOp45
 70
1
102
RTVSPropertyOp46
 70
1
102
RTVSPropertyOp47
 70
1
102
RTVSPropertyOp48
 70
1
102
RTVSPropertyOp49
 70
1
102
RTVSPropertyOp50
 70
1
102
RTVSPropertyOp51
 70
0
102
RTVSPropertyOp52
 70
0
102
RTVSPropertyOp53
 70
1
102
RTVSPropertyOp54
 70
1
102
RTVSPropertyOp55
 70
1
102
RTVSPropertyOp56
 70
1
102
RTVSPropertyOp57
 70
1
102
RTVSPropertyOp58
 70
1
102
RTVSPropertyOp59
 70
1
102
RTVSPropertyOp60
 70
1
102
RTVSPropertyOp61
 70
1
102
RTVSPropertyOp62
 70
1
  0
XRECORD
  5
A70
102
{ACAD_REACTORS
330
A6F
102
}
330
A6F
100
AcDbXrecord
280
1
102
RTVSPost2010Prop28
280
0
102
RTVSPost2010PropOp28
 70
1
102
RTVSPost2010Prop29
280
1
102
RTVSPost2010PropOp29
 70
1
102
RTVSPost2010Prop30
280
1
102
RTVSPost2010PropOp30
 70
1
102
RTVSPost2010Prop31
280
0
102
RTVSPost2010PropOp31
 70
1
102
RTVSPost2010Prop32
280
0
102
RTVSPost2010PropOp32
 70
1
102
RTVSPost2010Prop33
280
0
102
RTVSPost2010PropOp33
 70
1
102
RTVSPost2010Prop34
280
0
102
RTVSPost2010PropOp34
 70
1
102
RTVSPost2010Prop35
280
0
102
RTVSPost2010PropOp35
 70
1
102
RTVSPost2010Prop36
280
0
102
RTVSPost2010PropOp36
 70
1
102
RTVSPost2010Prop37
 90
50
102
RTVSPost2010PropOp37
 70
1
102
RTVSPost2010Prop38
140
0.0
102
RTVSPost2010PropOp38
 70
1
102
RTVSPost2010Prop39
140
1.0
102
RTVSPost2010PropOp39
 70
1
102
RTVSPost2010Prop40
 90
0
102
RTVSPost2010PropOp40
 70
1
102
RTVSPost2010Prop41ColorIndex
 90
18
102
RTVSPost2010Prop41ColorRGB
 90
0
102
RTVSPost2010PropOp41
 70
1
102
RTVSPost2010Prop42
 90
50
102
RTVSPost2010PropOp42
 70
1
102
RTVSPost2010Prop43
 90
3
102
RTVSPost2010PropOp43
 70
1
102
RTVSPost2010Prop44ColorIndex
 90
5
102
RTVSPost2010Prop44ColorRGB
 90
255
102
RTVSPost2010PropOp44
 70
1
102
RTVSPost2010Prop45
280
0
102
RTVSPost2010PropOp45
 70
1
102
RTVSPost2010Prop46
 90
50
102
RTVSPost2010PropOp46
 70
1
102
RTVSPost2010Prop47
 90
50
102
RTVSPost2010PropOp47
 70
1
102
RTVSPost2010Prop48
 90
50
102
RTVSPost2010PropOp48
 70
1
102
RTVSPost2010Prop49
280
0
102
RTVSPost2010PropOp49
 70
1
102
RTVSPost2010Prop50
 90
50
102
RTVSPost2010PropOp50
 70
1
102
RTVSPost2010Prop51ColorIndex
 90
256
102
RTVSPost2010Prop51ColorRGB
 90
-16777216
102
RTVSPost2010PropOp51
 70
0
102
RTVSPost2010Prop52
140
1.0
102
RTVSPost2010PropOp52
 70
0
102
RTVSPost2010Prop53
 90
2
102
RTVSPost2010PropOp53
 70
1
102
RTVSPost2010Prop54
  1
strokes_ogs.tif
102
RTVSPost2010PropOp54
 70
1
102
RTVSPost2010Prop55
280
0
102
RTVSPost2010PropOp55
 70
1
102
RTVSPost2010Prop56
140
1.0
102
RTVSPost2010PropOp56
 70
1
102
RTVSPost2010Prop57
140
1.0
102
RTVSPost2010PropOp57
 70
1
102
RTVSPropertyOp0
 70
1
102
RTVSPropertyOp1
 70
1
102
RTVSPropertyOp2
 70
1
102
RTVSPropertyOp3
 70
1
102
RTVSPropertyOp4
 70
1
102
RTVSPropertyOp5
 70
1
102
RTVSPropertyOp6
 70
1
102
RTVSPropertyOp7
 70
1
102
RTVSPropertyOp8
 70
1
102
RTVSPropertyOp9
 70
1
102
RTVSPropertyOp10
 70
1
102
RTVSPropertyOp11
 70
1
102
RTVSPropertyOp12
 70
1
102
RTVSPropertyOp13
 70
1
102
RTVSPropertyOp14
 70
1
102
RTVSPropertyOp15
 70
1
102
RTVSPropertyOp16
 70
1
102
RTVSPropertyOp17
 70
1
102
RTVSPropertyOp18
 70
1
102
RTVSPropertyOp19
 70
1
102
RTVSPropertyOp20
 70
1
102
RTVSPropertyOp21
 70
1
102
RTVSPropertyOp22
 70
1
102
RTVSPropertyOp23
 70
1
102
RTVSPropertyOp24
 70
1
102
RTVSPropertyOp25
 70
1
102
RTVSPropertyOp26
 70
1
102
RTVSPropertyOp27
 70
1
102
RTVSPropertyOp28
 70
1
102
RTVSPropertyOp29
 70
1
102
RTVSPropertyOp30
 70
1
102
RTVSPropertyOp31
 70
1
102
RTVSPropertyOp32
 70
1
102
RTVSPropertyOp33
 70
1
102
RTVSPropertyOp34
 70
1
102
RTVSPropertyOp35
 70
1
102
RTVSPropertyOp36
 70
1
102
RTVSPropertyOp37
 70
1
102
RTVSPropertyOp38
 70
1
102
RTVSPropertyOp39
 70
1
102
RTVSPropertyOp40
 70
1
102
RTVSPropertyOp41
 70
1
102
RTVSPropertyOp42
 70
1
102
RTVSPropertyOp43
 70
1
102
RTVSPropertyOp44
 70
1
102
RTVSPropertyOp45
 70
1
102
RTVSPropertyOp46
 70
1
102
RTVSPropertyOp47
 70
1
102
RTVSPropertyOp48
 70
1
102
RTVSPropertyOp49
 70
1
102
RTVSPropertyOp50
 70
1
102
RTVSPropertyOp51
 70
0
102
RTVSPropertyOp52
 70
0
102
RTVSPropertyOp53
 70
1
102
RTVSPropertyOp54
 70
1
102
RTVSPropertyOp55
 70
1
102
RTVSPropertyOp56
 70
1
102
RTVSPropertyOp57
 70
1
102
RTVSPropertyOp58
 70
1
102
RTVSPropertyOp59
 70
1
102
RTVSPropertyOp60
 70
1
102
RTVSPropertyOp61
 70
1
102
RTVSPropertyOp62
 70
1
  0
XRECORD
  5
A88
102
{ACAD_REACTORS
330
A87
102
}
330
A87
100
AcDbXrecord
280
1
102
RTVSPost2010Prop28
280
0
102
RTVSPost2010PropOp28
 70
1
102
RTVSPost2010Prop29
280
1
102
RTVSPost2010PropOp29
 70
1
102
RTVSPost2010Prop30
280
1
102
RTVSPost2010PropOp30
 70
1
102
RTVSPost2010Prop31
280
0
102
RTVSPost2010PropOp31
 70
1
102
RTVSPost2010Prop32
280
0
102
RTVSPost2010PropOp32
 70
1
102
RTVSPost2010Prop33
280
0
102
RTVSPost2010PropOp33
 70
1
102
RTVSPost2010Prop34
280
0
102
RTVSPost2010PropOp34
 70
1
102
RTVSPost2010Prop35
280
0
102
RTVSPost2010PropOp35
 70
1
102
RTVSPost2010Prop36
280
0
102
RTVSPost2010PropOp36
 70
1
102
RTVSPost2010Prop37
 90
50
102
RTVSPost2010PropOp37
 70
1
102
RTVSPost2010Prop38
140
0.0
102
RTVSPost2010PropOp38
 70
1
102
RTVSPost2010Prop39
140
1.0
102
RTVSPost2010PropOp39
 70
1
102
RTVSPost2010Prop40
 90
0
102
RTVSPost2010PropOp40
 70
1
102
RTVSPost2010Prop41ColorIndex
 90
18
102
RTVSPost2010Prop41ColorRGB
 90
0
102
RTVSPost2010PropOp41
 70
1
102
RTVSPost2010Prop42
 90
50
102
RTVSPost2010PropOp42
 70
1
102
RTVSPost2010Prop43
 90
3
102
RTVSPost2010PropOp43
 70
1
102
RTVSPost2010Prop44ColorIndex
 90
5
102
RTVSPost2010Prop44ColorRGB
 90
255
102
RTVSPost2010PropOp44
 70
1
102
RTVSPost2010Prop45
280
0
102
RTVSPost2010PropOp45
 70
1
102
RTVSPost2010Prop46
 90
50
102
RTVSPost2010PropOp46
 70
1
102
RTVSPost2010Prop47
 90
50
102
RTVSPost2010PropOp47
 70
1
102
RTVSPost2010Prop48
 90
50
102
RTVSPost2010PropOp48
 70
1
102
RTVSPost2010Prop49
280
0
102
RTVSPost2010PropOp49
 70
1
102
RTVSPost2010Prop50
 90
50
102
RTVSPost2010PropOp50
 70
1
102
RTVSPost2010Prop51ColorIndex
 90
256
102
RTVSPost2010Prop51ColorRGB
 90
-16777216
102
RTVSPost2010PropOp51
 70
0
102
RTVSPost2010Prop52
140
1.0
102
RTVSPost2010PropOp52
 70
0
102
RTVSPost2010Prop53
 90
2
102
RTVSPost2010PropOp53
 70
1
102
RTVSPost2010Prop54
  1
strokes_ogs.tif
102
RTVSPost2010PropOp54
 70
1
102
RTVSPost2010Prop55
280
0
102
RTVSPost2010PropOp55
 70
1
102
RTVSPost2010Prop56
140
1.0
102
RTVSPost2010PropOp56
 70
1
102
RTVSPost2010Prop57
140
1.0
102
RTVSPost2010PropOp57
 70
1
102
RTVSPropertyOp0
 70
1
102
RTVSPropertyOp1
 70
1
102
RTVSPropertyOp2
 70
1
102
RTVSPropertyOp3
 70
1
102
RTVSPropertyOp4
 70
1
102
RTVSPropertyOp5
 70
1
102
RTVSPropertyOp6
 70
1
102
RTVSPropertyOp7
 70
1
102
RTVSPropertyOp8
 70
1
102
RTVSPropertyOp9
 70
1
102
RTVSPropertyOp10
 70
1
102
RTVSPropertyOp11
 70
1
102
RTVSPropertyOp12
 70
1
102
RTVSPropertyOp13
 70
1
102
RTVSPropertyOp14
 70
1
102
RTVSPropertyOp15
 70
1
102
RTVSPropertyOp16
 70
1
102
RTVSPropertyOp17
 70
1
102
RTVSPropertyOp18
 70
1
102
RTVSPropertyOp19
 70
1
102
RTVSPropertyOp20
 70
1
102
RTVSPropertyOp21
 70
1
102
RTVSPropertyOp22
 70
1
102
RTVSPropertyOp23
 70
1
102
RTVSPropertyOp24
 70
1
102
RTVSPropertyOp25
 70
1
102
RTVSPropertyOp26
 70
1
102
RTVSPropertyOp27
 70
1
102
RTVSPropertyOp28
 70
1
102
RTVSPropertyOp29
 70
1
102
RTVSPropertyOp30
 70
1
102
RTVSPropertyOp31
 70
1
102
RTVSPropertyOp32
 70
1
102
RTVSPropertyOp33
 70
1
102
RTVSPropertyOp34
 70
1
102
RTVSPropertyOp35
 70
1
102
RTVSPropertyOp36
 70
1
102
RTVSPropertyOp37
 70
1
102
RTVSPropertyOp38
 70
1
102
RTVSPropertyOp39
 70
1
102
RTVSPropertyOp40
 70
1
102
RTVSPropertyOp41
 70
1
102
RTVSPropertyOp42
 70
1
102
RTVSPropertyOp43
 70
1
102
RTVSPropertyOp44
 70
1
102
RTVSPropertyOp45
 70
1
102
RTVSPropertyOp46
 70
1
102
RTVSPropertyOp47
 70
1
102
RTVSPropertyOp48
 70
1
102
RTVSPropertyOp49
 70
1
102
RTVSPropertyOp50
 70
1
102
RTVSPropertyOp51
 70
0
102
RTVSPropertyOp52
 70
0
102
RTVSPropertyOp53
 70
1
102
RTVSPropertyOp54
 70
1
102
RTVSPropertyOp55
 70
1
102
RTVSPropertyOp56
 70
1
102
RTVSPropertyOp57
 70
1
102
RTVSPropertyOp58
 70
1
102
RTVSPropertyOp59
 70
1
102
RTVSPropertyOp60
 70
1
102
RTVSPropertyOp61
 70
1
102
RTVSPropertyOp62
 70
1
  0
DICTIONARY
  5
D75
330
9D2
100
AcDbDictionary
281
1
  3
WRITTEN_BY_EZDXF
350
D76
  0
DICTIONARYVAR
  5
D76
330
D75
100
DictionaryVariables
280
0
  1
0.16.4 @ 2022-09-06T03:59:05.651704+00:00
  0
ENDSEC
  0
EOF
