  0
SECTION
  2
HEADER
  9
$ACADVER
  1
AC1009
  9
$DWGCODEPAGE
  3
ANSI_932
  9
$INSBASE
 10
0.0
 20
0.0
 30
0.0
  9
$EXTMIN
 10
0
 20
0
 30
0
  9
$EXTMAX
 10
0
 20
0
 30
0
  9
$LIMMIN
 10
0.0
 20
0.0
  9
$LIMMAX
 10
420.0
 20
297.0
  9
$ORTHOMODE
 70
0
  9
$REGENMODE
 70
1
  9
$FILLMODE
 70
1
  9
$DRAGMODE
 70
2
  9
$QTEXTMODE
 70
0
  9
$MIRRTEXT
 70
1
  9
$OSMODE
 70
37
  9
$LTSCALE
 40
25.4
  9
$ATTMODE
 70
1
  9
$TEXTSIZE
 40
0.2
  9
$TRACEWID
 40
1.0
  9
$TEXTSTYLE
  7
STANDARD
  9
$CLAYER
  8
__
  9
$CELTYPE
  6
BYLAYER
  9
$CECOLOR
 62
256
  9
$DIMSCALE
 40
1.0
  9
$DIMASZ
 40
0.18
  9
$DIMEXO
 40
0.0625
  9
$DIMDLI
 40
0.38
  9
$DIMRND
 40
0.0
  9
$DIMDLE
 40
0.0
  9
$DIMEXE
 40
0.18
  9
$DIMTP
 40
0.0
  9
$DIMTM
 40
0.0
  9
$DIMTXT
 40
0.18
  9
$DIMCEN
 40
0.09
  9
$DIMTSZ
 40
0.0
  9
$DIMTOL
 70
0
  9
$DIMLIM
 70
0
  9
$DIMTIH
 70
1
  9
$DIMTOH
 70
1
  9
$DIMSE1
 70
0
  9
$DIMSE2
 70
0
  9
$DIMTAD
 70
0
  9
$DIMZIN
 70
0
  9
$DIMBLK
  1

  9
$DIMASO
 70
1
  9
$DIMSHO
 70
1
  9
$DIMPOST
  1

  9
$DIMAPOST
  1

  9
$DIMALT
 70
0
  9
$DIMALTD
 70
2
  9
$DIMALTF
 40
25.4
  9
$DIMLFAC
 40
1.0
  9
$DIMTOFL
 70
0
  9
$DIMTVP
 40
0.0
  9
$DIMTIX
 70
0
  9
$DIMSOXD
 70
0
  9
$DIMSAH
 70
0
  9
$DIMBLK1
  1

  9
$DIMBLK2
  1

  9
$DIMSTYLE
  2
STANDARD
  9
$DIMCLRD
 70
0
  9
$DIMCLRE
 70
0
  9
$DIMCLRT
 70
0
  9
$DIMTFAC
 40
1.0
  9
$DIMGAP
 40
0.09
  9
$COORDS
 70
1
  9
$ATTDIA
 70
0
  9
$ATTREQ
 70
1
  9
$HANDLING
 70
1
  9
$LUNITS
 70
2
  9
$LUPREC
 70
2
  9
$SKETCHINC
 40
0.1
  9
$FILLETRAD
 40
0.5
  9
$AUNITS
 70
0
  9
$AUPREC
 70
2
  9
$MENU
  1
.
  9
$ELEVATION
 40
0.0
  9
$PELEVATION
 40
0.0
  9
$THICKNESS
 40
0.0
  9
$LIMCHECK
 70
0
  9
$CHAMFERA
 40
0.0
  9
$CHAMFERB
 40
0.0
  9
$SKPOLY
 70
0
  9
$TDCREATE
 40
2460269.6768981484
  9
$TDUPDATE
 40
2460269.6768981484
  9
$TDINDWG
 40
1.16e-08
  9
$TDUSRTIMER
 40
1.16e-08
  9
$USRTIMER
 70
1
  9
$ANGBASE
 50
0.0
  9
$ANGDIR
 70
0
  9
$PDMODE
 70
1
  9
$PDSIZE
 40
-2.0
  9
$PLINEWID
 40
0.0
  9
$SPLFRAME
 70
0
  9
$SPLINETYPE
 70
6
  9
$SPLINESEGS
 70
8
  9
$HANDSEED
  5
3BE
  9
$SURFTAB1
 70
6
  9
$SURFTAB2
 70
6
  9
$SURFTYPE
 70
6
  9
$SURFU
 70
6
  9
$SURFV
 70
6
  9
$UCSNAME
  2

  9
$UCSORG
 10
0.0
 20
0.0
 30
0.0
  9
$UCSXDIR
 10
1.0
 20
0.0
 30
0.0
  9
$UCSYDIR
 10
0.0
 20
1.0
 30
0.0
  9
$PUCSNAME
  2

  9
$PUCSORG
 10
0.0
 20
0.0
 30
0.0
  9
$PUCSXDIR
 10
1.0
 20
0.0
 30
0.0
  9
$PUCSYDIR
 10
0.0
 20
1.0
 30
0.0
  9
$USERI1
 70
0
  9
$USERI2
 70
0
  9
$USERI3
 70
0
  9
$USERI4
 70
0
  9
$USERI5
 70
0
  9
$USERR1
 40
0.0
  9
$USERR2
 40
0.0
  9
$USERR3
 40
0.0
  9
$USERR4
 40
0.0
  9
$USERR5
 40
0.0
  9
$WORLDVIEW
 70
1
  9
$SHADEDGE
 70
3
  9
$SHADEDIF
 70
70
  9
$TILEMODE
 70
1
  9
$MAXACTVP
 70
64
  9
$PLIMCHECK
 70
0
  9
$PEXTMIN
 10
1e+20
 20
1e+20
 30
1e+20
  9
$PEXTMAX
 10
-1e+20
 20
-1e+20
 30
-1e+20
  9
$PLIMMIN
 10
0.0
 20
0.0
  9
$PLIMMAX
 10
420.0
 20
297.0
  9
$UNITMODE
 70
0
  9
$VISRETAIN
 70
1
  9
$PLINEGEN
 70
0
  9
$PSLTSCALE
 70
1
  0
ENDSEC
  0
SECTION
  2
TABLES
  0
TABLE
  2
VPORT
 70
1
  0
VPORT
  5
81
  2
*ACTIVE
 70
0
 10
0.0
 20
0.0
 11
1.0
 21
1.0
 12
0.0
 22
0.0
 13
0.0
 23
0.0
 14
0.5
 24
0.5
 15
0.5
 25
0.5
 16
0.0
 26
0.0
 36
1.0
 17
0.0
 27
0.0
 37
0.0
 40
296.9895
 41
0.7067921032000568
 42
2000.0
 43
0.0
 44
0.0
 50
0.0
 51
0.0
 71
0
 72
100
 73
1
 74
3
 75
0
 76
0
 77
0
 78
0
  0
ENDTAB
  0
TABLE
  2
LTYPE
 70
3
  0
LTYPE
  5
82
  2
CONTINUOUS
 70
0
  3
Solid line
 72
65
 73
0
 40
0.0
  0
LTYPE
  5
AB
  2
ByBlock
 70
0
  3

 72
65
 73
0
 40
0.0
  0
LTYPE
  5
AC
  2
ByLayer
 70
0
  3

 72
65
 73
0
 40
0.0
  0
ENDTAB
  0
TABLE
  2
LAYER
 70
3
  0
LAYER
  5
83
  2
0
 70
0
 62
7
  6
CONTINUOUS
  0
LAYER
  5
84
  2
__
 70
0
 62
7
  6
CONTINUOUS
  0
LAYER
  5
AD
  2
Defpoints
 70
0
 62
7
  6
Continuous
  0
ENDTAB
  0
TABLE
  2
STYLE
 70
1
  0
STYLE
  5
85
  2
STANDARD
 70
0
 40
0.0
 41
1.0
 50
0.0
 71
0
 42
0.2
  3
txt
  4
BIGFONT.SHX
  0
ENDTAB
  0
TABLE
  2
VIEW
 70
0
  0
ENDTAB
  0
TABLE
  2
UCS
 70
0
  0
ENDTAB
  0
TABLE
  2
APPID
 70
5
  0
APPID
  5
86
  2
ACAD
 70
0
  0
APPID
  5
87
  2
ACCMTRANSPARENCY
 70
0
  0
APPID
  5
88
  2
ACAECLAYERSTANDARD
 70
0
  0
APPID
  5
3BC
  2
HATCHBACKGROUNDCOLOR
 70
0
  0
APPID
  5
3BD
  2
EZDXF
 70
0
  0
ENDTAB
  0
TABLE
  2
DIMSTYLE
 70
1
  0
DIMSTYLE
105
89
  2
STANDARD
 70
0
  3

  4

  5

  6

  7

 40
1.0
 41
0.18
 42
0.0625
 43
0.38
 44
0.18
 45
0.0
 46
0.0
 47
0.0
 48
0.0
140
0.18
141
0.09
142
0.0
143
25.4
144
1.0
145
0.0
146
1.0
147
0.09
 71
0
 72
0
 73
1
 74
1
 75
0
 76
0
 77
0
 78
0
170
0
171
2
172
0
173
0
174
0
175
0
176
0
177
0
178
0
  0
ENDTAB
  0
ENDSEC
  0
SECTION
  2
BLOCKS
  0
BLOCK
  5
8A
  8
0
  2
$Model_Space
 70
0
 10
0.0
 20
0.0
 30
0.0
  3
$Model_Space
  1

1001
EZDXF
1000
WRITTEN_BY_EZDXF
1000
0.16.4 @ 2023-11-20T07:14:44.227641+00:00
  0
ENDBLK
  5
21
  8
0
  0
BLOCK
  5
8B
 67
1
  8
0
  2
$Paper_Space
 70
0
 10
0.0
 20
0.0
 30
0.0
  3
$Paper_Space
  1

  0
ENDBLK
  5
1D
 67
1
  8
0
  0
ENDSEC
  0
SECTION
  2
ENTITIES
  0
LINE
  5
AF
  8
0
 10
51.336
 20
52.725
 30
0.0
 11
51.368
 21
52.814
 31
0.0
  0
LINE
  5
B0
  8
0
 10
51.368
 20
52.814
 30
0.0
 11
51.423
 21
52.85
 31
0.0
  0
LINE
  5
B1
  8
0
 10
51.423
 20
52.85
 30
0.0
 11
51.502
 21
52.838
 31
0.0
  0
LINE
  5
B2
  8
0
 10
51.502
 20
52.838
 30
0.0
 11
51.593
 21
52.802
 31
0.0
  0
LINE
  5
B3
  8
0
 10
51.593
 20
52.802
 30
0.0
 11
51.683
 21
52.733
 31
0.0
  0
LINE
  5
B4
  8
0
 10
51.683
 20
52.733
 30
0.0
 11
51.77
 21
52.665
 31
0.0
  0
LINE
  5
B5
  8
0
 10
51.77
 20
52.665
 30
0.0
 11
51.896
 21
52.589
 31
0.0
  0
LINE
  5
B6
  8
0
 10
51.896
 20
52.589
 30
0.0
 11
52.007
 21
52.54
 31
0.0
  0
LINE
  5
B7
  8
0
 10
52.007
 20
52.54
 30
0.0
 11
52.117
 21
52.532
 31
0.0
  0
LINE
  5
B8
  8
0
 10
52.117
 20
52.532
 30
0.0
 11
52.208
 21
52.577
 31
0.0
  0
LINE
  5
B9
  8
0
 10
52.208
 20
52.577
 30
0.0
 11
52.287
 21
52.677
 31
0.0
  0
LINE
  5
BA
  8
0
 10
51.269
 20
53.304
 30
0.0
 11
51.312
 21
53.393
 31
0.0
  0
LINE
  5
BB
  8
0
 10
51.312
 20
53.393
 30
0.0
 11
51.368
 21
53.429
 31
0.0
  0
LINE
  5
BC
  8
0
 10
51.368
 20
53.429
 30
0.0
 11
51.447
 21
53.417
 31
0.0
  0
LINE
  5
BD
  8
0
 10
51.447
 20
53.417
 30
0.0
 11
51.526
 21
53.38
 31
0.0
  0
LINE
  5
BE
  8
0
 10
51.526
 20
53.38
 30
0.0
 11
51.624
 21
53.316
 31
0.0
  0
LINE
  5
BF
  8
0
 10
51.624
 20
53.316
 30
0.0
 11
51.715
 21
53.248
 31
0.0
  0
LINE
  5
C0
  8
0
 10
51.715
 20
53.248
 30
0.0
 11
51.837
 21
53.167
 31
0.0
  0
LINE
  5
C1
  8
0
 10
51.837
 20
53.167
 30
0.0
 11
51.952
 21
53.119
 31
0.0
  0
LINE
  5
C2
  8
0
 10
51.952
 20
53.119
 30
0.0
 11
52.05
 21
53.111
 31
0.0
  0
LINE
  5
C3
  8
0
 10
52.05
 20
53.111
 30
0.0
 11
52.153
 21
53.155
 31
0.0
  0
LINE
  5
C4
  8
0
 10
52.153
 20
53.155
 30
0.0
 11
52.232
 21
53.256
 31
0.0
  0
LINE
  5
C5
  8
0
 10
48.543
 20
59.446
 30
0.0
 11
49.486
 21
59.06
 31
0.0
  0
LINE
  5
C6
  8
0
 10
20.141
 20
71.187
 30
0.0
 11
20.074
 21
71.223
 31
0.0
  0
LINE
  5
C7
  8
0
 10
19.987
 20
71.255
 30
0.0
 11
19.963
 21
71.268
 31
0.0
  0
LINE
  5
C8
  8
0
 10
19.995
 20
71.255
 30
0.0
 11
20.007
 21
71.235
 31
0.0
  0
LINE
  5
C9
  8
0
 10
19.951
 20
71.268
 30
0.0
 11
19.939
 21
71.255
 31
0.0
  0
LINE
  5
CA
  8
0
 10
19.939
 20
71.255
 30
0.0
 11
19.928
 21
71.28
 31
0.0
  0
LINE
  5
CB
  8
0
 10
20.176
 20
71.167
 30
0.0
 11
20.188
 21
71.179
 31
0.0
  0
LINE
  5
CC
  8
0
 10
19.94
 20
71.255
 30
0.0
 11
19.928
 21
71.28
 31
0.0
  0
LINE
  5
CD
  8
0
 10
20.906
 20
70.87
 30
0.0
 11
20.926
 21
70.858
 31
0.0
  0
LINE
  5
CE
  8
0
 10
26.284
 20
69.688
 30
0.0
 11
26.307
 21
69.68
 31
0.0
  0
LINE
  5
CF
  8
0
 10
26.284
 20
69.688
 30
0.0
 11
26.138
 21
69.748
 31
0.0
  0
LINE
  5
D0
  8
0
 10
25.711
 20
69.917
 30
0.0
 11
25.546
 21
69.985
 31
0.0
  0
LINE
  5
D1
  8
0
 10
28.517
 20
68.293
 30
0.0
 11
21.924
 21
71.006
 31
0.0
  0
LINE
  5
D2
  8
0
 10
28.627
 20
68.237
 30
0.0
 11
28.659
 21
68.225
 31
0.0
  0
LINE
  5
D3
  8
0
 10
12.791
 20
74.21
 30
0.0
 11
11.848
 21
74.608
 31
0.0
  0
LINE
  5
D4
  8
0
 10
20.906
 20
70.87
 30
0.0
 11
20.926
 21
70.858
 31
0.0
  0
LINE
  5
D5
  8
0
 10
20.547
 20
71.018
 30
0.0
 11
20.334
 21
71.099
 31
0.0
  0
LINE
  5
D6
  8
0
 10
20.334
 20
71.099
 30
0.0
 11
20.299
 21
71.119
 31
0.0
  0
LINE
  5
D7
  8
0
 10
20.299
 20
71.119
 30
0.0
 11
20.275
 21
71.131
 31
0.0
  0
LINE
  5
D8
  8
0
 10
20.981
 20
70.849
 30
0.0
 11
21.04
 21
70.801
 31
0.0
  0
LINE
  5
D9
  8
0
 10
8.632
 20
75.255
 30
0.0
 11
8.609
 21
75.243
 31
0.0
  0
LINE
  5
DA
  8
0
 10
8.699
 20
75.279
 30
0.0
 11
8.822
 21
75.311
 31
0.0
  0
LINE
  5
DB
  8
0
 10
9.303
 20
75.026
 30
0.0
 11
9.358
 21
75.05
 31
0.0
  0
LINE
  5
DC
  8
0
 10
9.358
 20
75.05
 30
0.0
 11
9.406
 21
75.05
 31
0.0
  0
LINE
  5
DD
  8
0
 10
9.406
 20
75.05
 30
0.0
 11
9.437
 21
75.062
 31
0.0
  0
LINE
  5
DE
  8
0
 10
50.571
 20
56.552
 30
0.0
 11
50.638
 21
56.516
 31
0.0
  0
LINE
  5
DF
  8
0
 10
50.571
 20
56.552
 30
0.0
 11
50.417
 21
56.628
 31
0.0
  0
LINE
  5
E0
  8
0
 10
53.005
 20
57.959
 30
0.0
 11
53.029
 21
58.083
 31
0.0
  0
LINE
  5
E1
  8
0
 10
53.005
 20
57.959
 30
0.0
 11
53.005
 21
57.927
 31
0.0
  0
LINE
  5
E2
  8
0
 10
52.981
 20
58.176
 30
0.0
 11
52.969
 21
58.176
 31
0.0
  0
LINE
  5
E3
  8
0
 10
52.969
 20
58.176
 30
0.0
 11
52.981
 21
58.176
 31
0.0
  0
LINE
  5
E4
  8
0
 10
53.029
 20
57.927
 30
0.0
 11
53.029
 21
57.858
 31
0.0
  0
LINE
  5
E5
  8
0
 10
53.017
 20
57.858
 30
0.0
 11
53.005
 21
57.858
 31
0.0
  0
LINE
  5
E6
  8
0
 10
53.017
 20
57.858
 30
0.0
 11
53.029
 21
57.858
 31
0.0
  0
LINE
  5
E7
  8
0
 10
53.005
 20
57.858
 30
0.0
 11
53.005
 21
57.927
 31
0.0
  0
LINE
  5
E8
  8
0
 10
53.005
 20
57.858
 30
0.0
 11
52.993
 21
57.846
 31
0.0
  0
LINE
  5
E9
  8
0
 10
53.005
 20
57.822
 30
0.0
 11
53.017
 21
57.742
 31
0.0
  0
LINE
  5
EA
  8
0
 10
53.005
 20
57.822
 30
0.0
 11
53.017
 21
57.858
 31
0.0
  0
LINE
  5
EB
  8
0
 10
52.981
 20
57.48
 30
0.0
 11
52.725
 21
57.199
 31
0.0
  0
LINE
  5
EC
  8
0
 10
52.981
 20
57.48
 30
0.0
 11
52.993
 21
57.48
 31
0.0
  0
LINE
  5
ED
  8
0
 10
52.993
 20
57.48
 30
0.0
 11
52.737
 21
57.199
 31
0.0
  0
LINE
  5
EE
  8
0
 10
52.737
 20
57.175
 30
0.0
 11
53.005
 21
57.472
 31
0.0
  0
LINE
  5
EF
  8
0
 10
52.737
 20
57.199
 30
0.0
 11
52.725
 21
57.199
 31
0.0
  0
LINE
  5
F0
  8
0
 10
50.843
 20
56.504
 30
0.0
 11
50.831
 21
56.504
 31
0.0
  0
LINE
  5
F1
  8
0
 10
53.029
 20
57.549
 30
0.0
 11
53.037
 21
57.561
 31
0.0
  0
LINE
  5
F2
  8
0
 10
53.037
 20
57.561
 30
0.0
 11
53.037
 21
57.605
 31
0.0
  0
LINE
  5
F3
  8
0
 10
53.037
 20
57.605
 30
0.0
 11
53.017
 21
57.742
 31
0.0
  0
LINE
  5
F4
  8
0
 10
53.151
 20
57.673
 30
0.0
 11
53.151
 21
57.866
 31
0.0
  0
LINE
  5
F5
  8
0
 10
53.175
 20
58.015
 30
0.0
 11
53.175
 21
58.059
 31
0.0
  0
LINE
  5
F6
  8
0
 10
53.037
 20
57.605
 30
0.0
 11
53.175
 21
57.549
 31
0.0
  0
LINE
  5
F7
  8
0
 10
53.048
 20
57.549
 30
0.0
 11
53.037
 21
57.561
 31
0.0
  0
LINE
  5
F8
  8
0
 10
53.139
 20
57.412
 30
0.0
 11
52.871
 21
57.131
 31
0.0
  0
LINE
  5
F9
  8
0
 10
53.175
 20
57.549
 30
0.0
 11
53.151
 21
57.673
 31
0.0
  0
LINE
  5
FA
  8
0
 10
53.151
 20
57.673
 30
0.0
 11
53.163
 21
57.665
 31
0.0
  0
LINE
  5
FB
  8
0
 10
53.029
 20
57.927
 30
0.0
 11
53.048
 21
58.071
 31
0.0
  0
LINE
  5
FC
  8
0
 10
53.163
 20
58.083
 30
0.0
 11
53.175
 21
58.059
 31
0.0
  0
LINE
  5
FD
  8
0
 10
50.977
 20
56.435
 30
0.0
 11
50.831
 21
56.484
 31
0.0
  0
LINE
  5
FE
  8
0
 10
52.891
 20
57.131
 30
0.0
 11
53.151
 21
57.412
 31
0.0
  0
LINE
  5
FF
  8
0
 10
53.151
 20
57.866
 30
0.0
 11
53.175
 21
58.015
 31
0.0
  0
LINE
  5
100
  8
0
 10
53.048
 20
57.549
 30
0.0
 11
53.029
 21
57.549
 31
0.0
  0
LINE
  5
101
  8
0
 10
53.163
 20
57.665
 30
0.0
 11
53.163
 21
57.858
 31
0.0
  0
LINE
  5
102
  8
0
 10
53.163
 20
57.858
 30
0.0
 11
53.183
 21
58.003
 31
0.0
  0
LINE
  5
103
  8
0
 10
53.163
 20
57.665
 30
0.0
 11
53.183
 21
57.537
 31
0.0
  0
LINE
  5
104
  8
0
 10
53.183
 20
57.537
 30
0.0
 11
53.175
 21
57.549
 31
0.0
  0
LINE
  5
105
  8
0
 10
53.183
 20
58.051
 30
0.0
 11
53.175
 21
58.059
 31
0.0
  0
LINE
  5
106
  8
0
 10
53.183
 20
58.051
 30
0.0
 11
53.183
 21
58.003
 31
0.0
  0
LINE
  5
107
  8
0
 10
50.776
 20
56.472
 30
0.0
 11
50.638
 21
56.516
 31
0.0
  0
LINE
  5
108
  8
0
 10
52.476
 20
56.994
 30
0.0
 11
52.701
 21
57.175
 31
0.0
  0
LINE
  5
109
  8
0
 10
52.701
 20
57.175
 30
0.0
 11
52.737
 21
57.211
 31
0.0
  0
LINE
  5
10A
  8
0
 10
52.476
 20
56.982
 30
0.0
 11
52.701
 21
57.175
 31
0.0
  0
LINE
  5
10B
  8
0
 10
52.701
 20
57.175
 30
0.0
 11
52.725
 21
57.199
 31
0.0
  0
LINE
  5
10C
  8
0
 10
52.468
 20
56.994
 30
0.0
 11
52.476
 21
56.994
 31
0.0
  0
LINE
  5
10D
  8
0
 10
52.622
 20
56.926
 30
0.0
 11
52.847
 21
57.095
 31
0.0
  0
LINE
  5
10E
  8
0
 10
52.847
 20
57.095
 30
0.0
 11
52.891
 21
57.143
 31
0.0
  0
LINE
  5
10F
  8
0
 10
52.61
 20
56.926
 30
0.0
 11
52.835
 21
57.095
 31
0.0
  0
LINE
  5
110
  8
0
 10
52.835
 20
57.095
 30
0.0
 11
52.883
 21
57.143
 31
0.0
  0
LINE
  5
111
  8
0
 10
52.476
 20
56.958
 30
0.0
 11
52.701
 21
57.143
 31
0.0
  0
LINE
  5
112
  8
0
 10
52.701
 20
57.143
 30
0.0
 11
52.749
 21
57.187
 31
0.0
  0
LINE
  5
113
  8
0
 10
53.139
 20
57.424
 30
0.0
 11
53.175
 21
57.505
 31
0.0
  0
LINE
  5
114
  8
0
 10
53.175
 20
57.505
 30
0.0
 11
53.175
 21
57.549
 31
0.0
  0
LINE
  5
115
  8
0
 10
50.784
 20
56.484
 30
0.0
 11
50.942
 21
56.447
 31
0.0
  0
LINE
  5
116
  8
0
 10
50.942
 20
56.447
 30
0.0
 11
50.977
 21
56.447
 31
0.0
  0
LINE
  5
117
  8
0
 10
50.618
 20
56.552
 30
0.0
 11
50.776
 21
56.516
 31
0.0
  0
LINE
  5
118
  8
0
 10
50.776
 20
56.516
 30
0.0
 11
50.831
 21
56.504
 31
0.0
  0
LINE
  5
119
  8
0
 10
53.005
 20
57.472
 30
0.0
 11
53.048
 21
57.549
 31
0.0
  0
LINE
  5
11A
  8
0
 10
53.163
 20
57.424
 30
0.0
 11
53.194
 21
57.493
 31
0.0
  0
LINE
  5
11B
  8
0
 10
53.194
 20
57.493
 30
0.0
 11
53.194
 21
57.537
 31
0.0
  0
LINE
  5
11C
  8
0
 10
50.638
 20
56.516
 30
0.0
 11
50.796
 21
56.484
 31
0.0
  0
LINE
  5
11D
  8
0
 10
50.796
 20
56.484
 30
0.0
 11
50.831
 21
56.484
 31
0.0
  0
LINE
  5
11E
  8
0
 10
52.468
 20
56.982
 30
0.0
 11
52.457
 21
56.982
 31
0.0
  0
LINE
  5
11F
  8
0
 10
52.476
 20
56.958
 30
0.0
 11
52.196
 21
56.813
 31
0.0
  0
LINE
  5
120
  8
0
 10
52.196
 20
56.813
 30
0.0
 11
51.928
 21
56.689
 31
0.0
  0
LINE
  5
121
  8
0
 10
51.873
 20
56.677
 30
0.0
 11
51.861
 21
56.664
 31
0.0
  0
LINE
  5
122
  8
0
 10
51.861
 20
56.689
 30
0.0
 11
51.873
 21
56.697
 31
0.0
  0
LINE
  5
123
  8
0
 10
52.622
 20
56.914
 30
0.0
 11
52.311
 21
56.745
 31
0.0
  0
LINE
  5
124
  8
0
 10
52.311
 20
56.745
 30
0.0
 11
51.928
 21
56.584
 31
0.0
  0
LINE
  5
125
  8
0
 10
50.843
 20
56.504
 30
0.0
 11
51.324
 21
56.552
 31
0.0
  0
LINE
  5
126
  8
0
 10
51.324
 20
56.552
 30
0.0
 11
51.806
 21
56.677
 31
0.0
  0
LINE
  5
127
  8
0
 10
51.928
 20
56.584
 30
0.0
 11
52.263
 21
56.733
 31
0.0
  0
LINE
  5
128
  8
0
 10
52.263
 20
56.733
 30
0.0
 11
52.61
 21
56.914
 31
0.0
  0
LINE
  5
129
  8
0
 10
51.806
 20
56.652
 30
0.0
 11
51.312
 21
56.528
 31
0.0
  0
LINE
  5
12A
  8
0
 10
51.312
 20
56.528
 30
0.0
 11
50.831
 21
56.484
 31
0.0
  0
LINE
  5
12B
  8
0
 10
51.928
 20
56.721
 30
0.0
 11
52.196
 21
56.833
 31
0.0
  0
LINE
  5
12C
  8
0
 10
52.196
 20
56.833
 30
0.0
 11
52.457
 21
56.982
 31
0.0
  0
LINE
  5
12D
  8
0
 10
51.77
 20
56.552
 30
0.0
 11
51.782
 21
56.552
 31
0.0
  0
LINE
  5
12E
  8
0
 10
51.782
 20
56.552
 30
0.0
 11
51.806
 21
56.552
 31
0.0
  0
LINE
  5
12F
  8
0
 10
51.861
 20
56.572
 30
0.0
 11
51.873
 21
56.572
 31
0.0
  0
LINE
  5
130
  8
0
 10
51.873
 20
56.572
 30
0.0
 11
51.861
 21
56.572
 31
0.0
  0
LINE
  5
131
  8
0
 10
53.175
 20
58.059
 30
0.0
 11
53.163
 21
58.071
 31
0.0
  0
LINE
  5
132
  8
0
 10
53.163
 20
58.071
 30
0.0
 11
53.151
 21
58.083
 31
0.0
  0
LINE
  5
133
  8
0
 10
53.151
 20
58.083
 30
0.0
 11
53.127
 21
58.095
 31
0.0
  0
LINE
  5
134
  8
0
 10
53.127
 20
58.095
 30
0.0
 11
53.115
 21
58.095
 31
0.0
  0
LINE
  5
135
  8
0
 10
53.115
 20
58.095
 30
0.0
 11
53.096
 21
58.107
 31
0.0
  0
LINE
  5
136
  8
0
 10
53.096
 20
58.107
 30
0.0
 11
53.084
 21
58.12
 31
0.0
  0
LINE
  5
137
  8
0
 10
53.048
 20
58.071
 30
0.0
 11
53.048
 21
58.128
 31
0.0
  0
LINE
  5
138
  8
0
 10
53.048
 20
58.128
 30
0.0
 11
53.037
 21
58.164
 31
0.0
  0
LINE
  5
139
  8
0
 10
53.072
 20
58.128
 30
0.0
 11
53.096
 21
58.12
 31
0.0
  0
LINE
  5
13A
  8
0
 10
53.096
 20
58.12
 30
0.0
 11
53.115
 21
58.095
 31
0.0
  0
LINE
  5
13B
  8
0
 10
53.115
 20
58.095
 30
0.0
 11
53.139
 21
58.095
 31
0.0
  0
LINE
  5
13C
  8
0
 10
53.139
 20
58.095
 30
0.0
 11
53.163
 21
58.083
 31
0.0
  0
LINE
  5
13D
  8
0
 10
53.072
 20
58.128
 30
0.0
 11
53.072
 21
58.12
 31
0.0
  0
LINE
  5
13E
  8
0
 10
53.072
 20
58.12
 30
0.0
 11
53.084
 21
58.12
 31
0.0
  0
LINE
  5
13F
  8
0
 10
53.037
 20
58.164
 30
0.0
 11
53.048
 21
58.152
 31
0.0
  0
LINE
  5
140
  8
0
 10
53.048
 20
58.152
 30
0.0
 11
53.06
 21
58.128
 31
0.0
  0
LINE
  5
141
  8
0
 10
53.06
 20
58.128
 30
0.0
 11
53.072
 21
58.128
 31
0.0
  0
LINE
  5
142
  8
0
 10
50.977
 20
56.435
 30
0.0
 11
51.368
 21
56.459
 31
0.0
  0
LINE
  5
143
  8
0
 10
51.368
 20
56.459
 30
0.0
 11
51.77
 21
56.552
 31
0.0
  0
LINE
  5
144
  8
0
 10
51.806
 20
56.552
 30
0.0
 11
51.782
 21
56.552
 31
0.0
  0
LINE
  5
145
  8
0
 10
51.782
 20
56.552
 30
0.0
 11
51.77
 21
56.552
 31
0.0
  0
LINE
  5
146
  8
0
 10
31.933
 20
66.874
 30
0.0
 11
47.983
 21
60.242
 31
0.0
  0
LINE
  5
147
  8
0
 10
50.606
 20
56.552
 30
0.0
 11
7.756
 21
74.242
 31
0.0
  0
LINE
  5
148
  8
0
 10
28.773
 20
68.168
 30
0.0
 11
31.933
 21
66.874
 31
0.0
  0
LINE
  5
149
  8
0
 10
28.517
 20
68.293
 30
0.0
 11
21.924
 21
71.006
 31
0.0
  0
LINE
  5
14A
  8
0
 10
21.924
 20
71.006
 30
0.0
 11
21.119
 21
71.336
 31
0.0
  0
LINE
  5
14B
  8
0
 10
28.517
 20
68.293
 30
0.0
 11
28.627
 21
68.237
 31
0.0
  0
LINE
  5
14C
  8
0
 10
20.299
 20
71.665
 30
0.0
 11
11.465
 21
75.323
 31
0.0
  0
LINE
  5
14D
  8
0
 10
48.543
 20
59.446
 30
0.0
 11
49.486
 21
59.06
 31
0.0
  0
LINE
  5
14E
  8
0
 10
48.543
 20
59.446
 30
0.0
 11
29.242
 21
67.429
 31
0.0
  0
LINE
  5
14F
  8
0
 10
29.231
 20
67.429
 30
0.0
 11
29.187
 21
67.453
 31
0.0
  0
LINE
  5
150
  8
0
 10
29.231
 20
67.429
 30
0.0
 11
29.243
 21
67.429
 31
0.0
  0
LINE
  5
151
  8
0
 10
29.187
 20
67.453
 30
0.0
 11
29.164
 21
67.453
 31
0.0
  0
LINE
  5
152
  8
0
 10
29.164
 20
67.453
 30
0.0
 11
29.144
 21
67.477
 31
0.0
  0
LINE
  5
153
  8
0
 10
29.144
 20
67.477
 30
0.0
 11
28.998
 21
67.521
 31
0.0
  0
LINE
  5
154
  8
0
 10
25.711
 20
68.884
 30
0.0
 11
25.053
 21
69.157
 31
0.0
  0
LINE
  5
155
  8
0
 10
24.133
 20
69.543
 30
0.0
 11
21.04
 21
70.801
 31
0.0
  0
LINE
  5
156
  8
0
 10
25.711
 20
68.884
 30
0.0
 11
28.998
 21
67.521
 31
0.0
  0
LINE
  5
157
  8
0
 10
25.053
 20
69.157
 30
0.0
 11
24.133
 21
69.543
 31
0.0
  0
LINE
  5
158
  8
0
 10
20.926
 20
70.858
 30
0.0
 11
20.906
 21
70.87
 31
0.0
  0
LINE
  5
159
  8
0
 10
20.926
 20
70.858
 30
0.0
 11
20.938
 21
70.858
 31
0.0
  0
LINE
  5
15A
  8
0
 10
19.762
 20
71.336
 30
0.0
 11
12.791
 21
74.21
 31
0.0
  0
LINE
  5
15B
  8
0
 10
19.762
 20
71.336
 30
0.0
 11
19.829
 21
71.316
 31
0.0
  0
LINE
  5
15C
  8
0
 10
19.829
 20
71.316
 30
0.0
 11
19.896
 21
71.28
 31
0.0
  0
LINE
  5
15D
  8
0
 10
20.547
 20
71.018
 30
0.0
 11
20.906
 21
70.87
 31
0.0
  0
LINE
  5
15E
  8
0
 10
20.547
 20
71.018
 30
0.0
 11
20.334
 21
71.099
 31
0.0
  0
LINE
  5
15F
  8
0
 10
20.275
 20
71.131
 30
0.0
 11
20.188
 21
71.179
 31
0.0
  0
LINE
  5
160
  8
0
 10
20.188
 20
71.179
 30
0.0
 11
20.176
 21
71.167
 31
0.0
  0
LINE
  5
161
  8
0
 10
20.074
 20
71.223
 30
0.0
 11
20.074
 21
71.211
 31
0.0
  0
LINE
  5
162
  8
0
 10
20.074
 20
71.223
 30
0.0
 11
20.141
 21
71.187
 31
0.0
  0
LINE
  5
163
  8
0
 10
20.141
 20
71.187
 30
0.0
 11
20.176
 21
71.167
 31
0.0
  0
LINE
  5
164
  8
0
 10
20.074
 20
71.211
 30
0.0
 11
20.054
 21
71.211
 31
0.0
  0
LINE
  5
165
  8
0
 10
19.995
 20
71.255
 30
0.0
 11
19.987
 21
71.255
 31
0.0
  0
LINE
  5
166
  8
0
 10
19.987
 20
71.255
 30
0.0
 11
19.963
 21
71.268
 31
0.0
  0
LINE
  5
167
  8
0
 10
19.995
 20
71.255
 30
0.0
 11
20.007
 21
71.235
 31
0.0
  0
LINE
  5
168
  8
0
 10
20.007
 20
71.235
 30
0.0
 11
20.054
 21
71.211
 31
0.0
  0
LINE
  5
169
  8
0
 10
19.928
 20
71.28
 30
0.0
 11
19.896
 21
71.28
 31
0.0
  0
LINE
  5
16A
  8
0
 10
19.94
 20
71.255
 30
0.0
 11
19.951
 21
71.268
 31
0.0
  0
LINE
  5
16B
  8
0
 10
19.951
 20
71.268
 30
0.0
 11
19.963
 21
71.268
 31
0.0
  0
LINE
  5
16C
  8
0
 10
19.94
 20
71.255
 30
0.0
 11
19.928
 21
71.28
 31
0.0
  0
LINE
  5
16D
  8
0
 10
20.299
 20
71.119
 30
0.0
 11
20.334
 21
71.099
 31
0.0
  0
LINE
  5
16E
  8
0
 10
20.299
 20
71.119
 30
0.0
 11
20.275
 21
71.131
 31
0.0
  0
LINE
  5
16F
  8
0
 10
20.938
 20
70.858
 30
0.0
 11
20.961
 21
70.849
 31
0.0
  0
LINE
  5
170
  8
0
 10
20.961
 20
70.849
 30
0.0
 11
20.981
 21
70.849
 31
0.0
  0
LINE
  5
171
  8
0
 10
20.981
 20
70.849
 30
0.0
 11
21.04
 21
70.801
 31
0.0
  0
LINE
  5
172
  8
0
 10
47.983
 20
60.242
 30
0.0
 11
51.257
 21
58.891
 31
0.0
  0
LINE
  5
173
  8
0
 10
51.782
 20
58.12
 30
0.0
 11
49.486
 21
59.06
 31
0.0
  0
LINE
  5
174
  8
0
 10
53.029
 20
58.083
 30
0.0
 11
53.005
 21
57.959
 31
0.0
  0
LINE
  5
175
  8
0
 10
53.005
 20
57.959
 30
0.0
 11
53.005
 21
57.927
 31
0.0
  0
LINE
  5
176
  8
0
 10
12.791
 20
74.21
 30
0.0
 11
11.848
 21
74.608
 31
0.0
  0
LINE
  5
177
  8
0
 10
51.403
 20
58.835
 30
0.0
 11
51.794
 21
58.662
 31
0.0
  0
LINE
  5
178
  8
0
 10
51.403
 20
58.835
 30
0.0
 11
51.257
 21
58.891
 31
0.0
  0
LINE
  5
179
  8
0
 10
11.848
 20
74.608
 30
0.0
 11
10.672
 21
75.094
 31
0.0
  0
LINE
  5
17A
  8
0
 10
51.873
 20
58.55
 30
0.0
 11
51.904
 21
58.55
 31
0.0
  0
LINE
  5
17B
  8
0
 10
51.904
 20
58.618
 30
0.0
 11
52.962
 21
58.188
 31
0.0
  0
LINE
  5
17C
  8
0
 10
52.981
 20
58.176
 30
0.0
 11
53.005
 21
58.164
 31
0.0
  0
LINE
  5
17D
  8
0
 10
52.981
 20
58.176
 30
0.0
 11
52.969
 21
58.176
 31
0.0
  0
LINE
  5
17E
  8
0
 10
51.873
 20
58.083
 30
0.0
 11
51.837
 21
58.095
 31
0.0
  0
LINE
  5
17F
  8
0
 10
51.928
 20
58.059
 30
0.0
 11
53.029
 21
57.605
 31
0.0
  0
LINE
  5
180
  8
0
 10
53.005
 20
57.734
 30
0.0
 11
53.005
 21
57.822
 31
0.0
  0
LINE
  5
181
  8
0
 10
53.005
 20
57.858
 30
0.0
 11
53.005
 21
57.927
 31
0.0
  0
LINE
  5
182
  8
0
 10
52.993
 20
57.846
 30
0.0
 11
53.005
 21
57.822
 31
0.0
  0
LINE
  5
183
  8
0
 10
52.993
 20
57.846
 30
0.0
 11
53.005
 21
57.858
 31
0.0
  0
LINE
  5
184
  8
0
 10
53.005
 20
57.734
 30
0.0
 11
53.029
 21
57.605
 31
0.0
  0
LINE
  5
185
  8
0
 10
52.981
 20
57.48
 30
0.0
 11
52.725
 21
57.199
 31
0.0
  0
LINE
  5
186
  8
0
 10
52.993
 20
57.48
 30
0.0
 11
53.029
 21
57.549
 31
0.0
  0
LINE
  5
187
  8
0
 10
53.029
 20
57.549
 30
0.0
 11
53.029
 21
57.605
 31
0.0
  0
LINE
  5
188
  8
0
 10
52.476
 20
56.982
 30
0.0
 11
52.701
 21
57.175
 31
0.0
  0
LINE
  5
189
  8
0
 10
52.701
 20
57.175
 30
0.0
 11
52.725
 21
57.199
 31
0.0
  0
LINE
  5
18A
  8
0
 10
52.468
 20
56.994
 30
0.0
 11
52.476
 21
56.994
 31
0.0
  0
LINE
  5
18B
  8
0
 10
50.618
 20
56.552
 30
0.0
 11
50.776
 21
56.516
 31
0.0
  0
LINE
  5
18C
  8
0
 10
50.776
 20
56.516
 30
0.0
 11
50.831
 21
56.504
 31
0.0
  0
LINE
  5
18D
  8
0
 10
53.029
 20
58.083
 30
0.0
 11
53.029
 21
58.128
 31
0.0
  0
LINE
  5
18E
  8
0
 10
53.029
 20
58.128
 30
0.0
 11
53.005
 21
58.164
 31
0.0
  0
LINE
  5
18F
  8
0
 10
51.861
 20
56.689
 30
0.0
 11
51.873
 21
56.697
 31
0.0
  0
LINE
  5
190
  8
0
 10
50.843
 20
56.504
 30
0.0
 11
51.324
 21
56.552
 31
0.0
  0
LINE
  5
191
  8
0
 10
51.324
 20
56.552
 30
0.0
 11
51.806
 21
56.677
 31
0.0
  0
LINE
  5
192
  8
0
 10
51.928
 20
56.721
 30
0.0
 11
52.196
 21
56.833
 31
0.0
  0
LINE
  5
193
  8
0
 10
52.196
 20
56.833
 30
0.0
 11
52.457
 21
56.982
 31
0.0
  0
LINE
  5
194
  8
0
 10
50.831
 20
56.504
 30
0.0
 11
50.843
 21
56.504
 31
0.0
  0
LINE
  5
195
  8
0
 10
51.75
 20
51.419
 30
0.0
 11
51.648
 21
50.125
 31
0.0
  0
LINE
  5
196
  8
0
 10
52.098
 20
50.145
 30
0.0
 11
52.019
 21
51.439
 31
0.0
  0
LINE
  5
197
  8
0
 10
51.849
 20
50.169
 30
0.0
 11
52.086
 21
50.133
 31
0.0
  0
LINE
  5
198
  8
0
 10
51.928
 20
50.008
 30
0.0
 11
51.739
 21
50.032
 31
0.0
  0
LINE
  5
199
  8
0
 10
51.703
 20
50.02
 30
0.0
 11
51.66
 21
50.113
 31
0.0
  0
LINE
  5
19A
  8
0
 10
51.94
 20
50.0
 30
0.0
 11
52.129
 21
50.056
 31
0.0
  0
LINE
  5
19B
  8
0
 10
52.086
 20
50.056
 30
0.0
 11
51.928
 21
50.008
 31
0.0
  0
LINE
  5
19C
  8
0
 10
52.042
 20
51.395
 30
0.0
 11
52.019
 21
51.439
 31
0.0
  0
LINE
  5
19D
  8
0
 10
51.849
 20
50.169
 30
0.0
 11
51.66
 21
50.113
 31
0.0
  0
LINE
  5
19E
  8
0
 10
51.75
 20
50.113
 30
0.0
 11
51.739
 21
50.032
 31
0.0
  0
LINE
  5
19F
  8
0
 10
51.739
 20
50.032
 30
0.0
 11
51.703
 21
50.1
 31
0.0
  0
LINE
  5
1A0
  8
0
 10
51.75
 20
51.419
 30
0.0
 11
51.762
 21
51.431
 31
0.0
  0
LINE
  5
1A1
  8
0
 10
51.762
 20
51.431
 30
0.0
 11
51.873
 21
51.463
 31
0.0
  0
LINE
  5
1A2
  8
0
 10
51.873
 20
51.463
 30
0.0
 11
52.019
 21
51.439
 31
0.0
  0
LINE
  5
1A3
  8
0
 10
51.873
 20
51.258
 30
0.0
 11
51.849
 21
50.181
 31
0.0
  0
LINE
  5
1A4
  8
0
 10
51.928
 20
50.145
 30
0.0
 11
51.928
 21
50.008
 31
0.0
  0
LINE
  5
1A5
  8
0
 10
51.873
 20
51.258
 30
0.0
 11
51.873
 21
51.463
 31
0.0
  0
LINE
  5
1A6
  8
0
 10
51.703
 20
50.02
 30
0.0
 11
51.94
 21
50.0
 31
0.0
  0
LINE
  5
1A7
  8
0
 10
52.141
 20
50.056
 30
0.0
 11
52.042
 21
51.395
 31
0.0
  0
LINE
  5
1A8
  8
0
 10
51.849
 20
50.181
 30
0.0
 11
51.648
 21
50.125
 31
0.0
  0
LINE
  5
1A9
  8
0
 10
51.648
 20
50.125
 30
0.0
 11
51.66
 21
50.113
 31
0.0
  0
LINE
  5
1AA
  8
0
 10
51.703
 20
50.101
 30
0.0
 11
51.861
 21
50.145
 31
0.0
  0
LINE
  5
1AB
  8
0
 10
52.086
 20
50.133
 30
0.0
 11
52.129
 21
50.056
 31
0.0
  0
LINE
  5
1AC
  8
0
 10
52.086
 20
50.056
 30
0.0
 11
52.05
 21
50.125
 31
0.0
  0
LINE
  5
1AD
  8
0
 10
52.098
 20
50.145
 30
0.0
 11
51.849
 21
50.181
 31
0.0
  0
LINE
  5
1AE
  8
0
 10
51.849
 20
50.181
 30
0.0
 11
51.849
 21
50.169
 31
0.0
  0
LINE
  5
1AF
  8
0
 10
51.861
 20
50.145
 30
0.0
 11
52.05
 21
50.125
 31
0.0
  0
LINE
  5
1B0
  8
0
 10
52.098
 20
50.145
 30
0.0
 11
52.141
 21
50.056
 31
0.0
  0
LINE
  5
1B1
  8
0
 10
52.098
 20
50.133
 30
0.0
 11
52.109
 21
50.145
 31
0.0
  0
LINE
  5
1B2
  8
0
 10
52.129
 20
50.056
 30
0.0
 11
52.141
 21
50.056
 31
0.0
  0
LINE
  5
1B3
  8
0
 10
51.829
 20
56.958
 30
0.0
 11
51.837
 21
56.869
 31
0.0
  0
LINE
  5
1B4
  8
0
 10
51.837
 20
56.869
 30
0.0
 11
51.849
 21
56.813
 31
0.0
  0
LINE
  5
1B5
  8
0
 10
51.794
 20
56.857
 30
0.0
 11
51.782
 21
56.95
 31
0.0
  0
LINE
  5
1B6
  8
0
 10
51.782
 20
56.95
 30
0.0
 11
51.782
 21
57.81
 31
0.0
  0
LINE
  5
1B7
  8
0
 10
51.837
 20
57.734
 30
0.0
 11
51.829
 21
56.958
 31
0.0
  0
LINE
  5
1B8
  8
0
 10
51.794
 20
56.857
 30
0.0
 11
51.794
 21
56.801
 31
0.0
  0
LINE
  5
1B9
  8
0
 10
51.794
 20
56.801
 30
0.0
 11
51.806
 21
56.709
 31
0.0
  0
LINE
  5
1BA
  8
0
 10
51.849
 20
56.721
 30
0.0
 11
51.849
 21
56.813
 31
0.0
  0
LINE
  5
1BB
  8
0
 10
51.849
 20
56.721
 30
0.0
 11
51.861
 21
56.379
 31
0.0
  0
LINE
  5
1BC
  8
0
 10
51.806
 20
56.379
 30
0.0
 11
51.806
 21
56.709
 31
0.0
  0
LINE
  5
1BD
  8
0
 10
51.873
 20
52.609
 30
0.0
 11
51.873
 21
51.463
 31
0.0
  0
LINE
  5
1BE
  8
0
 10
51.928
 20
51.451
 30
0.0
 11
51.916
 21
52.601
 31
0.0
  0
LINE
  5
1BF
  8
0
 10
51.916
 20
52.601
 30
0.0
 11
51.873
 21
52.609
 31
0.0
  0
LINE
  5
1C0
  8
0
 10
51.928
 20
53.167
 30
0.0
 11
51.873
 21
53.18
 31
0.0
  0
LINE
  5
1C1
  8
0
 10
51.873
 20
51.463
 30
0.0
 11
51.873
 21
51.258
 31
0.0
  0
LINE
  5
1C2
  8
0
 10
51.928
 20
53.167
 30
0.0
 11
51.928
 21
57.834
 31
0.0
  0
LINE
  5
1C3
  8
0
 10
51.873
 20
57.834
 30
0.0
 11
51.873
 21
53.179
 31
0.0
  0
LINE
  5
1C4
  8
0
 10
51.873
 20
57.834
 30
0.0
 11
51.873
 21
57.846
 31
0.0
  0
LINE
  5
1C5
  8
0
 10
51.873
 20
57.846
 30
0.0
 11
51.861
 21
57.846
 31
0.0
  0
LINE
  5
1C6
  8
0
 10
51.861
 20
57.846
 30
0.0
 11
51.849
 21
57.834
 31
0.0
  0
LINE
  5
1C7
  8
0
 10
51.849
 20
57.834
 30
0.0
 11
51.837
 21
57.81
 31
0.0
  0
LINE
  5
1C8
  8
0
 10
51.829
 20
57.89
 30
0.0
 11
51.849
 21
57.902
 31
0.0
  0
LINE
  5
1C9
  8
0
 10
51.849
 20
57.902
 30
0.0
 11
51.861
 21
57.902
 31
0.0
  0
LINE
  5
1CA
  8
0
 10
51.861
 20
57.902
 30
0.0
 11
51.904
 21
57.89
 31
0.0
  0
LINE
  5
1CB
  8
0
 10
51.904
 20
57.89
 30
0.0
 11
51.928
 21
57.834
 31
0.0
  0
LINE
  5
1CC
  8
0
 10
51.806
 20
56.379
 30
0.0
 11
51.817
 21
56.367
 31
0.0
  0
LINE
  5
1CD
  8
0
 10
51.817
 20
56.367
 30
0.0
 11
51.829
 21
56.367
 31
0.0
  0
LINE
  5
1CE
  8
0
 10
51.829
 20
56.367
 30
0.0
 11
51.849
 21
56.367
 31
0.0
  0
LINE
  5
1CF
  8
0
 10
51.849
 20
56.367
 30
0.0
 11
51.861
 21
56.379
 31
0.0
  0
LINE
  5
1D0
  8
0
 10
51.861
 20
56.379
 30
0.0
 11
51.829
 21
56.379
 31
0.0
  0
LINE
  5
1D1
  8
0
 10
51.829
 20
56.379
 30
0.0
 11
51.806
 21
56.379
 31
0.0
  0
LINE
  5
1D2
  8
0
 10
51.794
 20
59.229
 30
0.0
 11
51.794
 21
58.562
 31
0.0
  0
LINE
  5
1D3
  8
0
 10
51.849
 20
58.562
 30
0.0
 11
51.849
 21
59.221
 31
0.0
  0
LINE
  5
1D4
  8
0
 10
51.849
 20
58.562
 30
0.0
 11
51.849
 21
58.538
 31
0.0
  0
LINE
  5
1D5
  8
0
 10
51.904
 20
58.538
 30
0.0
 11
51.904
 21
59.209
 31
0.0
  0
LINE
  5
1D6
  8
0
 10
51.849
 20
58.538
 30
0.0
 11
51.849
 21
58.381
 31
0.0
  0
LINE
  5
1D7
  8
0
 10
51.849
 20
58.381
 30
0.0
 11
51.837
 21
58.208
 31
0.0
  0
LINE
  5
1D8
  8
0
 10
51.837
 20
58.208
 30
0.0
 11
51.837
 21
58.051
 31
0.0
  0
LINE
  5
1D9
  8
0
 10
51.837
 20
58.051
 30
0.0
 11
51.829
 21
57.89
 31
0.0
  0
LINE
  5
1DA
  8
0
 10
51.873
 20
57.902
 30
0.0
 11
51.873
 21
58.039
 31
0.0
  0
LINE
  5
1DB
  8
0
 10
51.873
 20
58.039
 30
0.0
 11
51.873
 21
58.176
 31
0.0
  0
LINE
  5
1DC
  8
0
 10
51.873
 20
58.176
 30
0.0
 11
51.861
 21
58.357
 31
0.0
  0
LINE
  5
1DD
  8
0
 10
51.861
 20
58.357
 30
0.0
 11
51.849
 21
58.538
 31
0.0
  0
LINE
  5
1DE
  8
0
 10
51.782
 20
57.81
 30
0.0
 11
51.77
 21
57.834
 31
0.0
  0
LINE
  5
1DF
  8
0
 10
51.77
 20
57.834
 30
0.0
 11
51.77
 21
57.858
 31
0.0
  0
LINE
  5
1E0
  8
0
 10
51.829
 20
57.858
 30
0.0
 11
51.829
 21
57.834
 31
0.0
  0
LINE
  5
1E1
  8
0
 10
51.829
 20
57.834
 30
0.0
 11
51.837
 21
57.822
 31
0.0
  0
LINE
  5
1E2
  8
0
 10
51.904
 20
58.538
 30
0.0
 11
51.916
 21
58.357
 31
0.0
  0
LINE
  5
1E3
  8
0
 10
51.916
 20
58.357
 30
0.0
 11
51.928
 21
58.176
 31
0.0
  0
LINE
  5
1E4
  8
0
 10
51.928
 20
58.176
 30
0.0
 11
51.928
 21
58.003
 31
0.0
  0
LINE
  5
1E5
  8
0
 10
51.928
 20
58.003
 30
0.0
 11
51.94
 21
57.822
 31
0.0
  0
LINE
  5
1E6
  8
0
 10
51.77
 20
57.858
 30
0.0
 11
51.782
 21
58.039
 31
0.0
  0
LINE
  5
1E7
  8
0
 10
51.782
 20
58.039
 30
0.0
 11
51.782
 21
58.208
 31
0.0
  0
LINE
  5
1E8
  8
0
 10
51.782
 20
58.208
 30
0.0
 11
51.794
 21
58.389
 31
0.0
  0
LINE
  5
1E9
  8
0
 10
51.794
 20
58.389
 30
0.0
 11
51.794
 21
58.562
 31
0.0
  0
LINE
  5
1EA
  8
0
 10
51.829
 20
57.89
 30
0.0
 11
51.829
 21
57.878
 31
0.0
  0
LINE
  5
1EB
  8
0
 10
51.829
 20
57.878
 30
0.0
 11
51.829
 21
57.858
 31
0.0
  0
LINE
  5
1EC
  8
0
 10
51.837
 20
57.81
 30
0.0
 11
51.849
 21
57.79
 31
0.0
  0
LINE
  5
1ED
  8
0
 10
51.849
 20
57.79
 30
0.0
 11
51.873
 21
57.778
 31
0.0
  0
LINE
  5
1EE
  8
0
 10
51.94
 20
57.822
 30
0.0
 11
51.928
 21
57.79
 31
0.0
  0
LINE
  5
1EF
  8
0
 10
51.928
 20
57.79
 30
0.0
 11
51.928
 21
57.766
 31
0.0
  0
LINE
  5
1F0
  8
0
 10
51.873
 20
57.722
 30
0.0
 11
51.861
 21
57.722
 31
0.0
  0
LINE
  5
1F1
  8
0
 10
51.861
 20
57.722
 30
0.0
 11
51.849
 21
57.722
 31
0.0
  0
LINE
  5
1F2
  8
0
 10
51.849
 20
57.722
 30
0.0
 11
51.849
 21
57.734
 31
0.0
  0
LINE
  5
1F3
  8
0
 10
51.849
 20
57.734
 30
0.0
 11
51.837
 21
57.734
 31
0.0
  0
LINE
  5
1F4
  8
0
 10
51.837
 20
57.734
 30
0.0
 11
51.806
 21
57.766
 31
0.0
  0
LINE
  5
1F5
  8
0
 10
51.806
 20
57.766
 30
0.0
 11
51.782
 21
57.81
 31
0.0
  0
LINE
  5
1F6
  8
0
 10
1.661
 20
75.798
 30
0.0
 11
13.509
 21
79.242
 31
0.0
  0
LINE
  5
1F7
  8
0
 10
13.509
 20
79.194
 30
0.0
 11
13.864
 21
78.844
 31
0.0
  0
LINE
  5
1F8
  8
0
 10
13.864
 20
78.844
 30
0.0
 11
13.876
 21
78.832
 31
0.0
  0
LINE
  5
1F9
  8
0
 10
13.876
 20
78.832
 30
0.0
 11
13.887
 21
78.832
 31
0.0
  0
LINE
  5
1FA
  8
0
 10
13.887
 20
78.832
 30
0.0
 11
13.876
 21
78.832
 31
0.0
  0
LINE
  5
1FB
  8
0
 10
13.485
 20
79.182
 30
0.0
 11
13.485
 21
79.206
 31
0.0
  0
LINE
  5
1FC
  8
0
 10
13.485
 20
79.182
 30
0.0
 11
13.509
 21
79.194
 31
0.0
  0
LINE
  5
1FD
  8
0
 10
9.35
 20
76.457
 30
0.0
 11
9.315
 21
76.457
 31
0.0
  0
LINE
  5
1FE
  8
0
 10
9.35
 20
76.457
 30
0.0
 11
9.406
 21
76.481
 31
0.0
  0
LINE
  5
1FF
  8
0
 10
9.406
 20
76.481
 30
0.0
 11
9.406
 21
77.413
 31
0.0
  0
LINE
  5
200
  8
0
 10
9.224
 20
77.582
 30
0.0
 11
5.906
 21
76.618
 31
0.0
  0
LINE
  5
201
  8
0
 10
9.224
 20
77.582
 30
0.0
 11
9.248
 21
77.57
 31
0.0
  0
LINE
  5
202
  8
0
 10
5.93
 20
76.605
 30
0.0
 11
5.906
 21
76.618
 31
0.0
  0
LINE
  5
203
  8
0
 10
13.576
 20
79.218
 30
0.0
 11
13.864
 21
79.094
 31
0.0
  0
LINE
  5
204
  8
0
 10
13.576
 20
79.218
 30
0.0
 11
13.517
 21
79.242
 31
0.0
  0
LINE
  5
205
  8
0
 10
14.357
 20
77.096
 30
0.0
 11
14.144
 21
76.867
 31
0.0
  0
LINE
  5
206
  8
0
 10
14.29
 20
78.696
 30
0.0
 11
13.978
 21
78.832
 31
0.0
  0
LINE
  5
207
  8
0
 10
14.057
 20
78.989
 30
0.0
 11
14.29
 21
78.764
 31
0.0
  0
LINE
  5
208
  8
0
 10
14.282
 20
78.728
 30
0.0
 11
13.931
 21
78.877
 31
0.0
  0
LINE
  5
209
  8
0
 10
13.899
 20
78.832
 30
0.0
 11
13.899
 21
76.786
 31
0.0
  0
LINE
  5
20A
  8
0
 10
13.887
 20
78.832
 30
0.0
 11
13.899
 21
78.832
 31
0.0
  0
LINE
  5
20B
  8
0
 10
14.168
 20
76.867
 30
0.0
 11
14.136
 21
76.867
 31
0.0
  0
LINE
  5
20C
  8
0
 10
14.136
 20
76.867
 30
0.0
 11
14.144
 21
76.481
 31
0.0
  0
LINE
  5
20D
  8
0
 10
14.124
 20
76.071
 30
0.0
 11
14.057
 21
76.051
 31
0.0
  0
LINE
  5
20E
  8
0
 10
13.931
 20
78.844
 30
0.0
 11
13.911
 21
78.844
 31
0.0
  0
LINE
  5
20F
  8
0
 10
14.27
 20
78.72
 30
0.0
 11
14.282
 21
78.728
 31
0.0
  0
LINE
  5
210
  8
0
 10
14.314
 20
78.728
 30
0.0
 11
14.29
 21
78.696
 31
0.0
  0
LINE
  5
211
  8
0
 10
13.923
 20
79.082
 30
0.0
 11
13.864
 21
79.094
 31
0.0
  0
LINE
  5
212
  8
0
 10
14.392
 20
78.559
 30
0.0
 11
14.392
 21
77.196
 31
0.0
  0
LINE
  5
213
  8
0
 10
14.325
 20
78.696
 30
0.0
 11
14.29
 21
78.696
 31
0.0
  0
LINE
  5
214
  8
0
 10
14.168
 20
76.867
 30
0.0
 11
14.649
 21
76.674
 31
0.0
  0
LINE
  5
215
  8
0
 10
14.649
 20
76.674
 30
0.0
 11
14.637
 21
76.65
 31
0.0
  0
LINE
  5
216
  8
0
 10
14.637
 20
76.65
 30
0.0
 11
14.637
 21
76.605
 31
0.0
  0
LINE
  5
217
  8
0
 10
14.649
 20
76.662
 30
0.0
 11
14.649
 21
76.332
 31
0.0
  0
LINE
  5
218
  8
0
 10
14.629
 20
76.22
 30
0.0
 11
15.087
 21
76.039
 31
0.0
  0
LINE
  5
219
  8
0
 10
14.637
 20
76.288
 30
0.0
 11
14.637
 21
76.332
 31
0.0
  0
LINE
  5
21A
  8
0
 10
14.637
 20
76.332
 30
0.0
 11
14.649
 21
76.344
 31
0.0
  0
LINE
  5
21B
  8
0
 10
14.649
 20
76.561
 30
0.0
 11
14.637
 21
76.605
 31
0.0
  0
LINE
  5
21C
  8
0
 10
0.888
 20
72.244
 30
0.0
 11
0.572
 21
72.156
 31
0.0
  0
LINE
  5
21D
  8
0
 10
0.56
 20
72.156
 30
0.0
 11
0.517
 21
72.132
 31
0.0
  0
LINE
  5
21E
  8
0
 10
0.888
 20
72.244
 30
0.0
 11
1.022
 21
72.28
 31
0.0
  0
LINE
  5
21F
  8
0
 10
0.572
 20
72.156
 30
0.0
 11
0.56
 21
72.156
 31
0.0
  0
LINE
  5
220
  8
0
 10
1.053
 20
72.268
 30
0.0
 11
1.101
 21
72.288
 31
0.0
  0
LINE
  5
221
  8
0
 10
1.101
 20
72.288
 30
0.0
 11
1.12
 21
72.288
 31
0.0
  0
LINE
  5
222
  8
0
 10
1.053
 20
72.268
 30
0.0
 11
1.022
 21
72.28
 31
0.0
  0
LINE
  5
223
  8
0
 10
1.101
 20
72.313
 30
0.0
 11
1.12
 21
72.288
 31
0.0
  0
LINE
  5
224
  8
0
 10
1.077
 20
72.313
 30
0.0
 11
1.065
 21
72.313
 31
0.0
  0
LINE
  5
225
  8
0
 10
1.077
 20
72.313
 30
0.0
 11
1.101
 21
72.313
 31
0.0
  0
LINE
  5
226
  8
0
 10
1.109
 20
72.313
 30
0.0
 11
1.12
 21
72.313
 31
0.0
  0
LINE
  5
227
  8
0
 10
1.12
 20
72.313
 30
0.0
 11
1.12
 21
72.301
 31
0.0
  0
LINE
  5
228
  8
0
 10
0.0
 20
72.369
 30
0.0
 11
0.0
 21
72.755
 31
0.0
  0
LINE
  5
229
  8
0
 10
0.036
 20
72.337
 30
0.0
 11
0.517
 21
72.132
 31
0.0
  0
LINE
  5
22A
  8
0
 10
0.024
 20
72.755
 30
0.0
 11
0.0
 21
72.755
 31
0.0
  0
LINE
  5
22B
  8
0
 10
1.12
 20
72.313
 30
0.0
 11
14.01
 21
76.059
 31
0.0
  0
LINE
  5
22C
  8
0
 10
9.303
 20
75.026
 30
0.0
 11
0.036
 21
72.337
 31
0.0
  0
LINE
  5
22D
  8
0
 10
0.036
 20
72.755
 30
0.0
 11
8.609
 21
75.243
 31
0.0
  0
LINE
  5
22E
  8
0
 10
1.255
 20
75.162
 30
0.0
 11
1.235
 21
75.15
 31
0.0
  0
LINE
  5
22F
  8
0
 10
1.255
 20
75.162
 30
0.0
 11
1.255
 21
75.187
 31
0.0
  0
LINE
  5
230
  8
0
 10
1.101
 20
72.313
 30
0.0
 11
1.109
 21
72.313
 31
0.0
  0
LINE
  5
231
  8
0
 10
1.211
 20
73.096
 30
0.0
 11
1.211
 21
75.142
 31
0.0
  0
LINE
  5
232
  8
0
 10
0.036
 20
72.337
 30
0.0
 11
0.012
 21
72.337
 31
0.0
  0
LINE
  5
233
  8
0
 10
0.036
 20
72.755
 30
0.0
 11
0.024
 21
72.755
 31
0.0
  0
LINE
  5
234
  8
0
 10
0.012
 20
72.699
 30
0.0
 11
0.012
 21
72.393
 31
0.0
  0
LINE
  5
235
  8
0
 10
8.632
 20
75.255
 30
0.0
 11
8.699
 21
75.279
 31
0.0
  0
LINE
  5
236
  8
0
 10
8.632
 20
75.255
 30
0.0
 11
8.609
 21
75.243
 31
0.0
  0
LINE
  5
237
  8
0
 10
5.752
 20
75.424
 30
0.0
 11
5.729
 21
75.412
 31
0.0
  0
LINE
  5
238
  8
0
 10
5.752
 20
75.424
 30
0.0
 11
5.819
 21
75.436
 31
0.0
  0
LINE
  5
239
  8
0
 10
1.614
 20
75.753
 30
0.0
 11
1.255
 21
75.199
 31
0.0
  0
LINE
  5
23A
  8
0
 10
1.625
 20
75.741
 30
0.0
 11
1.649
 21
75.741
 31
0.0
  0
LINE
  5
23B
  8
0
 10
1.649
 20
75.741
 30
0.0
 11
1.649
 21
75.753
 31
0.0
  0
LINE
  5
23C
  8
0
 10
1.649
 20
75.741
 30
0.0
 11
1.625
 21
75.733
 31
0.0
  0
LINE
  5
23D
  8
0
 10
5.729
 20
75.412
 30
0.0
 11
5.729
 21
76.344
 31
0.0
  0
LINE
  5
23E
  8
0
 10
5.729
 20
76.344
 30
0.0
 11
5.752
 21
76.344
 31
0.0
  0
LINE
  5
23F
  8
0
 10
8.822
 20
75.311
 30
0.0
 11
14.124
 21
76.855
 31
0.0
  0
LINE
  5
240
  8
0
 10
9.382
 20
76.481
 30
0.0
 11
9.35
 21
76.493
 31
0.0
  0
LINE
  5
241
  8
0
 10
8.822
 20
75.311
 30
0.0
 11
8.699
 21
75.279
 31
0.0
  0
LINE
  5
242
  8
0
 10
14.01
 20
76.059
 30
0.0
 11
14.033
 21
76.059
 31
0.0
  0
LINE
  5
243
  8
0
 10
14.1
 20
76.481
 30
0.0
 11
14.112
 21
76.786
 31
0.0
  0
LINE
  5
244
  8
0
 10
14.089
 20
76.786
 30
0.0
 11
14.089
 21
76.493
 31
0.0
  0
LINE
  5
245
  8
0
 10
14.124
 20
76.095
 30
0.0
 11
14.124
 21
76.071
 31
0.0
  0
LINE
  5
246
  8
0
 10
14.136
 20
76.811
 30
0.0
 11
14.124
 21
76.823
 31
0.0
  0
LINE
  5
247
  8
0
 10
14.168
 20
76.867
 30
0.0
 11
14.168
 21
76.493
 31
0.0
  0
LINE
  5
248
  8
0
 10
9.339
 20
76.493
 30
0.0
 11
5.839
 21
75.48
 31
0.0
  0
LINE
  5
249
  8
0
 10
1.12
 20
72.301
 30
0.0
 11
1.12
 21
72.288
 31
0.0
  0
LINE
  5
24A
  8
0
 10
9.437
 20
75.062
 30
0.0
 11
14.124
 21
76.437
 31
0.0
  0
LINE
  5
24B
  8
0
 10
9.358
 20
75.05
 30
0.0
 11
9.303
 21
75.026
 31
0.0
  0
LINE
  5
24C
  8
0
 10
9.358
 20
75.05
 30
0.0
 11
9.406
 21
75.05
 31
0.0
  0
LINE
  5
24D
  8
0
 10
9.406
 20
75.05
 30
0.0
 11
9.437
 21
75.062
 31
0.0
  0
LINE
  5
24E
  8
0
 10
14.637
 20
76.332
 30
0.0
 11
14.649
 21
76.332
 31
0.0
  0
LINE
  5
24F
  8
0
 10
14.562
 20
76.252
 30
0.0
 11
14.124
 21
76.437
 31
0.0
  0
LINE
  5
250
  8
0
 10
14.562
 20
76.252
 30
0.0
 11
14.605
 21
76.232
 31
0.0
  0
LINE
  5
251
  8
0
 10
14.562
 20
76.22
 30
0.0
 11
14.1
 21
76.083
 31
0.0
  0
LINE
  5
252
  8
0
 10
14.1
 20
76.083
 30
0.0
 11
14.124
 21
76.071
 31
0.0
  0
LINE
  5
253
  8
0
 10
14.057
 20
76.051
 30
0.0
 11
14.033
 21
76.059
 31
0.0
  0
LINE
  5
254
  8
0
 10
14.57
 20
76.22
 30
0.0
 11
14.605
 21
76.232
 31
0.0
  0
LINE
  5
255
  8
0
 10
14.57
 20
76.22
 30
0.0
 11
14.562
 21
76.22
 31
0.0
  0
LINE
  5
256
  8
0
 10
9.315
 20
77.582
 30
0.0
 11
9.248
 21
77.582
 31
0.0
  0
LINE
  5
257
  8
0
 10
9.248
 20
77.582
 30
0.0
 11
9.236
 21
77.582
 31
0.0
  0
LINE
  5
258
  8
0
 10
9.315
 20
77.582
 30
0.0
 11
9.248
 21
77.57
 31
0.0
  0
LINE
  5
259
  8
0
 10
13.923
 20
78.852
 30
0.0
 11
13.899
 21
78.852
 31
0.0
  0
LINE
  5
25A
  8
0
 10
13.899
 20
78.852
 30
0.0
 11
13.899
 21
78.844
 31
0.0
  0
LINE
  5
25B
  8
0
 10
13.978
 20
78.844
 30
0.0
 11
13.911
 21
78.844
 31
0.0
  0
LINE
  5
25C
  8
0
 10
14.057
 20
78.989
 30
0.0
 11
13.923
 21
79.082
 31
0.0
  0
LINE
  5
25D
  8
0
 10
14.605
 20
76.244
 30
0.0
 11
14.629
 21
76.264
 31
0.0
  0
LINE
  5
25E
  8
0
 10
0.0
 20
72.369
 30
0.0
 11
0.024
 21
72.337
 31
0.0
  0
LINE
  5
25F
  8
0
 10
14.124
 20
76.469
 30
0.0
 11
14.136
 21
76.481
 31
0.0
  0
LINE
  5
260
  8
0
 10
14.136
 20
76.481
 30
0.0
 11
14.124
 21
76.493
 31
0.0
  0
LINE
  5
261
  8
0
 10
14.124
 20
76.493
 30
0.0
 11
14.112
 21
76.481
 31
0.0
  0
LINE
  5
262
  8
0
 10
14.124
 20
76.437
 30
0.0
 11
14.168
 21
76.469
 31
0.0
  0
LINE
  5
263
  8
0
 10
14.168
 20
76.469
 30
0.0
 11
14.168
 21
76.493
 31
0.0
  0
LINE
  5
264
  8
0
 10
14.144
 20
76.855
 30
0.0
 11
14.124
 21
76.855
 31
0.0
  0
LINE
  5
265
  8
0
 10
14.1
 20
76.493
 30
0.0
 11
14.124
 21
76.469
 31
0.0
  0
LINE
  5
266
  8
0
 10
14.629
 20
76.264
 30
0.0
 11
14.637
 21
76.3
 31
0.0
  0
LINE
  5
267
  8
0
 10
13.576
 20
78.877
 30
0.0
 11
13.509
 21
78.889
 31
0.0
  0
LINE
  5
268
  8
0
 10
13.509
 20
78.889
 30
0.0
 11
13.45
 21
78.844
 31
0.0
  0
LINE
  5
269
  8
0
 10
13.45
 20
78.844
 30
0.0
 11
13.394
 21
78.776
 31
0.0
  0
LINE
  5
26A
  8
0
 10
13.394
 20
78.776
 30
0.0
 11
13.382
 21
78.684
 31
0.0
  0
LINE
  5
26B
  8
0
 10
13.382
 20
78.684
 30
0.0
 11
13.406
 21
78.615
 31
0.0
  0
LINE
  5
26C
  8
0
 10
13.406
 20
78.615
 30
0.0
 11
13.45
 21
78.571
 31
0.0
  0
LINE
  5
26D
  8
0
 10
13.45
 20
78.571
 30
0.0
 11
13.517
 21
78.559
 31
0.0
  0
LINE
  5
26E
  8
0
 10
13.517
 20
78.559
 30
0.0
 11
13.576
 21
78.603
 31
0.0
  0
LINE
  5
26F
  8
0
 10
13.576
 20
78.603
 30
0.0
 11
13.619
 21
78.672
 31
0.0
  0
LINE
  5
270
  8
0
 10
13.619
 20
78.672
 30
0.0
 11
13.643
 21
78.764
 31
0.0
  0
LINE
  5
271
  8
0
 10
13.643
 20
78.764
 30
0.0
 11
13.619
 21
78.832
 31
0.0
  0
LINE
  5
272
  8
0
 10
13.619
 20
78.832
 30
0.0
 11
13.576
 21
78.877
 31
0.0
  0
LINE
  5
273
  8
0
 10
9.406
 20
77.413
 30
0.0
 11
9.382
 21
77.514
 31
0.0
  0
LINE
  5
274
  8
0
 10
9.382
 20
77.514
 30
0.0
 11
9.315
 21
77.57
 31
0.0
  0
LINE
  5
275
  8
0
 10
13.509
 20
79.194
 30
0.0
 11
13.517
 21
79.206
 31
0.0
  0
LINE
  5
276
  8
0
 10
13.576
 20
79.218
 30
0.0
 11
13.54
 21
79.218
 31
0.0
  0
LINE
  5
277
  8
0
 10
13.54
 20
79.218
 30
0.0
 11
13.517
 21
79.206
 31
0.0
  0
LINE
  5
278
  8
0
 10
13.517
 20
79.242
 30
0.0
 11
13.509
 21
79.242
 31
0.0
  0
LINE
  5
279
  8
0
 10
13.509
 20
79.242
 30
0.0
 11
13.497
 21
79.23
 31
0.0
  0
LINE
  5
27A
  8
0
 10
13.497
 20
79.23
 30
0.0
 11
13.485
 21
79.206
 31
0.0
  0
LINE
  5
27B
  8
0
 10
13.931
 20
78.877
 30
0.0
 11
13.899
 21
78.877
 31
0.0
  0
LINE
  5
27C
  8
0
 10
13.899
 20
78.877
 30
0.0
 11
13.864
 21
78.844
 31
0.0
  0
LINE
  5
27D
  8
0
 10
14.314
 20
78.728
 30
0.0
 11
14.302
 21
78.728
 31
0.0
  0
LINE
  5
27E
  8
0
 10
14.302
 20
78.728
 30
0.0
 11
14.282
 21
78.728
 31
0.0
  0
LINE
  5
27F
  8
0
 10
14.29
 20
78.764
 30
0.0
 11
14.302
 21
78.74
 31
0.0
  0
LINE
  5
280
  8
0
 10
14.302
 20
78.74
 30
0.0
 11
14.314
 21
78.728
 31
0.0
  0
LINE
  5
281
  8
0
 10
14.392
 20
77.196
 30
0.0
 11
14.392
 21
77.14
 31
0.0
  0
LINE
  5
282
  8
0
 10
14.392
 20
77.14
 30
0.0
 11
14.357
 21
77.096
 31
0.0
  0
LINE
  5
283
  8
0
 10
14.325
 20
78.696
 30
0.0
 11
14.369
 21
78.639
 31
0.0
  0
LINE
  5
284
  8
0
 10
14.369
 20
78.639
 30
0.0
 11
14.392
 21
78.559
 31
0.0
  0
LINE
  5
285
  8
0
 10
14.649
 20
76.662
 30
0.0
 11
14.649
 21
76.674
 31
0.0
  0
LINE
  5
286
  8
0
 10
0.036
 20
72.337
 30
0.0
 11
0.012
 21
72.357
 31
0.0
  0
LINE
  5
287
  8
0
 10
0.012
 20
72.357
 30
0.0
 11
0.012
 21
72.393
 31
0.0
  0
LINE
  5
288
  8
0
 10
1.211
 20
75.142
 30
0.0
 11
1.235
 21
75.15
 31
0.0
  0
LINE
  5
289
  8
0
 10
1.255
 20
75.199
 30
0.0
 11
1.255
 21
75.187
 31
0.0
  0
LINE
  5
28A
  8
0
 10
1.558
 20
75.106
 30
0.0
 11
1.515
 21
75.15
 31
0.0
  0
LINE
  5
28B
  8
0
 10
1.515
 20
75.15
 30
0.0
 11
1.491
 21
75.231
 31
0.0
  0
LINE
  5
28C
  8
0
 10
1.681
 20
75.424
 30
0.0
 11
1.728
 21
75.38
 31
0.0
  0
LINE
  5
28D
  8
0
 10
1.728
 20
75.38
 30
0.0
 11
1.748
 21
75.299
 31
0.0
  0
LINE
  5
28E
  8
0
 10
1.748
 20
75.299
 30
0.0
 11
1.74
 21
75.219
 31
0.0
  0
LINE
  5
28F
  8
0
 10
1.74
 20
75.219
 30
0.0
 11
1.681
 21
75.142
 31
0.0
  0
LINE
  5
290
  8
0
 10
1.681
 20
75.142
 30
0.0
 11
1.625
 21
75.106
 31
0.0
  0
LINE
  5
291
  8
0
 10
1.625
 20
75.106
 30
0.0
 11
1.558
 21
75.106
 31
0.0
  0
LINE
  5
292
  8
0
 10
0.036
 20
72.755
 30
0.0
 11
0.012
 21
72.735
 31
0.0
  0
LINE
  5
293
  8
0
 10
0.012
 20
72.735
 30
0.0
 11
0.012
 21
72.698
 31
0.0
  0
LINE
  5
294
  8
0
 10
1.491
 20
75.231
 30
0.0
 11
1.515
 21
75.311
 31
0.0
  0
LINE
  5
295
  8
0
 10
1.515
 20
75.311
 30
0.0
 11
1.558
 21
75.392
 31
0.0
  0
LINE
  5
296
  8
0
 10
1.558
 20
75.392
 30
0.0
 11
1.614
 21
75.424
 31
0.0
  0
LINE
  5
297
  8
0
 10
1.614
 20
75.424
 30
0.0
 11
1.681
 21
75.424
 31
0.0
  0
LINE
  5
298
  8
0
 10
1.625
 20
75.741
 30
0.0
 11
1.625
 21
75.753
 31
0.0
  0
LINE
  5
299
  8
0
 10
1.625
 20
75.753
 30
0.0
 11
1.614
 21
75.753
 31
0.0
  0
LINE
  5
29A
  8
0
 10
1.614
 20
75.753
 30
0.0
 11
1.614
 21
75.741
 31
0.0
  0
LINE
  5
29B
  8
0
 10
1.614
 20
75.741
 30
0.0
 11
1.625
 21
75.733
 31
0.0
  0
LINE
  5
29C
  8
0
 10
5.819
 20
75.436
 30
0.0
 11
5.819
 21
75.46
 31
0.0
  0
LINE
  5
29D
  8
0
 10
5.819
 20
75.46
 30
0.0
 11
5.839
 21
75.48
 31
0.0
  0
LINE
  5
29E
  8
0
 10
1.661
 20
75.798
 30
0.0
 11
1.649
 21
75.777
 31
0.0
  0
LINE
  5
29F
  8
0
 10
1.649
 20
75.777
 30
0.0
 11
1.649
 21
75.753
 31
0.0
  0
LINE
  5
2A0
  8
0
 10
9.315
 20
76.457
 30
0.0
 11
9.327
 21
76.481
 31
0.0
  0
LINE
  5
2A1
  8
0
 10
9.327
 20
76.481
 30
0.0
 11
9.339
 21
76.493
 31
0.0
  0
LINE
  5
2A2
  8
0
 10
9.339
 20
76.493
 30
0.0
 11
9.35
 21
76.493
 31
0.0
  0
LINE
  5
2A3
  8
0
 10
14.124
 20
76.437
 30
0.0
 11
14.1
 21
76.457
 31
0.0
  0
LINE
  5
2A4
  8
0
 10
14.1
 20
76.457
 30
0.0
 11
14.089
 21
76.493
 31
0.0
  0
LINE
  5
2A5
  8
0
 10
14.112
 20
76.786
 30
0.0
 11
14.112
 21
76.81
 31
0.0
  0
LINE
  5
2A6
  8
0
 10
14.112
 20
76.81
 30
0.0
 11
14.124
 21
76.823
 31
0.0
  0
LINE
  5
2A7
  8
0
 10
14.124
 20
76.855
 30
0.0
 11
14.1
 21
76.835
 31
0.0
  0
LINE
  5
2A8
  8
0
 10
14.1
 20
76.835
 30
0.0
 11
14.089
 21
76.786
 31
0.0
  0
LINE
  5
2A9
  8
0
 10
5.729
 20
76.344
 30
0.0
 11
5.752
 21
76.457
 31
0.0
  0
LINE
  5
2AA
  8
0
 10
5.752
 20
76.457
 30
0.0
 11
5.819
 21
76.561
 31
0.0
  0
LINE
  5
2AB
  8
0
 10
5.819
 20
76.561
 30
0.0
 11
5.906
 21
76.618
 31
0.0
  0
LINE
  5
2AC
  8
0
 10
14.649
 20
76.332
 30
0.0
 11
14.649
 21
76.344
 31
0.0
  0
LINE
  5
2AD
  8
0
 10
59.988
 20
57.947
 30
0.0
 11
59.988
 21
57.561
 31
0.0
  0
LINE
  5
2AE
  8
0
 10
45.931
 20
53.79
 30
0.0
 11
45.864
 21
53.77
 31
0.0
  0
LINE
  5
2AF
  8
0
 10
45.876
 20
53.758
 30
0.0
 11
45.888
 21
53.758
 31
0.0
  0
LINE
  5
2B0
  8
0
 10
45.888
 20
53.758
 30
0.0
 11
45.426
 21
53.622
 31
0.0
  0
LINE
  5
2B1
  8
0
 10
45.864
 20
53.77
 30
0.0
 11
45.876
 21
53.758
 31
0.0
  0
LINE
  5
2B2
  8
0
 10
53.072
 20
58.128
 30
0.0
 11
53.096
 21
58.128
 31
0.0
  0
LINE
  5
2B3
  8
0
 10
53.163
 20
57.665
 30
0.0
 11
53.81
 21
57.846
 31
0.0
  0
LINE
  5
2B4
  8
0
 10
45.852
 20
53.835
 30
0.0
 11
45.797
 21
53.859
 31
0.0
  0
LINE
  5
2B5
  8
0
 10
45.383
 20
54.04
 30
0.0
 11
45.371
 21
54.052
 31
0.0
  0
LINE
  5
2B6
  8
0
 10
58.88
 20
57.549
 30
0.0
 11
58.887
 21
57.529
 31
0.0
  0
LINE
  5
2B7
  8
0
 10
58.966
 20
57.561
 30
0.0
 11
59.428
 21
57.685
 31
0.0
  0
LINE
  5
2B8
  8
0
 10
58.935
 20
57.573
 30
0.0
 11
58.868
 21
57.549
 31
0.0
  0
LINE
  5
2B9
  8
0
 10
58.935
 20
57.573
 30
0.0
 11
58.966
 21
57.561
 31
0.0
  0
LINE
  5
2BA
  8
0
 10
58.88
 20
57.549
 30
0.0
 11
58.868
 21
57.549
 31
0.0
  0
LINE
  5
2BB
  8
0
 10
59.428
 20
57.685
 30
0.0
 11
59.428
 21
57.71
 31
0.0
  0
LINE
  5
2BC
  8
0
 10
59.428
 20
58.128
 30
0.0
 11
59.428
 21
58.14
 31
0.0
  0
LINE
  5
2BD
  8
0
 10
59.404
 20
57.734
 30
0.0
 11
58.887
 21
57.947
 31
0.0
  0
LINE
  5
2BE
  8
0
 10
59.483
 20
57.81
 30
0.0
 11
59.483
 21
57.778
 31
0.0
  0
LINE
  5
2BF
  8
0
 10
59.459
 20
58.12
 30
0.0
 11
59.459
 21
58.14
 31
0.0
  0
LINE
  5
2C0
  8
0
 10
59.448
 20
58.14
 30
0.0
 11
59.448
 21
58.12
 31
0.0
  0
LINE
  5
2C1
  8
0
 10
59.448
 20
58.14
 30
0.0
 11
59.428
 21
58.14
 31
0.0
  0
LINE
  5
2C2
  8
0
 10
59.471
 20
57.71
 30
0.0
 11
59.428
 21
57.685
 31
0.0
  0
LINE
  5
2C3
  8
0
 10
58.887
 20
57.529
 30
0.0
 11
51.928
 21
55.507
 31
0.0
  0
LINE
  5
2C4
  8
0
 10
51.873
 20
55.495
 30
0.0
 11
45.978
 21
53.778
 31
0.0
  0
LINE
  5
2C5
  8
0
 10
45.978
 20
53.778
 30
0.0
 11
45.931
 21
53.79
 31
0.0
  0
LINE
  5
2C6
  8
0
 10
59.953
 20
57.505
 30
0.0
 11
59.965
 21
57.505
 31
0.0
  0
LINE
  5
2C7
  8
0
 10
45.864
 20
53.405
 30
0.0
 11
45.383
 21
53.61
 31
0.0
  0
LINE
  5
2C8
  8
0
 10
45.383
 20
53.61
 30
0.0
 11
45.426
 21
53.622
 31
0.0
  0
LINE
  5
2C9
  8
0
 10
45.383
 20
53.61
 30
0.0
 11
45.359
 21
53.61
 31
0.0
  0
LINE
  5
2CA
  8
0
 10
59.507
 20
58.14
 30
0.0
 11
59.988
 21
57.947
 31
0.0
  0
LINE
  5
2CB
  8
0
 10
59.515
 20
57.81
 30
0.0
 11
59.507
 21
58.14
 31
0.0
  0
LINE
  5
2CC
  8
0
 10
59.507
 20
58.14
 30
0.0
 11
59.459
 21
58.14
 31
0.0
  0
LINE
  5
2CD
  8
0
 10
59.953
 20
57.505
 30
0.0
 11
51.928
 21
55.177
 31
0.0
  0
LINE
  5
2CE
  8
0
 10
51.873
 20
55.153
 30
0.0
 11
45.864
 21
53.405
 31
0.0
  0
LINE
  5
2CF
  8
0
 10
59.471
 20
57.71
 30
0.0
 11
59.953
 21
57.505
 31
0.0
  0
LINE
  5
2D0
  8
0
 10
59.495
 20
57.754
 30
0.0
 11
59.483
 21
57.778
 31
0.0
  0
LINE
  5
2D1
  8
0
 10
59.515
 20
57.766
 30
0.0
 11
59.515
 21
57.81
 31
0.0
  0
LINE
  5
2D2
  8
0
 10
45.864
 20
53.778
 30
0.0
 11
45.888
 21
53.758
 31
0.0
  0
LINE
  5
2D3
  8
0
 10
45.418
 20
53.642
 30
0.0
 11
45.426
 21
53.634
 31
0.0
  0
LINE
  5
2D4
  8
0
 10
58.955
 20
57.573
 30
0.0
 11
58.966
 21
57.561
 31
0.0
  0
LINE
  5
2D5
  8
0
 10
59.416
 20
57.71
 30
0.0
 11
59.428
 21
57.697
 31
0.0
  0
LINE
  5
2D6
  8
0
 10
59.965
 20
57.505
 30
0.0
 11
60.0
 21
57.537
 31
0.0
  0
LINE
  5
2D7
  8
0
 10
60.0
 20
57.537
 30
0.0
 11
60.0
 21
57.561
 31
0.0
  0
LINE
  5
2D8
  8
0
 10
59.483
 20
57.71
 30
0.0
 11
59.515
 21
57.754
 31
0.0
  0
LINE
  5
2D9
  8
0
 10
59.515
 20
57.754
 30
0.0
 11
59.515
 21
57.766
 31
0.0
  0
LINE
  5
2DA
  8
0
 10
59.483
 20
57.742
 30
0.0
 11
59.495
 21
57.754
 31
0.0
  0
LINE
  5
2DB
  8
0
 10
45.351
 20
53.622
 30
0.0
 11
45.371
 21
53.61
 31
0.0
  0
LINE
  5
2DC
  8
0
 10
45.955
 20
53.79
 30
0.0
 11
45.955
 21
53.778
 31
0.0
  0
LINE
  5
2DD
  8
0
 10
45.955
 20
53.778
 30
0.0
 11
45.978
 21
53.778
 31
0.0
  0
LINE
  5
2DE
  8
0
 10
59.965
 20
57.505
 30
0.0
 11
59.976
 21
57.517
 31
0.0
  0
LINE
  5
2DF
  8
0
 10
59.976
 20
57.517
 30
0.0
 11
59.988
 21
57.537
 31
0.0
  0
LINE
  5
2E0
  8
0
 10
9.078
 20
76.425
 30
0.0
 11
8.979
 21
76.457
 31
0.0
  0
LINE
  5
2E1
  8
0
 10
9.315
 20
76.457
 30
0.0
 11
9.35
 21
76.457
 31
0.0
  0
LINE
  5
2E2
  8
0
 10
9.011
 20
76.469
 30
0.0
 11
8.979
 21
76.457
 31
0.0
  0
LINE
  5
2E3
  8
0
 10
8.979
 20
76.457
 30
0.0
 11
8.979
 21
77.49
 31
0.0
  0
LINE
  5
2E4
  8
0
 10
8.261
 20
76.187
 30
0.0
 11
6.691
 21
76.823
 31
0.0
  0
LINE
  5
2E5
  8
0
 10
9.35
 20
76.457
 30
0.0
 11
9.406
 21
76.481
 31
0.0
  0
LINE
  5
2E6
  8
0
 10
8.183
 20
76.786
 30
0.0
 11
8.013
 21
76.855
 31
0.0
  0
LINE
  5
2E7
  8
0
 10
8.183
 20
76.786
 30
0.0
 11
8.273
 21
76.81
 31
0.0
  0
LINE
  5
2E8
  8
0
 10
8.317
 20
76.786
 30
0.0
 11
8.104
 21
76.879
 31
0.0
  0
LINE
  5
2E9
  8
0
 10
8.104
 20
76.879
 30
0.0
 11
7.969
 21
76.843
 31
0.0
  0
LINE
  5
2EA
  8
0
 10
8.183
 20
76.786
 30
0.0
 11
8.183
 21
76.754
 31
0.0
  0
LINE
  5
2EB
  8
0
 10
6.186
 20
75.653
 30
0.0
 11
6.166
 21
75.641
 31
0.0
  0
LINE
  5
2EC
  8
0
 10
6.166
 20
75.641
 30
0.0
 11
6.166
 21
76.674
 31
0.0
  0
LINE
  5
2ED
  8
0
 10
14.033
 20
76.051
 30
0.0
 11
14.057
 21
76.051
 31
0.0
  0
LINE
  5
2EE
  8
0
 10
14.033
 20
76.051
 30
0.0
 11
14.022
 21
76.051
 31
0.0
  0
LINE
  5
2EF
  8
0
 10
14.022
 20
76.051
 30
0.0
 11
13.966
 21
76.051
 31
0.0
  0
LINE
  5
2F0
  8
0
 10
14.057
 20
76.051
 30
0.0
 11
14.124
 21
76.071
 31
0.0
  0
LINE
  5
2F1
  8
0
 10
14.124
 20
76.071
 30
0.0
 11
14.629
 21
76.22
 31
0.0
  0
LINE
  5
2F2
  8
0
 10
14.629
 20
76.22
 30
0.0
 11
15.087
 21
76.039
 31
0.0
  0
LINE
  5
2F3
  8
0
 10
14.649
 20
76.276
 30
0.0
 11
14.637
 21
76.288
 31
0.0
  0
LINE
  5
2F4
  8
0
 10
14.649
 20
76.344
 30
0.0
 11
14.649
 21
76.561
 31
0.0
  0
LINE
  5
2F5
  8
0
 10
14.673
 20
76.561
 30
0.0
 11
14.673
 21
76.276
 31
0.0
  0
LINE
  5
2F6
  8
0
 10
14.637
 20
76.288
 30
0.0
 11
14.637
 21
76.332
 31
0.0
  0
LINE
  5
2F7
  8
0
 10
14.637
 20
76.332
 30
0.0
 11
14.649
 21
76.344
 31
0.0
  0
LINE
  5
2F8
  8
0
 10
45.418
 20
53.634
 30
0.0
 11
45.864
 21
53.77
 31
0.0
  0
LINE
  5
2F9
  8
0
 10
45.864
 20
53.77
 30
0.0
 11
45.931
 21
53.79
 31
0.0
  0
LINE
  5
2FA
  8
0
 10
45.931
 20
53.79
 30
0.0
 11
45.955
 21
53.79
 31
0.0
  0
LINE
  5
2FB
  8
0
 10
45.418
 20
53.634
 30
0.0
 11
45.351
 21
53.622
 31
0.0
  0
LINE
  5
2FC
  8
0
 10
59.448
 20
58.12
 30
0.0
 11
14.649
 21
76.618
 31
0.0
  0
LINE
  5
2FD
  8
0
 10
0.572
 20
72.156
 30
0.0
 11
0.56
 21
72.156
 31
0.0
  0
LINE
  5
2FE
  8
0
 10
1.053
 20
72.268
 30
0.0
 11
1.101
 21
72.288
 31
0.0
  0
LINE
  5
2FF
  8
0
 10
1.101
 20
72.288
 30
0.0
 11
1.12
 21
72.288
 31
0.0
  0
LINE
  5
300
  8
0
 10
1.12
 20
72.288
 30
0.0
 11
1.101
 21
72.313
 31
0.0
  0
LINE
  5
301
  8
0
 10
1.077
 20
72.313
 30
0.0
 11
1.065
 21
72.313
 31
0.0
  0
LINE
  5
302
  8
0
 10
1.077
 20
72.313
 30
0.0
 11
1.101
 21
72.313
 31
0.0
  0
LINE
  5
303
  8
0
 10
1.109
 20
72.313
 30
0.0
 11
1.12
 21
72.313
 31
0.0
  0
LINE
  5
304
  8
0
 10
1.12
 20
72.313
 30
0.0
 11
1.12
 21
72.301
 31
0.0
  0
LINE
  5
305
  8
0
 10
14.033
 20
76.051
 30
0.0
 11
58.832
 21
57.537
 31
0.0
  0
LINE
  5
306
  8
0
 10
58.887
 20
57.947
 30
0.0
 11
15.087
 21
76.039
 31
0.0
  0
LINE
  5
307
  8
0
 10
1.144
 20
72.301
 30
0.0
 11
45.059
 21
54.164
 31
0.0
  0
LINE
  5
308
  8
0
 10
45.047
 20
54.188
 30
0.0
 11
1.156
 21
72.301
 31
0.0
  0
LINE
  5
309
  8
0
 10
1.156
 20
72.301
 30
0.0
 11
1.199
 21
72.337
 31
0.0
  0
LINE
  5
30A
  8
0
 10
5.819
 20
75.436
 30
0.0
 11
5.851
 21
75.448
 31
0.0
  0
LINE
  5
30B
  8
0
 10
6.166
 20
75.641
 30
0.0
 11
6.265
 21
75.597
 31
0.0
  0
LINE
  5
30C
  8
0
 10
6.289
 20
75.605
 30
0.0
 11
6.186
 21
75.653
 31
0.0
  0
LINE
  5
30D
  8
0
 10
12.14
 20
75.516
 30
0.0
 11
22.24
 21
71.36
 31
0.0
  0
LINE
  5
30E
  8
0
 10
8.317
 20
76.786
 30
0.0
 11
8.183
 21
76.754
 31
0.0
  0
LINE
  5
30F
  8
0
 10
8.183
 20
76.754
 30
0.0
 11
7.969
 21
76.843
 31
0.0
  0
LINE
  5
310
  8
0
 10
13.765
 20
74.503
 30
0.0
 11
13.832
 21
74.572
 31
0.0
  0
LINE
  5
311
  8
0
 10
13.832
 20
74.572
 30
0.0
 11
13.856
 21
74.584
 31
0.0
  0
LINE
  5
312
  8
0
 10
13.797
 20
74.503
 30
0.0
 11
13.797
 21
74.495
 31
0.0
  0
LINE
  5
313
  8
0
 10
13.797
 20
74.503
 30
0.0
 11
14.01
 21
74.515
 31
0.0
  0
LINE
  5
314
  8
0
 10
14.01
 20
74.503
 30
0.0
 11
13.797
 21
74.495
 31
0.0
  0
LINE
  5
315
  8
0
 10
14.01
 20
74.503
 30
0.0
 11
14.01
 21
74.515
 31
0.0
  0
LINE
  5
316
  8
0
 10
14.069
 20
74.596
 30
0.0
 11
13.856
 21
74.584
 31
0.0
  0
LINE
  5
317
  8
0
 10
14.033
 20
74.527
 30
0.0
 11
14.033
 21
74.515
 31
0.0
  0
LINE
  5
318
  8
0
 10
14.033
 20
74.527
 30
0.0
 11
14.01
 21
74.515
 31
0.0
  0
LINE
  5
319
  8
0
 10
14.01
 20
74.503
 30
0.0
 11
14.033
 21
74.515
 31
0.0
  0
LINE
  5
31A
  8
0
 10
14.033
 20
74.527
 30
0.0
 11
14.1
 21
74.596
 31
0.0
  0
LINE
  5
31B
  8
0
 10
14.1
 20
74.584
 30
0.0
 11
14.033
 21
74.515
 31
0.0
  0
LINE
  5
31C
  8
0
 10
14.1
 20
74.584
 30
0.0
 11
14.1
 21
74.596
 31
0.0
  0
LINE
  5
31D
  8
0
 10
1.053
 20
72.268
 30
0.0
 11
0.541
 21
72.12
 31
0.0
  0
LINE
  5
31E
  8
0
 10
1.12
 20
72.289
 30
0.0
 11
1.144
 21
72.301
 31
0.0
  0
LINE
  5
31F
  8
0
 10
0.541
 20
72.12
 30
0.0
 11
0.529
 21
72.132
 31
0.0
  0
LINE
  5
320
  8
0
 10
31.933
 20
66.874
 30
0.0
 11
47.983
 21
60.242
 31
0.0
  0
LINE
  5
321
  8
0
 10
49.529
 20
60.081
 30
0.0
 11
36.529
 21
65.443
 31
0.0
  0
LINE
  5
322
  8
0
 10
49.517
 20
59.856
 30
0.0
 11
49.73
 21
59.868
 31
0.0
  0
LINE
  5
323
  8
0
 10
49.517
 20
59.856
 30
0.0
 11
49.498
 21
59.844
 31
0.0
  0
LINE
  5
324
  8
0
 10
49.699
 20
59.8
 30
0.0
 11
49.766
 21
59.868
 31
0.0
  0
LINE
  5
325
  8
0
 10
49.766
 20
59.856
 30
0.0
 11
49.699
 21
59.788
 31
0.0
  0
LINE
  5
326
  8
0
 10
49.699
 20
59.788
 30
0.0
 11
49.675
 21
59.776
 31
0.0
  0
LINE
  5
327
  8
0
 10
49.675
 20
59.788
 30
0.0
 11
49.699
 21
59.8
 31
0.0
  0
LINE
  5
328
  8
0
 10
49.699
 20
59.8
 30
0.0
 11
49.699
 21
59.788
 31
0.0
  0
LINE
  5
329
  8
0
 10
49.766
 20
59.856
 30
0.0
 11
49.766
 21
59.868
 31
0.0
  0
LINE
  5
32A
  8
0
 10
49.498
 20
59.844
 30
0.0
 11
49.431
 21
59.776
 31
0.0
  0
LINE
  5
32B
  8
0
 10
49.462
 20
59.764
 30
0.0
 11
49.675
 21
59.776
 31
0.0
  0
LINE
  5
32C
  8
0
 10
49.675
 20
59.788
 30
0.0
 11
49.462
 21
59.776
 31
0.0
  0
LINE
  5
32D
  8
0
 10
49.675
 20
59.776
 30
0.0
 11
49.675
 21
59.788
 31
0.0
  0
LINE
  5
32E
  8
0
 10
49.462
 20
59.776
 30
0.0
 11
49.462
 21
59.764
 31
0.0
  0
LINE
  5
32F
  8
0
 10
31.933
 20
66.874
 30
0.0
 11
28.773
 21
68.168
 31
0.0
  0
LINE
  5
330
  8
0
 10
26.307
 20
69.68
 30
0.0
 11
36.529
 21
65.443
 31
0.0
  0
LINE
  5
331
  8
0
 10
28.517
 20
68.293
 30
0.0
 11
21.924
 21
71.006
 31
0.0
  0
LINE
  5
332
  8
0
 10
22.24
 20
71.36
 30
0.0
 11
25.546
 21
69.985
 31
0.0
  0
LINE
  5
333
  8
0
 10
21.924
 20
71.006
 30
0.0
 11
21.119
 21
71.336
 31
0.0
  0
LINE
  5
334
  8
0
 10
21.119
 20
71.336
 30
0.0
 11
20.299
 21
71.665
 31
0.0
  0
LINE
  5
335
  8
0
 10
26.284
 20
69.688
 30
0.0
 11
26.307
 21
69.68
 31
0.0
  0
LINE
  5
336
  8
0
 10
26.138
 20
69.748
 30
0.0
 11
25.767
 21
69.893
 31
0.0
  0
LINE
  5
337
  8
0
 10
26.138
 20
69.748
 30
0.0
 11
26.284
 21
69.688
 31
0.0
  0
LINE
  5
338
  8
0
 10
26.307
 20
69.68
 30
0.0
 11
26.138
 21
69.748
 31
0.0
  0
LINE
  5
339
  8
0
 10
25.767
 20
69.893
 30
0.0
 11
25.711
 21
69.917
 31
0.0
  0
LINE
  5
33A
  8
0
 10
25.711
 20
69.917
 30
0.0
 11
25.546
 21
69.985
 31
0.0
  0
LINE
  5
33B
  8
0
 10
25.546
 20
69.985
 30
0.0
 11
25.711
 21
69.917
 31
0.0
  0
LINE
  5
33C
  8
0
 10
28.517
 20
68.293
 30
0.0
 11
28.627
 21
68.237
 31
0.0
  0
LINE
  5
33D
  8
0
 10
28.627
 20
68.237
 30
0.0
 11
28.659
 21
68.225
 31
0.0
  0
LINE
  5
33E
  8
0
 10
28.659
 20
68.225
 30
0.0
 11
28.761
 21
68.18
 31
0.0
  0
LINE
  5
33F
  8
0
 10
28.761
 20
68.18
 30
0.0
 11
28.773
 21
68.168
 31
0.0
  0
LINE
  5
340
  8
0
 10
20.299
 20
71.665
 30
0.0
 11
11.465
 21
75.323
 31
0.0
  0
LINE
  5
341
  8
0
 10
47.983
 20
60.242
 30
0.0
 11
51.257
 21
58.891
 31
0.0
  0
LINE
  5
342
  8
0
 10
50.875
 20
59.526
 30
0.0
 11
49.529
 21
60.081
 31
0.0
  0
LINE
  5
343
  8
0
 10
51.403
 20
58.835
 30
0.0
 11
51.794
 21
58.662
 31
0.0
  0
LINE
  5
344
  8
0
 10
51.458
 20
59.277
 30
0.0
 11
51.123
 21
59.414
 31
0.0
  0
LINE
  5
345
  8
0
 10
51.257
 20
58.891
 30
0.0
 11
51.403
 21
58.835
 31
0.0
  0
LINE
  5
346
  8
0
 10
51.904
 20
59.153
 30
0.0
 11
52.019
 21
59.14
 31
0.0
  0
LINE
  5
347
  8
0
 10
52.019
 20
59.104
 30
0.0
 11
51.904
 21
59.116
 31
0.0
  0
LINE
  5
348
  8
0
 10
51.66
 20
59.265
 30
0.0
 11
51.458
 21
59.277
 31
0.0
  0
LINE
  5
349
  8
0
 10
51.123
 20
59.414
 30
0.0
 11
51.032
 21
59.458
 31
0.0
  0
LINE
  5
34A
  8
0
 10
51.032
 20
59.458
 30
0.0
 11
50.989
 21
59.482
 31
0.0
  0
LINE
  5
34B
  8
0
 10
50.989
 20
59.482
 30
0.0
 11
50.875
 21
59.526
 31
0.0
  0
LINE
  5
34C
  8
0
 10
51.904
 20
58.618
 30
0.0
 11
52.962
 21
58.188
 31
0.0
  0
LINE
  5
34D
  8
0
 10
52.962
 20
58.188
 30
0.0
 11
52.969
 21
58.176
 31
0.0
  0
LINE
  5
34E
  8
0
 10
52.981
 20
58.176
 30
0.0
 11
53.005
 21
58.164
 31
0.0
  0
LINE
  5
34F
  8
0
 10
52.981
 20
58.176
 30
0.0
 11
52.969
 21
58.176
 31
0.0
  0
LINE
  5
350
  8
0
 10
52.969
 20
58.176
 30
0.0
 11
52.981
 21
58.176
 31
0.0
  0
LINE
  5
351
  8
0
 10
53.005
 20
58.164
 30
0.0
 11
53.037
 21
58.164
 31
0.0
  0
LINE
  5
352
  8
0
 10
53.037
 20
58.164
 30
0.0
 11
53.127
 21
58.12
 31
0.0
  0
LINE
  5
353
  8
0
 10
45.852
 20
53.835
 30
0.0
 11
45.797
 21
53.859
 31
0.0
  0
LINE
  5
354
  8
0
 10
45.852
 20
53.835
 30
0.0
 11
45.864
 21
53.835
 31
0.0
  0
LINE
  5
355
  8
0
 10
45.797
 20
53.859
 30
0.0
 11
45.785
 21
53.859
 31
0.0
  0
LINE
  5
356
  8
0
 10
45.371
 20
54.052
 30
0.0
 11
45.193
 21
54.132
 31
0.0
  0
LINE
  5
357
  8
0
 10
45.17
 20
54.12
 30
0.0
 11
45.351
 21
54.04
 31
0.0
  0
LINE
  5
358
  8
0
 10
45.383
 20
54.04
 30
0.0
 11
45.426
 21
54.02
 31
0.0
  0
LINE
  5
359
  8
0
 10
45.383
 20
54.04
 30
0.0
 11
45.371
 21
54.052
 31
0.0
  0
LINE
  5
35A
  8
0
 10
45.193
 20
54.132
 30
0.0
 11
45.114
 21
54.144
 31
0.0
  0
LINE
  5
35B
  8
0
 10
45.17
 20
54.12
 30
0.0
 11
45.059
 21
54.164
 31
0.0
  0
LINE
  5
35C
  8
0
 10
45.059
 20
54.164
 30
0.0
 11
45.047
 21
54.188
 31
0.0
  0
LINE
  5
35D
  8
0
 10
45.059
 20
54.164
 30
0.0
 11
45.114
 21
54.144
 31
0.0
  0
LINE
  5
35E
  8
0
 10
45.371
 20
54.028
 30
0.0
 11
45.426
 21
54.02
 31
0.0
  0
LINE
  5
35F
  8
0
 10
45.371
 20
54.028
 30
0.0
 11
45.351
 21
54.04
 31
0.0
  0
LINE
  5
360
  8
0
 10
45.438
 20
54.02
 30
0.0
 11
45.967
 21
53.803
 31
0.0
  0
LINE
  5
361
  8
0
 10
45.493
 20
53.983
 30
0.0
 11
45.426
 21
54.02
 31
0.0
  0
LINE
  5
362
  8
0
 10
45.426
 20
54.02
 30
0.0
 11
45.438
 21
54.02
 31
0.0
  0
LINE
  5
363
  8
0
 10
45.493
 20
53.983
 30
0.0
 11
45.785
 21
53.859
 31
0.0
  0
LINE
  5
364
  8
0
 10
45.967
 20
53.803
 30
0.0
 11
50.192
 21
56.721
 31
0.0
  0
LINE
  5
365
  8
0
 10
45.955
 20
53.79
 30
0.0
 11
45.864
 21
53.835
 31
0.0
  0
LINE
  5
366
  8
0
 10
51.904
 20
59.096
 30
0.0
 11
54.508
 21
58.027
 31
0.0
  0
LINE
  5
367
  8
0
 10
53.834
 20
57.834
 30
0.0
 11
53.127
 21
58.12
 31
0.0
  0
LINE
  5
368
  8
0
 10
53.834
 20
57.834
 30
0.0
 11
54.508
 21
58.027
 31
0.0
  0
LINE
  5
369
  8
0
 10
54.508
 20
58.027
 30
0.0
 11
58.832
 21
57.537
 31
0.0
  0
LINE
  5
36A
  8
0
 10
58.832
 20
57.537
 30
0.0
 11
58.844
 21
57.537
 31
0.0
  0
LINE
  5
36B
  8
0
 10
58.955
 20
57.573
 30
0.0
 11
59.448
 21
57.722
 31
0.0
  0
LINE
  5
36C
  8
0
 10
58.955
 20
57.573
 30
0.0
 11
58.935
 21
57.573
 31
0.0
  0
LINE
  5
36D
  8
0
 10
58.935
 20
57.573
 30
0.0
 11
58.868
 21
57.549
 31
0.0
  0
LINE
  5
36E
  8
0
 10
58.868
 20
57.549
 30
0.0
 11
58.844
 21
57.537
 31
0.0
  0
LINE
  5
36F
  8
0
 10
59.404
 20
57.734
 30
0.0
 11
59.448
 21
57.722
 31
0.0
  0
LINE
  5
370
  8
0
 10
59.404
 20
57.734
 30
0.0
 11
58.887
 21
57.947
 31
0.0
  0
LINE
  5
371
  8
0
 10
59.483
 20
58.059
 30
0.0
 11
59.483
 21
57.81
 31
0.0
  0
LINE
  5
372
  8
0
 10
59.483
 20
57.81
 30
0.0
 11
59.483
 21
57.778
 31
0.0
  0
LINE
  5
373
  8
0
 10
45.351
 20
53.622
 30
0.0
 11
0.541
 21
72.12
 31
0.0
  0
LINE
  5
374
  8
0
 10
14.637
 20
76.232
 30
0.0
 11
14.673
 21
76.276
 31
0.0
  0
LINE
  5
375
  8
0
 10
14.673
 20
76.276
 30
0.0
 11
14.673
 21
76.288
 31
0.0
  0
LINE
  5
376
  8
0
 10
14.637
 20
76.264
 30
0.0
 11
14.649
 21
76.276
 31
0.0
  0
LINE
  5
377
  8
0
 10
0.505
 20
72.144
 30
0.0
 11
0.529
 21
72.132
 31
0.0
  0
LINE
  5
378
  8
0
 10
59.471
 20
57.742
 30
0.0
 11
59.483
 21
57.79
 31
0.0
  0
LINE
  5
379
  8
0
 10
59.459
 20
57.722
 30
0.0
 11
59.483
 21
57.742
 31
0.0
  0
LINE
  5
37A
  8
0
 10
8.632
 20
77.028
 30
0.0
 11
8.711
 21
77.036
 31
0.0
  0
LINE
  5
37B
  8
0
 10
8.711
 20
77.036
 30
0.0
 11
8.778
 21
77.028
 31
0.0
  0
LINE
  5
37C
  8
0
 10
8.778
 20
77.028
 30
0.0
 11
8.845
 21
77.015
 31
0.0
  0
LINE
  5
37D
  8
0
 10
8.845
 20
77.015
 30
0.0
 11
8.865
 21
76.991
 31
0.0
  0
LINE
  5
37E
  8
0
 10
8.81
 20
76.979
 30
0.0
 11
8.731
 21
76.967
 31
0.0
  0
LINE
  5
37F
  8
0
 10
8.731
 20
76.967
 30
0.0
 11
8.644
 21
76.979
 31
0.0
  0
LINE
  5
380
  8
0
 10
8.644
 20
76.979
 30
0.0
 11
8.585
 21
77.003
 31
0.0
  0
LINE
  5
381
  8
0
 10
8.865
 20
76.991
 30
0.0
 11
8.845
 21
76.959
 31
0.0
  0
LINE
  5
382
  8
0
 10
8.845
 20
76.959
 30
0.0
 11
8.79
 21
76.947
 31
0.0
  0
LINE
  5
383
  8
0
 10
8.79
 20
76.947
 30
0.0
 11
8.719
 21
76.935
 31
0.0
  0
LINE
  5
384
  8
0
 10
8.719
 20
76.935
 30
0.0
 11
8.652
 21
76.947
 31
0.0
  0
LINE
  5
385
  8
0
 10
8.652
 20
76.947
 30
0.0
 11
8.597
 21
76.959
 31
0.0
  0
LINE
  5
386
  8
0
 10
8.597
 20
76.959
 30
0.0
 11
8.585
 21
76.991
 31
0.0
  0
LINE
  5
387
  8
0
 10
8.585
 20
76.991
 30
0.0
 11
8.597
 21
77.003
 31
0.0
  0
LINE
  5
388
  8
0
 10
8.597
 20
77.003
 30
0.0
 11
8.632
 21
77.028
 31
0.0
  0
LINE
  5
389
  8
0
 10
8.857
 20
77.003
 30
0.0
 11
8.834
 21
76.991
 31
0.0
  0
LINE
  5
38A
  8
0
 10
8.834
 20
76.991
 30
0.0
 11
8.81
 21
76.979
 31
0.0
  0
LINE
  5
38B
  8
0
 10
14.649
 20
76.618
 30
0.0
 11
14.673
 21
76.593
 31
0.0
  0
LINE
  5
38C
  8
0
 10
14.673
 20
76.593
 30
0.0
 11
14.673
 21
76.561
 31
0.0
  0
LINE
  5
38D
  8
0
 10
1.144
 20
72.301
 30
0.0
 11
1.156
 21
72.301
 31
0.0
  0
LINE
  5
38E
  8
0
 10
13.797
 20
74.503
 30
0.0
 11
13.777
 21
74.503
 31
0.0
  0
LINE
  5
38F
  8
0
 10
13.777
 20
74.503
 30
0.0
 11
13.765
 21
74.515
 31
0.0
  0
LINE
  5
390
  8
0
 10
13.797
 20
74.495
 30
0.0
 11
13.789
 21
74.495
 31
0.0
  0
LINE
  5
391
  8
0
 10
13.789
 20
74.495
 30
0.0
 11
13.765
 21
74.503
 31
0.0
  0
LINE
  5
392
  8
0
 10
14.069
 20
74.596
 30
0.0
 11
14.089
 21
74.596
 31
0.0
  0
LINE
  5
393
  8
0
 10
14.089
 20
74.596
 30
0.0
 11
14.1
 21
74.584
 31
0.0
  0
LINE
  5
394
  8
0
 10
49.462
 20
59.776
 30
0.0
 11
49.438
 21
59.776
 31
0.0
  0
LINE
  5
395
  8
0
 10
49.438
 20
59.776
 30
0.0
 11
49.431
 21
59.788
 31
0.0
  0
LINE
  5
396
  8
0
 10
49.462
 20
59.764
 30
0.0
 11
49.438
 21
59.764
 31
0.0
  0
LINE
  5
397
  8
0
 10
49.438
 20
59.764
 30
0.0
 11
49.431
 21
59.776
 31
0.0
  0
LINE
  5
398
  8
0
 10
49.73
 20
59.868
 30
0.0
 11
49.754
 21
59.868
 31
0.0
  0
LINE
  5
399
  8
0
 10
49.754
 20
59.868
 30
0.0
 11
49.766
 21
59.856
 31
0.0
  0
LINE
  5
39A
  8
0
 10
51.66
 20
59.265
 30
0.0
 11
51.794
 21
59.229
 31
0.0
  0
LINE
  5
39B
  8
0
 10
51.794
 20
59.229
 30
0.0
 11
51.952
 21
59.197
 31
0.0
  0
LINE
  5
39C
  8
0
 10
51.952
 20
59.197
 30
0.0
 11
52.042
 21
59.161
 31
0.0
  0
LINE
  5
39D
  8
0
 10
52.042
 20
59.161
 30
0.0
 11
52.086
 21
59.14
 31
0.0
  0
LINE
  5
39E
  8
0
 10
52.086
 20
59.14
 30
0.0
 11
52.109
 21
59.116
 31
0.0
  0
LINE
  5
39F
  8
0
 10
51.794
 20
59.128
 30
0.0
 11
51.66
 21
59.104
 31
0.0
  0
LINE
  5
3A0
  8
0
 10
51.66
 20
59.104
 30
0.0
 11
51.514
 21
59.116
 31
0.0
  0
LINE
  5
3A1
  8
0
 10
51.514
 20
59.116
 30
0.0
 11
51.423
 21
59.141
 31
0.0
  0
LINE
  5
3A2
  8
0
 10
51.423
 20
59.141
 30
0.0
 11
51.368
 21
59.173
 31
0.0
  0
LINE
  5
3A3
  8
0
 10
51.368
 20
59.173
 30
0.0
 11
51.356
 21
59.209
 31
0.0
  0
LINE
  5
3A4
  8
0
 10
51.794
 20
59.161
 30
0.0
 11
51.66
 21
59.141
 31
0.0
  0
LINE
  5
3A5
  8
0
 10
51.66
 20
59.141
 30
0.0
 11
51.514
 21
59.153
 31
0.0
  0
LINE
  5
3A6
  8
0
 10
51.514
 20
59.153
 30
0.0
 11
51.411
 21
59.173
 31
0.0
  0
LINE
  5
3A7
  8
0
 10
51.411
 20
59.173
 30
0.0
 11
51.356
 21
59.221
 31
0.0
  0
LINE
  5
3A8
  8
0
 10
51.356
 20
59.209
 30
0.0
 11
51.38
 21
59.241
 31
0.0
  0
LINE
  5
3A9
  8
0
 10
51.38
 20
59.241
 30
0.0
 11
51.458
 21
59.277
 31
0.0
  0
LINE
  5
3AA
  8
0
 10
52.086
 20
59.141
 30
0.0
 11
52.062
 21
59.141
 31
0.0
  0
LINE
  5
3AB
  8
0
 10
52.062
 20
59.141
 30
0.0
 11
52.019
 21
59.141
 31
0.0
  0
LINE
  5
3AC
  8
0
 10
52.109
 20
59.116
 30
0.0
 11
52.086
 21
59.104
 31
0.0
  0
LINE
  5
3AD
  8
0
 10
52.086
 20
59.104
 30
0.0
 11
52.019
 21
59.104
 31
0.0
  0
LINE
  5
3AE
  8
0
 10
45.955
 20
53.79
 30
0.0
 11
45.967
 21
53.79
 31
0.0
  0
LINE
  5
3AF
  8
0
 10
45.967
 20
53.79
 30
0.0
 11
45.967
 21
53.803
 31
0.0
  0
LINE
  5
3B0
  8
0
 10
59.448
 20
58.12
 30
0.0
 11
59.471
 21
58.095
 31
0.0
  0
LINE
  5
3B1
  8
0
 10
59.471
 20
58.095
 30
0.0
 11
59.483
 21
58.059
 31
0.0
  0
LINE
  5
3B2
  8
0
 10
35.929
 20
67.831
 30
0.0
 11
48.444
 21
72.386
 31
0.0
  0
LINE
  5
3B3
  8
0
 10
10.041
 20
58.408
 30
0.0
 11
22.644
 21
62.995
 31
0.0
  0
TEXT
  5
3B4
  8
0
 10
0.0
 20
10.0
 30
0.0
 40
3.0
  1
三菱 MY-B430135S/W AHZ
 11
0.0
 21
10.0
 31
0.0
  0
TEXT
  5
3B5
  8
0
 10
0.0
 20
95.0
 30
0.0
 40
3.0
  1
My40形3200連調 埋込300幅SW付
 11
0.0
 21
95.0
 31
0.0
  0
TEXT
  5
3B6
  8
0
 10
50.0
 20
35.0
 30
0.0
 40
1.5
  1
Myシリーズ 白色（4000K)　Ra85
 11
50.0
 21
35.0
 31
0.0
  0
TEXT
  5
3B7
  8
0
 10
50.0
 20
32.0
 30
0.0
 40
1.5
  1
100V～242V共用タイプ 連続調光　5～100　初期照度補正
 11
50.0
 21
32.0
 31
0.0
  0
TEXT
  5
3B8
  8
0
 10
50.0
 20
29.0
 30
0.0
 40
1.5
  1
本体：鋼板・白色仕上（高反射白色塗装）
 11
50.0
 21
29.0
 31
0.0
  0
TEXT
  5
3B9
  8
0
 10
50.0
 20
26.0
 30
0.0
 40
1.5
  1
光源寿命：40,000時間
 11
50.0
 21
26.0
 31
0.0
  0
TEXT
  5
3BA
  8
0
 10
50.0
 20
23.0
 30
0.0
 40
1.5
  1
光束：2790lm 消費電力：21.4W 消費効率：130.3lm/W
 11
50.0
 21
23.0
 31
0.0
  0
TEXT
  5
3BB
  8
0
 10
50.0
 20
20.0
 30
0.0
 40
1.5
  1
埋込穴：300×1257
 11
50.0
 21
20.0
 31
0.0
  0
VIEWPORT
  5
76
 67
1
  8
0
 10
128.5
 20
97.5
 30
0.0
 40
314.226
 41
222.18
 68
1
 69
1
1001
ACAD
1000
MVIEW
1002
{
1070
16
1010
0.0
1020
0.0
1030
0.0
1010
0.0
1020
0.0
1030
0.0
1040
0
1040
1
1040
0.0
1040
0.0
1040
50
1040
0
1040
0
1070
0
1070
100
1070
0
1070
0
1070
0
1070
0
1070
0
1070
0
1040
0
1040
0.0
1040
0.0
1040
10.0
1040
10.0
1040
10.0
1040
10.0
1070
0
1002
{
1002
}
1002
}
  0
ENDSEC
  0
EOF
