  0
SECTION
  2
HEADER
  9
$ACADVER
  1
AC1009
  9
$DWGCODEPAGE
  3
dos932
  9
$INSBASE
 10
0
 20
0
 30
0
  9
$EXTMIN
 10
-5.3513424691258038
 20
-7.7732925425234818
 30
0
  9
$EXTMAX
 10
120.74282115918197
 20
82.628612508143121
 30
0
  9
$LIMMIN
 10
0
 20
0
  9
$LIMMAX
 10
105
 20
74.25
  9
$SNAPMODE
 70
0
  9
$SNAPUNIT
 10
1
 20
1
  9
$SNAPBASE
 10
0
 20
0
  9
$SNAPANG
 50
0
  9
$SNAPSTYLE
 70
0
  9
$SNAPISOPAIR
 70
0
  9
$ORTHOMODE
 70
0
  9
$REGENMODE
 70
1
  9
$FILLMODE
 70
1
  9
$QTEXTMODE
 70
0
  9
$MIRRTEXT
 70
0
  9
$LTSCALE
 40
0.25
  9
$OSMODE
 70
37
  9
$ATTMODE
 70
1
  9
$TEXTSIZE
 40
0.2
  9
$TRACEWID
 40
0.05
  9
$TEXTSTYLE
  7
STANDARD
  9
$CLAYER
  8
0
  9
$CELTYPE
  6
CONTINUOUS
  9
$CECOLOR
 62
256
  9
$DIMSCALE
 40
1
  9
$DIMASZ
 40
0.18
  9
$DIMEXO
 40
0.0625
  9
$DIMDLI
 40
0.38
  9
$DIMRND
 40
0
  9
$DIMDLE
 40
0
  9
$DIMEXE
 40
0.18
  9
$DIMTP
 40
0
  9
$DIMTM
 40
0
  9
$DIMTXT
 40
0.18
  9
$DIMCEN
 40
0.09
  9
$DIMTSZ
 40
0
  9
$DIMTOL
 70
0
  9
$DIMLIM
 70
0
  9
$DIMTIH
 70
1
  9
$DIMTOH
 70
1
  9
$DIMSE1
 70
0
  9
$DIMSE2
 70
0
  9
$DIMTAD
 70
0
  9
$DIMZIN
 70
0
  9
$DIMBLK
  1

  9
$DIMASO
 70
1
  9
$DIMSHO
 70
1
  9
$DIMPOST
  1

  9
$DIMAPOST
  1

  9
$DIMALT
 70
0
  9
$DIMALTD
 70
2
  9
$DIMALTF
 40
25.4
  9
$DIMLFAC
 40
1
  9
$DIMTOFL
 70
0
  9
$DIMTVP
 40
0
  9
$DIMTIX
 70
0
  9
$DIMSOXD
 70
0
  9
$DIMSAH
 70
0
  9
$DIMBLK1
  1

  9
$DIMBLK2
  1

  9
$DIMSTYLE
  2
STANDARD
  9
$DIMCLRD
 70
0
  9
$DIMCLRE
 70
0
  9
$DIMCLRT
 70
0
  9
$DIMTFAC
 40
1
  9
$DIMGAP
 40
0.09
  9
$LUNITS
 70
2
  9
$LUPREC
 70
4
  9
$SKETCHINC
 40
0.1
  9
$FILLETRAD
 40
0
  9
$AUNITS
 70
0
  9
$AUPREC
 70
0
  9
$MENU
  1
.
  9
$ELEVATION
 40
0
  9
$PELEVATION
 40
0
  9
$THICKNESS
 40
0
  9
$LIMCHECK
 70
0
  9
$CHAMFERA
 40
0
  9
$CHAMFERB
 40
0
  9
$SKPOLY
 70
0
  9
$TDCREATE
 40
2456099.4260040624
  9
$TDUPDATE
 40
2457954.5869888077
  9
$TDINDWG
 40
0.19761511574074075
  9
$TDUSRTIMER
 40
0.19761305555555556
  9
$USRTIMER
 70
1
  9
$ANGBASE
 50
0
  9
$ANGDIR
 70
0
  9
$PDMODE
 70
0
  9
$PDSIZE
 40
0
  9
$PLINEWID
 40
0
  9
$SPLFRAME
 70
0
  9
$SPLINETYPE
 70
6
  9
$SPLINESEGS
 70
8
  9
$HANDLING
 70
1
  9
$HANDSEED
  5
4C8C0
  9
$SURFTAB1
 70
6
  9
$SURFTAB2
 70
6
  9
$SURFTYPE
 70
6
  9
$SURFU
 70
6
  9
$SURFV
 70
6
  9
$UCSORG
 10
0
 20
0
 30
0
  9
$UCSXDIR
 10
1
 20
0
 30
0
  9
$UCSYDIR
 10
0
 20
1
 30
0
  9
$PUCSORG
 10
0
 20
0
 30
0
  9
$PUCSXDIR
 10
1
 20
0
 30
0
  9
$PUCSYDIR
 10
0
 20
1
 30
0
  9
$USERI1
 70
0
  9
$USERI2
 70
0
  9
$USERI3
 70
0
  9
$USERI4
 70
0
  9
$USERI5
 70
0
  9
$USERR1
 40
0
  9
$USERR2
 40
0
  9
$USERR3
 40
0
  9
$USERR4
 40
0
  9
$USERR5
 40
0
  9
$WORLDVIEW
 70
1
  9
$SHADEDGE
 70
3
  9
$SHADEDIF
 70
70
  9
$TILEMODE
 70
1
  9
$MAXACTVP
 70
64
  9
$PINSBASE
 10
0
 20
0
 30
0
  9
$PLIMCHECK
 70
0
  9
$PEXTMIN
 10
1E+20
 20
1E+20
 30
1E+20
  9
$PEXTMAX
 10
-1E+20
 20
-1E+20
 30
-1E+20
  9
$PLIMMAX
 10
12
 20
9
  9
$PLIMMIN
 10
0
 20
0
  9
$UNITMODE
 70
0
  9
$VISRETAIN
 70
1
  9
$PLINEGEN
 70
0
  9
$PSLTSCALE
 70
1
  9
$TREEDEPTH
 70
3020
  9
$DRAGMODE
 70
     2
  9
$BLIPMODE
 70
     0
  9
$COORDS
 70
     1
  9
$ATTDIA
 70
     0
  9
$ATTREQ
 70
     1
  0
ENDSEC
  0
SECTION
  2
TABLES
  0
TABLE
  2
VPORT
  5
4C8B2
 70
1
  0
VPORT
  5
4C886
  2
*ACTIVE
 70
0
 10
0
 20
0
 11
1
 21
1
 12
46.699247255315377
 22
46.359423528392107
 13
0
 23
0
 14
1
 24
1
 15
0
 25
0
 16
0
 26
0
 36
1
 17
0
 27
0
 37
0
 40
210.086859362653
 41
1.3597811217510261
 42
50
 43
0
 44
0
 50
0
 51
0
 71
0
 72
100
 73
1
 74
1
 75
0
 76
0
 77
0
 78
0
  0
ENDTAB
  0
TABLE
  2
LTYPE
  5
4C8B3
 70
39
  0
LTYPE
  5
4C85D
  2
CONTINUOUS
  3
実線
 70
0
 72
65
 73
0
 40
0
  0
LTYPE
  5
4C85E
  2
DASHED1
  3
--  --  --  --  --  --  --  --  
 70
0
 72
65
 73
2
 40
2.5
 49
1.25
 49
-1.25
  0
LTYPE
  5
4C85F
  2
DASHED2
  3
----    ----    ----    ----    
 70
0
 72
65
 73
2
 40
5
 49
2.5
 49
-2.5
  0
LTYPE
  5
4C860
  2
DASHED3
  3
------  ------  ------  ------  
 70
0
 72
65
 73
2
 40
5
 49
3.75
 49
-1.25
  0
LTYPE
  5
4C861
  2
CENTER1
  3
----- - ----- - ----- - ----- - 
 70
0
 72
65
 73
4
 40
10
 49
6.25
 49
-1.25
 49
1.25
 49
-1.25
  0
LTYPE
  5
4C862
  2
CENTER2
  3
----------  --  ----------  --  
 70
0
 72
65
 73
4
 40
20
 49
12.5
 49
-2.5
 49
2.5
 49
-2.5
  0
LTYPE
  5
4C863
  2
PHANTOM1
  3
--- - - --- - - --- - - --- - - 
 70
0
 72
65
 73
6
 40
9.5
 49
3.25
 49
-1.25
 49
1.25
 49
-1.25
 49
1.25
 49
-1.25
  0
LTYPE
  5
4C864
  2
PHANTOM2
  3
--------  -  -  --------  -  -  
 70
0
 72
65
 73
6
 40
20
 49
10
 49
-2.5
 49
1.25
 49
-2.5
 49
1.25
 49
-2.5
  0
LTYPE
  5
4C865
  2
DOT
  3
-   -   -   -   -   -   -   -   
 70
0
 72
65
 73
2
 40
2.5
 49
0.625
 49
-1.875
  0
LTYPE
  5
4C866
  2
DUMMY
  3
ダミー
 70
0
 72
65
 73
0
 40
0
  0
LTYPE
  5
4C867
  2
RAND1
  3
ランダム線1
 70
0
 72
65
 73
4
 40
10
 49
1
 49
-2
 49
3
 49
-4
  0
LTYPE
  5
4C868
  2
RAND2
  3
ランダム線2
 70
0
 72
65
 73
4
 40
14
 49
2
 49
-3
 49
4
 49
-5
  0
LTYPE
  5
4C869
  2
RAND3
  3
ランダム線3
 70
0
 72
65
 73
4
 40
18
 49
3
 49
-4
 49
5
 49
-6
  0
LTYPE
  5
4C86A
  2
RAND4
  3
ランダム線4
 70
0
 72
65
 73
4
 40
22
 49
4
 49
-5
 49
6
 49
-7
  0
LTYPE
  5
4C86B
  2
RAND5
  3
ランダム線5
 70
0
 72
65
 73
4
 40
26
 49
5
 49
-6
 49
7
 49
-8
  0
LTYPE
  5
4C86C
  2
LONG1
  3
----------  --  ----------  --  
 70
0
 72
65
 73
4
 40
40
 49
32.5
 49
-2.5
 49
2.5
 49
-2.5
  0
LTYPE
  5
4C86D
  2
LONG2
  3
--------  -  -  --------  -  -  
 70
0
 72
65
 73
6
 40
40
 49
30
 49
-2.5
 49
1.25
 49
-2.5
 49
1.25
 49
-2.5
  0
LTYPE
  5
4C86E
  2
LONG3
  3
+++++++++++++++..+++++++++++++++
 70
0
 72
65
 73
2
 40
40
 49
37.5
 49
-2.5
  0
LTYPE
  5
4C86F
  2
LONG4
  3
+++++++++++++++..+++++++++++++++
 70
0
 72
65
 73
2
 40
80
 49
75
 49
-5
  0
LTYPE
  5
4C870
  2
LONG5
  3
----------  --  ----------  --  
 70
0
 72
65
 73
4
 40
60
 49
37.5
 49
-7.5
 49
7.5
 49
-7.5
  0
LTYPE
  5
4C871
  2
DASHED
  3
-------   -------------   ------
 70
0
 72
65
 73
2
 40
7.5
 49
6
 49
-1.5
  0
LTYPE
  5
4C872
  2
DASHED_SPACED
  3
----        --------        ----
 70
0
 72
65
 73
2
 40
12
 49
6
 49
-6
  0
LTYPE
  5
4C873
  2
LONG_DASHED_DOTTED
  3
------------- --- --------------
 70
0
 72
65
 73
4
 40
15.25
 49
12
 49
-1.5
 49
0.25
 49
-1.5
  0
LTYPE
  5
4C874
  2
LONG_DASHED_DOUBLE-DOTTED
  3
----------- --- --- ------------
 70
0
 72
65
 73
6
 40
17
 49
12
 49
-1.5
 49
0.25
 49
-1.5
 49
0.25
 49
-1.5
  0
LTYPE
  5
4C875
  2
LONG_DASHED_TRIPLICATE-DOT
  3
--------- --- --- --- ----------
 70
0
 72
65
 73
8
 40
18.75
 49
12
 49
-1.5
 49
0.25
 49
-1.5
 49
0.25
 49
-1.5
 49
0.25
 49
-1.5
  0
LTYPE
  5
4C876
  2
DOTTED
  3
   -       -       -       -    
 70
0
 72
65
 73
2
 40
1.75
 49
0.25
 49
-1.5
  0
LTYPE
  5
4C877
  2
CHAIN
  3
-------------- -- --------------
 70
0
 72
65
 73
4
 40
18.5
 49
12
 49
-1.5
 49
3.5
 49
-1.5
  0
LTYPE
  5
4C878
  2
CHAIN_DOUBLE_DASH
  3
------------ -- -- -------------
 70
0
 72
65
 73
6
 40
23.5
 49
12
 49
-1.5
 49
3.5
 49
-1.5
 49
3.5
 49
-1.5
  0
LTYPE
  5
4C879
  2
DASHED_DOTTED
  3
-----------     -     ----------
 70
0
 72
65
 73
4
 40
9.25
 49
6
 49
-1.5
 49
0.25
 49
-1.5
  0
LTYPE
  5
4C87A
  2
DOUBLE-DASHED_DOTTED
  3
------   -----------   -   -----
 70
0
 72
65
 73
6
 40
16.75
 49
6
 49
-1.5
 49
6
 49
-1.5
 49
0.25
 49
-1.5
  0
LTYPE
  5
4C87B
  2
DASHED_DOUBLE-DOTTED
  3
---------    -    -    ---------
 70
0
 72
65
 73
6
 40
11
 49
6
 49
-1.5
 49
0.25
 49
-1.5
 49
0.25
 49
-1.5
  0
LTYPE
  5
4C87C
  2
DOUBLE-DASHED_DOUBLE-DOTTE
  3
-----   ---------   -   -   ----
 70
0
 72
65
 73
8
 40
18.5
 49
6
 49
-1.5
 49
6
 49
-1.5
 49
0.25
 49
-1.5
 49
0.25
 49
-1.5
  0
LTYPE
  5
4C87D
  2
DASHED_TRIPLICATE-DOTTED
  3
-------    -    -    -    ------
 70
0
 72
65
 73
8
 40
12.75
 49
6
 49
-1.5
 49
0.25
 49
-1.5
 49
0.25
 49
-1.5
 49
0.25
 49
-1.5
  0
LTYPE
  5
4C87E
  2
DOUBLE-DASHED_TRIPLICATE-D
  3
-----  ---------  -  -  -  -----
 70
0
 72
65
 73
10
 40
20.25
 49
6
 49
-1.5
 49
6
 49
-1.5
 49
0.25
 49
-1.5
 49
0.25
 49
-1.5
 49
0.25
 49
-1.5
  0
LTYPE
  5
4C87F
  2
UNDEFINED
  3
--------------------------------
 70
0
 72
65
 73
0
 40
0
  0
LTYPE
  5
4C880
  2
CENTER
  3
----------    ----    ----------
 70
0
 72
65
 73
4
 40
0.59999999999999964
 49
0.375
 49
-0.0749999999999999
 49
0.0749999999999999
 49
-0.0749999999999999
  0
LTYPE
  5
4C881
  2
PHANTOM
  3
---------  ----  ----  ---------
 70
0
 72
65
 73
6
 40
0.8
 49
0.45
 49
-0.05
 49
0.1
 49
-0.05
 49
0.1
 49
-0.05
  0
LTYPE
  5
4C882
  2
ByBlock
  3

 70
64
 72
65
 73
0
 40
0
  0
LTYPE
  5
4C883
  2
ByLayer
  3

 70
64
 72
65
 73
0
 40
0
  0
ENDTAB
  0
TABLE
  2
LAYER
  5
4C8B4
 70
2
  0
LAYER
  5
4C844
 70
0
  2
0
 62
7
  6
CONTINUOUS
  0
LAYER
  5
4C845
 70
0
  2
SPEC
 62
7
  6
CONTINUOUS
  0
ENDTAB
  0
TABLE
  2
STYLE
  5
4C8B5
 70
3
  0
STYLE
  5
4C85A
  2
STANDARD
 70
0
 40
0
 41
1
 50
0
 71
0
 42
0.2
  3
txt.shx
  4
extfont2.shx
  0
STYLE
  5
4C85B
  2
ANNOTATIVE
 70
0
 40
0
 41
1
 50
0
 71
0
 42
0.2
  3
txt
  0
STYLE
  5
4C85C
  2
TATEGAKI
 70
4
 40
0
 41
1
 50
0
 71
0
 42
1
  3
txt
  4
bigfont.shx
  0
ENDTAB
  0
TABLE
  2
APPID
  5
4C8B8
 70
4
  0
APPID
  5
4C8B9
  2
ACAD
 70
0
  0
APPID
  5
4C8BC
  2
ACADANNOTATIVE
 70
0
  0
APPID
  5
4C8BD
  2
ACAD_MLEADERVER
 70
0
  0
APPID
  5
4C8BE
  2
ACAD_EXEMPT_FROM_CAD_STANDARDS
 70
0
  0
ENDTAB
  0
TABLE
  2
DIMSTYLE
  5
4C8BA
 70
2
  0
DIMSTYLE
105
4C884
  2
STANDARD
 70
0
  3

  4

  5

  6

  7

 40
1
 41
0.18
 42
0.0625
 43
0.38
 44
0.18
 45
0
 46
0
 47
0
 48
0
140
0.18
141
0.09
142
0
143
25.4
144
1
145
0
146
1
147
0.09
 71
0
 72
0
 73
1
 74
1
 75
0
 76
0
 77
0
 78
0
170
0
171
2
172
0
173
0
174
0
175
0
176
0
177
0
178
0
  0
DIMSTYLE
105
4C885
  2
ANNOTATIVE
 70
0
  3

  4

  5

  6

  7

 40
1
 41
0.18
 42
0.0625
 43
0.38
 44
0.18
 45
0
 46
0
 47
0
 48
0
140
0.18
141
0.09
142
0
143
25.4
144
1
145
0
146
1
147
0.09
 71
0
 72
0
 73
1
 74
1
 75
0
 76
0
 77
0
 78
0
170
0
171
2
172
0
173
0
174
0
175
0
176
0
177
0
178
0
  0
ENDTAB
  0
ENDSEC
  0
SECTION
  2
BLOCKS
  0
BLOCK
  5
4C847
  8
0
  2
$MODEL_SPACE
 70
0
 10
0
 20
0
 30
0
  3
$MODEL_SPACE
  0
ENDBLK
  5
4BF29
  8
0
  0
BLOCK
  5
4C849
  8
0
 67
1
  2
$PAPER_SPACE
 70
0
 10
0
 20
0
 30
0
  3
$PAPER_SPACE
  0
ENDBLK
  5
4BF25
  8
0
  0
BLOCK
  5
4C84B
  8
0
  2
SPECMY-H410430N2AHTN
 70
64
 10
0
 20
0
 30
0
  3
SPECMY-H410430N2AHTN
  0
TEXT
  5
4C84C
  8
SPEC
 10
0
 20
0
 30
0
 40
1.5
  1
Myｼﾘｰｽﾞ 昼白色(5000K) Ra85
  7
STANDARD
  0
TEXT
  5
4C84D
  8
SPEC
 10
0
 20
-3
 30
0
 40
1.5
  1
200V~242V共用ﾀｲﾌﾟ
  7
STANDARD
  0
TEXT
  5
4C84E
  8
SPEC
 10
0
 20
-6
 30
0
 40
1.5
  1
ﾊｲﾌﾞﾘｯﾄﾞﾅﾉｺｰﾃｨﾝｸﾞ(ﾎｺﾘ,すす汚れ防止ｺｰﾃｨﾝｸﾞ)ﾗｲﾄﾕﾆｯﾄ
  7
STANDARD
  0
TEXT
  5
4C84F
  8
SPEC
 10
0
 20
-9
 30
0
 40
1.5
  1
光源寿命:40,000時間
  7
STANDARD
  0
TEXT
  5
4C850
  8
SPEC
 10
0
 20
-12
 30
0
 40
1.5
  1
光束:9780lm 消費電力:57.6W 消費効率:169.7lm/W
  7
STANDARD
  0
ENDBLK
  5
4C851
  8
0
  0
BLOCK
  5
4C853
  8
0
  2
*MODEL_SPACE
 70
64
 10
0
 20
0
 30
0
  3
*MODEL_SPACE
  0
ENDBLK
  5
4C856
  8
0
  0
BLOCK
  5
4C858
  8
0
 67
1
  2
*PAPER_SPACE
 70
64
 10
0
 20
0
 30
0
  3
*PAPER_SPACE
  0
ENDBLK
  5
4C859
  8
0
  0
ENDSEC
  0
SECTION
  2
ENTITIES
  0
TEXT
  5
A2
  8
0
 62
7
 10
-5.7978860025500873
 20
76.874997361698718
 30
0
 40
4.5
  1
LED ﾗｲﾄﾕﾆｯﾄ形ﾍﾞｰｽﾗｲﾄ
 41
0.96982639999999987
  7
STANDARD
  0
TEXT
  5
A3
  8
0
 62
7
 10
-5.7978860025500873
 20
-7.124997638301215
 30
0
 40
4.5
  1
三菱 MY-H410430/N
 41
0.9893333
  7
STANDARD
  0
POLYLINE
  5
4A485
  8
0
 62
7
 66
1
 70
0
 10
0
 20
0
 30
0
  0
VERTEX
  5
4BF67
  8
0
 62
7
 10
20.590699674680941
 20
40.158545042604828
 70
0
  0
VERTEX
  5
4BF68
  8
0
 62
7
 10
20.590699674680941
 20
40.158545042604828
 70
0
  0
SEQEND
  5
4BF69
  8
0
  0
POLYLINE
  5
4A489
  8
0
 62
7
 66
1
 70
0
 10
0
 20
0
 30
0
  0
VERTEX
  5
4BF6A
  8
0
 62
7
 10
22.029371549321269
 20
41.639936101262251
 70
0
  0
VERTEX
  5
4BF6B
  8
0
 62
7
 10
22.029371549321269
 20
41.682655285279338
 70
0
  0
SEQEND
  5
4BF6C
  8
0
  0
POLYLINE
  5
4A48D
  8
0
 62
7
 66
1
 70
0
 10
0
 20
0
 30
0
  0
VERTEX
  5
4BF6D
  8
0
 62
7
 10
22.156151063178442
 20
41.936214312993741
 70
0
  0
VERTEX
  5
4BF6E
  8
0
 62
7
 10
22.156151063178442
 20
41.766543360345139
 70
0
  0
SEQEND
  5
4BF6F
  8
0
  0
POLYLINE
  5
4A491
  8
0
 62
7
 66
1
 70
0
 10
0
 20
0
 30
0
  0
VERTEX
  5
4BF70
  8
0
 62
7
 10
22.156151063178442
 20
41.682655285279338
 70
0
  0
VERTEX
  5
4BF71
  8
0
 62
7
 10
22.156151063178442
 20
41.723824176328087
 70
0
  0
SEQEND
  5
4BF72
  8
0
  0
POLYLINE
  5
4A495
  8
0
 62
7
 66
1
 70
0
 10
0
 20
0
 30
0
  0
VERTEX
  5
4BF73
  8
0
 62
7
 10
22.156151063178442
 20
41.766543360345139
 70
0
  0
VERTEX
  5
4BF74
  8
0
 62
7
 10
22.156151063178442
 20
41.766543360345139
 70
0
  0
SEQEND
  5
4BF75
  8
0
  0
POLYLINE
  5
4A499
  8
0
 62
7
 66
1
 70
0
 10
0
 20
0
 30
0
  0
VERTEX
  5
4BF76
  8
0
 62
7
 10
22.19887024719554
 20
43.0372668300796
 70
0
  0
VERTEX
  5
4BF77
  8
0
 62
7
 10
22.19887024719554
 20
43.0372668300796
 70
0
  0
SEQEND
  5
4BF78
  8
0
  0
POLYLINE
  5
4A49D
  8
0
 62
7
 66
1
 70
0
 10
0
 20
0
 30
0
  0
VERTEX
  5
4BF79
  8
0
 62
7
 10
22.19887024719554
 20
42.062993826850906
 70
0
  0
VERTEX
  5
4BF7A
  8
0
 62
7
 10
22.19887024719554
 20
43.078607975902557
 70
0
  0
SEQEND
  5
4BF7B
  8
0
  0
POLYLINE
  5
4A4A1
  8
0
 62
7
 66
1
 70
0
 10
0
 20
0
 30
0
  0
VERTEX
  5
4BF7C
  8
0
 62
7
 10
22.282930577035639
 20
41.639936101262251
 70
0
  0
VERTEX
  5
4BF7D
  8
0
 62
7
 10
22.282930577035639
 20
41.682655285279338
 70
0
  0
SEQEND
  5
4BF7E
  8
0
  0
POLYLINE
  5
4A4A5
  8
0
 62
7
 66
1
 70
0
 10
0
 20
0
 30
0
  0
VERTEX
  5
4BF7F
  8
0
 62
7
 10
24.908093336796021
 20
42.655550250313922
 70
0
  0
VERTEX
  5
4BF80
  8
0
 62
7
 10
24.908093336796021
 20
42.698269434330967
 70
0
  0
SEQEND
  5
4BF81
  8
0
  0
POLYLINE
  5
4A4A9
  8
0
 62
7
 66
1
 70
0
 10
0
 20
0
 30
0
  0
VERTEX
  5
4BF82
  8
0
 62
7
 10
24.653156270887539
 20
43.926273720048279
 70
0
  0
VERTEX
  5
4BF83
  8
0
 62
7
 10
24.653156270887539
 20
42.910659570996643
 70
0
  0
SEQEND
  5
4BF84
  8
0
  0
POLYLINE
  5
4A4AD
  8
0
 62
7
 66
1
 70
0
 10
0
 20
0
 30
0
  0
VERTEX
  5
4BF85
  8
0
 62
7
 10
26.26270488159625
 20
42.062993826850906
 70
0
  0
VERTEX
  5
4BF86
  8
0
 62
7
 10
26.26270488159625
 20
42.105540756093767
 70
0
  0
SEQEND
  5
4BF87
  8
0
  0
POLYLINE
  5
4A4B1
  8
0
 62
7
 66
1
 70
0
 10
0
 20
0
 30
0
  0
VERTEX
  5
4BF88
  8
0
 62
7
 10
24.695875454904641
 20
43.967614865871319
 70
0
  0
VERTEX
  5
4BF89
  8
0
 62
7
 10
24.695875454904641
 20
43.926273720048279
 70
0
  0
SEQEND
  5
4BF8A
  8
0
  0
POLYLINE
  5
4A4B5
  8
0
 62
7
 66
1
 70
0
 10
0
 20
0
 30
0
  0
VERTEX
  5
4BF8B
  8
0
 62
7
 10
24.695875454904641
 20
43.926273720048279
 70
0
  0
VERTEX
  5
4BF8C
  8
0
 62
7
 10
24.695875454904641
 20
43.926273720048279
 70
0
  0
SEQEND
  5
4BF8D
  8
0
  0
POLYLINE
  5
4A4B9
  8
0
 62
7
 66
1
 70
0
 10
0
 20
0
 30
0
  0
VERTEX
  5
4BF8E
  8
0
 62
7
 10
24.695875454904641
 20
43.883210026482658
 70
0
  0
VERTEX
  5
4BF8F
  8
0
 62
7
 10
24.695875454904641
 20
42.910659570996643
 70
0
  0
SEQEND
  5
4BF90
  8
0
  0
POLYLINE
  5
4A4BD
  8
0
 62
7
 66
1
 70
0
 10
0
 20
0
 30
0
  0
VERTEX
  5
4BF91
  8
0
 62
7
 10
24.695875454904641
 20
42.614209104490882
 70
0
  0
VERTEX
  5
4BF92
  8
0
 62
7
 10
24.695875454904641
 20
42.655550250313922
 70
0
  0
SEQEND
  5
4BF93
  8
0
  0
POLYLINE
  5
4A4C1
  8
0
 62
7
 66
1
 70
0
 10
0
 20
0
 30
0
  0
VERTEX
  5
4BF94
  8
0
 62
7
 10
24.695875454904641
 20
42.655550250313922
 70
0
  0
VERTEX
  5
4BF95
  8
0
 62
7
 10
24.695875454904641
 20
42.824876693413941
 70
0
  0
SEQEND
  5
4BF96
  8
0
  0
POLYLINE
  5
4A4C5
  8
0
 62
7
 66
1
 70
0
 10
0
 20
0
 30
0
  0
VERTEX
  5
4BF97
  8
0
 62
7
 10
24.738594638921739
 20
42.614209104490882
 70
0
  0
VERTEX
  5
4BF98
  8
0
 62
7
 10
24.738594638921739
 20
42.655550250313922
 70
0
  0
SEQEND
  5
4BF99
  8
0
  0
POLYLINE
  5
4A4C9
  8
0
 62
7
 66
1
 70
0
 10
0
 20
0
 30
0
  0
VERTEX
  5
4BF9A
  8
0
 62
7
 10
24.738594638921739
 20
42.528942991230963
 70
0
  0
VERTEX
  5
4BF9B
  8
0
 62
7
 10
24.738594638921739
 20
42.571662175248093
 70
0
  0
SEQEND
  5
4BF9C
  8
0
  0
POLYLINE
  5
4A4CD
  8
0
 62
7
 66
1
 70
0
 10
0
 20
0
 30
0
  0
VERTEX
  5
4BF9D
  8
0
 62
7
 10
24.738594638921739
 20
42.571662175248093
 70
0
  0
VERTEX
  5
4BF9E
  8
0
 62
7
 10
24.738594638921739
 20
42.571662175248093
 70
0
  0
SEQEND
  5
4BF9F
  8
0
  0
POLYLINE
  5
4A4D1
  8
0
 62
7
 66
1
 70
0
 10
0
 20
0
 30
0
  0
VERTEX
  5
4BFA0
  8
0
 62
7
 10
24.738594638921739
 20
42.655550250313922
 70
0
  0
VERTEX
  5
4BFA1
  8
0
 62
7
 10
24.738594638921739
 20
42.824876693413941
 70
0
  0
SEQEND
  5
4BFA2
  8
0
  0
POLYLINE
  5
4A4D5
  8
0
 62
7
 66
1
 70
0
 10
0
 20
0
 30
0
  0
VERTEX
  5
4BFA3
  8
0
 62
7
 10
24.908093336796021
 20
42.655550250313922
 70
0
  0
VERTEX
  5
4BFA4
  8
0
 62
7
 10
24.908093336796021
 20
42.698269434330967
 70
0
  0
SEQEND
  5
4BFA5
  8
0
  0
POLYLINE
  5
4A4D9
  8
0
 62
7
 66
1
 70
0
 10
0
 20
0
 30
0
  0
VERTEX
  5
4BFA6
  8
0
 62
7
 10
26.30404602741925
 20
42.1899455954824
 70
0
  0
VERTEX
  5
4BFA7
  8
0
 62
7
 10
26.30404602741925
 20
42.1899455954824
 70
0
  0
SEQEND
  5
4BFA8
  8
0
  0
POLYLINE
  5
4A4DD
  8
0
 62
7
 66
1
 70
0
 10
0
 20
0
 30
0
  0
VERTEX
  5
4BFA9
  8
0
 62
7
 10
24.653156270887539
 20
43.926273720048279
 70
0
  0
VERTEX
  5
4BFAA
  8
0
 62
7
 10
22.19887024719554
 20
43.078607975902557
 70
0
  0
SEQEND
  5
4BFAB
  8
0
  0
POLYLINE
  5
4A4E1
  8
0
 62
7
 66
1
 70
0
 10
0
 20
0
 30
0
  0
VERTEX
  5
4BFAC
  8
0
 62
7
 10
22.19887024719554
 20
43.0372668300796
 70
0
  0
VERTEX
  5
4BFAD
  8
0
 62
7
 10
22.19887024719554
 20
43.0372668300796
 70
0
  0
SEQEND
  5
4BFAE
  8
0
  0
POLYLINE
  5
4A4E5
  8
0
 62
7
 66
1
 70
0
 10
0
 20
0
 30
0
  0
VERTEX
  5
4BFAF
  8
0
 62
7
 10
24.695875454904641
 20
43.926273720048279
 70
0
  0
VERTEX
  5
4BFB0
  8
0
 62
7
 10
24.738594638921739
 20
43.926273720048279
 70
0
  0
SEQEND
  5
4BFB1
  8
0
  0
POLYLINE
  5
4A4E9
  8
0
 62
7
 66
1
 70
0
 10
0
 20
0
 30
0
  0
VERTEX
  5
4BFB2
  8
0
 62
7
 10
28.75971008930534
 20
40.751273720842029
 70
0
  0
VERTEX
  5
4BFB3
  8
0
 62
7
 10
28.75971008930534
 20
40.751273720842029
 70
0
  0
SEQEND
  5
4BFB4
  8
0
  0
POLYLINE
  5
4A4ED
  8
0
 62
7
 66
1
 70
0
 10
0
 20
0
 30
0
  0
VERTEX
  5
4BFB5
  8
0
 62
7
 10
28.929208787179618
 20
40.667041136227681
 70
0
  0
VERTEX
  5
4BFB6
  8
0
 62
7
 10
28.929208787179618
 20
40.667041136227681
 70
0
  0
SEQEND
  5
4BFB7
  8
0
  0
POLYLINE
  5
4A4F1
  8
0
 62
7
 66
1
 70
0
 10
0
 20
0
 30
0
  0
VERTEX
  5
4BFB8
  8
0
 62
7
 10
28.929208787179618
 20
40.667041136227681
 70
0
  0
VERTEX
  5
4BFB9
  8
0
 62
7
 10
28.929208787179618
 20
40.667041136227681
 70
0
  0
SEQEND
  5
4BFBA
  8
0
  0
POLYLINE
  5
4A4F5
  8
0
 62
7
 66
1
 70
0
 10
0
 20
0
 30
0
  0
VERTEX
  5
4BFBB
  8
0
 62
7
 10
28.97192797119672
 20
40.667041136227681
 70
0
  0
VERTEX
  5
4BFBC
  8
0
 62
7
 10
28.97192797119672
 20
40.667041136227681
 70
0
  0
SEQEND
  5
4BFBD
  8
0
  0
POLYLINE
  5
4A4F9
  8
0
 62
7
 66
1
 70
0
 10
0
 20
0
 30
0
  0
VERTEX
  5
4BFBE
  8
0
 62
7
 10
24.695875454904641
 20
42.910659570996643
 70
0
  0
VERTEX
  5
4BFBF
  8
0
 62
7
 10
24.695875454904641
 20
42.910659570996643
 70
0
  0
SEQEND
  5
4BFC0
  8
0
  0
POLYLINE
  5
4A4FD
  8
0
 62
7
 66
1
 70
0
 10
0
 20
0
 30
0
  0
VERTEX
  5
4BFC1
  8
0
 62
7
 10
24.695875454904641
 20
42.910659570996643
 70
0
  0
VERTEX
  5
4BFC2
  8
0
 62
7
 10
24.695875454904641
 20
42.910659570996643
 70
0
  0
SEQEND
  5
4BFC3
  8
0
  0
POLYLINE
  5
4A501
  8
0
 62
7
 66
1
 70
0
 10
0
 20
0
 30
0
  0
VERTEX
  5
4BFC4
  8
0
 62
7
 10
22.19887024719554
 20
41.766543360345139
 70
0
  0
VERTEX
  5
4BFC5
  8
0
 62
7
 10
24.695875454904641
 20
42.655550250313922
 70
0
  0
SEQEND
  5
4BFC6
  8
0
  0
POLYLINE
  5
4A505
  8
0
 62
7
 66
1
 70
0
 10
0
 20
0
 30
0
  0
VERTEX
  5
4BFC7
  8
0
 62
7
 10
22.19887024719554
 20
41.766543360345139
 70
0
  0
VERTEX
  5
4BFC8
  8
0
 62
7
 10
22.19887024719554
 20
41.766543360345139
 70
0
  0
SEQEND
  5
4BFC9
  8
0
  0
POLYLINE
  5
4A509
  8
0
 62
7
 66
1
 70
0
 10
0
 20
0
 30
0
  0
VERTEX
  5
4BFCA
  8
0
 62
7
 10
24.695875454904641
 20
42.655550250313922
 70
0
  0
VERTEX
  5
4BFCB
  8
0
 62
7
 10
24.738594638921739
 20
42.655550250313922
 70
0
  0
SEQEND
  5
4BFCC
  8
0
  0
POLYLINE
  5
4A50D
  8
0
 62
7
 66
1
 70
0
 10
0
 20
0
 30
0
  0
VERTEX
  5
4BFCD
  8
0
 62
7
 10
22.19887024719554
 20
41.723824176328087
 70
0
  0
VERTEX
  5
4BFCE
  8
0
 62
7
 10
24.695875454904641
 20
42.614209104490882
 70
0
  0
SEQEND
  5
4BFCF
  8
0
  0
POLYLINE
  5
4A511
  8
0
 62
7
 66
1
 70
0
 10
0
 20
0
 30
0
  0
VERTEX
  5
4BFD0
  8
0
 62
7
 10
24.738594638921739
 20
42.571662175248093
 70
0
  0
VERTEX
  5
4BFD1
  8
0
 62
7
 10
22.282930577035639
 20
41.682655285279338
 70
0
  0
SEQEND
  5
4BFD2
  8
0
  0
POLYLINE
  5
4A515
  8
0
 62
7
 66
1
 70
0
 10
0
 20
0
 30
0
  0
VERTEX
  5
4BFD3
  8
0
 62
7
 10
24.822654968761839
 20
42.571662175248093
 70
0
  0
VERTEX
  5
4BFD4
  8
0
 62
7
 10
24.738594638921739
 20
42.528942991230963
 70
0
  0
SEQEND
  5
4BFD5
  8
0
  0
POLYLINE
  5
4A519
  8
0
 62
7
 66
1
 70
0
 10
0
 20
0
 30
0
  0
VERTEX
  5
4BFD6
  8
0
 62
7
 10
22.282930577035639
 20
41.639936101262251
 70
0
  0
VERTEX
  5
4BFD7
  8
0
 62
7
 10
22.156151063178442
 20
41.639936101262251
 70
0
  0
SEQEND
  5
4BFD8
  8
0
  0
POLYLINE
  5
4A51D
  8
0
 62
7
 66
1
 70
0
 10
0
 20
0
 30
0
  0
VERTEX
  5
4BFD9
  8
0
 62
7
 10
28.379371547733768
 20
41.936214312993741
 70
0
  0
VERTEX
  5
4BFDA
  8
0
 62
7
 10
28.379371547733768
 20
41.97893349701085
 70
0
  0
SEQEND
  5
4BFDB
  8
0
  0
POLYLINE
  5
4A521
  8
0
 62
7
 66
1
 70
0
 10
0
 20
0
 30
0
  0
VERTEX
  5
4BFDC
  8
0
 62
7
 10
28.463431877573871
 20
41.766543360345139
 70
0
  0
VERTEX
  5
4BFDD
  8
0
 62
7
 10
28.463431877573871
 20
41.766543360345139
 70
0
  0
SEQEND
  5
4BFDE
  8
0
  0
POLYLINE
  5
4A525
  8
0
 62
7
 66
1
 70
0
 10
0
 20
0
 30
0
  0
VERTEX
  5
4BFDF
  8
0
 62
7
 10
28.463431877573871
 20
41.766543360345139
 70
0
  0
VERTEX
  5
4BFE0
  8
0
 62
7
 10
28.463431877573871
 20
41.766543360345139
 70
0
  0
SEQEND
  5
4BFE1
  8
0
  0
POLYLINE
  5
4A529
  8
0
 62
7
 66
1
 70
0
 10
0
 20
0
 30
0
  0
VERTEX
  5
4BFE2
  8
0
 62
7
 10
28.379371547733768
 20
41.639936101262251
 70
0
  0
VERTEX
  5
4BFE3
  8
0
 62
7
 10
28.379371547733768
 20
41.639936101262251
 70
0
  0
SEQEND
  5
4BFE4
  8
0
  0
POLYLINE
  5
4A52D
  8
0
 62
7
 66
1
 70
0
 10
0
 20
0
 30
0
  0
VERTEX
  5
4BFE5
  8
0
 62
7
 10
20.632040820503931
 20
40.073278929344887
 70
0
  0
VERTEX
  5
4BFE6
  8
0
 62
7
 10
20.632040820503931
 20
40.115998113361947
 70
0
  0
SEQEND
  5
4BFE7
  8
0
  0
POLYLINE
  5
4A531
  8
0
 62
7
 66
1
 70
0
 10
0
 20
0
 30
0
  0
VERTEX
  5
4BFE8
  8
0
 62
7
 10
22.029371549321269
 20
41.639936101262251
 70
0
  0
VERTEX
  5
4BFE9
  8
0
 62
7
 10
21.98665236530417
 20
41.639936101262251
 70
0
  0
SEQEND
  5
4BFEA
  8
0
  0
POLYLINE
  5
4A535
  8
0
 62
7
 66
1
 70
0
 10
0
 20
0
 30
0
  0
VERTEX
  5
4BFEB
  8
0
 62
7
 10
25.245712694350519
 20
39.353942992024713
 70
0
  0
VERTEX
  5
4BFEC
  8
0
 62
7
 10
25.245712694350519
 20
39.353942992024713
 70
0
  0
SEQEND
  5
4BFED
  8
0
  0
POLYLINE
  5
4A539
  8
0
 62
7
 66
1
 70
0
 10
0
 20
0
 30
0
  0
VERTEX
  5
4BFEE
  8
0
 62
7
 10
25.4579305762419
 20
39.439209105284647
 70
0
  0
VERTEX
  5
4BFEF
  8
0
 62
7
 10
25.4579305762419
 20
39.439209105284647
 70
0
  0
SEQEND
  5
4BFF0
  8
0
  0
POLYLINE
  5
4A53D
  8
0
 62
7
 66
1
 70
0
 10
0
 20
0
 30
0
  0
VERTEX
  5
4BFF1
  8
0
 62
7
 10
25.4579305762419
 20
39.480550251107672
 70
0
  0
VERTEX
  5
4BFF2
  8
0
 62
7
 10
25.4579305762419
 20
39.480550251107672
 70
0
  0
SEQEND
  5
4BFF3
  8
0
  0
POLYLINE
  5
4A541
  8
0
 62
7
 66
1
 70
0
 10
0
 20
0
 30
0
  0
VERTEX
  5
4BFF4
  8
0
 62
7
 10
25.500649760258991
 20
39.60870780315895
 70
0
  0
VERTEX
  5
4BFF5
  8
0
 62
7
 10
25.500649760258991
 20
39.60870780315895
 70
0
  0
SEQEND
  5
4BFF6
  8
0
  0
POLYLINE
  5
4A545
  8
0
 62
7
 66
1
 70
0
 10
0
 20
0
 30
0
  0
VERTEX
  5
4BFF7
  8
0
 62
7
 10
60.041177095373861
 20
20.221088450366981
 70
0
  0
VERTEX
  5
4BFF8
  8
0
 62
7
 10
20.632040820503931
 20
40.073278929344887
 70
0
  0
SEQEND
  5
4BFF9
  8
0
  0
POLYLINE
  5
4A549
  8
0
 62
7
 66
1
 70
0
 10
0
 20
0
 30
0
  0
VERTEX
  5
4BFFA
  8
0
 62
7
 10
20.632040820503931
 20
40.115998113361947
 70
0
  0
VERTEX
  5
4BFFB
  8
0
 62
7
 10
20.590699674680941
 20
40.158545042604828
 70
0
  0
SEQEND
  5
4BFFC
  8
0
  0
POLYLINE
  5
4A54D
  8
0
 62
7
 66
1
 70
0
 10
0
 20
0
 30
0
  0
VERTEX
  5
4BFFD
  8
0
 62
7
 10
22.029371549321269
 20
41.639936101262251
 70
0
  0
VERTEX
  5
4BFFE
  8
0
 62
7
 10
22.156151063178442
 20
41.555875771422158
 70
0
  0
SEQEND
  5
4BFFF
  8
0
  0
POLYLINE
  5
4A551
  8
0
 62
7
 66
1
 70
0
 10
0
 20
0
 30
0
  0
VERTEX
  5
4C000
  8
0
 62
7
 10
22.029371549321269
 20
41.639936101262251
 70
0
  0
VERTEX
  5
4C001
  8
0
 62
7
 10
22.156151063178442
 20
41.555875771422158
 70
0
  0
SEQEND
  5
4C002
  8
0
  0
POLYLINE
  5
4A555
  8
0
 62
7
 66
1
 70
0
 10
0
 20
0
 30
0
  0
VERTEX
  5
4C003
  8
0
 62
7
 10
22.156151063178442
 20
41.682655285279338
 70
0
  0
VERTEX
  5
4C004
  8
0
 62
7
 10
22.241589431212649
 20
41.682655285279338
 70
0
  0
SEQEND
  5
4C005
  8
0
  0
POLYLINE
  5
4A559
  8
0
 62
7
 66
1
 70
0
 10
0
 20
0
 30
0
  0
VERTEX
  5
4C006
  8
0
 62
7
 10
22.19887024719554
 20
41.766543360345139
 70
0
  0
VERTEX
  5
4C007
  8
0
 62
7
 10
22.19887024719554
 20
41.766543360345139
 70
0
  0
SEQEND
  5
4C008
  8
0
  0
POLYLINE
  5
4A55D
  8
0
 62
7
 66
1
 70
0
 10
0
 20
0
 30
0
  0
VERTEX
  5
4C009
  8
0
 62
7
 10
25.034872850653219
 20
42.316552854565323
 70
0
  0
VERTEX
  5
4C00A
  8
0
 62
7
 10
24.908093336796021
 20
42.359272038582453
 70
0
  0
SEQEND
  5
4C00B
  8
0
  0
POLYLINE
  5
4A561
  8
0
 62
7
 66
1
 70
0
 10
0
 20
0
 30
0
  0
VERTEX
  5
4C00C
  8
0
 62
7
 10
64.0622925457575
 20
22.59131414421887
 70
0
  0
VERTEX
  5
4C00D
  8
0
 62
7
 10
64.189072059614659
 20
22.548594960201768
 70
0
  0
SEQEND
  5
4C00E
  8
0
  0
POLYLINE
  5
4A565
  8
0
 62
7
 66
1
 70
0
 10
0
 20
0
 30
0
  0
VERTEX
  5
4C00F
  8
0
 62
7
 10
24.39959724317314
 20
43.587276324299737
 70
0
  0
VERTEX
  5
4C010
  8
0
 62
7
 10
24.39959724317314
 20
43.587276324299737
 70
0
  0
SEQEND
  5
4C011
  8
0
  0
POLYLINE
  5
4A569
  8
0
 62
7
 66
1
 70
0
 10
0
 20
0
 30
0
  0
VERTEX
  5
4C012
  8
0
 62
7
 10
22.452429274909949
 20
42.782157509396811
 70
0
  0
VERTEX
  5
4C013
  8
0
 62
7
 10
22.452429274909949
 20
42.782157509396811
 70
0
  0
SEQEND
  5
4C014
  8
0
  0
POLYLINE
  5
4A56D
  8
0
 62
7
 66
1
 70
0
 10
0
 20
0
 30
0
  0
VERTEX
  5
4C015
  8
0
 62
7
 10
22.19887024719554
 20
43.0372668300796
 70
0
  0
VERTEX
  5
4C016
  8
0
 62
7
 10
22.19887024719554
 20
43.0372668300796
 70
0
  0
SEQEND
  5
4C017
  8
0
  0
POLYLINE
  5
4A571
  8
0
 62
7
 66
1
 70
0
 10
0
 20
0
 30
0
  0
VERTEX
  5
4C018
  8
0
 62
7
 10
22.19887024719554
 20
43.0372668300796
 70
0
  0
VERTEX
  5
4C019
  8
0
 62
7
 10
22.19887024719554
 20
43.0372668300796
 70
0
  0
SEQEND
  5
4C01A
  8
0
  0
POLYLINE
  5
4A575
  8
0
 62
7
 66
1
 70
0
 10
0
 20
0
 30
0
  0
VERTEX
  5
4C01B
  8
0
 62
7
 10
22.19887024719554
 20
43.078607975902557
 70
0
  0
VERTEX
  5
4C01C
  8
0
 62
7
 10
22.19887024719554
 20
43.078607975902557
 70
0
  0
SEQEND
  5
4C01D
  8
0
  0
POLYLINE
  5
4A579
  8
0
 62
7
 66
1
 70
0
 10
0
 20
0
 30
0
  0
VERTEX
  5
4C01E
  8
0
 62
7
 10
25.034872850653219
 20
42.27521170874234
 70
0
  0
VERTEX
  5
4C01F
  8
0
 62
7
 10
64.0622925457575
 20
22.59131414421887
 70
0
  0
SEQEND
  5
4C020
  8
0
  0
POLYLINE
  5
4A57D
  8
0
 62
7
 66
1
 70
0
 10
0
 20
0
 30
0
  0
VERTEX
  5
4C021
  8
0
 62
7
 10
25.034872850653219
 20
42.316552854565323
 70
0
  0
VERTEX
  5
4C022
  8
0
 62
7
 10
64.0622925457575
 20
22.63403332823594
 70
0
  0
SEQEND
  5
4C023
  8
0
  0
POLYLINE
  5
4A581
  8
0
 62
7
 66
1
 70
0
 10
0
 20
0
 30
0
  0
VERTEX
  5
4C024
  8
0
 62
7
 10
24.738594638921739
 20
42.614209104490882
 70
0
  0
VERTEX
  5
4C025
  8
0
 62
7
 10
24.822654968761839
 20
42.571662175248093
 70
0
  0
SEQEND
  5
4C026
  8
0
  0
POLYLINE
  5
4A585
  8
0
 62
7
 66
1
 70
0
 10
0
 20
0
 30
0
  0
VERTEX
  5
4C027
  8
0
 62
7
 10
24.738594638921739
 20
42.655550250313922
 70
0
  0
VERTEX
  5
4C028
  8
0
 62
7
 10
24.738594638921739
 20
42.655550250313922
 70
0
  0
SEQEND
  5
4C029
  8
0
  0
POLYLINE
  5
4A589
  8
0
 62
7
 66
1
 70
0
 10
0
 20
0
 30
0
  0
VERTEX
  5
4C02A
  8
0
 62
7
 10
25.077592034670321
 20
42.528942991230963
 70
0
  0
VERTEX
  5
4C02B
  8
0
 62
7
 10
64.0622925457575
 20
22.845045426707511
 70
0
  0
SEQEND
  5
4C02C
  8
0
  0
POLYLINE
  5
4A58D
  8
0
 62
7
 66
1
 70
0
 10
0
 20
0
 30
0
  0
VERTEX
  5
4C02D
  8
0
 62
7
 10
23.42670227813861
 20
43.41760537165117
 70
0
  0
VERTEX
  5
4C02E
  8
0
 62
7
 10
23.42670227813861
 20
43.41760537165117
 70
0
  0
SEQEND
  5
4C02F
  8
0
  0
POLYLINE
  5
4A591
  8
0
 62
7
 66
1
 70
0
 10
0
 20
0
 30
0
  0
VERTEX
  5
4C030
  8
0
 62
7
 10
24.908093336796021
 20
42.655550250313922
 70
0
  0
VERTEX
  5
4C031
  8
0
 62
7
 10
64.358570757488962
 20
22.803704280884521
 70
0
  0
SEQEND
  5
4C032
  8
0
  0
POLYLINE
  5
4A595
  8
0
 62
7
 66
1
 70
0
 10
0
 20
0
 30
0
  0
VERTEX
  5
4C033
  8
0
 62
7
 10
24.908093336796021
 20
42.655550250313922
 70
0
  0
VERTEX
  5
4C034
  8
0
 62
7
 10
64.358570757488962
 20
22.803704280884521
 70
0
  0
SEQEND
  5
4C035
  8
0
  0
POLYLINE
  5
4A599
  8
0
 62
7
 66
1
 70
0
 10
0
 20
0
 30
0
  0
VERTEX
  5
4C036
  8
0
 62
7
 10
26.26270488159625
 20
42.062993826850906
 70
0
  0
VERTEX
  5
4C037
  8
0
 62
7
 10
65.7131823022892
 20
22.21097560264727
 70
0
  0
SEQEND
  5
4C038
  8
0
  0
POLYLINE
  5
4A59D
  8
0
 62
7
 66
1
 70
0
 10
0
 20
0
 30
0
  0
VERTEX
  5
4C039
  8
0
 62
7
 10
26.30404602741925
 20
42.1899455954824
 70
0
  0
VERTEX
  5
4C03A
  8
0
 62
7
 10
26.34676521143636
 20
42.148259940110847
 70
0
  0
SEQEND
  5
4C03B
  8
0
  0
POLYLINE
  5
4A5A1
  8
0
 62
7
 66
1
 70
0
 10
0
 20
0
 30
0
  0
VERTEX
  5
4C03C
  8
0
 62
7
 10
25.034872850653219
 20
42.27521170874234
 70
0
  0
VERTEX
  5
4C03D
  8
0
 62
7
 10
24.865374152778909
 20
42.316552854565323
 70
0
  0
SEQEND
  5
4C03E
  8
0
  0
POLYLINE
  5
4A5A5
  8
0
 62
7
 66
1
 70
0
 10
0
 20
0
 30
0
  0
VERTEX
  5
4C03F
  8
0
 62
7
 10
24.781313822938841
 20
42.571662175248093
 70
0
  0
VERTEX
  5
4C040
  8
0
 62
7
 10
24.781313822938841
 20
42.571662175248093
 70
0
  0
SEQEND
  5
4C041
  8
0
  0
POLYLINE
  5
4A5A9
  8
0
 62
7
 66
1
 70
0
 10
0
 20
0
 30
0
  0
VERTEX
  5
4C042
  8
0
 62
7
 10
24.653156270887539
 20
43.926273720048279
 70
0
  0
VERTEX
  5
4C043
  8
0
 62
7
 10
24.653156270887539
 20
43.926273720048279
 70
0
  0
SEQEND
  5
4C044
  8
0
  0
POLYLINE
  5
4A5AD
  8
0
 62
7
 66
1
 70
0
 10
0
 20
0
 30
0
  0
VERTEX
  5
4C045
  8
0
 62
7
 10
24.695875454904641
 20
43.926273720048279
 70
0
  0
VERTEX
  5
4C046
  8
0
 62
7
 10
24.695875454904641
 20
43.926273720048279
 70
0
  0
SEQEND
  5
4C047
  8
0
  0
POLYLINE
  5
4A5B1
  8
0
 62
7
 66
1
 70
0
 10
0
 20
0
 30
0
  0
VERTEX
  5
4C048
  8
0
 62
7
 10
24.738594638921739
 20
43.926273720048279
 70
0
  0
VERTEX
  5
4C049
  8
0
 62
7
 10
64.189072059614659
 20
24.031364057053281
 70
0
  0
SEQEND
  5
4C04A
  8
0
  0
POLYLINE
  5
4A5B5
  8
0
 62
7
 66
1
 70
0
 10
0
 20
0
 30
0
  0
VERTEX
  5
4C04B
  8
0
 62
7
 10
64.0622925457575
 20
22.63403332823594
 70
0
  0
VERTEX
  5
4C04C
  8
0
 62
7
 10
64.189072059614659
 20
22.59131414421887
 70
0
  0
SEQEND
  5
4C04D
  8
0
  0
POLYLINE
  5
4A5B9
  8
0
 62
7
 66
1
 70
0
 10
0
 20
0
 30
0
  0
VERTEX
  5
4C04E
  8
0
 62
7
 10
57.374673189790492
 20
23.184042822456089
 70
0
  0
VERTEX
  5
4C04F
  8
0
 62
7
 10
57.417392373807587
 20
23.14132363843899
 70
0
  0
SEQEND
  5
4C050
  8
0
  0
POLYLINE
  5
4A5BD
  8
0
 62
7
 66
1
 70
0
 10
0
 20
0
 30
0
  0
VERTEX
  5
4C051
  8
0
 62
7
 10
57.58689107168189
 20
23.26930893571603
 70
0
  0
VERTEX
  5
4C052
  8
0
 62
7
 10
57.58689107168189
 20
23.26930893571603
 70
0
  0
SEQEND
  5
4C053
  8
0
  0
POLYLINE
  5
4A5C1
  8
0
 62
7
 66
1
 70
0
 10
0
 20
0
 30
0
  0
VERTEX
  5
4C054
  8
0
 62
7
 10
57.58689107168189
 20
23.26930893571603
 70
0
  0
VERTEX
  5
4C055
  8
0
 62
7
 10
57.58689107168189
 20
23.26930893571603
 70
0
  0
SEQEND
  5
4C056
  8
0
  0
POLYLINE
  5
4A5C5
  8
0
 62
7
 66
1
 70
0
 10
0
 20
0
 30
0
  0
VERTEX
  5
4C057
  8
0
 62
7
 10
57.628232217504888
 20
23.438635378816059
 70
0
  0
VERTEX
  5
4C058
  8
0
 62
7
 10
57.628232217504888
 20
23.396088449573231
 70
0
  0
SEQEND
  5
4C059
  8
0
  0
POLYLINE
  5
4A5C9
  8
0
 62
7
 66
1
 70
0
 10
0
 20
0
 30
0
  0
VERTEX
  5
4C05A
  8
0
 62
7
 10
60.506954004979633
 20
25.76631414342512
 70
0
  0
VERTEX
  5
4C05B
  8
0
 62
7
 10
60.549673188996742
 20
25.76631414342512
 70
0
  0
SEQEND
  5
4C05C
  8
0
  0
POLYLINE
  5
4A5CD
  8
0
 62
7
 66
1
 70
0
 10
0
 20
0
 30
0
  0
VERTEX
  5
4C05D
  8
0
 62
7
 10
60.59239237301383
 20
25.596643190776561
 70
0
  0
VERTEX
  5
4C05E
  8
0
 62
7
 10
60.59239237301383
 20
25.596643190776561
 70
0
  0
SEQEND
  5
4C05F
  8
0
  0
POLYLINE
  5
4A5D1
  8
0
 62
7
 66
1
 70
0
 10
0
 20
0
 30
0
  0
VERTEX
  5
4C060
  8
0
 62
7
 10
60.59239237301383
 20
25.553924006759448
 70
0
  0
VERTEX
  5
4C061
  8
0
 62
7
 10
60.59239237301383
 20
25.553924006759448
 70
0
  0
SEQEND
  5
4C062
  8
0
  0
POLYLINE
  5
4A5D5
  8
0
 62
7
 66
1
 70
0
 10
0
 20
0
 30
0
  0
VERTEX
  5
4C063
  8
0
 62
7
 10
60.506954004979633
 20
25.470035931693609
 70
0
  0
VERTEX
  5
4C064
  8
0
 62
7
 10
60.549673188996742
 20
25.470035931693609
 70
0
  0
SEQEND
  5
4C065
  8
0
  0
POLYLINE
  5
4A5D9
  8
0
 62
7
 66
1
 70
0
 10
0
 20
0
 30
0
  0
VERTEX
  5
4C066
  8
0
 62
7
 10
24.695875454904641
 20
42.655550250313922
 70
0
  0
VERTEX
  5
4C067
  8
0
 62
7
 10
24.695875454904641
 20
42.655550250313922
 70
0
  0
SEQEND
  5
4C068
  8
0
  0
POLYLINE
  5
4A5DD
  8
0
 62
7
 66
1
 70
0
 10
0
 20
0
 30
0
  0
VERTEX
  5
4C069
  8
0
 62
7
 10
60.888670584745313
 20
24.58137355127343
 70
0
  0
VERTEX
  5
4C06A
  8
0
 62
7
 10
60.888670584745313
 20
24.58137355127343
 70
0
  0
SEQEND
  5
4C06B
  8
0
  0
POLYLINE
  5
4A5E1
  8
0
 62
7
 66
1
 70
0
 10
0
 20
0
 30
0
  0
VERTEX
  5
4C06C
  8
0
 62
7
 10
61.05679124442549
 20
24.49559067369071
 70
0
  0
VERTEX
  5
4C06D
  8
0
 62
7
 10
61.05679124442549
 20
24.49559067369071
 70
0
  0
SEQEND
  5
4C06E
  8
0
  0
POLYLINE
  5
4A5E5
  8
0
 62
7
 66
1
 70
0
 10
0
 20
0
 30
0
  0
VERTEX
  5
4C06F
  8
0
 62
7
 10
61.05679124442549
 20
24.49559067369071
 70
0
  0
VERTEX
  5
4C070
  8
0
 62
7
 10
61.05679124442549
 20
24.49559067369071
 70
0
  0
SEQEND
  5
4C071
  8
0
  0
POLYLINE
  5
4A5E9
  8
0
 62
7
 66
1
 70
0
 10
0
 20
0
 30
0
  0
VERTEX
  5
4C072
  8
0
 62
7
 10
61.09951042844262
 20
24.49559067369071
 70
0
  0
VERTEX
  5
4C073
  8
0
 62
7
 10
61.09951042844262
 20
24.49559067369071
 70
0
  0
SEQEND
  5
4C074
  8
0
  0
POLYLINE
  5
4A5ED
  8
0
 62
7
 66
1
 70
0
 10
0
 20
0
 30
0
  0
VERTEX
  5
4C075
  8
0
 62
7
 10
24.315536913333059
 20
43.37488618763409
 70
0
  0
VERTEX
  5
4C076
  8
0
 62
7
 10
24.315536913333059
 20
43.37488618763409
 70
0
  0
SEQEND
  5
4C077
  8
0
  0
POLYLINE
  5
4A5F1
  8
0
 62
7
 66
1
 70
0
 10
0
 20
0
 30
0
  0
VERTEX
  5
4C078
  8
0
 62
7
 10
24.39959724317314
 20
43.587276324299737
 70
0
  0
VERTEX
  5
4C079
  8
0
 62
7
 10
24.39959724317314
 20
43.587276324299737
 70
0
  0
SEQEND
  5
4C07A
  8
0
  0
POLYLINE
  5
4A5F5
  8
0
 62
7
 66
1
 70
0
 10
0
 20
0
 30
0
  0
VERTEX
  5
4C07B
  8
0
 62
7
 10
22.579208788767119
 20
42.994547646062472
 70
0
  0
VERTEX
  5
4C07C
  8
0
 62
7
 10
22.579208788767119
 20
42.994547646062472
 70
0
  0
SEQEND
  5
4C07D
  8
0
  0
POLYLINE
  5
4A5F9
  8
0
 62
7
 66
1
 70
0
 10
0
 20
0
 30
0
  0
VERTEX
  5
4C07E
  8
0
 62
7
 10
22.579208788767119
 20
42.994547646062472
 70
0
  0
VERTEX
  5
4C07F
  8
0
 62
7
 10
22.579208788767119
 20
42.994547646062472
 70
0
  0
SEQEND
  5
4C080
  8
0
  0
POLYLINE
  5
4A5FD
  8
0
 62
7
 66
1
 70
0
 10
0
 20
0
 30
0
  0
VERTEX
  5
4C081
  8
0
 62
7
 10
22.579208788767119
 20
42.994547646062472
 70
0
  0
VERTEX
  5
4C082
  8
0
 62
7
 10
22.579208788767119
 20
42.994547646062472
 70
0
  0
SEQEND
  5
4C083
  8
0
  0
POLYLINE
  5
4A601
  8
0
 62
7
 66
1
 70
0
 10
0
 20
0
 30
0
  0
VERTEX
  5
4C084
  8
0
 62
7
 10
22.579208788767119
 20
42.994547646062472
 70
0
  0
VERTEX
  5
4C085
  8
0
 62
7
 10
22.579208788767119
 20
42.994547646062472
 70
0
  0
SEQEND
  5
4C086
  8
0
  0
POLYLINE
  5
4A605
  8
0
 62
7
 66
1
 70
0
 10
0
 20
0
 30
0
  0
VERTEX
  5
4C087
  8
0
 62
7
 10
22.579208788767119
 20
42.994547646062472
 70
0
  0
VERTEX
  5
4C088
  8
0
 62
7
 10
22.579208788767119
 20
42.994547646062472
 70
0
  0
SEQEND
  5
4C089
  8
0
  0
POLYLINE
  5
4A609
  8
0
 62
7
 66
1
 70
0
 10
0
 20
0
 30
0
  0
VERTEX
  5
4C08A
  8
0
 62
7
 10
22.579208788767119
 20
42.994547646062472
 70
0
  0
VERTEX
  5
4C08B
  8
0
 62
7
 10
22.579208788767119
 20
42.994547646062472
 70
0
  0
SEQEND
  5
4C08C
  8
0
  0
POLYLINE
  5
4A60D
  8
0
 62
7
 66
1
 70
0
 10
0
 20
0
 30
0
  0
VERTEX
  5
4C08D
  8
0
 62
7
 10
25.118933180493311
 20
43.0372668300796
 70
0
  0
VERTEX
  5
4C08E
  8
0
 62
7
 10
25.118933180493311
 20
43.0372668300796
 70
0
  0
SEQEND
  5
4C08F
  8
0
  0
POLYLINE
  5
4A611
  8
0
 62
7
 66
1
 70
0
 10
0
 20
0
 30
0
  0
VERTEX
  5
4C090
  8
0
 62
7
 10
25.118933180493311
 20
43.0372668300796
 70
0
  0
VERTEX
  5
4C091
  8
0
 62
7
 10
25.118933180493311
 20
43.0372668300796
 70
0
  0
SEQEND
  5
4C092
  8
0
  0
POLYLINE
  5
4A615
  8
0
 62
7
 66
1
 70
0
 10
0
 20
0
 30
0
  0
VERTEX
  5
4C093
  8
0
 62
7
 10
25.118933180493311
 20
43.0372668300796
 70
0
  0
VERTEX
  5
4C094
  8
0
 62
7
 10
25.118933180493311
 20
43.0372668300796
 70
0
  0
SEQEND
  5
4C095
  8
0
  0
POLYLINE
  5
4A619
  8
0
 62
7
 66
1
 70
0
 10
0
 20
0
 30
0
  0
VERTEX
  5
4C096
  8
0
 62
7
 10
25.118933180493311
 20
43.0372668300796
 70
0
  0
VERTEX
  5
4C097
  8
0
 62
7
 10
25.118933180493311
 20
43.0372668300796
 70
0
  0
SEQEND
  5
4C098
  8
0
  0
POLYLINE
  5
4A61D
  8
0
 62
7
 66
1
 70
0
 10
0
 20
0
 30
0
  0
VERTEX
  5
4C099
  8
0
 62
7
 10
25.118933180493311
 20
43.0372668300796
 70
0
  0
VERTEX
  5
4C09A
  8
0
 62
7
 10
25.118933180493311
 20
43.0372668300796
 70
0
  0
SEQEND
  5
4C09B
  8
0
  0
POLYLINE
  5
4A621
  8
0
 62
7
 66
1
 70
0
 10
0
 20
0
 30
0
  0
VERTEX
  5
4C09C
  8
0
 62
7
 10
25.118933180493311
 20
43.0372668300796
 70
0
  0
VERTEX
  5
4C09D
  8
0
 62
7
 10
25.118933180493311
 20
43.0372668300796
 70
0
  0
SEQEND
  5
4C09E
  8
0
  0
POLYLINE
  5
4A625
  8
0
 62
7
 66
1
 70
0
 10
0
 20
0
 30
0
  0
VERTEX
  5
4C09F
  8
0
 62
7
 10
22.156151063178442
 20
41.597216917245113
 70
0
  0
VERTEX
  5
4C0A0
  8
0
 62
7
 10
22.156151063178442
 20
41.597216917245113
 70
0
  0
SEQEND
  5
4C0A1
  8
0
  0
POLYLINE
  5
4A629
  8
0
 62
7
 66
1
 70
0
 10
0
 20
0
 30
0
  0
VERTEX
  5
4C0A2
  8
0
 62
7
 10
24.908093336796021
 20
42.571662175248093
 70
0
  0
VERTEX
  5
4C0A3
  8
0
 62
7
 10
25.077592034670321
 20
42.528942991230963
 70
0
  0
SEQEND
  5
4C0A4
  8
0
  0
POLYLINE
  5
4A62D
  8
0
 62
7
 66
1
 70
0
 10
0
 20
0
 30
0
  0
VERTEX
  5
4C0A5
  8
0
 62
7
 10
64.0622925457575
 20
22.845045426707511
 70
0
  0
VERTEX
  5
4C0A6
  8
0
 62
7
 10
64.189072059614659
 20
22.760640587318878
 70
0
  0
SEQEND
  5
4C0A7
  8
0
  0
POLYLINE
  5
4A631
  8
0
 62
7
 66
1
 70
0
 10
0
 20
0
 30
0
  0
VERTEX
  5
4C0A8
  8
0
 62
7
 10
61.818846365762781
 20
21.40637355206718
 70
0
  0
VERTEX
  5
4C0A9
  8
0
 62
7
 10
61.818846365762781
 20
21.40637355206718
 70
0
  0
SEQEND
  5
4C0AA
  8
0
  0
POLYLINE
  5
4A635
  8
0
 62
7
 66
1
 70
0
 10
0
 20
0
 30
0
  0
VERTEX
  5
4C0AB
  8
0
 62
7
 10
61.818846365762781
 20
21.40637355206718
 70
0
  0
VERTEX
  5
4C0AC
  8
0
 62
7
 10
61.777505219939783
 20
21.40637355206718
 70
0
  0
SEQEND
  5
4C0AD
  8
0
  0
POLYLINE
  5
4A639
  8
0
 62
7
 66
1
 70
0
 10
0
 20
0
 30
0
  0
VERTEX
  5
4C0AE
  8
0
 62
7
 10
61.777505219939783
 20
21.40637355206718
 70
0
  0
VERTEX
  5
4C0AF
  8
0
 62
7
 10
61.734786035922681
 20
21.449092736084278
 70
0
  0
SEQEND
  5
4C0B0
  8
0
  0
POLYLINE
  5
4A63D
  8
0
 62
7
 66
1
 70
0
 10
0
 20
0
 30
0
  0
VERTEX
  5
4C0B1
  8
0
 62
7
 10
61.734786035922681
 20
21.449092736084278
 70
0
  0
VERTEX
  5
4C0B2
  8
0
 62
7
 10
61.692066851905587
 20
21.449092736084278
 70
0
  0
SEQEND
  5
4C0B3
  8
0
  0
POLYLINE
  5
4A641
  8
0
 62
7
 66
1
 70
0
 10
0
 20
0
 30
0
  0
VERTEX
  5
4C0B4
  8
0
 62
7
 10
61.692066851905587
 20
21.449092736084278
 70
0
  0
VERTEX
  5
4C0B5
  8
0
 62
7
 10
61.692066851905587
 20
21.449092736084278
 70
0
  0
SEQEND
  5
4C0B6
  8
0
  0
POLYLINE
  5
4A645
  8
0
 62
7
 66
1
 70
0
 10
0
 20
0
 30
0
  0
VERTEX
  5
4C0B7
  8
0
 62
7
 10
20.67476000452103
 20
40.242605372444928
 70
0
  0
VERTEX
  5
4C0B8
  8
0
 62
7
 10
20.67476000452103
 20
40.2012642266219
 70
0
  0
SEQEND
  5
4C0B9
  8
0
  0
POLYLINE
  5
4A649
  8
0
 62
7
 66
1
 70
0
 10
0
 20
0
 30
0
  0
VERTEX
  5
4C0BA
  8
0
 62
7
 10
22.156151063178442
 20
41.427545964596618
 70
0
  0
VERTEX
  5
4C0BB
  8
0
 62
7
 10
22.156151063178442
 20
41.386204818773592
 70
0
  0
SEQEND
  5
4C0BC
  8
0
  0
POLYLINE
  5
4A64D
  8
0
 62
7
 66
1
 70
0
 10
0
 20
0
 30
0
  0
VERTEX
  5
4C0BD
  8
0
 62
7
 10
23.722980489870078
 20
42.824876693413941
 70
0
  0
VERTEX
  5
4C0BE
  8
0
 62
7
 10
23.722980489870078
 20
42.824876693413941
 70
0
  0
SEQEND
  5
4C0BF
  8
0
  0
POLYLINE
  5
4A651
  8
0
 62
7
 66
1
 70
0
 10
0
 20
0
 30
0
  0
VERTEX
  5
4C0C0
  8
0
 62
7
 10
23.764321635693079
 20
42.867940386979569
 70
0
  0
VERTEX
  5
4C0C1
  8
0
 62
7
 10
23.764321635693079
 20
42.867940386979569
 70
0
  0
SEQEND
  5
4C0C2
  8
0
  0
POLYLINE
  5
4A655
  8
0
 62
7
 66
1
 70
0
 10
0
 20
0
 30
0
  0
VERTEX
  5
4C0C3
  8
0
 62
7
 10
21.98665236530417
 20
41.639936101262251
 70
0
  0
VERTEX
  5
4C0C4
  8
0
 62
7
 10
20.632040820503931
 20
40.115998113361947
 70
0
  0
SEQEND
  5
4C0C5
  8
0
  0
POLYLINE
  5
4A659
  8
0
 62
7
 66
1
 70
0
 10
0
 20
0
 30
0
  0
VERTEX
  5
4C0C6
  8
0
 62
7
 10
22.19887024719554
 20
43.0372668300796
 70
0
  0
VERTEX
  5
4C0C7
  8
0
 62
7
 10
22.19887024719554
 20
41.936214312993741
 70
0
  0
SEQEND
  5
4C0C8
  8
0
  0
POLYLINE
  5
4A65D
  8
0
 62
7
 66
1
 70
0
 10
0
 20
0
 30
0
  0
VERTEX
  5
4C0C9
  8
0
 62
7
 10
22.19887024719554
 20
41.766543360345139
 70
0
  0
VERTEX
  5
4C0CA
  8
0
 62
7
 10
22.19887024719554
 20
41.766543360345139
 70
0
  0
SEQEND
  5
4C0CB
  8
0
  0
POLYLINE
  5
4A661
  8
0
 62
7
 66
1
 70
0
 10
0
 20
0
 30
0
  0
VERTEX
  5
4C0CC
  8
0
 62
7
 10
22.282930577035639
 20
41.639936101262251
 70
0
  0
VERTEX
  5
4C0CD
  8
0
 62
7
 10
22.282930577035639
 20
41.682655285279338
 70
0
  0
SEQEND
  5
4C0CE
  8
0
  0
POLYLINE
  5
4A665
  8
0
 62
7
 66
1
 70
0
 10
0
 20
0
 30
0
  0
VERTEX
  5
4C0CF
  8
0
 62
7
 10
24.695875454904641
 20
42.655550250313922
 70
0
  0
VERTEX
  5
4C0D0
  8
0
 62
7
 10
24.695875454904641
 20
42.655550250313922
 70
0
  0
SEQEND
  5
4C0D1
  8
0
  0
POLYLINE
  5
4A669
  8
0
 62
7
 66
1
 70
0
 10
0
 20
0
 30
0
  0
VERTEX
  5
4C0D2
  8
0
 62
7
 10
24.695875454904641
 20
43.926273720048279
 70
0
  0
VERTEX
  5
4C0D3
  8
0
 62
7
 10
24.695875454904641
 20
43.926273720048279
 70
0
  0
SEQEND
  5
4C0D4
  8
0
  0
POLYLINE
  5
4A66D
  8
0
 62
7
 66
1
 70
0
 10
0
 20
0
 30
0
  0
VERTEX
  5
4C0D5
  8
0
 62
7
 10
24.695875454904641
 20
42.910659570996643
 70
0
  0
VERTEX
  5
4C0D6
  8
0
 62
7
 10
24.695875454904641
 20
42.824876693413941
 70
0
  0
SEQEND
  5
4C0D7
  8
0
  0
POLYLINE
  5
4A671
  8
0
 62
7
 66
1
 70
0
 10
0
 20
0
 30
0
  0
VERTEX
  5
4C0D8
  8
0
 62
7
 10
24.738594638921739
 20
42.655550250313922
 70
0
  0
VERTEX
  5
4C0D9
  8
0
 62
7
 10
24.738594638921739
 20
42.655550250313922
 70
0
  0
SEQEND
  5
4C0DA
  8
0
  0
POLYLINE
  5
4A675
  8
0
 62
7
 66
1
 70
0
 10
0
 20
0
 30
0
  0
VERTEX
  5
4C0DB
  8
0
 62
7
 10
24.738594638921739
 20
42.824876693413941
 70
0
  0
VERTEX
  5
4C0DC
  8
0
 62
7
 10
24.738594638921739
 20
43.926273720048279
 70
0
  0
SEQEND
  5
4C0DD
  8
0
  0
POLYLINE
  5
4A679
  8
0
 62
7
 66
1
 70
0
 10
0
 20
0
 30
0
  0
VERTEX
  5
4C0DE
  8
0
 62
7
 10
25.077592034670321
 20
42.910659570996643
 70
0
  0
VERTEX
  5
4C0DF
  8
0
 62
7
 10
25.077592034670321
 20
43.121327159919687
 70
0
  0
SEQEND
  5
4C0E0
  8
0
  0
POLYLINE
  5
4A67D
  8
0
 62
7
 66
1
 70
0
 10
0
 20
0
 30
0
  0
VERTEX
  5
4C0E1
  8
0
 62
7
 10
25.245712694350519
 20
43.0372668300796
 70
0
  0
VERTEX
  5
4C0E2
  8
0
 62
7
 10
25.245712694350519
 20
42.824876693413941
 70
0
  0
SEQEND
  5
4C0E3
  8
0
  0
POLYLINE
  5
4A681
  8
0
 62
7
 66
1
 70
0
 10
0
 20
0
 30
0
  0
VERTEX
  5
4C0E4
  8
0
 62
7
 10
26.219985697579151
 20
42.1899455954824
 70
0
  0
VERTEX
  5
4C0E5
  8
0
 62
7
 10
26.219985697579151
 20
42.148259940110847
 70
0
  0
SEQEND
  5
4C0E6
  8
0
  0
POLYLINE
  5
4A685
  8
0
 62
7
 66
1
 70
0
 10
0
 20
0
 30
0
  0
VERTEX
  5
4C0E7
  8
0
 62
7
 10
28.293933179699572
 20
41.893495128976653
 70
0
  0
VERTEX
  5
4C0E8
  8
0
 62
7
 10
28.379371547733768
 20
41.97893349701085
 70
0
  0
SEQEND
  5
4C0E9
  8
0
  0
POLYLINE
  5
4A689
  8
0
 62
7
 66
1
 70
0
 10
0
 20
0
 30
0
  0
VERTEX
  5
4C0EA
  8
0
 62
7
 10
28.463431877573871
 20
41.766543360345139
 70
0
  0
VERTEX
  5
4C0EB
  8
0
 62
7
 10
28.379371547733768
 20
41.639936101262251
 70
0
  0
SEQEND
  5
4C0EC
  8
0
  0
POLYLINE
  5
4A68D
  8
0
 62
7
 66
1
 70
0
 10
0
 20
0
 30
0
  0
VERTEX
  5
4C0ED
  8
0
 62
7
 10
28.463431877573871
 20
41.766543360345139
 70
0
  0
VERTEX
  5
4C0EE
  8
0
 62
7
 10
28.379371547733768
 20
41.639936101262251
 70
0
  0
SEQEND
  5
4C0EF
  8
0
  0
POLYLINE
  5
4A691
  8
0
 62
7
 66
1
 70
0
 10
0
 20
0
 30
0
  0
VERTEX
  5
4C0F0
  8
0
 62
7
 10
22.19887024719554
 20
43.078607975902557
 70
0
  0
VERTEX
  5
4C0F1
  8
0
 62
7
 10
22.19887024719554
 20
43.0372668300796
 70
0
  0
SEQEND
  5
4C0F2
  8
0
  0
POLYLINE
  5
4A695
  8
0
 62
7
 66
1
 70
0
 10
0
 20
0
 30
0
  0
VERTEX
  5
4C0F3
  8
0
 62
7
 10
20.590699674680941
 20
40.158545042604828
 70
0
  0
VERTEX
  5
4C0F4
  8
0
 62
7
 10
20.67476000452103
 20
40.2012642266219
 70
0
  0
SEQEND
  5
4C0F5
  8
0
  0
POLYLINE
  5
4A699
  8
0
 62
7
 66
1
 70
0
 10
0
 20
0
 30
0
  0
VERTEX
  5
4C0F6
  8
0
 62
7
 10
22.156151063178442
 20
41.639936101262251
 70
0
  0
VERTEX
  5
4C0F7
  8
0
 62
7
 10
22.156151063178442
 20
41.597216917245113
 70
0
  0
SEQEND
  5
4C0F8
  8
0
  0
POLYLINE
  5
4A69D
  8
0
 62
7
 66
1
 70
0
 10
0
 20
0
 30
0
  0
VERTEX
  5
4C0F9
  8
0
 62
7
 10
22.282930577035639
 20
41.682655285279338
 70
0
  0
VERTEX
  5
4C0FA
  8
0
 62
7
 10
22.282930577035639
 20
41.682655285279338
 70
0
  0
SEQEND
  5
4C0FB
  8
0
  0
POLYLINE
  5
4A6A1
  8
0
 62
7
 66
1
 70
0
 10
0
 20
0
 30
0
  0
VERTEX
  5
4C0FC
  8
0
 62
7
 10
25.245712694350519
 20
43.0372668300796
 70
0
  0
VERTEX
  5
4C0FD
  8
0
 62
7
 10
25.245712694350519
 20
43.0372668300796
 70
0
  0
SEQEND
  5
4C0FE
  8
0
  0
POLYLINE
  5
4A6A5
  8
0
 62
7
 66
1
 70
0
 10
0
 20
0
 30
0
  0
VERTEX
  5
4C0FF
  8
0
 62
7
 10
24.738594638921739
 20
42.655550250313922
 70
0
  0
VERTEX
  5
4C100
  8
0
 62
7
 10
24.695875454904641
 20
42.655550250313922
 70
0
  0
SEQEND
  5
4C101
  8
0
  0
POLYLINE
  5
4A6A9
  8
0
 62
7
 66
1
 70
0
 10
0
 20
0
 30
0
  0
VERTEX
  5
4C102
  8
0
 62
7
 10
22.19887024719554
 20
41.766543360345139
 70
0
  0
VERTEX
  5
4C103
  8
0
 62
7
 10
22.19887024719554
 20
41.766543360345139
 70
0
  0
SEQEND
  5
4C104
  8
0
  0
POLYLINE
  5
4A6AD
  8
0
 62
7
 66
1
 70
0
 10
0
 20
0
 30
0
  0
VERTEX
  5
4C105
  8
0
 62
7
 10
24.738594638921739
 20
42.655550250313922
 70
0
  0
VERTEX
  5
4C106
  8
0
 62
7
 10
24.738594638921739
 20
42.655550250313922
 70
0
  0
SEQEND
  5
4C107
  8
0
  0
POLYLINE
  5
4A6B1
  8
0
 62
7
 66
1
 70
0
 10
0
 20
0
 30
0
  0
VERTEX
  5
4C108
  8
0
 62
7
 10
22.156151063178442
 20
41.766543360345139
 70
0
  0
VERTEX
  5
4C109
  8
0
 62
7
 10
22.156151063178442
 20
41.766543360345139
 70
0
  0
SEQEND
  5
4C10A
  8
0
  0
POLYLINE
  5
4A6B5
  8
0
 62
7
 66
1
 70
0
 10
0
 20
0
 30
0
  0
VERTEX
  5
4C10B
  8
0
 62
7
 10
24.908093336796021
 20
42.698269434330967
 70
0
  0
VERTEX
  5
4C10C
  8
0
 62
7
 10
24.738594638921739
 20
42.655550250313922
 70
0
  0
SEQEND
  5
4C10D
  8
0
  0
POLYLINE
  5
4A6B9
  8
0
 62
7
 66
1
 70
0
 10
0
 20
0
 30
0
  0
VERTEX
  5
4C10E
  8
0
 62
7
 10
22.156151063178442
 20
41.723824176328087
 70
0
  0
VERTEX
  5
4C10F
  8
0
 62
7
 10
22.029371549321269
 20
41.682655285279338
 70
0
  0
SEQEND
  5
4C110
  8
0
  0
POLYLINE
  5
4A6BD
  8
0
 62
7
 66
1
 70
0
 10
0
 20
0
 30
0
  0
VERTEX
  5
4C111
  8
0
 62
7
 10
24.738594638921739
 20
42.571662175248093
 70
0
  0
VERTEX
  5
4C112
  8
0
 62
7
 10
22.282930577035639
 20
41.682655285279338
 70
0
  0
SEQEND
  5
4C113
  8
0
  0
POLYLINE
  5
4A6C1
  8
0
 62
7
 66
1
 70
0
 10
0
 20
0
 30
0
  0
VERTEX
  5
4C114
  8
0
 62
7
 10
24.865374152778909
 20
42.571662175248093
 70
0
  0
VERTEX
  5
4C115
  8
0
 62
7
 10
24.781313822938841
 20
42.571662175248093
 70
0
  0
SEQEND
  5
4C116
  8
0
  0
POLYLINE
  5
4A6C5
  8
0
 62
7
 66
1
 70
0
 10
0
 20
0
 30
0
  0
VERTEX
  5
4C117
  8
0
 62
7
 10
22.282930577035639
 20
41.682655285279338
 70
0
  0
VERTEX
  5
4C118
  8
0
 62
7
 10
22.156151063178442
 20
41.639936101262251
 70
0
  0
SEQEND
  5
4C119
  8
0
  0
POLYLINE
  5
4A6C9
  8
0
 62
7
 66
1
 70
0
 10
0
 20
0
 30
0
  0
VERTEX
  5
4C11A
  8
0
 62
7
 10
28.379371547733768
 20
41.639936101262251
 70
0
  0
VERTEX
  5
4C11B
  8
0
 62
7
 10
28.293933179699572
 20
41.85232623792789
 70
0
  0
SEQEND
  5
4C11C
  8
0
  0
POLYLINE
  5
4A6CD
  8
0
 62
7
 66
1
 70
0
 10
0
 20
0
 30
0
  0
VERTEX
  5
4C11D
  8
0
 62
7
 10
28.379371547733768
 20
41.936214312993741
 70
0
  0
VERTEX
  5
4C11E
  8
0
 62
7
 10
28.463431877573871
 20
41.766543360345139
 70
0
  0
SEQEND
  5
4C11F
  8
0
  0
POLYLINE
  5
4A6D1
  8
0
 62
7
 66
1
 70
0
 10
0
 20
0
 30
0
  0
VERTEX
  5
4C120
  8
0
 62
7
 10
28.379371547733768
 20
41.97893349701085
 70
0
  0
VERTEX
  5
4C121
  8
0
 62
7
 10
28.463431877573871
 20
41.766543360345139
 70
0
  0
SEQEND
  5
4C122
  8
0
  0
POLYLINE
  5
4A6D5
  8
0
 62
7
 66
1
 70
0
 10
0
 20
0
 30
0
  0
VERTEX
  5
4C123
  8
0
 62
7
 10
24.695875454904641
 20
43.926273720048279
 70
0
  0
VERTEX
  5
4C124
  8
0
 62
7
 10
24.695875454904641
 20
43.926273720048279
 70
0
  0
SEQEND
  5
4C125
  8
0
  0
POLYLINE
  5
4A6D9
  8
0
 62
7
 66
1
 70
0
 10
0
 20
0
 30
0
  0
VERTEX
  5
4C126
  8
0
 62
7
 10
61.522568154031269
 20
21.49163966532711
 70
0
  0
VERTEX
  5
4C127
  8
0
 62
7
 10
61.692066851905587
 20
21.449092736084278
 70
0
  0
SEQEND
  5
4C128
  8
0
  0
POLYLINE
  5
4A6DD
  8
0
 62
7
 66
1
 70
0
 10
0
 20
0
 30
0
  0
VERTEX
  5
4C129
  8
0
 62
7
 10
20.67476000452103
 20
40.2012642266219
 70
0
  0
VERTEX
  5
4C12A
  8
0
 62
7
 10
20.67476000452103
 20
40.2012642266219
 70
0
  0
SEQEND
  5
4C12B
  8
0
  0
POLYLINE
  5
4A6E1
  8
0
 62
7
 66
1
 70
0
 10
0
 20
0
 30
0
  0
VERTEX
  5
4C12C
  8
0
 62
7
 10
22.40971009089284
 20
41.216878375673559
 70
0
  0
VERTEX
  5
4C12D
  8
0
 62
7
 10
22.282930577035639
 20
41.300938705513651
 70
0
  0
SEQEND
  5
4C12E
  8
0
  0
POLYLINE
  5
4A6E5
  8
0
 62
7
 66
1
 70
0
 10
0
 20
0
 30
0
  0
VERTEX
  5
4C12F
  8
0
 62
7
 10
22.452429274909949
 20
41.174331446430728
 70
0
  0
VERTEX
  5
4C130
  8
0
 62
7
 10
61.481227008208279
 20
21.532980811150111
 70
0
  0
SEQEND
  5
4C131
  8
0
  0
POLYLINE
  5
4A6E9
  8
0
 62
7
 66
1
 70
0
 10
0
 20
0
 30
0
  0
VERTEX
  5
4C132
  8
0
 62
7
 10
22.156151063178442
 20
41.766543360345139
 70
0
  0
VERTEX
  5
4C133
  8
0
 62
7
 10
22.19887024719554
 20
41.766543360345139
 70
0
  0
SEQEND
  5
4C134
  8
0
  0
POLYLINE
  5
4A6ED
  8
0
 62
7
 66
1
 70
0
 10
0
 20
0
 30
0
  0
VERTEX
  5
4C135
  8
0
 62
7
 10
22.156151063178442
 20
41.766543360345139
 70
0
  0
VERTEX
  5
4C136
  8
0
 62
7
 10
22.19887024719554
 20
41.766543360345139
 70
0
  0
SEQEND
  5
4C137
  8
0
  0
POLYLINE
  5
4A6F1
  8
0
 62
7
 66
1
 70
0
 10
0
 20
0
 30
0
  0
VERTEX
  5
4C138
  8
0
 62
7
 10
22.19887024719554
 20
43.078607975902557
 70
0
  0
VERTEX
  5
4C139
  8
0
 62
7
 10
22.19887024719554
 20
43.078607975902557
 70
0
  0
SEQEND
  5
4C13A
  8
0
  0
POLYLINE
  5
4A6F5
  8
0
 62
7
 66
1
 70
0
 10
0
 20
0
 30
0
  0
VERTEX
  5
4C13B
  8
0
 62
7
 10
23.722980489870078
 20
42.824876693413941
 70
0
  0
VERTEX
  5
4C13C
  8
0
 62
7
 10
23.722980489870078
 20
42.824876693413941
 70
0
  0
SEQEND
  5
4C13D
  8
0
  0
POLYLINE
  5
4A6F9
  8
0
 62
7
 66
1
 70
0
 10
0
 20
0
 30
0
  0
VERTEX
  5
4C13E
  8
0
 62
7
 10
23.722980489870078
 20
42.867940386979569
 70
0
  0
VERTEX
  5
4C13F
  8
0
 62
7
 10
23.764321635693079
 20
42.867940386979569
 70
0
  0
SEQEND
  5
4C140
  8
0
  0
POLYLINE
  5
4A6FD
  8
0
 62
7
 66
1
 70
0
 10
0
 20
0
 30
0
  0
VERTEX
  5
4C141
  8
0
 62
7
 10
23.764321635693079
 20
43.0372668300796
 70
0
  0
VERTEX
  5
4C142
  8
0
 62
7
 10
23.807040819710181
 20
43.0372668300796
 70
0
  0
SEQEND
  5
4C143
  8
0
  0
POLYLINE
  5
4A701
  8
0
 62
7
 66
1
 70
0
 10
0
 20
0
 30
0
  0
VERTEX
  5
4C144
  8
0
 62
7
 10
23.764321635693079
 20
43.078607975902557
 70
0
  0
VERTEX
  5
4C145
  8
0
 62
7
 10
23.807040819710181
 20
43.078607975902557
 70
0
  0
SEQEND
  5
4C146
  8
0
  0
POLYLINE
  5
4A705
  8
0
 62
7
 66
1
 70
0
 10
0
 20
0
 30
0
  0
VERTEX
  5
4C147
  8
0
 62
7
 10
24.695875454904641
 20
42.655550250313922
 70
0
  0
VERTEX
  5
4C148
  8
0
 62
7
 10
24.695875454904641
 20
42.655550250313922
 70
0
  0
SEQEND
  5
4C149
  8
0
  0
POLYLINE
  5
4A709
  8
0
 62
7
 66
1
 70
0
 10
0
 20
0
 30
0
  0
VERTEX
  5
4C14A
  8
0
 62
7
 10
24.695875454904641
 20
42.655550250313922
 70
0
  0
VERTEX
  5
4C14B
  8
0
 62
7
 10
24.695875454904641
 20
42.655550250313922
 70
0
  0
SEQEND
  5
4C14C
  8
0
  0
POLYLINE
  5
4A70D
  8
0
 62
7
 66
1
 70
0
 10
0
 20
0
 30
0
  0
VERTEX
  5
4C14D
  8
0
 62
7
 10
24.738594638921739
 20
42.655550250313922
 70
0
  0
VERTEX
  5
4C14E
  8
0
 62
7
 10
24.738594638921739
 20
42.655550250313922
 70
0
  0
SEQEND
  5
4C14F
  8
0
  0
POLYLINE
  5
4A711
  8
0
 62
7
 66
1
 70
0
 10
0
 20
0
 30
0
  0
VERTEX
  5
4C150
  8
0
 62
7
 10
24.695875454904641
 20
42.655550250313922
 70
0
  0
VERTEX
  5
4C151
  8
0
 62
7
 10
24.738594638921739
 20
42.655550250313922
 70
0
  0
SEQEND
  5
4C152
  8
0
  0
POLYLINE
  5
4A715
  8
0
 62
7
 66
1
 70
0
 10
0
 20
0
 30
0
  0
VERTEX
  5
4C153
  8
0
 62
7
 10
64.0622925457575
 20
22.88759235595035
 70
0
  0
VERTEX
  5
4C154
  8
0
 62
7
 10
25.077592034670321
 20
42.528942991230963
 70
0
  0
SEQEND
  5
4C155
  8
0
  0
POLYLINE
  5
4A719
  8
0
 62
7
 66
1
 70
0
 10
0
 20
0
 30
0
  0
VERTEX
  5
4C156
  8
0
 62
7
 10
24.695875454904641
 20
42.910659570996643
 70
0
  0
VERTEX
  5
4C157
  8
0
 62
7
 10
24.695875454904641
 20
42.910659570996643
 70
0
  0
SEQEND
  5
4C158
  8
0
  0
POLYLINE
  5
4A71D
  8
0
 62
7
 66
1
 70
0
 10
0
 20
0
 30
0
  0
VERTEX
  5
4C159
  8
0
 62
7
 10
26.219985697579151
 20
42.148259940110847
 70
0
  0
VERTEX
  5
4C15A
  8
0
 62
7
 10
26.30404602741925
 20
42.105540756093767
 70
0
  0
SEQEND
  5
4C15B
  8
0
  0
POLYLINE
  5
4A721
  8
0
 62
7
 66
1
 70
0
 10
0
 20
0
 30
0
  0
VERTEX
  5
4C15C
  8
0
 62
7
 10
24.695875454904641
 20
42.910659570996643
 70
0
  0
VERTEX
  5
4C15D
  8
0
 62
7
 10
24.695875454904641
 20
42.910659570996643
 70
0
  0
SEQEND
  5
4C15E
  8
0
  0
POLYLINE
  5
4A725
  8
0
 62
7
 66
1
 70
0
 10
0
 20
0
 30
0
  0
VERTEX
  5
4C15F
  8
0
 62
7
 10
63.80873351804307
 20
23.396088449573231
 70
0
  0
VERTEX
  5
4C160
  8
0
 62
7
 10
63.639234820168781
 20
23.47997652463906
 70
0
  0
SEQEND
  5
4C161
  8
0
  0
POLYLINE
  5
4A729
  8
0
 62
7
 66
1
 70
0
 10
0
 20
0
 30
0
  0
VERTEX
  5
4C162
  8
0
 62
7
 10
25.245712694350519
 20
42.824876693413941
 70
0
  0
VERTEX
  5
4C163
  8
0
 62
7
 10
25.077592034670321
 20
42.910659570996643
 70
0
  0
SEQEND
  5
4C164
  8
0
  0
POLYLINE
  5
4A72D
  8
0
 62
7
 66
1
 70
0
 10
0
 20
0
 30
0
  0
VERTEX
  5
4C165
  8
0
 62
7
 10
25.077592034670321
 20
43.121327159919687
 70
0
  0
VERTEX
  5
4C166
  8
0
 62
7
 10
25.245712694350519
 20
43.0372668300796
 70
0
  0
SEQEND
  5
4C167
  8
0
  0
POLYLINE
  5
4A731
  8
0
 62
7
 66
1
 70
0
 10
0
 20
0
 30
0
  0
VERTEX
  5
4C168
  8
0
 62
7
 10
63.639234820168781
 20
23.735085845321809
 70
0
  0
VERTEX
  5
4C169
  8
0
 62
7
 10
63.80873351804307
 20
23.6496474772876
 70
0
  0
SEQEND
  5
4C16A
  8
0
  0
POLYLINE
  5
4A735
  8
0
 62
7
 66
1
 70
0
 10
0
 20
0
 30
0
  0
VERTEX
  5
4C16B
  8
0
 62
7
 10
24.738594638921739
 20
42.571662175248093
 70
0
  0
VERTEX
  5
4C16C
  8
0
 62
7
 10
24.738594638921739
 20
42.571662175248093
 70
0
  0
SEQEND
  5
4C16D
  8
0
  0
POLYLINE
  5
4A739
  8
0
 62
7
 66
1
 70
0
 10
0
 20
0
 30
0
  0
VERTEX
  5
4C16E
  8
0
 62
7
 10
25.077592034670321
 20
42.528942991230963
 70
0
  0
VERTEX
  5
4C16F
  8
0
 62
7
 10
24.99215366663611
 20
42.571662175248093
 70
0
  0
VERTEX
  5
4C170
  8
0
 62
7
 10
24.908093336796021
 20
42.571662175248093
 70
0
  0
SEQEND
  5
4C171
  8
0
  0
POLYLINE
  5
4A73E
  8
0
 62
7
 66
1
 70
0
 10
0
 20
0
 30
0
  0
VERTEX
  5
4C172
  8
0
 62
7
 10
24.738594638921739
 20
42.571662175248093
 70
0
  0
VERTEX
  5
4C173
  8
0
 62
7
 10
24.822654968761839
 20
42.571662175248093
 70
0
  0
SEQEND
  5
4C174
  8
0
  0
POLYLINE
  5
4A742
  8
0
 62
7
 66
1
 70
0
 10
0
 20
0
 30
0
  0
VERTEX
  5
4C175
  8
0
 62
7
 10
26.26270488159625
 20
42.105540756093767
 70
0
  0
VERTEX
  5
4C176
  8
0
 62
7
 10
24.908093336796021
 20
42.698269434330967
 70
0
  0
SEQEND
  5
4C177
  8
0
  0
POLYLINE
  5
4A746
  8
0
 62
7
 66
1
 70
0
 10
0
 20
0
 30
0
  0
VERTEX
  5
4C178
  8
0
 62
7
 10
24.653156270887539
 20
43.926273720048279
 70
0
  0
VERTEX
  5
4C179
  8
0
 62
7
 10
24.695875454904641
 20
43.926273720048279
 70
0
  0
SEQEND
  5
4C17A
  8
0
  0
POLYLINE
  5
4A74A
  8
0
 62
7
 66
1
 70
0
 10
0
 20
0
 30
0
  0
VERTEX
  5
4C17B
  8
0
 62
7
 10
24.738594638921739
 20
43.926273720048279
 70
0
  0
VERTEX
  5
4C17C
  8
0
 62
7
 10
64.147730913791662
 20
24.072705202876289
 70
0
  0
SEQEND
  5
4C17D
  8
0
  0
POLYLINE
  5
4A74E
  8
0
 62
7
 66
1
 70
0
 10
0
 20
0
 30
0
  0
VERTEX
  5
4C17E
  8
0
 62
7
 10
64.189072059614659
 20
22.803704280884521
 70
0
  0
VERTEX
  5
4C17F
  8
0
 62
7
 10
64.147730913791662
 20
22.845045426707511
 70
0
  0
VERTEX
  5
4C180
  8
0
 62
7
 10
64.10501172977456
 20
22.845045426707511
 70
0
  0
VERTEX
  5
4C181
  8
0
 62
7
 10
64.0622925457575
 20
22.88759235595035
 70
0
  0
SEQEND
  5
4C182
  8
0
  0
POLYLINE
  5
4A754
  8
0
 62
7
 66
1
 70
0
 10
0
 20
0
 30
0
  0
VERTEX
  5
4C183
  8
0
 62
7
 10
23.764321635693079
 20
42.782157509396811
 70
0
  0
VERTEX
  5
4C184
  8
0
 62
7
 10
23.722980489870078
 20
42.824876693413941
 70
0
  0
SEQEND
  5
4C185
  8
0
  0
POLYLINE
  5
4A758
  8
0
 62
7
 66
1
 70
0
 10
0
 20
0
 30
0
  0
VERTEX
  5
4C186
  8
0
 62
7
 10
23.807040819710181
 20
42.824876693413941
 70
0
  0
VERTEX
  5
4C187
  8
0
 62
7
 10
23.764321635693079
 20
42.867940386979569
 70
0
  0
SEQEND
  5
4C188
  8
0
  0
POLYLINE
  5
4A75C
  8
0
 62
7
 66
1
 70
0
 10
0
 20
0
 30
0
  0
VERTEX
  5
4C189
  8
0
 62
7
 10
24.908093336796021
 20
42.571662175248093
 70
0
  0
VERTEX
  5
4C18A
  8
0
 62
7
 10
24.865374152778909
 20
42.571662175248093
 70
0
  0
SEQEND
  5
4C18B
  8
0
  0
POLYLINE
  5
4A760
  8
0
 62
7
 66
1
 70
0
 10
0
 20
0
 30
0
  0
VERTEX
  5
4C18C
  8
0
 62
7
 10
63.80873351804307
 20
23.606928293270489
 70
0
  0
VERTEX
  5
4C18D
  8
0
 62
7
 10
63.80873351804307
 20
23.6496474772876
 70
0
  0
SEQEND
  5
4C18E
  8
0
  0
POLYLINE
  5
4A764
  8
0
 62
7
 66
1
 70
0
 10
0
 20
0
 30
0
  0
VERTEX
  5
4C18F
  8
0
 62
7
 10
26.30404602741925
 20
42.1899455954824
 70
0
  0
VERTEX
  5
4C190
  8
0
 62
7
 10
26.219985697579151
 20
42.148259940110847
 70
0
  0
SEQEND
  5
4C191
  8
0
  0
POLYLINE
  5
4A768
  8
0
 62
7
 66
1
 70
0
 10
0
 20
0
 30
0
  0
VERTEX
  5
4C192
  8
0
 62
7
 10
60.506954004979633
 20
25.470035931693609
 70
0
  0
VERTEX
  5
4C193
  8
0
 62
7
 10
60.422893675139527
 20
25.639706884342189
 70
0
  0
SEQEND
  5
4C194
  8
0
  0
POLYLINE
  5
4A76C
  8
0
 62
7
 66
1
 70
0
 10
0
 20
0
 30
0
  0
VERTEX
  5
4C195
  8
0
 62
7
 10
60.506954004979633
 20
25.76631414342512
 70
0
  0
VERTEX
  5
4C196
  8
0
 62
7
 10
60.59239237301383
 20
25.596643190776561
 70
0
  0
SEQEND
  5
4C197
  8
0
  0
POLYLINE
  5
4A770
  8
0
 62
7
 66
1
 70
0
 10
0
 20
0
 30
0
  0
VERTEX
  5
4C198
  8
0
 62
7
 10
60.549673188996742
 20
25.76631414342512
 70
0
  0
VERTEX
  5
4C199
  8
0
 62
7
 10
60.59239237301383
 20
25.596643190776561
 70
0
  0
SEQEND
  5
4C19A
  8
0
  0
POLYLINE
  5
4A774
  8
0
 62
7
 66
1
 70
0
 10
0
 20
0
 30
0
  0
VERTEX
  5
4C19B
  8
0
 62
7
 10
60.506954004979633
 20
25.80903332744219
 70
0
  0
VERTEX
  5
4C19C
  8
0
 62
7
 10
60.422893675139527
 20
25.682426068359259
 70
0
  0
SEQEND
  5
4C19D
  8
0
  0
POLYLINE
  5
4A778
  8
0
 62
7
 66
1
 70
0
 10
0
 20
0
 30
0
  0
VERTEX
  5
4C19E
  8
0
 62
7
 10
60.59239237301383
 20
25.553924006759448
 70
0
  0
VERTEX
  5
4C19F
  8
0
 62
7
 10
60.506954004979633
 20
25.470035931693609
 70
0
  0
SEQEND
  5
4C1A0
  8
0
  0
POLYLINE
  5
4A77C
  8
0
 62
7
 66
1
 70
0
 10
0
 20
0
 30
0
  0
VERTEX
  5
4C1A1
  8
0
 62
7
 10
60.59239237301383
 20
25.553924006759448
 70
0
  0
VERTEX
  5
4C1A2
  8
0
 62
7
 10
60.549673188996742
 20
25.470035931693609
 70
0
  0
SEQEND
  5
4C1A3
  8
0
  0
POLYLINE
  5
4A780
  8
0
 62
7
 66
1
 70
0
 10
0
 20
0
 30
0
  0
VERTEX
  5
4C1A4
  8
0
 62
7
 10
63.639234820168781
 20
23.47997652463906
 70
0
  0
VERTEX
  5
4C1A5
  8
0
 62
7
 10
63.639234820168781
 20
23.735085845321809
 70
0
  0
SEQEND
  5
4C1A6
  8
0
  0
POLYLINE
  5
4A784
  8
0
 62
7
 66
1
 70
0
 10
0
 20
0
 30
0
  0
VERTEX
  5
4C1A7
  8
0
 62
7
 10
63.80873351804307
 20
23.6496474772876
 70
0
  0
VERTEX
  5
4C1A8
  8
0
 62
7
 10
63.80873351804307
 20
23.606928293270489
 70
0
  0
SEQEND
  5
4C1A9
  8
0
  0
POLYLINE
  5
4A788
  8
0
 62
7
 66
1
 70
0
 10
0
 20
0
 30
0
  0
VERTEX
  5
4C1AA
  8
0
 62
7
 10
63.80873351804307
 20
23.47997652463906
 70
0
  0
VERTEX
  5
4C1AB
  8
0
 62
7
 10
63.80873351804307
 20
23.396088449573231
 70
0
  0
SEQEND
  5
4C1AC
  8
0
  0
POLYLINE
  5
4A78C
  8
0
 62
7
 66
1
 70
0
 10
0
 20
0
 30
0
  0
VERTEX
  5
4C1AD
  8
0
 62
7
 10
64.189072059614659
 20
23.14132363843899
 70
0
  0
VERTEX
  5
4C1AE
  8
0
 62
7
 10
64.189072059614659
 20
24.031364057053281
 70
0
  0
SEQEND
  5
4C1AF
  8
0
  0
POLYLINE
  5
4A790
  8
0
 62
7
 66
1
 70
0
 10
0
 20
0
 30
0
  0
VERTEX
  5
4C1B0
  8
0
 62
7
 10
64.189072059614659
 20
22.760640587318878
 70
0
  0
VERTEX
  5
4C1B1
  8
0
 62
7
 10
64.189072059614659
 20
22.803704280884521
 70
0
  0
SEQEND
  5
4C1B2
  8
0
  0
POLYLINE
  5
4A794
  8
0
 62
7
 66
1
 70
0
 10
0
 20
0
 30
0
  0
VERTEX
  5
4C1B3
  8
0
 62
7
 10
64.189072059614659
 20
22.507426069153009
 70
0
  0
VERTEX
  5
4C1B4
  8
0
 62
7
 10
64.189072059614659
 20
22.59131414421887
 70
0
  0
SEQEND
  5
4C1B5
  8
0
  0
POLYLINE
  5
4A798
  8
0
 62
7
 66
1
 70
0
 10
0
 20
0
 30
0
  0
VERTEX
  5
4C1B6
  8
0
 62
7
 10
24.949434482619012
 20
42.1899455954824
 70
0
  0
VERTEX
  5
4C1B7
  8
0
 62
7
 10
25.034872850653219
 20
42.27521170874234
 70
0
  0
SEQEND
  5
4C1B8
  8
0
  0
POLYLINE
  5
4A79C
  8
0
 62
7
 66
1
 70
0
 10
0
 20
0
 30
0
  0
VERTEX
  5
4C1B9
  8
0
 62
7
 10
22.156151063178442
 20
41.386204818773592
 70
0
  0
VERTEX
  5
4C1BA
  8
0
 62
7
 10
22.19887024719554
 20
41.343657889530782
 70
0
  0
SEQEND
  5
4C1BB
  8
0
  0
POLYLINE
  5
4A7A0
  8
0
 62
7
 66
1
 70
0
 10
0
 20
0
 30
0
  0
VERTEX
  5
4C1BC
  8
0
 62
7
 10
22.19887024719554
 20
41.343657889530782
 70
0
  0
VERTEX
  5
4C1BD
  8
0
 62
7
 10
22.19887024719554
 20
41.343657889530782
 70
0
  0
SEQEND
  5
4C1BE
  8
0
  0
POLYLINE
  5
4A7A4
  8
0
 62
7
 66
1
 70
0
 10
0
 20
0
 30
0
  0
VERTEX
  5
4C1BF
  8
0
 62
7
 10
22.19887024719554
 20
41.343657889530782
 70
0
  0
VERTEX
  5
4C1C0
  8
0
 62
7
 10
22.241589431212649
 20
41.300938705513651
 70
0
  0
SEQEND
  5
4C1C1
  8
0
  0
POLYLINE
  5
4A7A8
  8
0
 62
7
 66
1
 70
0
 10
0
 20
0
 30
0
  0
VERTEX
  5
4C1C2
  8
0
 62
7
 10
22.241589431212649
 20
41.300938705513651
 70
0
  0
VERTEX
  5
4C1C3
  8
0
 62
7
 10
22.241589431212649
 20
41.300938705513651
 70
0
  0
SEQEND
  5
4C1C4
  8
0
  0
POLYLINE
  5
4A7AC
  8
0
 62
7
 66
1
 70
0
 10
0
 20
0
 30
0
  0
VERTEX
  5
4C1C5
  8
0
 62
7
 10
22.241589431212649
 20
41.300938705513651
 70
0
  0
VERTEX
  5
4C1C6
  8
0
 62
7
 10
22.282930577035639
 20
41.300938705513651
 70
0
  0
SEQEND
  5
4C1C7
  8
0
  0
POLYLINE
  5
4A7B0
  8
0
 62
7
 66
1
 70
0
 10
0
 20
0
 30
0
  0
VERTEX
  5
4C1C8
  8
0
 62
7
 10
22.282930577035639
 20
41.300938705513651
 70
0
  0
VERTEX
  5
4C1C9
  8
0
 62
7
 10
22.282930577035639
 20
41.300938705513651
 70
0
  0
SEQEND
  5
4C1CA
  8
0
  0
POLYLINE
  5
4A7B4
  8
0
 62
7
 66
1
 70
0
 10
0
 20
0
 30
0
  0
VERTEX
  5
4C1CB
  8
0
 62
7
 10
22.40971009089284
 20
41.216878375673559
 70
0
  0
VERTEX
  5
4C1CC
  8
0
 62
7
 10
22.40971009089284
 20
41.216878375673559
 70
0
  0
SEQEND
  5
4C1CD
  8
0
  0
POLYLINE
  5
4A7B8
  8
0
 62
7
 66
1
 70
0
 10
0
 20
0
 30
0
  0
VERTEX
  5
4C1CE
  8
0
 62
7
 10
22.40971009089284
 20
41.216878375673559
 70
0
  0
VERTEX
  5
4C1CF
  8
0
 62
7
 10
22.40971009089284
 20
41.216878375673559
 70
0
  0
SEQEND
  5
4C1D0
  8
0
  0
POLYLINE
  5
4A7BC
  8
0
 62
7
 66
1
 70
0
 10
0
 20
0
 30
0
  0
VERTEX
  5
4C1D1
  8
0
 62
7
 10
22.40971009089284
 20
41.216878375673559
 70
0
  0
VERTEX
  5
4C1D2
  8
0
 62
7
 10
22.452429274909949
 20
41.174331446430728
 70
0
  0
SEQEND
  5
4C1D3
  8
0
  0
POLYLINE
  5
4A7C0
  8
0
 62
7
 66
1
 70
0
 10
0
 20
0
 30
0
  0
VERTEX
  5
4C1D4
  8
0
 62
7
 10
22.452429274909949
 20
41.174331446430728
 70
0
  0
VERTEX
  5
4C1D5
  8
0
 62
7
 10
22.40971009089284
 20
41.216878375673559
 70
0
  0
SEQEND
  5
4C1D6
  8
0
  0
POLYLINE
  5
4A7C4
  8
0
 62
7
 66
1
 70
0
 10
0
 20
0
 30
0
  0
VERTEX
  5
4C1D7
  8
0
 62
7
 10
22.452429274909949
 20
41.174331446430728
 70
0
  0
VERTEX
  5
4C1D8
  8
0
 62
7
 10
22.495148458927041
 20
41.174331446430728
 70
0
  0
SEQEND
  5
4C1D9
  8
0
  0
POLYLINE
  5
4A7C8
  8
0
 62
7
 66
1
 70
0
 10
0
 20
0
 30
0
  0
VERTEX
  5
4C1DA
  8
0
 62
7
 10
25.034872850653219
 20
42.27521170874234
 70
0
  0
VERTEX
  5
4C1DB
  8
0
 62
7
 10
25.034872850653219
 20
42.27521170874234
 70
0
  0
SEQEND
  5
4C1DC
  8
0
  0
POLYLINE
  5
4A7CC
  8
0
 62
7
 66
1
 70
0
 10
0
 20
0
 30
0
  0
VERTEX
  5
4C1DD
  8
0
 62
7
 10
25.034872850653219
 20
42.316552854565323
 70
0
  0
VERTEX
  5
4C1DE
  8
0
 62
7
 10
25.034872850653219
 20
42.316552854565323
 70
0
  0
SEQEND
  5
4C1DF
  8
0
  0
POLYLINE
  5
4A7D0
  8
0
 62
7
 66
1
 70
0
 10
0
 20
0
 30
0
  0
VERTEX
  5
4C1E0
  8
0
 62
7
 10
25.077592034670321
 20
43.0372668300796
 70
0
  0
VERTEX
  5
4C1E1
  8
0
 62
7
 10
25.077592034670321
 20
43.0372668300796
 70
0
  0
SEQEND
  5
4C1E2
  8
0
  0
POLYLINE
  5
4A7D4
  8
0
 62
7
 66
1
 70
0
 10
0
 20
0
 30
0
  0
VERTEX
  5
4C1E3
  8
0
 62
7
 10
25.077592034670321
 20
42.528942991230963
 70
0
  0
VERTEX
  5
4C1E4
  8
0
 62
7
 10
25.077592034670321
 20
42.528942991230963
 70
0
  0
SEQEND
  5
4C1E5
  8
0
  0
POLYLINE
  5
4A7D8
  8
0
 62
7
 66
1
 70
0
 10
0
 20
0
 30
0
  0
VERTEX
  5
4C1E6
  8
0
 62
7
 10
25.077592034670321
 20
42.528942991230963
 70
0
  0
VERTEX
  5
4C1E7
  8
0
 62
7
 10
25.077592034670321
 20
42.528942991230963
 70
0
  0
SEQEND
  5
4C1E8
  8
0
  0
POLYLINE
  5
4A7DC
  8
0
 62
7
 66
1
 70
0
 10
0
 20
0
 30
0
  0
VERTEX
  5
4C1E9
  8
0
 62
7
 10
25.077592034670321
 20
42.528942991230963
 70
0
  0
VERTEX
  5
4C1EA
  8
0
 62
7
 10
25.077592034670321
 20
42.528942991230963
 70
0
  0
SEQEND
  5
4C1EB
  8
0
  0
POLYLINE
  5
4A7E0
  8
0
 62
7
 66
1
 70
0
 10
0
 20
0
 30
0
  0
VERTEX
  5
4C1EC
  8
0
 62
7
 10
25.077592034670321
 20
42.528942991230963
 70
0
  0
VERTEX
  5
4C1ED
  8
0
 62
7
 10
25.077592034670321
 20
42.528942991230963
 70
0
  0
SEQEND
  5
4C1EE
  8
0
  0
POLYLINE
  5
4A7E4
  8
0
 62
7
 66
1
 70
0
 10
0
 20
0
 30
0
  0
VERTEX
  5
4C1EF
  8
0
 62
7
 10
25.077592034670321
 20
42.528942991230963
 70
0
  0
VERTEX
  5
4C1F0
  8
0
 62
7
 10
25.077592034670321
 20
42.528942991230963
 70
0
  0
SEQEND
  5
4C1F1
  8
0
  0
POLYLINE
  5
4A7E8
  8
0
 62
7
 66
1
 70
0
 10
0
 20
0
 30
0
  0
VERTEX
  5
4C1F2
  8
0
 62
7
 10
25.077592034670321
 20
42.528942991230963
 70
0
  0
VERTEX
  5
4C1F3
  8
0
 62
7
 10
25.077592034670321
 20
42.528942991230963
 70
0
  0
SEQEND
  5
4C1F4
  8
0
  0
POLYLINE
  5
4A7EC
  8
0
 62
7
 66
1
 70
0
 10
0
 20
0
 30
0
  0
VERTEX
  5
4C1F5
  8
0
 62
7
 10
25.077592034670321
 20
42.528942991230963
 70
0
  0
VERTEX
  5
4C1F6
  8
0
 62
7
 10
25.077592034670321
 20
42.528942991230963
 70
0
  0
SEQEND
  5
4C1F7
  8
0
  0
POLYLINE
  5
4A7F0
  8
0
 62
7
 66
1
 70
0
 10
0
 20
0
 30
0
  0
VERTEX
  5
4C1F8
  8
0
 62
7
 10
25.077592034670321
 20
42.528942991230963
 70
0
  0
VERTEX
  5
4C1F9
  8
0
 62
7
 10
25.077592034670321
 20
42.528942991230963
 70
0
  0
SEQEND
  5
4C1FA
  8
0
  0
POLYLINE
  5
4A7F4
  8
0
 62
7
 66
1
 70
0
 10
0
 20
0
 30
0
  0
VERTEX
  5
4C1FB
  8
0
 62
7
 10
25.077592034670321
 20
42.528942991230963
 70
0
  0
VERTEX
  5
4C1FC
  8
0
 62
7
 10
25.077592034670321
 20
42.528942991230963
 70
0
  0
SEQEND
  5
4C1FD
  8
0
  0
POLYLINE
  5
4A7F8
  8
0
 62
7
 66
1
 70
0
 10
0
 20
0
 30
0
  0
VERTEX
  5
4C1FE
  8
0
 62
7
 10
25.077592034670321
 20
42.528942991230963
 70
0
  0
VERTEX
  5
4C1FF
  8
0
 62
7
 10
25.077592034670321
 20
42.528942991230963
 70
0
  0
SEQEND
  5
4C200
  8
0
  0
POLYLINE
  5
4A7FC
  8
0
 62
7
 66
1
 70
0
 10
0
 20
0
 30
0
  0
VERTEX
  5
4C201
  8
0
 62
7
 10
25.077592034670321
 20
42.528942991230963
 70
0
  0
VERTEX
  5
4C202
  8
0
 62
7
 10
25.077592034670321
 20
42.528942991230963
 70
0
  0
SEQEND
  5
4C203
  8
0
  0
POLYLINE
  5
4A800
  8
0
 62
7
 66
1
 70
0
 10
0
 20
0
 30
0
  0
VERTEX
  5
4C204
  8
0
 62
7
 10
25.077592034670321
 20
42.528942991230963
 70
0
  0
VERTEX
  5
4C205
  8
0
 62
7
 10
25.077592034670321
 20
42.528942991230963
 70
0
  0
SEQEND
  5
4C206
  8
0
  0
POLYLINE
  5
4A804
  8
0
 62
7
 66
1
 70
0
 10
0
 20
0
 30
0
  0
VERTEX
  5
4C207
  8
0
 62
7
 10
25.077592034670321
 20
42.528942991230963
 70
0
  0
VERTEX
  5
4C208
  8
0
 62
7
 10
25.077592034670321
 20
42.528942991230963
 70
0
  0
SEQEND
  5
4C209
  8
0
  0
POLYLINE
  5
4A808
  8
0
 62
7
 66
1
 70
0
 10
0
 20
0
 30
0
  0
VERTEX
  5
4C20A
  8
0
 62
7
 10
25.077592034670321
 20
42.528942991230963
 70
0
  0
VERTEX
  5
4C20B
  8
0
 62
7
 10
25.077592034670321
 20
42.528942991230963
 70
0
  0
SEQEND
  5
4C20C
  8
0
  0
POLYLINE
  5
4A80C
  8
0
 62
7
 66
1
 70
0
 10
0
 20
0
 30
0
  0
VERTEX
  5
4C20D
  8
0
 62
7
 10
25.077592034670321
 20
42.528942991230963
 70
0
  0
VERTEX
  5
4C20E
  8
0
 62
7
 10
25.077592034670321
 20
42.528942991230963
 70
0
  0
SEQEND
  5
4C20F
  8
0
  0
POLYLINE
  5
4A810
  8
0
 62
7
 66
1
 70
0
 10
0
 20
0
 30
0
  0
VERTEX
  5
4C210
  8
0
 62
7
 10
25.077592034670321
 20
42.528942991230963
 70
0
  0
VERTEX
  5
4C211
  8
0
 62
7
 10
25.077592034670321
 20
42.528942991230963
 70
0
  0
SEQEND
  5
4C212
  8
0
  0
POLYLINE
  5
4A814
  8
0
 62
7
 66
1
 70
0
 10
0
 20
0
 30
0
  0
VERTEX
  5
4C213
  8
0
 62
7
 10
25.077592034670321
 20
42.528942991230963
 70
0
  0
VERTEX
  5
4C214
  8
0
 62
7
 10
25.077592034670321
 20
42.528942991230963
 70
0
  0
SEQEND
  5
4C215
  8
0
  0
POLYLINE
  5
4A818
  8
0
 62
7
 66
1
 70
0
 10
0
 20
0
 30
0
  0
VERTEX
  5
4C216
  8
0
 62
7
 10
25.077592034670321
 20
42.528942991230963
 70
0
  0
VERTEX
  5
4C217
  8
0
 62
7
 10
25.077592034670321
 20
42.528942991230963
 70
0
  0
SEQEND
  5
4C218
  8
0
  0
POLYLINE
  5
4A81C
  8
0
 62
7
 66
1
 70
0
 10
0
 20
0
 30
0
  0
VERTEX
  5
4C219
  8
0
 62
7
 10
25.077592034670321
 20
42.528942991230963
 70
0
  0
VERTEX
  5
4C21A
  8
0
 62
7
 10
25.077592034670321
 20
42.528942991230963
 70
0
  0
SEQEND
  5
4C21B
  8
0
  0
POLYLINE
  5
4A820
  8
0
 62
7
 66
1
 70
0
 10
0
 20
0
 30
0
  0
VERTEX
  5
4C21C
  8
0
 62
7
 10
25.077592034670321
 20
42.528942991230963
 70
0
  0
VERTEX
  5
4C21D
  8
0
 62
7
 10
25.077592034670321
 20
42.528942991230963
 70
0
  0
SEQEND
  5
4C21E
  8
0
  0
POLYLINE
  5
4A824
  8
0
 62
7
 66
1
 70
0
 10
0
 20
0
 30
0
  0
VERTEX
  5
4C21F
  8
0
 62
7
 10
63.978232215917387
 20
22.507426069153009
 70
0
  0
VERTEX
  5
4C220
  8
0
 62
7
 10
64.0622925457575
 20
22.59131414421887
 70
0
  0
SEQEND
  5
4C221
  8
0
  0
POLYLINE
  5
4A828
  8
0
 62
7
 66
1
 70
0
 10
0
 20
0
 30
0
  0
VERTEX
  5
4C222
  8
0
 62
7
 10
61.565287338048392
 20
21.49163966532711
 70
0
  0
VERTEX
  5
4C223
  8
0
 62
7
 10
61.522568154031269
 20
21.49163966532711
 70
0
  0
SEQEND
  5
4C224
  8
0
  0
POLYLINE
  5
4A82C
  8
0
 62
7
 66
1
 70
0
 10
0
 20
0
 30
0
  0
VERTEX
  5
4C225
  8
0
 62
7
 10
61.522568154031269
 20
21.49163966532711
 70
0
  0
VERTEX
  5
4C226
  8
0
 62
7
 10
61.522568154031269
 20
21.49163966532711
 70
0
  0
SEQEND
  5
4C227
  8
0
  0
POLYLINE
  5
4A830
  8
0
 62
7
 66
1
 70
0
 10
0
 20
0
 30
0
  0
VERTEX
  5
4C228
  8
0
 62
7
 10
61.522568154031269
 20
21.49163966532711
 70
0
  0
VERTEX
  5
4C229
  8
0
 62
7
 10
61.522568154031269
 20
21.49163966532711
 70
0
  0
SEQEND
  5
4C22A
  8
0
  0
POLYLINE
  5
4A834
  8
0
 62
7
 66
1
 70
0
 10
0
 20
0
 30
0
  0
VERTEX
  5
4C22B
  8
0
 62
7
 10
61.522568154031269
 20
21.49163966532711
 70
0
  0
VERTEX
  5
4C22C
  8
0
 62
7
 10
61.522568154031269
 20
21.532980811150111
 70
0
  0
SEQEND
  5
4C22D
  8
0
  0
POLYLINE
  5
4A838
  8
0
 62
7
 66
1
 70
0
 10
0
 20
0
 30
0
  0
VERTEX
  5
4C22E
  8
0
 62
7
 10
61.522568154031269
 20
21.532980811150111
 70
0
  0
VERTEX
  5
4C22F
  8
0
 62
7
 10
61.522568154031269
 20
21.49163966532711
 70
0
  0
SEQEND
  5
4C230
  8
0
  0
POLYLINE
  5
4A83C
  8
0
 62
7
 66
1
 70
0
 10
0
 20
0
 30
0
  0
VERTEX
  5
4C231
  8
0
 62
7
 10
61.522568154031269
 20
21.532980811150111
 70
0
  0
VERTEX
  5
4C232
  8
0
 62
7
 10
61.522568154031269
 20
21.532980811150111
 70
0
  0
SEQEND
  5
4C233
  8
0
  0
POLYLINE
  5
4A840
  8
0
 62
7
 66
1
 70
0
 10
0
 20
0
 30
0
  0
VERTEX
  5
4C234
  8
0
 62
7
 10
61.522568154031269
 20
21.532980811150111
 70
0
  0
VERTEX
  5
4C235
  8
0
 62
7
 10
61.481227008208279
 20
21.532980811150111
 70
0
  0
SEQEND
  5
4C236
  8
0
  0
POLYLINE
  5
4A844
  8
0
 62
7
 66
1
 70
0
 10
0
 20
0
 30
0
  0
VERTEX
  5
4C237
  8
0
 62
7
 10
61.481227008208279
 20
21.532980811150111
 70
0
  0
VERTEX
  5
4C238
  8
0
 62
7
 10
61.522568154031269
 20
21.532980811150111
 70
0
  0
SEQEND
  5
4C239
  8
0
  0
POLYLINE
  5
4A848
  8
0
 62
7
 66
1
 70
0
 10
0
 20
0
 30
0
  0
VERTEX
  5
4C23A
  8
0
 62
7
 10
61.522568154031269
 20
21.532980811150111
 70
0
  0
VERTEX
  5
4C23B
  8
0
 62
7
 10
61.522568154031269
 20
21.532980811150111
 70
0
  0
SEQEND
  5
4C23C
  8
0
  0
POLYLINE
  5
4A84C
  8
0
 62
7
 66
1
 70
0
 10
0
 20
0
 30
0
  0
VERTEX
  5
4C23D
  8
0
 62
7
 10
64.0622925457575
 20
22.88759235595035
 70
0
  0
VERTEX
  5
4C23E
  8
0
 62
7
 10
64.0622925457575
 20
22.88759235595035
 70
0
  0
SEQEND
  5
4C23F
  8
0
  0
POLYLINE
  5
4A850
  8
0
 62
7
 66
1
 70
0
 10
0
 20
0
 30
0
  0
VERTEX
  5
4C240
  8
0
 62
7
 10
64.0622925457575
 20
22.88759235595035
 70
0
  0
VERTEX
  5
4C241
  8
0
 62
7
 10
64.0622925457575
 20
22.88759235595035
 70
0
  0
SEQEND
  5
4C242
  8
0
  0
POLYLINE
  5
4A854
  8
0
 62
7
 66
1
 70
0
 10
0
 20
0
 30
0
  0
VERTEX
  5
4C243
  8
0
 62
7
 10
64.0622925457575
 20
22.88759235595035
 70
0
  0
VERTEX
  5
4C244
  8
0
 62
7
 10
64.0622925457575
 20
22.88759235595035
 70
0
  0
SEQEND
  5
4C245
  8
0
  0
POLYLINE
  5
4A858
  8
0
 62
7
 66
1
 70
0
 10
0
 20
0
 30
0
  0
VERTEX
  5
4C246
  8
0
 62
7
 10
64.0622925457575
 20
22.88759235595035
 70
0
  0
VERTEX
  5
4C247
  8
0
 62
7
 10
64.0622925457575
 20
22.88759235595035
 70
0
  0
SEQEND
  5
4C248
  8
0
  0
POLYLINE
  5
4A85C
  8
0
 62
7
 66
1
 70
0
 10
0
 20
0
 30
0
  0
VERTEX
  5
4C249
  8
0
 62
7
 10
64.0622925457575
 20
22.88759235595035
 70
0
  0
VERTEX
  5
4C24A
  8
0
 62
7
 10
64.0622925457575
 20
22.88759235595035
 70
0
  0
SEQEND
  5
4C24B
  8
0
  0
POLYLINE
  5
4A860
  8
0
 62
7
 66
1
 70
0
 10
0
 20
0
 30
0
  0
VERTEX
  5
4C24C
  8
0
 62
7
 10
64.0622925457575
 20
22.88759235595035
 70
0
  0
VERTEX
  5
4C24D
  8
0
 62
7
 10
64.0622925457575
 20
22.88759235595035
 70
0
  0
SEQEND
  5
4C24E
  8
0
  0
POLYLINE
  5
4A864
  8
0
 62
7
 66
1
 70
0
 10
0
 20
0
 30
0
  0
VERTEX
  5
4C24F
  8
0
 62
7
 10
64.0622925457575
 20
22.88759235595035
 70
0
  0
VERTEX
  5
4C250
  8
0
 62
7
 10
64.0622925457575
 20
22.88759235595035
 70
0
  0
SEQEND
  5
4C251
  8
0
  0
POLYLINE
  5
4A868
  8
0
 62
7
 66
1
 70
0
 10
0
 20
0
 30
0
  0
VERTEX
  5
4C252
  8
0
 62
7
 10
64.0622925457575
 20
22.88759235595035
 70
0
  0
VERTEX
  5
4C253
  8
0
 62
7
 10
64.0622925457575
 20
22.88759235595035
 70
0
  0
SEQEND
  5
4C254
  8
0
  0
POLYLINE
  5
4A86C
  8
0
 62
7
 66
1
 70
0
 10
0
 20
0
 30
0
  0
VERTEX
  5
4C255
  8
0
 62
7
 10
64.0622925457575
 20
22.88759235595035
 70
0
  0
VERTEX
  5
4C256
  8
0
 62
7
 10
64.0622925457575
 20
22.88759235595035
 70
0
  0
SEQEND
  5
4C257
  8
0
  0
POLYLINE
  5
4A870
  8
0
 62
7
 66
1
 70
0
 10
0
 20
0
 30
0
  0
VERTEX
  5
4C258
  8
0
 62
7
 10
64.0622925457575
 20
22.88759235595035
 70
0
  0
VERTEX
  5
4C259
  8
0
 62
7
 10
64.0622925457575
 20
22.88759235595035
 70
0
  0
SEQEND
  5
4C25A
  8
0
  0
POLYLINE
  5
4A874
  8
0
 62
7
 66
1
 70
0
 10
0
 20
0
 30
0
  0
VERTEX
  5
4C25B
  8
0
 62
7
 10
64.0622925457575
 20
22.88759235595035
 70
0
  0
VERTEX
  5
4C25C
  8
0
 62
7
 10
64.0622925457575
 20
22.88759235595035
 70
0
  0
SEQEND
  5
4C25D
  8
0
  0
POLYLINE
  5
4A878
  8
0
 62
7
 66
1
 70
0
 10
0
 20
0
 30
0
  0
VERTEX
  5
4C25E
  8
0
 62
7
 10
64.0622925457575
 20
22.88759235595035
 70
0
  0
VERTEX
  5
4C25F
  8
0
 62
7
 10
64.0622925457575
 20
22.88759235595035
 70
0
  0
SEQEND
  5
4C260
  8
0
  0
POLYLINE
  5
4A87C
  8
0
 62
7
 66
1
 70
0
 10
0
 20
0
 30
0
  0
VERTEX
  5
4C261
  8
0
 62
7
 10
23.722980489870078
 20
42.867940386979569
 70
0
  0
VERTEX
  5
4C262
  8
0
 62
7
 10
23.722980489870078
 20
42.867940386979569
 70
0
  0
SEQEND
  5
4C263
  8
0
  0
POLYLINE
  5
4A880
  8
0
 62
7
 66
1
 70
0
 10
0
 20
0
 30
0
  0
VERTEX
  5
4C264
  8
0
 62
7
 10
23.722980489870078
 20
42.824876693413941
 70
0
  0
VERTEX
  5
4C265
  8
0
 62
7
 10
23.722980489870078
 20
42.824876693413941
 70
0
  0
SEQEND
  5
4C266
  8
0
  0
POLYLINE
  5
4A884
  8
0
 62
7
 66
1
 70
0
 10
0
 20
0
 30
0
  0
VERTEX
  5
4C267
  8
0
 62
7
 10
22.029371549321269
 20
41.639936101262251
 70
0
  0
VERTEX
  5
4C268
  8
0
 62
7
 10
20.632040820503931
 20
40.073278929344887
 70
0
  0
SEQEND
  5
4C269
  8
0
  0
POLYLINE
  5
4A888
  8
0
 62
7
 66
1
 70
0
 10
0
 20
0
 30
0
  0
VERTEX
  5
4C26A
  8
0
 62
7
 10
22.156151063178442
 20
41.936214312993741
 70
0
  0
VERTEX
  5
4C26B
  8
0
 62
7
 10
22.156151063178442
 20
41.766543360345139
 70
0
  0
SEQEND
  5
4C26C
  8
0
  0
POLYLINE
  5
4A88C
  8
0
 62
7
 66
1
 70
0
 10
0
 20
0
 30
0
  0
VERTEX
  5
4C26D
  8
0
 62
7
 10
22.19887024719554
 20
42.062993826850906
 70
0
  0
VERTEX
  5
4C26E
  8
0
 62
7
 10
22.19887024719554
 20
41.936214312993741
 70
0
  0
SEQEND
  5
4C26F
  8
0
  0
POLYLINE
  5
4A890
  8
0
 62
7
 66
1
 70
0
 10
0
 20
0
 30
0
  0
VERTEX
  5
4C270
  8
0
 62
7
 10
22.19887024719554
 20
43.0372668300796
 70
0
  0
VERTEX
  5
4C271
  8
0
 62
7
 10
22.19887024719554
 20
42.062993826850906
 70
0
  0
SEQEND
  5
4C272
  8
0
  0
POLYLINE
  5
4A894
  8
0
 62
7
 66
1
 70
0
 10
0
 20
0
 30
0
  0
VERTEX
  5
4C273
  8
0
 62
7
 10
22.19887024719554
 20
41.766543360345139
 70
0
  0
VERTEX
  5
4C274
  8
0
 62
7
 10
22.19887024719554
 20
41.766543360345139
 70
0
  0
SEQEND
  5
4C275
  8
0
  0
POLYLINE
  5
4A898
  8
0
 62
7
 66
1
 70
0
 10
0
 20
0
 30
0
  0
VERTEX
  5
4C276
  8
0
 62
7
 10
22.19887024719554
 20
42.062993826850906
 70
0
  0
VERTEX
  5
4C277
  8
0
 62
7
 10
22.19887024719554
 20
43.0372668300796
 70
0
  0
SEQEND
  5
4C278
  8
0
  0
POLYLINE
  5
4A89C
  8
0
 62
7
 66
1
 70
0
 10
0
 20
0
 30
0
  0
VERTEX
  5
4C279
  8
0
 62
7
 10
22.19887024719554
 20
43.0372668300796
 70
0
  0
VERTEX
  5
4C27A
  8
0
 62
7
 10
22.19887024719554
 20
43.078607975902557
 70
0
  0
SEQEND
  5
4C27B
  8
0
  0
POLYLINE
  5
4A8A0
  8
0
 62
7
 66
1
 70
0
 10
0
 20
0
 30
0
  0
VERTEX
  5
4C27C
  8
0
 62
7
 10
23.764321635693079
 20
43.078607975902557
 70
0
  0
VERTEX
  5
4C27D
  8
0
 62
7
 10
23.764321635693079
 20
43.078607975902557
 70
0
  0
SEQEND
  5
4C27E
  8
0
  0
POLYLINE
  5
4A8A4
  8
0
 62
7
 66
1
 70
0
 10
0
 20
0
 30
0
  0
VERTEX
  5
4C27F
  8
0
 62
7
 10
23.764321635693079
 20
43.0372668300796
 70
0
  0
VERTEX
  5
4C280
  8
0
 62
7
 10
23.764321635693079
 20
43.0372668300796
 70
0
  0
SEQEND
  5
4C281
  8
0
  0
POLYLINE
  5
4A8A8
  8
0
 62
7
 66
1
 70
0
 10
0
 20
0
 30
0
  0
VERTEX
  5
4C282
  8
0
 62
7
 10
25.245712694350519
 20
39.353942992024713
 70
0
  0
VERTEX
  5
4C283
  8
0
 62
7
 10
25.288431878367621
 20
39.523269435124739
 70
0
  0
SEQEND
  5
4C284
  8
0
  0
POLYLINE
  5
4A8AC
  8
0
 62
7
 66
1
 70
0
 10
0
 20
0
 30
0
  0
VERTEX
  5
4C285
  8
0
 62
7
 10
25.500649760258991
 20
39.60870780315895
 70
0
  0
VERTEX
  5
4C286
  8
0
 62
7
 10
25.4579305762419
 20
39.480550251107672
 70
0
  0
SEQEND
  5
4C287
  8
0
  0
POLYLINE
  5
4A8B0
  8
0
 62
7
 66
1
 70
0
 10
0
 20
0
 30
0
  0
VERTEX
  5
4C288
  8
0
 62
7
 10
25.500649760258991
 20
39.60870780315895
 70
0
  0
VERTEX
  5
4C289
  8
0
 62
7
 10
25.4579305762419
 20
39.480550251107672
 70
0
  0
SEQEND
  5
4C28A
  8
0
  0
POLYLINE
  5
4A8B4
  8
0
 62
7
 66
1
 70
0
 10
0
 20
0
 30
0
  0
VERTEX
  5
4C28B
  8
0
 62
7
 10
24.695875454904641
 20
43.926273720048279
 70
0
  0
VERTEX
  5
4C28C
  8
0
 62
7
 10
24.695875454904641
 20
43.926273720048279
 70
0
  0
SEQEND
  5
4C28D
  8
0
  0
POLYLINE
  5
4A8B8
  8
0
 62
7
 66
1
 70
0
 10
0
 20
0
 30
0
  0
VERTEX
  5
4C28E
  8
0
 62
7
 10
24.695875454904641
 20
42.910659570996643
 70
0
  0
VERTEX
  5
4C28F
  8
0
 62
7
 10
24.695875454904641
 20
42.824876693413941
 70
0
  0
SEQEND
  5
4C290
  8
0
  0
POLYLINE
  5
4A8BC
  8
0
 62
7
 66
1
 70
0
 10
0
 20
0
 30
0
  0
VERTEX
  5
4C291
  8
0
 62
7
 10
24.695875454904641
 20
42.655550250313922
 70
0
  0
VERTEX
  5
4C292
  8
0
 62
7
 10
24.695875454904641
 20
42.655550250313922
 70
0
  0
SEQEND
  5
4C293
  8
0
  0
POLYLINE
  5
4A8C0
  8
0
 62
7
 66
1
 70
0
 10
0
 20
0
 30
0
  0
VERTEX
  5
4C294
  8
0
 62
7
 10
24.695875454904641
 20
42.824876693413941
 70
0
  0
VERTEX
  5
4C295
  8
0
 62
7
 10
24.695875454904641
 20
43.926273720048279
 70
0
  0
SEQEND
  5
4C296
  8
0
  0
POLYLINE
  5
4A8C4
  8
0
 62
7
 66
1
 70
0
 10
0
 20
0
 30
0
  0
VERTEX
  5
4C297
  8
0
 62
7
 10
25.245712694350519
 20
43.0372668300796
 70
0
  0
VERTEX
  5
4C298
  8
0
 62
7
 10
25.245712694350519
 20
42.824876693413941
 70
0
  0
SEQEND
  5
4C299
  8
0
  0
POLYLINE
  5
4A8C8
  8
0
 62
7
 66
1
 70
0
 10
0
 20
0
 30
0
  0
VERTEX
  5
4C29A
  8
0
 62
7
 10
24.695875454904641
 20
43.967614865871319
 70
0
  0
VERTEX
  5
4C29B
  8
0
 62
7
 10
22.19887024719554
 20
43.078607975902557
 70
0
  0
SEQEND
  5
4C29C
  8
0
  0
POLYLINE
  5
4A8CC
  8
0
 62
7
 66
1
 70
0
 10
0
 20
0
 30
0
  0
VERTEX
  5
4C29D
  8
0
 62
7
 10
24.653156270887539
 20
43.926273720048279
 70
0
  0
VERTEX
  5
4C29E
  8
0
 62
7
 10
24.653156270887539
 20
43.926273720048279
 70
0
  0
SEQEND
  5
4C29F
  8
0
  0
POLYLINE
  5
4A8D0
  8
0
 62
7
 66
1
 70
0
 10
0
 20
0
 30
0
  0
VERTEX
  5
4C2A0
  8
0
 62
7
 10
22.19887024719554
 20
43.078607975902557
 70
0
  0
VERTEX
  5
4C2A1
  8
0
 62
7
 10
22.19887024719554
 20
43.078607975902557
 70
0
  0
SEQEND
  5
4C2A2
  8
0
  0
POLYLINE
  5
4A8D4
  8
0
 62
7
 66
1
 70
0
 10
0
 20
0
 30
0
  0
VERTEX
  5
4C2A3
  8
0
 62
7
 10
24.695875454904641
 20
43.926273720048279
 70
0
  0
VERTEX
  5
4C2A4
  8
0
 62
7
 10
24.695875454904641
 20
43.926273720048279
 70
0
  0
SEQEND
  5
4C2A5
  8
0
  0
POLYLINE
  5
4A8D8
  8
0
 62
7
 66
1
 70
0
 10
0
 20
0
 30
0
  0
VERTEX
  5
4C2A6
  8
0
 62
7
 10
22.19887024719554
 20
43.0372668300796
 70
0
  0
VERTEX
  5
4C2A7
  8
0
 62
7
 10
22.19887024719554
 20
43.0372668300796
 70
0
  0
SEQEND
  5
4C2A8
  8
0
  0
POLYLINE
  5
4A8DC
  8
0
 62
7
 66
1
 70
0
 10
0
 20
0
 30
0
  0
VERTEX
  5
4C2A9
  8
0
 62
7
 10
23.807040819710181
 20
43.078607975902557
 70
0
  0
VERTEX
  5
4C2AA
  8
0
 62
7
 10
23.764321635693079
 20
43.078607975902557
 70
0
  0
SEQEND
  5
4C2AB
  8
0
  0
POLYLINE
  5
4A8E0
  8
0
 62
7
 66
1
 70
0
 10
0
 20
0
 30
0
  0
VERTEX
  5
4C2AC
  8
0
 62
7
 10
23.764321635693079
 20
43.078607975902557
 70
0
  0
VERTEX
  5
4C2AD
  8
0
 62
7
 10
23.807040819710181
 20
43.078607975902557
 70
0
  0
SEQEND
  5
4C2AE
  8
0
  0
POLYLINE
  5
4A8E4
  8
0
 62
7
 66
1
 70
0
 10
0
 20
0
 30
0
  0
VERTEX
  5
4C2AF
  8
0
 62
7
 10
20.590699674680941
 20
40.158545042604828
 70
0
  0
VERTEX
  5
4C2B0
  8
0
 62
7
 10
20.67476000452103
 20
40.242605372444928
 70
0
  0
SEQEND
  5
4C2B1
  8
0
  0
POLYLINE
  5
4A8E8
  8
0
 62
7
 66
1
 70
0
 10
0
 20
0
 30
0
  0
VERTEX
  5
4C2B2
  8
0
 62
7
 10
23.807040819710181
 20
43.0372668300796
 70
0
  0
VERTEX
  5
4C2B3
  8
0
 62
7
 10
23.764321635693079
 20
43.0372668300796
 70
0
  0
SEQEND
  5
4C2B4
  8
0
  0
POLYLINE
  5
4A8EC
  8
0
 62
7
 66
1
 70
0
 10
0
 20
0
 30
0
  0
VERTEX
  5
4C2B5
  8
0
 62
7
 10
23.764321635693079
 20
43.0372668300796
 70
0
  0
VERTEX
  5
4C2B6
  8
0
 62
7
 10
23.807040819710181
 20
43.0372668300796
 70
0
  0
SEQEND
  5
4C2B7
  8
0
  0
POLYLINE
  5
4A8F0
  8
0
 62
7
 66
1
 70
0
 10
0
 20
0
 30
0
  0
VERTEX
  5
4C2B8
  8
0
 62
7
 10
22.19887024719554
 20
42.062993826850906
 70
0
  0
VERTEX
  5
4C2B9
  8
0
 62
7
 10
22.19887024719554
 20
42.062993826850906
 70
0
  0
SEQEND
  5
4C2BA
  8
0
  0
POLYLINE
  5
4A8F4
  8
0
 62
7
 66
1
 70
0
 10
0
 20
0
 30
0
  0
VERTEX
  5
4C2BB
  8
0
 62
7
 10
24.653156270887539
 20
42.910659570996643
 70
0
  0
VERTEX
  5
4C2BC
  8
0
 62
7
 10
24.695875454904641
 20
42.910659570996643
 70
0
  0
SEQEND
  5
4C2BD
  8
0
  0
POLYLINE
  5
4A8F8
  8
0
 62
7
 66
1
 70
0
 10
0
 20
0
 30
0
  0
VERTEX
  5
4C2BE
  8
0
 62
7
 10
24.695875454904641
 20
42.824876693413941
 70
0
  0
VERTEX
  5
4C2BF
  8
0
 62
7
 10
24.695875454904641
 20
42.824876693413941
 70
0
  0
SEQEND
  5
4C2C0
  8
0
  0
POLYLINE
  5
4A8FC
  8
0
 62
7
 66
1
 70
0
 10
0
 20
0
 30
0
  0
VERTEX
  5
4C2C1
  8
0
 62
7
 10
22.156151063178442
 20
41.936214312993741
 70
0
  0
VERTEX
  5
4C2C2
  8
0
 62
7
 10
22.19887024719554
 20
41.936214312993741
 70
0
  0
SEQEND
  5
4C2C3
  8
0
  0
POLYLINE
  5
4A900
  8
0
 62
7
 66
1
 70
0
 10
0
 20
0
 30
0
  0
VERTEX
  5
4C2C4
  8
0
 62
7
 10
24.695875454904641
 20
42.655550250313922
 70
0
  0
VERTEX
  5
4C2C5
  8
0
 62
7
 10
24.695875454904641
 20
42.655550250313922
 70
0
  0
SEQEND
  5
4C2C6
  8
0
  0
POLYLINE
  5
4A904
  8
0
 62
7
 66
1
 70
0
 10
0
 20
0
 30
0
  0
VERTEX
  5
4C2C7
  8
0
 62
7
 10
22.156151063178442
 20
41.766543360345139
 70
0
  0
VERTEX
  5
4C2C8
  8
0
 62
7
 10
22.19887024719554
 20
41.766543360345139
 70
0
  0
SEQEND
  5
4C2C9
  8
0
  0
POLYLINE
  5
4A908
  8
0
 62
7
 66
1
 70
0
 10
0
 20
0
 30
0
  0
VERTEX
  5
4C2CA
  8
0
 62
7
 10
24.908093336796021
 20
42.655550250313922
 70
0
  0
VERTEX
  5
4C2CB
  8
0
 62
7
 10
24.738594638921739
 20
42.614209104490882
 70
0
  0
SEQEND
  5
4C2CC
  8
0
  0
POLYLINE
  5
4A90C
  8
0
 62
7
 66
1
 70
0
 10
0
 20
0
 30
0
  0
VERTEX
  5
4C2CD
  8
0
 62
7
 10
22.156151063178442
 20
41.682655285279338
 70
0
  0
VERTEX
  5
4C2CE
  8
0
 62
7
 10
22.029371549321269
 20
41.639936101262251
 70
0
  0
SEQEND
  5
4C2CF
  8
0
  0
POLYLINE
  5
4A910
  8
0
 62
7
 66
1
 70
0
 10
0
 20
0
 30
0
  0
VERTEX
  5
4C2D0
  8
0
 62
7
 10
25.331151062384691
 20
39.523269435124739
 70
0
  0
VERTEX
  5
4C2D1
  8
0
 62
7
 10
25.4579305762419
 20
39.60870780315895
 70
0
  0
SEQEND
  5
4C2D2
  8
0
  0
POLYLINE
  5
4A914
  8
0
 62
7
 66
1
 70
0
 10
0
 20
0
 30
0
  0
VERTEX
  5
4C2D3
  8
0
 62
7
 10
25.4579305762419
 20
39.439209105284647
 70
0
  0
VERTEX
  5
4C2D4
  8
0
 62
7
 10
25.245712694350519
 20
39.353942992024713
 70
0
  0
SEQEND
  5
4C2D5
  8
0
  0
POLYLINE
  5
4A918
  8
0
 62
7
 66
1
 70
0
 10
0
 20
0
 30
0
  0
VERTEX
  5
4C2D6
  8
0
 62
7
 10
25.4579305762419
 20
39.439209105284647
 70
0
  0
VERTEX
  5
4C2D7
  8
0
 62
7
 10
25.245712694350519
 20
39.353942992024713
 70
0
  0
SEQEND
  5
4C2D8
  8
0
  0
POLYLINE
  5
4A91C
  8
0
 62
7
 66
1
 70
0
 10
0
 20
0
 30
0
  0
VERTEX
  5
4C2D9
  8
0
 62
7
 10
61.09951042844262
 20
24.49559067369071
 70
0
  0
VERTEX
  5
4C2DA
  8
0
 62
7
 10
61.05679124442549
 20
24.49559067369071
 70
0
  0
SEQEND
  5
4C2DB
  8
0
  0
POLYLINE
  5
4A920
  8
0
 62
7
 66
1
 70
0
 10
0
 20
0
 30
0
  0
VERTEX
  5
4C2DC
  8
0
 62
7
 10
60.845951400728239
 20
24.58137355127343
 70
0
  0
VERTEX
  5
4C2DD
  8
0
 62
7
 10
60.888670584745313
 20
24.58137355127343
 70
0
  0
SEQEND
  5
4C2DE
  8
0
  0
POLYLINE
  5
4A924
  8
0
 62
7
 66
1
 70
0
 10
0
 20
0
 30
0
  0
VERTEX
  5
4C2DF
  8
0
 62
7
 10
59.998457911356752
 20
20.221088450366981
 70
0
  0
VERTEX
  5
4C2E0
  8
0
 62
7
 10
20.547980490663829
 20
40.073278929344887
 70
0
  0
SEQEND
  5
4C2E1
  8
0
  0
POLYLINE
  5
4A928
  8
0
 62
7
 66
1
 70
0
 10
0
 20
0
 30
0
  0
VERTEX
  5
4C2E2
  8
0
 62
7
 10
20.71747918853811
 20
40.2012642266219
 70
0
  0
VERTEX
  5
4C2E3
  8
0
 62
7
 10
20.67476000452103
 20
40.242605372444928
 70
0
  0
SEQEND
  5
4C2E4
  8
0
  0
POLYLINE
  5
4A92C
  8
0
 62
7
 66
1
 70
0
 10
0
 20
0
 30
0
  0
VERTEX
  5
4C2E5
  8
0
 62
7
 10
65.7131823022892
 20
22.21097560264727
 70
0
  0
VERTEX
  5
4C2E6
  8
0
 62
7
 10
64.358570757488962
 20
22.803704280884521
 70
0
  0
SEQEND
  5
4C2E7
  8
0
  0
POLYLINE
  5
4A930
  8
0
 62
7
 66
1
 70
0
 10
0
 20
0
 30
0
  0
VERTEX
  5
4C2E8
  8
0
 62
7
 10
22.156151063178442
 20
41.766543360345139
 70
0
  0
VERTEX
  5
4C2E9
  8
0
 62
7
 10
22.156151063178442
 20
41.723824176328087
 70
0
  0
SEQEND
  5
4C2EA
  8
0
  0
POLYLINE
  5
4A934
  8
0
 62
7
 66
1
 70
0
 10
0
 20
0
 30
0
  0
VERTEX
  5
4C2EB
  8
0
 62
7
 10
22.282930577035639
 20
41.682655285279338
 70
0
  0
VERTEX
  5
4C2EC
  8
0
 62
7
 10
22.19887024719554
 20
41.723824176328087
 70
0
  0
SEQEND
  5
4C2ED
  8
0
  0
POLYLINE
  5
4A938
  8
0
 62
7
 66
1
 70
0
 10
0
 20
0
 30
0
  0
VERTEX
  5
4C2EE
  8
0
 62
7
 10
61.05679124442549
 20
24.49559067369071
 70
0
  0
VERTEX
  5
4C2EF
  8
0
 62
7
 10
60.888670584745313
 20
24.58137355127343
 70
0
  0
SEQEND
  5
4C2F0
  8
0
  0
POLYLINE
  5
4A93C
  8
0
 62
7
 66
1
 70
0
 10
0
 20
0
 30
0
  0
VERTEX
  5
4C2F1
  8
0
 62
7
 10
60.888670584745313
 20
24.538309857707819
 70
0
  0
VERTEX
  5
4C2F2
  8
0
 62
7
 10
61.05679124442549
 20
24.49559067369071
 70
0
  0
SEQEND
  5
4C2F3
  8
0
  0
POLYLINE
  5
4A940
  8
0
 62
7
 66
1
 70
0
 10
0
 20
0
 30
0
  0
VERTEX
  5
4C2F4
  8
0
 62
7
 10
28.929208787179618
 20
40.667041136227681
 70
0
  0
VERTEX
  5
4C2F5
  8
0
 62
7
 10
28.75971008930534
 20
40.751273720842029
 70
0
  0
SEQEND
  5
4C2F6
  8
0
  0
POLYLINE
  5
4A944
  8
0
 62
7
 66
1
 70
0
 10
0
 20
0
 30
0
  0
VERTEX
  5
4C2F7
  8
0
 62
7
 10
28.75971008930534
 20
40.751273720842029
 70
0
  0
VERTEX
  5
4C2F8
  8
0
 62
7
 10
28.929208787179618
 20
40.667041136227681
 70
0
  0
SEQEND
  5
4C2F9
  8
0
  0
POLYLINE
  5
4A948
  8
0
 62
7
 66
1
 70
0
 10
0
 20
0
 30
0
  0
VERTEX
  5
4C2FA
  8
0
 62
7
 10
22.452429274909949
 20
42.782157509396811
 70
0
  0
VERTEX
  5
4C2FB
  8
0
 62
7
 10
22.495148458927041
 20
42.782157509396811
 70
0
  0
SEQEND
  5
4C2FC
  8
0
  0
POLYLINE
  5
4A94C
  8
0
 62
7
 66
1
 70
0
 10
0
 20
0
 30
0
  0
VERTEX
  5
4C2FD
  8
0
 62
7
 10
22.579208788767119
 20
42.994547646062472
 70
0
  0
VERTEX
  5
4C2FE
  8
0
 62
7
 10
22.579208788767119
 20
42.994547646062472
 70
0
  0
SEQEND
  5
4C2FF
  8
0
  0
POLYLINE
  5
4A950
  8
0
 62
7
 66
1
 70
0
 10
0
 20
0
 30
0
  0
VERTEX
  5
4C300
  8
0
 62
7
 10
24.822654968761839
 20
42.571662175248093
 70
0
  0
VERTEX
  5
4C301
  8
0
 62
7
 10
24.695875454904641
 20
42.614209104490882
 70
0
  0
SEQEND
  5
4C302
  8
0
  0
POLYLINE
  5
4A954
  8
0
 62
7
 66
1
 70
0
 10
0
 20
0
 30
0
  0
VERTEX
  5
4C303
  8
0
 62
7
 10
24.822654968761839
 20
42.571662175248093
 70
0
  0
VERTEX
  5
4C304
  8
0
 62
7
 10
24.738594638921739
 20
42.614209104490882
 70
0
  0
SEQEND
  5
4C305
  8
0
  0
POLYLINE
  5
4A958
  8
0
 62
7
 66
1
 70
0
 10
0
 20
0
 30
0
  0
VERTEX
  5
4C306
  8
0
 62
7
 10
24.738594638921739
 20
42.655550250313922
 70
0
  0
VERTEX
  5
4C307
  8
0
 62
7
 10
24.781313822938841
 20
42.655550250313922
 70
0
  0
SEQEND
  5
4C308
  8
0
  0
POLYLINE
  5
4A95C
  8
0
 62
7
 66
1
 70
0
 10
0
 20
0
 30
0
  0
VERTEX
  5
4C309
  8
0
 62
7
 10
24.822654968761839
 20
42.824876693413941
 70
0
  0
VERTEX
  5
4C30A
  8
0
 62
7
 10
24.738594638921739
 20
42.824876693413941
 70
0
  0
SEQEND
  5
4C30B
  8
0
  0
POLYLINE
  5
4A960
  8
0
 62
7
 66
1
 70
0
 10
0
 20
0
 30
0
  0
VERTEX
  5
4C30C
  8
0
 62
7
 10
24.695875454904641
 20
42.910659570996643
 70
0
  0
VERTEX
  5
4C30D
  8
0
 62
7
 10
24.695875454904641
 20
42.910659570996643
 70
0
  0
SEQEND
  5
4C30E
  8
0
  0
POLYLINE
  5
4A964
  8
0
 62
7
 66
1
 70
0
 10
0
 20
0
 30
0
  0
VERTEX
  5
4C30F
  8
0
 62
7
 10
26.34676521143636
 20
42.1899455954824
 70
0
  0
VERTEX
  5
4C310
  8
0
 62
7
 10
65.7559014863063
 20
22.337755116504471
 70
0
  0
SEQEND
  5
4C311
  8
0
  0
POLYLINE
  5
4A968
  8
0
 62
7
 66
1
 70
0
 10
0
 20
0
 30
0
  0
VERTEX
  5
4C312
  8
0
 62
7
 10
25.118933180493311
 20
42.910659570996643
 70
0
  0
VERTEX
  5
4C313
  8
0
 62
7
 10
25.077592034670321
 20
42.910659570996643
 70
0
  0
SEQEND
  5
4C314
  8
0
  0
POLYLINE
  5
4A96C
  8
0
 62
7
 66
1
 70
0
 10
0
 20
0
 30
0
  0
VERTEX
  5
4C315
  8
0
 62
7
 10
63.724673188202971
 20
23.47997652463906
 70
0
  0
VERTEX
  5
4C316
  8
0
 62
7
 10
63.766014334025982
 20
23.438635378816059
 70
0
  0
SEQEND
  5
4C317
  8
0
  0
POLYLINE
  5
4A970
  8
0
 62
7
 66
1
 70
0
 10
0
 20
0
 30
0
  0
VERTEX
  5
4C318
  8
0
 62
7
 10
25.118933180493311
 20
43.0372668300796
 70
0
  0
VERTEX
  5
4C319
  8
0
 62
7
 10
25.118933180493311
 20
43.078607975902557
 70
0
  0
SEQEND
  5
4C31A
  8
0
  0
POLYLINE
  5
4A974
  8
0
 62
7
 66
1
 70
0
 10
0
 20
0
 30
0
  0
VERTEX
  5
4C31B
  8
0
 62
7
 10
63.766014334025982
 20
23.606928293270489
 70
0
  0
VERTEX
  5
4C31C
  8
0
 62
7
 10
63.80873351804307
 20
23.606928293270489
 70
0
  0
SEQEND
  5
4C31D
  8
0
  0
POLYLINE
  5
4A978
  8
0
 62
7
 66
1
 70
0
 10
0
 20
0
 30
0
  0
VERTEX
  5
4C31E
  8
0
 62
7
 10
25.077592034670321
 20
43.121327159919687
 70
0
  0
VERTEX
  5
4C31F
  8
0
 62
7
 10
25.245712694350519
 20
43.0372668300796
 70
0
  0
SEQEND
  5
4C320
  8
0
  0
POLYLINE
  5
4A97C
  8
0
 62
7
 66
1
 70
0
 10
0
 20
0
 30
0
  0
VERTEX
  5
4C321
  8
0
 62
7
 10
63.639234820168781
 20
23.6923666613047
 70
0
  0
VERTEX
  5
4C322
  8
0
 62
7
 10
63.80873351804307
 20
23.606928293270489
 70
0
  0
SEQEND
  5
4C323
  8
0
  0
POLYLINE
  5
4A980
  8
0
 62
7
 66
1
 70
0
 10
0
 20
0
 30
0
  0
VERTEX
  5
4C324
  8
0
 62
7
 10
24.695875454904641
 20
43.883210026482658
 70
0
  0
VERTEX
  5
4C325
  8
0
 62
7
 10
24.695875454904641
 20
43.883210026482658
 70
0
  0
SEQEND
  5
4C326
  8
0
  0
POLYLINE
  5
4A984
  8
0
 62
7
 66
1
 70
0
 10
0
 20
0
 30
0
  0
VERTEX
  5
4C327
  8
0
 62
7
 10
26.26270488159625
 20
42.062993826850906
 70
0
  0
VERTEX
  5
4C328
  8
0
 62
7
 10
24.908093336796021
 20
42.655550250313922
 70
0
  0
SEQEND
  5
4C329
  8
0
  0
POLYLINE
  5
4A988
  8
0
 62
7
 66
1
 70
0
 10
0
 20
0
 30
0
  0
VERTEX
  5
4C32A
  8
0
 62
7
 10
24.695875454904641
 20
43.926273720048279
 70
0
  0
VERTEX
  5
4C32B
  8
0
 62
7
 10
24.695875454904641
 20
43.967614865871319
 70
0
  0
SEQEND
  5
4C32C
  8
0
  0
POLYLINE
  5
4A98C
  8
0
 62
7
 66
1
 70
0
 10
0
 20
0
 30
0
  0
VERTEX
  5
4C32D
  8
0
 62
7
 10
28.97192797119672
 20
40.667041136227681
 70
0
  0
VERTEX
  5
4C32E
  8
0
 62
7
 10
28.929208787179618
 20
40.667041136227681
 70
0
  0
SEQEND
  5
4C32F
  8
0
  0
POLYLINE
  5
4A990
  8
0
 62
7
 66
1
 70
0
 10
0
 20
0
 30
0
  0
VERTEX
  5
4C330
  8
0
 62
7
 10
28.716990905288242
 20
40.751273720842029
 70
0
  0
VERTEX
  5
4C331
  8
0
 62
7
 10
28.75971008930534
 20
40.751273720842029
 70
0
  0
SEQEND
  5
4C332
  8
0
  0
POLYLINE
  5
4A994
  8
0
 62
7
 66
1
 70
0
 10
0
 20
0
 30
0
  0
VERTEX
  5
4C333
  8
0
 62
7
 10
23.722980489870078
 20
42.824876693413941
 70
0
  0
VERTEX
  5
4C334
  8
0
 62
7
 10
23.764321635693079
 20
42.782157509396811
 70
0
  0
SEQEND
  5
4C335
  8
0
  0
POLYLINE
  5
4A998
  8
0
 62
7
 66
1
 70
0
 10
0
 20
0
 30
0
  0
VERTEX
  5
4C336
  8
0
 62
7
 10
23.764321635693079
 20
42.782157509396811
 70
0
  0
VERTEX
  5
4C337
  8
0
 62
7
 10
23.722980489870078
 20
42.824876693413941
 70
0
  0
SEQEND
  5
4C338
  8
0
  0
POLYLINE
  5
4A99C
  8
0
 62
7
 66
1
 70
0
 10
0
 20
0
 30
0
  0
VERTEX
  5
4C339
  8
0
 62
7
 10
23.722980489870078
 20
42.867940386979569
 70
0
  0
VERTEX
  5
4C33A
  8
0
 62
7
 10
23.807040819710181
 20
42.824876693413941
 70
0
  0
SEQEND
  5
4C33B
  8
0
  0
POLYLINE
  5
4A9A0
  8
0
 62
7
 66
1
 70
0
 10
0
 20
0
 30
0
  0
VERTEX
  5
4C33C
  8
0
 62
7
 10
23.807040819710181
 20
42.824876693413941
 70
0
  0
VERTEX
  5
4C33D
  8
0
 62
7
 10
23.722980489870078
 20
42.867940386979569
 70
0
  0
SEQEND
  5
4C33E
  8
0
  0
POLYLINE
  5
4A9A4
  8
0
 62
7
 66
1
 70
0
 10
0
 20
0
 30
0
  0
VERTEX
  5
4C33F
  8
0
 62
7
 10
57.458733519630592
 20
23.353369265556118
 70
0
  0
VERTEX
  5
4C340
  8
0
 62
7
 10
57.58689107168189
 20
23.438635378816059
 70
0
  0
SEQEND
  5
4C341
  8
0
  0
POLYLINE
  5
4A9A8
  8
0
 62
7
 66
1
 70
0
 10
0
 20
0
 30
0
  0
VERTEX
  5
4C342
  8
0
 62
7
 10
57.58689107168189
 20
23.26930893571603
 70
0
  0
VERTEX
  5
4C343
  8
0
 62
7
 10
57.374673189790492
 20
23.184042822456089
 70
0
  0
SEQEND
  5
4C344
  8
0
  0
POLYLINE
  5
4A9AC
  8
0
 62
7
 66
1
 70
0
 10
0
 20
0
 30
0
  0
VERTEX
  5
4C345
  8
0
 62
7
 10
57.58689107168189
 20
23.26930893571603
 70
0
  0
VERTEX
  5
4C346
  8
0
 62
7
 10
57.417392373807587
 20
23.14132363843899
 70
0
  0
SEQEND
  5
4C347
  8
0
  0
POLYLINE
  5
4A9B0
  8
0
 62
7
 66
1
 70
0
 10
0
 20
0
 30
0
  0
VERTEX
  5
4C348
  8
0
 62
7
 10
26.30404602741925
 20
42.1899455954824
 70
0
  0
VERTEX
  5
4C349
  8
0
 62
7
 10
26.219985697579151
 20
42.1899455954824
 70
0
  0
SEQEND
  5
4C34A
  8
0
  0
POLYLINE
  5
4A9B4
  8
0
 62
7
 66
1
 70
0
 10
0
 20
0
 30
0
  0
VERTEX
  5
4C34B
  8
0
 62
7
 10
57.374673189790492
 20
23.184042822456089
 70
0
  0
VERTEX
  5
4C34C
  8
0
 62
7
 10
57.417392373807587
 20
23.353369265556118
 70
0
  0
SEQEND
  5
4C34D
  8
0
  0
POLYLINE
  5
4A9B8
  8
0
 62
7
 66
1
 70
0
 10
0
 20
0
 30
0
  0
VERTEX
  5
4C34E
  8
0
 62
7
 10
57.628232217504888
 20
23.438635378816059
 70
0
  0
VERTEX
  5
4C34F
  8
0
 62
7
 10
57.58689107168189
 20
23.26930893571603
 70
0
  0
SEQEND
  5
4C350
  8
0
  0
POLYLINE
  5
4A9BC
  8
0
 62
7
 66
1
 70
0
 10
0
 20
0
 30
0
  0
VERTEX
  5
4C351
  8
0
 62
7
 10
57.628232217504888
 20
23.396088449573231
 70
0
  0
VERTEX
  5
4C352
  8
0
 62
7
 10
57.58689107168189
 20
23.26930893571603
 70
0
  0
SEQEND
  5
4C353
  8
0
  0
POLYLINE
  5
4A9C0
  8
0
 62
7
 66
1
 70
0
 10
0
 20
0
 30
0
  0
VERTEX
  5
4C354
  8
0
 62
7
 10
64.358570757488962
 20
22.803704280884521
 70
0
  0
VERTEX
  5
4C355
  8
0
 62
7
 10
64.189072059614659
 20
22.760640587318878
 70
0
  0
SEQEND
  5
4C356
  8
0
  0
POLYLINE
  5
4A9C4
  8
0
 62
7
 66
1
 70
0
 10
0
 20
0
 30
0
  0
VERTEX
  5
4C357
  8
0
 62
7
 10
63.80873351804307
 20
23.606928293270489
 70
0
  0
VERTEX
  5
4C358
  8
0
 62
7
 10
63.80873351804307
 20
23.606928293270489
 70
0
  0
SEQEND
  5
4C359
  8
0
  0
POLYLINE
  5
4A9C8
  8
0
 62
7
 66
1
 70
0
 10
0
 20
0
 30
0
  0
VERTEX
  5
4C35A
  8
0
 62
7
 10
63.80873351804307
 20
23.47997652463906
 70
0
  0
VERTEX
  5
4C35B
  8
0
 62
7
 10
63.80873351804307
 20
23.396088449573231
 70
0
  0
SEQEND
  5
4C35C
  8
0
  0
POLYLINE
  5
4A9CC
  8
0
 62
7
 66
1
 70
0
 10
0
 20
0
 30
0
  0
VERTEX
  5
4C35D
  8
0
 62
7
 10
61.31172831033399
 20
21.618419179184311
 70
0
  0
VERTEX
  5
4C35E
  8
0
 62
7
 10
60.041177095373861
 20
20.221088450366981
 70
0
  0
SEQEND
  5
4C35F
  8
0
  0
POLYLINE
  5
4A9D0
  8
0
 62
7
 66
1
 70
0
 10
0
 20
0
 30
0
  0
VERTEX
  5
4C360
  8
0
 62
7
 10
23.764321635693079
 20
42.782157509396811
 70
0
  0
VERTEX
  5
4C361
  8
0
 62
7
 10
23.764321635693079
 20
42.782157509396811
 70
0
  0
SEQEND
  5
4C362
  8
0
  0
POLYLINE
  5
4A9D4
  8
0
 62
7
 66
1
 70
0
 10
0
 20
0
 30
0
  0
VERTEX
  5
4C363
  8
0
 62
7
 10
23.764321635693079
 20
42.782157509396811
 70
0
  0
VERTEX
  5
4C364
  8
0
 62
7
 10
23.807040819710181
 20
42.824876693413941
 70
0
  0
SEQEND
  5
4C365
  8
0
  0
POLYLINE
  5
4A9D8
  8
0
 62
7
 66
1
 70
0
 10
0
 20
0
 30
0
  0
VERTEX
  5
4C366
  8
0
 62
7
 10
23.807040819710181
 20
42.824876693413941
 70
0
  0
VERTEX
  5
4C367
  8
0
 62
7
 10
23.807040819710181
 20
42.824876693413941
 70
0
  0
SEQEND
  5
4C368
  8
0
  0
POLYLINE
  5
4A9DC
  8
0
 62
7
 66
1
 70
0
 10
0
 20
0
 30
0
  0
VERTEX
  5
4C369
  8
0
 62
7
 10
23.807040819710181
 20
43.0372668300796
 70
0
  0
VERTEX
  5
4C36A
  8
0
 62
7
 10
23.807040819710181
 20
43.0372668300796
 70
0
  0
SEQEND
  5
4C36B
  8
0
  0
POLYLINE
  5
4A9E0
  8
0
 62
7
 66
1
 70
0
 10
0
 20
0
 30
0
  0
VERTEX
  5
4C36C
  8
0
 62
7
 10
23.807040819710181
 20
43.0372668300796
 70
0
  0
VERTEX
  5
4C36D
  8
0
 62
7
 10
23.807040819710181
 20
43.0372668300796
 70
0
  0
SEQEND
  5
4C36E
  8
0
  0
POLYLINE
  5
4A9E4
  8
0
 62
7
 66
1
 70
0
 10
0
 20
0
 30
0
  0
VERTEX
  5
4C36F
  8
0
 62
7
 10
23.807040819710181
 20
43.0372668300796
 70
0
  0
VERTEX
  5
4C370
  8
0
 62
7
 10
23.807040819710181
 20
43.078607975902557
 70
0
  0
SEQEND
  5
4C371
  8
0
  0
POLYLINE
  5
4A9E8
  8
0
 62
7
 66
1
 70
0
 10
0
 20
0
 30
0
  0
VERTEX
  5
4C372
  8
0
 62
7
 10
23.807040819710181
 20
43.078607975902557
 70
0
  0
VERTEX
  5
4C373
  8
0
 62
7
 10
23.807040819710181
 20
43.078607975902557
 70
0
  0
SEQEND
  5
4C374
  8
0
  0
POLYLINE
  5
4A9EC
  8
0
 62
7
 66
1
 70
0
 10
0
 20
0
 30
0
  0
VERTEX
  5
4C375
  8
0
 62
7
 10
23.807040819710181
 20
43.078607975902557
 70
0
  0
VERTEX
  5
4C376
  8
0
 62
7
 10
23.807040819710181
 20
43.078607975902557
 70
0
  0
SEQEND
  5
4C377
  8
0
  0
POLYLINE
  5
4A9F0
  8
0
 62
7
 66
1
 70
0
 10
0
 20
0
 30
0
  0
VERTEX
  5
4C378
  8
0
 62
7
 10
23.68026130585298
 20
43.37488618763409
 70
0
  0
VERTEX
  5
4C379
  8
0
 62
7
 10
23.68026130585298
 20
43.37488618763409
 70
0
  0
SEQEND
  5
4C37A
  8
0
  0
POLYLINE
  5
4A9F4
  8
0
 62
7
 66
1
 70
0
 10
0
 20
0
 30
0
  0
VERTEX
  5
4C37B
  8
0
 62
7
 10
23.2144843962472
 20
42.485879297665349
 70
0
  0
VERTEX
  5
4C37C
  8
0
 62
7
 10
23.2144843962472
 20
42.485879297665349
 70
0
  0
SEQEND
  5
4C37D
  8
0
  0
POLYLINE
  5
4B010
  8
0
 62
7
 66
1
 70
8
  0
VERTEX
  5
4B011
  8
0
 62
7
 10
25.1189
 20
42.9945
 30
0
 70
32
  0
VERTEX
  5
4B012
  8
0
 62
7
 10
25.1189
 20
42.9945
 30
0
 70
32
  0
VERTEX
  5
4B013
  8
0
 62
7
 10
25.119
 20
42.9945
 30
0
 70
32
  0
VERTEX
  5
4B014
  8
0
 62
7
 10
25.119
 20
42.9945
 30
0
 70
32
  0
VERTEX
  5
4B015
  8
0
 62
7
 10
25.1191
 20
42.9945
 30
0
 70
32
  0
VERTEX
  5
4B016
  8
0
 62
7
 10
25.1192
 20
42.994599999999977
 30
0
 70
32
  0
VERTEX
  5
4B017
  8
0
 62
7
 10
25.1193
 20
42.994599999999977
 30
0
 70
32
  0
VERTEX
  5
4B018
  8
0
 62
7
 10
25.1194
 20
42.994599999999977
 30
0
 70
32
  0
VERTEX
  5
4B019
  8
0
 62
7
 10
25.1196
 20
42.994599999999977
 30
0
 70
32
  0
VERTEX
  5
4B01A
  8
0
 62
7
 10
25.1197
 20
42.994599999999977
 30
0
 70
32
  0
VERTEX
  5
4B01B
  8
0
 62
7
 10
25.1199
 20
42.994599999999977
 30
0
 70
32
  0
VERTEX
  5
4B01C
  8
0
 62
7
 10
25.1201
 20
42.994599999999977
 30
0
 70
32
  0
VERTEX
  5
4B01D
  8
0
 62
7
 10
25.1203
 20
42.994599999999977
 30
0
 70
32
  0
VERTEX
  5
4B01E
  8
0
 62
7
 10
25.1205
 20
42.994599999999977
 30
0
 70
32
  0
VERTEX
  5
4B01F
  8
0
 62
7
 10
25.1208
 20
42.994599999999977
 30
0
 70
32
  0
VERTEX
  5
4B020
  8
0
 62
7
 10
25.121
 20
42.9947
 30
0
 70
32
  0
VERTEX
  5
4B021
  8
0
 62
7
 10
25.1213
 20
42.9947
 30
0
 70
32
  0
VERTEX
  5
4B022
  8
0
 62
7
 10
25.1216
 20
42.9947
 30
0
 70
32
  0
VERTEX
  5
4B023
  8
0
 62
7
 10
25.1219
 20
42.9947
 30
0
 70
32
  0
VERTEX
  5
4B024
  8
0
 62
7
 10
25.1222
 20
42.994799999999991
 30
0
 70
32
  0
VERTEX
  5
4B025
  8
0
 62
7
 10
25.1226
 20
42.994799999999991
 30
0
 70
32
  0
VERTEX
  5
4B026
  8
0
 62
7
 10
25.1229
 20
42.994799999999991
 30
0
 70
32
  0
VERTEX
  5
4B027
  8
0
 62
7
 10
25.1233
 20
42.9949
 30
0
 70
32
  0
VERTEX
  5
4B028
  8
0
 62
7
 10
25.1236
 20
42.9949
 30
0
 70
32
  0
VERTEX
  5
4B029
  8
0
 62
7
 10
25.124
 20
42.995
 30
0
 70
32
  0
VERTEX
  5
4B02A
  8
0
 62
7
 10
25.1244
 20
42.995
 30
0
 70
32
  0
VERTEX
  5
4B02B
  8
0
 62
7
 10
25.1248
 20
42.9951
 30
0
 70
32
  0
VERTEX
  5
4B02C
  8
0
 62
7
 10
25.1252
 20
42.9952
 30
0
 70
32
  0
VERTEX
  5
4B02D
  8
0
 62
7
 10
25.1257
 20
42.9952
 30
0
 70
32
  0
VERTEX
  5
4B02E
  8
0
 62
7
 10
25.1261
 20
42.995299999999993
 30
0
 70
32
  0
VERTEX
  5
4B02F
  8
0
 62
7
 10
25.1265
 20
42.995399999999989
 30
0
 70
32
  0
VERTEX
  5
4B030
  8
0
 62
7
 10
25.127
 20
42.995499999999993
 30
0
 70
32
  0
VERTEX
  5
4B031
  8
0
 62
7
 10
25.1275
 20
42.9956
 30
0
 70
32
  0
VERTEX
  5
4B032
  8
0
 62
7
 10
25.1279
 20
42.9957
 30
0
 70
32
  0
VERTEX
  5
4B033
  8
0
 62
7
 10
25.1284
 20
42.9958
 30
0
 70
32
  0
VERTEX
  5
4B034
  8
0
 62
7
 10
25.1289
 20
42.9959
 30
0
 70
32
  0
VERTEX
  5
4B035
  8
0
 62
7
 10
25.1294
 20
42.996
 30
0
 70
32
  0
VERTEX
  5
4B036
  8
0
 62
7
 10
25.1299
 20
42.9961
 30
0
 70
32
  0
VERTEX
  5
4B037
  8
0
 62
7
 10
25.1304
 20
42.996199999999988
 30
0
 70
32
  0
VERTEX
  5
4B038
  8
0
 62
7
 10
25.131
 20
42.9964
 30
0
 70
32
  0
VERTEX
  5
4B039
  8
0
 62
7
 10
25.1315
 20
42.996499999999983
 30
0
 70
32
  0
VERTEX
  5
4B03A
  8
0
 62
7
 10
25.132
 20
42.996699999999983
 30
0
 70
32
  0
VERTEX
  5
4B03B
  8
0
 62
7
 10
25.1326
 20
42.9968
 30
0
 70
32
  0
VERTEX
  5
4B03C
  8
0
 62
7
 10
25.1331
 20
42.997
 30
0
 70
32
  0
VERTEX
  5
4B03D
  8
0
 62
7
 10
25.1336
 20
42.997199999999992
 30
0
 70
32
  0
VERTEX
  5
4B03E
  8
0
 62
7
 10
25.1342
 20
42.997399999999992
 30
0
 70
32
  0
VERTEX
  5
4B03F
  8
0
 62
7
 10
25.1347
 20
42.9975
 30
0
 70
32
  0
VERTEX
  5
4B040
  8
0
 62
7
 10
25.1353
 20
42.9977
 30
0
 70
32
  0
VERTEX
  5
4B041
  8
0
 62
7
 10
25.1359
 20
42.998
 30
0
 70
32
  0
VERTEX
  5
4B042
  8
0
 62
7
 10
25.1364
 20
42.99819999999999
 30
0
 70
32
  0
VERTEX
  5
4B043
  8
0
 62
7
 10
25.137
 20
42.998399999999982
 30
0
 70
32
  0
VERTEX
  5
4B044
  8
0
 62
7
 10
25.1376
 20
42.9986
 30
0
 70
32
  0
VERTEX
  5
4B045
  8
0
 62
7
 10
25.1381
 20
42.9989
 30
0
 70
32
  0
VERTEX
  5
4B046
  8
0
 62
7
 10
25.1387
 20
42.999099999999991
 30
0
 70
32
  0
VERTEX
  5
4B047
  8
0
 62
7
 10
25.1393
 20
42.9994
 30
0
 70
32
  0
VERTEX
  5
4B048
  8
0
 62
7
 10
25.1399
 20
42.9997
 30
0
 70
32
  0
VERTEX
  5
4B049
  8
0
 62
7
 10
25.1404
 20
43
 30
0
 70
32
  0
VERTEX
  5
4B04A
  8
0
 62
7
 10
25.141
 20
43.0003
 30
0
 70
32
  0
VERTEX
  5
4B04B
  8
0
 62
7
 10
25.1416
 20
43.0006
 30
0
 70
32
  0
VERTEX
  5
4B04C
  8
0
 62
7
 10
25.1422
 20
43.000899999999987
 30
0
 70
32
  0
VERTEX
  5
4B04D
  8
0
 62
7
 10
25.1427
 20
43.001199999999983
 30
0
 70
32
  0
VERTEX
  5
4B04E
  8
0
 62
7
 10
25.1433
 20
43.0015
 30
0
 70
32
  0
VERTEX
  5
4B04F
  8
0
 62
7
 10
25.1439
 20
43.001899999999992
 30
0
 70
32
  0
VERTEX
  5
4B050
  8
0
 62
7
 10
25.1444
 20
43.002299999999991
 30
0
 70
32
  0
VERTEX
  5
4B051
  8
0
 62
7
 10
25.145
 20
43.0026
 30
0
 70
32
  0
VERTEX
  5
4B052
  8
0
 62
7
 10
25.1456
 20
43.003
 30
0
 70
32
  0
VERTEX
  5
4B053
  8
0
 62
7
 10
25.1461
 20
43.0034
 30
0
 70
32
  0
VERTEX
  5
4B054
  8
0
 62
7
 10
25.1467
 20
43.003799999999991
 30
0
 70
32
  0
VERTEX
  5
4B055
  8
0
 62
7
 10
25.1472
 20
43.00419999999999
 30
0
 70
32
  0
VERTEX
  5
4B056
  8
0
 62
7
 10
25.1478
 20
43.004699999999993
 30
0
 70
32
  0
VERTEX
  5
4B057
  8
0
 62
7
 10
25.1483
 20
43.0051
 30
0
 70
32
  0
VERTEX
  5
4B058
  8
0
 62
7
 10
25.1488
 20
43.005599999999987
 30
0
 70
32
  0
VERTEX
  5
4B059
  8
0
 62
7
 10
25.1494
 20
43.0061
 30
0
 70
32
  0
VERTEX
  5
4B05A
  8
0
 62
7
 10
25.1499
 20
43.0065
 30
0
 70
32
  0
VERTEX
  5
4B05B
  8
0
 62
7
 10
25.1504
 20
43.006999999999991
 30
0
 70
32
  0
VERTEX
  5
4B05C
  8
0
 62
7
 10
25.1509
 20
43.007499999999993
 30
0
 70
32
  0
VERTEX
  5
4B05D
  8
0
 62
7
 10
25.1514
 20
43.0081
 30
0
 70
32
  0
VERTEX
  5
4B05E
  8
0
 62
7
 10
25.1519
 20
43.0086
 30
0
 70
32
  0
VERTEX
  5
4B05F
  8
0
 62
7
 10
25.1524
 20
43.0092
 30
0
 70
32
  0
VERTEX
  5
4B060
  8
0
 62
7
 10
25.1529
 20
43.0097
 30
0
 70
32
  0
VERTEX
  5
4B061
  8
0
 62
7
 10
25.1534
 20
43.010299999999987
 30
0
 70
32
  0
VERTEX
  5
4B062
  8
0
 62
7
 10
25.1538
 20
43.0109
 30
0
 70
32
  0
VERTEX
  5
4B063
  8
0
 62
7
 10
25.1543
 20
43.011499999999977
 30
0
 70
32
  0
VERTEX
  5
4B064
  8
0
 62
7
 10
25.1547
 20
43.012199999999993
 30
0
 70
32
  0
VERTEX
  5
4B065
  8
0
 62
7
 10
25.1551
 20
43.0128
 30
0
 70
32
  0
VERTEX
  5
4B066
  8
0
 62
7
 10
25.1556
 20
43.0135
 30
0
 70
32
  0
VERTEX
  5
4B067
  8
0
 62
7
 10
25.156
 20
43.014099999999992
 30
0
 70
32
  0
VERTEX
  5
4B068
  8
0
 62
7
 10
25.1564
 20
43.0148
 30
0
 70
32
  0
VERTEX
  5
4B069
  8
0
 62
7
 10
25.1568
 20
43.0155
 30
0
 70
32
  0
VERTEX
  5
4B06A
  8
0
 62
7
 10
25.1571
 20
43.0163
 30
0
 70
32
  0
VERTEX
  5
4B06B
  8
0
 62
7
 10
25.1575
 20
43.017
 30
0
 70
32
  0
VERTEX
  5
4B06C
  8
0
 62
7
 10
25.1579
 20
43.017799999999987
 30
0
 70
32
  0
VERTEX
  5
4B06D
  8
0
 62
7
 10
25.1582
 20
43.0185
 30
0
 70
32
  0
VERTEX
  5
4B06E
  8
0
 62
7
 10
25.1585
 20
43.0193
 30
0
 70
32
  0
VERTEX
  5
4B06F
  8
0
 62
7
 10
25.1588
 20
43.0201
 30
0
 70
32
  0
VERTEX
  5
4B070
  8
0
 62
7
 10
25.1591
 20
43.021
 30
0
 70
32
  0
VERTEX
  5
4B071
  8
0
 62
7
 10
25.1594
 20
43.021799999999992
 30
0
 70
32
  0
VERTEX
  5
4B072
  8
0
 62
7
 10
25.1597
 20
43.0227
 30
0
 70
32
  0
VERTEX
  5
4B073
  8
0
 62
7
 10
25.1599
 20
43.0236
 30
0
 70
32
  0
VERTEX
  5
4B074
  8
0
 62
7
 10
25.1602
 20
43.024399999999993
 30
0
 70
32
  0
VERTEX
  5
4B075
  8
0
 62
7
 10
25.1604
 20
43.025399999999991
 30
0
 70
32
  0
VERTEX
  5
4B076
  8
0
 62
7
 10
25.1606
 20
43.026299999999992
 30
0
 70
32
  0
VERTEX
  5
4B077
  8
0
 62
7
 10
25.1608
 20
43.02729999999999
 30
0
 70
32
  0
VERTEX
  5
4B078
  8
0
 62
7
 10
25.1609
 20
43.028199999999991
 30
0
 70
32
  0
VERTEX
  5
4B079
  8
0
 62
7
 10
25.1611
 20
43.0292
 30
0
 70
32
  0
VERTEX
  5
4B07A
  8
0
 62
7
 10
25.1612
 20
43.0302
 30
0
 70
32
  0
VERTEX
  5
4B07B
  8
0
 62
7
 10
25.1614
 20
43.0313
 30
0
 70
32
  0
VERTEX
  5
4B07C
  8
0
 62
7
 10
25.1614
 20
43.0323
 30
0
 70
32
  0
VERTEX
  5
4B07D
  8
0
 62
7
 10
25.1615
 20
43.0334
 30
0
 70
32
  0
VERTEX
  5
4B07E
  8
0
 62
7
 10
25.1616
 20
43.0345
 30
0
 70
32
  0
VERTEX
  5
4B07F
  8
0
 62
7
 10
25.1616
 20
43.0356
 30
0
 70
32
  0
VERTEX
  5
4B080
  8
0
 62
7
 10
25.1616
 20
43.0367
 30
0
 70
32
  0
VERTEX
  5
4B081
  8
0
 62
7
 10
25.1616
 20
43.037799999999983
 30
0
 70
32
  0
VERTEX
  5
4B082
  8
0
 62
7
 10
25.1616
 20
43.038899999999991
 30
0
 70
32
  0
VERTEX
  5
4B083
  8
0
 62
7
 10
25.1616
 20
43.04
 30
0
 70
32
  0
VERTEX
  5
4B084
  8
0
 62
7
 10
25.1615
 20
43.041
 30
0
 70
32
  0
VERTEX
  5
4B085
  8
0
 62
7
 10
25.1614
 20
43.0421
 30
0
 70
32
  0
VERTEX
  5
4B086
  8
0
 62
7
 10
25.1614
 20
43.0431
 30
0
 70
32
  0
VERTEX
  5
4B087
  8
0
 62
7
 10
25.1612
 20
43.044099999999993
 30
0
 70
32
  0
VERTEX
  5
4B088
  8
0
 62
7
 10
25.1611
 20
43.045099999999991
 30
0
 70
32
  0
VERTEX
  5
4B089
  8
0
 62
7
 10
25.1609
 20
43.045999999999992
 30
0
 70
32
  0
VERTEX
  5
4B08A
  8
0
 62
7
 10
25.1608
 20
43.04699999999999
 30
0
 70
32
  0
VERTEX
  5
4B08B
  8
0
 62
7
 10
25.1606
 20
43.047899999999991
 30
0
 70
32
  0
VERTEX
  5
4B08C
  8
0
 62
7
 10
25.1604
 20
43.048799999999993
 30
0
 70
32
  0
VERTEX
  5
4B08D
  8
0
 62
7
 10
25.1602
 20
43.049699999999987
 30
0
 70
32
  0
VERTEX
  5
4B08E
  8
0
 62
7
 10
25.1599
 20
43.0505
 30
0
 70
32
  0
VERTEX
  5
4B08F
  8
0
 62
7
 10
25.1597
 20
43.0514
 30
0
 70
32
  0
VERTEX
  5
4B090
  8
0
 62
7
 10
25.1594
 20
43.0522
 30
0
 70
32
  0
VERTEX
  5
4B091
  8
0
 62
7
 10
25.1591
 20
43.05299999999999
 30
0
 70
32
  0
VERTEX
  5
4B092
  8
0
 62
7
 10
25.1588
 20
43.0538
 30
0
 70
32
  0
VERTEX
  5
4B093
  8
0
 62
7
 10
25.1585
 20
43.0546
 30
0
 70
32
  0
VERTEX
  5
4B094
  8
0
 62
7
 10
25.1582
 20
43.055399999999992
 30
0
 70
32
  0
VERTEX
  5
4B095
  8
0
 62
7
 10
25.1579
 20
43.0561
 30
0
 70
32
  0
VERTEX
  5
4B096
  8
0
 62
7
 10
25.1575
 20
43.0569
 30
0
 70
32
  0
VERTEX
  5
4B097
  8
0
 62
7
 10
25.1571
 20
43.0576
 30
0
 70
32
  0
VERTEX
  5
4B098
  8
0
 62
7
 10
25.1568
 20
43.0583
 30
0
 70
32
  0
VERTEX
  5
4B099
  8
0
 62
7
 10
25.1564
 20
43.059
 30
0
 70
32
  0
VERTEX
  5
4B09A
  8
0
 62
7
 10
25.156
 20
43.0596
 30
0
 70
32
  0
VERTEX
  5
4B09B
  8
0
 62
7
 10
25.1556
 20
43.060299999999977
 30
0
 70
32
  0
VERTEX
  5
4B09C
  8
0
 62
7
 10
25.1551
 20
43.0609
 30
0
 70
32
  0
VERTEX
  5
4B09D
  8
0
 62
7
 10
25.1547
 20
43.0616
 30
0
 70
32
  0
VERTEX
  5
4B09E
  8
0
 62
7
 10
25.1543
 20
43.062199999999983
 30
0
 70
32
  0
VERTEX
  5
4B09F
  8
0
 62
7
 10
25.1538
 20
43.0628
 30
0
 70
32
  0
VERTEX
  5
4B0A0
  8
0
 62
7
 10
25.1534
 20
43.063299999999991
 30
0
 70
32
  0
VERTEX
  5
4B0A1
  8
0
 62
7
 10
25.1529
 20
43.06389999999999
 30
0
 70
32
  0
VERTEX
  5
4B0A2
  8
0
 62
7
 10
25.1524
 20
43.0645
 30
0
 70
32
  0
VERTEX
  5
4B0A3
  8
0
 62
7
 10
25.1519
 20
43.064999999999984
 30
0
 70
32
  0
VERTEX
  5
4B0A4
  8
0
 62
7
 10
25.1514
 20
43.0655
 30
0
 70
32
  0
VERTEX
  5
4B0A5
  8
0
 62
7
 10
25.1509
 20
43.066
 30
0
 70
32
  0
VERTEX
  5
4B0A6
  8
0
 62
7
 10
25.1504
 20
43.0665
 30
0
 70
32
  0
VERTEX
  5
4B0A7
  8
0
 62
7
 10
25.1499
 20
43.067
 30
0
 70
32
  0
VERTEX
  5
4B0A8
  8
0
 62
7
 10
25.1494
 20
43.0675
 30
0
 70
32
  0
VERTEX
  5
4B0A9
  8
0
 62
7
 10
25.1488
 20
43.0679
 30
0
 70
32
  0
VERTEX
  5
4B0AA
  8
0
 62
7
 10
25.1483
 20
43.0684
 30
0
 70
32
  0
VERTEX
  5
4B0AB
  8
0
 62
7
 10
25.1478
 20
43.0688
 30
0
 70
32
  0
VERTEX
  5
4B0AC
  8
0
 62
7
 10
25.1472
 20
43.0692
 30
0
 70
32
  0
VERTEX
  5
4B0AD
  8
0
 62
7
 10
25.1467
 20
43.0696
 30
0
 70
32
  0
VERTEX
  5
4B0AE
  8
0
 62
7
 10
25.1461
 20
43.07
 30
0
 70
32
  0
VERTEX
  5
4B0AF
  8
0
 62
7
 10
25.1456
 20
43.070399999999992
 30
0
 70
32
  0
VERTEX
  5
4B0B0
  8
0
 62
7
 10
25.145
 20
43.0708
 30
0
 70
32
  0
VERTEX
  5
4B0B1
  8
0
 62
7
 10
25.1444
 20
43.0712
 30
0
 70
32
  0
VERTEX
  5
4B0B2
  8
0
 62
7
 10
25.1439
 20
43.0715
 30
0
 70
32
  0
VERTEX
  5
4B0B3
  8
0
 62
7
 10
25.1433
 20
43.0718
 30
0
 70
32
  0
VERTEX
  5
4B0B4
  8
0
 62
7
 10
25.1427
 20
43.0722
 30
0
 70
32
  0
VERTEX
  5
4B0B5
  8
0
 62
7
 10
25.1422
 20
43.072499999999977
 30
0
 70
32
  0
VERTEX
  5
4B0B6
  8
0
 62
7
 10
25.1416
 20
43.0728
 30
0
 70
32
  0
VERTEX
  5
4B0B7
  8
0
 62
7
 10
25.141
 20
43.0731
 30
0
 70
32
  0
VERTEX
  5
4B0B8
  8
0
 62
7
 10
25.1404
 20
43.073399999999992
 30
0
 70
32
  0
VERTEX
  5
4B0B9
  8
0
 62
7
 10
25.1399
 20
43.0736
 30
0
 70
32
  0
VERTEX
  5
4B0BA
  8
0
 62
7
 10
25.1393
 20
43.0739
 30
0
 70
32
  0
VERTEX
  5
4B0BB
  8
0
 62
7
 10
25.1387
 20
43.07419999999999
 30
0
 70
32
  0
VERTEX
  5
4B0BC
  8
0
 62
7
 10
25.1381
 20
43.074399999999983
 30
0
 70
32
  0
VERTEX
  5
4B0BD
  8
0
 62
7
 10
25.1376
 20
43.0747
 30
0
 70
32
  0
VERTEX
  5
4B0BE
  8
0
 62
7
 10
25.137
 20
43.0749
 30
0
 70
32
  0
VERTEX
  5
4B0BF
  8
0
 62
7
 10
25.1364
 20
43.075099999999992
 30
0
 70
32
  0
VERTEX
  5
4B0C0
  8
0
 62
7
 10
25.1359
 20
43.075299999999977
 30
0
 70
32
  0
VERTEX
  5
4B0C1
  8
0
 62
7
 10
25.1353
 20
43.075499999999991
 30
0
 70
32
  0
VERTEX
  5
4B0C2
  8
0
 62
7
 10
25.1347
 20
43.0757
 30
0
 70
32
  0
VERTEX
  5
4B0C3
  8
0
 62
7
 10
25.1342
 20
43.0759
 30
0
 70
32
  0
VERTEX
  5
4B0C4
  8
0
 62
7
 10
25.1336
 20
43.07609999999999
 30
0
 70
32
  0
VERTEX
  5
4B0C5
  8
0
 62
7
 10
25.1331
 20
43.0762
 30
0
 70
32
  0
VERTEX
  5
4B0C6
  8
0
 62
7
 10
25.1326
 20
43.0764
 30
0
 70
32
  0
VERTEX
  5
4B0C7
  8
0
 62
7
 10
25.132
 20
43.0766
 30
0
 70
32
  0
VERTEX
  5
4B0C8
  8
0
 62
7
 10
25.1315
 20
43.0767
 30
0
 70
32
  0
VERTEX
  5
4B0C9
  8
0
 62
7
 10
25.131
 20
43.0768
 30
0
 70
32
  0
VERTEX
  5
4B0CA
  8
0
 62
7
 10
25.1304
 20
43.076999999999991
 30
0
 70
32
  0
VERTEX
  5
4B0CB
  8
0
 62
7
 10
25.1299
 20
43.0771
 30
0
 70
32
  0
VERTEX
  5
4B0CC
  8
0
 62
7
 10
25.1294
 20
43.077199999999984
 30
0
 70
32
  0
VERTEX
  5
4B0CD
  8
0
 62
7
 10
25.1289
 20
43.0773
 30
0
 70
32
  0
VERTEX
  5
4B0CE
  8
0
 62
7
 10
25.1284
 20
43.07739999999999
 30
0
 70
32
  0
VERTEX
  5
4B0CF
  8
0
 62
7
 10
25.1279
 20
43.0775
 30
0
 70
32
  0
VERTEX
  5
4B0D0
  8
0
 62
7
 10
25.1275
 20
43.0776
 30
0
 70
32
  0
VERTEX
  5
4B0D1
  8
0
 62
7
 10
25.127
 20
43.0777
 30
0
 70
32
  0
VERTEX
  5
4B0D2
  8
0
 62
7
 10
25.1265
 20
43.0778
 30
0
 70
32
  0
VERTEX
  5
4B0D3
  8
0
 62
7
 10
25.1261
 20
43.077899999999993
 30
0
 70
32
  0
VERTEX
  5
4B0D4
  8
0
 62
7
 10
25.1257
 20
43.078
 30
0
 70
32
  0
VERTEX
  5
4B0D5
  8
0
 62
7
 10
25.1252
 20
43.078
 30
0
 70
32
  0
VERTEX
  5
4B0D6
  8
0
 62
7
 10
25.1248
 20
43.078099999999992
 30
0
 70
32
  0
VERTEX
  5
4B0D7
  8
0
 62
7
 10
25.1244
 20
43.078099999999992
 30
0
 70
32
  0
VERTEX
  5
4B0D8
  8
0
 62
7
 10
25.124
 20
43.0782
 30
0
 70
32
  0
VERTEX
  5
4B0D9
  8
0
 62
7
 10
25.1236
 20
43.0782
 30
0
 70
32
  0
VERTEX
  5
4B0DA
  8
0
 62
7
 10
25.1233
 20
43.0783
 30
0
 70
32
  0
VERTEX
  5
4B0DB
  8
0
 62
7
 10
25.1229
 20
43.0783
 30
0
 70
32
  0
VERTEX
  5
4B0DC
  8
0
 62
7
 10
25.1226
 20
43.0784
 30
0
 70
32
  0
VERTEX
  5
4B0DD
  8
0
 62
7
 10
25.1222
 20
43.0784
 30
0
 70
32
  0
VERTEX
  5
4B0DE
  8
0
 62
7
 10
25.1219
 20
43.0784
 30
0
 70
32
  0
VERTEX
  5
4B0DF
  8
0
 62
7
 10
25.1216
 20
43.0785
 30
0
 70
32
  0
VERTEX
  5
4B0E0
  8
0
 62
7
 10
25.1213
 20
43.0785
 30
0
 70
32
  0
VERTEX
  5
4B0E1
  8
0
 62
7
 10
25.121
 20
43.0785
 30
0
 70
32
  0
VERTEX
  5
4B0E2
  8
0
 62
7
 10
25.1208
 20
43.0785
 30
0
 70
32
  0
VERTEX
  5
4B0E3
  8
0
 62
7
 10
25.1205
 20
43.0785
 30
0
 70
32
  0
VERTEX
  5
4B0E4
  8
0
 62
7
 10
25.1203
 20
43.0786
 30
0
 70
32
  0
VERTEX
  5
4B0E5
  8
0
 62
7
 10
25.1201
 20
43.0786
 30
0
 70
32
  0
VERTEX
  5
4B0E6
  8
0
 62
7
 10
25.1199
 20
43.0786
 30
0
 70
32
  0
VERTEX
  5
4B0E7
  8
0
 62
7
 10
25.1197
 20
43.0786
 30
0
 70
32
  0
VERTEX
  5
4B0E8
  8
0
 62
7
 10
25.1196
 20
43.0786
 30
0
 70
32
  0
VERTEX
  5
4B0E9
  8
0
 62
7
 10
25.1194
 20
43.0786
 30
0
 70
32
  0
VERTEX
  5
4B0EA
  8
0
 62
7
 10
25.1193
 20
43.0786
 30
0
 70
32
  0
VERTEX
  5
4B0EB
  8
0
 62
7
 10
25.1192
 20
43.0786
 30
0
 70
32
  0
VERTEX
  5
4B0EC
  8
0
 62
7
 10
25.1191
 20
43.0786
 30
0
 70
32
  0
VERTEX
  5
4B0ED
  8
0
 62
7
 10
25.119
 20
43.0786
 30
0
 70
32
  0
VERTEX
  5
4B0EE
  8
0
 62
7
 10
25.119
 20
43.0786
 30
0
 70
32
  0
VERTEX
  5
4B0EF
  8
0
 62
7
 10
25.1189
 20
43.0786
 30
0
 70
32
  0
VERTEX
  5
4B0F0
  8
0
 62
7
 10
25.1189
 20
43.0786
 30
0
 70
32
  0
SEQEND
  5
4B0F1
  8
0
  0
POLYLINE
  5
4A9F9
  8
0
 62
7
 66
1
 70
0
 10
0
 20
0
 30
0
  0
VERTEX
  5
4C37E
  8
0
 62
7
 10
24.653156270887539
 20
43.926273720048279
 70
0
  0
VERTEX
  5
4C37F
  8
0
 62
7
 10
24.695875454904641
 20
43.926273720048279
 70
0
  0
SEQEND
  5
4C380
  8
0
  0
POLYLINE
  5
4A9FD
  8
0
 62
7
 66
1
 70
0
 10
0
 20
0
 30
0
  0
VERTEX
  5
4C381
  8
0
 62
7
 10
24.653156270887539
 20
43.926273720048279
 70
0
  0
VERTEX
  5
4C382
  8
0
 62
7
 10
24.653156270887539
 20
43.926273720048279
 70
0
  0
SEQEND
  5
4C383
  8
0
  0
POLYLINE
  5
4AA01
  8
0
 62
7
 66
1
 70
0
 10
0
 20
0
 30
0
  0
VERTEX
  5
4C384
  8
0
 62
7
 10
22.19887024719554
 20
41.766543360345139
 70
0
  0
VERTEX
  5
4C385
  8
0
 62
7
 10
22.19887024719554
 20
41.766543360345139
 70
0
  0
SEQEND
  5
4C386
  8
0
  0
POLYLINE
  5
4AA05
  8
0
 62
7
 66
1
 70
0
 10
0
 20
0
 30
0
  0
VERTEX
  5
4C387
  8
0
 62
7
 10
22.19887024719554
 20
43.078607975902557
 70
0
  0
VERTEX
  5
4C388
  8
0
 62
7
 10
22.19887024719554
 20
43.078607975902557
 70
0
  0
SEQEND
  5
4C389
  8
0
  0
POLYLINE
  5
4AA09
  8
0
 62
7
 66
1
 70
0
 10
0
 20
0
 30
0
  0
VERTEX
  5
4C38A
  8
0
 62
7
 10
25.245712694350519
 20
39.353942992024713
 70
0
  0
VERTEX
  5
4C38B
  8
0
 62
7
 10
25.245712694350519
 20
39.353942992024713
 70
0
  0
SEQEND
  5
4C38C
  8
0
  0
POLYLINE
  5
4AA0D
  8
0
 62
7
 66
1
 70
0
 10
0
 20
0
 30
0
  0
VERTEX
  5
4C38D
  8
0
 62
7
 10
25.245712694350519
 20
39.353942992024713
 70
0
  0
VERTEX
  5
4C38E
  8
0
 62
7
 10
25.245712694350519
 20
39.353942992024713
 70
0
  0
SEQEND
  5
4C38F
  8
0
  0
POLYLINE
  5
4AA11
  8
0
 62
7
 66
1
 70
0
 10
0
 20
0
 30
0
  0
VERTEX
  5
4C390
  8
0
 62
7
 10
25.245712694350519
 20
39.353942992024713
 70
0
  0
VERTEX
  5
4C391
  8
0
 62
7
 10
25.245712694350519
 20
39.353942992024713
 70
0
  0
SEQEND
  5
4C392
  8
0
  0
POLYLINE
  5
4AA15
  8
0
 62
7
 66
1
 70
0
 10
0
 20
0
 30
0
  0
VERTEX
  5
4C393
  8
0
 62
7
 10
25.245712694350519
 20
39.353942992024713
 70
0
  0
VERTEX
  5
4C394
  8
0
 62
7
 10
25.245712694350519
 20
39.353942992024713
 70
0
  0
SEQEND
  5
4C395
  8
0
  0
POLYLINE
  5
4AA19
  8
0
 62
7
 66
1
 70
0
 10
0
 20
0
 30
0
  0
VERTEX
  5
4C396
  8
0
 62
7
 10
25.245712694350519
 20
39.353942992024713
 70
0
  0
VERTEX
  5
4C397
  8
0
 62
7
 10
25.245712694350519
 20
39.353942992024713
 70
0
  0
SEQEND
  5
4C398
  8
0
  0
POLYLINE
  5
4AA1D
  8
0
 62
7
 66
1
 70
0
 10
0
 20
0
 30
0
  0
VERTEX
  5
4C399
  8
0
 62
7
 10
25.245712694350519
 20
39.353942992024713
 70
0
  0
VERTEX
  5
4C39A
  8
0
 62
7
 10
25.245712694350519
 20
39.353942992024713
 70
0
  0
SEQEND
  5
4C39B
  8
0
  0
POLYLINE
  5
4B0F2
  8
0
 62
7
 66
1
 70
8
  0
VERTEX
  5
4B0F3
  8
0
 62
7
 10
63.724699999999991
 20
23.6069
 30
0
 70
32
  0
VERTEX
  5
4B0F4
  8
0
 62
7
 10
63.724699999999991
 20
23.6069
 30
0
 70
32
  0
VERTEX
  5
4B0F5
  8
0
 62
7
 10
63.724699999999991
 20
23.6069
 30
0
 70
32
  0
VERTEX
  5
4B0F6
  8
0
 62
7
 10
63.724699999999991
 20
23.6069
 30
0
 70
32
  0
VERTEX
  5
4B0F7
  8
0
 62
7
 10
63.724699999999991
 20
23.6069
 30
0
 70
32
  0
VERTEX
  5
4B0F8
  8
0
 62
7
 10
63.724699999999991
 20
23.6069
 30
0
 70
32
  0
VERTEX
  5
4B0F9
  8
0
 62
7
 10
63.724699999999991
 20
23.6069
 30
0
 70
32
  0
VERTEX
  5
4B0FA
  8
0
 62
7
 10
63.724699999999991
 20
23.6069
 30
0
 70
32
  0
VERTEX
  5
4B0FB
  8
0
 62
7
 10
63.724699999999991
 20
23.6069
 30
0
 70
32
  0
VERTEX
  5
4B0FC
  8
0
 62
7
 10
63.724699999999991
 20
23.6069
 30
0
 70
32
  0
VERTEX
  5
4B0FD
  8
0
 62
7
 10
63.724699999999991
 20
23.6069
 30
0
 70
32
  0
VERTEX
  5
4B0FE
  8
0
 62
7
 10
63.724699999999991
 20
23.6069
 30
0
 70
32
  0
VERTEX
  5
4B0FF
  8
0
 62
7
 10
63.724699999999991
 20
23.6069
 30
0
 70
32
  0
VERTEX
  5
4B100
  8
0
 62
7
 10
63.724699999999991
 20
23.6069
 30
0
 70
32
  0
VERTEX
  5
4B101
  8
0
 62
7
 10
63.724699999999991
 20
23.6069
 30
0
 70
32
  0
VERTEX
  5
4B102
  8
0
 62
7
 10
63.724699999999991
 20
23.6069
 30
0
 70
32
  0
VERTEX
  5
4B103
  8
0
 62
7
 10
63.724699999999991
 20
23.6069
 30
0
 70
32
  0
VERTEX
  5
4B104
  8
0
 62
7
 10
63.724699999999991
 20
23.6069
 30
0
 70
32
  0
VERTEX
  5
4B105
  8
0
 62
7
 10
63.724699999999991
 20
23.6069
 30
0
 70
32
  0
VERTEX
  5
4B106
  8
0
 62
7
 10
63.724699999999991
 20
23.6069
 30
0
 70
32
  0
VERTEX
  5
4B107
  8
0
 62
7
 10
63.724699999999991
 20
23.6069
 30
0
 70
32
  0
VERTEX
  5
4B108
  8
0
 62
7
 10
63.724699999999991
 20
23.6069
 30
0
 70
32
  0
VERTEX
  5
4B109
  8
0
 62
7
 10
63.724699999999991
 20
23.6069
 30
0
 70
32
  0
VERTEX
  5
4B10A
  8
0
 62
7
 10
63.724699999999991
 20
23.6069
 30
0
 70
32
  0
VERTEX
  5
4B10B
  8
0
 62
7
 10
63.724699999999991
 20
23.6069
 30
0
 70
32
  0
VERTEX
  5
4B10C
  8
0
 62
7
 10
63.724699999999991
 20
23.6069
 30
0
 70
32
  0
VERTEX
  5
4B10D
  8
0
 62
7
 10
63.724699999999991
 20
23.6069
 30
0
 70
32
  0
VERTEX
  5
4B10E
  8
0
 62
7
 10
63.724699999999991
 20
23.6069
 30
0
 70
32
  0
VERTEX
  5
4B10F
  8
0
 62
7
 10
63.724699999999991
 20
23.6069
 30
0
 70
32
  0
VERTEX
  5
4B110
  8
0
 62
7
 10
63.724699999999991
 20
23.6069
 30
0
 70
32
  0
VERTEX
  5
4B111
  8
0
 62
7
 10
63.724699999999991
 20
23.6069
 30
0
 70
32
  0
VERTEX
  5
4B112
  8
0
 62
7
 10
63.724699999999991
 20
23.6069
 30
0
 70
32
  0
VERTEX
  5
4B113
  8
0
 62
7
 10
63.724699999999991
 20
23.6069
 30
0
 70
32
  0
VERTEX
  5
4B114
  8
0
 62
7
 10
63.724699999999991
 20
23.6069
 30
0
 70
32
  0
VERTEX
  5
4B115
  8
0
 62
7
 10
63.724699999999991
 20
23.6069
 30
0
 70
32
  0
VERTEX
  5
4B116
  8
0
 62
7
 10
63.724699999999991
 20
23.6069
 30
0
 70
32
  0
VERTEX
  5
4B117
  8
0
 62
7
 10
63.724699999999991
 20
23.6069
 30
0
 70
32
  0
VERTEX
  5
4B118
  8
0
 62
7
 10
63.724699999999991
 20
23.6069
 30
0
 70
32
  0
VERTEX
  5
4B119
  8
0
 62
7
 10
63.724699999999991
 20
23.6069
 30
0
 70
32
  0
VERTEX
  5
4B11A
  8
0
 62
7
 10
63.724699999999991
 20
23.6069
 30
0
 70
32
  0
VERTEX
  5
4B11B
  8
0
 62
7
 10
63.724699999999991
 20
23.6069
 30
0
 70
32
  0
VERTEX
  5
4B11C
  8
0
 62
7
 10
63.724699999999991
 20
23.6069
 30
0
 70
32
  0
VERTEX
  5
4B11D
  8
0
 62
7
 10
63.724699999999991
 20
23.6069
 30
0
 70
32
  0
VERTEX
  5
4B11E
  8
0
 62
7
 10
63.724699999999991
 20
23.6069
 30
0
 70
32
  0
VERTEX
  5
4B11F
  8
0
 62
7
 10
63.724699999999991
 20
23.6069
 30
0
 70
32
  0
VERTEX
  5
4B120
  8
0
 62
7
 10
63.724699999999991
 20
23.6069
 30
0
 70
32
  0
VERTEX
  5
4B121
  8
0
 62
7
 10
63.724699999999991
 20
23.6069
 30
0
 70
32
  0
VERTEX
  5
4B122
  8
0
 62
7
 10
63.724699999999991
 20
23.6069
 30
0
 70
32
  0
VERTEX
  5
4B123
  8
0
 62
7
 10
63.724699999999991
 20
23.6069
 30
0
 70
32
  0
VERTEX
  5
4B124
  8
0
 62
7
 10
63.724699999999991
 20
23.6069
 30
0
 70
32
  0
VERTEX
  5
4B125
  8
0
 62
7
 10
63.724699999999991
 20
23.6069
 30
0
 70
32
  0
VERTEX
  5
4B126
  8
0
 62
7
 10
63.724699999999991
 20
23.6069
 30
0
 70
32
  0
VERTEX
  5
4B127
  8
0
 62
7
 10
63.724699999999991
 20
23.6069
 30
0
 70
32
  0
VERTEX
  5
4B128
  8
0
 62
7
 10
63.724699999999991
 20
23.6069
 30
0
 70
32
  0
VERTEX
  5
4B129
  8
0
 62
7
 10
63.724699999999991
 20
23.6069
 30
0
 70
32
  0
VERTEX
  5
4B12A
  8
0
 62
7
 10
63.724699999999991
 20
23.6069
 30
0
 70
32
  0
VERTEX
  5
4B12B
  8
0
 62
7
 10
63.724699999999991
 20
23.6069
 30
0
 70
32
  0
VERTEX
  5
4B12C
  8
0
 62
7
 10
63.724699999999991
 20
23.6069
 30
0
 70
32
  0
VERTEX
  5
4B12D
  8
0
 62
7
 10
63.724699999999991
 20
23.6069
 30
0
 70
32
  0
VERTEX
  5
4B12E
  8
0
 62
7
 10
63.724699999999991
 20
23.6069
 30
0
 70
32
  0
VERTEX
  5
4B12F
  8
0
 62
7
 10
63.724699999999991
 20
23.6069
 30
0
 70
32
  0
VERTEX
  5
4B130
  8
0
 62
7
 10
63.724699999999991
 20
23.6069
 30
0
 70
32
  0
VERTEX
  5
4B131
  8
0
 62
7
 10
63.724699999999991
 20
23.6069
 30
0
 70
32
  0
VERTEX
  5
4B132
  8
0
 62
7
 10
63.724699999999991
 20
23.6069
 30
0
 70
32
  0
VERTEX
  5
4B133
  8
0
 62
7
 10
63.724699999999991
 20
23.6069
 30
0
 70
32
  0
VERTEX
  5
4B134
  8
0
 62
7
 10
63.724699999999991
 20
23.6069
 30
0
 70
32
  0
VERTEX
  5
4B135
  8
0
 62
7
 10
63.724699999999991
 20
23.6069
 30
0
 70
32
  0
VERTEX
  5
4B136
  8
0
 62
7
 10
63.724699999999991
 20
23.6069
 30
0
 70
32
  0
VERTEX
  5
4B137
  8
0
 62
7
 10
63.724699999999991
 20
23.6069
 30
0
 70
32
  0
VERTEX
  5
4B138
  8
0
 62
7
 10
63.724699999999991
 20
23.6069
 30
0
 70
32
  0
VERTEX
  5
4B139
  8
0
 62
7
 10
63.724699999999991
 20
23.6069
 30
0
 70
32
  0
VERTEX
  5
4B13A
  8
0
 62
7
 10
63.724699999999991
 20
23.6069
 30
0
 70
32
  0
VERTEX
  5
4B13B
  8
0
 62
7
 10
63.724699999999991
 20
23.6069
 30
0
 70
32
  0
VERTEX
  5
4B13C
  8
0
 62
7
 10
63.724699999999991
 20
23.6069
 30
0
 70
32
  0
VERTEX
  5
4B13D
  8
0
 62
7
 10
63.724699999999991
 20
23.6069
 30
0
 70
32
  0
VERTEX
  5
4B13E
  8
0
 62
7
 10
63.724699999999991
 20
23.6069
 30
0
 70
32
  0
VERTEX
  5
4B13F
  8
0
 62
7
 10
63.724699999999991
 20
23.6069
 30
0
 70
32
  0
VERTEX
  5
4B140
  8
0
 62
7
 10
63.724699999999991
 20
23.6069
 30
0
 70
32
  0
VERTEX
  5
4B141
  8
0
 62
7
 10
63.724699999999991
 20
23.6069
 30
0
 70
32
  0
VERTEX
  5
4B142
  8
0
 62
7
 10
63.724699999999991
 20
23.6069
 30
0
 70
32
  0
VERTEX
  5
4B143
  8
0
 62
7
 10
63.724699999999991
 20
23.6069
 30
0
 70
32
  0
VERTEX
  5
4B144
  8
0
 62
7
 10
63.724699999999991
 20
23.6069
 30
0
 70
32
  0
VERTEX
  5
4B145
  8
0
 62
7
 10
63.724699999999991
 20
23.6069
 30
0
 70
32
  0
VERTEX
  5
4B146
  8
0
 62
7
 10
63.724699999999991
 20
23.6069
 30
0
 70
32
  0
VERTEX
  5
4B147
  8
0
 62
7
 10
63.724699999999991
 20
23.6069
 30
0
 70
32
  0
VERTEX
  5
4B148
  8
0
 62
7
 10
63.724699999999991
 20
23.6069
 30
0
 70
32
  0
VERTEX
  5
4B149
  8
0
 62
7
 10
63.724699999999991
 20
23.6069
 30
0
 70
32
  0
VERTEX
  5
4B14A
  8
0
 62
7
 10
63.724699999999991
 20
23.6069
 30
0
 70
32
  0
VERTEX
  5
4B14B
  8
0
 62
7
 10
63.724699999999991
 20
23.6069
 30
0
 70
32
  0
VERTEX
  5
4B14C
  8
0
 62
7
 10
63.724699999999991
 20
23.6069
 30
0
 70
32
  0
VERTEX
  5
4B14D
  8
0
 62
7
 10
63.724699999999991
 20
23.6069
 30
0
 70
32
  0
VERTEX
  5
4B14E
  8
0
 62
7
 10
63.724699999999991
 20
23.6069
 30
0
 70
32
  0
VERTEX
  5
4B14F
  8
0
 62
7
 10
63.724699999999991
 20
23.6069
 30
0
 70
32
  0
VERTEX
  5
4B150
  8
0
 62
7
 10
63.724699999999991
 20
23.6069
 30
0
 70
32
  0
VERTEX
  5
4B151
  8
0
 62
7
 10
63.724699999999991
 20
23.6069
 30
0
 70
32
  0
VERTEX
  5
4B152
  8
0
 62
7
 10
63.724699999999991
 20
23.6069
 30
0
 70
32
  0
VERTEX
  5
4B153
  8
0
 62
7
 10
63.724699999999991
 20
23.6069
 30
0
 70
32
  0
VERTEX
  5
4B154
  8
0
 62
7
 10
63.724699999999991
 20
23.6069
 30
0
 70
32
  0
VERTEX
  5
4B155
  8
0
 62
7
 10
63.724699999999991
 20
23.6069
 30
0
 70
32
  0
VERTEX
  5
4B156
  8
0
 62
7
 10
63.724699999999991
 20
23.6069
 30
0
 70
32
  0
VERTEX
  5
4B157
  8
0
 62
7
 10
63.724699999999991
 20
23.6069
 30
0
 70
32
  0
VERTEX
  5
4B158
  8
0
 62
7
 10
63.724699999999991
 20
23.6069
 30
0
 70
32
  0
VERTEX
  5
4B159
  8
0
 62
7
 10
63.724699999999991
 20
23.6069
 30
0
 70
32
  0
VERTEX
  5
4B15A
  8
0
 62
7
 10
63.724699999999991
 20
23.6069
 30
0
 70
32
  0
VERTEX
  5
4B15B
  8
0
 62
7
 10
63.724699999999991
 20
23.6069
 30
0
 70
32
  0
VERTEX
  5
4B15C
  8
0
 62
7
 10
63.724699999999991
 20
23.6069
 30
0
 70
32
  0
VERTEX
  5
4B15D
  8
0
 62
7
 10
63.724699999999991
 20
23.6069
 30
0
 70
32
  0
VERTEX
  5
4B15E
  8
0
 62
7
 10
63.724699999999991
 20
23.6069
 30
0
 70
32
  0
VERTEX
  5
4B15F
  8
0
 62
7
 10
63.724699999999991
 20
23.6069
 30
0
 70
32
  0
VERTEX
  5
4B160
  8
0
 62
7
 10
63.724699999999991
 20
23.6069
 30
0
 70
32
  0
VERTEX
  5
4B161
  8
0
 62
7
 10
63.724699999999991
 20
23.6069
 30
0
 70
32
  0
VERTEX
  5
4B162
  8
0
 62
7
 10
63.724699999999991
 20
23.6069
 30
0
 70
32
  0
VERTEX
  5
4B163
  8
0
 62
7
 10
63.7241
 20
23.6069
 30
0
 70
32
  0
VERTEX
  5
4B164
  8
0
 62
7
 10
63.723
 20
23.6069
 30
0
 70
32
  0
VERTEX
  5
4B165
  8
0
 62
7
 10
63.721899999999991
 20
23.6069
 30
0
 70
32
  0
VERTEX
  5
4B166
  8
0
 62
7
 10
63.7208
 20
23.6069
 30
0
 70
32
  0
VERTEX
  5
4B167
  8
0
 62
7
 10
63.71970000000001
 20
23.6069
 30
0
 70
32
  0
VERTEX
  5
4B168
  8
0
 62
7
 10
63.7187
 20
23.6069
 30
0
 70
32
  0
VERTEX
  5
4B169
  8
0
 62
7
 10
63.7176
 20
23.6069
 30
0
 70
32
  0
VERTEX
  5
4B16A
  8
0
 62
7
 10
63.7166
 20
23.6069
 30
0
 70
32
  0
VERTEX
  5
4B16B
  8
0
 62
7
 10
63.7156
 20
23.6069
 30
0
 70
32
  0
VERTEX
  5
4B16C
  8
0
 62
7
 10
63.7147
 20
23.6069
 30
0
 70
32
  0
VERTEX
  5
4B16D
  8
0
 62
7
 10
63.7137
 20
23.6069
 30
0
 70
32
  0
VERTEX
  5
4B16E
  8
0
 62
7
 10
63.7128
 20
23.6069
 30
0
 70
32
  0
VERTEX
  5
4B16F
  8
0
 62
7
 10
63.7119
 20
23.6069
 30
0
 70
32
  0
VERTEX
  5
4B170
  8
0
 62
7
 10
63.711
 20
23.6069
 30
0
 70
32
  0
VERTEX
  5
4B171
  8
0
 62
7
 10
63.7101
 20
23.6069
 30
0
 70
32
  0
VERTEX
  5
4B172
  8
0
 62
7
 10
63.7092
 20
23.6069
 30
0
 70
32
  0
VERTEX
  5
4B173
  8
0
 62
7
 10
63.7084
 20
23.6069
 30
0
 70
32
  0
VERTEX
  5
4B174
  8
0
 62
7
 10
63.7076
 20
23.6069
 30
0
 70
32
  0
VERTEX
  5
4B175
  8
0
 62
7
 10
63.7067
 20
23.6069
 30
0
 70
32
  0
VERTEX
  5
4B176
  8
0
 62
7
 10
63.706
 20
23.6069
 30
0
 70
32
  0
VERTEX
  5
4B177
  8
0
 62
7
 10
63.705199999999991
 20
23.6069
 30
0
 70
32
  0
VERTEX
  5
4B178
  8
0
 62
7
 10
63.7044
 20
23.6069
 30
0
 70
32
  0
VERTEX
  5
4B179
  8
0
 62
7
 10
63.7037
 20
23.6069
 30
0
 70
32
  0
VERTEX
  5
4B17A
  8
0
 62
7
 10
63.703
 20
23.6069
 30
0
 70
32
  0
VERTEX
  5
4B17B
  8
0
 62
7
 10
63.702199999999991
 20
23.6069
 30
0
 70
32
  0
VERTEX
  5
4B17C
  8
0
 62
7
 10
63.7016
 20
23.6069
 30
0
 70
32
  0
VERTEX
  5
4B17D
  8
0
 62
7
 10
63.7009
 20
23.6069
 30
0
 70
32
  0
VERTEX
  5
4B17E
  8
0
 62
7
 10
63.7002
 20
23.6069
 30
0
 70
32
  0
VERTEX
  5
4B17F
  8
0
 62
7
 10
63.699599999999982
 20
23.6069
 30
0
 70
32
  0
VERTEX
  5
4B180
  8
0
 62
7
 10
63.6989
 20
23.6069
 30
0
 70
32
  0
VERTEX
  5
4B181
  8
0
 62
7
 10
63.6983
 20
23.6069
 30
0
 70
32
  0
VERTEX
  5
4B182
  8
0
 62
7
 10
63.69769999999999
 20
23.6069
 30
0
 70
32
  0
VERTEX
  5
4B183
  8
0
 62
7
 10
63.6971
 20
23.6069
 30
0
 70
32
  0
VERTEX
  5
4B184
  8
0
 62
7
 10
63.696599999999989
 20
23.6069
 30
0
 70
32
  0
VERTEX
  5
4B185
  8
0
 62
7
 10
63.696
 20
23.6069
 30
0
 70
32
  0
VERTEX
  5
4B186
  8
0
 62
7
 10
63.6955
 20
23.6069
 30
0
 70
32
  0
VERTEX
  5
4B187
  8
0
 62
7
 10
63.695
 20
23.6069
 30
0
 70
32
  0
VERTEX
  5
4B188
  8
0
 62
7
 10
63.6944
 20
23.6069
 30
0
 70
32
  0
VERTEX
  5
4B189
  8
0
 62
7
 10
63.6939
 20
23.6069
 30
0
 70
32
  0
VERTEX
  5
4B18A
  8
0
 62
7
 10
63.6935
 20
23.6069
 30
0
 70
32
  0
VERTEX
  5
4B18B
  8
0
 62
7
 10
63.692999999999991
 20
23.6069
 30
0
 70
32
  0
VERTEX
  5
4B18C
  8
0
 62
7
 10
63.6925
 20
23.6069
 30
0
 70
32
  0
VERTEX
  5
4B18D
  8
0
 62
7
 10
63.6921
 20
23.6069
 30
0
 70
32
  0
VERTEX
  5
4B18E
  8
0
 62
7
 10
63.6916
 20
23.6069
 30
0
 70
32
  0
VERTEX
  5
4B18F
  8
0
 62
7
 10
63.6912
 20
23.6069
 30
0
 70
32
  0
VERTEX
  5
4B190
  8
0
 62
7
 10
63.6908
 20
23.6069
 30
0
 70
32
  0
VERTEX
  5
4B191
  8
0
 62
7
 10
63.6904
 20
23.6069
 30
0
 70
32
  0
VERTEX
  5
4B192
  8
0
 62
7
 10
63.689999999999991
 20
23.6069
 30
0
 70
32
  0
VERTEX
  5
4B193
  8
0
 62
7
 10
63.6897
 20
23.6069
 30
0
 70
32
  0
VERTEX
  5
4B194
  8
0
 62
7
 10
63.6893
 20
23.6069
 30
0
 70
32
  0
VERTEX
  5
4B195
  8
0
 62
7
 10
63.6889
 20
23.6069
 30
0
 70
32
  0
VERTEX
  5
4B196
  8
0
 62
7
 10
63.6886
 20
23.6069
 30
0
 70
32
  0
VERTEX
  5
4B197
  8
0
 62
7
 10
63.688299999999991
 20
23.6069
 30
0
 70
32
  0
VERTEX
  5
4B198
  8
0
 62
7
 10
63.688
 20
23.6069
 30
0
 70
32
  0
VERTEX
  5
4B199
  8
0
 62
7
 10
63.6877
 20
23.6069
 30
0
 70
32
  0
VERTEX
  5
4B19A
  8
0
 62
7
 10
63.687399999999982
 20
23.6069
 30
0
 70
32
  0
VERTEX
  5
4B19B
  8
0
 62
7
 10
63.6871
 20
23.6069
 30
0
 70
32
  0
VERTEX
  5
4B19C
  8
0
 62
7
 10
63.6868
 20
23.6069
 30
0
 70
32
  0
VERTEX
  5
4B19D
  8
0
 62
7
 10
63.6865
 20
23.6069
 30
0
 70
32
  0
VERTEX
  5
4B19E
  8
0
 62
7
 10
63.6863
 20
23.6069
 30
0
 70
32
  0
VERTEX
  5
4B19F
  8
0
 62
7
 10
63.686
 20
23.6069
 30
0
 70
32
  0
VERTEX
  5
4B1A0
  8
0
 62
7
 10
63.6858
 20
23.6069
 30
0
 70
32
  0
VERTEX
  5
4B1A1
  8
0
 62
7
 10
63.6856
 20
23.6069
 30
0
 70
32
  0
VERTEX
  5
4B1A2
  8
0
 62
7
 10
63.6854
 20
23.6069
 30
0
 70
32
  0
VERTEX
  5
4B1A3
  8
0
 62
7
 10
63.6852
 20
23.6069
 30
0
 70
32
  0
VERTEX
  5
4B1A4
  8
0
 62
7
 10
63.685
 20
23.6069
 30
0
 70
32
  0
VERTEX
  5
4B1A5
  8
0
 62
7
 10
63.6848
 20
23.6069
 30
0
 70
32
  0
VERTEX
  5
4B1A6
  8
0
 62
7
 10
63.6846
 20
23.6069
 30
0
 70
32
  0
VERTEX
  5
4B1A7
  8
0
 62
7
 10
63.684399999999989
 20
23.6069
 30
0
 70
32
  0
VERTEX
  5
4B1A8
  8
0
 62
7
 10
63.6842
 20
23.6069
 30
0
 70
32
  0
VERTEX
  5
4B1A9
  8
0
 62
7
 10
63.6841
 20
23.6069
 30
0
 70
32
  0
VERTEX
  5
4B1AA
  8
0
 62
7
 10
63.6839
 20
23.6069
 30
0
 70
32
  0
VERTEX
  5
4B1AB
  8
0
 62
7
 10
63.6838
 20
23.6069
 30
0
 70
32
  0
VERTEX
  5
4B1AC
  8
0
 62
7
 10
63.6836
 20
23.6069
 30
0
 70
32
  0
VERTEX
  5
4B1AD
  8
0
 62
7
 10
63.6835
 20
23.6069
 30
0
 70
32
  0
VERTEX
  5
4B1AE
  8
0
 62
7
 10
63.683399999999992
 20
23.6069
 30
0
 70
32
  0
VERTEX
  5
4B1AF
  8
0
 62
7
 10
63.6833
 20
23.6069
 30
0
 70
32
  0
VERTEX
  5
4B1B0
  8
0
 62
7
 10
63.6832
 20
23.6069
 30
0
 70
32
  0
VERTEX
  5
4B1B1
  8
0
 62
7
 10
63.68310000000001
 20
23.6069
 30
0
 70
32
  0
VERTEX
  5
4B1B2
  8
0
 62
7
 10
63.683
 20
23.6069
 30
0
 70
32
  0
VERTEX
  5
4B1B3
  8
0
 62
7
 10
63.6829
 20
23.6069
 30
0
 70
32
  0
VERTEX
  5
4B1B4
  8
0
 62
7
 10
63.6828
 20
23.6069
 30
0
 70
32
  0
VERTEX
  5
4B1B5
  8
0
 62
7
 10
63.682699999999983
 20
23.6069
 30
0
 70
32
  0
VERTEX
  5
4B1B6
  8
0
 62
7
 10
63.6826
 20
23.6069
 30
0
 70
32
  0
VERTEX
  5
4B1B7
  8
0
 62
7
 10
63.6826
 20
23.6069
 30
0
 70
32
  0
VERTEX
  5
4B1B8
  8
0
 62
7
 10
63.68249999999999
 20
23.6069
 30
0
 70
32
  0
VERTEX
  5
4B1B9
  8
0
 62
7
 10
63.6824
 20
23.6069
 30
0
 70
32
  0
VERTEX
  5
4B1BA
  8
0
 62
7
 10
63.6824
 20
23.6069
 30
0
 70
32
  0
VERTEX
  5
4B1BB
  8
0
 62
7
 10
63.6823
 20
23.6069
 30
0
 70
32
  0
VERTEX
  5
4B1BC
  8
0
 62
7
 10
63.6823
 20
23.6069
 30
0
 70
32
  0
VERTEX
  5
4B1BD
  8
0
 62
7
 10
63.6822
 20
23.6069
 30
0
 70
32
  0
VERTEX
  5
4B1BE
  8
0
 62
7
 10
63.6822
 20
23.6069
 30
0
 70
32
  0
VERTEX
  5
4B1BF
  8
0
 62
7
 10
63.6822
 20
23.6069
 30
0
 70
32
  0
VERTEX
  5
4B1C0
  8
0
 62
7
 10
63.6821
 20
23.6069
 30
0
 70
32
  0
VERTEX
  5
4B1C1
  8
0
 62
7
 10
63.6821
 20
23.6069
 30
0
 70
32
  0
VERTEX
  5
4B1C2
  8
0
 62
7
 10
63.6821
 20
23.6069
 30
0
 70
32
  0
VERTEX
  5
4B1C3
  8
0
 62
7
 10
63.6821
 20
23.6069
 30
0
 70
32
  0
VERTEX
  5
4B1C4
  8
0
 62
7
 10
63.682
 20
23.6069
 30
0
 70
32
  0
VERTEX
  5
4B1C5
  8
0
 62
7
 10
63.682
 20
23.6069
 30
0
 70
32
  0
VERTEX
  5
4B1C6
  8
0
 62
7
 10
63.682
 20
23.6069
 30
0
 70
32
  0
VERTEX
  5
4B1C7
  8
0
 62
7
 10
63.682
 20
23.6069
 30
0
 70
32
  0
VERTEX
  5
4B1C8
  8
0
 62
7
 10
63.682
 20
23.6069
 30
0
 70
32
  0
VERTEX
  5
4B1C9
  8
0
 62
7
 10
63.682
 20
23.6069
 30
0
 70
32
  0
VERTEX
  5
4B1CA
  8
0
 62
7
 10
63.682
 20
23.6069
 30
0
 70
32
  0
VERTEX
  5
4B1CB
  8
0
 62
7
 10
63.682
 20
23.6069
 30
0
 70
32
  0
VERTEX
  5
4B1CC
  8
0
 62
7
 10
63.682
 20
23.6069
 30
0
 70
32
  0
VERTEX
  5
4B1CD
  8
0
 62
7
 10
63.682
 20
23.6069
 30
0
 70
32
  0
VERTEX
  5
4B1CE
  8
0
 62
7
 10
63.682
 20
23.6069
 30
0
 70
32
  0
VERTEX
  5
4B1CF
  8
0
 62
7
 10
63.682
 20
23.6069
 30
0
 70
32
  0
VERTEX
  5
4B1D0
  8
0
 62
7
 10
63.682
 20
23.6069
 30
0
 70
32
  0
VERTEX
  5
4B1D1
  8
0
 62
7
 10
63.682
 20
23.6069
 30
0
 70
32
  0
VERTEX
  5
4B1D2
  8
0
 62
7
 10
63.682
 20
23.6069
 30
0
 70
32
  0
SEQEND
  5
4B1D3
  8
0
  0
POLYLINE
  5
4AA22
  8
0
 62
7
 66
1
 70
0
 10
0
 20
0
 30
0
  0
VERTEX
  5
4C39C
  8
0
 62
7
 10
57.374673189790492
 20
23.184042822456089
 70
0
  0
VERTEX
  5
4C39D
  8
0
 62
7
 10
57.374673189790492
 20
23.184042822456089
 70
0
  0
SEQEND
  5
4C39E
  8
0
  0
POLYLINE
  5
4AA26
  8
0
 62
7
 66
1
 70
0
 10
0
 20
0
 30
0
  0
VERTEX
  5
4C39F
  8
0
 62
7
 10
57.374673189790492
 20
23.184042822456089
 70
0
  0
VERTEX
  5
4C3A0
  8
0
 62
7
 10
57.374673189790492
 20
23.184042822456089
 70
0
  0
SEQEND
  5
4C3A1
  8
0
  0
POLYLINE
  5
4AA2A
  8
0
 62
7
 66
1
 70
0
 10
0
 20
0
 30
0
  0
VERTEX
  5
4C3A2
  8
0
 62
7
 10
57.374673189790492
 20
23.184042822456089
 70
0
  0
VERTEX
  5
4C3A3
  8
0
 62
7
 10
57.374673189790492
 20
23.184042822456089
 70
0
  0
SEQEND
  5
4C3A4
  8
0
  0
POLYLINE
  5
4AA2E
  8
0
 62
7
 66
1
 70
0
 10
0
 20
0
 30
0
  0
VERTEX
  5
4C3A5
  8
0
 62
7
 10
57.374673189790492
 20
23.184042822456089
 70
0
  0
VERTEX
  5
4C3A6
  8
0
 62
7
 10
57.374673189790492
 20
23.184042822456089
 70
0
  0
SEQEND
  5
4C3A7
  8
0
  0
POLYLINE
  5
4AA32
  8
0
 62
7
 66
1
 70
0
 10
0
 20
0
 30
0
  0
VERTEX
  5
4C3A8
  8
0
 62
7
 10
57.374673189790492
 20
23.184042822456089
 70
0
  0
VERTEX
  5
4C3A9
  8
0
 62
7
 10
57.374673189790492
 20
23.184042822456089
 70
0
  0
SEQEND
  5
4C3AA
  8
0
  0
POLYLINE
  5
4AA36
  8
0
 62
7
 66
1
 70
0
 10
0
 20
0
 30
0
  0
VERTEX
  5
4C3AB
  8
0
 62
7
 10
57.374673189790492
 20
23.184042822456089
 70
0
  0
VERTEX
  5
4C3AC
  8
0
 62
7
 10
57.374673189790492
 20
23.184042822456089
 70
0
  0
SEQEND
  5
4C3AD
  8
0
  0
POLYLINE
  5
4AA3A
  8
0
 62
7
 66
1
 70
0
 10
0
 20
0
 30
0
  0
VERTEX
  5
4C3AE
  8
0
 62
7
 10
64.189072059614659
 20
22.59131414421887
 70
0
  0
VERTEX
  5
4C3AF
  8
0
 62
7
 10
64.189072059614659
 20
22.760640587318878
 70
0
  0
SEQEND
  5
4C3B0
  8
0
  0
POLYLINE
  5
4AA3E
  8
0
 62
7
 66
1
 70
0
 10
0
 20
0
 30
0
  0
VERTEX
  5
4C3B1
  8
0
 62
7
 10
64.189072059614659
 20
22.507426069153009
 70
0
  0
VERTEX
  5
4C3B2
  8
0
 62
7
 10
64.189072059614659
 20
22.507426069153009
 70
0
  0
VERTEX
  5
4C3B3
  8
0
 62
7
 10
64.10501172977456
 20
22.464706885135929
 70
0
  0
VERTEX
  5
4C3B4
  8
0
 62
7
 10
64.0622925457575
 20
22.3803020457473
 70
0
  0
VERTEX
  5
4C3B5
  8
0
 62
7
 10
63.978232215917387
 20
22.295035932487369
 70
0
  0
VERTEX
  5
4C3B6
  8
0
 62
7
 10
63.935513031900292
 20
22.21097560264727
 70
0
  0
VERTEX
  5
4C3B7
  8
0
 62
7
 10
63.851452702060172
 20
22.125709489387329
 70
0
  0
VERTEX
  5
4C3B8
  8
0
 62
7
 10
63.80873351804307
 20
22.08402383401582
 70
0
  0
VERTEX
  5
4C3B9
  8
0
 62
7
 10
63.724673188202971
 20
21.99875772075589
 70
0
  0
VERTEX
  5
4C3BA
  8
0
 62
7
 10
63.68195400418589
 20
21.956038536738792
 70
0
  0
VERTEX
  5
4C3BB
  8
0
 62
7
 10
63.639234820168781
 20
21.956038536738792
 70
0
  0
VERTEX
  5
4C3BC
  8
0
 62
7
 10
63.5965156361517
 20
21.871978206898689
 70
0
  0
VERTEX
  5
4C3BD
  8
0
 62
7
 10
63.55517449032871
 20
21.871978206898689
 70
0
  0
VERTEX
  5
4C3BE
  8
0
 62
7
 10
63.5124553063116
 20
21.82925902288159
 70
0
  0
VERTEX
  5
4C3BF
  8
0
 62
7
 10
63.428394976471509
 20
21.745370947815761
 70
0
  0
VERTEX
  5
4C3C0
  8
0
 62
7
 10
63.342956608437291
 20
21.70230725425014
 70
0
  0
VERTEX
  5
4C3C1
  8
0
 62
7
 10
63.3002374244202
 20
21.659588070233038
 70
0
  0
VERTEX
  5
4C3C2
  8
0
 62
7
 10
63.2161770945801
 20
21.618419179184311
 70
0
  0
VERTEX
  5
4C3C3
  8
0
 62
7
 10
63.132116764740012
 20
21.575699995167209
 70
0
  0
VERTEX
  5
4C3C4
  8
0
 62
7
 10
63.089397580722931
 20
21.575699995167209
 70
0
  0
VERTEX
  5
4C3C5
  8
0
 62
7
 10
63.046678396705829
 20
21.532980811150111
 70
0
  0
VERTEX
  5
4C3C6
  8
0
 62
7
 10
62.962618066865723
 20
21.49163966532711
 70
0
  0
VERTEX
  5
4C3C7
  8
0
 62
7
 10
62.919898882848628
 20
21.449092736084278
 70
0
  0
VERTEX
  5
4C3C8
  8
0
 62
7
 10
62.793119368991427
 20
21.449092736084278
 70
0
  0
VERTEX
  5
4C3C9
  8
0
 62
7
 10
62.75040018497431
 20
21.40637355206718
 70
0
  0
VERTEX
  5
4C3CA
  8
0
 62
7
 10
62.707681000957251
 20
21.40637355206718
 70
0
  0
VERTEX
  5
4C3CB
  8
0
 62
7
 10
62.666339855134261
 20
21.363309858501569
 70
0
  0
VERTEX
  5
4C3CC
  8
0
 62
7
 10
62.58090148710005
 20
21.363309858501569
 70
0
  0
VERTEX
  5
4C3CD
  8
0
 62
7
 10
62.496841157259951
 20
21.363309858501569
 70
0
  0
VERTEX
  5
4C3CE
  8
0
 62
7
 10
62.411402789225747
 20
21.363309858501569
 70
0
  0
VERTEX
  5
4C3CF
  8
0
 62
7
 10
62.327342459385662
 20
21.321968712678562
 70
0
  0
VERTEX
  5
4C3D0
  8
0
 62
7
 10
62.115124577494278
 20
21.321968712678562
 70
0
  0
VERTEX
  5
4C3D1
  8
0
 62
7
 10
62.031064247654172
 20
21.363309858501569
 70
0
  0
VERTEX
  5
4C3D2
  8
0
 62
7
 10
61.945625879619961
 20
21.363309858501569
 70
0
  0
VERTEX
  5
4C3D3
  8
0
 62
7
 10
61.90428473379697
 20
21.363309858501569
 70
0
  0
VERTEX
  5
4C3D4
  8
0
 62
7
 10
61.818846365762781
 20
21.363309858501569
 70
0
  0
VERTEX
  5
4C3D5
  8
0
 62
7
 10
61.818846365762781
 20
21.40637355206718
 70
0
  0
VERTEX
  5
4C3D6
  8
0
 62
7
 10
61.777505219939783
 20
21.40637355206718
 70
0
  0
VERTEX
  5
4C3D7
  8
0
 62
7
 10
61.777505219939783
 20
21.449092736084278
 70
0
  0
VERTEX
  5
4C3D8
  8
0
 62
7
 10
61.692066851905587
 20
21.449092736084278
 70
0
  0
SEQEND
  5
4C3D9
  8
0
  0
POLYLINE
  5
4AA68
  8
0
 62
7
 66
1
 70
0
 10
0
 20
0
 30
0
  0
VERTEX
  5
4C3DA
  8
0
 62
7
 10
64.189072059614659
 20
22.59131414421887
 70
0
  0
VERTEX
  5
4C3DB
  8
0
 62
7
 10
64.189072059614659
 20
22.548594960201768
 70
0
  0
SEQEND
  5
4C3DC
  8
0
  0
POLYLINE
  5
4AA6C
  8
0
 62
7
 66
1
 70
0
 10
0
 20
0
 30
0
  0
VERTEX
  5
4C3DD
  8
0
 62
7
 10
64.189072059614659
 20
22.548594960201768
 70
0
  0
VERTEX
  5
4C3DE
  8
0
 62
7
 10
64.189072059614659
 20
22.507426069153009
 70
0
  0
VERTEX
  5
4C3DF
  8
0
 62
7
 10
64.10501172977456
 20
22.464706885135929
 70
0
  0
VERTEX
  5
4C3E0
  8
0
 62
7
 10
64.0622925457575
 20
22.3803020457473
 70
0
  0
VERTEX
  5
4C3E1
  8
0
 62
7
 10
63.978232215917387
 20
22.295035932487369
 70
0
  0
VERTEX
  5
4C3E2
  8
0
 62
7
 10
63.935513031900292
 20
22.252316748470271
 70
0
  0
VERTEX
  5
4C3E3
  8
0
 62
7
 10
63.935513031900292
 20
22.21097560264727
 70
0
  0
VERTEX
  5
4C3E4
  8
0
 62
7
 10
63.851452702060172
 20
22.168428673404438
 70
0
  0
VERTEX
  5
4C3E5
  8
0
 62
7
 10
63.851452702060172
 20
22.125709489387329
 70
0
  0
VERTEX
  5
4C3E6
  8
0
 62
7
 10
63.80873351804307
 20
22.08402383401582
 70
0
  0
VERTEX
  5
4C3E7
  8
0
 62
7
 10
63.724673188202971
 20
21.99875772075589
 70
0
  0
VERTEX
  5
4C3E8
  8
0
 62
7
 10
63.68195400418589
 20
21.956038536738792
 70
0
  0
VERTEX
  5
4C3E9
  8
0
 62
7
 10
63.639234820168781
 20
21.956038536738792
 70
0
  0
VERTEX
  5
4C3EA
  8
0
 62
7
 10
63.5965156361517
 20
21.9146973909158
 70
0
  0
VERTEX
  5
4C3EB
  8
0
 62
7
 10
63.5965156361517
 20
21.871978206898689
 70
0
  0
VERTEX
  5
4C3EC
  8
0
 62
7
 10
63.5124553063116
 20
21.82925902288159
 70
0
  0
VERTEX
  5
4C3ED
  8
0
 62
7
 10
63.428394976471509
 20
21.78809013183286
 70
0
  0
VERTEX
  5
4C3EE
  8
0
 62
7
 10
63.385675792454407
 20
21.745370947815761
 70
0
  0
VERTEX
  5
4C3EF
  8
0
 62
7
 10
63.342956608437291
 20
21.745370947815761
 70
0
  0
VERTEX
  5
4C3F0
  8
0
 62
7
 10
63.3002374244202
 20
21.70230725425014
 70
0
  0
VERTEX
  5
4C3F1
  8
0
 62
7
 10
63.2161770945801
 20
21.618419179184311
 70
0
  0
VERTEX
  5
4C3F2
  8
0
 62
7
 10
63.17345791056303
 20
21.618419179184311
 70
0
  0
VERTEX
  5
4C3F3
  8
0
 62
7
 10
63.132116764740012
 20
21.575699995167209
 70
0
  0
VERTEX
  5
4C3F4
  8
0
 62
7
 10
63.046678396705829
 20
21.575699995167209
 70
0
  0
VERTEX
  5
4C3F5
  8
0
 62
7
 10
63.00395921268872
 20
21.49163966532711
 70
0
  0
VERTEX
  5
4C3F6
  8
0
 62
7
 10
62.919898882848628
 20
21.49163966532711
 70
0
  0
VERTEX
  5
4C3F7
  8
0
 62
7
 10
62.835838553008529
 20
21.449092736084278
 70
0
  0
VERTEX
  5
4C3F8
  8
0
 62
7
 10
62.75040018497431
 20
21.449092736084278
 70
0
  0
VERTEX
  5
4C3F9
  8
0
 62
7
 10
62.707681000957251
 20
21.40637355206718
 70
0
  0
VERTEX
  5
4C3FA
  8
0
 62
7
 10
62.666339855134261
 20
21.40637355206718
 70
0
  0
VERTEX
  5
4C3FB
  8
0
 62
7
 10
62.623620671117152
 20
21.363309858501569
 70
0
  0
VERTEX
  5
4C3FC
  8
0
 62
7
 10
62.539560341277031
 20
21.363309858501569
 70
0
  0
VERTEX
  5
4C3FD
  8
0
 62
7
 10
62.454121973242842
 20
21.363309858501569
 70
0
  0
VERTEX
  5
4C3FE
  8
0
 62
7
 10
62.370061643402721
 20
21.363309858501569
 70
0
  0
VERTEX
  5
4C3FF
  8
0
 62
7
 10
62.327342459385662
 20
21.321968712678562
 70
0
  0
VERTEX
  5
4C400
  8
0
 62
7
 10
62.157843761511373
 20
21.321968712678562
 70
0
  0
VERTEX
  5
4C401
  8
0
 62
7
 10
62.073783431671281
 20
21.321968712678562
 70
0
  0
VERTEX
  5
4C402
  8
0
 62
7
 10
62.073783431671281
 20
21.363309858501569
 70
0
  0
VERTEX
  5
4C403
  8
0
 62
7
 10
62.031064247654172
 20
21.363309858501569
 70
0
  0
VERTEX
  5
4C404
  8
0
 62
7
 10
61.945625879619961
 20
21.363309858501569
 70
0
  0
VERTEX
  5
4C405
  8
0
 62
7
 10
61.90428473379697
 20
21.363309858501569
 70
0
  0
VERTEX
  5
4C406
  8
0
 62
7
 10
61.818846365762781
 20
21.40637355206718
 70
0
  0
SEQEND
  5
4C407
  8
0
  0
POLYLINE
  5
4AA98
  8
0
 62
7
 66
1
 70
0
 10
0
 20
0
 30
0
  0
VERTEX
  5
4C408
  8
0
 62
7
 10
64.189072059614659
 20
22.507426069153009
 70
0
  0
VERTEX
  5
4C409
  8
0
 62
7
 10
64.189072059614659
 20
22.548594960201768
 70
0
  0
SEQEND
  5
4C40A
  8
0
  0
POLYLINE
  5
4AA9C
  8
0
 62
7
 66
1
 70
0
 10
0
 20
0
 30
0
  0
VERTEX
  5
4C40B
  8
0
 62
7
 10
64.189072059614659
 20
22.803704280884521
 70
0
  0
VERTEX
  5
4C40C
  8
0
 62
7
 10
64.189072059614659
 20
22.760640587318878
 70
0
  0
SEQEND
  5
4C40D
  8
0
  0
POLYLINE
  5
4AAA0
  8
0
 62
7
 66
1
 70
0
 10
0
 20
0
 30
0
  0
VERTEX
  5
4C40E
  8
0
 62
7
 10
64.0622925457575
 20
22.63403332823594
 70
0
  0
VERTEX
  5
4C40F
  8
0
 62
7
 10
64.0622925457575
 20
22.59131414421887
 70
0
  0
SEQEND
  5
4C410
  8
0
  0
POLYLINE
  5
4AAA4
  8
0
 62
7
 66
1
 70
0
 10
0
 20
0
 30
0
  0
VERTEX
  5
4C411
  8
0
 62
7
 10
64.0622925457575
 20
22.59131414421887
 70
0
  0
VERTEX
  5
4C412
  8
0
 62
7
 10
64.0622925457575
 20
22.59131414421887
 70
0
  0
SEQEND
  5
4C413
  8
0
  0
POLYLINE
  5
4AAA8
  8
0
 62
7
 66
1
 70
0
 10
0
 20
0
 30
0
  0
VERTEX
  5
4C414
  8
0
 62
7
 10
64.0622925457575
 20
22.59131414421887
 70
0
  0
VERTEX
  5
4C415
  8
0
 62
7
 10
64.0622925457575
 20
22.59131414421887
 70
0
  0
SEQEND
  5
4C416
  8
0
  0
POLYLINE
  5
4AAAC
  8
0
 62
7
 66
1
 70
0
 10
0
 20
0
 30
0
  0
VERTEX
  5
4C417
  8
0
 62
7
 10
63.978232215917387
 20
22.507426069153009
 70
0
  0
VERTEX
  5
4C418
  8
0
 62
7
 10
63.978232215917387
 20
22.507426069153009
 70
0
  0
VERTEX
  5
4C419
  8
0
 62
7
 10
63.935513031900292
 20
22.464706885135929
 70
0
  0
VERTEX
  5
4C41A
  8
0
 62
7
 10
63.935513031900292
 20
22.4216431915703
 70
0
  0
VERTEX
  5
4C41B
  8
0
 62
7
 10
63.851452702060172
 20
22.3803020457473
 70
0
  0
VERTEX
  5
4C41C
  8
0
 62
7
 10
63.851452702060172
 20
22.337755116504471
 70
0
  0
VERTEX
  5
4C41D
  8
0
 62
7
 10
63.80873351804307
 20
22.295035932487369
 70
0
  0
VERTEX
  5
4C41E
  8
0
 62
7
 10
63.80873351804307
 20
22.252316748470271
 70
0
  0
VERTEX
  5
4C41F
  8
0
 62
7
 10
63.724673188202971
 20
22.21097560264727
 70
0
  0
VERTEX
  5
4C420
  8
0
 62
7
 10
63.68195400418589
 20
22.125709489387329
 70
0
  0
VERTEX
  5
4C421
  8
0
 62
7
 10
63.639234820168781
 20
22.125709489387329
 70
0
  0
VERTEX
  5
4C422
  8
0
 62
7
 10
63.5965156361517
 20
22.08402383401582
 70
0
  0
VERTEX
  5
4C423
  8
0
 62
7
 10
63.5124553063116
 20
21.99875772075589
 70
0
  0
VERTEX
  5
4C424
  8
0
 62
7
 10
63.428394976471509
 20
21.956038536738792
 70
0
  0
VERTEX
  5
4C425
  8
0
 62
7
 10
63.342956608437291
 20
21.871978206898689
 70
0
  0
VERTEX
  5
4C426
  8
0
 62
7
 10
63.3002374244202
 20
21.82925902288159
 70
0
  0
VERTEX
  5
4C427
  8
0
 62
7
 10
63.2161770945801
 20
21.78809013183286
 70
0
  0
VERTEX
  5
4C428
  8
0
 62
7
 10
63.2161770945801
 20
21.745370947815761
 70
0
  0
VERTEX
  5
4C429
  8
0
 62
7
 10
63.17345791056303
 20
21.745370947815761
 70
0
  0
VERTEX
  5
4C42A
  8
0
 62
7
 10
63.132116764740012
 20
21.70230725425014
 70
0
  0
VERTEX
  5
4C42B
  8
0
 62
7
 10
63.046678396705829
 20
21.70230725425014
 70
0
  0
VERTEX
  5
4C42C
  8
0
 62
7
 10
63.00395921268872
 20
21.618419179184311
 70
0
  0
VERTEX
  5
4C42D
  8
0
 62
7
 10
62.919898882848628
 20
21.618419179184311
 70
0
  0
VERTEX
  5
4C42E
  8
0
 62
7
 10
62.919898882848628
 20
21.575699995167209
 70
0
  0
VERTEX
  5
4C42F
  8
0
 62
7
 10
62.835838553008529
 20
21.575699995167209
 70
0
  0
VERTEX
  5
4C430
  8
0
 62
7
 10
62.75040018497431
 20
21.532980811150111
 70
0
  0
VERTEX
  5
4C431
  8
0
 62
7
 10
62.666339855134261
 20
21.49163966532711
 70
0
  0
VERTEX
  5
4C432
  8
0
 62
7
 10
62.58090148710005
 20
21.49163966532711
 70
0
  0
VERTEX
  5
4C433
  8
0
 62
7
 10
62.58090148710005
 20
21.449092736084278
 70
0
  0
VERTEX
  5
4C434
  8
0
 62
7
 10
62.411402789225747
 20
21.449092736084278
 70
0
  0
VERTEX
  5
4C435
  8
0
 62
7
 10
62.370061643402721
 20
21.40637355206718
 70
0
  0
VERTEX
  5
4C436
  8
0
 62
7
 10
62.284623275368538
 20
21.40637355206718
 70
0
  0
VERTEX
  5
4C437
  8
0
 62
7
 10
62.200562945528468
 20
21.40637355206718
 70
0
  0
VERTEX
  5
4C438
  8
0
 62
7
 10
61.90428473379697
 20
21.40637355206718
 70
0
  0
VERTEX
  5
4C439
  8
0
 62
7
 10
61.818846365762781
 20
21.40637355206718
 70
0
  0
VERTEX
  5
4C43A
  8
0
 62
7
 10
61.818846365762781
 20
21.449092736084278
 70
0
  0
VERTEX
  5
4C43B
  8
0
 62
7
 10
61.777505219939783
 20
21.449092736084278
 70
0
  0
VERTEX
  5
4C43C
  8
0
 62
7
 10
61.692066851905587
 20
21.449092736084278
 70
0
  0
VERTEX
  5
4C43D
  8
0
 62
7
 10
61.649347667888492
 20
21.49163966532711
 70
0
  0
VERTEX
  5
4C43E
  8
0
 62
7
 10
61.565287338048392
 20
21.49163966532711
 70
0
  0
SEQEND
  5
4C43F
  8
0
  0
POLYLINE
  5
4AAD6
  8
0
 62
7
 66
1
 70
0
 10
0
 20
0
 30
0
  0
VERTEX
  5
4C440
  8
0
 62
7
 10
64.189072059614659
 20
22.760640587318878
 70
0
  0
VERTEX
  5
4C441
  8
0
 62
7
 10
64.189072059614659
 20
22.760640587318878
 70
0
  0
SEQEND
  5
4C442
  8
0
  0
POLYLINE
  5
4AADA
  8
0
 62
7
 66
1
 70
0
 10
0
 20
0
 30
0
  0
VERTEX
  5
4C443
  8
0
 62
7
 10
64.189072059614659
 20
22.59131414421887
 70
0
  0
VERTEX
  5
4C444
  8
0
 62
7
 10
64.189072059614659
 20
22.59131414421887
 70
0
  0
SEQEND
  5
4C445
  8
0
  0
POLYLINE
  5
4AADE
  8
0
 62
7
 66
1
 70
0
 10
0
 20
0
 30
0
  0
VERTEX
  5
4C446
  8
0
 62
7
 10
64.189072059614659
 20
22.59131414421887
 70
0
  0
VERTEX
  5
4C447
  8
0
 62
7
 10
64.189072059614659
 20
22.63403332823594
 70
0
  0
VERTEX
  5
4C448
  8
0
 62
7
 10
64.147730913791662
 20
22.63403332823594
 70
0
  0
VERTEX
  5
4C449
  8
0
 62
7
 10
64.147730913791662
 20
22.7179214033018
 70
0
  0
VERTEX
  5
4C44A
  8
0
 62
7
 10
64.189072059614659
 20
22.7179214033018
 70
0
  0
VERTEX
  5
4C44B
  8
0
 62
7
 10
64.189072059614659
 20
22.760640587318878
 70
0
  0
SEQEND
  5
4C44C
  8
0
  0
POLYLINE
  5
4AAE6
  8
0
 62
7
 66
1
 70
0
 10
0
 20
0
 30
0
  0
VERTEX
  5
4C44D
  8
0
 62
7
 10
25.077592034670321
 20
42.528942991230963
 70
0
  0
VERTEX
  5
4C44E
  8
0
 62
7
 10
25.077592034670321
 20
42.528942991230963
 70
0
  0
SEQEND
  5
4C44F
  8
0
  0
POLYLINE
  5
4AAEA
  8
0
 62
7
 66
1
 70
0
 10
0
 20
0
 30
0
  0
VERTEX
  5
4C450
  8
0
 62
7
 10
22.156151063178442
 20
41.427545964596618
 70
0
  0
VERTEX
  5
4C451
  8
0
 62
7
 10
22.156151063178442
 20
41.597216917245113
 70
0
  0
SEQEND
  5
4C452
  8
0
  0
POLYLINE
  5
4AAEE
  8
0
 62
7
 66
1
 70
0
 10
0
 20
0
 30
0
  0
VERTEX
  5
4C453
  8
0
 62
7
 10
25.034872850653219
 20
42.27521170874234
 70
0
  0
VERTEX
  5
4C454
  8
0
 62
7
 10
25.034872850653219
 20
42.316552854565323
 70
0
  0
SEQEND
  5
4C455
  8
0
  0
POLYLINE
  5
4AAF2
  8
0
 62
7
 66
1
 70
0
 10
0
 20
0
 30
0
  0
VERTEX
  5
4C456
  8
0
 62
7
 10
22.452429274909949
 20
41.174331446430728
 70
0
  0
VERTEX
  5
4C457
  8
0
 62
7
 10
22.537867642944121
 20
41.174331446430728
 70
0
  0
VERTEX
  5
4C458
  8
0
 62
7
 10
22.537867642944121
 20
41.131612262413618
 70
0
  0
VERTEX
  5
4C459
  8
0
 62
7
 10
22.664647156801319
 20
41.131612262413618
 70
0
  0
VERTEX
  5
4C45A
  8
0
 62
7
 10
22.70598830262432
 20
41.089926607042088
 70
0
  0
VERTEX
  5
4C45B
  8
0
 62
7
 10
22.748707486641411
 20
41.089926607042088
 70
0
  0
VERTEX
  5
4C45C
  8
0
 62
7
 10
22.791426670658531
 20
41.047207423025043
 70
0
  0
VERTEX
  5
4C45D
  8
0
 62
7
 10
22.960925368532831
 20
41.047207423025043
 70
0
  0
VERTEX
  5
4C45E
  8
0
 62
7
 10
23.0449856983729
 20
41.047207423025043
 70
0
  0
VERTEX
  5
4C45F
  8
0
 62
7
 10
23.3412639101044
 20
41.047207423025043
 70
0
  0
VERTEX
  5
4C460
  8
0
 62
7
 10
23.42670227813861
 20
41.089926607042088
 70
0
  0
VERTEX
  5
4C461
  8
0
 62
7
 10
23.4680434239616
 20
41.089926607042088
 70
0
  0
VERTEX
  5
4C462
  8
0
 62
7
 10
23.51076260797868
 20
41.131612262413618
 70
0
  0
VERTEX
  5
4C463
  8
0
 62
7
 10
23.68026130585298
 20
41.131612262413618
 70
0
  0
VERTEX
  5
4C464
  8
0
 62
7
 10
23.722980489870078
 20
41.174331446430728
 70
0
  0
VERTEX
  5
4C465
  8
0
 62
7
 10
23.807040819710181
 20
41.216878375673559
 70
0
  0
VERTEX
  5
4C466
  8
0
 62
7
 10
23.891101149550281
 20
41.259597559690683
 70
0
  0
VERTEX
  5
4C467
  8
0
 62
7
 10
23.97653951758446
 20
41.300938705513651
 70
0
  0
VERTEX
  5
4C468
  8
0
 62
7
 10
24.060599847424552
 20
41.300938705513651
 70
0
  0
VERTEX
  5
4C469
  8
0
 62
7
 10
24.060599847424552
 20
41.343657889530782
 70
0
  0
VERTEX
  5
4C46A
  8
0
 62
7
 10
24.103319031441661
 20
41.386204818773592
 70
0
  0
VERTEX
  5
4C46B
  8
0
 62
7
 10
24.188757399475861
 20
41.427545964596618
 70
0
  0
VERTEX
  5
4C46C
  8
0
 62
7
 10
24.272817729315971
 20
41.470609658162218
 70
0
  0
VERTEX
  5
4C46D
  8
0
 62
7
 10
24.272817729315971
 20
41.5133288421793
 70
0
  0
VERTEX
  5
4C46E
  8
0
 62
7
 10
24.35687805915606
 20
41.5133288421793
 70
0
  0
VERTEX
  5
4C46F
  8
0
 62
7
 10
24.35687805915606
 20
41.555875771422158
 70
0
  0
VERTEX
  5
4C470
  8
0
 62
7
 10
24.442316427190239
 20
41.597216917245113
 70
0
  0
VERTEX
  5
4C471
  8
0
 62
7
 10
24.485035611207341
 20
41.639936101262251
 70
0
  0
VERTEX
  5
4C472
  8
0
 62
7
 10
24.485035611207341
 20
41.682655285279338
 70
0
  0
VERTEX
  5
4C473
  8
0
 62
7
 10
24.56909594104744
 20
41.723824176328087
 70
0
  0
VERTEX
  5
4C474
  8
0
 62
7
 10
24.611815125064538
 20
41.766543360345139
 70
0
  0
VERTEX
  5
4C475
  8
0
 62
7
 10
24.653156270887539
 20
41.809607053910831
 70
0
  0
VERTEX
  5
4C476
  8
0
 62
7
 10
24.695875454904641
 20
41.85232623792789
 70
0
  0
VERTEX
  5
4C477
  8
0
 62
7
 10
24.695875454904641
 20
41.893495128976653
 70
0
  0
VERTEX
  5
4C478
  8
0
 62
7
 10
24.781313822938841
 20
41.936214312993741
 70
0
  0
VERTEX
  5
4C479
  8
0
 62
7
 10
24.822654968761839
 20
42.02027464283384
 70
0
  0
VERTEX
  5
4C47A
  8
0
 62
7
 10
24.908093336796021
 20
42.062993826850906
 70
0
  0
VERTEX
  5
4C47B
  8
0
 62
7
 10
24.949434482619012
 20
42.148259940110847
 70
0
  0
VERTEX
  5
4C47C
  8
0
 62
7
 10
24.949434482619012
 20
42.1899455954824
 70
0
  0
VERTEX
  5
4C47D
  8
0
 62
7
 10
24.99215366663611
 20
42.232664779499459
 70
0
  0
VERTEX
  5
4C47E
  8
0
 62
7
 10
25.034872850653219
 20
42.27521170874234
 70
0
  0
SEQEND
  5
4C47F
  8
0
  0
POLYLINE
  5
4AB1D
  8
0
 62
7
 66
1
 70
0
 10
0
 20
0
 30
0
  0
VERTEX
  5
4C480
  8
0
 62
7
 10
25.077592034670321
 20
42.528942991230963
 70
0
  0
VERTEX
  5
4C481
  8
0
 62
7
 10
25.034872850653219
 20
42.528942991230963
 70
0
  0
VERTEX
  5
4C482
  8
0
 62
7
 10
25.034872850653219
 20
42.444538151842387
 70
0
  0
VERTEX
  5
4C483
  8
0
 62
7
 10
24.99215366663611
 20
42.444538151842387
 70
0
  0
VERTEX
  5
4C484
  8
0
 62
7
 10
24.99215366663611
 20
42.359272038582453
 70
0
  0
VERTEX
  5
4C485
  8
0
 62
7
 10
25.034872850653219
 20
42.316552854565323
 70
0
  0
SEQEND
  5
4C486
  8
0
  0
POLYLINE
  5
4AB25
  8
0
 62
7
 66
1
 70
0
 10
0
 20
0
 30
0
  0
VERTEX
  5
4C487
  8
0
 62
7
 10
24.738594638921739
 20
42.571662175248093
 70
0
  0
VERTEX
  5
4C488
  8
0
 62
7
 10
24.781313822938841
 20
42.571662175248093
 70
0
  0
SEQEND
  5
4C489
  8
0
  0
POLYLINE
  5
4AB29
  8
0
 62
7
 66
1
 70
0
 10
0
 20
0
 30
0
  0
VERTEX
  5
4C48A
  8
0
 62
7
 10
24.822654968761839
 20
42.571662175248093
 70
0
  0
VERTEX
  5
4C48B
  8
0
 62
7
 10
24.865374152778909
 20
42.571662175248093
 70
0
  0
SEQEND
  5
4C48C
  8
0
  0
POLYLINE
  5
4AB2D
  8
0
 62
7
 66
1
 70
0
 10
0
 20
0
 30
0
  0
VERTEX
  5
4C48D
  8
0
 62
7
 10
22.282930577035639
 20
41.300938705513651
 70
0
  0
VERTEX
  5
4C48E
  8
0
 62
7
 10
22.282930577035639
 20
41.300938705513651
 70
0
  0
VERTEX
  5
4C48F
  8
0
 62
7
 10
22.325649761052741
 20
41.259597559690683
 70
0
  0
VERTEX
  5
4C490
  8
0
 62
7
 10
22.40971009089284
 20
41.259597559690683
 70
0
  0
VERTEX
  5
4C491
  8
0
 62
7
 10
22.40971009089284
 20
41.216878375673559
 70
0
  0
VERTEX
  5
4C492
  8
0
 62
7
 10
22.452429274909949
 20
41.216878375673559
 70
0
  0
VERTEX
  5
4C493
  8
0
 62
7
 10
22.495148458927041
 20
41.174331446430728
 70
0
  0
VERTEX
  5
4C494
  8
0
 62
7
 10
22.537867642944121
 20
41.174331446430728
 70
0
  0
VERTEX
  5
4C495
  8
0
 62
7
 10
22.621927972784221
 20
41.174331446430728
 70
0
  0
VERTEX
  5
4C496
  8
0
 62
7
 10
22.664647156801319
 20
41.131612262413618
 70
0
  0
VERTEX
  5
4C497
  8
0
 62
7
 10
22.748707486641411
 20
41.131612262413618
 70
0
  0
VERTEX
  5
4C498
  8
0
 62
7
 10
22.960925368532831
 20
41.131612262413618
 70
0
  0
VERTEX
  5
4C499
  8
0
 62
7
 10
23.0449856983729
 20
41.131612262413618
 70
0
  0
VERTEX
  5
4C49A
  8
0
 62
7
 10
23.171765212230088
 20
41.131612262413618
 70
0
  0
VERTEX
  5
4C49B
  8
0
 62
7
 10
23.2572035802643
 20
41.131612262413618
 70
0
  0
VERTEX
  5
4C49C
  8
0
 62
7
 10
23.3412639101044
 20
41.174331446430728
 70
0
  0
VERTEX
  5
4C49D
  8
0
 62
7
 10
23.42670227813861
 20
41.174331446430728
 70
0
  0
VERTEX
  5
4C49E
  8
0
 62
7
 10
23.4680434239616
 20
41.216878375673559
 70
0
  0
VERTEX
  5
4C49F
  8
0
 62
7
 10
23.553481791995772
 20
41.259597559690683
 70
0
  0
VERTEX
  5
4C4A0
  8
0
 62
7
 10
23.637542121835882
 20
41.259597559690683
 70
0
  0
VERTEX
  5
4C4A1
  8
0
 62
7
 10
23.722980489870078
 20
41.300938705513651
 70
0
  0
VERTEX
  5
4C4A2
  8
0
 62
7
 10
23.807040819710181
 20
41.343657889530782
 70
0
  0
VERTEX
  5
4C4A3
  8
0
 62
7
 10
23.84976000372728
 20
41.386204818773592
 70
0
  0
VERTEX
  5
4C4A4
  8
0
 62
7
 10
23.933820333567379
 20
41.427545964596618
 70
0
  0
VERTEX
  5
4C4A5
  8
0
 62
7
 10
24.019258701601562
 20
41.470609658162218
 70
0
  0
VERTEX
  5
4C4A6
  8
0
 62
7
 10
24.103319031441661
 20
41.5133288421793
 70
0
  0
VERTEX
  5
4C4A7
  8
0
 62
7
 10
24.188757399475861
 20
41.555875771422158
 70
0
  0
VERTEX
  5
4C4A8
  8
0
 62
7
 10
24.230098545298858
 20
41.639936101262251
 70
0
  0
VERTEX
  5
4C4A9
  8
0
 62
7
 10
24.315536913333059
 20
41.682655285279338
 70
0
  0
VERTEX
  5
4C4AA
  8
0
 62
7
 10
24.35687805915606
 20
41.766543360345139
 70
0
  0
VERTEX
  5
4C4AB
  8
0
 62
7
 10
24.442316427190239
 20
41.809607053910831
 70
0
  0
VERTEX
  5
4C4AC
  8
0
 62
7
 10
24.485035611207341
 20
41.893495128976653
 70
0
  0
VERTEX
  5
4C4AD
  8
0
 62
7
 10
24.526376757030341
 20
41.893495128976653
 70
0
  0
VERTEX
  5
4C4AE
  8
0
 62
7
 10
24.56909594104744
 20
41.936214312993741
 70
0
  0
VERTEX
  5
4C4AF
  8
0
 62
7
 10
24.653156270887539
 20
42.02027464283384
 70
0
  0
VERTEX
  5
4C4B0
  8
0
 62
7
 10
24.695875454904641
 20
42.062993826850906
 70
0
  0
VERTEX
  5
4C4B1
  8
0
 62
7
 10
24.781313822938841
 20
42.148259940110847
 70
0
  0
VERTEX
  5
4C4B2
  8
0
 62
7
 10
24.822654968761839
 20
42.232664779499459
 70
0
  0
VERTEX
  5
4C4B3
  8
0
 62
7
 10
24.865374152778909
 20
42.316552854565323
 70
0
  0
SEQEND
  5
4C4B4
  8
0
  0
POLYLINE
  5
4AB56
  8
0
 62
7
 66
1
 70
0
 10
0
 20
0
 30
0
  0
VERTEX
  5
4C4B5
  8
0
 62
7
 10
24.908093336796021
 20
42.571662175248093
 70
0
  0
VERTEX
  5
4C4B6
  8
0
 62
7
 10
24.908093336796021
 20
42.571662175248093
 70
0
  0
SEQEND
  5
4C4B7
  8
0
  0
POLYLINE
  5
4AB5A
  8
0
 62
7
 66
1
 70
0
 10
0
 20
0
 30
0
  0
VERTEX
  5
4C4B8
  8
0
 62
7
 10
22.156151063178442
 20
41.427545964596618
 70
0
  0
VERTEX
  5
4C4B9
  8
0
 62
7
 10
22.156151063178442
 20
41.427545964596618
 70
0
  0
SEQEND
  5
4C4BA
  8
0
  0
POLYLINE
  5
4AB5E
  8
0
 62
7
 66
1
 70
0
 10
0
 20
0
 30
0
  0
VERTEX
  5
4C4BB
  8
0
 62
7
 10
22.282930577035639
 20
41.682655285279338
 70
0
  0
VERTEX
  5
4C4BC
  8
0
 62
7
 10
22.282930577035639
 20
41.682655285279338
 70
0
  0
SEQEND
  5
4C4BD
  8
0
  0
POLYLINE
  5
4AB62
  8
0
 62
7
 66
1
 70
0
 10
0
 20
0
 30
0
  0
VERTEX
  5
4C4BE
  8
0
 62
7
 10
24.822654968761839
 20
42.359272038582453
 70
0
  0
VERTEX
  5
4C4BF
  8
0
 62
7
 10
24.822654968761839
 20
42.571662175248093
 70
0
  0
SEQEND
  5
4C4C0
  8
0
  0
POLYLINE
  5
4AB66
  8
0
 62
7
 66
1
 70
0
 10
0
 20
0
 30
0
  0
VERTEX
  5
4C4C1
  8
0
 62
7
 10
22.156151063178442
 20
41.427545964596618
 70
0
  0
VERTEX
  5
4C4C2
  8
0
 62
7
 10
22.19887024719554
 20
41.427545964596618
 70
0
  0
VERTEX
  5
4C4C3
  8
0
 62
7
 10
22.241589431212649
 20
41.386204818773592
 70
0
  0
VERTEX
  5
4C4C4
  8
0
 62
7
 10
22.282930577035639
 20
41.343657889530782
 70
0
  0
VERTEX
  5
4C4C5
  8
0
 62
7
 10
22.325649761052741
 20
41.300938705513651
 70
0
  0
VERTEX
  5
4C4C6
  8
0
 62
7
 10
22.40971009089284
 20
41.300938705513651
 70
0
  0
VERTEX
  5
4C4C7
  8
0
 62
7
 10
22.452429274909949
 20
41.259597559690683
 70
0
  0
VERTEX
  5
4C4C8
  8
0
 62
7
 10
22.537867642944121
 20
41.259597559690683
 70
0
  0
VERTEX
  5
4C4C9
  8
0
 62
7
 10
22.579208788767119
 20
41.216878375673559
 70
0
  0
VERTEX
  5
4C4CA
  8
0
 62
7
 10
22.664647156801319
 20
41.216878375673559
 70
0
  0
VERTEX
  5
4C4CB
  8
0
 62
7
 10
22.70598830262432
 20
41.174331446430728
 70
0
  0
VERTEX
  5
4C4CC
  8
0
 62
7
 10
22.791426670658531
 20
41.174331446430728
 70
0
  0
VERTEX
  5
4C4CD
  8
0
 62
7
 10
22.875487000498619
 20
41.174331446430728
 70
0
  0
VERTEX
  5
4C4CE
  8
0
 62
7
 10
23.08770488239
 20
41.174331446430728
 70
0
  0
VERTEX
  5
4C4CF
  8
0
 62
7
 10
23.171765212230088
 20
41.174331446430728
 70
0
  0
VERTEX
  5
4C4D0
  8
0
 62
7
 10
23.2144843962472
 20
41.216878375673559
 70
0
  0
VERTEX
  5
4C4D1
  8
0
 62
7
 10
23.2985447260873
 20
41.216878375673559
 70
0
  0
VERTEX
  5
4C4D2
  8
0
 62
7
 10
23.3839830941215
 20
41.259597559690683
 70
0
  0
VERTEX
  5
4C4D3
  8
0
 62
7
 10
23.4680434239616
 20
41.259597559690683
 70
0
  0
VERTEX
  5
4C4D4
  8
0
 62
7
 10
23.553481791995772
 20
41.300938705513651
 70
0
  0
VERTEX
  5
4C4D5
  8
0
 62
7
 10
23.59482293781878
 20
41.300938705513651
 70
0
  0
VERTEX
  5
4C4D6
  8
0
 62
7
 10
23.68026130585298
 20
41.386204818773592
 70
0
  0
VERTEX
  5
4C4D7
  8
0
 62
7
 10
23.764321635693079
 20
41.386204818773592
 70
0
  0
VERTEX
  5
4C4D8
  8
0
 62
7
 10
23.807040819710181
 20
41.427545964596618
 70
0
  0
VERTEX
  5
4C4D9
  8
0
 62
7
 10
23.84976000372728
 20
41.427545964596618
 70
0
  0
VERTEX
  5
4C4DA
  8
0
 62
7
 10
23.891101149550281
 20
41.470609658162218
 70
0
  0
VERTEX
  5
4C4DB
  8
0
 62
7
 10
23.933820333567379
 20
41.470609658162218
 70
0
  0
VERTEX
  5
4C4DC
  8
0
 62
7
 10
23.97653951758446
 20
41.5133288421793
 70
0
  0
VERTEX
  5
4C4DD
  8
0
 62
7
 10
24.060599847424552
 20
41.555875771422158
 70
0
  0
VERTEX
  5
4C4DE
  8
0
 62
7
 10
24.103319031441661
 20
41.639936101262251
 70
0
  0
VERTEX
  5
4C4DF
  8
0
 62
7
 10
24.188757399475861
 20
41.682655285279338
 70
0
  0
VERTEX
  5
4C4E0
  8
0
 62
7
 10
24.230098545298858
 20
41.723824176328087
 70
0
  0
VERTEX
  5
4C4E1
  8
0
 62
7
 10
24.272817729315971
 20
41.723824176328087
 70
0
  0
VERTEX
  5
4C4E2
  8
0
 62
7
 10
24.315536913333059
 20
41.809607053910831
 70
0
  0
VERTEX
  5
4C4E3
  8
0
 62
7
 10
24.39959724317314
 20
41.85232623792789
 70
0
  0
VERTEX
  5
4C4E4
  8
0
 62
7
 10
24.442316427190239
 20
41.936214312993741
 70
0
  0
VERTEX
  5
4C4E5
  8
0
 62
7
 10
24.485035611207341
 20
41.936214312993741
 70
0
  0
VERTEX
  5
4C4E6
  8
0
 62
7
 10
24.526376757030341
 20
41.97893349701085
 70
0
  0
VERTEX
  5
4C4E7
  8
0
 62
7
 10
24.611815125064538
 20
42.062993826850906
 70
0
  0
VERTEX
  5
4C4E8
  8
0
 62
7
 10
24.653156270887539
 20
42.148259940110847
 70
0
  0
VERTEX
  5
4C4E9
  8
0
 62
7
 10
24.695875454904641
 20
42.1899455954824
 70
0
  0
VERTEX
  5
4C4EA
  8
0
 62
7
 10
24.781313822938841
 20
42.27521170874234
 70
0
  0
VERTEX
  5
4C4EB
  8
0
 62
7
 10
24.822654968761839
 20
42.359272038582453
 70
0
  0
SEQEND
  5
4C4EC
  8
0
  0
POLYLINE
  5
4AB93
  8
0
 62
7
 66
1
 70
0
 10
0
 20
0
 30
0
  0
VERTEX
  5
4C4ED
  8
0
 62
7
 10
22.156151063178442
 20
41.639936101262251
 70
0
  0
VERTEX
  5
4C4EE
  8
0
 62
7
 10
22.19887024719554
 20
41.597216917245113
 70
0
  0
VERTEX
  5
4C4EF
  8
0
 62
7
 10
22.19887024719554
 20
41.427545964596618
 70
0
  0
VERTEX
  5
4C4F0
  8
0
 62
7
 10
22.156151063178442
 20
41.427545964596618
 70
0
  0
SEQEND
  5
4C4F1
  8
0
  0
POLYLINE
  5
4AB99
  8
0
 62
7
 66
1
 70
0
 10
0
 20
0
 30
0
  0
VERTEX
  5
4C4F2
  8
0
 62
7
 10
22.282930577035639
 20
41.639936101262251
 70
0
  0
VERTEX
  5
4C4F3
  8
0
 62
7
 10
22.282930577035639
 20
41.639936101262251
 70
0
  0
SEQEND
  5
4C4F4
  8
0
  0
POLYLINE
  5
4AB9D
  8
0
 62
7
 66
1
 70
0
 10
0
 20
0
 30
0
  0
VERTEX
  5
4C4F5
  8
0
 62
7
 10
24.738594638921739
 20
42.571662175248093
 70
0
  0
VERTEX
  5
4C4F6
  8
0
 62
7
 10
24.738594638921739
 20
42.571662175248093
 70
0
  0
SEQEND
  5
4C4F7
  8
0
  0
POLYLINE
  5
4ABA1
  8
0
 62
7
 66
1
 70
0
 10
0
 20
0
 30
0
  0
VERTEX
  5
4C4F8
  8
0
 62
7
 10
24.738594638921739
 20
42.571662175248093
 70
0
  0
VERTEX
  5
4C4F9
  8
0
 62
7
 10
24.738594638921739
 20
42.528942991230963
 70
0
  0
SEQEND
  5
4C4FA
  8
0
  0
POLYLINE
  5
4ABA5
  8
0
 62
7
 66
1
 70
0
 10
0
 20
0
 30
0
  0
VERTEX
  5
4C4FB
  8
0
 62
7
 10
22.282930577035639
 20
41.682655285279338
 70
0
  0
VERTEX
  5
4C4FC
  8
0
 62
7
 10
22.282930577035639
 20
41.682655285279338
 70
0
  0
SEQEND
  5
4C4FD
  8
0
  0
POLYLINE
  5
4ABA9
  8
0
 62
7
 66
1
 70
0
 10
0
 20
0
 30
0
  0
VERTEX
  5
4C4FE
  8
0
 62
7
 10
24.738594638921739
 20
42.571662175248093
 70
0
  0
VERTEX
  5
4C4FF
  8
0
 62
7
 10
24.781313822938841
 20
42.571662175248093
 70
0
  0
SEQEND
  5
4C500
  8
0
  0
POLYLINE
  5
4ABAD
  8
0
 62
7
 66
1
 70
0
 10
0
 20
0
 30
0
  0
VERTEX
  5
4C501
  8
0
 62
7
 10
24.738594638921739
 20
42.571662175248093
 70
0
  0
VERTEX
  5
4C502
  8
0
 62
7
 10
24.738594638921739
 20
42.571662175248093
 70
0
  0
SEQEND
  5
4C503
  8
0
  0
POLYLINE
  5
4ABB1
  8
0
 62
7
 66
1
 70
0
 10
0
 20
0
 30
0
  0
VERTEX
  5
4C504
  8
0
 62
7
 10
24.865374152778909
 20
42.316552854565323
 70
0
  0
VERTEX
  5
4C505
  8
0
 62
7
 10
24.865374152778909
 20
42.359272038582453
 70
0
  0
VERTEX
  5
4C506
  8
0
 62
7
 10
24.822654968761839
 20
42.359272038582453
 70
0
  0
SEQEND
  5
4C507
  8
0
  0
POLYLINE
  5
4ABB6
  8
0
 62
7
 66
1
 70
0
 10
0
 20
0
 30
0
  0
VERTEX
  5
4C508
  8
0
 62
7
 10
24.822654968761839
 20
42.359272038582453
 70
0
  0
VERTEX
  5
4C509
  8
0
 62
7
 10
24.865374152778909
 20
42.359272038582453
 70
0
  0
VERTEX
  5
4C50A
  8
0
 62
7
 10
24.865374152778909
 20
42.401991222599513
 70
0
  0
VERTEX
  5
4C50B
  8
0
 62
7
 10
24.908093336796021
 20
42.359272038582453
 70
0
  0
SEQEND
  5
4C50C
  8
0
  0
POLYLINE
  5
4ABBC
  8
0
 62
7
 66
1
 70
0
 10
0
 20
0
 30
0
  0
VERTEX
  5
4C50D
  8
0
 62
7
 10
22.156151063178442
 20
41.427545964596618
 70
0
  0
VERTEX
  5
4C50E
  8
0
 62
7
 10
22.156151063178442
 20
41.386204818773592
 70
0
  0
SEQEND
  5
4C50F
  8
0
  0
POLYLINE
  5
4ABC0
  8
0
 62
7
 66
1
 70
0
 10
0
 20
0
 30
0
  0
VERTEX
  5
4C510
  8
0
 62
7
 10
24.738594638921739
 20
42.571662175248093
 70
0
  0
VERTEX
  5
4C511
  8
0
 62
7
 10
24.781313822938841
 20
42.571662175248093
 70
0
  0
SEQEND
  5
4C512
  8
0
  0
POLYLINE
  5
4ABC4
  8
0
 62
7
 66
1
 70
0
 10
0
 20
0
 30
0
  0
VERTEX
  5
4C513
  8
0
 62
7
 10
22.156151063178442
 20
41.639936101262251
 70
0
  0
VERTEX
  5
4C514
  8
0
 62
7
 10
22.156151063178442
 20
41.639936101262251
 70
0
  0
SEQEND
  5
4C515
  8
0
  0
POLYLINE
  5
4ABC8
  8
0
 62
7
 66
1
 70
0
 10
0
 20
0
 30
0
  0
VERTEX
  5
4C516
  8
0
 62
7
 10
22.156151063178442
 20
41.639936101262251
 70
0
  0
VERTEX
  5
4C517
  8
0
 62
7
 10
22.156151063178442
 20
41.597216917245113
 70
0
  0
SEQEND
  5
4C518
  8
0
  0
POLYLINE
  5
4ABCC
  8
0
 62
7
 66
1
 70
0
 10
0
 20
0
 30
0
  0
VERTEX
  5
4C519
  8
0
 62
7
 10
24.908093336796021
 20
42.571662175248093
 70
0
  0
VERTEX
  5
4C51A
  8
0
 62
7
 10
24.908093336796021
 20
42.528942991230963
 70
0
  0
VERTEX
  5
4C51B
  8
0
 62
7
 10
24.865374152778909
 20
42.528942991230963
 70
0
  0
VERTEX
  5
4C51C
  8
0
 62
7
 10
24.865374152778909
 20
42.401991222599513
 70
0
  0
VERTEX
  5
4C51D
  8
0
 62
7
 10
24.908093336796021
 20
42.401991222599513
 70
0
  0
VERTEX
  5
4C51E
  8
0
 62
7
 10
24.908093336796021
 20
42.359272038582453
 70
0
  0
SEQEND
  5
4C51F
  8
0
  0
POLYLINE
  5
4ABD4
  8
0
 62
7
 66
1
 70
0
 10
0
 20
0
 30
0
  0
VERTEX
  5
4C520
  8
0
 62
7
 10
24.822654968761839
 20
42.571662175248093
 70
0
  0
VERTEX
  5
4C521
  8
0
 62
7
 10
24.865374152778909
 20
42.571662175248093
 70
0
  0
VERTEX
  5
4C522
  8
0
 62
7
 10
24.908093336796021
 20
42.571662175248093
 70
0
  0
SEQEND
  5
4C523
  8
0
  0
POLYLINE
  5
4ABD9
  8
0
 62
7
 66
1
 70
0
 10
0
 20
0
 30
0
  0
VERTEX
  5
4C524
  8
0
 62
7
 10
24.865374152778909
 20
42.316552854565323
 70
0
  0
VERTEX
  5
4C525
  8
0
 62
7
 10
24.908093336796021
 20
42.316552854565323
 70
0
  0
VERTEX
  5
4C526
  8
0
 62
7
 10
24.908093336796021
 20
42.359272038582453
 70
0
  0
SEQEND
  5
4C527
  8
0
  0
POLYLINE
  5
4ABDE
  8
0
 62
7
 66
1
 70
0
 10
0
 20
0
 30
0
  0
VERTEX
  5
4C528
  8
0
 62
7
 10
25.077592034670321
 20
42.951828462045377
 70
0
  0
VERTEX
  5
4C529
  8
0
 62
7
 10
25.118933180493311
 20
42.951828462045377
 70
0
  0
VERTEX
  5
4C52A
  8
0
 62
7
 10
25.118933180493311
 20
43.0372668300796
 70
0
  0
VERTEX
  5
4C52B
  8
0
 62
7
 10
25.077592034670321
 20
43.0372668300796
 70
0
  0
SEQEND
  5
4C52C
  8
0
  0
POLYLINE
  5
4ABE4
  8
0
 62
7
 66
1
 70
0
 10
0
 20
0
 30
0
  0
VERTEX
  5
4C52D
  8
0
 62
7
 10
22.19887024719554
 20
41.766543360345139
 70
0
  0
VERTEX
  5
4C52E
  8
0
 62
7
 10
22.156151063178442
 20
41.766543360345139
 70
0
  0
SEQEND
  5
4C52F
  8
0
  0
POLYLINE
  5
4ABE8
  8
0
 62
7
 66
1
 70
0
 10
0
 20
0
 30
0
  0
VERTEX
  5
4C530
  8
0
 62
7
 10
24.695875454904641
 20
42.655550250313922
 70
0
  0
VERTEX
  5
4C531
  8
0
 62
7
 10
24.695875454904641
 20
42.655550250313922
 70
0
  0
SEQEND
  5
4C532
  8
0
  0
POLYLINE
  5
4ABEC
  8
0
 62
7
 66
1
 70
0
 10
0
 20
0
 30
0
  0
VERTEX
  5
4C533
  8
0
 62
7
 10
24.695875454904641
 20
42.655550250313922
 70
0
  0
VERTEX
  5
4C534
  8
0
 62
7
 10
24.695875454904641
 20
42.655550250313922
 70
0
  0
SEQEND
  5
4C535
  8
0
  0
POLYLINE
  5
4ABF0
  8
0
 62
7
 66
1
 70
0
 10
0
 20
0
 30
0
  0
VERTEX
  5
4C536
  8
0
 62
7
 10
24.738594638921739
 20
42.655550250313922
 70
0
  0
VERTEX
  5
4C537
  8
0
 62
7
 10
24.738594638921739
 20
42.655550250313922
 70
0
  0
SEQEND
  5
4C538
  8
0
  0
POLYLINE
  5
4ABF4
  8
0
 62
7
 66
1
 70
0
 10
0
 20
0
 30
0
  0
VERTEX
  5
4C539
  8
0
 62
7
 10
25.077592034670321
 20
43.0372668300796
 70
0
  0
VERTEX
  5
4C53A
  8
0
 62
7
 10
25.077592034670321
 20
43.0372668300796
 70
0
  0
VERTEX
  5
4C53B
  8
0
 62
7
 10
25.118933180493311
 20
42.994547646062472
 70
0
  0
SEQEND
  5
4C53C
  8
0
  0
POLYLINE
  5
4ABF9
  8
0
 62
7
 66
1
 70
0
 10
0
 20
0
 30
0
  0
VERTEX
  5
4C53D
  8
0
 62
7
 10
25.118933180493311
 20
43.0372668300796
 70
0
  0
VERTEX
  5
4C53E
  8
0
 62
7
 10
25.077592034670321
 20
43.0372668300796
 70
0
  0
SEQEND
  5
4C53F
  8
0
  0
POLYLINE
  5
4ABFD
  8
0
 62
7
 66
1
 70
0
 10
0
 20
0
 30
0
  0
VERTEX
  5
4C540
  8
0
 62
7
 10
22.156151063178442
 20
41.766543360345139
 70
0
  0
VERTEX
  5
4C541
  8
0
 62
7
 10
22.156151063178442
 20
41.766543360345139
 70
0
  0
SEQEND
  5
4C542
  8
0
  0
POLYLINE
  5
4AC01
  8
0
 62
7
 66
1
 70
0
 10
0
 20
0
 30
0
  0
VERTEX
  5
4C543
  8
0
 62
7
 10
64.0622925457575
 20
22.59131414421887
 70
0
  0
VERTEX
  5
4C544
  8
0
 62
7
 10
64.0622925457575
 20
22.63403332823594
 70
0
  0
SEQEND
  5
4C545
  8
0
  0
POLYLINE
  5
4AC05
  8
0
 62
7
 66
1
 70
0
 10
0
 20
0
 30
0
  0
VERTEX
  5
4C546
  8
0
 62
7
 10
64.0622925457575
 20
22.845045426707511
 70
0
  0
VERTEX
  5
4C547
  8
0
 62
7
 10
64.0622925457575
 20
22.760640587318878
 70
0
  0
VERTEX
  5
4C548
  8
0
 62
7
 10
64.020951399934475
 20
22.7179214033018
 70
0
  0
VERTEX
  5
4C549
  8
0
 62
7
 10
64.0622925457575
 20
22.7179214033018
 70
0
  0
VERTEX
  5
4C54A
  8
0
 62
7
 10
64.0622925457575
 20
22.63403332823594
 70
0
  0
SEQEND
  5
4C54B
  8
0
  0
POLYLINE
  5
4AC0C
  8
0
 62
7
 66
1
 70
0
 10
0
 20
0
 30
0
  0
VERTEX
  5
4C54C
  8
0
 62
7
 10
64.0622925457575
 20
22.845045426707511
 70
0
  0
VERTEX
  5
4C54D
  8
0
 62
7
 10
64.0622925457575
 20
22.88759235595035
 70
0
  0
SEQEND
  5
4C54E
  8
0
  0
POLYLINE
  5
4AC10
  8
0
 62
7
 66
1
 70
0
 10
0
 20
0
 30
0
  0
VERTEX
  5
4C54F
  8
0
 62
7
 10
24.695875454904641
 20
42.867940386979569
 70
0
  0
VERTEX
  5
4C550
  8
0
 62
7
 10
24.695875454904641
 20
42.867940386979569
 70
0
  0
SEQEND
  5
4C551
  8
0
  0
POLYLINE
  5
4AC14
  8
0
 62
7
 66
1
 70
0
 10
0
 20
0
 30
0
  0
VERTEX
  5
4C552
  8
0
 62
7
 10
64.0622925457575
 20
22.59131414421887
 70
0
  0
VERTEX
  5
4C553
  8
0
 62
7
 10
64.020951399934475
 20
22.548594960201768
 70
0
  0
VERTEX
  5
4C554
  8
0
 62
7
 10
63.978232215917387
 20
22.507426069153009
 70
0
  0
VERTEX
  5
4C555
  8
0
 62
7
 10
63.935513031900292
 20
22.464706885135929
 70
0
  0
VERTEX
  5
4C556
  8
0
 62
7
 10
63.935513031900292
 20
22.4216431915703
 70
0
  0
VERTEX
  5
4C557
  8
0
 62
7
 10
63.851452702060172
 20
22.3803020457473
 70
0
  0
VERTEX
  5
4C558
  8
0
 62
7
 10
63.851452702060172
 20
22.337755116504471
 70
0
  0
VERTEX
  5
4C559
  8
0
 62
7
 10
63.80873351804307
 20
22.295035932487369
 70
0
  0
VERTEX
  5
4C55A
  8
0
 62
7
 10
63.766014334025982
 20
22.252316748470271
 70
0
  0
VERTEX
  5
4C55B
  8
0
 62
7
 10
63.724673188202971
 20
22.21097560264727
 70
0
  0
VERTEX
  5
4C55C
  8
0
 62
7
 10
63.68195400418589
 20
22.21097560264727
 70
0
  0
VERTEX
  5
4C55D
  8
0
 62
7
 10
63.68195400418589
 20
22.125709489387329
 70
0
  0
VERTEX
  5
4C55E
  8
0
 62
7
 10
63.5965156361517
 20
22.125709489387329
 70
0
  0
VERTEX
  5
4C55F
  8
0
 62
7
 10
63.5965156361517
 20
22.08402383401582
 70
0
  0
VERTEX
  5
4C560
  8
0
 62
7
 10
63.55517449032871
 20
22.041304649998722
 70
0
  0
VERTEX
  5
4C561
  8
0
 62
7
 10
63.5124553063116
 20
21.99875772075589
 70
0
  0
VERTEX
  5
4C562
  8
0
 62
7
 10
63.469736122294513
 20
21.956038536738792
 70
0
  0
VERTEX
  5
4C563
  8
0
 62
7
 10
63.428394976471509
 20
21.956038536738792
 70
0
  0
VERTEX
  5
4C564
  8
0
 62
7
 10
63.385675792454407
 20
21.9146973909158
 70
0
  0
VERTEX
  5
4C565
  8
0
 62
7
 10
63.342956608437291
 20
21.871978206898689
 70
0
  0
VERTEX
  5
4C566
  8
0
 62
7
 10
63.3002374244202
 20
21.82925902288159
 70
0
  0
VERTEX
  5
4C567
  8
0
 62
7
 10
63.2588962785972
 20
21.82925902288159
 70
0
  0
VERTEX
  5
4C568
  8
0
 62
7
 10
63.2161770945801
 20
21.78809013183286
 70
0
  0
VERTEX
  5
4C569
  8
0
 62
7
 10
63.17345791056303
 20
21.745370947815761
 70
0
  0
VERTEX
  5
4C56A
  8
0
 62
7
 10
63.132116764740012
 20
21.745370947815761
 70
0
  0
VERTEX
  5
4C56B
  8
0
 62
7
 10
63.089397580722931
 20
21.70230725425014
 70
0
  0
VERTEX
  5
4C56C
  8
0
 62
7
 10
63.046678396705829
 20
21.70230725425014
 70
0
  0
VERTEX
  5
4C56D
  8
0
 62
7
 10
63.046678396705829
 20
21.659588070233038
 70
0
  0
VERTEX
  5
4C56E
  8
0
 62
7
 10
62.962618066865723
 20
21.618419179184311
 70
0
  0
VERTEX
  5
4C56F
  8
0
 62
7
 10
62.919898882848628
 20
21.618419179184311
 70
0
  0
VERTEX
  5
4C570
  8
0
 62
7
 10
62.919898882848628
 20
21.575699995167209
 70
0
  0
VERTEX
  5
4C571
  8
0
 62
7
 10
62.793119368991427
 20
21.575699995167209
 70
0
  0
VERTEX
  5
4C572
  8
0
 62
7
 10
62.793119368991427
 20
21.532980811150111
 70
0
  0
VERTEX
  5
4C573
  8
0
 62
7
 10
62.707681000957251
 20
21.49163966532711
 70
0
  0
VERTEX
  5
4C574
  8
0
 62
7
 10
62.666339855134261
 20
21.49163966532711
 70
0
  0
VERTEX
  5
4C575
  8
0
 62
7
 10
62.58090148710005
 20
21.49163966532711
 70
0
  0
VERTEX
  5
4C576
  8
0
 62
7
 10
62.539560341277031
 20
21.449092736084278
 70
0
  0
VERTEX
  5
4C577
  8
0
 62
7
 10
62.411402789225747
 20
21.449092736084278
 70
0
  0
VERTEX
  5
4C578
  8
0
 62
7
 10
62.327342459385662
 20
21.40637355206718
 70
0
  0
VERTEX
  5
4C579
  8
0
 62
7
 10
62.284623275368538
 20
21.40637355206718
 70
0
  0
VERTEX
  5
4C57A
  8
0
 62
7
 10
62.157843761511373
 20
21.40637355206718
 70
0
  0
VERTEX
  5
4C57B
  8
0
 62
7
 10
62.031064247654172
 20
21.40637355206718
 70
0
  0
VERTEX
  5
4C57C
  8
0
 62
7
 10
61.945625879619961
 20
21.40637355206718
 70
0
  0
VERTEX
  5
4C57D
  8
0
 62
7
 10
61.861565549779861
 20
21.40637355206718
 70
0
  0
VERTEX
  5
4C57E
  8
0
 62
7
 10
61.818846365762781
 20
21.449092736084278
 70
0
  0
VERTEX
  5
4C57F
  8
0
 62
7
 10
61.649347667888492
 20
21.449092736084278
 70
0
  0
VERTEX
  5
4C580
  8
0
 62
7
 10
61.649347667888492
 20
21.49163966532711
 70
0
  0
VERTEX
  5
4C581
  8
0
 62
7
 10
61.565287338048392
 20
21.49163966532711
 70
0
  0
VERTEX
  5
4C582
  8
0
 62
7
 10
61.522568154031269
 20
21.49163966532711
 70
0
  0
SEQEND
  5
4C583
  8
0
  0
POLYLINE
  5
4AC47
  8
0
 62
7
 66
1
 70
0
 10
0
 20
0
 30
0
  0
VERTEX
  5
4C584
  8
0
 62
7
 10
25.034872850653219
 20
42.316552854565323
 70
0
  0
VERTEX
  5
4C585
  8
0
 62
7
 10
25.034872850653219
 20
42.316552854565323
 70
0
  0
VERTEX
  5
4C586
  8
0
 62
7
 10
24.99215366663611
 20
42.359272038582453
 70
0
  0
VERTEX
  5
4C587
  8
0
 62
7
 10
24.99215366663611
 20
42.444538151842387
 70
0
  0
VERTEX
  5
4C588
  8
0
 62
7
 10
25.034872850653219
 20
42.444538151842387
 70
0
  0
VERTEX
  5
4C589
  8
0
 62
7
 10
25.034872850653219
 20
42.528942991230963
 70
0
  0
VERTEX
  5
4C58A
  8
0
 62
7
 10
25.077592034670321
 20
42.528942991230963
 70
0
  0
SEQEND
  5
4C58B
  8
0
  0
POLYLINE
  5
4AC50
  8
0
 62
7
 66
1
 70
0
 10
0
 20
0
 30
0
  0
VERTEX
  5
4C58C
  8
0
 62
7
 10
25.077592034670321
 20
42.528942991230963
 70
0
  0
VERTEX
  5
4C58D
  8
0
 62
7
 10
25.077592034670321
 20
42.528942991230963
 70
0
  0
SEQEND
  5
4C58E
  8
0
  0
POLYLINE
  5
4AC54
  8
0
 62
7
 66
1
 70
0
 10
0
 20
0
 30
0
  0
VERTEX
  5
4C58F
  8
0
 62
7
 10
25.034872850653219
 20
42.27521170874234
 70
0
  0
VERTEX
  5
4C590
  8
0
 62
7
 10
25.034872850653219
 20
42.27521170874234
 70
0
  0
SEQEND
  5
4C591
  8
0
  0
POLYLINE
  5
4AC58
  8
0
 62
7
 66
1
 70
0
 10
0
 20
0
 30
0
  0
VERTEX
  5
4C592
  8
0
 62
7
 10
25.034872850653219
 20
42.27521170874234
 70
0
  0
VERTEX
  5
4C593
  8
0
 62
7
 10
25.034872850653219
 20
42.27521170874234
 70
0
  0
SEQEND
  5
4C594
  8
0
  0
POLYLINE
  5
4AC5C
  8
0
 62
7
 66
1
 70
0
 10
0
 20
0
 30
0
  0
VERTEX
  5
4C595
  8
0
 62
7
 10
25.034872850653219
 20
42.27521170874234
 70
0
  0
VERTEX
  5
4C596
  8
0
 62
7
 10
25.034872850653219
 20
42.316552854565323
 70
0
  0
SEQEND
  5
4C597
  8
0
  0
POLYLINE
  5
4AC60
  8
0
 62
7
 66
1
 70
0
 10
0
 20
0
 30
0
  0
VERTEX
  5
4C598
  8
0
 62
7
 10
22.495148458927041
 20
41.174331446430728
 70
0
  0
VERTEX
  5
4C599
  8
0
 62
7
 10
22.537867642944121
 20
41.174331446430728
 70
0
  0
VERTEX
  5
4C59A
  8
0
 62
7
 10
22.579208788767119
 20
41.131612262413618
 70
0
  0
VERTEX
  5
4C59B
  8
0
 62
7
 10
22.664647156801319
 20
41.131612262413618
 70
0
  0
VERTEX
  5
4C59C
  8
0
 62
7
 10
22.70598830262432
 20
41.089926607042088
 70
0
  0
VERTEX
  5
4C59D
  8
0
 62
7
 10
22.748707486641411
 20
41.089926607042088
 70
0
  0
VERTEX
  5
4C59E
  8
0
 62
7
 10
22.791426670658531
 20
41.047207423025043
 70
0
  0
VERTEX
  5
4C59F
  8
0
 62
7
 10
23.2144843962472
 20
41.047207423025043
 70
0
  0
VERTEX
  5
4C5A0
  8
0
 62
7
 10
23.3412639101044
 20
41.047207423025043
 70
0
  0
VERTEX
  5
4C5A1
  8
0
 62
7
 10
23.42670227813861
 20
41.089926607042088
 70
0
  0
VERTEX
  5
4C5A2
  8
0
 62
7
 10
23.4680434239616
 20
41.089926607042088
 70
0
  0
VERTEX
  5
4C5A3
  8
0
 62
7
 10
23.553481791995772
 20
41.131612262413618
 70
0
  0
VERTEX
  5
4C5A4
  8
0
 62
7
 10
23.59482293781878
 20
41.131612262413618
 70
0
  0
VERTEX
  5
4C5A5
  8
0
 62
7
 10
23.68026130585298
 20
41.131612262413618
 70
0
  0
VERTEX
  5
4C5A6
  8
0
 62
7
 10
23.722980489870078
 20
41.174331446430728
 70
0
  0
VERTEX
  5
4C5A7
  8
0
 62
7
 10
23.807040819710181
 20
41.174331446430728
 70
0
  0
VERTEX
  5
4C5A8
  8
0
 62
7
 10
23.84976000372728
 20
41.216878375673559
 70
0
  0
VERTEX
  5
4C5A9
  8
0
 62
7
 10
23.84976000372728
 20
41.259597559690683
 70
0
  0
VERTEX
  5
4C5AA
  8
0
 62
7
 10
23.933820333567379
 20
41.259597559690683
 70
0
  0
VERTEX
  5
4C5AB
  8
0
 62
7
 10
23.97653951758446
 20
41.300938705513651
 70
0
  0
VERTEX
  5
4C5AC
  8
0
 62
7
 10
24.060599847424552
 20
41.300938705513651
 70
0
  0
VERTEX
  5
4C5AD
  8
0
 62
7
 10
24.103319031441661
 20
41.343657889530782
 70
0
  0
VERTEX
  5
4C5AE
  8
0
 62
7
 10
24.103319031441661
 20
41.386204818773592
 70
0
  0
VERTEX
  5
4C5AF
  8
0
 62
7
 10
24.188757399475861
 20
41.386204818773592
 70
0
  0
VERTEX
  5
4C5B0
  8
0
 62
7
 10
24.230098545298858
 20
41.427545964596618
 70
0
  0
VERTEX
  5
4C5B1
  8
0
 62
7
 10
24.230098545298858
 20
41.470609658162218
 70
0
  0
VERTEX
  5
4C5B2
  8
0
 62
7
 10
24.315536913333059
 20
41.5133288421793
 70
0
  0
VERTEX
  5
4C5B3
  8
0
 62
7
 10
24.35687805915606
 20
41.555875771422158
 70
0
  0
VERTEX
  5
4C5B4
  8
0
 62
7
 10
24.442316427190239
 20
41.597216917245113
 70
0
  0
VERTEX
  5
4C5B5
  8
0
 62
7
 10
24.442316427190239
 20
41.639936101262251
 70
0
  0
VERTEX
  5
4C5B6
  8
0
 62
7
 10
24.485035611207341
 20
41.639936101262251
 70
0
  0
VERTEX
  5
4C5B7
  8
0
 62
7
 10
24.526376757030341
 20
41.682655285279338
 70
0
  0
VERTEX
  5
4C5B8
  8
0
 62
7
 10
24.56909594104744
 20
41.723824176328087
 70
0
  0
VERTEX
  5
4C5B9
  8
0
 62
7
 10
24.611815125064538
 20
41.766543360345139
 70
0
  0
VERTEX
  5
4C5BA
  8
0
 62
7
 10
24.653156270887539
 20
41.809607053910831
 70
0
  0
VERTEX
  5
4C5BB
  8
0
 62
7
 10
24.695875454904641
 20
41.809607053910831
 70
0
  0
VERTEX
  5
4C5BC
  8
0
 62
7
 10
24.738594638921739
 20
41.893495128976653
 70
0
  0
VERTEX
  5
4C5BD
  8
0
 62
7
 10
24.781313822938841
 20
41.936214312993741
 70
0
  0
VERTEX
  5
4C5BE
  8
0
 62
7
 10
24.822654968761839
 20
42.02027464283384
 70
0
  0
VERTEX
  5
4C5BF
  8
0
 62
7
 10
24.865374152778909
 20
42.02027464283384
 70
0
  0
VERTEX
  5
4C5C0
  8
0
 62
7
 10
24.865374152778909
 20
42.062993826850906
 70
0
  0
VERTEX
  5
4C5C1
  8
0
 62
7
 10
24.949434482619012
 20
42.148259940110847
 70
0
  0
VERTEX
  5
4C5C2
  8
0
 62
7
 10
24.949434482619012
 20
42.1899455954824
 70
0
  0
SEQEND
  5
4C5C3
  8
0
  0
POLYLINE
  5
4AC8D
  8
0
 62
7
 66
1
 70
0
 10
0
 20
0
 30
0
  0
VERTEX
  5
4C5C4
  8
0
 62
7
 10
25.077592034670321
 20
42.528942991230963
 70
0
  0
VERTEX
  5
4C5C5
  8
0
 62
7
 10
25.077592034670321
 20
42.528942991230963
 70
0
  0
SEQEND
  5
4C5C6
  8
0
  0
POLYLINE
  5
4AC91
  8
0
 62
7
 66
1
 70
0
 10
0
 20
0
 30
0
  0
VERTEX
  5
4C5C7
  8
0
 62
7
 10
28.379371547733768
 20
41.97893349701085
 70
0
  0
VERTEX
  5
4C5C8
  8
0
 62
7
 10
28.379371547733768
 20
41.97893349701085
 70
0
  0
SEQEND
  5
4C5C9
  8
0
  0
POLYLINE
  5
4AC95
  8
0
 62
7
 66
1
 70
0
 10
0
 20
0
 30
0
  0
VERTEX
  5
4C5CA
  8
0
 62
7
 10
28.379371547733768
 20
41.97893349701085
 70
0
  0
VERTEX
  5
4C5CB
  8
0
 62
7
 10
28.379371547733768
 20
41.97893349701085
 70
0
  0
SEQEND
  5
4C5CC
  8
0
  0
POLYLINE
  5
4AC99
  8
0
 62
7
 66
1
 70
0
 10
0
 20
0
 30
0
  0
VERTEX
  5
4C5CD
  8
0
 62
7
 10
60.506954004979633
 20
25.80903332744219
 70
0
  0
VERTEX
  5
4C5CE
  8
0
 62
7
 10
60.506954004979633
 20
25.80903332744219
 70
0
  0
SEQEND
  5
4C5CF
  8
0
  0
POLYLINE
  5
4AC9D
  8
0
 62
7
 66
1
 70
0
 10
0
 20
0
 30
0
  0
VERTEX
  5
4C5D0
  8
0
 62
7
 10
60.506954004979633
 20
25.80903332744219
 70
0
  0
VERTEX
  5
4C5D1
  8
0
 62
7
 10
60.506954004979633
 20
25.80903332744219
 70
0
  0
SEQEND
  5
4C5D2
  8
0
  0
POLYLINE
  5
4ACA1
  8
0
 62
7
 66
1
 70
0
 10
0
 20
0
 30
0
  0
VERTEX
  5
4C5D3
  8
0
 62
7
 10
21.98665236530417
 20
41.639936101262251
 70
0
  0
VERTEX
  5
4C5D4
  8
0
 62
7
 10
21.98665236530417
 20
41.682655285279338
 70
0
  0
VERTEX
  5
4C5D5
  8
0
 62
7
 10
22.029371549321269
 20
41.682655285279338
 70
0
  0
SEQEND
  5
4C5D6
  8
0
  0
POLYLINE
  5
4ACA6
  8
0
 62
7
 66
1
 70
0
 10
0
 20
0
 30
0
  0
VERTEX
  5
4C5D7
  8
0
 62
7
 10
24.908093336796021
 20
42.698269434330967
 70
0
  0
VERTEX
  5
4C5D8
  8
0
 62
7
 10
24.908093336796021
 20
42.698269434330967
 70
0
  0
SEQEND
  5
4C5D9
  8
0
  0
POLYLINE
  5
4ACAA
  8
0
 62
7
 66
1
 70
0
 10
0
 20
0
 30
0
  0
VERTEX
  5
4C5DA
  8
0
 62
7
 10
26.26270488159625
 20
42.105540756093767
 70
0
  0
VERTEX
  5
4C5DB
  8
0
 62
7
 10
26.30404602741925
 20
42.105540756093767
 70
0
  0
VERTEX
  5
4C5DC
  8
0
 62
7
 10
26.34676521143636
 20
42.105540756093767
 70
0
  0
VERTEX
  5
4C5DD
  8
0
 62
7
 10
26.34676521143636
 20
42.1899455954824
 70
0
  0
SEQEND
  5
4C5DE
  8
0
  0
POLYLINE
  5
4ACB0
  8
0
 62
7
 66
1
 70
0
 10
0
 20
0
 30
0
  0
VERTEX
  5
4C5DF
  8
0
 62
7
 10
20.632040820503931
 20
40.115998113361947
 70
0
  0
VERTEX
  5
4C5E0
  8
0
 62
7
 10
20.632040820503931
 20
40.115998113361947
 70
0
  0
VERTEX
  5
4C5E1
  8
0
 62
7
 10
20.590699674680941
 20
40.073278929344887
 70
0
  0
SEQEND
  5
4C5E2
  8
0
  0
POLYLINE
  5
4ACB5
  8
0
 62
7
 66
1
 70
0
 10
0
 20
0
 30
0
  0
VERTEX
  5
4C5E3
  8
0
 62
7
 10
28.379371547733768
 20
41.97893349701085
 70
0
  0
VERTEX
  5
4C5E4
  8
0
 62
7
 10
28.379371547733768
 20
41.936214312993741
 70
0
  0
SEQEND
  5
4C5E5
  8
0
  0
POLYLINE
  5
4ACB9
  8
0
 62
7
 66
1
 70
0
 10
0
 20
0
 30
0
  0
VERTEX
  5
4C5E6
  8
0
 62
7
 10
24.695875454904641
 20
43.926273720048279
 70
0
  0
VERTEX
  5
4C5E7
  8
0
 62
7
 10
24.738594638921739
 20
43.926273720048279
 70
0
  0
SEQEND
  5
4C5E8
  8
0
  0
POLYLINE
  5
4ACBD
  8
0
 62
7
 66
1
 70
0
 10
0
 20
0
 30
0
  0
VERTEX
  5
4C5E9
  8
0
 62
7
 10
60.506954004979633
 20
25.80903332744219
 70
0
  0
VERTEX
  5
4C5EA
  8
0
 62
7
 10
60.506954004979633
 20
25.76631414342512
 70
0
  0
SEQEND
  5
4C5EB
  8
0
  0
POLYLINE
  5
4ACC1
  8
0
 62
7
 66
1
 70
0
 10
0
 20
0
 30
0
  0
VERTEX
  5
4C5EC
  8
0
 62
7
 10
22.19887024719554
 20
43.0372668300796
 70
0
  0
VERTEX
  5
4C5ED
  8
0
 62
7
 10
22.19887024719554
 20
43.0372668300796
 70
0
  0
SEQEND
  5
4C5EE
  8
0
  0
POLYLINE
  5
4ACC5
  8
0
 62
7
 66
1
 70
0
 10
0
 20
0
 30
0
  0
VERTEX
  5
4C5EF
  8
0
 62
7
 10
22.156151063178442
 20
41.723824176328087
 70
0
  0
VERTEX
  5
4C5F0
  8
0
 62
7
 10
22.156151063178442
 20
41.766543360345139
 70
0
  0
VERTEX
  5
4C5F1
  8
0
 62
7
 10
22.19887024719554
 20
41.766543360345139
 70
0
  0
SEQEND
  5
4C5F2
  8
0
  0
POLYLINE
  5
4ACCA
  8
0
 62
7
 66
1
 70
0
 10
0
 20
0
 30
0
  0
VERTEX
  5
4C5F3
  8
0
 62
7
 10
24.738594638921739
 20
42.655550250313922
 70
0
  0
VERTEX
  5
4C5F4
  8
0
 62
7
 10
24.738594638921739
 20
42.655550250313922
 70
0
  0
SEQEND
  5
4C5F5
  8
0
  0
POLYLINE
  5
4ACCE
  8
0
 62
7
 66
1
 70
0
 10
0
 20
0
 30
0
  0
VERTEX
  5
4C5F6
  8
0
 62
7
 10
64.147730913791662
 20
24.072705202876289
 70
0
  0
VERTEX
  5
4C5F7
  8
0
 62
7
 10
64.189072059614659
 20
24.072705202876289
 70
0
  0
VERTEX
  5
4C5F8
  8
0
 62
7
 10
64.189072059614659
 20
24.031364057053281
 70
0
  0
SEQEND
  5
4C5F9
  8
0
  0
POLYLINE
  5
4ACD3
  8
0
 62
7
 66
1
 70
0
 10
0
 20
0
 30
0
  0
VERTEX
  5
4C5FA
  8
0
 62
7
 10
28.293933179699572
 20
41.893495128976653
 70
0
  0
VERTEX
  5
4C5FB
  8
0
 62
7
 10
28.293933179699572
 20
41.85232623792789
 70
0
  0
SEQEND
  5
4C5FC
  8
0
  0
POLYLINE
  5
4ACD7
  8
0
 62
7
 66
1
 70
0
 10
0
 20
0
 30
0
  0
VERTEX
  5
4C5FD
  8
0
 62
7
 10
28.379371547733768
 20
41.639936101262251
 70
0
  0
VERTEX
  5
4C5FE
  8
0
 62
7
 10
28.379371547733768
 20
41.639936101262251
 70
0
  0
SEQEND
  5
4C5FF
  8
0
  0
POLYLINE
  5
4ACDB
  8
0
 62
7
 66
1
 70
0
 10
0
 20
0
 30
0
  0
VERTEX
  5
4C600
  8
0
 62
7
 10
28.379371547733768
 20
41.639936101262251
 70
0
  0
VERTEX
  5
4C601
  8
0
 62
7
 10
28.379371547733768
 20
41.639936101262251
 70
0
  0
SEQEND
  5
4C602
  8
0
  0
POLYLINE
  5
4ACDF
  8
0
 62
7
 66
1
 70
0
 10
0
 20
0
 30
0
  0
VERTEX
  5
4C603
  8
0
 62
7
 10
28.379371547733768
 20
41.639936101262251
 70
0
  0
VERTEX
  5
4C604
  8
0
 62
7
 10
28.379371547733768
 20
41.639936101262251
 70
0
  0
SEQEND
  5
4C605
  8
0
  0
POLYLINE
  5
4ACE3
  8
0
 62
7
 66
1
 70
0
 10
0
 20
0
 30
0
  0
VERTEX
  5
4C606
  8
0
 62
7
 10
60.422893675139527
 20
25.682426068359259
 70
0
  0
VERTEX
  5
4C607
  8
0
 62
7
 10
60.422893675139527
 20
25.639706884342189
 70
0
  0
SEQEND
  5
4C608
  8
0
  0
POLYLINE
  5
4ACE7
  8
0
 62
7
 66
1
 70
0
 10
0
 20
0
 30
0
  0
VERTEX
  5
4C609
  8
0
 62
7
 10
60.506954004979633
 20
25.470035931693609
 70
0
  0
VERTEX
  5
4C60A
  8
0
 62
7
 10
60.506954004979633
 20
25.470035931693609
 70
0
  0
SEQEND
  5
4C60B
  8
0
  0
POLYLINE
  5
4ACEB
  8
0
 62
7
 66
1
 70
0
 10
0
 20
0
 30
0
  0
VERTEX
  5
4C60C
  8
0
 62
7
 10
60.506954004979633
 20
25.470035931693609
 70
0
  0
VERTEX
  5
4C60D
  8
0
 62
7
 10
60.506954004979633
 20
25.42731674767651
 70
0
  0
SEQEND
  5
4C60E
  8
0
  0
POLYLINE
  5
4ACEF
  8
0
 62
7
 66
1
 70
0
 10
0
 20
0
 30
0
  0
VERTEX
  5
4C60F
  8
0
 62
7
 10
60.506954004979633
 20
25.42731674767651
 70
0
  0
VERTEX
  5
4C610
  8
0
 62
7
 10
60.506954004979633
 20
25.42731674767651
 70
0
  0
SEQEND
  5
4C611
  8
0
  0
POLYLINE
  5
4ACF3
  8
0
 62
7
 66
1
 70
0
 10
0
 20
0
 30
0
  0
VERTEX
  5
4C612
  8
0
 62
7
 10
28.463431877573871
 20
41.766543360345139
 70
0
  0
VERTEX
  5
4C613
  8
0
 62
7
 10
28.463431877573871
 20
41.766543360345139
 70
0
  0
SEQEND
  5
4C614
  8
0
  0
POLYLINE
  5
4ACF7
  8
0
 62
7
 66
1
 70
0
 10
0
 20
0
 30
0
  0
VERTEX
  5
4C615
  8
0
 62
7
 10
28.379371547733768
 20
41.639936101262251
 70
0
  0
VERTEX
  5
4C616
  8
0
 62
7
 10
28.379371547733768
 20
41.639936101262251
 70
0
  0
SEQEND
  5
4C617
  8
0
  0
POLYLINE
  5
4ACFB
  8
0
 62
7
 66
1
 70
0
 10
0
 20
0
 30
0
  0
VERTEX
  5
4C618
  8
0
 62
7
 10
60.506954004979633
 20
25.470035931693609
 70
0
  0
VERTEX
  5
4C619
  8
0
 62
7
 10
60.506954004979633
 20
25.42731674767651
 70
0
  0
SEQEND
  5
4C61A
  8
0
  0
POLYLINE
  5
4ACFF
  8
0
 62
7
 66
1
 70
0
 10
0
 20
0
 30
0
  0
VERTEX
  5
4C61B
  8
0
 62
7
 10
60.59239237301383
 20
25.596643190776561
 70
0
  0
VERTEX
  5
4C61C
  8
0
 62
7
 10
60.59239237301383
 20
25.553924006759448
 70
0
  0
SEQEND
  5
4C61D
  8
0
  0
POLYLINE
  5
4AD03
  8
0
 62
7
 66
1
 70
0
 10
0
 20
0
 30
0
  0
VERTEX
  5
4C61E
  8
0
 62
7
 10
24.738594638921739
 20
42.655550250313922
 70
0
  0
VERTEX
  5
4C61F
  8
0
 62
7
 10
24.738594638921739
 20
42.655550250313922
 70
0
  0
SEQEND
  5
4C620
  8
0
  0
POLYLINE
  5
4AD07
  8
0
 62
7
 66
1
 70
0
 10
0
 20
0
 30
0
  0
VERTEX
  5
4C621
  8
0
 62
7
 10
24.738594638921739
 20
43.926273720048279
 70
0
  0
VERTEX
  5
4C622
  8
0
 62
7
 10
24.738594638921739
 20
43.926273720048279
 70
0
  0
SEQEND
  5
4C623
  8
0
  0
POLYLINE
  5
4B1D4
  8
0
 62
7
 66
1
 70
8
  0
VERTEX
  5
4B1D5
  8
0
 62
7
 10
20.5907
 20
40.0733
 30
0
 70
32
  0
VERTEX
  5
4B1D6
  8
0
 62
7
 10
20.5907
 20
40.0733
 30
0
 70
32
  0
VERTEX
  5
4B1D7
  8
0
 62
7
 10
20.5907
 20
40.0733
 30
0
 70
32
  0
VERTEX
  5
4B1D8
  8
0
 62
7
 10
20.5907
 20
40.0734
 30
0
 70
32
  0
VERTEX
  5
4B1D9
  8
0
 62
7
 10
20.5907
 20
40.0735
 30
0
 70
32
  0
VERTEX
  5
4B1DA
  8
0
 62
7
 10
20.5907
 20
40.0736
 30
0
 70
32
  0
VERTEX
  5
4B1DB
  8
0
 62
7
 10
20.5907
 20
40.0737
 30
0
 70
32
  0
VERTEX
  5
4B1DC
  8
0
 62
7
 10
20.5907
 20
40.0738
 30
0
 70
32
  0
VERTEX
  5
4B1DD
  8
0
 62
7
 10
20.5907
 20
40.073999999999991
 30
0
 70
32
  0
VERTEX
  5
4B1DE
  8
0
 62
7
 10
20.5907
 20
40.074199999999983
 30
0
 70
32
  0
VERTEX
  5
4B1DF
  8
0
 62
7
 10
20.5907
 20
40.07439999999999
 30
0
 70
32
  0
VERTEX
  5
4B1E0
  8
0
 62
7
 10
20.5907
 20
40.0746
 30
0
 70
32
  0
VERTEX
  5
4B1E1
  8
0
 62
7
 10
20.5907
 20
40.074899999999992
 30
0
 70
32
  0
VERTEX
  5
4B1E2
  8
0
 62
7
 10
20.5907
 20
40.075099999999992
 30
0
 70
32
  0
VERTEX
  5
4B1E3
  8
0
 62
7
 10
20.5907
 20
40.0754
 30
0
 70
32
  0
VERTEX
  5
4B1E4
  8
0
 62
7
 10
20.5907
 20
40.0757
 30
0
 70
32
  0
VERTEX
  5
4B1E5
  8
0
 62
7
 10
20.5907
 20
40.076
 30
0
 70
32
  0
VERTEX
  5
4B1E6
  8
0
 62
7
 10
20.5907
 20
40.0763
 30
0
 70
32
  0
VERTEX
  5
4B1E7
  8
0
 62
7
 10
20.5907
 20
40.0767
 30
0
 70
32
  0
VERTEX
  5
4B1E8
  8
0
 62
7
 10
20.5907
 20
40.0771
 30
0
 70
32
  0
VERTEX
  5
4B1E9
  8
0
 62
7
 10
20.5907
 20
40.0774
 30
0
 70
32
  0
VERTEX
  5
4B1EA
  8
0
 62
7
 10
20.5907
 20
40.0778
 30
0
 70
32
  0
VERTEX
  5
4B1EB
  8
0
 62
7
 10
20.5907
 20
40.0782
 30
0
 70
32
  0
VERTEX
  5
4B1EC
  8
0
 62
7
 10
20.5907
 20
40.078599999999987
 30
0
 70
32
  0
VERTEX
  5
4B1ED
  8
0
 62
7
 10
20.5907
 20
40.079099999999983
 30
0
 70
32
  0
VERTEX
  5
4B1EE
  8
0
 62
7
 10
20.5907
 20
40.0795
 30
0
 70
32
  0
VERTEX
  5
4B1EF
  8
0
 62
7
 10
20.5907
 20
40.08
 30
0
 70
32
  0
VERTEX
  5
4B1F0
  8
0
 62
7
 10
20.5907
 20
40.080499999999986
 30
0
 70
32
  0
VERTEX
  5
4B1F1
  8
0
 62
7
 10
20.5907
 20
40.0809
 30
0
 70
32
  0
VERTEX
  5
4B1F2
  8
0
 62
7
 10
20.5907
 20
40.0814
 30
0
 70
32
  0
VERTEX
  5
4B1F3
  8
0
 62
7
 10
20.5907
 20
40.08189999999999
 30
0
 70
32
  0
VERTEX
  5
4B1F4
  8
0
 62
7
 10
20.5907
 20
40.082399999999993
 30
0
 70
32
  0
VERTEX
  5
4B1F5
  8
0
 62
7
 10
20.5907
 20
40.083
 30
0
 70
32
  0
VERTEX
  5
4B1F6
  8
0
 62
7
 10
20.5907
 20
40.0835
 30
0
 70
32
  0
VERTEX
  5
4B1F7
  8
0
 62
7
 10
20.5907
 20
40.084
 30
0
 70
32
  0
VERTEX
  5
4B1F8
  8
0
 62
7
 10
20.5907
 20
40.0846
 30
0
 70
32
  0
VERTEX
  5
4B1F9
  8
0
 62
7
 10
20.5907
 20
40.0851
 30
0
 70
32
  0
VERTEX
  5
4B1FA
  8
0
 62
7
 10
20.5907
 20
40.0857
 30
0
 70
32
  0
VERTEX
  5
4B1FB
  8
0
 62
7
 10
20.5907
 20
40.0863
 30
0
 70
32
  0
VERTEX
  5
4B1FC
  8
0
 62
7
 10
20.5907
 20
40.0868
 30
0
 70
32
  0
VERTEX
  5
4B1FD
  8
0
 62
7
 10
20.5907
 20
40.0874
 30
0
 70
32
  0
VERTEX
  5
4B1FE
  8
0
 62
7
 10
20.5907
 20
40.087999999999987
 30
0
 70
32
  0
VERTEX
  5
4B1FF
  8
0
 62
7
 10
20.5907
 20
40.0886
 30
0
 70
32
  0
VERTEX
  5
4B200
  8
0
 62
7
 10
20.5907
 20
40.089199999999977
 30
0
 70
32
  0
VERTEX
  5
4B201
  8
0
 62
7
 10
20.5907
 20
40.0898
 30
0
 70
32
  0
VERTEX
  5
4B202
  8
0
 62
7
 10
20.5907
 20
40.0904
 30
0
 70
32
  0
VERTEX
  5
4B203
  8
0
 62
7
 10
20.5907
 20
40.091
 30
0
 70
32
  0
VERTEX
  5
4B204
  8
0
 62
7
 10
20.5907
 20
40.0916
 30
0
 70
32
  0
VERTEX
  5
4B205
  8
0
 62
7
 10
20.5907
 20
40.0922
 30
0
 70
32
  0
VERTEX
  5
4B206
  8
0
 62
7
 10
20.5907
 20
40.0929
 30
0
 70
32
  0
VERTEX
  5
4B207
  8
0
 62
7
 10
20.5907
 20
40.0935
 30
0
 70
32
  0
VERTEX
  5
4B208
  8
0
 62
7
 10
20.5907
 20
40.09409999999999
 30
0
 70
32
  0
VERTEX
  5
4B209
  8
0
 62
7
 10
20.5907
 20
40.0947
 30
0
 70
32
  0
VERTEX
  5
4B20A
  8
0
 62
7
 10
20.5907
 20
40.0953
 30
0
 70
32
  0
VERTEX
  5
4B20B
  8
0
 62
7
 10
20.5907
 20
40.095999999999982
 30
0
 70
32
  0
VERTEX
  5
4B20C
  8
0
 62
7
 10
20.5907
 20
40.0966
 30
0
 70
32
  0
VERTEX
  5
4B20D
  8
0
 62
7
 10
20.5907
 20
40.0972
 30
0
 70
32
  0
VERTEX
  5
4B20E
  8
0
 62
7
 10
20.5907
 20
40.0978
 30
0
 70
32
  0
VERTEX
  5
4B20F
  8
0
 62
7
 10
20.5907
 20
40.098399999999991
 30
0
 70
32
  0
VERTEX
  5
4B210
  8
0
 62
7
 10
20.5907
 20
40.099
 30
0
 70
32
  0
VERTEX
  5
4B211
  8
0
 62
7
 10
20.5907
 20
40.0996
 30
0
 70
32
  0
VERTEX
  5
4B212
  8
0
 62
7
 10
20.5907
 20
40.100199999999987
 30
0
 70
32
  0
VERTEX
  5
4B213
  8
0
 62
7
 10
20.5907
 20
40.1008
 30
0
 70
32
  0
VERTEX
  5
4B214
  8
0
 62
7
 10
20.5907
 20
40.101399999999977
 30
0
 70
32
  0
VERTEX
  5
4B215
  8
0
 62
7
 10
20.5907
 20
40.102
 30
0
 70
32
  0
VERTEX
  5
4B216
  8
0
 62
7
 10
20.5907
 20
40.1026
 30
0
 70
32
  0
VERTEX
  5
4B217
  8
0
 62
7
 10
20.5907
 20
40.103099999999991
 30
0
 70
32
  0
VERTEX
  5
4B218
  8
0
 62
7
 10
20.5907
 20
40.1037
 30
0
 70
32
  0
VERTEX
  5
4B219
  8
0
 62
7
 10
20.5907
 20
40.1043
 30
0
 70
32
  0
VERTEX
  5
4B21A
  8
0
 62
7
 10
20.5907
 20
40.1048
 30
0
 70
32
  0
VERTEX
  5
4B21B
  8
0
 62
7
 10
20.5907
 20
40.1054
 30
0
 70
32
  0
VERTEX
  5
4B21C
  8
0
 62
7
 10
20.5907
 20
40.105899999999991
 30
0
 70
32
  0
VERTEX
  5
4B21D
  8
0
 62
7
 10
20.5907
 20
40.1064
 30
0
 70
32
  0
VERTEX
  5
4B21E
  8
0
 62
7
 10
20.5907
 20
40.106999999999992
 30
0
 70
32
  0
VERTEX
  5
4B21F
  8
0
 62
7
 10
20.5907
 20
40.1075
 30
0
 70
32
  0
VERTEX
  5
4B220
  8
0
 62
7
 10
20.5907
 20
40.107999999999983
 30
0
 70
32
  0
VERTEX
  5
4B221
  8
0
 62
7
 10
20.5907
 20
40.1085
 30
0
 70
32
  0
VERTEX
  5
4B222
  8
0
 62
7
 10
20.5907
 20
40.108899999999977
 30
0
 70
32
  0
VERTEX
  5
4B223
  8
0
 62
7
 10
20.5907
 20
40.1094
 30
0
 70
32
  0
VERTEX
  5
4B224
  8
0
 62
7
 10
20.5907
 20
40.1099
 30
0
 70
32
  0
VERTEX
  5
4B225
  8
0
 62
7
 10
20.5907
 20
40.1103
 30
0
 70
32
  0
VERTEX
  5
4B226
  8
0
 62
7
 10
20.5907
 20
40.1107
 30
0
 70
32
  0
VERTEX
  5
4B227
  8
0
 62
7
 10
20.5907
 20
40.1112
 30
0
 70
32
  0
VERTEX
  5
4B228
  8
0
 62
7
 10
20.5907
 20
40.1116
 30
0
 70
32
  0
VERTEX
  5
4B229
  8
0
 62
7
 10
20.5907
 20
40.1119
 30
0
 70
32
  0
VERTEX
  5
4B22A
  8
0
 62
7
 10
20.5907
 20
40.1123
 30
0
 70
32
  0
VERTEX
  5
4B22B
  8
0
 62
7
 10
20.5907
 20
40.112699999999982
 30
0
 70
32
  0
VERTEX
  5
4B22C
  8
0
 62
7
 10
20.5907
 20
40.113
 30
0
 70
32
  0
VERTEX
  5
4B22D
  8
0
 62
7
 10
20.5907
 20
40.1133
 30
0
 70
32
  0
VERTEX
  5
4B22E
  8
0
 62
7
 10
20.5907
 20
40.1137
 30
0
 70
32
  0
VERTEX
  5
4B22F
  8
0
 62
7
 10
20.5907
 20
40.1139
 30
0
 70
32
  0
VERTEX
  5
4B230
  8
0
 62
7
 10
20.5907
 20
40.1142
 30
0
 70
32
  0
VERTEX
  5
4B231
  8
0
 62
7
 10
20.5907
 20
40.114499999999992
 30
0
 70
32
  0
VERTEX
  5
4B232
  8
0
 62
7
 10
20.5907
 20
40.1147
 30
0
 70
32
  0
VERTEX
  5
4B233
  8
0
 62
7
 10
20.5907
 20
40.1149
 30
0
 70
32
  0
VERTEX
  5
4B234
  8
0
 62
7
 10
20.5907
 20
40.1151
 30
0
 70
32
  0
VERTEX
  5
4B235
  8
0
 62
7
 10
20.5907
 20
40.115299999999991
 30
0
 70
32
  0
VERTEX
  5
4B236
  8
0
 62
7
 10
20.5907
 20
40.115499999999983
 30
0
 70
32
  0
VERTEX
  5
4B237
  8
0
 62
7
 10
20.5907
 20
40.1156
 30
0
 70
32
  0
VERTEX
  5
4B238
  8
0
 62
7
 10
20.5907
 20
40.115699999999983
 30
0
 70
32
  0
VERTEX
  5
4B239
  8
0
 62
7
 10
20.5907
 20
40.1158
 30
0
 70
32
  0
VERTEX
  5
4B23A
  8
0
 62
7
 10
20.5907
 20
40.1159
 30
0
 70
32
  0
VERTEX
  5
4B23B
  8
0
 62
7
 10
20.5907
 20
40.116
 30
0
 70
32
  0
VERTEX
  5
4B23C
  8
0
 62
7
 10
20.5907
 20
40.116
 30
0
 70
32
  0
VERTEX
  5
4B23D
  8
0
 62
7
 10
20.5907
 20
40.116
 30
0
 70
32
  0
VERTEX
  5
4B23E
  8
0
 62
7
 10
20.5907
 20
40.116
 30
0
 70
32
  0
VERTEX
  5
4B23F
  8
0
 62
7
 10
20.5906
 20
40.116
 30
0
 70
32
  0
VERTEX
  5
4B240
  8
0
 62
7
 10
20.5906
 20
40.116
 30
0
 70
32
  0
VERTEX
  5
4B241
  8
0
 62
7
 10
20.5905
 20
40.116
 30
0
 70
32
  0
VERTEX
  5
4B242
  8
0
 62
7
 10
20.5904
 20
40.116
 30
0
 70
32
  0
VERTEX
  5
4B243
  8
0
 62
7
 10
20.5903
 20
40.116
 30
0
 70
32
  0
VERTEX
  5
4B244
  8
0
 62
7
 10
20.5901
 20
40.116
 30
0
 70
32
  0
VERTEX
  5
4B245
  8
0
 62
7
 10
20.5899
 20
40.116
 30
0
 70
32
  0
VERTEX
  5
4B246
  8
0
 62
7
 10
20.5897
 20
40.116
 30
0
 70
32
  0
VERTEX
  5
4B247
  8
0
 62
7
 10
20.5895
 20
40.116
 30
0
 70
32
  0
VERTEX
  5
4B248
  8
0
 62
7
 10
20.5893
 20
40.116
 30
0
 70
32
  0
VERTEX
  5
4B249
  8
0
 62
7
 10
20.5891
 20
40.116
 30
0
 70
32
  0
VERTEX
  5
4B24A
  8
0
 62
7
 10
20.5888
 20
40.116
 30
0
 70
32
  0
VERTEX
  5
4B24B
  8
0
 62
7
 10
20.5885
 20
40.116
 30
0
 70
32
  0
VERTEX
  5
4B24C
  8
0
 62
7
 10
20.5882
 20
40.116
 30
0
 70
32
  0
VERTEX
  5
4B24D
  8
0
 62
7
 10
20.5879
 20
40.116
 30
0
 70
32
  0
VERTEX
  5
4B24E
  8
0
 62
7
 10
20.5875
 20
40.116
 30
0
 70
32
  0
VERTEX
  5
4B24F
  8
0
 62
7
 10
20.5872
 20
40.116
 30
0
 70
32
  0
VERTEX
  5
4B250
  8
0
 62
7
 10
20.5868
 20
40.116
 30
0
 70
32
  0
VERTEX
  5
4B251
  8
0
 62
7
 10
20.5865
 20
40.116
 30
0
 70
32
  0
VERTEX
  5
4B252
  8
0
 62
7
 10
20.5861
 20
40.116
 30
0
 70
32
  0
VERTEX
  5
4B253
  8
0
 62
7
 10
20.5856
 20
40.116
 30
0
 70
32
  0
VERTEX
  5
4B254
  8
0
 62
7
 10
20.5852
 20
40.116
 30
0
 70
32
  0
VERTEX
  5
4B255
  8
0
 62
7
 10
20.5848
 20
40.116
 30
0
 70
32
  0
VERTEX
  5
4B256
  8
0
 62
7
 10
20.5843
 20
40.116
 30
0
 70
32
  0
VERTEX
  5
4B257
  8
0
 62
7
 10
20.5839
 20
40.116
 30
0
 70
32
  0
VERTEX
  5
4B258
  8
0
 62
7
 10
20.5834
 20
40.116
 30
0
 70
32
  0
VERTEX
  5
4B259
  8
0
 62
7
 10
20.5829
 20
40.116
 30
0
 70
32
  0
VERTEX
  5
4B25A
  8
0
 62
7
 10
20.5824
 20
40.116
 30
0
 70
32
  0
VERTEX
  5
4B25B
  8
0
 62
7
 10
20.5819
 20
40.116
 30
0
 70
32
  0
VERTEX
  5
4B25C
  8
0
 62
7
 10
20.5814
 20
40.116
 30
0
 70
32
  0
VERTEX
  5
4B25D
  8
0
 62
7
 10
20.5809
 20
40.116
 30
0
 70
32
  0
VERTEX
  5
4B25E
  8
0
 62
7
 10
20.5803
 20
40.116
 30
0
 70
32
  0
VERTEX
  5
4B25F
  8
0
 62
7
 10
20.5798
 20
40.116
 30
0
 70
32
  0
VERTEX
  5
4B260
  8
0
 62
7
 10
20.5793
 20
40.116
 30
0
 70
32
  0
VERTEX
  5
4B261
  8
0
 62
7
 10
20.5787
 20
40.116
 30
0
 70
32
  0
VERTEX
  5
4B262
  8
0
 62
7
 10
20.5781
 20
40.116
 30
0
 70
32
  0
VERTEX
  5
4B263
  8
0
 62
7
 10
20.5776
 20
40.116
 30
0
 70
32
  0
VERTEX
  5
4B264
  8
0
 62
7
 10
20.577
 20
40.116
 30
0
 70
32
  0
VERTEX
  5
4B265
  8
0
 62
7
 10
20.5764
 20
40.116
 30
0
 70
32
  0
VERTEX
  5
4B266
  8
0
 62
7
 10
20.5758
 20
40.116
 30
0
 70
32
  0
VERTEX
  5
4B267
  8
0
 62
7
 10
20.5752
 20
40.116
 30
0
 70
32
  0
VERTEX
  5
4B268
  8
0
 62
7
 10
20.5746
 20
40.116
 30
0
 70
32
  0
VERTEX
  5
4B269
  8
0
 62
7
 10
20.574
 20
40.116
 30
0
 70
32
  0
VERTEX
  5
4B26A
  8
0
 62
7
 10
20.5734
 20
40.116
 30
0
 70
32
  0
VERTEX
  5
4B26B
  8
0
 62
7
 10
20.5728
 20
40.116
 30
0
 70
32
  0
VERTEX
  5
4B26C
  8
0
 62
7
 10
20.5722
 20
40.116
 30
0
 70
32
  0
VERTEX
  5
4B26D
  8
0
 62
7
 10
20.5716
 20
40.116
 30
0
 70
32
  0
VERTEX
  5
4B26E
  8
0
 62
7
 10
20.571
 20
40.116
 30
0
 70
32
  0
VERTEX
  5
4B26F
  8
0
 62
7
 10
20.5703
 20
40.116
 30
0
 70
32
  0
VERTEX
  5
4B270
  8
0
 62
7
 10
20.5697
 20
40.116
 30
0
 70
32
  0
VERTEX
  5
4B271
  8
0
 62
7
 10
20.5691
 20
40.116
 30
0
 70
32
  0
VERTEX
  5
4B272
  8
0
 62
7
 10
20.5685
 20
40.116
 30
0
 70
32
  0
VERTEX
  5
4B273
  8
0
 62
7
 10
20.5679
 20
40.116
 30
0
 70
32
  0
VERTEX
  5
4B274
  8
0
 62
7
 10
20.5673
 20
40.116
 30
0
 70
32
  0
VERTEX
  5
4B275
  8
0
 62
7
 10
20.5666
 20
40.116
 30
0
 70
32
  0
VERTEX
  5
4B276
  8
0
 62
7
 10
20.566
 20
40.116
 30
0
 70
32
  0
VERTEX
  5
4B277
  8
0
 62
7
 10
20.5654
 20
40.116
 30
0
 70
32
  0
VERTEX
  5
4B278
  8
0
 62
7
 10
20.5648
 20
40.116
 30
0
 70
32
  0
VERTEX
  5
4B279
  8
0
 62
7
 10
20.5642
 20
40.116
 30
0
 70
32
  0
VERTEX
  5
4B27A
  8
0
 62
7
 10
20.5636
 20
40.116
 30
0
 70
32
  0
VERTEX
  5
4B27B
  8
0
 62
7
 10
20.563
 20
40.116
 30
0
 70
32
  0
VERTEX
  5
4B27C
  8
0
 62
7
 10
20.5624
 20
40.116
 30
0
 70
32
  0
VERTEX
  5
4B27D
  8
0
 62
7
 10
20.5618
 20
40.116
 30
0
 70
32
  0
VERTEX
  5
4B27E
  8
0
 62
7
 10
20.5613
 20
40.116
 30
0
 70
32
  0
VERTEX
  5
4B27F
  8
0
 62
7
 10
20.5607
 20
40.116
 30
0
 70
32
  0
VERTEX
  5
4B280
  8
0
 62
7
 10
20.5601
 20
40.116
 30
0
 70
32
  0
VERTEX
  5
4B281
  8
0
 62
7
 10
20.5596
 20
40.116
 30
0
 70
32
  0
VERTEX
  5
4B282
  8
0
 62
7
 10
20.559
 20
40.116
 30
0
 70
32
  0
VERTEX
  5
4B283
  8
0
 62
7
 10
20.5585
 20
40.116
 30
0
 70
32
  0
VERTEX
  5
4B284
  8
0
 62
7
 10
20.5579
 20
40.116
 30
0
 70
32
  0
VERTEX
  5
4B285
  8
0
 62
7
 10
20.5574
 20
40.116
 30
0
 70
32
  0
VERTEX
  5
4B286
  8
0
 62
7
 10
20.5569
 20
40.116
 30
0
 70
32
  0
VERTEX
  5
4B287
  8
0
 62
7
 10
20.5564
 20
40.116
 30
0
 70
32
  0
VERTEX
  5
4B288
  8
0
 62
7
 10
20.5559
 20
40.116
 30
0
 70
32
  0
VERTEX
  5
4B289
  8
0
 62
7
 10
20.5554
 20
40.116
 30
0
 70
32
  0
VERTEX
  5
4B28A
  8
0
 62
7
 10
20.5549
 20
40.116
 30
0
 70
32
  0
VERTEX
  5
4B28B
  8
0
 62
7
 10
20.5545
 20
40.116
 30
0
 70
32
  0
VERTEX
  5
4B28C
  8
0
 62
7
 10
20.554
 20
40.116
 30
0
 70
32
  0
VERTEX
  5
4B28D
  8
0
 62
7
 10
20.5536
 20
40.116
 30
0
 70
32
  0
VERTEX
  5
4B28E
  8
0
 62
7
 10
20.5531
 20
40.116
 30
0
 70
32
  0
VERTEX
  5
4B28F
  8
0
 62
7
 10
20.5527
 20
40.116
 30
0
 70
32
  0
VERTEX
  5
4B290
  8
0
 62
7
 10
20.5523
 20
40.116
 30
0
 70
32
  0
VERTEX
  5
4B291
  8
0
 62
7
 10
20.5519
 20
40.116
 30
0
 70
32
  0
VERTEX
  5
4B292
  8
0
 62
7
 10
20.5516
 20
40.116
 30
0
 70
32
  0
VERTEX
  5
4B293
  8
0
 62
7
 10
20.5512
 20
40.116
 30
0
 70
32
  0
VERTEX
  5
4B294
  8
0
 62
7
 10
20.5509
 20
40.116
 30
0
 70
32
  0
VERTEX
  5
4B295
  8
0
 62
7
 10
20.5506
 20
40.116
 30
0
 70
32
  0
VERTEX
  5
4B296
  8
0
 62
7
 10
20.5503
 20
40.116
 30
0
 70
32
  0
VERTEX
  5
4B297
  8
0
 62
7
 10
20.55
 20
40.116
 30
0
 70
32
  0
VERTEX
  5
4B298
  8
0
 62
7
 10
20.5497
 20
40.116
 30
0
 70
32
  0
VERTEX
  5
4B299
  8
0
 62
7
 10
20.5494
 20
40.116
 30
0
 70
32
  0
VERTEX
  5
4B29A
  8
0
 62
7
 10
20.5492
 20
40.116
 30
0
 70
32
  0
VERTEX
  5
4B29B
  8
0
 62
7
 10
20.549
 20
40.116
 30
0
 70
32
  0
VERTEX
  5
4B29C
  8
0
 62
7
 10
20.5488
 20
40.116
 30
0
 70
32
  0
VERTEX
  5
4B29D
  8
0
 62
7
 10
20.5486
 20
40.116
 30
0
 70
32
  0
VERTEX
  5
4B29E
  8
0
 62
7
 10
20.5485
 20
40.116
 30
0
 70
32
  0
VERTEX
  5
4B29F
  8
0
 62
7
 10
20.5483
 20
40.116
 30
0
 70
32
  0
VERTEX
  5
4B2A0
  8
0
 62
7
 10
20.5482
 20
40.116
 30
0
 70
32
  0
VERTEX
  5
4B2A1
  8
0
 62
7
 10
20.5481
 20
40.116
 30
0
 70
32
  0
VERTEX
  5
4B2A2
  8
0
 62
7
 10
20.5481
 20
40.116
 30
0
 70
32
  0
VERTEX
  5
4B2A3
  8
0
 62
7
 10
20.548
 20
40.116
 30
0
 70
32
  0
VERTEX
  5
4B2A4
  8
0
 62
7
 10
20.548
 20
40.116
 30
0
 70
32
  0
VERTEX
  5
4B2A5
  8
0
 62
7
 10
20.548
 20
40.116
 30
0
 70
32
  0
VERTEX
  5
4B2A6
  8
0
 62
7
 10
20.548
 20
40.116
 30
0
 70
32
  0
VERTEX
  5
4B2A7
  8
0
 62
7
 10
20.5481
 20
40.116
 30
0
 70
32
  0
VERTEX
  5
4B2A8
  8
0
 62
7
 10
20.5481
 20
40.116
 30
0
 70
32
  0
VERTEX
  5
4B2A9
  8
0
 62
7
 10
20.5482
 20
40.116
 30
0
 70
32
  0
VERTEX
  5
4B2AA
  8
0
 62
7
 10
20.5483
 20
40.116
 30
0
 70
32
  0
VERTEX
  5
4B2AB
  8
0
 62
7
 10
20.5485
 20
40.116
 30
0
 70
32
  0
VERTEX
  5
4B2AC
  8
0
 62
7
 10
20.5486
 20
40.116
 30
0
 70
32
  0
VERTEX
  5
4B2AD
  8
0
 62
7
 10
20.5488
 20
40.116
 30
0
 70
32
  0
VERTEX
  5
4B2AE
  8
0
 62
7
 10
20.549
 20
40.116
 30
0
 70
32
  0
VERTEX
  5
4B2AF
  8
0
 62
7
 10
20.5492
 20
40.116
 30
0
 70
32
  0
VERTEX
  5
4B2B0
  8
0
 62
7
 10
20.5494
 20
40.116
 30
0
 70
32
  0
VERTEX
  5
4B2B1
  8
0
 62
7
 10
20.5497
 20
40.116
 30
0
 70
32
  0
VERTEX
  5
4B2B2
  8
0
 62
7
 10
20.55
 20
40.116
 30
0
 70
32
  0
VERTEX
  5
4B2B3
  8
0
 62
7
 10
20.5503
 20
40.116
 30
0
 70
32
  0
VERTEX
  5
4B2B4
  8
0
 62
7
 10
20.5506
 20
40.116
 30
0
 70
32
  0
VERTEX
  5
4B2B5
  8
0
 62
7
 10
20.5509
 20
40.116
 30
0
 70
32
  0
VERTEX
  5
4B2B6
  8
0
 62
7
 10
20.5512
 20
40.116
 30
0
 70
32
  0
VERTEX
  5
4B2B7
  8
0
 62
7
 10
20.5516
 20
40.116
 30
0
 70
32
  0
VERTEX
  5
4B2B8
  8
0
 62
7
 10
20.5519
 20
40.116
 30
0
 70
32
  0
VERTEX
  5
4B2B9
  8
0
 62
7
 10
20.5523
 20
40.116
 30
0
 70
32
  0
VERTEX
  5
4B2BA
  8
0
 62
7
 10
20.5527
 20
40.116
 30
0
 70
32
  0
VERTEX
  5
4B2BB
  8
0
 62
7
 10
20.5531
 20
40.116
 30
0
 70
32
  0
VERTEX
  5
4B2BC
  8
0
 62
7
 10
20.5536
 20
40.116
 30
0
 70
32
  0
VERTEX
  5
4B2BD
  8
0
 62
7
 10
20.554
 20
40.116
 30
0
 70
32
  0
VERTEX
  5
4B2BE
  8
0
 62
7
 10
20.5545
 20
40.116
 30
0
 70
32
  0
VERTEX
  5
4B2BF
  8
0
 62
7
 10
20.5549
 20
40.116
 30
0
 70
32
  0
VERTEX
  5
4B2C0
  8
0
 62
7
 10
20.5554
 20
40.116
 30
0
 70
32
  0
VERTEX
  5
4B2C1
  8
0
 62
7
 10
20.5559
 20
40.116
 30
0
 70
32
  0
VERTEX
  5
4B2C2
  8
0
 62
7
 10
20.5564
 20
40.116
 30
0
 70
32
  0
VERTEX
  5
4B2C3
  8
0
 62
7
 10
20.5569
 20
40.116
 30
0
 70
32
  0
VERTEX
  5
4B2C4
  8
0
 62
7
 10
20.5574
 20
40.116
 30
0
 70
32
  0
VERTEX
  5
4B2C5
  8
0
 62
7
 10
20.5579
 20
40.116
 30
0
 70
32
  0
VERTEX
  5
4B2C6
  8
0
 62
7
 10
20.5585
 20
40.116
 30
0
 70
32
  0
VERTEX
  5
4B2C7
  8
0
 62
7
 10
20.559
 20
40.116
 30
0
 70
32
  0
VERTEX
  5
4B2C8
  8
0
 62
7
 10
20.5596
 20
40.116
 30
0
 70
32
  0
VERTEX
  5
4B2C9
  8
0
 62
7
 10
20.5601
 20
40.116
 30
0
 70
32
  0
VERTEX
  5
4B2CA
  8
0
 62
7
 10
20.5607
 20
40.116
 30
0
 70
32
  0
VERTEX
  5
4B2CB
  8
0
 62
7
 10
20.5613
 20
40.116
 30
0
 70
32
  0
VERTEX
  5
4B2CC
  8
0
 62
7
 10
20.5618
 20
40.116
 30
0
 70
32
  0
VERTEX
  5
4B2CD
  8
0
 62
7
 10
20.5624
 20
40.116
 30
0
 70
32
  0
VERTEX
  5
4B2CE
  8
0
 62
7
 10
20.563
 20
40.116
 30
0
 70
32
  0
VERTEX
  5
4B2CF
  8
0
 62
7
 10
20.5636
 20
40.116
 30
0
 70
32
  0
VERTEX
  5
4B2D0
  8
0
 62
7
 10
20.5642
 20
40.116
 30
0
 70
32
  0
VERTEX
  5
4B2D1
  8
0
 62
7
 10
20.5648
 20
40.116
 30
0
 70
32
  0
VERTEX
  5
4B2D2
  8
0
 62
7
 10
20.5654
 20
40.116
 30
0
 70
32
  0
VERTEX
  5
4B2D3
  8
0
 62
7
 10
20.566
 20
40.116
 30
0
 70
32
  0
VERTEX
  5
4B2D4
  8
0
 62
7
 10
20.5666
 20
40.116
 30
0
 70
32
  0
VERTEX
  5
4B2D5
  8
0
 62
7
 10
20.5673
 20
40.116
 30
0
 70
32
  0
VERTEX
  5
4B2D6
  8
0
 62
7
 10
20.5679
 20
40.116
 30
0
 70
32
  0
VERTEX
  5
4B2D7
  8
0
 62
7
 10
20.5685
 20
40.116
 30
0
 70
32
  0
VERTEX
  5
4B2D8
  8
0
 62
7
 10
20.5691
 20
40.116
 30
0
 70
32
  0
VERTEX
  5
4B2D9
  8
0
 62
7
 10
20.5697
 20
40.116
 30
0
 70
32
  0
VERTEX
  5
4B2DA
  8
0
 62
7
 10
20.5703
 20
40.116
 30
0
 70
32
  0
VERTEX
  5
4B2DB
  8
0
 62
7
 10
20.571
 20
40.116
 30
0
 70
32
  0
VERTEX
  5
4B2DC
  8
0
 62
7
 10
20.5716
 20
40.116
 30
0
 70
32
  0
VERTEX
  5
4B2DD
  8
0
 62
7
 10
20.5722
 20
40.116
 30
0
 70
32
  0
VERTEX
  5
4B2DE
  8
0
 62
7
 10
20.5728
 20
40.116
 30
0
 70
32
  0
VERTEX
  5
4B2DF
  8
0
 62
7
 10
20.5734
 20
40.116
 30
0
 70
32
  0
VERTEX
  5
4B2E0
  8
0
 62
7
 10
20.574
 20
40.116
 30
0
 70
32
  0
VERTEX
  5
4B2E1
  8
0
 62
7
 10
20.5746
 20
40.116
 30
0
 70
32
  0
VERTEX
  5
4B2E2
  8
0
 62
7
 10
20.5752
 20
40.116
 30
0
 70
32
  0
VERTEX
  5
4B2E3
  8
0
 62
7
 10
20.5758
 20
40.116
 30
0
 70
32
  0
VERTEX
  5
4B2E4
  8
0
 62
7
 10
20.5764
 20
40.116
 30
0
 70
32
  0
VERTEX
  5
4B2E5
  8
0
 62
7
 10
20.577
 20
40.116
 30
0
 70
32
  0
VERTEX
  5
4B2E6
  8
0
 62
7
 10
20.5776
 20
40.116
 30
0
 70
32
  0
VERTEX
  5
4B2E7
  8
0
 62
7
 10
20.5781
 20
40.116
 30
0
 70
32
  0
VERTEX
  5
4B2E8
  8
0
 62
7
 10
20.5787
 20
40.116
 30
0
 70
32
  0
VERTEX
  5
4B2E9
  8
0
 62
7
 10
20.5793
 20
40.116
 30
0
 70
32
  0
VERTEX
  5
4B2EA
  8
0
 62
7
 10
20.5798
 20
40.116
 30
0
 70
32
  0
VERTEX
  5
4B2EB
  8
0
 62
7
 10
20.5803
 20
40.116
 30
0
 70
32
  0
VERTEX
  5
4B2EC
  8
0
 62
7
 10
20.5809
 20
40.116
 30
0
 70
32
  0
VERTEX
  5
4B2ED
  8
0
 62
7
 10
20.5814
 20
40.116
 30
0
 70
32
  0
VERTEX
  5
4B2EE
  8
0
 62
7
 10
20.5819
 20
40.116
 30
0
 70
32
  0
VERTEX
  5
4B2EF
  8
0
 62
7
 10
20.5824
 20
40.116
 30
0
 70
32
  0
VERTEX
  5
4B2F0
  8
0
 62
7
 10
20.5829
 20
40.116
 30
0
 70
32
  0
VERTEX
  5
4B2F1
  8
0
 62
7
 10
20.5834
 20
40.116
 30
0
 70
32
  0
VERTEX
  5
4B2F2
  8
0
 62
7
 10
20.5839
 20
40.116
 30
0
 70
32
  0
VERTEX
  5
4B2F3
  8
0
 62
7
 10
20.5843
 20
40.116
 30
0
 70
32
  0
VERTEX
  5
4B2F4
  8
0
 62
7
 10
20.5848
 20
40.116
 30
0
 70
32
  0
VERTEX
  5
4B2F5
  8
0
 62
7
 10
20.5852
 20
40.116
 30
0
 70
32
  0
VERTEX
  5
4B2F6
  8
0
 62
7
 10
20.5856
 20
40.116
 30
0
 70
32
  0
VERTEX
  5
4B2F7
  8
0
 62
7
 10
20.5861
 20
40.116
 30
0
 70
32
  0
VERTEX
  5
4B2F8
  8
0
 62
7
 10
20.5865
 20
40.116
 30
0
 70
32
  0
VERTEX
  5
4B2F9
  8
0
 62
7
 10
20.5868
 20
40.116
 30
0
 70
32
  0
VERTEX
  5
4B2FA
  8
0
 62
7
 10
20.5872
 20
40.116
 30
0
 70
32
  0
VERTEX
  5
4B2FB
  8
0
 62
7
 10
20.5875
 20
40.116
 30
0
 70
32
  0
VERTEX
  5
4B2FC
  8
0
 62
7
 10
20.5879
 20
40.116
 30
0
 70
32
  0
VERTEX
  5
4B2FD
  8
0
 62
7
 10
20.5882
 20
40.116
 30
0
 70
32
  0
VERTEX
  5
4B2FE
  8
0
 62
7
 10
20.5885
 20
40.116
 30
0
 70
32
  0
VERTEX
  5
4B2FF
  8
0
 62
7
 10
20.5888
 20
40.116
 30
0
 70
32
  0
VERTEX
  5
4B300
  8
0
 62
7
 10
20.5891
 20
40.116
 30
0
 70
32
  0
VERTEX
  5
4B301
  8
0
 62
7
 10
20.5893
 20
40.116
 30
0
 70
32
  0
VERTEX
  5
4B302
  8
0
 62
7
 10
20.5895
 20
40.116
 30
0
 70
32
  0
VERTEX
  5
4B303
  8
0
 62
7
 10
20.5897
 20
40.116
 30
0
 70
32
  0
VERTEX
  5
4B304
  8
0
 62
7
 10
20.5899
 20
40.116
 30
0
 70
32
  0
VERTEX
  5
4B305
  8
0
 62
7
 10
20.5901
 20
40.116
 30
0
 70
32
  0
VERTEX
  5
4B306
  8
0
 62
7
 10
20.5903
 20
40.116
 30
0
 70
32
  0
VERTEX
  5
4B307
  8
0
 62
7
 10
20.5904
 20
40.116
 30
0
 70
32
  0
VERTEX
  5
4B308
  8
0
 62
7
 10
20.5905
 20
40.116
 30
0
 70
32
  0
VERTEX
  5
4B309
  8
0
 62
7
 10
20.5906
 20
40.116
 30
0
 70
32
  0
VERTEX
  5
4B30A
  8
0
 62
7
 10
20.5906
 20
40.116
 30
0
 70
32
  0
VERTEX
  5
4B30B
  8
0
 62
7
 10
20.5907
 20
40.116
 30
0
 70
32
  0
VERTEX
  5
4B30C
  8
0
 62
7
 10
20.5907
 20
40.116
 30
0
 70
32
  0
VERTEX
  5
4B30D
  8
0
 62
7
 10
20.5907
 20
40.116
 30
0
 70
32
  0
VERTEX
  5
4B30E
  8
0
 62
7
 10
20.5907
 20
40.116
 30
0
 70
32
  0
VERTEX
  5
4B30F
  8
0
 62
7
 10
20.5907
 20
40.1161
 30
0
 70
32
  0
VERTEX
  5
4B310
  8
0
 62
7
 10
20.5907
 20
40.116199999999992
 30
0
 70
32
  0
VERTEX
  5
4B311
  8
0
 62
7
 10
20.5907
 20
40.1163
 30
0
 70
32
  0
VERTEX
  5
4B312
  8
0
 62
7
 10
20.5907
 20
40.116399999999977
 30
0
 70
32
  0
VERTEX
  5
4B313
  8
0
 62
7
 10
20.5907
 20
40.1165
 30
0
 70
32
  0
VERTEX
  5
4B314
  8
0
 62
7
 10
20.5907
 20
40.1167
 30
0
 70
32
  0
VERTEX
  5
4B315
  8
0
 62
7
 10
20.5907
 20
40.1169
 30
0
 70
32
  0
VERTEX
  5
4B316
  8
0
 62
7
 10
20.5907
 20
40.117099999999994
 30
0
 70
32
  0
VERTEX
  5
4B317
  8
0
 62
7
 10
20.5907
 20
40.1173
 30
0
 70
32
  0
VERTEX
  5
4B318
  8
0
 62
7
 10
20.5907
 20
40.1175
 30
0
 70
32
  0
VERTEX
  5
4B319
  8
0
 62
7
 10
20.5907
 20
40.1178
 30
0
 70
32
  0
VERTEX
  5
4B31A
  8
0
 62
7
 10
20.5907
 20
40.118
 30
0
 70
32
  0
VERTEX
  5
4B31B
  8
0
 62
7
 10
20.5907
 20
40.118299999999977
 30
0
 70
32
  0
VERTEX
  5
4B31C
  8
0
 62
7
 10
20.5907
 20
40.1186
 30
0
 70
32
  0
VERTEX
  5
4B31D
  8
0
 62
7
 10
20.5907
 20
40.118999999999993
 30
0
 70
32
  0
VERTEX
  5
4B31E
  8
0
 62
7
 10
20.5907
 20
40.1193
 30
0
 70
32
  0
VERTEX
  5
4B31F
  8
0
 62
7
 10
20.5907
 20
40.1197
 30
0
 70
32
  0
VERTEX
  5
4B320
  8
0
 62
7
 10
20.5907
 20
40.11999999999999
 30
0
 70
32
  0
VERTEX
  5
4B321
  8
0
 62
7
 10
20.5907
 20
40.120399999999982
 30
0
 70
32
  0
VERTEX
  5
4B322
  8
0
 62
7
 10
20.5907
 20
40.1208
 30
0
 70
32
  0
VERTEX
  5
4B323
  8
0
 62
7
 10
20.5907
 20
40.1212
 30
0
 70
32
  0
VERTEX
  5
4B324
  8
0
 62
7
 10
20.5907
 20
40.1217
 30
0
 70
32
  0
VERTEX
  5
4B325
  8
0
 62
7
 10
20.5907
 20
40.1221
 30
0
 70
32
  0
VERTEX
  5
4B326
  8
0
 62
7
 10
20.5907
 20
40.1226
 30
0
 70
32
  0
VERTEX
  5
4B327
  8
0
 62
7
 10
20.5907
 20
40.122999999999983
 30
0
 70
32
  0
VERTEX
  5
4B328
  8
0
 62
7
 10
20.5907
 20
40.1235
 30
0
 70
32
  0
VERTEX
  5
4B329
  8
0
 62
7
 10
20.5907
 20
40.124
 30
0
 70
32
  0
VERTEX
  5
4B32A
  8
0
 62
7
 10
20.5907
 20
40.1245
 30
0
 70
32
  0
VERTEX
  5
4B32B
  8
0
 62
7
 10
20.5907
 20
40.125
 30
0
 70
32
  0
VERTEX
  5
4B32C
  8
0
 62
7
 10
20.5907
 20
40.1255
 30
0
 70
32
  0
VERTEX
  5
4B32D
  8
0
 62
7
 10
20.5907
 20
40.125999999999991
 30
0
 70
32
  0
VERTEX
  5
4B32E
  8
0
 62
7
 10
20.5907
 20
40.1266
 30
0
 70
32
  0
VERTEX
  5
4B32F
  8
0
 62
7
 10
20.5907
 20
40.1271
 30
0
 70
32
  0
VERTEX
  5
4B330
  8
0
 62
7
 10
20.5907
 20
40.127699999999983
 30
0
 70
32
  0
VERTEX
  5
4B331
  8
0
 62
7
 10
20.5907
 20
40.1282
 30
0
 70
32
  0
VERTEX
  5
4B332
  8
0
 62
7
 10
20.5907
 20
40.1288
 30
0
 70
32
  0
VERTEX
  5
4B333
  8
0
 62
7
 10
20.5907
 20
40.12939999999999
 30
0
 70
32
  0
VERTEX
  5
4B334
  8
0
 62
7
 10
20.5907
 20
40.1299
 30
0
 70
32
  0
VERTEX
  5
4B335
  8
0
 62
7
 10
20.5907
 20
40.130499999999977
 30
0
 70
32
  0
VERTEX
  5
4B336
  8
0
 62
7
 10
20.5907
 20
40.1311
 30
0
 70
32
  0
VERTEX
  5
4B337
  8
0
 62
7
 10
20.5907
 20
40.1317
 30
0
 70
32
  0
VERTEX
  5
4B338
  8
0
 62
7
 10
20.5907
 20
40.1323
 30
0
 70
32
  0
VERTEX
  5
4B339
  8
0
 62
7
 10
20.5907
 20
40.1329
 30
0
 70
32
  0
VERTEX
  5
4B33A
  8
0
 62
7
 10
20.5907
 20
40.133499999999991
 30
0
 70
32
  0
VERTEX
  5
4B33B
  8
0
 62
7
 10
20.5907
 20
40.134099999999989
 30
0
 70
32
  0
VERTEX
  5
4B33C
  8
0
 62
7
 10
20.5907
 20
40.1347
 30
0
 70
32
  0
VERTEX
  5
4B33D
  8
0
 62
7
 10
20.5907
 20
40.135399999999983
 30
0
 70
32
  0
VERTEX
  5
4B33E
  8
0
 62
7
 10
20.5907
 20
40.136
 30
0
 70
32
  0
VERTEX
  5
4B33F
  8
0
 62
7
 10
20.5907
 20
40.1366
 30
0
 70
32
  0
VERTEX
  5
4B340
  8
0
 62
7
 10
20.5907
 20
40.1372
 30
0
 70
32
  0
VERTEX
  5
4B341
  8
0
 62
7
 10
20.5907
 20
40.137799999999991
 30
0
 70
32
  0
VERTEX
  5
4B342
  8
0
 62
7
 10
20.5907
 20
40.1384
 30
0
 70
32
  0
VERTEX
  5
4B343
  8
0
 62
7
 10
20.5907
 20
40.139
 30
0
 70
32
  0
VERTEX
  5
4B344
  8
0
 62
7
 10
20.5907
 20
40.139699999999991
 30
0
 70
32
  0
VERTEX
  5
4B345
  8
0
 62
7
 10
20.5907
 20
40.1403
 30
0
 70
32
  0
VERTEX
  5
4B346
  8
0
 62
7
 10
20.5907
 20
40.1409
 30
0
 70
32
  0
VERTEX
  5
4B347
  8
0
 62
7
 10
20.5907
 20
40.141499999999994
 30
0
 70
32
  0
VERTEX
  5
4B348
  8
0
 62
7
 10
20.5907
 20
40.1421
 30
0
 70
32
  0
VERTEX
  5
4B349
  8
0
 62
7
 10
20.5907
 20
40.142699999999977
 30
0
 70
32
  0
VERTEX
  5
4B34A
  8
0
 62
7
 10
20.5907
 20
40.1433
 30
0
 70
32
  0
VERTEX
  5
4B34B
  8
0
 62
7
 10
20.5907
 20
40.1439
 30
0
 70
32
  0
VERTEX
  5
4B34C
  8
0
 62
7
 10
20.5907
 20
40.14439999999999
 30
0
 70
32
  0
VERTEX
  5
4B34D
  8
0
 62
7
 10
20.5907
 20
40.145
 30
0
 70
32
  0
VERTEX
  5
4B34E
  8
0
 62
7
 10
20.5907
 20
40.1456
 30
0
 70
32
  0
VERTEX
  5
4B34F
  8
0
 62
7
 10
20.5907
 20
40.146199999999993
 30
0
 70
32
  0
VERTEX
  5
4B350
  8
0
 62
7
 10
20.5907
 20
40.1467
 30
0
 70
32
  0
VERTEX
  5
4B351
  8
0
 62
7
 10
20.5907
 20
40.1473
 30
0
 70
32
  0
VERTEX
  5
4B352
  8
0
 62
7
 10
20.5907
 20
40.1478
 30
0
 70
32
  0
VERTEX
  5
4B353
  8
0
 62
7
 10
20.5907
 20
40.1484
 30
0
 70
32
  0
VERTEX
  5
4B354
  8
0
 62
7
 10
20.5907
 20
40.1489
 30
0
 70
32
  0
VERTEX
  5
4B355
  8
0
 62
7
 10
20.5907
 20
40.1494
 30
0
 70
32
  0
VERTEX
  5
4B356
  8
0
 62
7
 10
20.5907
 20
40.1499
 30
0
 70
32
  0
VERTEX
  5
4B357
  8
0
 62
7
 10
20.5907
 20
40.150399999999991
 30
0
 70
32
  0
VERTEX
  5
4B358
  8
0
 62
7
 10
20.5907
 20
40.150899999999993
 30
0
 70
32
  0
VERTEX
  5
4B359
  8
0
 62
7
 10
20.5907
 20
40.1514
 30
0
 70
32
  0
VERTEX
  5
4B35A
  8
0
 62
7
 10
20.5907
 20
40.151899999999991
 30
0
 70
32
  0
VERTEX
  5
4B35B
  8
0
 62
7
 10
20.5907
 20
40.152299999999983
 30
0
 70
32
  0
VERTEX
  5
4B35C
  8
0
 62
7
 10
20.5907
 20
40.152799999999992
 30
0
 70
32
  0
VERTEX
  5
4B35D
  8
0
 62
7
 10
20.5907
 20
40.1532
 30
0
 70
32
  0
VERTEX
  5
4B35E
  8
0
 62
7
 10
20.5907
 20
40.1536
 30
0
 70
32
  0
VERTEX
  5
4B35F
  8
0
 62
7
 10
20.5907
 20
40.154
 30
0
 70
32
  0
VERTEX
  5
4B360
  8
0
 62
7
 10
20.5907
 20
40.1544
 30
0
 70
32
  0
VERTEX
  5
4B361
  8
0
 62
7
 10
20.5907
 20
40.1548
 30
0
 70
32
  0
VERTEX
  5
4B362
  8
0
 62
7
 10
20.5907
 20
40.15509999999999
 30
0
 70
32
  0
VERTEX
  5
4B363
  8
0
 62
7
 10
20.5907
 20
40.1555
 30
0
 70
32
  0
VERTEX
  5
4B364
  8
0
 62
7
 10
20.5907
 20
40.155799999999992
 30
0
 70
32
  0
VERTEX
  5
4B365
  8
0
 62
7
 10
20.5907
 20
40.1561
 30
0
 70
32
  0
VERTEX
  5
4B366
  8
0
 62
7
 10
20.5907
 20
40.1564
 30
0
 70
32
  0
VERTEX
  5
4B367
  8
0
 62
7
 10
20.5907
 20
40.1567
 30
0
 70
32
  0
VERTEX
  5
4B368
  8
0
 62
7
 10
20.5907
 20
40.156999999999982
 30
0
 70
32
  0
VERTEX
  5
4B369
  8
0
 62
7
 10
20.5907
 20
40.1572
 30
0
 70
32
  0
VERTEX
  5
4B36A
  8
0
 62
7
 10
20.5907
 20
40.1574
 30
0
 70
32
  0
VERTEX
  5
4B36B
  8
0
 62
7
 10
20.5907
 20
40.1576
 30
0
 70
32
  0
VERTEX
  5
4B36C
  8
0
 62
7
 10
20.5907
 20
40.1578
 30
0
 70
32
  0
VERTEX
  5
4B36D
  8
0
 62
7
 10
20.5907
 20
40.158
 30
0
 70
32
  0
VERTEX
  5
4B36E
  8
0
 62
7
 10
20.5907
 20
40.1581
 30
0
 70
32
  0
VERTEX
  5
4B36F
  8
0
 62
7
 10
20.5907
 20
40.1583
 30
0
 70
32
  0
VERTEX
  5
4B370
  8
0
 62
7
 10
20.5907
 20
40.158399999999993
 30
0
 70
32
  0
VERTEX
  5
4B371
  8
0
 62
7
 10
20.5907
 20
40.158399999999993
 30
0
 70
32
  0
VERTEX
  5
4B372
  8
0
 62
7
 10
20.5907
 20
40.158499999999989
 30
0
 70
32
  0
VERTEX
  5
4B373
  8
0
 62
7
 10
20.5907
 20
40.158499999999989
 30
0
 70
32
  0
VERTEX
  5
4B374
  8
0
 62
7
 10
20.5907
 20
40.158499999999989
 30
0
 70
32
  0
SEQEND
  5
4B375
  8
0
  0
POLYLINE
  5
4AD0C
  8
0
 62
7
 66
1
 70
0
 10
0
 20
0
 30
0
  0
VERTEX
  5
4C624
  8
0
 62
7
 10
26.34676521143636
 20
42.1899455954824
 70
0
  0
VERTEX
  5
4C625
  8
0
 62
7
 10
26.30404602741925
 20
42.1899455954824
 70
0
  0
SEQEND
  5
4C626
  8
0
  0
POLYLINE
  5
4AD10
  8
0
 62
7
 66
1
 70
0
 10
0
 20
0
 30
0
  0
VERTEX
  5
4C627
  8
0
 62
7
 10
28.379371547733768
 20
41.97893349701085
 70
0
  0
VERTEX
  5
4C628
  8
0
 62
7
 10
28.379371547733768
 20
41.97893349701085
 70
0
  0
SEQEND
  5
4C629
  8
0
  0
POLYLINE
  5
4AD14
  8
0
 62
7
 66
1
 70
0
 10
0
 20
0
 30
0
  0
VERTEX
  5
4C62A
  8
0
 62
7
 10
28.463431877573871
 20
41.766543360345139
 70
0
  0
VERTEX
  5
4C62B
  8
0
 62
7
 10
28.463431877573871
 20
41.766543360345139
 70
0
  0
SEQEND
  5
4C62C
  8
0
  0
POLYLINE
  5
4AD18
  8
0
 62
7
 66
1
 70
0
 10
0
 20
0
 30
0
  0
VERTEX
  5
4C62D
  8
0
 62
7
 10
28.379371547733768
 20
41.639936101262251
 70
0
  0
VERTEX
  5
4C62E
  8
0
 62
7
 10
28.379371547733768
 20
41.639936101262251
 70
0
  0
SEQEND
  5
4C62F
  8
0
  0
POLYLINE
  5
4AD1C
  8
0
 62
7
 66
1
 70
0
 10
0
 20
0
 30
0
  0
VERTEX
  5
4C630
  8
0
 62
7
 10
60.549673188996742
 20
25.76631414342512
 70
0
  0
VERTEX
  5
4C631
  8
0
 62
7
 10
60.506954004979633
 20
25.76631414342512
 70
0
  0
VERTEX
  5
4C632
  8
0
 62
7
 10
60.506954004979633
 20
25.80903332744219
 70
0
  0
SEQEND
  5
4C633
  8
0
  0
POLYLINE
  5
4AD21
  8
0
 62
7
 66
1
 70
0
 10
0
 20
0
 30
0
  0
VERTEX
  5
4C634
  8
0
 62
7
 10
60.59239237301383
 20
25.553924006759448
 70
0
  0
VERTEX
  5
4C635
  8
0
 62
7
 10
60.59239237301383
 20
25.596643190776561
 70
0
  0
SEQEND
  5
4C636
  8
0
  0
POLYLINE
  5
4AD25
  8
0
 62
7
 66
1
 70
0
 10
0
 20
0
 30
0
  0
VERTEX
  5
4C637
  8
0
 62
7
 10
60.506954004979633
 20
25.42731674767651
 70
0
  0
VERTEX
  5
4C638
  8
0
 62
7
 10
60.506954004979633
 20
25.470035931693609
 70
0
  0
VERTEX
  5
4C639
  8
0
 62
7
 10
60.549673188996742
 20
25.470035931693609
 70
0
  0
SEQEND
  5
4C63A
  8
0
  0
POLYLINE
  5
4AD2A
  8
0
 62
7
 66
1
 70
0
 10
0
 20
0
 30
0
  0
VERTEX
  5
4C63B
  8
0
 62
7
 10
63.80873351804307
 20
23.606928293270489
 70
0
  0
VERTEX
  5
4C63C
  8
0
 62
7
 10
63.80873351804307
 20
23.47997652463906
 70
0
  0
SEQEND
  5
4C63D
  8
0
  0
POLYLINE
  5
4AD2E
  8
0
 62
7
 66
1
 70
0
 10
0
 20
0
 30
0
  0
VERTEX
  5
4C63E
  8
0
 62
7
 10
63.80873351804307
 20
23.47997652463906
 70
0
  0
VERTEX
  5
4C63F
  8
0
 62
7
 10
63.80873351804307
 20
23.47997652463906
 70
0
  0
VERTEX
  5
4C640
  8
0
 62
7
 10
63.766014334025982
 20
23.438635378816059
 70
0
  0
SEQEND
  5
4C641
  8
0
  0
POLYLINE
  5
4AD33
  8
0
 62
7
 66
1
 70
0
 10
0
 20
0
 30
0
  0
VERTEX
  5
4C642
  8
0
 62
7
 10
63.80873351804307
 20
23.52304021820467
 70
0
  0
VERTEX
  5
4C643
  8
0
 62
7
 10
63.766014334025982
 20
23.52304021820467
 70
0
  0
VERTEX
  5
4C644
  8
0
 62
7
 10
63.766014334025982
 20
23.47997652463906
 70
0
  0
VERTEX
  5
4C645
  8
0
 62
7
 10
63.724673188202971
 20
23.47997652463906
 70
0
  0
SEQEND
  5
4C646
  8
0
  0
POLYLINE
  5
4AD39
  8
0
 62
7
 66
1
 70
0
 10
0
 20
0
 30
0
  0
VERTEX
  5
4C647
  8
0
 62
7
 10
63.724673188202971
 20
23.47997652463906
 70
0
  0
VERTEX
  5
4C648
  8
0
 62
7
 10
63.68195400418589
 20
23.47997652463906
 70
0
  0
VERTEX
  5
4C649
  8
0
 62
7
 10
63.68195400418589
 20
23.606928293270489
 70
0
  0
VERTEX
  5
4C64A
  8
0
 62
7
 10
63.724673188202971
 20
23.606928293270489
 70
0
  0
SEQEND
  5
4C64B
  8
0
  0
POLYLINE
  5
4AD3F
  8
0
 62
7
 66
1
 70
0
 10
0
 20
0
 30
0
  0
VERTEX
  5
4C64C
  8
0
 62
7
 10
63.766014334025982
 20
23.606928293270489
 70
0
  0
VERTEX
  5
4C64D
  8
0
 62
7
 10
63.80873351804307
 20
23.606928293270489
 70
0
  0
VERTEX
  5
4C64E
  8
0
 62
7
 10
63.80873351804307
 20
23.52304021820467
 70
0
  0
SEQEND
  5
4C64F
  8
0
  0
POLYLINE
  5
4AD44
  8
0
 62
7
 66
1
 70
0
 10
0
 20
0
 30
0
  0
VERTEX
  5
4C650
  8
0
 62
7
 10
24.908093336796021
 20
42.698269434330967
 70
0
  0
VERTEX
  5
4C651
  8
0
 62
7
 10
24.908093336796021
 20
42.740988618348112
 70
0
  0
VERTEX
  5
4C652
  8
0
 62
7
 10
24.865374152778909
 20
42.740988618348112
 70
0
  0
VERTEX
  5
4C653
  8
0
 62
7
 10
24.865374152778909
 20
42.824876693413941
 70
0
  0
VERTEX
  5
4C654
  8
0
 62
7
 10
24.822654968761839
 20
42.824876693413941
 70
0
  0
SEQEND
  5
4C655
  8
0
  0
POLYLINE
  5
4AD4B
  8
0
 62
7
 66
1
 70
0
 10
0
 20
0
 30
0
  0
VERTEX
  5
4C656
  8
0
 62
7
 10
23.807040819710181
 20
43.0372668300796
 70
0
  0
VERTEX
  5
4C657
  8
0
 62
7
 10
23.807040819710181
 20
42.824876693413941
 70
0
  0
SEQEND
  5
4C658
  8
0
  0
POLYLINE
  5
4AD4F
  8
0
 62
7
 66
1
 70
0
 10
0
 20
0
 30
0
  0
VERTEX
  5
4C659
  8
0
 62
7
 10
23.42670227813861
 20
42.485879297665349
 70
0
  0
VERTEX
  5
4C65A
  8
0
 62
7
 10
23.42670227813861
 20
42.444538151842387
 70
0
  0
VERTEX
  5
4C65B
  8
0
 62
7
 10
23.3839830941215
 20
42.444538151842387
 70
0
  0
VERTEX
  5
4C65C
  8
0
 62
7
 10
23.3412639101044
 20
42.444538151842387
 70
0
  0
VERTEX
  5
4C65D
  8
0
 62
7
 10
23.2985447260873
 20
42.444538151842387
 70
0
  0
VERTEX
  5
4C65E
  8
0
 62
7
 10
23.2572035802643
 20
42.444538151842387
 70
0
  0
VERTEX
  5
4C65F
  8
0
 62
7
 10
23.2144843962472
 20
42.444538151842387
 70
0
  0
VERTEX
  5
4C660
  8
0
 62
7
 10
23.2144843962472
 20
42.485879297665349
 70
0
  0
SEQEND
  5
4C661
  8
0
  0
POLYLINE
  5
4AD59
  8
0
 62
7
 66
1
 70
0
 10
0
 20
0
 30
0
  0
VERTEX
  5
4C662
  8
0
 62
7
 10
23.764321635693079
 20
42.782157509396811
 70
0
  0
VERTEX
  5
4C663
  8
0
 62
7
 10
23.764321635693079
 20
42.782157509396811
 70
0
  0
SEQEND
  5
4C664
  8
0
  0
POLYLINE
  5
4AD5D
  8
0
 62
7
 66
1
 70
0
 10
0
 20
0
 30
0
  0
VERTEX
  5
4C665
  8
0
 62
7
 10
23.764321635693079
 20
42.782157509396811
 70
0
  0
VERTEX
  5
4C666
  8
0
 62
7
 10
23.722980489870078
 20
42.782157509396811
 70
0
  0
VERTEX
  5
4C667
  8
0
 62
7
 10
23.722980489870078
 20
42.698269434330967
 70
0
  0
VERTEX
  5
4C668
  8
0
 62
7
 10
23.68026130585298
 20
42.698269434330967
 70
0
  0
VERTEX
  5
4C669
  8
0
 62
7
 10
23.68026130585298
 20
42.655550250313922
 70
0
  0
VERTEX
  5
4C66A
  8
0
 62
7
 10
23.637542121835882
 20
42.655550250313922
 70
0
  0
VERTEX
  5
4C66B
  8
0
 62
7
 10
23.637542121835882
 20
42.614209104490882
 70
0
  0
VERTEX
  5
4C66C
  8
0
 62
7
 10
23.59482293781878
 20
42.571662175248093
 70
0
  0
VERTEX
  5
4C66D
  8
0
 62
7
 10
23.553481791995772
 20
42.571662175248093
 70
0
  0
VERTEX
  5
4C66E
  8
0
 62
7
 10
23.553481791995772
 20
42.528942991230963
 70
0
  0
VERTEX
  5
4C66F
  8
0
 62
7
 10
23.51076260797868
 20
42.528942991230963
 70
0
  0
VERTEX
  5
4C670
  8
0
 62
7
 10
23.4680434239616
 20
42.528942991230963
 70
0
  0
VERTEX
  5
4C671
  8
0
 62
7
 10
23.4680434239616
 20
42.485879297665349
 70
0
  0
VERTEX
  5
4C672
  8
0
 62
7
 10
23.42670227813861
 20
42.485879297665349
 70
0
  0
SEQEND
  5
4C673
  8
0
  0
POLYLINE
  5
4AD6D
  8
0
 62
7
 66
1
 70
0
 10
0
 20
0
 30
0
  0
VERTEX
  5
4C674
  8
0
 62
7
 10
23.807040819710181
 20
42.824876693413941
 70
0
  0
VERTEX
  5
4C675
  8
0
 62
7
 10
23.807040819710181
 20
42.824876693413941
 70
0
  0
SEQEND
  5
4C676
  8
0
  0
POLYLINE
  5
4AD71
  8
0
 62
7
 66
1
 70
0
 10
0
 20
0
 30
0
  0
VERTEX
  5
4C677
  8
0
 62
7
 10
23.68026130585298
 20
43.37488618763409
 70
0
  0
VERTEX
  5
4C678
  8
0
 62
7
 10
23.68026130585298
 20
43.37488618763409
 70
0
  0
VERTEX
  5
4C679
  8
0
 62
7
 10
23.722980489870078
 20
43.333545041811078
 70
0
  0
VERTEX
  5
4C67A
  8
0
 62
7
 10
23.764321635693079
 20
43.333545041811078
 70
0
  0
VERTEX
  5
4C67B
  8
0
 62
7
 10
23.764321635693079
 20
43.2909981125682
 70
0
  0
VERTEX
  5
4C67C
  8
0
 62
7
 10
23.807040819710181
 20
43.2909981125682
 70
0
  0
VERTEX
  5
4C67D
  8
0
 62
7
 10
23.807040819710181
 20
43.078607975902557
 70
0
  0
SEQEND
  5
4C67E
  8
0
  0
POLYLINE
  5
4AD7A
  8
0
 62
7
 66
1
 70
0
 10
0
 20
0
 30
0
  0
VERTEX
  5
4C67F
  8
0
 62
7
 10
22.156151063178442
 20
41.936214312993741
 70
0
  0
VERTEX
  5
4C680
  8
0
 62
7
 10
22.156151063178442
 20
41.936214312993741
 70
0
  0
SEQEND
  5
4C681
  8
0
  0
POLYLINE
  5
4AD7E
  8
0
 62
7
 66
1
 70
0
 10
0
 20
0
 30
0
  0
VERTEX
  5
4C682
  8
0
 62
7
 10
22.156151063178442
 20
41.936214312993741
 70
0
  0
VERTEX
  5
4C683
  8
0
 62
7
 10
22.156151063178442
 20
41.936214312993741
 70
0
  0
SEQEND
  5
4C684
  8
0
  0
POLYLINE
  5
4AD82
  8
0
 62
7
 66
1
 70
0
 10
0
 20
0
 30
0
  0
VERTEX
  5
4C685
  8
0
 62
7
 10
22.19887024719554
 20
41.766543360345139
 70
0
  0
VERTEX
  5
4C686
  8
0
 62
7
 10
22.19887024719554
 20
41.723824176328087
 70
0
  0
SEQEND
  5
4C687
  8
0
  0
POLYLINE
  5
4AD86
  8
0
 62
7
 66
1
 70
0
 10
0
 20
0
 30
0
  0
VERTEX
  5
4C688
  8
0
 62
7
 10
22.19887024719554
 20
41.766543360345139
 70
0
  0
VERTEX
  5
4C689
  8
0
 62
7
 10
22.19887024719554
 20
41.766543360345139
 70
0
  0
SEQEND
  5
4C68A
  8
0
  0
POLYLINE
  5
4AD8A
  8
0
 62
7
 66
1
 70
0
 10
0
 20
0
 30
0
  0
VERTEX
  5
4C68B
  8
0
 62
7
 10
24.695875454904641
 20
42.824876693413941
 70
0
  0
VERTEX
  5
4C68C
  8
0
 62
7
 10
24.738594638921739
 20
42.824876693413941
 70
0
  0
SEQEND
  5
4C68D
  8
0
  0
POLYLINE
  5
4AD8E
  8
0
 62
7
 66
1
 70
0
 10
0
 20
0
 30
0
  0
VERTEX
  5
4C68E
  8
0
 62
7
 10
24.738594638921739
 20
42.824876693413941
 70
0
  0
VERTEX
  5
4C68F
  8
0
 62
7
 10
24.738594638921739
 20
42.824876693413941
 70
0
  0
SEQEND
  5
4C690
  8
0
  0
POLYLINE
  5
4AD92
  8
0
 62
7
 66
1
 70
0
 10
0
 20
0
 30
0
  0
VERTEX
  5
4C691
  8
0
 62
7
 10
22.19887024719554
 20
43.078607975902557
 70
0
  0
VERTEX
  5
4C692
  8
0
 62
7
 10
22.19887024719554
 20
43.078607975902557
 70
0
  0
SEQEND
  5
4C693
  8
0
  0
POLYLINE
  5
4AD96
  8
0
 62
7
 66
1
 70
0
 10
0
 20
0
 30
0
  0
VERTEX
  5
4C694
  8
0
 62
7
 10
24.695875454904641
 20
43.883210026482658
 70
0
  0
VERTEX
  5
4C695
  8
0
 62
7
 10
24.695875454904641
 20
43.926273720048279
 70
0
  0
SEQEND
  5
4C696
  8
0
  0
POLYLINE
  5
4AD9A
  8
0
 62
7
 66
1
 70
0
 10
0
 20
0
 30
0
  0
VERTEX
  5
4C697
  8
0
 62
7
 10
24.695875454904641
 20
43.926273720048279
 70
0
  0
VERTEX
  5
4C698
  8
0
 62
7
 10
24.695875454904641
 20
43.926273720048279
 70
0
  0
SEQEND
  5
4C699
  8
0
  0
POLYLINE
  5
4AD9E
  8
0
 62
7
 66
1
 70
0
 10
0
 20
0
 30
0
  0
VERTEX
  5
4C69A
  8
0
 62
7
 10
25.118933180493311
 20
43.078607975902557
 70
0
  0
VERTEX
  5
4C69B
  8
0
 62
7
 10
25.077592034670321
 20
43.078607975902557
 70
0
  0
SEQEND
  5
4C69C
  8
0
  0
POLYLINE
  5
4ADA2
  8
0
 62
7
 66
1
 70
0
 10
0
 20
0
 30
0
  0
VERTEX
  5
4C69D
  8
0
 62
7
 10
22.19887024719554
 20
43.0372668300796
 70
0
  0
VERTEX
  5
4C69E
  8
0
 62
7
 10
22.19887024719554
 20
43.0372668300796
 70
0
  0
SEQEND
  5
4C69F
  8
0
  0
POLYLINE
  5
4ADA6
  8
0
 62
7
 66
1
 70
0
 10
0
 20
0
 30
0
  0
VERTEX
  5
4C6A0
  8
0
 62
7
 10
24.695875454904641
 20
43.967614865871319
 70
0
  0
VERTEX
  5
4C6A1
  8
0
 62
7
 10
24.695875454904641
 20
43.967614865871319
 70
0
  0
SEQEND
  5
4C6A2
  8
0
  0
POLYLINE
  5
4ADAA
  8
0
 62
7
 66
1
 70
0
 10
0
 20
0
 30
0
  0
VERTEX
  5
4C6A3
  8
0
 62
7
 10
22.156151063178442
 20
41.766543360345139
 70
0
  0
VERTEX
  5
4C6A4
  8
0
 62
7
 10
22.156151063178442
 20
41.766543360345139
 70
0
  0
SEQEND
  5
4C6A5
  8
0
  0
POLYLINE
  5
4ADAE
  8
0
 62
7
 66
1
 70
0
 10
0
 20
0
 30
0
  0
VERTEX
  5
4C6A6
  8
0
 62
7
 10
24.39959724317314
 20
43.587276324299737
 70
0
  0
VERTEX
  5
4C6A7
  8
0
 62
7
 10
24.442316427190239
 20
43.587276324299737
 70
0
  0
VERTEX
  5
4C6A8
  8
0
 62
7
 10
24.442316427190239
 20
43.460324555668251
 70
0
  0
VERTEX
  5
4C6A9
  8
0
 62
7
 10
24.39959724317314
 20
43.41760537165117
 70
0
  0
VERTEX
  5
4C6AA
  8
0
 62
7
 10
24.35687805915606
 20
43.41760537165117
 70
0
  0
VERTEX
  5
4C6AB
  8
0
 62
7
 10
24.35687805915606
 20
43.37488618763409
 70
0
  0
SEQEND
  5
4C6AC
  8
0
  0
POLYLINE
  5
4ADB6
  8
0
 62
7
 66
1
 70
0
 10
0
 20
0
 30
0
  0
VERTEX
  5
4C6AD
  8
0
 62
7
 10
24.35687805915606
 20
43.37488618763409
 70
0
  0
VERTEX
  5
4C6AE
  8
0
 62
7
 10
24.315536913333059
 20
43.37488618763409
 70
0
  0
SEQEND
  5
4C6AF
  8
0
  0
POLYLINE
  5
4ADBA
  8
0
 62
7
 66
1
 70
0
 10
0
 20
0
 30
0
  0
VERTEX
  5
4C6B0
  8
0
 62
7
 10
22.452429274909949
 20
42.782157509396811
 70
0
  0
VERTEX
  5
4C6B1
  8
0
 62
7
 10
22.452429274909949
 20
42.824876693413941
 70
0
  0
VERTEX
  5
4C6B2
  8
0
 62
7
 10
22.40971009089284
 20
42.824876693413941
 70
0
  0
VERTEX
  5
4C6B3
  8
0
 62
7
 10
22.452429274909949
 20
42.867940386979569
 70
0
  0
VERTEX
  5
4C6B4
  8
0
 62
7
 10
22.452429274909949
 20
42.951828462045377
 70
0
  0
VERTEX
  5
4C6B5
  8
0
 62
7
 10
22.495148458927041
 20
42.951828462045377
 70
0
  0
VERTEX
  5
4C6B6
  8
0
 62
7
 10
22.495148458927041
 20
42.994547646062472
 70
0
  0
VERTEX
  5
4C6B7
  8
0
 62
7
 10
22.537867642944121
 20
42.994547646062472
 70
0
  0
SEQEND
  5
4C6B8
  8
0
  0
POLYLINE
  5
4ADC4
  8
0
 62
7
 66
1
 70
0
 10
0
 20
0
 30
0
  0
VERTEX
  5
4C6B9
  8
0
 62
7
 10
22.537867642944121
 20
42.994547646062472
 70
0
  0
VERTEX
  5
4C6BA
  8
0
 62
7
 10
22.579208788767119
 20
42.994547646062472
 70
0
  0
SEQEND
  5
4C6BB
  8
0
  0
POLYLINE
  5
4ADC8
  8
0
 62
7
 66
1
 70
0
 10
0
 20
0
 30
0
  0
VERTEX
  5
4C6BC
  8
0
 62
7
 10
24.653156270887539
 20
43.926273720048279
 70
0
  0
VERTEX
  5
4C6BD
  8
0
 62
7
 10
24.653156270887539
 20
43.926273720048279
 70
0
  0
SEQEND
  5
4C6BE
  8
0
  0
POLYLINE
  5
4ADCC
  8
0
 62
7
 66
1
 70
0
 10
0
 20
0
 30
0
  0
VERTEX
  5
4C6BF
  8
0
 62
7
 10
22.19887024719554
 20
43.078607975902557
 70
0
  0
VERTEX
  5
4C6C0
  8
0
 62
7
 10
22.19887024719554
 20
43.078607975902557
 70
0
  0
SEQEND
  5
4C6C1
  8
0
  0
POLYLINE
  5
4ADD0
  8
0
 62
7
 66
1
 70
0
 10
0
 20
0
 30
0
  0
VERTEX
  5
4C6C2
  8
0
 62
7
 10
22.19887024719554
 20
43.078607975902557
 70
0
  0
VERTEX
  5
4C6C3
  8
0
 62
7
 10
22.19887024719554
 20
43.078607975902557
 70
0
  0
SEQEND
  5
4C6C4
  8
0
  0
POLYLINE
  5
4ADD4
  8
0
 62
7
 66
1
 70
0
 10
0
 20
0
 30
0
  0
VERTEX
  5
4C6C5
  8
0
 62
7
 10
22.579208788767119
 20
42.994547646062472
 70
0
  0
VERTEX
  5
4C6C6
  8
0
 62
7
 10
22.621927972784221
 20
42.994547646062472
 70
0
  0
VERTEX
  5
4C6C7
  8
0
 62
7
 10
22.621927972784221
 20
42.951828462045377
 70
0
  0
VERTEX
  5
4C6C8
  8
0
 62
7
 10
22.664647156801319
 20
42.951828462045377
 70
0
  0
VERTEX
  5
4C6C9
  8
0
 62
7
 10
22.664647156801319
 20
42.824876693413941
 70
0
  0
VERTEX
  5
4C6CA
  8
0
 62
7
 10
22.621927972784221
 20
42.824876693413941
 70
0
  0
VERTEX
  5
4C6CB
  8
0
 62
7
 10
22.621927972784221
 20
42.782157509396811
 70
0
  0
VERTEX
  5
4C6CC
  8
0
 62
7
 10
22.579208788767119
 20
42.782157509396811
 70
0
  0
VERTEX
  5
4C6CD
  8
0
 62
7
 10
22.537867642944121
 20
42.782157509396811
 70
0
  0
VERTEX
  5
4C6CE
  8
0
 62
7
 10
22.537867642944121
 20
42.740988618348112
 70
0
  0
SEQEND
  5
4C6CF
  8
0
  0
POLYLINE
  5
4ADE0
  8
0
 62
7
 66
1
 70
0
 10
0
 20
0
 30
0
  0
VERTEX
  5
4C6D0
  8
0
 62
7
 10
22.537867642944121
 20
42.740988618348112
 70
0
  0
VERTEX
  5
4C6D1
  8
0
 62
7
 10
22.495148458927041
 20
42.740988618348112
 70
0
  0
VERTEX
  5
4C6D2
  8
0
 62
7
 10
22.495148458927041
 20
42.782157509396811
 70
0
  0
VERTEX
  5
4C6D3
  8
0
 62
7
 10
22.452429274909949
 20
42.782157509396811
 70
0
  0
SEQEND
  5
4C6D4
  8
0
  0
POLYLINE
  5
4ADE6
  8
0
 62
7
 66
1
 70
0
 10
0
 20
0
 30
0
  0
VERTEX
  5
4C6D5
  8
0
 62
7
 10
24.315536913333059
 20
43.333545041811078
 70
0
  0
VERTEX
  5
4C6D6
  8
0
 62
7
 10
24.272817729315971
 20
43.333545041811078
 70
0
  0
VERTEX
  5
4C6D7
  8
0
 62
7
 10
24.230098545298858
 20
43.333545041811078
 70
0
  0
VERTEX
  5
4C6D8
  8
0
 62
7
 10
24.230098545298858
 20
43.41760537165117
 70
0
  0
VERTEX
  5
4C6D9
  8
0
 62
7
 10
24.188757399475861
 20
43.41760537165117
 70
0
  0
VERTEX
  5
4C6DA
  8
0
 62
7
 10
24.188757399475861
 20
43.502871484911111
 70
0
  0
VERTEX
  5
4C6DB
  8
0
 62
7
 10
24.230098545298858
 20
43.544212630734073
 70
0
  0
VERTEX
  5
4C6DC
  8
0
 62
7
 10
24.230098545298858
 20
43.587276324299737
 70
0
  0
VERTEX
  5
4C6DD
  8
0
 62
7
 10
24.272817729315971
 20
43.587276324299737
 70
0
  0
VERTEX
  5
4C6DE
  8
0
 62
7
 10
24.272817729315971
 20
43.62999550831681
 70
0
  0
VERTEX
  5
4C6DF
  8
0
 62
7
 10
24.315536913333059
 20
43.62999550831681
 70
0
  0
VERTEX
  5
4C6E0
  8
0
 62
7
 10
24.315536913333059
 20
43.67116439936558
 70
0
  0
SEQEND
  5
4C6E1
  8
0
  0
POLYLINE
  5
4ADF4
  8
0
 62
7
 66
1
 70
0
 10
0
 20
0
 30
0
  0
VERTEX
  5
4C6E2
  8
0
 62
7
 10
24.315536913333059
 20
43.67116439936558
 70
0
  0
VERTEX
  5
4C6E3
  8
0
 62
7
 10
24.35687805915606
 20
43.67116439936558
 70
0
  0
VERTEX
  5
4C6E4
  8
0
 62
7
 10
24.39959724317314
 20
43.67116439936558
 70
0
  0
VERTEX
  5
4C6E5
  8
0
 62
7
 10
24.442316427190239
 20
43.67116439936558
 70
0
  0
VERTEX
  5
4C6E6
  8
0
 62
7
 10
24.442316427190239
 20
43.41760537165117
 70
0
  0
VERTEX
  5
4C6E7
  8
0
 62
7
 10
24.39959724317314
 20
43.41760537165117
 70
0
  0
VERTEX
  5
4C6E8
  8
0
 62
7
 10
24.35687805915606
 20
43.41760537165117
 70
0
  0
VERTEX
  5
4C6E9
  8
0
 62
7
 10
24.35687805915606
 20
43.333545041811078
 70
0
  0
VERTEX
  5
4C6EA
  8
0
 62
7
 10
24.315536913333059
 20
43.333545041811078
 70
0
  0
SEQEND
  5
4C6EB
  8
0
  0
POLYLINE
  5
4ADFF
  8
0
 62
7
 66
1
 70
0
 10
0
 20
0
 30
0
  0
VERTEX
  5
4C6EC
  8
0
 62
7
 10
25.118933180493311
 20
42.910659570996643
 70
0
  0
VERTEX
  5
4C6ED
  8
0
 62
7
 10
25.118933180493311
 20
42.910659570996643
 70
0
  0
SEQEND
  5
4C6EE
  8
0
  0
POLYLINE
  5
4AE03
  8
0
 62
7
 66
1
 70
0
 10
0
 20
0
 30
0
  0
VERTEX
  5
4C6EF
  8
0
 62
7
 10
22.537867642944121
 20
42.782157509396811
 70
0
  0
VERTEX
  5
4C6F0
  8
0
 62
7
 10
22.537867642944121
 20
42.824876693413941
 70
0
  0
VERTEX
  5
4C6F1
  8
0
 62
7
 10
22.579208788767119
 20
42.824876693413941
 70
0
  0
VERTEX
  5
4C6F2
  8
0
 62
7
 10
22.579208788767119
 20
42.951828462045377
 70
0
  0
VERTEX
  5
4C6F3
  8
0
 62
7
 10
22.537867642944121
 20
42.951828462045377
 70
0
  0
SEQEND
  5
4C6F4
  8
0
  0
POLYLINE
  5
4AE0A
  8
0
 62
7
 66
1
 70
0
 10
0
 20
0
 30
0
  0
VERTEX
  5
4C6F5
  8
0
 62
7
 10
22.537867642944121
 20
42.951828462045377
 70
0
  0
VERTEX
  5
4C6F6
  8
0
 62
7
 10
22.495148458927041
 20
42.951828462045377
 70
0
  0
VERTEX
  5
4C6F7
  8
0
 62
7
 10
22.452429274909949
 20
42.951828462045377
 70
0
  0
VERTEX
  5
4C6F8
  8
0
 62
7
 10
22.452429274909949
 20
42.782157509396811
 70
0
  0
VERTEX
  5
4C6F9
  8
0
 62
7
 10
22.495148458927041
 20
42.782157509396811
 70
0
  0
VERTEX
  5
4C6FA
  8
0
 62
7
 10
22.537867642944121
 20
42.782157509396811
 70
0
  0
SEQEND
  5
4C6FB
  8
0
  0
POLYLINE
  5
4AE12
  8
0
 62
7
 66
1
 70
0
 10
0
 20
0
 30
0
  0
VERTEX
  5
4C6FC
  8
0
 62
7
 10
22.537867642944121
 20
42.782157509396811
 70
0
  0
VERTEX
  5
4C6FD
  8
0
 62
7
 10
22.579208788767119
 20
42.782157509396811
 70
0
  0
VERTEX
  5
4C6FE
  8
0
 62
7
 10
22.579208788767119
 20
42.824876693413941
 70
0
  0
VERTEX
  5
4C6FF
  8
0
 62
7
 10
22.621927972784221
 20
42.824876693413941
 70
0
  0
VERTEX
  5
4C700
  8
0
 62
7
 10
22.621927972784221
 20
42.951828462045377
 70
0
  0
VERTEX
  5
4C701
  8
0
 62
7
 10
22.579208788767119
 20
42.951828462045377
 70
0
  0
VERTEX
  5
4C702
  8
0
 62
7
 10
22.579208788767119
 20
42.994547646062472
 70
0
  0
SEQEND
  5
4C703
  8
0
  0
POLYLINE
  5
4AE1B
  8
0
 62
7
 66
1
 70
0
 10
0
 20
0
 30
0
  0
VERTEX
  5
4C704
  8
0
 62
7
 10
25.118933180493311
 20
42.910659570996643
 70
0
  0
VERTEX
  5
4C705
  8
0
 62
7
 10
25.118933180493311
 20
42.951828462045377
 70
0
  0
VERTEX
  5
4C706
  8
0
 62
7
 10
25.16165236451042
 20
42.951828462045377
 70
0
  0
VERTEX
  5
4C707
  8
0
 62
7
 10
25.16165236451042
 20
42.994547646062472
 70
0
  0
SEQEND
  5
4C708
  8
0
  0
POLYLINE
  5
4AE21
  8
0
 62
7
 66
1
 70
0
 10
0
 20
0
 30
0
  0
VERTEX
  5
4C709
  8
0
 62
7
 10
25.16165236451042
 20
42.994547646062472
 70
0
  0
VERTEX
  5
4C70A
  8
0
 62
7
 10
25.16165236451042
 20
43.0372668300796
 70
0
  0
VERTEX
  5
4C70B
  8
0
 62
7
 10
25.118933180493311
 20
43.0372668300796
 70
0
  0
SEQEND
  5
4C70C
  8
0
  0
POLYLINE
  5
4AE26
  8
0
 62
7
 66
1
 70
0
 10
0
 20
0
 30
0
  0
VERTEX
  5
4C70D
  8
0
 62
7
 10
25.077592034670321
 20
42.951828462045377
 70
0
  0
VERTEX
  5
4C70E
  8
0
 62
7
 10
25.118933180493311
 20
42.951828462045377
 70
0
  0
VERTEX
  5
4C70F
  8
0
 62
7
 10
25.118933180493311
 20
43.078607975902557
 70
0
  0
SEQEND
  5
4C710
  8
0
  0
POLYLINE
  5
4AE2B
  8
0
 62
7
 66
1
 70
0
 10
0
 20
0
 30
0
  0
VERTEX
  5
4C711
  8
0
 62
7
 10
22.537867642944121
 20
42.782157509396811
 70
0
  0
VERTEX
  5
4C712
  8
0
 62
7
 10
22.579208788767119
 20
42.782157509396811
 70
0
  0
VERTEX
  5
4C713
  8
0
 62
7
 10
22.579208788767119
 20
42.824876693413941
 70
0
  0
VERTEX
  5
4C714
  8
0
 62
7
 10
22.621927972784221
 20
42.824876693413941
 70
0
  0
VERTEX
  5
4C715
  8
0
 62
7
 10
22.621927972784221
 20
42.867940386979569
 70
0
  0
VERTEX
  5
4C716
  8
0
 62
7
 10
22.664647156801319
 20
42.867940386979569
 70
0
  0
VERTEX
  5
4C717
  8
0
 62
7
 10
22.664647156801319
 20
42.951828462045377
 70
0
  0
VERTEX
  5
4C718
  8
0
 62
7
 10
22.621927972784221
 20
42.951828462045377
 70
0
  0
VERTEX
  5
4C719
  8
0
 62
7
 10
22.579208788767119
 20
42.994547646062472
 70
0
  0
SEQEND
  5
4C71A
  8
0
  0
POLYLINE
  5
4AE36
  8
0
 62
7
 66
1
 70
0
 10
0
 20
0
 30
0
  0
VERTEX
  5
4C71B
  8
0
 62
7
 10
24.695875454904641
 20
42.655550250313922
 70
0
  0
VERTEX
  5
4C71C
  8
0
 62
7
 10
24.695875454904641
 20
42.655550250313922
 70
0
  0
SEQEND
  5
4C71D
  8
0
  0
POLYLINE
  5
4AE3A
  8
0
 62
7
 66
1
 70
0
 10
0
 20
0
 30
0
  0
VERTEX
  5
4C71E
  8
0
 62
7
 10
24.695875454904641
 20
42.655550250313922
 70
0
  0
VERTEX
  5
4C71F
  8
0
 62
7
 10
24.695875454904641
 20
42.614209104490882
 70
0
  0
SEQEND
  5
4C720
  8
0
  0
POLYLINE
  5
4AE3E
  8
0
 62
7
 66
1
 70
0
 10
0
 20
0
 30
0
  0
VERTEX
  5
4C721
  8
0
 62
7
 10
24.315536913333059
 20
43.37488618763409
 70
0
  0
VERTEX
  5
4C722
  8
0
 62
7
 10
24.272817729315971
 20
43.37488618763409
 70
0
  0
VERTEX
  5
4C723
  8
0
 62
7
 10
24.272817729315971
 20
43.41760537165117
 70
0
  0
VERTEX
  5
4C724
  8
0
 62
7
 10
24.230098545298858
 20
43.41760537165117
 70
0
  0
VERTEX
  5
4C725
  8
0
 62
7
 10
24.230098545298858
 20
43.544212630734073
 70
0
  0
VERTEX
  5
4C726
  8
0
 62
7
 10
24.272817729315971
 20
43.544212630734073
 70
0
  0
VERTEX
  5
4C727
  8
0
 62
7
 10
24.272817729315971
 20
43.587276324299737
 70
0
  0
VERTEX
  5
4C728
  8
0
 62
7
 10
24.315536913333059
 20
43.587276324299737
 70
0
  0
VERTEX
  5
4C729
  8
0
 62
7
 10
24.35687805915606
 20
43.587276324299737
 70
0
  0
SEQEND
  5
4C72A
  8
0
  0
POLYLINE
  5
4AE49
  8
0
 62
7
 66
1
 70
0
 10
0
 20
0
 30
0
  0
VERTEX
  5
4C72B
  8
0
 62
7
 10
23.42670227813861
 20
43.41760537165117
 70
0
  0
VERTEX
  5
4C72C
  8
0
 62
7
 10
23.42670227813861
 20
43.37488618763409
 70
0
  0
VERTEX
  5
4C72D
  8
0
 62
7
 10
23.3839830941215
 20
43.37488618763409
 70
0
  0
VERTEX
  5
4C72E
  8
0
 62
7
 10
23.3839830941215
 20
43.333545041811078
 70
0
  0
VERTEX
  5
4C72F
  8
0
 62
7
 10
23.3412639101044
 20
43.333545041811078
 70
0
  0
VERTEX
  5
4C730
  8
0
 62
7
 10
23.2985447260873
 20
43.2909981125682
 70
0
  0
VERTEX
  5
4C731
  8
0
 62
7
 10
23.2572035802643
 20
43.2909981125682
 70
0
  0
VERTEX
  5
4C732
  8
0
 62
7
 10
23.2144843962472
 20
43.24827892855113
 70
0
  0
VERTEX
  5
4C733
  8
0
 62
7
 10
23.2144843962472
 20
43.206593273179607
 70
0
  0
VERTEX
  5
4C734
  8
0
 62
7
 10
23.171765212230088
 20
43.163874089162491
 70
0
  0
VERTEX
  5
4C735
  8
0
 62
7
 10
23.171765212230088
 20
43.121327159919687
 70
0
  0
VERTEX
  5
4C736
  8
0
 62
7
 10
23.130424066407109
 20
43.078607975902557
 70
0
  0
VERTEX
  5
4C737
  8
0
 62
7
 10
23.08770488239
 20
43.0372668300796
 70
0
  0
VERTEX
  5
4C738
  8
0
 62
7
 10
23.08770488239
 20
42.910659570996643
 70
0
  0
VERTEX
  5
4C739
  8
0
 62
7
 10
23.0449856983729
 20
42.867940386979569
 70
0
  0
VERTEX
  5
4C73A
  8
0
 62
7
 10
23.0449856983729
 20
42.698269434330967
 70
0
  0
VERTEX
  5
4C73B
  8
0
 62
7
 10
23.08770488239
 20
42.698269434330967
 70
0
  0
VERTEX
  5
4C73C
  8
0
 62
7
 10
23.08770488239
 20
42.571662175248093
 70
0
  0
VERTEX
  5
4C73D
  8
0
 62
7
 10
23.130424066407109
 20
42.571662175248093
 70
0
  0
VERTEX
  5
4C73E
  8
0
 62
7
 10
23.171765212230088
 20
42.528942991230963
 70
0
  0
VERTEX
  5
4C73F
  8
0
 62
7
 10
23.2144843962472
 20
42.485879297665349
 70
0
  0
SEQEND
  5
4C740
  8
0
  0
POLYLINE
  5
4AE60
  8
0
 62
7
 66
1
 70
0
 10
0
 20
0
 30
0
  0
VERTEX
  5
4C741
  8
0
 62
7
 10
24.39959724317314
 20
43.587276324299737
 70
0
  0
VERTEX
  5
4C742
  8
0
 62
7
 10
24.39959724317314
 20
43.587276324299737
 70
0
  0
SEQEND
  5
4C743
  8
0
  0
POLYLINE
  5
4AE64
  8
0
 62
7
 66
1
 70
0
 10
0
 20
0
 30
0
  0
VERTEX
  5
4C744
  8
0
 62
7
 10
24.39959724317314
 20
43.587276324299737
 70
0
  0
VERTEX
  5
4C745
  8
0
 62
7
 10
24.35687805915606
 20
43.587276324299737
 70
0
  0
SEQEND
  5
4C746
  8
0
  0
POLYLINE
  5
4AE68
  8
0
 62
7
 66
1
 70
0
 10
0
 20
0
 30
0
  0
VERTEX
  5
4C747
  8
0
 62
7
 10
24.35687805915606
 20
43.587276324299737
 70
0
  0
VERTEX
  5
4C748
  8
0
 62
7
 10
24.315536913333059
 20
43.587276324299737
 70
0
  0
VERTEX
  5
4C749
  8
0
 62
7
 10
24.315536913333059
 20
43.544212630734073
 70
0
  0
VERTEX
  5
4C74A
  8
0
 62
7
 10
24.272817729315971
 20
43.544212630734073
 70
0
  0
VERTEX
  5
4C74B
  8
0
 62
7
 10
24.272817729315971
 20
43.37488618763409
 70
0
  0
VERTEX
  5
4C74C
  8
0
 62
7
 10
24.315536913333059
 20
43.37488618763409
 70
0
  0
SEQEND
  5
4C74D
  8
0
  0
POLYLINE
  5
4AE70
  8
0
 62
7
 66
1
 70
0
 10
0
 20
0
 30
0
  0
VERTEX
  5
4C74E
  8
0
 62
7
 10
24.695875454904641
 20
42.655550250313922
 70
0
  0
VERTEX
  5
4C74F
  8
0
 62
7
 10
24.695875454904641
 20
42.698269434330967
 70
0
  0
VERTEX
  5
4C750
  8
0
 62
7
 10
24.738594638921739
 20
42.698269434330967
 70
0
  0
VERTEX
  5
4C751
  8
0
 62
7
 10
24.738594638921739
 20
42.655550250313922
 70
0
  0
SEQEND
  5
4C752
  8
0
  0
POLYLINE
  5
4AE76
  8
0
 62
7
 66
1
 70
0
 10
0
 20
0
 30
0
  0
VERTEX
  5
4C753
  8
0
 62
7
 10
22.495148458927041
 20
42.782157509396811
 70
0
  0
VERTEX
  5
4C754
  8
0
 62
7
 10
22.537867642944121
 20
42.782157509396811
 70
0
  0
SEQEND
  5
4C755
  8
0
  0
POLYLINE
  5
4AE7A
  8
0
 62
7
 66
1
 70
0
 10
0
 20
0
 30
0
  0
VERTEX
  5
4C756
  8
0
 62
7
 10
22.452429274909949
 20
42.782157509396811
 70
0
  0
VERTEX
  5
4C757
  8
0
 62
7
 10
22.495148458927041
 20
42.782157509396811
 70
0
  0
VERTEX
  5
4C758
  8
0
 62
7
 10
22.537867642944121
 20
42.782157509396811
 70
0
  0
SEQEND
  5
4C759
  8
0
  0
POLYLINE
  5
4AE7F
  8
0
 62
7
 66
1
 70
0
 10
0
 20
0
 30
0
  0
VERTEX
  5
4C75A
  8
0
 62
7
 10
24.442316427190239
 20
43.587276324299737
 70
0
  0
VERTEX
  5
4C75B
  8
0
 62
7
 10
24.39959724317314
 20
43.587276324299737
 70
0
  0
VERTEX
  5
4C75C
  8
0
 62
7
 10
24.35687805915606
 20
43.587276324299737
 70
0
  0
SEQEND
  5
4C75D
  8
0
  0
POLYLINE
  5
4AE84
  8
0
 62
7
 66
1
 70
0
 10
0
 20
0
 30
0
  0
VERTEX
  5
4C75E
  8
0
 62
7
 10
24.653156270887539
 20
43.926273720048279
 70
0
  0
VERTEX
  5
4C75F
  8
0
 62
7
 10
24.695875454904641
 20
43.926273720048279
 70
0
  0
VERTEX
  5
4C760
  8
0
 62
7
 10
24.695875454904641
 20
43.967614865871319
 70
0
  0
SEQEND
  5
4C761
  8
0
  0
POLYLINE
  5
4AE89
  8
0
 62
7
 66
1
 70
0
 10
0
 20
0
 30
0
  0
VERTEX
  5
4C762
  8
0
 62
7
 10
24.35687805915606
 20
43.587276324299737
 70
0
  0
VERTEX
  5
4C763
  8
0
 62
7
 10
24.315536913333059
 20
43.587276324299737
 70
0
  0
VERTEX
  5
4C764
  8
0
 62
7
 10
24.315536913333059
 20
43.544212630734073
 70
0
  0
VERTEX
  5
4C765
  8
0
 62
7
 10
24.272817729315971
 20
43.544212630734073
 70
0
  0
VERTEX
  5
4C766
  8
0
 62
7
 10
24.272817729315971
 20
43.502871484911111
 70
0
  0
VERTEX
  5
4C767
  8
0
 62
7
 10
24.230098545298858
 20
43.502871484911111
 70
0
  0
VERTEX
  5
4C768
  8
0
 62
7
 10
24.230098545298858
 20
43.41760537165117
 70
0
  0
VERTEX
  5
4C769
  8
0
 62
7
 10
24.272817729315971
 20
43.41760537165117
 70
0
  0
VERTEX
  5
4C76A
  8
0
 62
7
 10
24.272817729315971
 20
43.37488618763409
 70
0
  0
VERTEX
  5
4C76B
  8
0
 62
7
 10
24.315536913333059
 20
43.37488618763409
 70
0
  0
SEQEND
  5
4C76C
  8
0
  0
POLYLINE
  5
4AE95
  8
0
 62
7
 66
1
 70
0
 10
0
 20
0
 30
0
  0
VERTEX
  5
4C76D
  8
0
 62
7
 10
24.35687805915606
 20
43.587276324299737
 70
0
  0
VERTEX
  5
4C76E
  8
0
 62
7
 10
24.35687805915606
 20
43.62999550831681
 70
0
  0
VERTEX
  5
4C76F
  8
0
 62
7
 10
24.39959724317314
 20
43.62999550831681
 70
0
  0
VERTEX
  5
4C770
  8
0
 62
7
 10
24.39959724317314
 20
43.587276324299737
 70
0
  0
SEQEND
  5
4C771
  8
0
  0
POLYLINE
  5
4AE9B
  8
0
 62
7
 66
1
 70
0
 10
0
 20
0
 30
0
  0
VERTEX
  5
4C772
  8
0
 62
7
 10
24.695875454904641
 20
42.910659570996643
 70
0
  0
VERTEX
  5
4C773
  8
0
 62
7
 10
24.695875454904641
 20
42.910659570996643
 70
0
  0
SEQEND
  5
4C774
  8
0
  0
POLYLINE
  5
4AE9F
  8
0
 62
7
 66
1
 70
0
 10
0
 20
0
 30
0
  0
VERTEX
  5
4C775
  8
0
 62
7
 10
22.156151063178442
 20
41.766543360345139
 70
0
  0
VERTEX
  5
4C776
  8
0
 62
7
 10
22.156151063178442
 20
41.766543360345139
 70
0
  0
SEQEND
  5
4C777
  8
0
  0
POLYLINE
  5
4AEA3
  8
0
 62
7
 66
1
 70
0
 10
0
 20
0
 30
0
  0
VERTEX
  5
4C778
  8
0
 62
7
 10
23.42670227813861
 20
43.41760537165117
 70
0
  0
VERTEX
  5
4C779
  8
0
 62
7
 10
23.4680434239616
 20
43.41760537165117
 70
0
  0
VERTEX
  5
4C77A
  8
0
 62
7
 10
23.51076260797868
 20
43.41760537165117
 70
0
  0
VERTEX
  5
4C77B
  8
0
 62
7
 10
23.553481791995772
 20
43.41760537165117
 70
0
  0
VERTEX
  5
4C77C
  8
0
 62
7
 10
23.59482293781878
 20
43.41760537165117
 70
0
  0
VERTEX
  5
4C77D
  8
0
 62
7
 10
23.637542121835882
 20
43.41760537165117
 70
0
  0
VERTEX
  5
4C77E
  8
0
 62
7
 10
23.68026130585298
 20
43.41760537165117
 70
0
  0
VERTEX
  5
4C77F
  8
0
 62
7
 10
23.68026130585298
 20
43.37488618763409
 70
0
  0
SEQEND
  5
4C780
  8
0
  0
POLYLINE
  5
4AEAD
  8
0
 62
7
 66
1
 70
0
 10
0
 20
0
 30
0
  0
VERTEX
  5
4C781
  8
0
 62
7
 10
23.2144843962472
 20
42.485879297665349
 70
0
  0
VERTEX
  5
4C782
  8
0
 62
7
 10
23.171765212230088
 20
42.485879297665349
 70
0
  0
VERTEX
  5
4C783
  8
0
 62
7
 10
23.171765212230088
 20
42.528942991230963
 70
0
  0
VERTEX
  5
4C784
  8
0
 62
7
 10
23.130424066407109
 20
42.528942991230963
 70
0
  0
VERTEX
  5
4C785
  8
0
 62
7
 10
23.130424066407109
 20
42.571662175248093
 70
0
  0
VERTEX
  5
4C786
  8
0
 62
7
 10
23.08770488239
 20
42.571662175248093
 70
0
  0
VERTEX
  5
4C787
  8
0
 62
7
 10
23.08770488239
 20
42.655550250313922
 70
0
  0
VERTEX
  5
4C788
  8
0
 62
7
 10
23.0449856983729
 20
42.698269434330967
 70
0
  0
VERTEX
  5
4C789
  8
0
 62
7
 10
23.0449856983729
 20
42.910659570996643
 70
0
  0
VERTEX
  5
4C78A
  8
0
 62
7
 10
23.08770488239
 20
42.951828462045377
 70
0
  0
VERTEX
  5
4C78B
  8
0
 62
7
 10
23.08770488239
 20
43.078607975902557
 70
0
  0
VERTEX
  5
4C78C
  8
0
 62
7
 10
23.130424066407109
 20
43.078607975902557
 70
0
  0
VERTEX
  5
4C78D
  8
0
 62
7
 10
23.130424066407109
 20
43.121327159919687
 70
0
  0
VERTEX
  5
4C78E
  8
0
 62
7
 10
23.171765212230088
 20
43.121327159919687
 70
0
  0
VERTEX
  5
4C78F
  8
0
 62
7
 10
23.171765212230088
 20
43.206593273179607
 70
0
  0
VERTEX
  5
4C790
  8
0
 62
7
 10
23.2144843962472
 20
43.206593273179607
 70
0
  0
VERTEX
  5
4C791
  8
0
 62
7
 10
23.2144843962472
 20
43.24827892855113
 70
0
  0
VERTEX
  5
4C792
  8
0
 62
7
 10
23.2572035802643
 20
43.2909981125682
 70
0
  0
VERTEX
  5
4C793
  8
0
 62
7
 10
23.2985447260873
 20
43.2909981125682
 70
0
  0
VERTEX
  5
4C794
  8
0
 62
7
 10
23.2985447260873
 20
43.333545041811078
 70
0
  0
VERTEX
  5
4C795
  8
0
 62
7
 10
23.3412639101044
 20
43.333545041811078
 70
0
  0
VERTEX
  5
4C796
  8
0
 62
7
 10
23.3839830941215
 20
43.37488618763409
 70
0
  0
VERTEX
  5
4C797
  8
0
 62
7
 10
23.42670227813861
 20
43.37488618763409
 70
0
  0
VERTEX
  5
4C798
  8
0
 62
7
 10
23.42670227813861
 20
43.41760537165117
 70
0
  0
SEQEND
  5
4C799
  8
0
  0
POLYLINE
  5
4AEC7
  8
0
 62
7
 66
1
 70
0
 10
0
 20
0
 30
0
  0
VERTEX
  5
4C79A
  8
0
 62
7
 10
23.68026130585298
 20
43.37488618763409
 70
0
  0
VERTEX
  5
4C79B
  8
0
 62
7
 10
23.68026130585298
 20
43.41760537165117
 70
0
  0
VERTEX
  5
4C79C
  8
0
 62
7
 10
23.637542121835882
 20
43.41760537165117
 70
0
  0
VERTEX
  5
4C79D
  8
0
 62
7
 10
23.59482293781878
 20
43.41760537165117
 70
0
  0
VERTEX
  5
4C79E
  8
0
 62
7
 10
23.553481791995772
 20
43.41760537165117
 70
0
  0
VERTEX
  5
4C79F
  8
0
 62
7
 10
23.51076260797868
 20
43.41760537165117
 70
0
  0
VERTEX
  5
4C7A0
  8
0
 62
7
 10
23.4680434239616
 20
43.41760537165117
 70
0
  0
VERTEX
  5
4C7A1
  8
0
 62
7
 10
23.42670227813861
 20
43.41760537165117
 70
0
  0
SEQEND
  5
4C7A2
  8
0
  0
POLYLINE
  5
4AED1
  8
0
 62
7
 66
1
 70
0
 10
0
 20
0
 30
0
  0
VERTEX
  5
4C7A3
  8
0
 62
7
 10
25.500649760258991
 20
39.60870780315895
 70
0
  0
VERTEX
  5
4C7A4
  8
0
 62
7
 10
25.500649760258991
 20
39.60870780315895
 70
0
  0
SEQEND
  5
4C7A5
  8
0
  0
POLYLINE
  5
4AED5
  8
0
 62
7
 66
1
 70
0
 10
0
 20
0
 30
0
  0
VERTEX
  5
4C7A6
  8
0
 62
7
 10
64.358570757488962
 20
22.803704280884521
 70
0
  0
VERTEX
  5
4C7A7
  8
0
 62
7
 10
64.358570757488962
 20
22.803704280884521
 70
0
  0
SEQEND
  5
4C7A8
  8
0
  0
POLYLINE
  5
4AED9
  8
0
 62
7
 66
1
 70
0
 10
0
 20
0
 30
0
  0
VERTEX
  5
4C7A9
  8
0
 62
7
 10
57.628232217504888
 20
23.438635378816059
 70
0
  0
VERTEX
  5
4C7AA
  8
0
 62
7
 10
57.628232217504888
 20
23.438635378816059
 70
0
  0
SEQEND
  5
4C7AB
  8
0
  0
POLYLINE
  5
4AEDD
  8
0
 62
7
 66
1
 70
0
 10
0
 20
0
 30
0
  0
VERTEX
  5
4C7AC
  8
0
 62
7
 10
65.7131823022892
 20
22.21097560264727
 70
0
  0
VERTEX
  5
4C7AD
  8
0
 62
7
 10
65.7559014863063
 20
22.21097560264727
 70
0
  0
VERTEX
  5
4C7AE
  8
0
 62
7
 10
65.7559014863063
 20
22.252316748470271
 70
0
  0
VERTEX
  5
4C7AF
  8
0
 62
7
 10
65.7986206703234
 20
22.252316748470271
 70
0
  0
VERTEX
  5
4C7B0
  8
0
 62
7
 10
65.7986206703234
 20
22.337755116504471
 70
0
  0
VERTEX
  5
4C7B1
  8
0
 62
7
 10
65.7559014863063
 20
22.337755116504471
 70
0
  0
SEQEND
  5
4C7B2
  8
0
  0
POLYLINE
  5
4AEE5
  8
0
 62
7
 66
1
 70
0
 10
0
 20
0
 30
0
  0
VERTEX
  5
4C7B3
  8
0
 62
7
 10
60.041177095373861
 20
20.221088450366981
 70
0
  0
VERTEX
  5
4C7B4
  8
0
 62
7
 10
60.041177095373861
 20
20.178369266349879
 70
0
  0
VERTEX
  5
4C7B5
  8
0
 62
7
 10
59.998457911356752
 20
20.178369266349879
 70
0
  0
VERTEX
  5
4C7B6
  8
0
 62
7
 10
59.998457911356752
 20
20.221088450366981
 70
0
  0
SEQEND
  5
4C7B7
  8
0
  0
POLYLINE
  5
4AEEB
  8
0
 62
7
 66
1
 70
0
 10
0
 20
0
 30
0
  0
VERTEX
  5
4C7B8
  8
0
 62
7
 10
24.695875454904641
 20
42.655550250313922
 70
0
  0
VERTEX
  5
4C7B9
  8
0
 62
7
 10
24.695875454904641
 20
42.614209104490882
 70
0
  0
VERTEX
  5
4C7BA
  8
0
 62
7
 10
24.738594638921739
 20
42.614209104490882
 70
0
  0
SEQEND
  5
4C7BB
  8
0
  0
POLYLINE
  5
4AEF0
  8
0
 62
7
 66
1
 70
0
 10
0
 20
0
 30
0
  0
VERTEX
  5
4C7BC
  8
0
 62
7
 10
60.845951400728239
 20
24.58137355127343
 70
0
  0
VERTEX
  5
4C7BD
  8
0
 62
7
 10
60.845951400728239
 20
24.58137355127343
 70
0
  0
SEQEND
  5
4C7BE
  8
0
  0
POLYLINE
  5
4AEF4
  8
0
 62
7
 66
1
 70
0
 10
0
 20
0
 30
0
  0
VERTEX
  5
4C7BF
  8
0
 62
7
 10
60.888670584745313
 20
24.538309857707819
 70
0
  0
VERTEX
  5
4C7C0
  8
0
 62
7
 10
60.888670584745313
 20
24.58137355127343
 70
0
  0
SEQEND
  5
4C7C1
  8
0
  0
POLYLINE
  5
4AEF8
  8
0
 62
7
 66
1
 70
0
 10
0
 20
0
 30
0
  0
VERTEX
  5
4C7C2
  8
0
 62
7
 10
28.716990905288242
 20
40.751273720842029
 70
0
  0
VERTEX
  5
4C7C3
  8
0
 62
7
 10
28.716990905288242
 20
40.751273720842029
 70
0
  0
SEQEND
  5
4C7C4
  8
0
  0
POLYLINE
  5
4AEFC
  8
0
 62
7
 66
1
 70
0
 10
0
 20
0
 30
0
  0
VERTEX
  5
4C7C5
  8
0
 62
7
 10
28.75971008930534
 20
40.751273720842029
 70
0
  0
VERTEX
  5
4C7C6
  8
0
 62
7
 10
28.75971008930534
 20
40.751273720842029
 70
0
  0
SEQEND
  5
4C7C7
  8
0
  0
POLYLINE
  5
4AF00
  8
0
 62
7
 66
1
 70
0
 10
0
 20
0
 30
0
  0
VERTEX
  5
4C7C8
  8
0
 62
7
 10
57.458733519630592
 20
23.353369265556118
 70
0
  0
VERTEX
  5
4C7C9
  8
0
 62
7
 10
57.417392373807587
 20
23.353369265556118
 70
0
  0
SEQEND
  5
4C7CA
  8
0
  0
POLYLINE
  5
4AF04
  8
0
 62
7
 66
1
 70
0
 10
0
 20
0
 30
0
  0
VERTEX
  5
4C7CB
  8
0
 62
7
 10
57.374673189790492
 20
23.184042822456089
 70
0
  0
VERTEX
  5
4C7CC
  8
0
 62
7
 10
57.374673189790492
 20
23.14132363843899
 70
0
  0
SEQEND
  5
4C7CD
  8
0
  0
POLYLINE
  5
4AF08
  8
0
 62
7
 66
1
 70
0
 10
0
 20
0
 30
0
  0
VERTEX
  5
4C7CE
  8
0
 62
7
 10
57.374673189790492
 20
23.14132363843899
 70
0
  0
VERTEX
  5
4C7CF
  8
0
 62
7
 10
57.374673189790492
 20
23.14132363843899
 70
0
  0
SEQEND
  5
4C7D0
  8
0
  0
POLYLINE
  5
4AF0C
  8
0
 62
7
 66
1
 70
0
 10
0
 20
0
 30
0
  0
VERTEX
  5
4C7D1
  8
0
 62
7
 10
25.331151062384691
 20
39.523269435124739
 70
0
  0
VERTEX
  5
4C7D2
  8
0
 62
7
 10
25.288431878367621
 20
39.523269435124739
 70
0
  0
SEQEND
  5
4C7D3
  8
0
  0
POLYLINE
  5
4AF10
  8
0
 62
7
 66
1
 70
0
 10
0
 20
0
 30
0
  0
VERTEX
  5
4C7D4
  8
0
 62
7
 10
25.245712694350519
 20
39.353942992024713
 70
0
  0
VERTEX
  5
4C7D5
  8
0
 62
7
 10
25.245712694350519
 20
39.353942992024713
 70
0
  0
SEQEND
  5
4C7D6
  8
0
  0
POLYLINE
  5
4AF14
  8
0
 62
7
 66
1
 70
0
 10
0
 20
0
 30
0
  0
VERTEX
  5
4C7D7
  8
0
 62
7
 10
25.245712694350519
 20
39.353942992024713
 70
0
  0
VERTEX
  5
4C7D8
  8
0
 62
7
 10
25.245712694350519
 20
39.353942992024713
 70
0
  0
SEQEND
  5
4C7D9
  8
0
  0
POLYLINE
  5
4AF18
  8
0
 62
7
 66
1
 70
0
 10
0
 20
0
 30
0
  0
VERTEX
  5
4C7DA
  8
0
 62
7
 10
25.500649760258991
 20
39.60870780315895
 70
0
  0
VERTEX
  5
4C7DB
  8
0
 62
7
 10
25.500649760258991
 20
39.60870780315895
 70
0
  0
SEQEND
  5
4C7DC
  8
0
  0
POLYLINE
  5
4AF1C
  8
0
 62
7
 66
1
 70
0
 10
0
 20
0
 30
0
  0
VERTEX
  5
4C7DD
  8
0
 62
7
 10
25.500649760258991
 20
39.60870780315895
 70
0
  0
VERTEX
  5
4C7DE
  8
0
 62
7
 10
25.500649760258991
 20
39.60870780315895
 70
0
  0
SEQEND
  5
4C7DF
  8
0
  0
POLYLINE
  5
4AF20
  8
0
 62
7
 66
1
 70
0
 10
0
 20
0
 30
0
  0
VERTEX
  5
4C7E0
  8
0
 62
7
 10
25.500649760258991
 20
39.60870780315895
 70
0
  0
VERTEX
  5
4C7E1
  8
0
 62
7
 10
25.4579305762419
 20
39.60870780315895
 70
0
  0
SEQEND
  5
4C7E2
  8
0
  0
POLYLINE
  5
4AF24
  8
0
 62
7
 66
1
 70
0
 10
0
 20
0
 30
0
  0
VERTEX
  5
4C7E3
  8
0
 62
7
 10
57.628232217504888
 20
23.438635378816059
 70
0
  0
VERTEX
  5
4C7E4
  8
0
 62
7
 10
57.628232217504888
 20
23.438635378816059
 70
0
  0
SEQEND
  5
4C7E5
  8
0
  0
POLYLINE
  5
4AF28
  8
0
 62
7
 66
1
 70
0
 10
0
 20
0
 30
0
  0
VERTEX
  5
4C7E6
  8
0
 62
7
 10
57.628232217504888
 20
23.438635378816059
 70
0
  0
VERTEX
  5
4C7E7
  8
0
 62
7
 10
57.628232217504888
 20
23.438635378816059
 70
0
  0
SEQEND
  5
4C7E8
  8
0
  0
POLYLINE
  5
4AF2C
  8
0
 62
7
 66
1
 70
0
 10
0
 20
0
 30
0
  0
VERTEX
  5
4C7E9
  8
0
 62
7
 10
57.628232217504888
 20
23.438635378816059
 70
0
  0
VERTEX
  5
4C7EA
  8
0
 62
7
 10
57.58689107168189
 20
23.438635378816059
 70
0
  0
SEQEND
  5
4C7EB
  8
0
  0
POLYLINE
  5
4AF30
  8
0
 62
7
 66
1
 70
0
 10
0
 20
0
 30
0
  0
VERTEX
  5
4C7EC
  8
0
 62
7
 10
28.97192797119672
 20
40.667041136227681
 70
0
  0
VERTEX
  5
4C7ED
  8
0
 62
7
 10
28.929208787179618
 20
40.667041136227681
 70
0
  0
SEQEND
  5
4C7EE
  8
0
  0
POLYLINE
  5
4AF34
  8
0
 62
7
 66
1
 70
0
 10
0
 20
0
 30
0
  0
VERTEX
  5
4C7EF
  8
0
 62
7
 10
61.09951042844262
 20
24.49559067369071
 70
0
  0
VERTEX
  5
4C7F0
  8
0
 62
7
 10
61.05679124442549
 20
24.49559067369071
 70
0
  0
SEQEND
  5
4C7F1
  8
0
  0
POLYLINE
  5
4AF38
  8
0
 62
7
 66
1
 70
0
 10
0
 20
0
 30
0
  0
VERTEX
  5
4C7F2
  8
0
 62
7
 10
20.547980490663829
 20
40.073278929344887
 70
0
  0
VERTEX
  5
4C7F3
  8
0
 62
7
 10
20.547980490663829
 20
40.158545042604828
 70
0
  0
VERTEX
  5
4C7F4
  8
0
 62
7
 10
20.590699674680941
 20
40.158545042604828
 70
0
  0
SEQEND
  5
4C7F5
  8
0
  0
POLYLINE
  5
4AF3D
  8
0
 62
7
 66
1
 70
0
 10
0
 20
0
 30
0
  0
VERTEX
  5
4C7F6
  8
0
 62
7
 10
26.34676521143636
 20
42.1899455954824
 70
0
  0
VERTEX
  5
4C7F7
  8
0
 62
7
 10
26.30404602741925
 20
42.1899455954824
 70
0
  0
SEQEND
  5
4C7F8
  8
0
  0
POLYLINE
  5
4AF41
  8
0
 62
7
 66
1
 70
0
 10
0
 20
0
 30
0
  0
VERTEX
  5
4C7F9
  8
0
 62
7
 10
24.695875454904641
 20
43.926273720048279
 70
0
  0
VERTEX
  5
4C7FA
  8
0
 62
7
 10
24.695875454904641
 20
43.926273720048279
 70
0
  0
SEQEND
  5
4C7FB
  8
0
  0
POLYLINE
  5
4AF45
  8
0
 62
7
 66
1
 70
0
 10
0
 20
0
 30
0
  0
VERTEX
  5
4C7FC
  8
0
 62
7
 10
25.245712694350519
 20
39.353942992024713
 70
0
  0
VERTEX
  5
4C7FD
  8
0
 62
7
 10
25.245712694350519
 20
39.353942992024713
 70
0
  0
SEQEND
  5
4C7FE
  8
0
  0
POLYLINE
  5
4AF49
  8
0
 62
7
 66
1
 70
0
 10
0
 20
0
 30
0
  0
VERTEX
  5
4C7FF
  8
0
 62
7
 10
25.4579305762419
 20
39.480550251107672
 70
0
  0
VERTEX
  5
4C800
  8
0
 62
7
 10
25.4579305762419
 20
39.439209105284647
 70
0
  0
SEQEND
  5
4C801
  8
0
  0
POLYLINE
  5
4AF4D
  8
0
 62
7
 66
1
 70
0
 10
0
 20
0
 30
0
  0
VERTEX
  5
4C802
  8
0
 62
7
 10
57.374673189790492
 20
23.184042822456089
 70
0
  0
VERTEX
  5
4C803
  8
0
 62
7
 10
57.374673189790492
 20
23.14132363843899
 70
0
  0
SEQEND
  5
4C804
  8
0
  0
POLYLINE
  5
4AF51
  8
0
 62
7
 66
1
 70
0
 10
0
 20
0
 30
0
  0
VERTEX
  5
4C805
  8
0
 62
7
 10
57.58689107168189
 20
23.26930893571603
 70
0
  0
VERTEX
  5
4C806
  8
0
 62
7
 10
57.58689107168189
 20
23.26930893571603
 70
0
  0
SEQEND
  5
4C807
  8
0
  0
POLYLINE
  5
4AF55
  8
0
 62
7
 66
1
 70
0
 10
0
 20
0
 30
0
  0
VERTEX
  5
4C808
  8
0
 62
7
 10
22.156151063178442
 20
41.682655285279338
 70
0
  0
VERTEX
  5
4C809
  8
0
 62
7
 10
22.19887024719554
 20
41.682655285279338
 70
0
  0
VERTEX
  5
4C80A
  8
0
 62
7
 10
22.19887024719554
 20
41.766543360345139
 70
0
  0
SEQEND
  5
4C80B
  8
0
  0
POLYLINE
  5
4AF5A
  8
0
 62
7
 66
1
 70
0
 10
0
 20
0
 30
0
  0
VERTEX
  5
4C80C
  8
0
 62
7
 10
25.245712694350519
 20
39.353942992024713
 70
0
  0
VERTEX
  5
4C80D
  8
0
 62
7
 10
25.245712694350519
 20
39.353942992024713
 70
0
  0
SEQEND
  5
4C80E
  8
0
  0
POLYLINE
  5
4AF5E
  8
0
 62
7
 66
1
 70
0
 10
0
 20
0
 30
0
  0
VERTEX
  5
4C80F
  8
0
 62
7
 10
57.374673189790492
 20
23.14132363843899
 70
0
  0
VERTEX
  5
4C810
  8
0
 62
7
 10
57.417392373807587
 20
23.14132363843899
 70
0
  0
SEQEND
  5
4C811
  8
0
  0
POLYLINE
  5
4AF62
  8
0
 62
7
 66
1
 70
0
 10
0
 20
0
 30
0
  0
VERTEX
  5
4C812
  8
0
 62
7
 10
24.908093336796021
 20
42.655550250313922
 70
0
  0
VERTEX
  5
4C813
  8
0
 62
7
 10
24.908093336796021
 20
42.655550250313922
 70
0
  0
SEQEND
  5
4C814
  8
0
  0
POLYLINE
  5
4AF66
  8
0
 62
7
 66
1
 70
0
 10
0
 20
0
 30
0
  0
VERTEX
  5
4C815
  8
0
 62
7
 10
28.716990905288242
 20
40.751273720842029
 70
0
  0
VERTEX
  5
4C816
  8
0
 62
7
 10
28.75971008930534
 20
40.751273720842029
 70
0
  0
SEQEND
  5
4C817
  8
0
  0
POLYLINE
  5
4AF6A
  8
0
 62
7
 66
1
 70
0
 10
0
 20
0
 30
0
  0
VERTEX
  5
4C818
  8
0
 62
7
 10
60.845951400728239
 20
24.58137355127343
 70
0
  0
VERTEX
  5
4C819
  8
0
 62
7
 10
60.888670584745313
 20
24.58137355127343
 70
0
  0
SEQEND
  5
4C81A
  8
0
  0
POLYLINE
  5
4AF6E
  8
0
 62
7
 66
1
 70
0
 10
0
 20
0
 30
0
  0
VERTEX
  5
4C81B
  8
0
 62
7
 10
22.19887024719554
 20
43.0372668300796
 70
0
  0
VERTEX
  5
4C81C
  8
0
 62
7
 10
22.19887024719554
 20
43.0372668300796
 70
0
  0
SEQEND
  5
4C81D
  8
0
  0
POLYLINE
  5
4AF72
  8
0
 62
7
 66
1
 70
0
 10
0
 20
0
 30
0
  0
VERTEX
  5
4C81E
  8
0
 62
7
 10
24.695875454904641
 20
43.926273720048279
 70
0
  0
VERTEX
  5
4C81F
  8
0
 62
7
 10
24.695875454904641
 20
43.926273720048279
 70
0
  0
SEQEND
  5
4C820
  8
0
  0
POLYLINE
  5
4AF76
  8
0
 62
7
 66
1
 70
0
 10
0
 20
0
 30
0
  0
VERTEX
  5
4C821
  8
0
 62
7
 10
24.738594638921739
 20
42.614209104490882
 70
0
  0
VERTEX
  5
4C822
  8
0
 62
7
 10
24.738594638921739
 20
42.614209104490882
 70
0
  0
SEQEND
  5
4C823
  8
0
  0
POLYLINE
  5
4AF7A
  8
0
 62
7
 66
1
 70
0
 10
0
 20
0
 30
0
  0
VERTEX
  5
4C824
  8
0
 62
7
 10
61.05679124442549
 20
24.49559067369071
 70
0
  0
VERTEX
  5
4C825
  8
0
 62
7
 10
61.05679124442549
 20
24.49559067369071
 70
0
  0
SEQEND
  5
4C826
  8
0
  0
POLYLINE
  5
4AF7E
  8
0
 62
7
 66
1
 70
0
 10
0
 20
0
 30
0
  0
VERTEX
  5
4C827
  8
0
 62
7
 10
61.09951042844262
 20
24.49559067369071
 70
0
  0
VERTEX
  5
4C828
  8
0
 62
7
 10
61.09951042844262
 20
24.49559067369071
 70
0
  0
SEQEND
  5
4C829
  8
0
  0
POLYLINE
  5
4AF82
  8
0
 62
7
 66
1
 70
0
 10
0
 20
0
 30
0
  0
VERTEX
  5
4C82A
  8
0
 62
7
 10
28.929208787179618
 20
40.667041136227681
 70
0
  0
VERTEX
  5
4C82B
  8
0
 62
7
 10
28.929208787179618
 20
40.667041136227681
 70
0
  0
SEQEND
  5
4C82C
  8
0
  0
POLYLINE
  5
4AF86
  8
0
 62
7
 66
1
 70
0
 10
0
 20
0
 30
0
  0
VERTEX
  5
4C82D
  8
0
 62
7
 10
28.97192797119672
 20
40.667041136227681
 70
0
  0
VERTEX
  5
4C82E
  8
0
 62
7
 10
28.97192797119672
 20
40.667041136227681
 70
0
  0
SEQEND
  5
4C82F
  8
0
  0
POLYLINE
  5
4AF8A
  8
0
 62
7
 66
1
 70
0
 10
0
 20
0
 30
0
  0
VERTEX
  5
4C830
  8
0
 62
7
 10
57.628232217504888
 20
23.396088449573231
 70
0
  0
VERTEX
  5
4C831
  8
0
 62
7
 10
57.628232217504888
 20
23.438635378816059
 70
0
  0
SEQEND
  5
4C832
  8
0
  0
POLYLINE
  5
4AF8E
  8
0
 62
7
 66
1
 70
0
 10
0
 20
0
 30
0
  0
VERTEX
  5
4C833
  8
0
 62
7
 10
57.58689107168189
 20
23.26930893571603
 70
0
  0
VERTEX
  5
4C834
  8
0
 62
7
 10
57.58689107168189
 20
23.26930893571603
 70
0
  0
SEQEND
  5
4C835
  8
0
  0
POLYLINE
  5
4AF92
  8
0
 62
7
 66
1
 70
0
 10
0
 20
0
 30
0
  0
VERTEX
  5
4C836
  8
0
 62
7
 10
25.500649760258991
 20
39.60870780315895
 70
0
  0
VERTEX
  5
4C837
  8
0
 62
7
 10
25.500649760258991
 20
39.60870780315895
 70
0
  0
SEQEND
  5
4C838
  8
0
  0
POLYLINE
  5
4AF96
  8
0
 62
7
 66
1
 70
0
 10
0
 20
0
 30
0
  0
VERTEX
  5
4C839
  8
0
 62
7
 10
25.4579305762419
 20
39.439209105284647
 70
0
  0
VERTEX
  5
4C83A
  8
0
 62
7
 10
25.4579305762419
 20
39.480550251107672
 70
0
  0
SEQEND
  5
4C83B
  8
0
  0
POLYLINE
  5
4AF9A
  8
0
 62
7
 66
1
 70
0
 10
0
 20
0
 30
0
  0
VERTEX
  5
4C83C
  8
0
 62
7
 10
26.26270488159625
 20
42.062993826850906
 70
0
  0
VERTEX
  5
4C83D
  8
0
 62
7
 10
26.30404602741925
 20
42.062993826850906
 70
0
  0
VERTEX
  5
4C83E
  8
0
 62
7
 10
26.34676521143636
 20
42.062993826850906
 70
0
  0
VERTEX
  5
4C83F
  8
0
 62
7
 10
26.34676521143636
 20
42.1899455954824
 70
0
  0
SEQEND
  5
4C840
  8
0
  0
POLYLINE
  5
4AFA0
  8
0
 62
7
 66
1
 70
0
 10
0
 20
0
 30
0
  0
VERTEX
  5
4C841
  8
0
 62
7
 10
22.029371549321269
 20
41.639936101262251
 70
0
  0
VERTEX
  5
4C842
  8
0
 62
7
 10
22.029371549321269
 20
41.639936101262251
 70
0
  0
SEQEND
  5
4C843
  8
0
  0
POLYLINE
  5
4B376
  8
0
 62
7
 66
1
 70
8
  0
VERTEX
  5
4B377
  8
0
 62
7
 10
20.632
 20
40.0733
 30
0
 70
32
  0
VERTEX
  5
4B378
  8
0
 62
7
 10
20.632
 20
40.0733
 30
0
 70
32
  0
VERTEX
  5
4B379
  8
0
 62
7
 10
20.632
 20
40.0733
 30
0
 70
32
  0
VERTEX
  5
4B37A
  8
0
 62
7
 10
20.6319
 20
40.0733
 30
0
 70
32
  0
VERTEX
  5
4B37B
  8
0
 62
7
 10
20.6319
 20
40.0733
 30
0
 70
32
  0
VERTEX
  5
4B37C
  8
0
 62
7
 10
20.6318
 20
40.0733
 30
0
 70
32
  0
VERTEX
  5
4B37D
  8
0
 62
7
 10
20.6316
 20
40.0733
 30
0
 70
32
  0
VERTEX
  5
4B37E
  8
0
 62
7
 10
20.6315
 20
40.0733
 30
0
 70
32
  0
VERTEX
  5
4B37F
  8
0
 62
7
 10
20.6313
 20
40.0733
 30
0
 70
32
  0
VERTEX
  5
4B380
  8
0
 62
7
 10
20.6312
 20
40.0733
 30
0
 70
32
  0
VERTEX
  5
4B381
  8
0
 62
7
 10
20.631
 20
40.0733
 30
0
 70
32
  0
VERTEX
  5
4B382
  8
0
 62
7
 10
20.6307
 20
40.0733
 30
0
 70
32
  0
VERTEX
  5
4B383
  8
0
 62
7
 10
20.6305
 20
40.0733
 30
0
 70
32
  0
VERTEX
  5
4B384
  8
0
 62
7
 10
20.6303
 20
40.0733
 30
0
 70
32
  0
VERTEX
  5
4B385
  8
0
 62
7
 10
20.63
 20
40.0733
 30
0
 70
32
  0
VERTEX
  5
4B386
  8
0
 62
7
 10
20.6297
 20
40.0733
 30
0
 70
32
  0
VERTEX
  5
4B387
  8
0
 62
7
 10
20.6294
 20
40.0733
 30
0
 70
32
  0
VERTEX
  5
4B388
  8
0
 62
7
 10
20.6291
 20
40.0733
 30
0
 70
32
  0
VERTEX
  5
4B389
  8
0
 62
7
 10
20.6287
 20
40.0733
 30
0
 70
32
  0
VERTEX
  5
4B38A
  8
0
 62
7
 10
20.6284
 20
40.0733
 30
0
 70
32
  0
VERTEX
  5
4B38B
  8
0
 62
7
 10
20.628
 20
40.0733
 30
0
 70
32
  0
VERTEX
  5
4B38C
  8
0
 62
7
 10
20.6276
 20
40.0733
 30
0
 70
32
  0
VERTEX
  5
4B38D
  8
0
 62
7
 10
20.6273
 20
40.0733
 30
0
 70
32
  0
VERTEX
  5
4B38E
  8
0
 62
7
 10
20.6268
 20
40.0733
 30
0
 70
32
  0
VERTEX
  5
4B38F
  8
0
 62
7
 10
20.6264
 20
40.0733
 30
0
 70
32
  0
VERTEX
  5
4B390
  8
0
 62
7
 10
20.626
 20
40.0733
 30
0
 70
32
  0
VERTEX
  5
4B391
  8
0
 62
7
 10
20.6256
 20
40.0733
 30
0
 70
32
  0
VERTEX
  5
4B392
  8
0
 62
7
 10
20.6251
 20
40.0733
 30
0
 70
32
  0
VERTEX
  5
4B393
  8
0
 62
7
 10
20.6246
 20
40.0733
 30
0
 70
32
  0
VERTEX
  5
4B394
  8
0
 62
7
 10
20.6242
 20
40.0733
 30
0
 70
32
  0
VERTEX
  5
4B395
  8
0
 62
7
 10
20.6237
 20
40.0733
 30
0
 70
32
  0
VERTEX
  5
4B396
  8
0
 62
7
 10
20.6232
 20
40.0733
 30
0
 70
32
  0
VERTEX
  5
4B397
  8
0
 62
7
 10
20.6227
 20
40.0733
 30
0
 70
32
  0
VERTEX
  5
4B398
  8
0
 62
7
 10
20.6222
 20
40.0733
 30
0
 70
32
  0
VERTEX
  5
4B399
  8
0
 62
7
 10
20.6216
 20
40.0733
 30
0
 70
32
  0
VERTEX
  5
4B39A
  8
0
 62
7
 10
20.6211
 20
40.0733
 30
0
 70
32
  0
VERTEX
  5
4B39B
  8
0
 62
7
 10
20.6206
 20
40.0733
 30
0
 70
32
  0
VERTEX
  5
4B39C
  8
0
 62
7
 10
20.62
 20
40.0733
 30
0
 70
32
  0
VERTEX
  5
4B39D
  8
0
 62
7
 10
20.6195
 20
40.0733
 30
0
 70
32
  0
VERTEX
  5
4B39E
  8
0
 62
7
 10
20.6189
 20
40.0733
 30
0
 70
32
  0
VERTEX
  5
4B39F
  8
0
 62
7
 10
20.6183
 20
40.0733
 30
0
 70
32
  0
VERTEX
  5
4B3A0
  8
0
 62
7
 10
20.6178
 20
40.0733
 30
0
 70
32
  0
VERTEX
  5
4B3A1
  8
0
 62
7
 10
20.6172
 20
40.0733
 30
0
 70
32
  0
VERTEX
  5
4B3A2
  8
0
 62
7
 10
20.6166
 20
40.0733
 30
0
 70
32
  0
VERTEX
  5
4B3A3
  8
0
 62
7
 10
20.616
 20
40.0733
 30
0
 70
32
  0
VERTEX
  5
4B3A4
  8
0
 62
7
 10
20.6155
 20
40.0733
 30
0
 70
32
  0
VERTEX
  5
4B3A5
  8
0
 62
7
 10
20.6149
 20
40.0733
 30
0
 70
32
  0
VERTEX
  5
4B3A6
  8
0
 62
7
 10
20.6143
 20
40.0733
 30
0
 70
32
  0
VERTEX
  5
4B3A7
  8
0
 62
7
 10
20.6137
 20
40.0733
 30
0
 70
32
  0
VERTEX
  5
4B3A8
  8
0
 62
7
 10
20.6131
 20
40.0733
 30
0
 70
32
  0
VERTEX
  5
4B3A9
  8
0
 62
7
 10
20.6125
 20
40.0733
 30
0
 70
32
  0
VERTEX
  5
4B3AA
  8
0
 62
7
 10
20.6119
 20
40.0733
 30
0
 70
32
  0
VERTEX
  5
4B3AB
  8
0
 62
7
 10
20.6113
 20
40.0733
 30
0
 70
32
  0
VERTEX
  5
4B3AC
  8
0
 62
7
 10
20.6107
 20
40.0733
 30
0
 70
32
  0
VERTEX
  5
4B3AD
  8
0
 62
7
 10
20.6101
 20
40.0733
 30
0
 70
32
  0
VERTEX
  5
4B3AE
  8
0
 62
7
 10
20.6095
 20
40.0733
 30
0
 70
32
  0
VERTEX
  5
4B3AF
  8
0
 62
7
 10
20.6089
 20
40.0733
 30
0
 70
32
  0
VERTEX
  5
4B3B0
  8
0
 62
7
 10
20.6083
 20
40.0733
 30
0
 70
32
  0
VERTEX
  5
4B3B1
  8
0
 62
7
 10
20.6077
 20
40.0733
 30
0
 70
32
  0
VERTEX
  5
4B3B2
  8
0
 62
7
 10
20.6071
 20
40.0733
 30
0
 70
32
  0
VERTEX
  5
4B3B3
  8
0
 62
7
 10
20.6066
 20
40.0733
 30
0
 70
32
  0
VERTEX
  5
4B3B4
  8
0
 62
7
 10
20.606
 20
40.0733
 30
0
 70
32
  0
VERTEX
  5
4B3B5
  8
0
 62
7
 10
20.6054
 20
40.0733
 30
0
 70
32
  0
VERTEX
  5
4B3B6
  8
0
 62
7
 10
20.6048
 20
40.0733
 30
0
 70
32
  0
VERTEX
  5
4B3B7
  8
0
 62
7
 10
20.6043
 20
40.0733
 30
0
 70
32
  0
VERTEX
  5
4B3B8
  8
0
 62
7
 10
20.6037
 20
40.0733
 30
0
 70
32
  0
VERTEX
  5
4B3B9
  8
0
 62
7
 10
20.6031
 20
40.0733
 30
0
 70
32
  0
VERTEX
  5
4B3BA
  8
0
 62
7
 10
20.6026
 20
40.0733
 30
0
 70
32
  0
VERTEX
  5
4B3BB
  8
0
 62
7
 10
20.602
 20
40.0733
 30
0
 70
32
  0
VERTEX
  5
4B3BC
  8
0
 62
7
 10
20.6015
 20
40.0733
 30
0
 70
32
  0
VERTEX
  5
4B3BD
  8
0
 62
7
 10
20.601
 20
40.0733
 30
0
 70
32
  0
VERTEX
  5
4B3BE
  8
0
 62
7
 10
20.6005
 20
40.0733
 30
0
 70
32
  0
VERTEX
  5
4B3BF
  8
0
 62
7
 10
20.5999
 20
40.0733
 30
0
 70
32
  0
VERTEX
  5
4B3C0
  8
0
 62
7
 10
20.5994
 20
40.0733
 30
0
 70
32
  0
VERTEX
  5
4B3C1
  8
0
 62
7
 10
20.5989
 20
40.0733
 30
0
 70
32
  0
VERTEX
  5
4B3C2
  8
0
 62
7
 10
20.5985
 20
40.0733
 30
0
 70
32
  0
VERTEX
  5
4B3C3
  8
0
 62
7
 10
20.598
 20
40.0733
 30
0
 70
32
  0
VERTEX
  5
4B3C4
  8
0
 62
7
 10
20.5975
 20
40.0733
 30
0
 70
32
  0
VERTEX
  5
4B3C5
  8
0
 62
7
 10
20.5971
 20
40.0733
 30
0
 70
32
  0
VERTEX
  5
4B3C6
  8
0
 62
7
 10
20.5966
 20
40.0733
 30
0
 70
32
  0
VERTEX
  5
4B3C7
  8
0
 62
7
 10
20.5962
 20
40.0733
 30
0
 70
32
  0
VERTEX
  5
4B3C8
  8
0
 62
7
 10
20.5958
 20
40.0733
 30
0
 70
32
  0
VERTEX
  5
4B3C9
  8
0
 62
7
 10
20.5954
 20
40.0733
 30
0
 70
32
  0
VERTEX
  5
4B3CA
  8
0
 62
7
 10
20.595
 20
40.0733
 30
0
 70
32
  0
VERTEX
  5
4B3CB
  8
0
 62
7
 10
20.5946
 20
40.0733
 30
0
 70
32
  0
VERTEX
  5
4B3CC
  8
0
 62
7
 10
20.5943
 20
40.0733
 30
0
 70
32
  0
VERTEX
  5
4B3CD
  8
0
 62
7
 10
20.5939
 20
40.0733
 30
0
 70
32
  0
VERTEX
  5
4B3CE
  8
0
 62
7
 10
20.5936
 20
40.0733
 30
0
 70
32
  0
VERTEX
  5
4B3CF
  8
0
 62
7
 10
20.5933
 20
40.0733
 30
0
 70
32
  0
VERTEX
  5
4B3D0
  8
0
 62
7
 10
20.593
 20
40.0733
 30
0
 70
32
  0
VERTEX
  5
4B3D1
  8
0
 62
7
 10
20.5927
 20
40.0733
 30
0
 70
32
  0
VERTEX
  5
4B3D2
  8
0
 62
7
 10
20.5924
 20
40.0733
 30
0
 70
32
  0
VERTEX
  5
4B3D3
  8
0
 62
7
 10
20.5922
 20
40.0733
 30
0
 70
32
  0
VERTEX
  5
4B3D4
  8
0
 62
7
 10
20.5919
 20
40.0733
 30
0
 70
32
  0
VERTEX
  5
4B3D5
  8
0
 62
7
 10
20.5917
 20
40.0733
 30
0
 70
32
  0
VERTEX
  5
4B3D6
  8
0
 62
7
 10
20.5915
 20
40.0733
 30
0
 70
32
  0
VERTEX
  5
4B3D7
  8
0
 62
7
 10
20.5914
 20
40.0733
 30
0
 70
32
  0
VERTEX
  5
4B3D8
  8
0
 62
7
 10
20.5912
 20
40.0733
 30
0
 70
32
  0
VERTEX
  5
4B3D9
  8
0
 62
7
 10
20.5911
 20
40.0733
 30
0
 70
32
  0
VERTEX
  5
4B3DA
  8
0
 62
7
 10
20.591
 20
40.0733
 30
0
 70
32
  0
VERTEX
  5
4B3DB
  8
0
 62
7
 10
20.5909
 20
40.0733
 30
0
 70
32
  0
VERTEX
  5
4B3DC
  8
0
 62
7
 10
20.5908
 20
40.0733
 30
0
 70
32
  0
VERTEX
  5
4B3DD
  8
0
 62
7
 10
20.5907
 20
40.0733
 30
0
 70
32
  0
VERTEX
  5
4B3DE
  8
0
 62
7
 10
20.5907
 20
40.0733
 30
0
 70
32
  0
VERTEX
  5
4B3DF
  8
0
 62
7
 10
20.5907
 20
40.0733
 30
0
 70
32
  0
VERTEX
  5
4B3E0
  8
0
 62
7
 10
20.5907
 20
40.0733
 30
0
 70
32
  0
VERTEX
  5
4B3E1
  8
0
 62
7
 10
20.5907
 20
40.073199999999993
 30
0
 70
32
  0
VERTEX
  5
4B3E2
  8
0
 62
7
 10
20.5907
 20
40.073199999999993
 30
0
 70
32
  0
VERTEX
  5
4B3E3
  8
0
 62
7
 10
20.5907
 20
40.07309999999999
 30
0
 70
32
  0
VERTEX
  5
4B3E4
  8
0
 62
7
 10
20.5907
 20
40.072999999999993
 30
0
 70
32
  0
VERTEX
  5
4B3E5
  8
0
 62
7
 10
20.5907
 20
40.0728
 30
0
 70
32
  0
VERTEX
  5
4B3E6
  8
0
 62
7
 10
20.5907
 20
40.0727
 30
0
 70
32
  0
VERTEX
  5
4B3E7
  8
0
 62
7
 10
20.5907
 20
40.072499999999991
 30
0
 70
32
  0
VERTEX
  5
4B3E8
  8
0
 62
7
 10
20.5907
 20
40.072299999999977
 30
0
 70
32
  0
VERTEX
  5
4B3E9
  8
0
 62
7
 10
20.5907
 20
40.072099999999992
 30
0
 70
32
  0
VERTEX
  5
4B3EA
  8
0
 62
7
 10
20.5907
 20
40.0719
 30
0
 70
32
  0
VERTEX
  5
4B3EB
  8
0
 62
7
 10
20.5907
 20
40.0717
 30
0
 70
32
  0
VERTEX
  5
4B3EC
  8
0
 62
7
 10
20.5907
 20
40.071399999999983
 30
0
 70
32
  0
VERTEX
  5
4B3ED
  8
0
 62
7
 10
20.5907
 20
40.071099999999987
 30
0
 70
32
  0
VERTEX
  5
4B3EE
  8
0
 62
7
 10
20.5907
 20
40.0708
 30
0
 70
32
  0
VERTEX
  5
4B3EF
  8
0
 62
7
 10
20.5907
 20
40.0705
 30
0
 70
32
  0
VERTEX
  5
4B3F0
  8
0
 62
7
 10
20.5907
 20
40.070199999999993
 30
0
 70
32
  0
VERTEX
  5
4B3F1
  8
0
 62
7
 10
20.5907
 20
40.0699
 30
0
 70
32
  0
VERTEX
  5
4B3F2
  8
0
 62
7
 10
20.5907
 20
40.069499999999977
 30
0
 70
32
  0
VERTEX
  5
4B3F3
  8
0
 62
7
 10
20.5907
 20
40.0691
 30
0
 70
32
  0
VERTEX
  5
4B3F4
  8
0
 62
7
 10
20.5907
 20
40.0687
 30
0
 70
32
  0
VERTEX
  5
4B3F5
  8
0
 62
7
 10
20.5907
 20
40.068299999999986
 30
0
 70
32
  0
VERTEX
  5
4B3F6
  8
0
 62
7
 10
20.5907
 20
40.0679
 30
0
 70
32
  0
VERTEX
  5
4B3F7
  8
0
 62
7
 10
20.5907
 20
40.0675
 30
0
 70
32
  0
VERTEX
  5
4B3F8
  8
0
 62
7
 10
20.5907
 20
40.0671
 30
0
 70
32
  0
VERTEX
  5
4B3F9
  8
0
 62
7
 10
20.5907
 20
40.0666
 30
0
 70
32
  0
VERTEX
  5
4B3FA
  8
0
 62
7
 10
20.5907
 20
40.0662
 30
0
 70
32
  0
VERTEX
  5
4B3FB
  8
0
 62
7
 10
20.5907
 20
40.065699999999993
 30
0
 70
32
  0
VERTEX
  5
4B3FC
  8
0
 62
7
 10
20.5907
 20
40.0652
 30
0
 70
32
  0
VERTEX
  5
4B3FD
  8
0
 62
7
 10
20.5907
 20
40.0647
 30
0
 70
32
  0
VERTEX
  5
4B3FE
  8
0
 62
7
 10
20.5907
 20
40.0642
 30
0
 70
32
  0
VERTEX
  5
4B3FF
  8
0
 62
7
 10
20.5907
 20
40.06369999999999
 30
0
 70
32
  0
VERTEX
  5
4B400
  8
0
 62
7
 10
20.5907
 20
40.0632
 30
0
 70
32
  0
VERTEX
  5
4B401
  8
0
 62
7
 10
20.5907
 20
40.0626
 30
0
 70
32
  0
VERTEX
  5
4B402
  8
0
 62
7
 10
20.5907
 20
40.0621
 30
0
 70
32
  0
VERTEX
  5
4B403
  8
0
 62
7
 10
20.5907
 20
40.0616
 30
0
 70
32
  0
VERTEX
  5
4B404
  8
0
 62
7
 10
20.5907
 20
40.060999999999993
 30
0
 70
32
  0
VERTEX
  5
4B405
  8
0
 62
7
 10
20.5907
 20
40.0605
 30
0
 70
32
  0
VERTEX
  5
4B406
  8
0
 62
7
 10
20.5907
 20
40.059899999999992
 30
0
 70
32
  0
VERTEX
  5
4B407
  8
0
 62
7
 10
20.5907
 20
40.0593
 30
0
 70
32
  0
VERTEX
  5
4B408
  8
0
 62
7
 10
20.5907
 20
40.0588
 30
0
 70
32
  0
VERTEX
  5
4B409
  8
0
 62
7
 10
20.5907
 20
40.058199999999992
 30
0
 70
32
  0
VERTEX
  5
4B40A
  8
0
 62
7
 10
20.5907
 20
40.0576
 30
0
 70
32
  0
VERTEX
  5
4B40B
  8
0
 62
7
 10
20.5907
 20
40.057
 30
0
 70
32
  0
VERTEX
  5
4B40C
  8
0
 62
7
 10
20.5907
 20
40.056399999999982
 30
0
 70
32
  0
VERTEX
  5
4B40D
  8
0
 62
7
 10
20.5907
 20
40.0558
 30
0
 70
32
  0
VERTEX
  5
4B40E
  8
0
 62
7
 10
20.5907
 20
40.055199999999992
 30
0
 70
32
  0
VERTEX
  5
4B40F
  8
0
 62
7
 10
20.5907
 20
40.0546
 30
0
 70
32
  0
VERTEX
  5
4B410
  8
0
 62
7
 10
20.5907
 20
40.054
 30
0
 70
32
  0
VERTEX
  5
4B411
  8
0
 62
7
 10
20.5907
 20
40.0534
 30
0
 70
32
  0
VERTEX
  5
4B412
  8
0
 62
7
 10
20.5907
 20
40.052799999999991
 30
0
 70
32
  0
VERTEX
  5
4B413
  8
0
 62
7
 10
20.5907
 20
40.0522
 30
0
 70
32
  0
VERTEX
  5
4B414
  8
0
 62
7
 10
20.5907
 20
40.0516
 30
0
 70
32
  0
VERTEX
  5
4B415
  8
0
 62
7
 10
20.5907
 20
40.051
 30
0
 70
32
  0
VERTEX
  5
4B416
  8
0
 62
7
 10
20.5907
 20
40.0504
 30
0
 70
32
  0
VERTEX
  5
4B417
  8
0
 62
7
 10
20.5907
 20
40.049799999999983
 30
0
 70
32
  0
VERTEX
  5
4B418
  8
0
 62
7
 10
20.5907
 20
40.0492
 30
0
 70
32
  0
VERTEX
  5
4B419
  8
0
 62
7
 10
20.5907
 20
40.048599999999993
 30
0
 70
32
  0
VERTEX
  5
4B41A
  8
0
 62
7
 10
20.5907
 20
40.048
 30
0
 70
32
  0
VERTEX
  5
4B41B
  8
0
 62
7
 10
20.5907
 20
40.0474
 30
0
 70
32
  0
VERTEX
  5
4B41C
  8
0
 62
7
 10
20.5907
 20
40.04679999999999
 30
0
 70
32
  0
VERTEX
  5
4B41D
  8
0
 62
7
 10
20.5907
 20
40.0463
 30
0
 70
32
  0
VERTEX
  5
4B41E
  8
0
 62
7
 10
20.5907
 20
40.0457
 30
0
 70
32
  0
VERTEX
  5
4B41F
  8
0
 62
7
 10
20.5907
 20
40.045099999999977
 30
0
 70
32
  0
VERTEX
  5
4B420
  8
0
 62
7
 10
20.5907
 20
40.0446
 30
0
 70
32
  0
VERTEX
  5
4B421
  8
0
 62
7
 10
20.5907
 20
40.04399999999999
 30
0
 70
32
  0
VERTEX
  5
4B422
  8
0
 62
7
 10
20.5907
 20
40.0434
 30
0
 70
32
  0
VERTEX
  5
4B423
  8
0
 62
7
 10
20.5907
 20
40.0429
 30
0
 70
32
  0
VERTEX
  5
4B424
  8
0
 62
7
 10
20.5907
 20
40.0424
 30
0
 70
32
  0
VERTEX
  5
4B425
  8
0
 62
7
 10
20.5907
 20
40.0418
 30
0
 70
32
  0
VERTEX
  5
4B426
  8
0
 62
7
 10
20.5907
 20
40.041299999999993
 30
0
 70
32
  0
VERTEX
  5
4B427
  8
0
 62
7
 10
20.5907
 20
40.0408
 30
0
 70
32
  0
VERTEX
  5
4B428
  8
0
 62
7
 10
20.5907
 20
40.0403
 30
0
 70
32
  0
VERTEX
  5
4B429
  8
0
 62
7
 10
20.5907
 20
40.0398
 30
0
 70
32
  0
VERTEX
  5
4B42A
  8
0
 62
7
 10
20.5907
 20
40.03929999999999
 30
0
 70
32
  0
VERTEX
  5
4B42B
  8
0
 62
7
 10
20.5907
 20
40.0388
 30
0
 70
32
  0
VERTEX
  5
4B42C
  8
0
 62
7
 10
20.5907
 20
40.0384
 30
0
 70
32
  0
VERTEX
  5
4B42D
  8
0
 62
7
 10
20.5907
 20
40.0379
 30
0
 70
32
  0
VERTEX
  5
4B42E
  8
0
 62
7
 10
20.5907
 20
40.0375
 30
0
 70
32
  0
VERTEX
  5
4B42F
  8
0
 62
7
 10
20.5907
 20
40.037
 30
0
 70
32
  0
VERTEX
  5
4B430
  8
0
 62
7
 10
20.5907
 20
40.036599999999993
 30
0
 70
32
  0
VERTEX
  5
4B431
  8
0
 62
7
 10
20.5907
 20
40.0362
 30
0
 70
32
  0
VERTEX
  5
4B432
  8
0
 62
7
 10
20.5907
 20
40.0358
 30
0
 70
32
  0
VERTEX
  5
4B433
  8
0
 62
7
 10
20.5907
 20
40.035499999999992
 30
0
 70
32
  0
VERTEX
  5
4B434
  8
0
 62
7
 10
20.5907
 20
40.0351
 30
0
 70
32
  0
VERTEX
  5
4B435
  8
0
 62
7
 10
20.5907
 20
40.034799999999983
 30
0
 70
32
  0
VERTEX
  5
4B436
  8
0
 62
7
 10
20.5907
 20
40.0344
 30
0
 70
32
  0
VERTEX
  5
4B437
  8
0
 62
7
 10
20.5907
 20
40.0341
 30
0
 70
32
  0
VERTEX
  5
4B438
  8
0
 62
7
 10
20.5907
 20
40.033799999999992
 30
0
 70
32
  0
VERTEX
  5
4B439
  8
0
 62
7
 10
20.5907
 20
40.0335
 30
0
 70
32
  0
VERTEX
  5
4B43A
  8
0
 62
7
 10
20.5907
 20
40.0333
 30
0
 70
32
  0
VERTEX
  5
4B43B
  8
0
 62
7
 10
20.5907
 20
40.033
 30
0
 70
32
  0
VERTEX
  5
4B43C
  8
0
 62
7
 10
20.5907
 20
40.0328
 30
0
 70
32
  0
VERTEX
  5
4B43D
  8
0
 62
7
 10
20.5907
 20
40.0326
 30
0
 70
32
  0
VERTEX
  5
4B43E
  8
0
 62
7
 10
20.5907
 20
40.0324
 30
0
 70
32
  0
VERTEX
  5
4B43F
  8
0
 62
7
 10
20.5907
 20
40.0322
 30
0
 70
32
  0
VERTEX
  5
4B440
  8
0
 62
7
 10
20.5907
 20
40.0321
 30
0
 70
32
  0
VERTEX
  5
4B441
  8
0
 62
7
 10
20.5907
 20
40.0319
 30
0
 70
32
  0
VERTEX
  5
4B442
  8
0
 62
7
 10
20.5907
 20
40.03179999999999
 30
0
 70
32
  0
VERTEX
  5
4B443
  8
0
 62
7
 10
20.5907
 20
40.031699999999987
 30
0
 70
32
  0
VERTEX
  5
4B444
  8
0
 62
7
 10
20.5907
 20
40.031699999999987
 30
0
 70
32
  0
VERTEX
  5
4B445
  8
0
 62
7
 10
20.5907
 20
40.0316
 30
0
 70
32
  0
VERTEX
  5
4B446
  8
0
 62
7
 10
20.5907
 20
40.0316
 30
0
 70
32
  0
VERTEX
  5
4B447
  8
0
 62
7
 10
20.5907
 20
40.0316
 30
0
 70
32
  0
VERTEX
  5
4B448
  8
0
 62
7
 10
20.5907
 20
40.0316
 30
0
 70
32
  0
VERTEX
  5
4B449
  8
0
 62
7
 10
20.5907
 20
40.031699999999987
 30
0
 70
32
  0
VERTEX
  5
4B44A
  8
0
 62
7
 10
20.5907
 20
40.031699999999987
 30
0
 70
32
  0
VERTEX
  5
4B44B
  8
0
 62
7
 10
20.5907
 20
40.03179999999999
 30
0
 70
32
  0
VERTEX
  5
4B44C
  8
0
 62
7
 10
20.5907
 20
40.0319
 30
0
 70
32
  0
VERTEX
  5
4B44D
  8
0
 62
7
 10
20.5907
 20
40.0321
 30
0
 70
32
  0
VERTEX
  5
4B44E
  8
0
 62
7
 10
20.5907
 20
40.0322
 30
0
 70
32
  0
VERTEX
  5
4B44F
  8
0
 62
7
 10
20.5907
 20
40.0324
 30
0
 70
32
  0
VERTEX
  5
4B450
  8
0
 62
7
 10
20.5907
 20
40.0326
 30
0
 70
32
  0
VERTEX
  5
4B451
  8
0
 62
7
 10
20.5907
 20
40.0328
 30
0
 70
32
  0
VERTEX
  5
4B452
  8
0
 62
7
 10
20.5907
 20
40.033
 30
0
 70
32
  0
VERTEX
  5
4B453
  8
0
 62
7
 10
20.5907
 20
40.0333
 30
0
 70
32
  0
VERTEX
  5
4B454
  8
0
 62
7
 10
20.5907
 20
40.0335
 30
0
 70
32
  0
VERTEX
  5
4B455
  8
0
 62
7
 10
20.5907
 20
40.033799999999992
 30
0
 70
32
  0
VERTEX
  5
4B456
  8
0
 62
7
 10
20.5907
 20
40.0341
 30
0
 70
32
  0
VERTEX
  5
4B457
  8
0
 62
7
 10
20.5907
 20
40.0344
 30
0
 70
32
  0
VERTEX
  5
4B458
  8
0
 62
7
 10
20.5907
 20
40.034799999999983
 30
0
 70
32
  0
VERTEX
  5
4B459
  8
0
 62
7
 10
20.5907
 20
40.0351
 30
0
 70
32
  0
VERTEX
  5
4B45A
  8
0
 62
7
 10
20.5907
 20
40.035499999999992
 30
0
 70
32
  0
VERTEX
  5
4B45B
  8
0
 62
7
 10
20.5907
 20
40.0358
 30
0
 70
32
  0
VERTEX
  5
4B45C
  8
0
 62
7
 10
20.5907
 20
40.0362
 30
0
 70
32
  0
VERTEX
  5
4B45D
  8
0
 62
7
 10
20.5907
 20
40.036599999999993
 30
0
 70
32
  0
VERTEX
  5
4B45E
  8
0
 62
7
 10
20.5907
 20
40.037
 30
0
 70
32
  0
VERTEX
  5
4B45F
  8
0
 62
7
 10
20.5907
 20
40.0375
 30
0
 70
32
  0
VERTEX
  5
4B460
  8
0
 62
7
 10
20.5907
 20
40.0379
 30
0
 70
32
  0
VERTEX
  5
4B461
  8
0
 62
7
 10
20.5907
 20
40.0384
 30
0
 70
32
  0
VERTEX
  5
4B462
  8
0
 62
7
 10
20.5907
 20
40.0388
 30
0
 70
32
  0
VERTEX
  5
4B463
  8
0
 62
7
 10
20.5907
 20
40.03929999999999
 30
0
 70
32
  0
VERTEX
  5
4B464
  8
0
 62
7
 10
20.5907
 20
40.0398
 30
0
 70
32
  0
VERTEX
  5
4B465
  8
0
 62
7
 10
20.5907
 20
40.0403
 30
0
 70
32
  0
VERTEX
  5
4B466
  8
0
 62
7
 10
20.5907
 20
40.0408
 30
0
 70
32
  0
VERTEX
  5
4B467
  8
0
 62
7
 10
20.5907
 20
40.041299999999993
 30
0
 70
32
  0
VERTEX
  5
4B468
  8
0
 62
7
 10
20.5907
 20
40.0418
 30
0
 70
32
  0
VERTEX
  5
4B469
  8
0
 62
7
 10
20.5907
 20
40.0424
 30
0
 70
32
  0
VERTEX
  5
4B46A
  8
0
 62
7
 10
20.5907
 20
40.0429
 30
0
 70
32
  0
VERTEX
  5
4B46B
  8
0
 62
7
 10
20.5907
 20
40.0434
 30
0
 70
32
  0
VERTEX
  5
4B46C
  8
0
 62
7
 10
20.5907
 20
40.04399999999999
 30
0
 70
32
  0
VERTEX
  5
4B46D
  8
0
 62
7
 10
20.5907
 20
40.0446
 30
0
 70
32
  0
VERTEX
  5
4B46E
  8
0
 62
7
 10
20.5907
 20
40.045099999999977
 30
0
 70
32
  0
VERTEX
  5
4B46F
  8
0
 62
7
 10
20.5907
 20
40.0457
 30
0
 70
32
  0
VERTEX
  5
4B470
  8
0
 62
7
 10
20.5907
 20
40.0463
 30
0
 70
32
  0
VERTEX
  5
4B471
  8
0
 62
7
 10
20.5907
 20
40.04679999999999
 30
0
 70
32
  0
VERTEX
  5
4B472
  8
0
 62
7
 10
20.5907
 20
40.0474
 30
0
 70
32
  0
VERTEX
  5
4B473
  8
0
 62
7
 10
20.5907
 20
40.048
 30
0
 70
32
  0
VERTEX
  5
4B474
  8
0
 62
7
 10
20.5907
 20
40.048599999999993
 30
0
 70
32
  0
VERTEX
  5
4B475
  8
0
 62
7
 10
20.5907
 20
40.0492
 30
0
 70
32
  0
VERTEX
  5
4B476
  8
0
 62
7
 10
20.5907
 20
40.049799999999983
 30
0
 70
32
  0
VERTEX
  5
4B477
  8
0
 62
7
 10
20.5907
 20
40.0504
 30
0
 70
32
  0
VERTEX
  5
4B478
  8
0
 62
7
 10
20.5907
 20
40.051
 30
0
 70
32
  0
VERTEX
  5
4B479
  8
0
 62
7
 10
20.5907
 20
40.0516
 30
0
 70
32
  0
VERTEX
  5
4B47A
  8
0
 62
7
 10
20.5907
 20
40.0522
 30
0
 70
32
  0
VERTEX
  5
4B47B
  8
0
 62
7
 10
20.5907
 20
40.052799999999991
 30
0
 70
32
  0
VERTEX
  5
4B47C
  8
0
 62
7
 10
20.5907
 20
40.0534
 30
0
 70
32
  0
VERTEX
  5
4B47D
  8
0
 62
7
 10
20.5907
 20
40.054
 30
0
 70
32
  0
VERTEX
  5
4B47E
  8
0
 62
7
 10
20.5907
 20
40.0546
 30
0
 70
32
  0
VERTEX
  5
4B47F
  8
0
 62
7
 10
20.5907
 20
40.055199999999992
 30
0
 70
32
  0
VERTEX
  5
4B480
  8
0
 62
7
 10
20.5907
 20
40.0558
 30
0
 70
32
  0
VERTEX
  5
4B481
  8
0
 62
7
 10
20.5907
 20
40.056399999999982
 30
0
 70
32
  0
VERTEX
  5
4B482
  8
0
 62
7
 10
20.5907
 20
40.057
 30
0
 70
32
  0
VERTEX
  5
4B483
  8
0
 62
7
 10
20.5907
 20
40.0576
 30
0
 70
32
  0
VERTEX
  5
4B484
  8
0
 62
7
 10
20.5907
 20
40.058199999999992
 30
0
 70
32
  0
VERTEX
  5
4B485
  8
0
 62
7
 10
20.5907
 20
40.0588
 30
0
 70
32
  0
VERTEX
  5
4B486
  8
0
 62
7
 10
20.5907
 20
40.0593
 30
0
 70
32
  0
VERTEX
  5
4B487
  8
0
 62
7
 10
20.5907
 20
40.059899999999992
 30
0
 70
32
  0
VERTEX
  5
4B488
  8
0
 62
7
 10
20.5907
 20
40.0605
 30
0
 70
32
  0
VERTEX
  5
4B489
  8
0
 62
7
 10
20.5907
 20
40.060999999999993
 30
0
 70
32
  0
VERTEX
  5
4B48A
  8
0
 62
7
 10
20.5907
 20
40.0616
 30
0
 70
32
  0
VERTEX
  5
4B48B
  8
0
 62
7
 10
20.5907
 20
40.0621
 30
0
 70
32
  0
VERTEX
  5
4B48C
  8
0
 62
7
 10
20.5907
 20
40.0626
 30
0
 70
32
  0
VERTEX
  5
4B48D
  8
0
 62
7
 10
20.5907
 20
40.0632
 30
0
 70
32
  0
VERTEX
  5
4B48E
  8
0
 62
7
 10
20.5907
 20
40.06369999999999
 30
0
 70
32
  0
VERTEX
  5
4B48F
  8
0
 62
7
 10
20.5907
 20
40.0642
 30
0
 70
32
  0
VERTEX
  5
4B490
  8
0
 62
7
 10
20.5907
 20
40.0647
 30
0
 70
32
  0
VERTEX
  5
4B491
  8
0
 62
7
 10
20.5907
 20
40.0652
 30
0
 70
32
  0
VERTEX
  5
4B492
  8
0
 62
7
 10
20.5907
 20
40.065699999999993
 30
0
 70
32
  0
VERTEX
  5
4B493
  8
0
 62
7
 10
20.5907
 20
40.0662
 30
0
 70
32
  0
VERTEX
  5
4B494
  8
0
 62
7
 10
20.5907
 20
40.0666
 30
0
 70
32
  0
VERTEX
  5
4B495
  8
0
 62
7
 10
20.5907
 20
40.0671
 30
0
 70
32
  0
VERTEX
  5
4B496
  8
0
 62
7
 10
20.5907
 20
40.0675
 30
0
 70
32
  0
VERTEX
  5
4B497
  8
0
 62
7
 10
20.5907
 20
40.0679
 30
0
 70
32
  0
VERTEX
  5
4B498
  8
0
 62
7
 10
20.5907
 20
40.068299999999986
 30
0
 70
32
  0
VERTEX
  5
4B499
  8
0
 62
7
 10
20.5907
 20
40.0687
 30
0
 70
32
  0
VERTEX
  5
4B49A
  8
0
 62
7
 10
20.5907
 20
40.0691
 30
0
 70
32
  0
VERTEX
  5
4B49B
  8
0
 62
7
 10
20.5907
 20
40.069499999999977
 30
0
 70
32
  0
VERTEX
  5
4B49C
  8
0
 62
7
 10
20.5907
 20
40.0699
 30
0
 70
32
  0
VERTEX
  5
4B49D
  8
0
 62
7
 10
20.5907
 20
40.070199999999993
 30
0
 70
32
  0
VERTEX
  5
4B49E
  8
0
 62
7
 10
20.5907
 20
40.0705
 30
0
 70
32
  0
VERTEX
  5
4B49F
  8
0
 62
7
 10
20.5907
 20
40.0708
 30
0
 70
32
  0
VERTEX
  5
4B4A0
  8
0
 62
7
 10
20.5907
 20
40.071099999999987
 30
0
 70
32
  0
VERTEX
  5
4B4A1
  8
0
 62
7
 10
20.5907
 20
40.071399999999983
 30
0
 70
32
  0
VERTEX
  5
4B4A2
  8
0
 62
7
 10
20.5907
 20
40.0717
 30
0
 70
32
  0
VERTEX
  5
4B4A3
  8
0
 62
7
 10
20.5907
 20
40.0719
 30
0
 70
32
  0
VERTEX
  5
4B4A4
  8
0
 62
7
 10
20.5907
 20
40.072099999999992
 30
0
 70
32
  0
VERTEX
  5
4B4A5
  8
0
 62
7
 10
20.5907
 20
40.072299999999977
 30
0
 70
32
  0
VERTEX
  5
4B4A6
  8
0
 62
7
 10
20.5907
 20
40.072499999999991
 30
0
 70
32
  0
VERTEX
  5
4B4A7
  8
0
 62
7
 10
20.5907
 20
40.0727
 30
0
 70
32
  0
VERTEX
  5
4B4A8
  8
0
 62
7
 10
20.5907
 20
40.0728
 30
0
 70
32
  0
VERTEX
  5
4B4A9
  8
0
 62
7
 10
20.5907
 20
40.072999999999993
 30
0
 70
32
  0
VERTEX
  5
4B4AA
  8
0
 62
7
 10
20.5907
 20
40.07309999999999
 30
0
 70
32
  0
VERTEX
  5
4B4AB
  8
0
 62
7
 10
20.5907
 20
40.073199999999993
 30
0
 70
32
  0
VERTEX
  5
4B4AC
  8
0
 62
7
 10
20.5907
 20
40.073199999999993
 30
0
 70
32
  0
VERTEX
  5
4B4AD
  8
0
 62
7
 10
20.5907
 20
40.0733
 30
0
 70
32
  0
VERTEX
  5
4B4AE
  8
0
 62
7
 10
20.5907
 20
40.0733
 30
0
 70
32
  0
VERTEX
  5
4B4AF
  8
0
 62
7
 10
20.5907
 20
40.0733
 30
0
 70
32
  0
VERTEX
  5
4B4B0
  8
0
 62
7
 10
20.5907
 20
40.0733
 30
0
 70
32
  0
VERTEX
  5
4B4B1
  8
0
 62
7
 10
20.5906
 20
40.0733
 30
0
 70
32
  0
VERTEX
  5
4B4B2
  8
0
 62
7
 10
20.5905
 20
40.0733
 30
0
 70
32
  0
VERTEX
  5
4B4B3
  8
0
 62
7
 10
20.5904
 20
40.0733
 30
0
 70
32
  0
VERTEX
  5
4B4B4
  8
0
 62
7
 10
20.5903
 20
40.0733
 30
0
 70
32
  0
VERTEX
  5
4B4B5
  8
0
 62
7
 10
20.5902
 20
40.0733
 30
0
 70
32
  0
VERTEX
  5
4B4B6
  8
0
 62
7
 10
20.59
 20
40.0733
 30
0
 70
32
  0
VERTEX
  5
4B4B7
  8
0
 62
7
 10
20.5898
 20
40.0733
 30
0
 70
32
  0
VERTEX
  5
4B4B8
  8
0
 62
7
 10
20.5896
 20
40.0733
 30
0
 70
32
  0
VERTEX
  5
4B4B9
  8
0
 62
7
 10
20.5894
 20
40.0733
 30
0
 70
32
  0
VERTEX
  5
4B4BA
  8
0
 62
7
 10
20.5892
 20
40.0733
 30
0
 70
32
  0
VERTEX
  5
4B4BB
  8
0
 62
7
 10
20.5889
 20
40.0733
 30
0
 70
32
  0
VERTEX
  5
4B4BC
  8
0
 62
7
 10
20.5886
 20
40.0733
 30
0
 70
32
  0
VERTEX
  5
4B4BD
  8
0
 62
7
 10
20.5884
 20
40.0733
 30
0
 70
32
  0
VERTEX
  5
4B4BE
  8
0
 62
7
 10
20.588
 20
40.0733
 30
0
 70
32
  0
VERTEX
  5
4B4BF
  8
0
 62
7
 10
20.5877
 20
40.0733
 30
0
 70
32
  0
VERTEX
  5
4B4C0
  8
0
 62
7
 10
20.5874
 20
40.0733
 30
0
 70
32
  0
VERTEX
  5
4B4C1
  8
0
 62
7
 10
20.587
 20
40.0733
 30
0
 70
32
  0
VERTEX
  5
4B4C2
  8
0
 62
7
 10
20.5866
 20
40.0733
 30
0
 70
32
  0
VERTEX
  5
4B4C3
  8
0
 62
7
 10
20.5863
 20
40.0733
 30
0
 70
32
  0
VERTEX
  5
4B4C4
  8
0
 62
7
 10
20.5859
 20
40.0733
 30
0
 70
32
  0
VERTEX
  5
4B4C5
  8
0
 62
7
 10
20.5854
 20
40.0733
 30
0
 70
32
  0
VERTEX
  5
4B4C6
  8
0
 62
7
 10
20.585
 20
40.0733
 30
0
 70
32
  0
VERTEX
  5
4B4C7
  8
0
 62
7
 10
20.5846
 20
40.0733
 30
0
 70
32
  0
VERTEX
  5
4B4C8
  8
0
 62
7
 10
20.5841
 20
40.0733
 30
0
 70
32
  0
VERTEX
  5
4B4C9
  8
0
 62
7
 10
20.5836
 20
40.0733
 30
0
 70
32
  0
VERTEX
  5
4B4CA
  8
0
 62
7
 10
20.5832
 20
40.0733
 30
0
 70
32
  0
VERTEX
  5
4B4CB
  8
0
 62
7
 10
20.5827
 20
40.0733
 30
0
 70
32
  0
VERTEX
  5
4B4CC
  8
0
 62
7
 10
20.5822
 20
40.0733
 30
0
 70
32
  0
VERTEX
  5
4B4CD
  8
0
 62
7
 10
20.5817
 20
40.0733
 30
0
 70
32
  0
VERTEX
  5
4B4CE
  8
0
 62
7
 10
20.5811
 20
40.0733
 30
0
 70
32
  0
VERTEX
  5
4B4CF
  8
0
 62
7
 10
20.5806
 20
40.0733
 30
0
 70
32
  0
VERTEX
  5
4B4D0
  8
0
 62
7
 10
20.5801
 20
40.0733
 30
0
 70
32
  0
VERTEX
  5
4B4D1
  8
0
 62
7
 10
20.5795
 20
40.0733
 30
0
 70
32
  0
VERTEX
  5
4B4D2
  8
0
 62
7
 10
20.579
 20
40.0733
 30
0
 70
32
  0
VERTEX
  5
4B4D3
  8
0
 62
7
 10
20.5784
 20
40.0733
 30
0
 70
32
  0
VERTEX
  5
4B4D4
  8
0
 62
7
 10
20.5778
 20
40.0733
 30
0
 70
32
  0
VERTEX
  5
4B4D5
  8
0
 62
7
 10
20.5773
 20
40.0733
 30
0
 70
32
  0
VERTEX
  5
4B4D6
  8
0
 62
7
 10
20.5767
 20
40.0733
 30
0
 70
32
  0
VERTEX
  5
4B4D7
  8
0
 62
7
 10
20.5761
 20
40.0733
 30
0
 70
32
  0
VERTEX
  5
4B4D8
  8
0
 62
7
 10
20.5755
 20
40.0733
 30
0
 70
32
  0
VERTEX
  5
4B4D9
  8
0
 62
7
 10
20.5749
 20
40.0733
 30
0
 70
32
  0
VERTEX
  5
4B4DA
  8
0
 62
7
 10
20.5743
 20
40.0733
 30
0
 70
32
  0
VERTEX
  5
4B4DB
  8
0
 62
7
 10
20.5737
 20
40.0733
 30
0
 70
32
  0
VERTEX
  5
4B4DC
  8
0
 62
7
 10
20.5731
 20
40.0733
 30
0
 70
32
  0
VERTEX
  5
4B4DD
  8
0
 62
7
 10
20.5725
 20
40.0733
 30
0
 70
32
  0
VERTEX
  5
4B4DE
  8
0
 62
7
 10
20.5719
 20
40.0733
 30
0
 70
32
  0
VERTEX
  5
4B4DF
  8
0
 62
7
 10
20.5713
 20
40.0733
 30
0
 70
32
  0
VERTEX
  5
4B4E0
  8
0
 62
7
 10
20.5707
 20
40.0733
 30
0
 70
32
  0
VERTEX
  5
4B4E1
  8
0
 62
7
 10
20.57
 20
40.0733
 30
0
 70
32
  0
VERTEX
  5
4B4E2
  8
0
 62
7
 10
20.5694
 20
40.0733
 30
0
 70
32
  0
VERTEX
  5
4B4E3
  8
0
 62
7
 10
20.5688
 20
40.0733
 30
0
 70
32
  0
VERTEX
  5
4B4E4
  8
0
 62
7
 10
20.5682
 20
40.0733
 30
0
 70
32
  0
VERTEX
  5
4B4E5
  8
0
 62
7
 10
20.5676
 20
40.0733
 30
0
 70
32
  0
VERTEX
  5
4B4E6
  8
0
 62
7
 10
20.567
 20
40.0733
 30
0
 70
32
  0
VERTEX
  5
4B4E7
  8
0
 62
7
 10
20.5663
 20
40.0733
 30
0
 70
32
  0
VERTEX
  5
4B4E8
  8
0
 62
7
 10
20.5657
 20
40.0733
 30
0
 70
32
  0
VERTEX
  5
4B4E9
  8
0
 62
7
 10
20.5651
 20
40.0733
 30
0
 70
32
  0
VERTEX
  5
4B4EA
  8
0
 62
7
 10
20.5645
 20
40.0733
 30
0
 70
32
  0
VERTEX
  5
4B4EB
  8
0
 62
7
 10
20.5639
 20
40.0733
 30
0
 70
32
  0
VERTEX
  5
4B4EC
  8
0
 62
7
 10
20.5633
 20
40.0733
 30
0
 70
32
  0
VERTEX
  5
4B4ED
  8
0
 62
7
 10
20.5627
 20
40.0733
 30
0
 70
32
  0
VERTEX
  5
4B4EE
  8
0
 62
7
 10
20.5621
 20
40.0733
 30
0
 70
32
  0
VERTEX
  5
4B4EF
  8
0
 62
7
 10
20.5616
 20
40.0733
 30
0
 70
32
  0
VERTEX
  5
4B4F0
  8
0
 62
7
 10
20.561
 20
40.0733
 30
0
 70
32
  0
VERTEX
  5
4B4F1
  8
0
 62
7
 10
20.5604
 20
40.0733
 30
0
 70
32
  0
VERTEX
  5
4B4F2
  8
0
 62
7
 10
20.5598
 20
40.0733
 30
0
 70
32
  0
VERTEX
  5
4B4F3
  8
0
 62
7
 10
20.5593
 20
40.0733
 30
0
 70
32
  0
VERTEX
  5
4B4F4
  8
0
 62
7
 10
20.5587
 20
40.0733
 30
0
 70
32
  0
VERTEX
  5
4B4F5
  8
0
 62
7
 10
20.5582
 20
40.0733
 30
0
 70
32
  0
VERTEX
  5
4B4F6
  8
0
 62
7
 10
20.5577
 20
40.0733
 30
0
 70
32
  0
VERTEX
  5
4B4F7
  8
0
 62
7
 10
20.5571
 20
40.0733
 30
0
 70
32
  0
VERTEX
  5
4B4F8
  8
0
 62
7
 10
20.5566
 20
40.0733
 30
0
 70
32
  0
VERTEX
  5
4B4F9
  8
0
 62
7
 10
20.5561
 20
40.0733
 30
0
 70
32
  0
VERTEX
  5
4B4FA
  8
0
 62
7
 10
20.5556
 20
40.0733
 30
0
 70
32
  0
VERTEX
  5
4B4FB
  8
0
 62
7
 10
20.5552
 20
40.0733
 30
0
 70
32
  0
VERTEX
  5
4B4FC
  8
0
 62
7
 10
20.5547
 20
40.0733
 30
0
 70
32
  0
VERTEX
  5
4B4FD
  8
0
 62
7
 10
20.5542
 20
40.0733
 30
0
 70
32
  0
VERTEX
  5
4B4FE
  8
0
 62
7
 10
20.5538
 20
40.0733
 30
0
 70
32
  0
VERTEX
  5
4B4FF
  8
0
 62
7
 10
20.5533
 20
40.0733
 30
0
 70
32
  0
VERTEX
  5
4B500
  8
0
 62
7
 10
20.5529
 20
40.0733
 30
0
 70
32
  0
VERTEX
  5
4B501
  8
0
 62
7
 10
20.5525
 20
40.0733
 30
0
 70
32
  0
VERTEX
  5
4B502
  8
0
 62
7
 10
20.5521
 20
40.0733
 30
0
 70
32
  0
VERTEX
  5
4B503
  8
0
 62
7
 10
20.5518
 20
40.0733
 30
0
 70
32
  0
VERTEX
  5
4B504
  8
0
 62
7
 10
20.5514
 20
40.0733
 30
0
 70
32
  0
VERTEX
  5
4B505
  8
0
 62
7
 10
20.551
 20
40.0733
 30
0
 70
32
  0
VERTEX
  5
4B506
  8
0
 62
7
 10
20.5507
 20
40.0733
 30
0
 70
32
  0
VERTEX
  5
4B507
  8
0
 62
7
 10
20.5504
 20
40.0733
 30
0
 70
32
  0
VERTEX
  5
4B508
  8
0
 62
7
 10
20.5501
 20
40.0733
 30
0
 70
32
  0
VERTEX
  5
4B509
  8
0
 62
7
 10
20.5498
 20
40.0733
 30
0
 70
32
  0
VERTEX
  5
4B50A
  8
0
 62
7
 10
20.5496
 20
40.0733
 30
0
 70
32
  0
VERTEX
  5
4B50B
  8
0
 62
7
 10
20.5493
 20
40.0733
 30
0
 70
32
  0
VERTEX
  5
4B50C
  8
0
 62
7
 10
20.5491
 20
40.0733
 30
0
 70
32
  0
VERTEX
  5
4B50D
  8
0
 62
7
 10
20.5489
 20
40.0733
 30
0
 70
32
  0
VERTEX
  5
4B50E
  8
0
 62
7
 10
20.5487
 20
40.0733
 30
0
 70
32
  0
VERTEX
  5
4B50F
  8
0
 62
7
 10
20.5485
 20
40.0733
 30
0
 70
32
  0
VERTEX
  5
4B510
  8
0
 62
7
 10
20.5484
 20
40.0733
 30
0
 70
32
  0
VERTEX
  5
4B511
  8
0
 62
7
 10
20.5483
 20
40.0733
 30
0
 70
32
  0
VERTEX
  5
4B512
  8
0
 62
7
 10
20.5482
 20
40.0733
 30
0
 70
32
  0
VERTEX
  5
4B513
  8
0
 62
7
 10
20.5481
 20
40.0733
 30
0
 70
32
  0
VERTEX
  5
4B514
  8
0
 62
7
 10
20.548
 20
40.0733
 30
0
 70
32
  0
VERTEX
  5
4B515
  8
0
 62
7
 10
20.548
 20
40.0733
 30
0
 70
32
  0
VERTEX
  5
4B516
  8
0
 62
7
 10
20.548
 20
40.0733
 30
0
 70
32
  0
SEQEND
  5
4B517
  8
0
  0
INSERT
  5
4C854
  8
0
  2
SPECMY-H410430N2AHTN
 10
65.7986206703234
 20
7.8750023616987868
 30
0
 41
1
 42
1
 43
1
 50
0
  0
ENDSEC
999
Created By CadLib version 4.0.36.7
999
CadLib website: www.woutware.com
  0
EOF
