  0
SECTION
  2
HEADER
  9
$ACADVER
  1
AC1009
  9
$DWGCODEPAGE
  3
dos932
  9
$INSBASE
 10
0
 20
0
 30
0
  9
$EXTMIN
 10
-5.263403156143692
 20
-7.7732925425234818
 30
0
  9
$EXTMAX
 10
174.59461203663136
 20
82.277452024151827
 30
0
  9
$LIMMIN
 10
0
 20
0
  9
$LIMMAX
 10
105
 20
74.25
  9
$SNAPMODE
 70
0
  9
$SNAPUNIT
 10
1
 20
1
  9
$SNAPBASE
 10
0
 20
0
  9
$SNAPANG
 50
0
  9
$SNAPSTYLE
 70
0
  9
$SNAPISOPAIR
 70
0
  9
$ORTHOMODE
 70
0
  9
$REGENMODE
 70
1
  9
$FILLMODE
 70
1
  9
$QTEXTMODE
 70
0
  9
$MIRRTEXT
 70
0
  9
$LTSCALE
 40
0.25
  9
$OSMODE
 70
37
  9
$ATTMODE
 70
1
  9
$TEXTSIZE
 40
0.2
  9
$TRACEWID
 40
0.05
  9
$TEXTSTYLE
  7
STANDARD
  9
$CLAYER
  8
0
  9
$CELTYPE
  6
CONTINUOUS
  9
$CECOLOR
 62
256
  9
$DIMSCALE
 40
1
  9
$DIMASZ
 40
0.18
  9
$DIMEXO
 40
0.0625
  9
$DIMDLI
 40
0.38
  9
$DIMRND
 40
0
  9
$DIMDLE
 40
0
  9
$DIMEXE
 40
0.18
  9
$DIMTP
 40
0
  9
$DIMTM
 40
0
  9
$DIMTXT
 40
0.18
  9
$DIMCEN
 40
0.09
  9
$DIMTSZ
 40
0
  9
$DIMTOL
 70
0
  9
$DIMLIM
 70
0
  9
$DIMTIH
 70
1
  9
$DIMTOH
 70
1
  9
$DIMSE1
 70
0
  9
$DIMSE2
 70
0
  9
$DIMTAD
 70
0
  9
$DIMZIN
 70
0
  9
$DIMBLK
  1

  9
$DIMASO
 70
1
  9
$DIMSHO
 70
1
  9
$DIMPOST
  1

  9
$DIMAPOST
  1

  9
$DIMALT
 70
0
  9
$DIMALTD
 70
2
  9
$DIMALTF
 40
25.4
  9
$DIMLFAC
 40
1
  9
$DIMTOFL
 70
0
  9
$DIMTVP
 40
0
  9
$DIMTIX
 70
0
  9
$DIMSOXD
 70
0
  9
$DIMSAH
 70
0
  9
$DIMBLK1
  1

  9
$DIMBLK2
  1

  9
$DIMSTYLE
  2
STANDARD
  9
$DIMCLRD
 70
0
  9
$DIMCLRE
 70
0
  9
$DIMCLRT
 70
0
  9
$DIMTFAC
 40
1
  9
$DIMGAP
 40
0.09
  9
$LUNITS
 70
2
  9
$LUPREC
 70
4
  9
$SKETCHINC
 40
0.1
  9
$FILLETRAD
 40
0
  9
$AUNITS
 70
0
  9
$AUPREC
 70
0
  9
$MENU
  1
.
  9
$ELEVATION
 40
0
  9
$PELEVATION
 40
0
  9
$THICKNESS
 40
0
  9
$LIMCHECK
 70
0
  9
$CHAMFERA
 40
0
  9
$CHAMFERB
 40
0
  9
$SKPOLY
 70
0
  9
$TDCREATE
 40
2456099.4260040624
  9
$TDUPDATE
 40
2456742.7197917015
  9
$TDINDWG
 40
0.20260060185185186
  9
$TDUSRTIMER
 40
0.20259951388888889
  9
$USRTIMER
 70
1
  9
$ANGBASE
 50
0
  9
$ANGDIR
 70
0
  9
$PDMODE
 70
0
  9
$PDSIZE
 40
0
  9
$PLINEWID
 40
0
  9
$SPLFRAME
 70
0
  9
$SPLINETYPE
 70
6
  9
$SPLINESEGS
 70
8
  9
$HANDLING
 70
1
  9
$HANDSEED
  5
59E09
  9
$SURFTAB1
 70
6
  9
$SURFTAB2
 70
6
  9
$SURFTYPE
 70
6
  9
$SURFU
 70
6
  9
$SURFV
 70
6
  9
$UCSORG
 10
0
 20
0
 30
0
  9
$UCSXDIR
 10
1
 20
0
 30
0
  9
$UCSYDIR
 10
0
 20
1
 30
0
  9
$PUCSORG
 10
0
 20
0
 30
0
  9
$PUCSXDIR
 10
1
 20
0
 30
0
  9
$PUCSYDIR
 10
0
 20
1
 30
0
  9
$USERI1
 70
0
  9
$USERI2
 70
0
  9
$USERI3
 70
0
  9
$USERI4
 70
0
  9
$USERI5
 70
0
  9
$USERR1
 40
0
  9
$USERR2
 40
0
  9
$USERR3
 40
0
  9
$USERR4
 40
0
  9
$USERR5
 40
0
  9
$WORLDVIEW
 70
1
  9
$SHADEDGE
 70
3
  9
$SHADEDIF
 70
70
  9
$TILEMODE
 70
1
  9
$MAXACTVP
 70
64
  9
$PINSBASE
 10
0
 20
0
 30
0
  9
$PLIMCHECK
 70
0
  9
$PEXTMIN
 10
1E+20
 20
1E+20
 30
1E+20
  9
$PEXTMAX
 10
-1E+20
 20
-1E+20
 30
-1E+20
  9
$PLIMMAX
 10
12
 20
9
  9
$PLIMMIN
 10
0
 20
0
  9
$UNITMODE
 70
0
  9
$VISRETAIN
 70
1
  9
$PLINEGEN
 70
0
  9
$PSLTSCALE
 70
1
  9
$TREEDEPTH
 70
3020
  9
$DRAGMODE
 70
     2
  9
$BLIPMODE
 70
     0
  9
$COORDS
 70
     1
  9
$ATTDIA
 70
     0
  9
$ATTREQ
 70
     1
  0
ENDSEC
  0
SECTION
  2
TABLES
  0
TABLE
  2
VPORT
  5
59DFB
 70
1
  0
VPORT
  5
59DCF
  2
*ACTIVE
 70
0
 10
0
 20
0
 11
1
 21
1
 12
47.279884823107373
 22
47.978671048771147
 13
0
 23
0
 14
1
 24
1
 15
0
 25
0
 16
0
 26
0
 36
1
 17
0
 27
0
 37
0
 40
161.25604342641171
 41
1.4067055393586
 42
50
 43
0
 44
0
 50
0
 51
0
 71
0
 72
100
 73
1
 74
1
 75
0
 76
0
 77
0
 78
0
  0
ENDTAB
  0
TABLE
  2
LTYPE
  5
59DFC
 70
39
  0
LTYPE
  5
59DA6
  2
CONTINUOUS
  3
実線
 70
0
 72
65
 73
0
 40
0
  0
LTYPE
  5
59DA7
  2
DASHED1
  3
--  --  --  --  --  --  --  --  
 70
0
 72
65
 73
2
 40
2.5
 49
1.25
 49
-1.25
  0
LTYPE
  5
59DA8
  2
DASHED2
  3
----    ----    ----    ----    
 70
0
 72
65
 73
2
 40
5
 49
2.5
 49
-2.5
  0
LTYPE
  5
59DA9
  2
DASHED3
  3
------  ------  ------  ------  
 70
0
 72
65
 73
2
 40
5
 49
3.75
 49
-1.25
  0
LTYPE
  5
59DAA
  2
CENTER1
  3
----- - ----- - ----- - ----- - 
 70
0
 72
65
 73
4
 40
10
 49
6.25
 49
-1.25
 49
1.25
 49
-1.25
  0
LTYPE
  5
59DAB
  2
CENTER2
  3
----------  --  ----------  --  
 70
0
 72
65
 73
4
 40
20
 49
12.5
 49
-2.5
 49
2.5
 49
-2.5
  0
LTYPE
  5
59DAC
  2
PHANTOM1
  3
--- - - --- - - --- - - --- - - 
 70
0
 72
65
 73
6
 40
9.5
 49
3.25
 49
-1.25
 49
1.25
 49
-1.25
 49
1.25
 49
-1.25
  0
LTYPE
  5
59DAD
  2
PHANTOM2
  3
--------  -  -  --------  -  -  
 70
0
 72
65
 73
6
 40
20
 49
10
 49
-2.5
 49
1.25
 49
-2.5
 49
1.25
 49
-2.5
  0
LTYPE
  5
59DAE
  2
DOT
  3
-   -   -   -   -   -   -   -   
 70
0
 72
65
 73
2
 40
2.5
 49
0.625
 49
-1.875
  0
LTYPE
  5
59DAF
  2
DUMMY
  3
ダミー
 70
0
 72
65
 73
0
 40
0
  0
LTYPE
  5
59DB0
  2
RAND1
  3
ランダム線1
 70
0
 72
65
 73
4
 40
10
 49
1
 49
-2
 49
3
 49
-4
  0
LTYPE
  5
59DB1
  2
RAND2
  3
ランダム線2
 70
0
 72
65
 73
4
 40
14
 49
2
 49
-3
 49
4
 49
-5
  0
LTYPE
  5
59DB2
  2
RAND3
  3
ランダム線3
 70
0
 72
65
 73
4
 40
18
 49
3
 49
-4
 49
5
 49
-6
  0
LTYPE
  5
59DB3
  2
RAND4
  3
ランダム線4
 70
0
 72
65
 73
4
 40
22
 49
4
 49
-5
 49
6
 49
-7
  0
LTYPE
  5
59DB4
  2
RAND5
  3
ランダム線5
 70
0
 72
65
 73
4
 40
26
 49
5
 49
-6
 49
7
 49
-8
  0
LTYPE
  5
59DB5
  2
LONG1
  3
----------  --  ----------  --  
 70
0
 72
65
 73
4
 40
40
 49
32.5
 49
-2.5
 49
2.5
 49
-2.5
  0
LTYPE
  5
59DB6
  2
LONG2
  3
--------  -  -  --------  -  -  
 70
0
 72
65
 73
6
 40
40
 49
30
 49
-2.5
 49
1.25
 49
-2.5
 49
1.25
 49
-2.5
  0
LTYPE
  5
59DB7
  2
LONG3
  3
+++++++++++++++..+++++++++++++++
 70
0
 72
65
 73
2
 40
40
 49
37.5
 49
-2.5
  0
LTYPE
  5
59DB8
  2
LONG4
  3
+++++++++++++++..+++++++++++++++
 70
0
 72
65
 73
2
 40
80
 49
75
 49
-5
  0
LTYPE
  5
59DB9
  2
LONG5
  3
----------  --  ----------  --  
 70
0
 72
65
 73
4
 40
60
 49
37.5
 49
-7.5
 49
7.5
 49
-7.5
  0
LTYPE
  5
59DBA
  2
DASHED
  3
-------   -------------   ------
 70
0
 72
65
 73
2
 40
7.5
 49
6
 49
-1.5
  0
LTYPE
  5
59DBB
  2
DASHED_SPACED
  3
----        --------        ----
 70
0
 72
65
 73
2
 40
12
 49
6
 49
-6
  0
LTYPE
  5
59DBC
  2
LONG_DASHED_DOTTED
  3
------------- --- --------------
 70
0
 72
65
 73
4
 40
15.25
 49
12
 49
-1.5
 49
0.25
 49
-1.5
  0
LTYPE
  5
59DBD
  2
LONG_DASHED_DOUBLE-DOTTED
  3
----------- --- --- ------------
 70
0
 72
65
 73
6
 40
17
 49
12
 49
-1.5
 49
0.25
 49
-1.5
 49
0.25
 49
-1.5
  0
LTYPE
  5
59DBE
  2
LONG_DASHED_TRIPLICATE-DOT
  3
--------- --- --- --- ----------
 70
0
 72
65
 73
8
 40
18.75
 49
12
 49
-1.5
 49
0.25
 49
-1.5
 49
0.25
 49
-1.5
 49
0.25
 49
-1.5
  0
LTYPE
  5
59DBF
  2
DOTTED
  3
   -       -       -       -    
 70
0
 72
65
 73
2
 40
1.75
 49
0.25
 49
-1.5
  0
LTYPE
  5
59DC0
  2
CHAIN
  3
-------------- -- --------------
 70
0
 72
65
 73
4
 40
18.5
 49
12
 49
-1.5
 49
3.5
 49
-1.5
  0
LTYPE
  5
59DC1
  2
CHAIN_DOUBLE_DASH
  3
------------ -- -- -------------
 70
0
 72
65
 73
6
 40
23.5
 49
12
 49
-1.5
 49
3.5
 49
-1.5
 49
3.5
 49
-1.5
  0
LTYPE
  5
59DC2
  2
DASHED_DOTTED
  3
-----------     -     ----------
 70
0
 72
65
 73
4
 40
9.25
 49
6
 49
-1.5
 49
0.25
 49
-1.5
  0
LTYPE
  5
59DC3
  2
DOUBLE-DASHED_DOTTED
  3
------   -----------   -   -----
 70
0
 72
65
 73
6
 40
16.75
 49
6
 49
-1.5
 49
6
 49
-1.5
 49
0.25
 49
-1.5
  0
LTYPE
  5
59DC4
  2
DASHED_DOUBLE-DOTTED
  3
---------    -    -    ---------
 70
0
 72
65
 73
6
 40
11
 49
6
 49
-1.5
 49
0.25
 49
-1.5
 49
0.25
 49
-1.5
  0
LTYPE
  5
59DC5
  2
DOUBLE-DASHED_DOUBLE-DOTTE
  3
-----   ---------   -   -   ----
 70
0
 72
65
 73
8
 40
18.5
 49
6
 49
-1.5
 49
6
 49
-1.5
 49
0.25
 49
-1.5
 49
0.25
 49
-1.5
  0
LTYPE
  5
59DC6
  2
DASHED_TRIPLICATE-DOTTED
  3
-------    -    -    -    ------
 70
0
 72
65
 73
8
 40
12.75
 49
6
 49
-1.5
 49
0.25
 49
-1.5
 49
0.25
 49
-1.5
 49
0.25
 49
-1.5
  0
LTYPE
  5
59DC7
  2
DOUBLE-DASHED_TRIPLICATE-D
  3
-----  ---------  -  -  -  -----
 70
0
 72
65
 73
10
 40
20.25
 49
6
 49
-1.5
 49
6
 49
-1.5
 49
0.25
 49
-1.5
 49
0.25
 49
-1.5
 49
0.25
 49
-1.5
  0
LTYPE
  5
59DC8
  2
UNDEFINED
  3
--------------------------------
 70
0
 72
65
 73
0
 40
0
  0
LTYPE
  5
59DC9
  2
CENTER
  3
----------    ----    ----------
 70
0
 72
65
 73
4
 40
0.59999999999999964
 49
0.375
 49
-0.0749999999999999
 49
0.0749999999999999
 49
-0.0749999999999999
  0
LTYPE
  5
59DCA
  2
PHANTOM
  3
---------  ----  ----  ---------
 70
0
 72
65
 73
6
 40
0.8
 49
0.45
 49
-0.05
 49
0.1
 49
-0.05
 49
0.1
 49
-0.05
  0
LTYPE
  5
59DCB
  2
ByBlock
  3

 70
64
 72
65
 73
0
 40
0
  0
LTYPE
  5
59DCC
  2
ByLayer
  3

 70
64
 72
65
 73
0
 40
0
  0
ENDTAB
  0
TABLE
  2
LAYER
  5
59DFD
 70
2
  0
LAYER
  5
59D8D
 70
0
  2
0
 62
7
  6
CONTINUOUS
  0
LAYER
  5
59D8E
 70
0
  2
SPEC
 62
7
  6
CONTINUOUS
  0
ENDTAB
  0
TABLE
  2
STYLE
  5
59DFE
 70
3
  0
STYLE
  5
59DA3
  2
STANDARD
 70
0
 40
0
 41
1
 50
0
 71
0
 42
0.2
  3
txt.shx
  4
extfont2.shx
  0
STYLE
  5
59DA4
  2
ANNOTATIVE
 70
0
 40
0
 41
1
 50
0
 71
0
 42
0.2
  3
txt
  0
STYLE
  5
59DA5
  2
TATEGAKI
 70
4
 40
0
 41
1
 50
0
 71
0
 42
1
  3
txt
  4
bigfont.shx
  0
ENDTAB
  0
TABLE
  2
APPID
  5
59E01
 70
4
  0
APPID
  5
59E02
  2
ACAD
 70
0
  0
APPID
  5
59E05
  2
ACADANNOTATIVE
 70
0
  0
APPID
  5
59E06
  2
ACAD_MLEADERVER
 70
0
  0
APPID
  5
59E07
  2
ACAD_EXEMPT_FROM_CAD_STANDARDS
 70
0
  0
ENDTAB
  0
TABLE
  2
DIMSTYLE
  5
59E03
 70
2
  0
DIMSTYLE
105
59DCD
  2
STANDARD
 70
0
  3

  4

  5

  6

  7

 40
1
 41
0.18
 42
0.0625
 43
0.38
 44
0.18
 45
0
 46
0
 47
0
 48
0
140
0.18
141
0.09
142
0
143
25.4
144
1
145
0
146
1
147
0.09
 71
0
 72
0
 73
1
 74
1
 75
0
 76
0
 77
0
 78
0
170
0
171
2
172
0
173
0
174
0
175
0
176
0
177
0
178
0
  0
DIMSTYLE
105
59DCE
  2
ANNOTATIVE
 70
0
  3

  4

  5

  6

  7

 40
1
 41
0.18
 42
0.0625
 43
0.38
 44
0.18
 45
0
 46
0
 47
0
 48
0
140
0.18
141
0.09
142
0
143
25.4
144
1
145
0
146
1
147
0.09
 71
0
 72
0
 73
1
 74
1
 75
0
 76
0
 77
0
 78
0
170
0
171
2
172
0
173
0
174
0
175
0
176
0
177
0
178
0
  0
ENDTAB
  0
ENDSEC
  0
SECTION
  2
BLOCKS
  0
BLOCK
  5
59D90
  8
0
  2
$MODEL_SPACE
 70
0
 10
0
 20
0
 30
0
  3
$MODEL_SPACE
  0
ENDBLK
  5
4B54D
  8
0
  0
BLOCK
  5
59D92
  8
0
 67
1
  2
$PAPER_SPACE
 70
0
 10
0
 20
0
 30
0
  3
$PAPER_SPACE
  0
ENDBLK
  5
4B549
  8
0
  0
BLOCK
  5
59D94
  8
0
  2
SPEC_BLOCK
 70
64
 10
0
 20
0
 30
0
  3
SPEC_BLOCK
  0
TEXT
  5
59D95
  8
SPEC
 10
0
 20
0
 30
0
 40
1.5
  1
Myｼﾘｰｽﾞ 温白色(3500K) Ra85
  7
STANDARD
  0
TEXT
  5
59D96
  8
SPEC
 10
0
 20
-3
 30
0
 40
1.5
  1
100V~242V共用ﾀｲﾌﾟ
  7
STANDARD
  0
TEXT
  5
59D97
  8
SPEC
 10
0
 20
-6
 30
0
 40
1.5
  1
本体:鋼板･白色仕上(高反射白色塗装)
  7
STANDARD
  0
TEXT
  5
59D98
  8
SPEC
 10
0
 20
-9
 30
0
 40
1.5
  1
質量:1.2kg(器具本体のみ) 光源寿命:40,000時間
  7
STANDARD
  0
TEXT
  5
59D99
  8
SPEC
 10
0
 20
-12
 30
0
 40
1.5
  1
光束:1760lm 消費電力:13.6W 消費効率:129.4lm/W
  7
STANDARD
  0
ENDBLK
  5
59D9A
  8
0
  0
BLOCK
  5
59D9C
  8
0
  2
*MODEL_SPACE
 70
64
 10
0
 20
0
 30
0
  3
*MODEL_SPACE
  0
ENDBLK
  5
59D9F
  8
0
  0
BLOCK
  5
59DA1
  8
0
 67
1
  2
*PAPER_SPACE
 70
64
 10
0
 20
0
 30
0
  3
*PAPER_SPACE
  0
ENDBLK
  5
59DA2
  8
0
  0
ENDSEC
  0
SECTION
  2
ENTITIES
  0
TEXT
  5
A2
  8
0
 62
7
 10
-5.7978860025500873
 20
76.874997361698718
 30
0
 40
4.5
  1
ＬＥＤ１３。６Ｗ×１　 ライトユニット形ベースライト
 41
0.96982639999999987
  7
STANDARD
  0
TEXT
  5
A3
  8
0
 62
7
 10
-5.7978860025500873
 20
-7.124997638301215
 30
0
 40
4.5
  1
三菱　ＭＹ－Ｈ４２０１３０／ＷＷ
 41
0.9893333
  7
STANDARD
  0
POLYLINE
  5
4A485
  8
0
 62
7
 66
1
 70
0
 10
0
 20
0
 30
0
  0
VERTEX
  5
594B0
  8
0
 62
7
 10
20.590699674680941
 20
40.158545042604828
 70
0
  0
VERTEX
  5
594B1
  8
0
 62
7
 10
20.590699674680941
 20
40.158545042604828
 70
0
  0
SEQEND
  5
594B2
  8
0
  0
POLYLINE
  5
4A489
  8
0
 62
7
 66
1
 70
0
 10
0
 20
0
 30
0
  0
VERTEX
  5
594B3
  8
0
 62
7
 10
22.029371549321269
 20
41.639936101262251
 70
0
  0
VERTEX
  5
594B4
  8
0
 62
7
 10
22.029371549321269
 20
41.682655285279338
 70
0
  0
SEQEND
  5
594B5
  8
0
  0
POLYLINE
  5
4A48D
  8
0
 62
7
 66
1
 70
0
 10
0
 20
0
 30
0
  0
VERTEX
  5
594B6
  8
0
 62
7
 10
22.156151063178442
 20
41.936214312993741
 70
0
  0
VERTEX
  5
594B7
  8
0
 62
7
 10
22.156151063178442
 20
41.766543360345153
 70
0
  0
SEQEND
  5
594B8
  8
0
  0
POLYLINE
  5
4A491
  8
0
 62
7
 66
1
 70
0
 10
0
 20
0
 30
0
  0
VERTEX
  5
594B9
  8
0
 62
7
 10
22.156151063178442
 20
41.682655285279338
 70
0
  0
VERTEX
  5
594BA
  8
0
 62
7
 10
22.156151063178442
 20
41.723824176328087
 70
0
  0
SEQEND
  5
594BB
  8
0
  0
POLYLINE
  5
4A495
  8
0
 62
7
 66
1
 70
0
 10
0
 20
0
 30
0
  0
VERTEX
  5
594BC
  8
0
 62
7
 10
22.156151063178442
 20
41.766543360345153
 70
0
  0
VERTEX
  5
594BD
  8
0
 62
7
 10
22.156151063178442
 20
41.766543360345153
 70
0
  0
SEQEND
  5
594BE
  8
0
  0
POLYLINE
  5
4A499
  8
0
 62
7
 66
1
 70
0
 10
0
 20
0
 30
0
  0
VERTEX
  5
594BF
  8
0
 62
7
 10
22.19887024719554
 20
43.0372668300796
 70
0
  0
VERTEX
  5
594C0
  8
0
 62
7
 10
22.19887024719554
 20
43.0372668300796
 70
0
  0
SEQEND
  5
594C1
  8
0
  0
POLYLINE
  5
4A49D
  8
0
 62
7
 66
1
 70
0
 10
0
 20
0
 30
0
  0
VERTEX
  5
594C2
  8
0
 62
7
 10
22.19887024719554
 20
42.062993826850906
 70
0
  0
VERTEX
  5
594C3
  8
0
 62
7
 10
22.19887024719554
 20
43.078607975902557
 70
0
  0
SEQEND
  5
594C4
  8
0
  0
POLYLINE
  5
4A4A1
  8
0
 62
7
 66
1
 70
0
 10
0
 20
0
 30
0
  0
VERTEX
  5
594C5
  8
0
 62
7
 10
22.282930577035639
 20
41.639936101262251
 70
0
  0
VERTEX
  5
594C6
  8
0
 62
7
 10
22.282930577035639
 20
41.682655285279338
 70
0
  0
SEQEND
  5
594C7
  8
0
  0
POLYLINE
  5
4A4A5
  8
0
 62
7
 66
1
 70
0
 10
0
 20
0
 30
0
  0
VERTEX
  5
594C8
  8
0
 62
7
 10
24.908093336796021
 20
42.655550250313922
 70
0
  0
VERTEX
  5
594C9
  8
0
 62
7
 10
24.908093336796021
 20
42.698269434330967
 70
0
  0
SEQEND
  5
594CA
  8
0
  0
POLYLINE
  5
4A4A9
  8
0
 62
7
 66
1
 70
0
 10
0
 20
0
 30
0
  0
VERTEX
  5
594CB
  8
0
 62
7
 10
24.653156270887539
 20
43.926273720048293
 70
0
  0
VERTEX
  5
594CC
  8
0
 62
7
 10
24.653156270887539
 20
42.910659570996643
 70
0
  0
SEQEND
  5
594CD
  8
0
  0
POLYLINE
  5
4A4AD
  8
0
 62
7
 66
1
 70
0
 10
0
 20
0
 30
0
  0
VERTEX
  5
594CE
  8
0
 62
7
 10
26.26270488159625
 20
42.062993826850906
 70
0
  0
VERTEX
  5
594CF
  8
0
 62
7
 10
26.26270488159625
 20
42.105540756093767
 70
0
  0
SEQEND
  5
594D0
  8
0
  0
POLYLINE
  5
4A4B1
  8
0
 62
7
 66
1
 70
0
 10
0
 20
0
 30
0
  0
VERTEX
  5
594D1
  8
0
 62
7
 10
24.695875454904641
 20
43.967614865871319
 70
0
  0
VERTEX
  5
594D2
  8
0
 62
7
 10
24.695875454904641
 20
43.926273720048293
 70
0
  0
SEQEND
  5
594D3
  8
0
  0
POLYLINE
  5
4A4B5
  8
0
 62
7
 66
1
 70
0
 10
0
 20
0
 30
0
  0
VERTEX
  5
594D4
  8
0
 62
7
 10
24.695875454904641
 20
43.926273720048293
 70
0
  0
VERTEX
  5
594D5
  8
0
 62
7
 10
24.695875454904641
 20
43.926273720048293
 70
0
  0
SEQEND
  5
594D6
  8
0
  0
POLYLINE
  5
4A4B9
  8
0
 62
7
 66
1
 70
0
 10
0
 20
0
 30
0
  0
VERTEX
  5
594D7
  8
0
 62
7
 10
24.695875454904641
 20
43.883210026482672
 70
0
  0
VERTEX
  5
594D8
  8
0
 62
7
 10
24.695875454904641
 20
42.910659570996643
 70
0
  0
SEQEND
  5
594D9
  8
0
  0
POLYLINE
  5
4A4BD
  8
0
 62
7
 66
1
 70
0
 10
0
 20
0
 30
0
  0
VERTEX
  5
594DA
  8
0
 62
7
 10
24.695875454904641
 20
42.614209104490882
 70
0
  0
VERTEX
  5
594DB
  8
0
 62
7
 10
24.695875454904641
 20
42.655550250313922
 70
0
  0
SEQEND
  5
594DC
  8
0
  0
POLYLINE
  5
4A4C1
  8
0
 62
7
 66
1
 70
0
 10
0
 20
0
 30
0
  0
VERTEX
  5
594DD
  8
0
 62
7
 10
24.695875454904641
 20
42.655550250313922
 70
0
  0
VERTEX
  5
594DE
  8
0
 62
7
 10
24.695875454904641
 20
42.824876693413941
 70
0
  0
SEQEND
  5
594DF
  8
0
  0
POLYLINE
  5
4A4C5
  8
0
 62
7
 66
1
 70
0
 10
0
 20
0
 30
0
  0
VERTEX
  5
594E0
  8
0
 62
7
 10
24.738594638921739
 20
42.614209104490882
 70
0
  0
VERTEX
  5
594E1
  8
0
 62
7
 10
24.738594638921739
 20
42.655550250313922
 70
0
  0
SEQEND
  5
594E2
  8
0
  0
POLYLINE
  5
4A4C9
  8
0
 62
7
 66
1
 70
0
 10
0
 20
0
 30
0
  0
VERTEX
  5
594E3
  8
0
 62
7
 10
24.738594638921739
 20
42.528942991230963
 70
0
  0
VERTEX
  5
594E4
  8
0
 62
7
 10
24.738594638921739
 20
42.571662175248093
 70
0
  0
SEQEND
  5
594E5
  8
0
  0
POLYLINE
  5
4A4CD
  8
0
 62
7
 66
1
 70
0
 10
0
 20
0
 30
0
  0
VERTEX
  5
594E6
  8
0
 62
7
 10
24.738594638921739
 20
42.571662175248093
 70
0
  0
VERTEX
  5
594E7
  8
0
 62
7
 10
24.738594638921739
 20
42.571662175248093
 70
0
  0
SEQEND
  5
594E8
  8
0
  0
POLYLINE
  5
4A4D1
  8
0
 62
7
 66
1
 70
0
 10
0
 20
0
 30
0
  0
VERTEX
  5
594E9
  8
0
 62
7
 10
24.738594638921739
 20
42.655550250313922
 70
0
  0
VERTEX
  5
594EA
  8
0
 62
7
 10
24.738594638921739
 20
42.824876693413941
 70
0
  0
SEQEND
  5
594EB
  8
0
  0
POLYLINE
  5
4A4D5
  8
0
 62
7
 66
1
 70
0
 10
0
 20
0
 30
0
  0
VERTEX
  5
594EC
  8
0
 62
7
 10
24.908093336796021
 20
42.655550250313922
 70
0
  0
VERTEX
  5
594ED
  8
0
 62
7
 10
24.908093336796021
 20
42.698269434330967
 70
0
  0
SEQEND
  5
594EE
  8
0
  0
POLYLINE
  5
4A4D9
  8
0
 62
7
 66
1
 70
0
 10
0
 20
0
 30
0
  0
VERTEX
  5
594EF
  8
0
 62
7
 10
26.30404602741925
 20
42.1899455954824
 70
0
  0
VERTEX
  5
594F0
  8
0
 62
7
 10
26.30404602741925
 20
42.1899455954824
 70
0
  0
SEQEND
  5
594F1
  8
0
  0
POLYLINE
  5
4A4DD
  8
0
 62
7
 66
1
 70
0
 10
0
 20
0
 30
0
  0
VERTEX
  5
594F2
  8
0
 62
7
 10
24.653156270887539
 20
43.926273720048293
 70
0
  0
VERTEX
  5
594F3
  8
0
 62
7
 10
22.19887024719554
 20
43.078607975902557
 70
0
  0
SEQEND
  5
594F4
  8
0
  0
POLYLINE
  5
4A4E1
  8
0
 62
7
 66
1
 70
0
 10
0
 20
0
 30
0
  0
VERTEX
  5
594F5
  8
0
 62
7
 10
22.19887024719554
 20
43.0372668300796
 70
0
  0
VERTEX
  5
594F6
  8
0
 62
7
 10
22.19887024719554
 20
43.0372668300796
 70
0
  0
SEQEND
  5
594F7
  8
0
  0
POLYLINE
  5
4A4E5
  8
0
 62
7
 66
1
 70
0
 10
0
 20
0
 30
0
  0
VERTEX
  5
594F8
  8
0
 62
7
 10
24.695875454904641
 20
43.926273720048293
 70
0
  0
VERTEX
  5
594F9
  8
0
 62
7
 10
24.738594638921739
 20
43.926273720048293
 70
0
  0
SEQEND
  5
594FA
  8
0
  0
POLYLINE
  5
4A4E9
  8
0
 62
7
 66
1
 70
0
 10
0
 20
0
 30
0
  0
VERTEX
  5
594FB
  8
0
 62
7
 10
28.75971008930534
 20
40.751273720842043
 70
0
  0
VERTEX
  5
594FC
  8
0
 62
7
 10
28.75971008930534
 20
40.751273720842043
 70
0
  0
SEQEND
  5
594FD
  8
0
  0
POLYLINE
  5
4A4ED
  8
0
 62
7
 66
1
 70
0
 10
0
 20
0
 30
0
  0
VERTEX
  5
594FE
  8
0
 62
7
 10
28.929208787179618
 20
40.667041136227681
 70
0
  0
VERTEX
  5
594FF
  8
0
 62
7
 10
28.929208787179618
 20
40.667041136227681
 70
0
  0
SEQEND
  5
59500
  8
0
  0
POLYLINE
  5
4A4F1
  8
0
 62
7
 66
1
 70
0
 10
0
 20
0
 30
0
  0
VERTEX
  5
59501
  8
0
 62
7
 10
28.929208787179618
 20
40.667041136227681
 70
0
  0
VERTEX
  5
59502
  8
0
 62
7
 10
28.929208787179618
 20
40.667041136227681
 70
0
  0
SEQEND
  5
59503
  8
0
  0
POLYLINE
  5
4A4F5
  8
0
 62
7
 66
1
 70
0
 10
0
 20
0
 30
0
  0
VERTEX
  5
59504
  8
0
 62
7
 10
28.97192797119672
 20
40.667041136227681
 70
0
  0
VERTEX
  5
59505
  8
0
 62
7
 10
28.97192797119672
 20
40.667041136227681
 70
0
  0
SEQEND
  5
59506
  8
0
  0
POLYLINE
  5
4A4F9
  8
0
 62
7
 66
1
 70
0
 10
0
 20
0
 30
0
  0
VERTEX
  5
59507
  8
0
 62
7
 10
24.695875454904641
 20
42.910659570996643
 70
0
  0
VERTEX
  5
59508
  8
0
 62
7
 10
24.695875454904641
 20
42.910659570996643
 70
0
  0
SEQEND
  5
59509
  8
0
  0
POLYLINE
  5
4A4FD
  8
0
 62
7
 66
1
 70
0
 10
0
 20
0
 30
0
  0
VERTEX
  5
5950A
  8
0
 62
7
 10
24.695875454904641
 20
42.910659570996643
 70
0
  0
VERTEX
  5
5950B
  8
0
 62
7
 10
24.695875454904641
 20
42.910659570996643
 70
0
  0
SEQEND
  5
5950C
  8
0
  0
POLYLINE
  5
4A501
  8
0
 62
7
 66
1
 70
0
 10
0
 20
0
 30
0
  0
VERTEX
  5
5950D
  8
0
 62
7
 10
22.19887024719554
 20
41.766543360345153
 70
0
  0
VERTEX
  5
5950E
  8
0
 62
7
 10
24.695875454904641
 20
42.655550250313922
 70
0
  0
SEQEND
  5
5950F
  8
0
  0
POLYLINE
  5
4A505
  8
0
 62
7
 66
1
 70
0
 10
0
 20
0
 30
0
  0
VERTEX
  5
59510
  8
0
 62
7
 10
22.19887024719554
 20
41.766543360345153
 70
0
  0
VERTEX
  5
59511
  8
0
 62
7
 10
22.19887024719554
 20
41.766543360345153
 70
0
  0
SEQEND
  5
59512
  8
0
  0
POLYLINE
  5
4A509
  8
0
 62
7
 66
1
 70
0
 10
0
 20
0
 30
0
  0
VERTEX
  5
59513
  8
0
 62
7
 10
24.695875454904641
 20
42.655550250313922
 70
0
  0
VERTEX
  5
59514
  8
0
 62
7
 10
24.738594638921739
 20
42.655550250313922
 70
0
  0
SEQEND
  5
59515
  8
0
  0
POLYLINE
  5
4A50D
  8
0
 62
7
 66
1
 70
0
 10
0
 20
0
 30
0
  0
VERTEX
  5
59516
  8
0
 62
7
 10
22.19887024719554
 20
41.723824176328087
 70
0
  0
VERTEX
  5
59517
  8
0
 62
7
 10
24.695875454904641
 20
42.614209104490882
 70
0
  0
SEQEND
  5
59518
  8
0
  0
POLYLINE
  5
4A511
  8
0
 62
7
 66
1
 70
0
 10
0
 20
0
 30
0
  0
VERTEX
  5
59519
  8
0
 62
7
 10
24.738594638921739
 20
42.571662175248093
 70
0
  0
VERTEX
  5
5951A
  8
0
 62
7
 10
22.282930577035639
 20
41.682655285279338
 70
0
  0
SEQEND
  5
5951B
  8
0
  0
POLYLINE
  5
4A515
  8
0
 62
7
 66
1
 70
0
 10
0
 20
0
 30
0
  0
VERTEX
  5
5951C
  8
0
 62
7
 10
24.822654968761839
 20
42.571662175248093
 70
0
  0
VERTEX
  5
5951D
  8
0
 62
7
 10
24.738594638921739
 20
42.528942991230963
 70
0
  0
SEQEND
  5
5951E
  8
0
  0
POLYLINE
  5
4A519
  8
0
 62
7
 66
1
 70
0
 10
0
 20
0
 30
0
  0
VERTEX
  5
5951F
  8
0
 62
7
 10
22.282930577035639
 20
41.639936101262251
 70
0
  0
VERTEX
  5
59520
  8
0
 62
7
 10
22.156151063178442
 20
41.639936101262251
 70
0
  0
SEQEND
  5
59521
  8
0
  0
POLYLINE
  5
4A51D
  8
0
 62
7
 66
1
 70
0
 10
0
 20
0
 30
0
  0
VERTEX
  5
59522
  8
0
 62
7
 10
28.379371547733768
 20
41.936214312993741
 70
0
  0
VERTEX
  5
59523
  8
0
 62
7
 10
28.379371547733768
 20
41.978933497010857
 70
0
  0
SEQEND
  5
59524
  8
0
  0
POLYLINE
  5
4A521
  8
0
 62
7
 66
1
 70
0
 10
0
 20
0
 30
0
  0
VERTEX
  5
59525
  8
0
 62
7
 10
28.463431877573871
 20
41.766543360345153
 70
0
  0
VERTEX
  5
59526
  8
0
 62
7
 10
28.463431877573871
 20
41.766543360345153
 70
0
  0
SEQEND
  5
59527
  8
0
  0
POLYLINE
  5
4A525
  8
0
 62
7
 66
1
 70
0
 10
0
 20
0
 30
0
  0
VERTEX
  5
59528
  8
0
 62
7
 10
28.463431877573871
 20
41.766543360345153
 70
0
  0
VERTEX
  5
59529
  8
0
 62
7
 10
28.463431877573871
 20
41.766543360345153
 70
0
  0
SEQEND
  5
5952A
  8
0
  0
POLYLINE
  5
4A529
  8
0
 62
7
 66
1
 70
0
 10
0
 20
0
 30
0
  0
VERTEX
  5
5952B
  8
0
 62
7
 10
28.379371547733768
 20
41.639936101262251
 70
0
  0
VERTEX
  5
5952C
  8
0
 62
7
 10
28.379371547733768
 20
41.639936101262251
 70
0
  0
SEQEND
  5
5952D
  8
0
  0
POLYLINE
  5
4A52D
  8
0
 62
7
 66
1
 70
0
 10
0
 20
0
 30
0
  0
VERTEX
  5
5952E
  8
0
 62
7
 10
20.632040820503931
 20
40.073278929344887
 70
0
  0
VERTEX
  5
5952F
  8
0
 62
7
 10
20.632040820503931
 20
40.115998113361947
 70
0
  0
SEQEND
  5
59530
  8
0
  0
POLYLINE
  5
4A531
  8
0
 62
7
 66
1
 70
0
 10
0
 20
0
 30
0
  0
VERTEX
  5
59531
  8
0
 62
7
 10
22.029371549321269
 20
41.639936101262251
 70
0
  0
VERTEX
  5
59532
  8
0
 62
7
 10
21.98665236530417
 20
41.639936101262251
 70
0
  0
SEQEND
  5
59533
  8
0
  0
POLYLINE
  5
4A535
  8
0
 62
7
 66
1
 70
0
 10
0
 20
0
 30
0
  0
VERTEX
  5
59534
  8
0
 62
7
 10
25.245712694350519
 20
39.353942992024713
 70
0
  0
VERTEX
  5
59535
  8
0
 62
7
 10
25.245712694350519
 20
39.353942992024713
 70
0
  0
SEQEND
  5
59536
  8
0
  0
POLYLINE
  5
4A539
  8
0
 62
7
 66
1
 70
0
 10
0
 20
0
 30
0
  0
VERTEX
  5
59537
  8
0
 62
7
 10
25.4579305762419
 20
39.439209105284647
 70
0
  0
VERTEX
  5
59538
  8
0
 62
7
 10
25.4579305762419
 20
39.439209105284647
 70
0
  0
SEQEND
  5
59539
  8
0
  0
POLYLINE
  5
4A53D
  8
0
 62
7
 66
1
 70
0
 10
0
 20
0
 30
0
  0
VERTEX
  5
5953A
  8
0
 62
7
 10
25.4579305762419
 20
39.480550251107672
 70
0
  0
VERTEX
  5
5953B
  8
0
 62
7
 10
25.4579305762419
 20
39.480550251107672
 70
0
  0
SEQEND
  5
5953C
  8
0
  0
POLYLINE
  5
4A541
  8
0
 62
7
 66
1
 70
0
 10
0
 20
0
 30
0
  0
VERTEX
  5
5953D
  8
0
 62
7
 10
25.500649760258991
 20
39.60870780315895
 70
0
  0
VERTEX
  5
5953E
  8
0
 62
7
 10
25.500649760258991
 20
39.60870780315895
 70
0
  0
SEQEND
  5
5953F
  8
0
  0
POLYLINE
  5
4A545
  8
0
 62
7
 66
1
 70
0
 10
0
 20
0
 30
0
  0
VERTEX
  5
59540
  8
0
 62
7
 10
60.041177095373861
 20
20.221088450366981
 70
0
  0
VERTEX
  5
59541
  8
0
 62
7
 10
20.632040820503931
 20
40.073278929344887
 70
0
  0
SEQEND
  5
59542
  8
0
  0
POLYLINE
  5
4A549
  8
0
 62
7
 66
1
 70
0
 10
0
 20
0
 30
0
  0
VERTEX
  5
59543
  8
0
 62
7
 10
20.632040820503931
 20
40.115998113361947
 70
0
  0
VERTEX
  5
59544
  8
0
 62
7
 10
20.590699674680941
 20
40.158545042604828
 70
0
  0
SEQEND
  5
59545
  8
0
  0
POLYLINE
  5
4A54D
  8
0
 62
7
 66
1
 70
0
 10
0
 20
0
 30
0
  0
VERTEX
  5
59546
  8
0
 62
7
 10
22.029371549321269
 20
41.639936101262251
 70
0
  0
VERTEX
  5
59547
  8
0
 62
7
 10
22.156151063178442
 20
41.555875771422158
 70
0
  0
SEQEND
  5
59548
  8
0
  0
POLYLINE
  5
4A551
  8
0
 62
7
 66
1
 70
0
 10
0
 20
0
 30
0
  0
VERTEX
  5
59549
  8
0
 62
7
 10
22.029371549321269
 20
41.639936101262251
 70
0
  0
VERTEX
  5
5954A
  8
0
 62
7
 10
22.156151063178442
 20
41.555875771422158
 70
0
  0
SEQEND
  5
5954B
  8
0
  0
POLYLINE
  5
4A555
  8
0
 62
7
 66
1
 70
0
 10
0
 20
0
 30
0
  0
VERTEX
  5
5954C
  8
0
 62
7
 10
22.156151063178442
 20
41.682655285279338
 70
0
  0
VERTEX
  5
5954D
  8
0
 62
7
 10
22.241589431212649
 20
41.682655285279338
 70
0
  0
SEQEND
  5
5954E
  8
0
  0
POLYLINE
  5
4A559
  8
0
 62
7
 66
1
 70
0
 10
0
 20
0
 30
0
  0
VERTEX
  5
5954F
  8
0
 62
7
 10
22.19887024719554
 20
41.766543360345153
 70
0
  0
VERTEX
  5
59550
  8
0
 62
7
 10
22.19887024719554
 20
41.766543360345153
 70
0
  0
SEQEND
  5
59551
  8
0
  0
POLYLINE
  5
4A55D
  8
0
 62
7
 66
1
 70
0
 10
0
 20
0
 30
0
  0
VERTEX
  5
59552
  8
0
 62
7
 10
25.034872850653219
 20
42.316552854565323
 70
0
  0
VERTEX
  5
59553
  8
0
 62
7
 10
24.908093336796021
 20
42.359272038582453
 70
0
  0
SEQEND
  5
59554
  8
0
  0
POLYLINE
  5
4A561
  8
0
 62
7
 66
1
 70
0
 10
0
 20
0
 30
0
  0
VERTEX
  5
59555
  8
0
 62
7
 10
64.0622925457575
 20
22.59131414421887
 70
0
  0
VERTEX
  5
59556
  8
0
 62
7
 10
64.189072059614659
 20
22.548594960201768
 70
0
  0
SEQEND
  5
59557
  8
0
  0
POLYLINE
  5
4A565
  8
0
 62
7
 66
1
 70
0
 10
0
 20
0
 30
0
  0
VERTEX
  5
59558
  8
0
 62
7
 10
24.39959724317314
 20
43.587276324299737
 70
0
  0
VERTEX
  5
59559
  8
0
 62
7
 10
24.39959724317314
 20
43.587276324299737
 70
0
  0
SEQEND
  5
5955A
  8
0
  0
POLYLINE
  5
4A569
  8
0
 62
7
 66
1
 70
0
 10
0
 20
0
 30
0
  0
VERTEX
  5
5955B
  8
0
 62
7
 10
22.452429274909949
 20
42.782157509396811
 70
0
  0
VERTEX
  5
5955C
  8
0
 62
7
 10
22.452429274909949
 20
42.782157509396811
 70
0
  0
SEQEND
  5
5955D
  8
0
  0
POLYLINE
  5
4A56D
  8
0
 62
7
 66
1
 70
0
 10
0
 20
0
 30
0
  0
VERTEX
  5
5955E
  8
0
 62
7
 10
22.19887024719554
 20
43.0372668300796
 70
0
  0
VERTEX
  5
5955F
  8
0
 62
7
 10
22.19887024719554
 20
43.0372668300796
 70
0
  0
SEQEND
  5
59560
  8
0
  0
POLYLINE
  5
4A571
  8
0
 62
7
 66
1
 70
0
 10
0
 20
0
 30
0
  0
VERTEX
  5
59561
  8
0
 62
7
 10
22.19887024719554
 20
43.0372668300796
 70
0
  0
VERTEX
  5
59562
  8
0
 62
7
 10
22.19887024719554
 20
43.0372668300796
 70
0
  0
SEQEND
  5
59563
  8
0
  0
POLYLINE
  5
4A575
  8
0
 62
7
 66
1
 70
0
 10
0
 20
0
 30
0
  0
VERTEX
  5
59564
  8
0
 62
7
 10
22.19887024719554
 20
43.078607975902557
 70
0
  0
VERTEX
  5
59565
  8
0
 62
7
 10
22.19887024719554
 20
43.078607975902557
 70
0
  0
SEQEND
  5
59566
  8
0
  0
POLYLINE
  5
4A579
  8
0
 62
7
 66
1
 70
0
 10
0
 20
0
 30
0
  0
VERTEX
  5
59567
  8
0
 62
7
 10
25.034872850653219
 20
42.27521170874234
 70
0
  0
VERTEX
  5
59568
  8
0
 62
7
 10
64.0622925457575
 20
22.59131414421887
 70
0
  0
SEQEND
  5
59569
  8
0
  0
POLYLINE
  5
4A57D
  8
0
 62
7
 66
1
 70
0
 10
0
 20
0
 30
0
  0
VERTEX
  5
5956A
  8
0
 62
7
 10
25.034872850653219
 20
42.316552854565323
 70
0
  0
VERTEX
  5
5956B
  8
0
 62
7
 10
64.0622925457575
 20
22.63403332823594
 70
0
  0
SEQEND
  5
5956C
  8
0
  0
POLYLINE
  5
4A581
  8
0
 62
7
 66
1
 70
0
 10
0
 20
0
 30
0
  0
VERTEX
  5
5956D
  8
0
 62
7
 10
24.738594638921739
 20
42.614209104490882
 70
0
  0
VERTEX
  5
5956E
  8
0
 62
7
 10
24.822654968761839
 20
42.571662175248093
 70
0
  0
SEQEND
  5
5956F
  8
0
  0
POLYLINE
  5
4A585
  8
0
 62
7
 66
1
 70
0
 10
0
 20
0
 30
0
  0
VERTEX
  5
59570
  8
0
 62
7
 10
24.738594638921739
 20
42.655550250313922
 70
0
  0
VERTEX
  5
59571
  8
0
 62
7
 10
24.738594638921739
 20
42.655550250313922
 70
0
  0
SEQEND
  5
59572
  8
0
  0
POLYLINE
  5
4A589
  8
0
 62
7
 66
1
 70
0
 10
0
 20
0
 30
0
  0
VERTEX
  5
59573
  8
0
 62
7
 10
25.077592034670321
 20
42.528942991230963
 70
0
  0
VERTEX
  5
59574
  8
0
 62
7
 10
64.0622925457575
 20
22.845045426707511
 70
0
  0
SEQEND
  5
59575
  8
0
  0
POLYLINE
  5
4A58D
  8
0
 62
7
 66
1
 70
0
 10
0
 20
0
 30
0
  0
VERTEX
  5
59576
  8
0
 62
7
 10
23.42670227813861
 20
43.41760537165117
 70
0
  0
VERTEX
  5
59577
  8
0
 62
7
 10
23.42670227813861
 20
43.41760537165117
 70
0
  0
SEQEND
  5
59578
  8
0
  0
POLYLINE
  5
4A591
  8
0
 62
7
 66
1
 70
0
 10
0
 20
0
 30
0
  0
VERTEX
  5
59579
  8
0
 62
7
 10
24.908093336796021
 20
42.655550250313922
 70
0
  0
VERTEX
  5
5957A
  8
0
 62
7
 10
64.358570757488962
 20
22.803704280884521
 70
0
  0
SEQEND
  5
5957B
  8
0
  0
POLYLINE
  5
4A595
  8
0
 62
7
 66
1
 70
0
 10
0
 20
0
 30
0
  0
VERTEX
  5
5957C
  8
0
 62
7
 10
24.908093336796021
 20
42.655550250313922
 70
0
  0
VERTEX
  5
5957D
  8
0
 62
7
 10
64.358570757488962
 20
22.803704280884521
 70
0
  0
SEQEND
  5
5957E
  8
0
  0
POLYLINE
  5
4A599
  8
0
 62
7
 66
1
 70
0
 10
0
 20
0
 30
0
  0
VERTEX
  5
5957F
  8
0
 62
7
 10
26.26270488159625
 20
42.062993826850906
 70
0
  0
VERTEX
  5
59580
  8
0
 62
7
 10
65.7131823022892
 20
22.21097560264727
 70
0
  0
SEQEND
  5
59581
  8
0
  0
POLYLINE
  5
4A59D
  8
0
 62
7
 66
1
 70
0
 10
0
 20
0
 30
0
  0
VERTEX
  5
59582
  8
0
 62
7
 10
26.30404602741925
 20
42.1899455954824
 70
0
  0
VERTEX
  5
59583
  8
0
 62
7
 10
26.34676521143636
 20
42.148259940110847
 70
0
  0
SEQEND
  5
59584
  8
0
  0
POLYLINE
  5
4A5A1
  8
0
 62
7
 66
1
 70
0
 10
0
 20
0
 30
0
  0
VERTEX
  5
59585
  8
0
 62
7
 10
25.034872850653219
 20
42.27521170874234
 70
0
  0
VERTEX
  5
59586
  8
0
 62
7
 10
24.865374152778909
 20
42.316552854565323
 70
0
  0
SEQEND
  5
59587
  8
0
  0
POLYLINE
  5
4A5A5
  8
0
 62
7
 66
1
 70
0
 10
0
 20
0
 30
0
  0
VERTEX
  5
59588
  8
0
 62
7
 10
24.781313822938841
 20
42.571662175248093
 70
0
  0
VERTEX
  5
59589
  8
0
 62
7
 10
24.781313822938841
 20
42.571662175248093
 70
0
  0
SEQEND
  5
5958A
  8
0
  0
POLYLINE
  5
4A5A9
  8
0
 62
7
 66
1
 70
0
 10
0
 20
0
 30
0
  0
VERTEX
  5
5958B
  8
0
 62
7
 10
24.653156270887539
 20
43.926273720048293
 70
0
  0
VERTEX
  5
5958C
  8
0
 62
7
 10
24.653156270887539
 20
43.926273720048293
 70
0
  0
SEQEND
  5
5958D
  8
0
  0
POLYLINE
  5
4A5AD
  8
0
 62
7
 66
1
 70
0
 10
0
 20
0
 30
0
  0
VERTEX
  5
5958E
  8
0
 62
7
 10
24.695875454904641
 20
43.926273720048293
 70
0
  0
VERTEX
  5
5958F
  8
0
 62
7
 10
24.695875454904641
 20
43.926273720048293
 70
0
  0
SEQEND
  5
59590
  8
0
  0
POLYLINE
  5
4A5B1
  8
0
 62
7
 66
1
 70
0
 10
0
 20
0
 30
0
  0
VERTEX
  5
59591
  8
0
 62
7
 10
24.738594638921739
 20
43.926273720048293
 70
0
  0
VERTEX
  5
59592
  8
0
 62
7
 10
64.189072059614659
 20
24.031364057053281
 70
0
  0
SEQEND
  5
59593
  8
0
  0
POLYLINE
  5
4A5B5
  8
0
 62
7
 66
1
 70
0
 10
0
 20
0
 30
0
  0
VERTEX
  5
59594
  8
0
 62
7
 10
64.0622925457575
 20
22.63403332823594
 70
0
  0
VERTEX
  5
59595
  8
0
 62
7
 10
64.189072059614659
 20
22.59131414421887
 70
0
  0
SEQEND
  5
59596
  8
0
  0
POLYLINE
  5
4A5B9
  8
0
 62
7
 66
1
 70
0
 10
0
 20
0
 30
0
  0
VERTEX
  5
59597
  8
0
 62
7
 10
57.374673189790492
 20
23.184042822456089
 70
0
  0
VERTEX
  5
59598
  8
0
 62
7
 10
57.417392373807587
 20
23.14132363843899
 70
0
  0
SEQEND
  5
59599
  8
0
  0
POLYLINE
  5
4A5BD
  8
0
 62
7
 66
1
 70
0
 10
0
 20
0
 30
0
  0
VERTEX
  5
5959A
  8
0
 62
7
 10
57.58689107168189
 20
23.26930893571603
 70
0
  0
VERTEX
  5
5959B
  8
0
 62
7
 10
57.58689107168189
 20
23.26930893571603
 70
0
  0
SEQEND
  5
5959C
  8
0
  0
POLYLINE
  5
4A5C1
  8
0
 62
7
 66
1
 70
0
 10
0
 20
0
 30
0
  0
VERTEX
  5
5959D
  8
0
 62
7
 10
57.58689107168189
 20
23.26930893571603
 70
0
  0
VERTEX
  5
5959E
  8
0
 62
7
 10
57.58689107168189
 20
23.26930893571603
 70
0
  0
SEQEND
  5
5959F
  8
0
  0
POLYLINE
  5
4A5C5
  8
0
 62
7
 66
1
 70
0
 10
0
 20
0
 30
0
  0
VERTEX
  5
595A0
  8
0
 62
7
 10
57.628232217504888
 20
23.438635378816059
 70
0
  0
VERTEX
  5
595A1
  8
0
 62
7
 10
57.628232217504888
 20
23.396088449573231
 70
0
  0
SEQEND
  5
595A2
  8
0
  0
POLYLINE
  5
4A5C9
  8
0
 62
7
 66
1
 70
0
 10
0
 20
0
 30
0
  0
VERTEX
  5
595A3
  8
0
 62
7
 10
60.506954004979633
 20
25.76631414342512
 70
0
  0
VERTEX
  5
595A4
  8
0
 62
7
 10
60.549673188996742
 20
25.76631414342512
 70
0
  0
SEQEND
  5
595A5
  8
0
  0
POLYLINE
  5
4A5CD
  8
0
 62
7
 66
1
 70
0
 10
0
 20
0
 30
0
  0
VERTEX
  5
595A6
  8
0
 62
7
 10
60.59239237301383
 20
25.596643190776561
 70
0
  0
VERTEX
  5
595A7
  8
0
 62
7
 10
60.59239237301383
 20
25.596643190776561
 70
0
  0
SEQEND
  5
595A8
  8
0
  0
POLYLINE
  5
4A5D1
  8
0
 62
7
 66
1
 70
0
 10
0
 20
0
 30
0
  0
VERTEX
  5
595A9
  8
0
 62
7
 10
60.59239237301383
 20
25.553924006759448
 70
0
  0
VERTEX
  5
595AA
  8
0
 62
7
 10
60.59239237301383
 20
25.553924006759448
 70
0
  0
SEQEND
  5
595AB
  8
0
  0
POLYLINE
  5
4A5D5
  8
0
 62
7
 66
1
 70
0
 10
0
 20
0
 30
0
  0
VERTEX
  5
595AC
  8
0
 62
7
 10
60.506954004979633
 20
25.470035931693609
 70
0
  0
VERTEX
  5
595AD
  8
0
 62
7
 10
60.549673188996742
 20
25.470035931693609
 70
0
  0
SEQEND
  5
595AE
  8
0
  0
POLYLINE
  5
4A5D9
  8
0
 62
7
 66
1
 70
0
 10
0
 20
0
 30
0
  0
VERTEX
  5
595AF
  8
0
 62
7
 10
24.695875454904641
 20
42.655550250313922
 70
0
  0
VERTEX
  5
595B0
  8
0
 62
7
 10
24.695875454904641
 20
42.655550250313922
 70
0
  0
SEQEND
  5
595B1
  8
0
  0
POLYLINE
  5
4A5DD
  8
0
 62
7
 66
1
 70
0
 10
0
 20
0
 30
0
  0
VERTEX
  5
595B2
  8
0
 62
7
 10
60.888670584745313
 20
24.58137355127343
 70
0
  0
VERTEX
  5
595B3
  8
0
 62
7
 10
60.888670584745313
 20
24.58137355127343
 70
0
  0
SEQEND
  5
595B4
  8
0
  0
POLYLINE
  5
4A5E1
  8
0
 62
7
 66
1
 70
0
 10
0
 20
0
 30
0
  0
VERTEX
  5
595B5
  8
0
 62
7
 10
61.0567912444255
 20
24.49559067369071
 70
0
  0
VERTEX
  5
595B6
  8
0
 62
7
 10
61.0567912444255
 20
24.49559067369071
 70
0
  0
SEQEND
  5
595B7
  8
0
  0
POLYLINE
  5
4A5E5
  8
0
 62
7
 66
1
 70
0
 10
0
 20
0
 30
0
  0
VERTEX
  5
595B8
  8
0
 62
7
 10
61.0567912444255
 20
24.49559067369071
 70
0
  0
VERTEX
  5
595B9
  8
0
 62
7
 10
61.0567912444255
 20
24.49559067369071
 70
0
  0
SEQEND
  5
595BA
  8
0
  0
POLYLINE
  5
4A5E9
  8
0
 62
7
 66
1
 70
0
 10
0
 20
0
 30
0
  0
VERTEX
  5
595BB
  8
0
 62
7
 10
61.09951042844262
 20
24.49559067369071
 70
0
  0
VERTEX
  5
595BC
  8
0
 62
7
 10
61.09951042844262
 20
24.49559067369071
 70
0
  0
SEQEND
  5
595BD
  8
0
  0
POLYLINE
  5
4A5ED
  8
0
 62
7
 66
1
 70
0
 10
0
 20
0
 30
0
  0
VERTEX
  5
595BE
  8
0
 62
7
 10
24.315536913333059
 20
43.37488618763409
 70
0
  0
VERTEX
  5
595BF
  8
0
 62
7
 10
24.315536913333059
 20
43.37488618763409
 70
0
  0
SEQEND
  5
595C0
  8
0
  0
POLYLINE
  5
4A5F1
  8
0
 62
7
 66
1
 70
0
 10
0
 20
0
 30
0
  0
VERTEX
  5
595C1
  8
0
 62
7
 10
24.39959724317314
 20
43.587276324299737
 70
0
  0
VERTEX
  5
595C2
  8
0
 62
7
 10
24.39959724317314
 20
43.587276324299737
 70
0
  0
SEQEND
  5
595C3
  8
0
  0
POLYLINE
  5
4A5F5
  8
0
 62
7
 66
1
 70
0
 10
0
 20
0
 30
0
  0
VERTEX
  5
595C4
  8
0
 62
7
 10
22.579208788767119
 20
42.994547646062472
 70
0
  0
VERTEX
  5
595C5
  8
0
 62
7
 10
22.579208788767119
 20
42.994547646062472
 70
0
  0
SEQEND
  5
595C6
  8
0
  0
POLYLINE
  5
4A5F9
  8
0
 62
7
 66
1
 70
0
 10
0
 20
0
 30
0
  0
VERTEX
  5
595C7
  8
0
 62
7
 10
22.579208788767119
 20
42.994547646062472
 70
0
  0
VERTEX
  5
595C8
  8
0
 62
7
 10
22.579208788767119
 20
42.994547646062472
 70
0
  0
SEQEND
  5
595C9
  8
0
  0
POLYLINE
  5
4A5FD
  8
0
 62
7
 66
1
 70
0
 10
0
 20
0
 30
0
  0
VERTEX
  5
595CA
  8
0
 62
7
 10
22.579208788767119
 20
42.994547646062472
 70
0
  0
VERTEX
  5
595CB
  8
0
 62
7
 10
22.579208788767119
 20
42.994547646062472
 70
0
  0
SEQEND
  5
595CC
  8
0
  0
POLYLINE
  5
4A601
  8
0
 62
7
 66
1
 70
0
 10
0
 20
0
 30
0
  0
VERTEX
  5
595CD
  8
0
 62
7
 10
22.579208788767119
 20
42.994547646062472
 70
0
  0
VERTEX
  5
595CE
  8
0
 62
7
 10
22.579208788767119
 20
42.994547646062472
 70
0
  0
SEQEND
  5
595CF
  8
0
  0
POLYLINE
  5
4A605
  8
0
 62
7
 66
1
 70
0
 10
0
 20
0
 30
0
  0
VERTEX
  5
595D0
  8
0
 62
7
 10
22.579208788767119
 20
42.994547646062472
 70
0
  0
VERTEX
  5
595D1
  8
0
 62
7
 10
22.579208788767119
 20
42.994547646062472
 70
0
  0
SEQEND
  5
595D2
  8
0
  0
POLYLINE
  5
4A609
  8
0
 62
7
 66
1
 70
0
 10
0
 20
0
 30
0
  0
VERTEX
  5
595D3
  8
0
 62
7
 10
22.579208788767119
 20
42.994547646062472
 70
0
  0
VERTEX
  5
595D4
  8
0
 62
7
 10
22.579208788767119
 20
42.994547646062472
 70
0
  0
SEQEND
  5
595D5
  8
0
  0
POLYLINE
  5
4A60D
  8
0
 62
7
 66
1
 70
0
 10
0
 20
0
 30
0
  0
VERTEX
  5
595D6
  8
0
 62
7
 10
25.118933180493311
 20
43.0372668300796
 70
0
  0
VERTEX
  5
595D7
  8
0
 62
7
 10
25.118933180493311
 20
43.0372668300796
 70
0
  0
SEQEND
  5
595D8
  8
0
  0
POLYLINE
  5
4A611
  8
0
 62
7
 66
1
 70
0
 10
0
 20
0
 30
0
  0
VERTEX
  5
595D9
  8
0
 62
7
 10
25.118933180493311
 20
43.0372668300796
 70
0
  0
VERTEX
  5
595DA
  8
0
 62
7
 10
25.118933180493311
 20
43.0372668300796
 70
0
  0
SEQEND
  5
595DB
  8
0
  0
POLYLINE
  5
4A615
  8
0
 62
7
 66
1
 70
0
 10
0
 20
0
 30
0
  0
VERTEX
  5
595DC
  8
0
 62
7
 10
25.118933180493311
 20
43.0372668300796
 70
0
  0
VERTEX
  5
595DD
  8
0
 62
7
 10
25.118933180493311
 20
43.0372668300796
 70
0
  0
SEQEND
  5
595DE
  8
0
  0
POLYLINE
  5
4A619
  8
0
 62
7
 66
1
 70
0
 10
0
 20
0
 30
0
  0
VERTEX
  5
595DF
  8
0
 62
7
 10
25.118933180493311
 20
43.0372668300796
 70
0
  0
VERTEX
  5
595E0
  8
0
 62
7
 10
25.118933180493311
 20
43.0372668300796
 70
0
  0
SEQEND
  5
595E1
  8
0
  0
POLYLINE
  5
4A61D
  8
0
 62
7
 66
1
 70
0
 10
0
 20
0
 30
0
  0
VERTEX
  5
595E2
  8
0
 62
7
 10
25.118933180493311
 20
43.0372668300796
 70
0
  0
VERTEX
  5
595E3
  8
0
 62
7
 10
25.118933180493311
 20
43.0372668300796
 70
0
  0
SEQEND
  5
595E4
  8
0
  0
POLYLINE
  5
4A621
  8
0
 62
7
 66
1
 70
0
 10
0
 20
0
 30
0
  0
VERTEX
  5
595E5
  8
0
 62
7
 10
25.118933180493311
 20
43.0372668300796
 70
0
  0
VERTEX
  5
595E6
  8
0
 62
7
 10
25.118933180493311
 20
43.0372668300796
 70
0
  0
SEQEND
  5
595E7
  8
0
  0
POLYLINE
  5
4A625
  8
0
 62
7
 66
1
 70
0
 10
0
 20
0
 30
0
  0
VERTEX
  5
595E8
  8
0
 62
7
 10
22.156151063178442
 20
41.59721691724512
 70
0
  0
VERTEX
  5
595E9
  8
0
 62
7
 10
22.156151063178442
 20
41.59721691724512
 70
0
  0
SEQEND
  5
595EA
  8
0
  0
POLYLINE
  5
4A629
  8
0
 62
7
 66
1
 70
0
 10
0
 20
0
 30
0
  0
VERTEX
  5
595EB
  8
0
 62
7
 10
24.908093336796021
 20
42.571662175248093
 70
0
  0
VERTEX
  5
595EC
  8
0
 62
7
 10
25.077592034670321
 20
42.528942991230963
 70
0
  0
SEQEND
  5
595ED
  8
0
  0
POLYLINE
  5
4A62D
  8
0
 62
7
 66
1
 70
0
 10
0
 20
0
 30
0
  0
VERTEX
  5
595EE
  8
0
 62
7
 10
64.0622925457575
 20
22.845045426707511
 70
0
  0
VERTEX
  5
595EF
  8
0
 62
7
 10
64.189072059614659
 20
22.760640587318878
 70
0
  0
SEQEND
  5
595F0
  8
0
  0
POLYLINE
  5
4A631
  8
0
 62
7
 66
1
 70
0
 10
0
 20
0
 30
0
  0
VERTEX
  5
595F1
  8
0
 62
7
 10
61.818846365762781
 20
21.40637355206718
 70
0
  0
VERTEX
  5
595F2
  8
0
 62
7
 10
61.818846365762781
 20
21.40637355206718
 70
0
  0
SEQEND
  5
595F3
  8
0
  0
POLYLINE
  5
4A635
  8
0
 62
7
 66
1
 70
0
 10
0
 20
0
 30
0
  0
VERTEX
  5
595F4
  8
0
 62
7
 10
61.818846365762781
 20
21.40637355206718
 70
0
  0
VERTEX
  5
595F5
  8
0
 62
7
 10
61.777505219939783
 20
21.40637355206718
 70
0
  0
SEQEND
  5
595F6
  8
0
  0
POLYLINE
  5
4A639
  8
0
 62
7
 66
1
 70
0
 10
0
 20
0
 30
0
  0
VERTEX
  5
595F7
  8
0
 62
7
 10
61.777505219939783
 20
21.40637355206718
 70
0
  0
VERTEX
  5
595F8
  8
0
 62
7
 10
61.734786035922681
 20
21.449092736084278
 70
0
  0
SEQEND
  5
595F9
  8
0
  0
POLYLINE
  5
4A63D
  8
0
 62
7
 66
1
 70
0
 10
0
 20
0
 30
0
  0
VERTEX
  5
595FA
  8
0
 62
7
 10
61.734786035922681
 20
21.449092736084278
 70
0
  0
VERTEX
  5
595FB
  8
0
 62
7
 10
61.692066851905587
 20
21.449092736084278
 70
0
  0
SEQEND
  5
595FC
  8
0
  0
POLYLINE
  5
4A641
  8
0
 62
7
 66
1
 70
0
 10
0
 20
0
 30
0
  0
VERTEX
  5
595FD
  8
0
 62
7
 10
61.692066851905587
 20
21.449092736084278
 70
0
  0
VERTEX
  5
595FE
  8
0
 62
7
 10
61.692066851905587
 20
21.449092736084278
 70
0
  0
SEQEND
  5
595FF
  8
0
  0
POLYLINE
  5
4A645
  8
0
 62
7
 66
1
 70
0
 10
0
 20
0
 30
0
  0
VERTEX
  5
59600
  8
0
 62
7
 10
20.67476000452103
 20
40.242605372444928
 70
0
  0
VERTEX
  5
59601
  8
0
 62
7
 10
20.67476000452103
 20
40.2012642266219
 70
0
  0
SEQEND
  5
59602
  8
0
  0
POLYLINE
  5
4A649
  8
0
 62
7
 66
1
 70
0
 10
0
 20
0
 30
0
  0
VERTEX
  5
59603
  8
0
 62
7
 10
22.156151063178442
 20
41.427545964596618
 70
0
  0
VERTEX
  5
59604
  8
0
 62
7
 10
22.156151063178442
 20
41.386204818773592
 70
0
  0
SEQEND
  5
59605
  8
0
  0
POLYLINE
  5
4A64D
  8
0
 62
7
 66
1
 70
0
 10
0
 20
0
 30
0
  0
VERTEX
  5
59606
  8
0
 62
7
 10
23.722980489870078
 20
42.824876693413941
 70
0
  0
VERTEX
  5
59607
  8
0
 62
7
 10
23.722980489870078
 20
42.824876693413941
 70
0
  0
SEQEND
  5
59608
  8
0
  0
POLYLINE
  5
4A651
  8
0
 62
7
 66
1
 70
0
 10
0
 20
0
 30
0
  0
VERTEX
  5
59609
  8
0
 62
7
 10
23.764321635693079
 20
42.867940386979569
 70
0
  0
VERTEX
  5
5960A
  8
0
 62
7
 10
23.764321635693079
 20
42.867940386979569
 70
0
  0
SEQEND
  5
5960B
  8
0
  0
POLYLINE
  5
4A655
  8
0
 62
7
 66
1
 70
0
 10
0
 20
0
 30
0
  0
VERTEX
  5
5960C
  8
0
 62
7
 10
21.98665236530417
 20
41.639936101262251
 70
0
  0
VERTEX
  5
5960D
  8
0
 62
7
 10
20.632040820503931
 20
40.115998113361947
 70
0
  0
SEQEND
  5
5960E
  8
0
  0
POLYLINE
  5
4A659
  8
0
 62
7
 66
1
 70
0
 10
0
 20
0
 30
0
  0
VERTEX
  5
5960F
  8
0
 62
7
 10
22.19887024719554
 20
43.0372668300796
 70
0
  0
VERTEX
  5
59610
  8
0
 62
7
 10
22.19887024719554
 20
41.936214312993741
 70
0
  0
SEQEND
  5
59611
  8
0
  0
POLYLINE
  5
4A65D
  8
0
 62
7
 66
1
 70
0
 10
0
 20
0
 30
0
  0
VERTEX
  5
59612
  8
0
 62
7
 10
22.19887024719554
 20
41.766543360345153
 70
0
  0
VERTEX
  5
59613
  8
0
 62
7
 10
22.19887024719554
 20
41.766543360345153
 70
0
  0
SEQEND
  5
59614
  8
0
  0
POLYLINE
  5
4A661
  8
0
 62
7
 66
1
 70
0
 10
0
 20
0
 30
0
  0
VERTEX
  5
59615
  8
0
 62
7
 10
22.282930577035639
 20
41.639936101262251
 70
0
  0
VERTEX
  5
59616
  8
0
 62
7
 10
22.282930577035639
 20
41.682655285279338
 70
0
  0
SEQEND
  5
59617
  8
0
  0
POLYLINE
  5
4A665
  8
0
 62
7
 66
1
 70
0
 10
0
 20
0
 30
0
  0
VERTEX
  5
59618
  8
0
 62
7
 10
24.695875454904641
 20
42.655550250313922
 70
0
  0
VERTEX
  5
59619
  8
0
 62
7
 10
24.695875454904641
 20
42.655550250313922
 70
0
  0
SEQEND
  5
5961A
  8
0
  0
POLYLINE
  5
4A669
  8
0
 62
7
 66
1
 70
0
 10
0
 20
0
 30
0
  0
VERTEX
  5
5961B
  8
0
 62
7
 10
24.695875454904641
 20
43.926273720048293
 70
0
  0
VERTEX
  5
5961C
  8
0
 62
7
 10
24.695875454904641
 20
43.926273720048293
 70
0
  0
SEQEND
  5
5961D
  8
0
  0
POLYLINE
  5
4A66D
  8
0
 62
7
 66
1
 70
0
 10
0
 20
0
 30
0
  0
VERTEX
  5
5961E
  8
0
 62
7
 10
24.695875454904641
 20
42.910659570996643
 70
0
  0
VERTEX
  5
5961F
  8
0
 62
7
 10
24.695875454904641
 20
42.824876693413941
 70
0
  0
SEQEND
  5
59620
  8
0
  0
POLYLINE
  5
4A671
  8
0
 62
7
 66
1
 70
0
 10
0
 20
0
 30
0
  0
VERTEX
  5
59621
  8
0
 62
7
 10
24.738594638921739
 20
42.655550250313922
 70
0
  0
VERTEX
  5
59622
  8
0
 62
7
 10
24.738594638921739
 20
42.655550250313922
 70
0
  0
SEQEND
  5
59623
  8
0
  0
POLYLINE
  5
4A675
  8
0
 62
7
 66
1
 70
0
 10
0
 20
0
 30
0
  0
VERTEX
  5
59624
  8
0
 62
7
 10
24.738594638921739
 20
42.824876693413941
 70
0
  0
VERTEX
  5
59625
  8
0
 62
7
 10
24.738594638921739
 20
43.926273720048293
 70
0
  0
SEQEND
  5
59626
  8
0
  0
POLYLINE
  5
4A679
  8
0
 62
7
 66
1
 70
0
 10
0
 20
0
 30
0
  0
VERTEX
  5
59627
  8
0
 62
7
 10
25.077592034670321
 20
42.910659570996643
 70
0
  0
VERTEX
  5
59628
  8
0
 62
7
 10
25.077592034670321
 20
43.121327159919687
 70
0
  0
SEQEND
  5
59629
  8
0
  0
POLYLINE
  5
4A67D
  8
0
 62
7
 66
1
 70
0
 10
0
 20
0
 30
0
  0
VERTEX
  5
5962A
  8
0
 62
7
 10
25.245712694350519
 20
43.0372668300796
 70
0
  0
VERTEX
  5
5962B
  8
0
 62
7
 10
25.245712694350519
 20
42.824876693413941
 70
0
  0
SEQEND
  5
5962C
  8
0
  0
POLYLINE
  5
4A681
  8
0
 62
7
 66
1
 70
0
 10
0
 20
0
 30
0
  0
VERTEX
  5
5962D
  8
0
 62
7
 10
26.219985697579151
 20
42.1899455954824
 70
0
  0
VERTEX
  5
5962E
  8
0
 62
7
 10
26.219985697579151
 20
42.148259940110847
 70
0
  0
SEQEND
  5
5962F
  8
0
  0
POLYLINE
  5
4A685
  8
0
 62
7
 66
1
 70
0
 10
0
 20
0
 30
0
  0
VERTEX
  5
59630
  8
0
 62
7
 10
28.293933179699572
 20
41.893495128976653
 70
0
  0
VERTEX
  5
59631
  8
0
 62
7
 10
28.379371547733768
 20
41.978933497010857
 70
0
  0
SEQEND
  5
59632
  8
0
  0
POLYLINE
  5
4A689
  8
0
 62
7
 66
1
 70
0
 10
0
 20
0
 30
0
  0
VERTEX
  5
59633
  8
0
 62
7
 10
28.463431877573871
 20
41.766543360345153
 70
0
  0
VERTEX
  5
59634
  8
0
 62
7
 10
28.379371547733768
 20
41.639936101262251
 70
0
  0
SEQEND
  5
59635
  8
0
  0
POLYLINE
  5
4A68D
  8
0
 62
7
 66
1
 70
0
 10
0
 20
0
 30
0
  0
VERTEX
  5
59636
  8
0
 62
7
 10
28.463431877573871
 20
41.766543360345153
 70
0
  0
VERTEX
  5
59637
  8
0
 62
7
 10
28.379371547733768
 20
41.639936101262251
 70
0
  0
SEQEND
  5
59638
  8
0
  0
POLYLINE
  5
4A691
  8
0
 62
7
 66
1
 70
0
 10
0
 20
0
 30
0
  0
VERTEX
  5
59639
  8
0
 62
7
 10
22.19887024719554
 20
43.078607975902557
 70
0
  0
VERTEX
  5
5963A
  8
0
 62
7
 10
22.19887024719554
 20
43.0372668300796
 70
0
  0
SEQEND
  5
5963B
  8
0
  0
POLYLINE
  5
4A695
  8
0
 62
7
 66
1
 70
0
 10
0
 20
0
 30
0
  0
VERTEX
  5
5963C
  8
0
 62
7
 10
20.590699674680941
 20
40.158545042604828
 70
0
  0
VERTEX
  5
5963D
  8
0
 62
7
 10
20.67476000452103
 20
40.2012642266219
 70
0
  0
SEQEND
  5
5963E
  8
0
  0
POLYLINE
  5
4A699
  8
0
 62
7
 66
1
 70
0
 10
0
 20
0
 30
0
  0
VERTEX
  5
5963F
  8
0
 62
7
 10
22.156151063178442
 20
41.639936101262251
 70
0
  0
VERTEX
  5
59640
  8
0
 62
7
 10
22.156151063178442
 20
41.59721691724512
 70
0
  0
SEQEND
  5
59641
  8
0
  0
POLYLINE
  5
4A69D
  8
0
 62
7
 66
1
 70
0
 10
0
 20
0
 30
0
  0
VERTEX
  5
59642
  8
0
 62
7
 10
22.282930577035639
 20
41.682655285279338
 70
0
  0
VERTEX
  5
59643
  8
0
 62
7
 10
22.282930577035639
 20
41.682655285279338
 70
0
  0
SEQEND
  5
59644
  8
0
  0
POLYLINE
  5
4A6A1
  8
0
 62
7
 66
1
 70
0
 10
0
 20
0
 30
0
  0
VERTEX
  5
59645
  8
0
 62
7
 10
25.245712694350519
 20
43.0372668300796
 70
0
  0
VERTEX
  5
59646
  8
0
 62
7
 10
25.245712694350519
 20
43.0372668300796
 70
0
  0
SEQEND
  5
59647
  8
0
  0
POLYLINE
  5
4A6A5
  8
0
 62
7
 66
1
 70
0
 10
0
 20
0
 30
0
  0
VERTEX
  5
59648
  8
0
 62
7
 10
24.738594638921739
 20
42.655550250313922
 70
0
  0
VERTEX
  5
59649
  8
0
 62
7
 10
24.695875454904641
 20
42.655550250313922
 70
0
  0
SEQEND
  5
5964A
  8
0
  0
POLYLINE
  5
4A6A9
  8
0
 62
7
 66
1
 70
0
 10
0
 20
0
 30
0
  0
VERTEX
  5
5964B
  8
0
 62
7
 10
22.19887024719554
 20
41.766543360345153
 70
0
  0
VERTEX
  5
5964C
  8
0
 62
7
 10
22.19887024719554
 20
41.766543360345153
 70
0
  0
SEQEND
  5
5964D
  8
0
  0
POLYLINE
  5
4A6AD
  8
0
 62
7
 66
1
 70
0
 10
0
 20
0
 30
0
  0
VERTEX
  5
5964E
  8
0
 62
7
 10
24.738594638921739
 20
42.655550250313922
 70
0
  0
VERTEX
  5
5964F
  8
0
 62
7
 10
24.738594638921739
 20
42.655550250313922
 70
0
  0
SEQEND
  5
59650
  8
0
  0
POLYLINE
  5
4A6B1
  8
0
 62
7
 66
1
 70
0
 10
0
 20
0
 30
0
  0
VERTEX
  5
59651
  8
0
 62
7
 10
22.156151063178442
 20
41.766543360345153
 70
0
  0
VERTEX
  5
59652
  8
0
 62
7
 10
22.156151063178442
 20
41.766543360345153
 70
0
  0
SEQEND
  5
59653
  8
0
  0
POLYLINE
  5
4A6B5
  8
0
 62
7
 66
1
 70
0
 10
0
 20
0
 30
0
  0
VERTEX
  5
59654
  8
0
 62
7
 10
24.908093336796021
 20
42.698269434330967
 70
0
  0
VERTEX
  5
59655
  8
0
 62
7
 10
24.738594638921739
 20
42.655550250313922
 70
0
  0
SEQEND
  5
59656
  8
0
  0
POLYLINE
  5
4A6B9
  8
0
 62
7
 66
1
 70
0
 10
0
 20
0
 30
0
  0
VERTEX
  5
59657
  8
0
 62
7
 10
22.156151063178442
 20
41.723824176328087
 70
0
  0
VERTEX
  5
59658
  8
0
 62
7
 10
22.029371549321269
 20
41.682655285279338
 70
0
  0
SEQEND
  5
59659
  8
0
  0
POLYLINE
  5
4A6BD
  8
0
 62
7
 66
1
 70
0
 10
0
 20
0
 30
0
  0
VERTEX
  5
5965A
  8
0
 62
7
 10
24.738594638921739
 20
42.571662175248093
 70
0
  0
VERTEX
  5
5965B
  8
0
 62
7
 10
22.282930577035639
 20
41.682655285279338
 70
0
  0
SEQEND
  5
5965C
  8
0
  0
POLYLINE
  5
4A6C1
  8
0
 62
7
 66
1
 70
0
 10
0
 20
0
 30
0
  0
VERTEX
  5
5965D
  8
0
 62
7
 10
24.865374152778909
 20
42.571662175248093
 70
0
  0
VERTEX
  5
5965E
  8
0
 62
7
 10
24.781313822938841
 20
42.571662175248093
 70
0
  0
SEQEND
  5
5965F
  8
0
  0
POLYLINE
  5
4A6C5
  8
0
 62
7
 66
1
 70
0
 10
0
 20
0
 30
0
  0
VERTEX
  5
59660
  8
0
 62
7
 10
22.282930577035639
 20
41.682655285279338
 70
0
  0
VERTEX
  5
59661
  8
0
 62
7
 10
22.156151063178442
 20
41.639936101262251
 70
0
  0
SEQEND
  5
59662
  8
0
  0
POLYLINE
  5
4A6C9
  8
0
 62
7
 66
1
 70
0
 10
0
 20
0
 30
0
  0
VERTEX
  5
59663
  8
0
 62
7
 10
28.379371547733768
 20
41.639936101262251
 70
0
  0
VERTEX
  5
59664
  8
0
 62
7
 10
28.293933179699572
 20
41.8523262379279
 70
0
  0
SEQEND
  5
59665
  8
0
  0
POLYLINE
  5
4A6CD
  8
0
 62
7
 66
1
 70
0
 10
0
 20
0
 30
0
  0
VERTEX
  5
59666
  8
0
 62
7
 10
28.379371547733768
 20
41.936214312993741
 70
0
  0
VERTEX
  5
59667
  8
0
 62
7
 10
28.463431877573871
 20
41.766543360345153
 70
0
  0
SEQEND
  5
59668
  8
0
  0
POLYLINE
  5
4A6D1
  8
0
 62
7
 66
1
 70
0
 10
0
 20
0
 30
0
  0
VERTEX
  5
59669
  8
0
 62
7
 10
28.379371547733768
 20
41.978933497010857
 70
0
  0
VERTEX
  5
5966A
  8
0
 62
7
 10
28.463431877573871
 20
41.766543360345153
 70
0
  0
SEQEND
  5
5966B
  8
0
  0
POLYLINE
  5
4A6D5
  8
0
 62
7
 66
1
 70
0
 10
0
 20
0
 30
0
  0
VERTEX
  5
5966C
  8
0
 62
7
 10
24.695875454904641
 20
43.926273720048293
 70
0
  0
VERTEX
  5
5966D
  8
0
 62
7
 10
24.695875454904641
 20
43.926273720048293
 70
0
  0
SEQEND
  5
5966E
  8
0
  0
POLYLINE
  5
4A6D9
  8
0
 62
7
 66
1
 70
0
 10
0
 20
0
 30
0
  0
VERTEX
  5
5966F
  8
0
 62
7
 10
61.522568154031283
 20
21.49163966532711
 70
0
  0
VERTEX
  5
59670
  8
0
 62
7
 10
61.692066851905587
 20
21.449092736084278
 70
0
  0
SEQEND
  5
59671
  8
0
  0
POLYLINE
  5
4A6DD
  8
0
 62
7
 66
1
 70
0
 10
0
 20
0
 30
0
  0
VERTEX
  5
59672
  8
0
 62
7
 10
20.67476000452103
 20
40.2012642266219
 70
0
  0
VERTEX
  5
59673
  8
0
 62
7
 10
20.67476000452103
 20
40.2012642266219
 70
0
  0
SEQEND
  5
59674
  8
0
  0
POLYLINE
  5
4A6E1
  8
0
 62
7
 66
1
 70
0
 10
0
 20
0
 30
0
  0
VERTEX
  5
59675
  8
0
 62
7
 10
22.40971009089284
 20
41.216878375673559
 70
0
  0
VERTEX
  5
59676
  8
0
 62
7
 10
22.282930577035639
 20
41.300938705513651
 70
0
  0
SEQEND
  5
59677
  8
0
  0
POLYLINE
  5
4A6E5
  8
0
 62
7
 66
1
 70
0
 10
0
 20
0
 30
0
  0
VERTEX
  5
59678
  8
0
 62
7
 10
22.452429274909949
 20
41.174331446430742
 70
0
  0
VERTEX
  5
59679
  8
0
 62
7
 10
61.481227008208279
 20
21.532980811150111
 70
0
  0
SEQEND
  5
5967A
  8
0
  0
POLYLINE
  5
4A6E9
  8
0
 62
7
 66
1
 70
0
 10
0
 20
0
 30
0
  0
VERTEX
  5
5967B
  8
0
 62
7
 10
22.156151063178442
 20
41.766543360345153
 70
0
  0
VERTEX
  5
5967C
  8
0
 62
7
 10
22.19887024719554
 20
41.766543360345153
 70
0
  0
SEQEND
  5
5967D
  8
0
  0
POLYLINE
  5
4A6ED
  8
0
 62
7
 66
1
 70
0
 10
0
 20
0
 30
0
  0
VERTEX
  5
5967E
  8
0
 62
7
 10
22.156151063178442
 20
41.766543360345153
 70
0
  0
VERTEX
  5
5967F
  8
0
 62
7
 10
22.19887024719554
 20
41.766543360345153
 70
0
  0
SEQEND
  5
59680
  8
0
  0
POLYLINE
  5
4A6F1
  8
0
 62
7
 66
1
 70
0
 10
0
 20
0
 30
0
  0
VERTEX
  5
59681
  8
0
 62
7
 10
22.19887024719554
 20
43.078607975902557
 70
0
  0
VERTEX
  5
59682
  8
0
 62
7
 10
22.19887024719554
 20
43.078607975902557
 70
0
  0
SEQEND
  5
59683
  8
0
  0
POLYLINE
  5
4A6F5
  8
0
 62
7
 66
1
 70
0
 10
0
 20
0
 30
0
  0
VERTEX
  5
59684
  8
0
 62
7
 10
23.722980489870078
 20
42.824876693413941
 70
0
  0
VERTEX
  5
59685
  8
0
 62
7
 10
23.722980489870078
 20
42.824876693413941
 70
0
  0
SEQEND
  5
59686
  8
0
  0
POLYLINE
  5
4A6F9
  8
0
 62
7
 66
1
 70
0
 10
0
 20
0
 30
0
  0
VERTEX
  5
59687
  8
0
 62
7
 10
23.722980489870078
 20
42.867940386979569
 70
0
  0
VERTEX
  5
59688
  8
0
 62
7
 10
23.764321635693079
 20
42.867940386979569
 70
0
  0
SEQEND
  5
59689
  8
0
  0
POLYLINE
  5
4A6FD
  8
0
 62
7
 66
1
 70
0
 10
0
 20
0
 30
0
  0
VERTEX
  5
5968A
  8
0
 62
7
 10
23.764321635693079
 20
43.0372668300796
 70
0
  0
VERTEX
  5
5968B
  8
0
 62
7
 10
23.807040819710181
 20
43.0372668300796
 70
0
  0
SEQEND
  5
5968C
  8
0
  0
POLYLINE
  5
4A701
  8
0
 62
7
 66
1
 70
0
 10
0
 20
0
 30
0
  0
VERTEX
  5
5968D
  8
0
 62
7
 10
23.764321635693079
 20
43.078607975902557
 70
0
  0
VERTEX
  5
5968E
  8
0
 62
7
 10
23.807040819710181
 20
43.078607975902557
 70
0
  0
SEQEND
  5
5968F
  8
0
  0
POLYLINE
  5
4A705
  8
0
 62
7
 66
1
 70
0
 10
0
 20
0
 30
0
  0
VERTEX
  5
59690
  8
0
 62
7
 10
24.695875454904641
 20
42.655550250313922
 70
0
  0
VERTEX
  5
59691
  8
0
 62
7
 10
24.695875454904641
 20
42.655550250313922
 70
0
  0
SEQEND
  5
59692
  8
0
  0
POLYLINE
  5
4A709
  8
0
 62
7
 66
1
 70
0
 10
0
 20
0
 30
0
  0
VERTEX
  5
59693
  8
0
 62
7
 10
24.695875454904641
 20
42.655550250313922
 70
0
  0
VERTEX
  5
59694
  8
0
 62
7
 10
24.695875454904641
 20
42.655550250313922
 70
0
  0
SEQEND
  5
59695
  8
0
  0
POLYLINE
  5
4A70D
  8
0
 62
7
 66
1
 70
0
 10
0
 20
0
 30
0
  0
VERTEX
  5
59696
  8
0
 62
7
 10
24.738594638921739
 20
42.655550250313922
 70
0
  0
VERTEX
  5
59697
  8
0
 62
7
 10
24.738594638921739
 20
42.655550250313922
 70
0
  0
SEQEND
  5
59698
  8
0
  0
POLYLINE
  5
4A711
  8
0
 62
7
 66
1
 70
0
 10
0
 20
0
 30
0
  0
VERTEX
  5
59699
  8
0
 62
7
 10
24.695875454904641
 20
42.655550250313922
 70
0
  0
VERTEX
  5
5969A
  8
0
 62
7
 10
24.738594638921739
 20
42.655550250313922
 70
0
  0
SEQEND
  5
5969B
  8
0
  0
POLYLINE
  5
4A715
  8
0
 62
7
 66
1
 70
0
 10
0
 20
0
 30
0
  0
VERTEX
  5
5969C
  8
0
 62
7
 10
64.0622925457575
 20
22.88759235595035
 70
0
  0
VERTEX
  5
5969D
  8
0
 62
7
 10
25.077592034670321
 20
42.528942991230963
 70
0
  0
SEQEND
  5
5969E
  8
0
  0
POLYLINE
  5
4A719
  8
0
 62
7
 66
1
 70
0
 10
0
 20
0
 30
0
  0
VERTEX
  5
5969F
  8
0
 62
7
 10
24.695875454904641
 20
42.910659570996643
 70
0
  0
VERTEX
  5
596A0
  8
0
 62
7
 10
24.695875454904641
 20
42.910659570996643
 70
0
  0
SEQEND
  5
596A1
  8
0
  0
POLYLINE
  5
4A71D
  8
0
 62
7
 66
1
 70
0
 10
0
 20
0
 30
0
  0
VERTEX
  5
596A2
  8
0
 62
7
 10
26.219985697579151
 20
42.148259940110847
 70
0
  0
VERTEX
  5
596A3
  8
0
 62
7
 10
26.30404602741925
 20
42.105540756093767
 70
0
  0
SEQEND
  5
596A4
  8
0
  0
POLYLINE
  5
4A721
  8
0
 62
7
 66
1
 70
0
 10
0
 20
0
 30
0
  0
VERTEX
  5
596A5
  8
0
 62
7
 10
24.695875454904641
 20
42.910659570996643
 70
0
  0
VERTEX
  5
596A6
  8
0
 62
7
 10
24.695875454904641
 20
42.910659570996643
 70
0
  0
SEQEND
  5
596A7
  8
0
  0
POLYLINE
  5
4A725
  8
0
 62
7
 66
1
 70
0
 10
0
 20
0
 30
0
  0
VERTEX
  5
596A8
  8
0
 62
7
 10
63.80873351804307
 20
23.396088449573231
 70
0
  0
VERTEX
  5
596A9
  8
0
 62
7
 10
63.639234820168781
 20
23.47997652463906
 70
0
  0
SEQEND
  5
596AA
  8
0
  0
POLYLINE
  5
4A729
  8
0
 62
7
 66
1
 70
0
 10
0
 20
0
 30
0
  0
VERTEX
  5
596AB
  8
0
 62
7
 10
25.245712694350519
 20
42.824876693413941
 70
0
  0
VERTEX
  5
596AC
  8
0
 62
7
 10
25.077592034670321
 20
42.910659570996643
 70
0
  0
SEQEND
  5
596AD
  8
0
  0
POLYLINE
  5
4A72D
  8
0
 62
7
 66
1
 70
0
 10
0
 20
0
 30
0
  0
VERTEX
  5
596AE
  8
0
 62
7
 10
25.077592034670321
 20
43.121327159919687
 70
0
  0
VERTEX
  5
596AF
  8
0
 62
7
 10
25.245712694350519
 20
43.0372668300796
 70
0
  0
SEQEND
  5
596B0
  8
0
  0
POLYLINE
  5
4A731
  8
0
 62
7
 66
1
 70
0
 10
0
 20
0
 30
0
  0
VERTEX
  5
596B1
  8
0
 62
7
 10
63.639234820168781
 20
23.735085845321809
 70
0
  0
VERTEX
  5
596B2
  8
0
 62
7
 10
63.80873351804307
 20
23.6496474772876
 70
0
  0
SEQEND
  5
596B3
  8
0
  0
POLYLINE
  5
4A735
  8
0
 62
7
 66
1
 70
0
 10
0
 20
0
 30
0
  0
VERTEX
  5
596B4
  8
0
 62
7
 10
24.738594638921739
 20
42.571662175248093
 70
0
  0
VERTEX
  5
596B5
  8
0
 62
7
 10
24.738594638921739
 20
42.571662175248093
 70
0
  0
SEQEND
  5
596B6
  8
0
  0
POLYLINE
  5
4A739
  8
0
 62
7
 66
1
 70
0
 10
0
 20
0
 30
0
  0
VERTEX
  5
596B7
  8
0
 62
7
 10
25.077592034670321
 20
42.528942991230963
 70
0
  0
VERTEX
  5
596B8
  8
0
 62
7
 10
24.99215366663611
 20
42.571662175248093
 70
0
  0
VERTEX
  5
596B9
  8
0
 62
7
 10
24.908093336796021
 20
42.571662175248093
 70
0
  0
SEQEND
  5
596BA
  8
0
  0
POLYLINE
  5
4A73E
  8
0
 62
7
 66
1
 70
0
 10
0
 20
0
 30
0
  0
VERTEX
  5
596BB
  8
0
 62
7
 10
24.738594638921739
 20
42.571662175248093
 70
0
  0
VERTEX
  5
596BC
  8
0
 62
7
 10
24.822654968761839
 20
42.571662175248093
 70
0
  0
SEQEND
  5
596BD
  8
0
  0
POLYLINE
  5
4A742
  8
0
 62
7
 66
1
 70
0
 10
0
 20
0
 30
0
  0
VERTEX
  5
596BE
  8
0
 62
7
 10
26.26270488159625
 20
42.105540756093767
 70
0
  0
VERTEX
  5
596BF
  8
0
 62
7
 10
24.908093336796021
 20
42.698269434330967
 70
0
  0
SEQEND
  5
596C0
  8
0
  0
POLYLINE
  5
4A746
  8
0
 62
7
 66
1
 70
0
 10
0
 20
0
 30
0
  0
VERTEX
  5
596C1
  8
0
 62
7
 10
24.653156270887539
 20
43.926273720048293
 70
0
  0
VERTEX
  5
596C2
  8
0
 62
7
 10
24.695875454904641
 20
43.926273720048293
 70
0
  0
SEQEND
  5
596C3
  8
0
  0
POLYLINE
  5
4A74A
  8
0
 62
7
 66
1
 70
0
 10
0
 20
0
 30
0
  0
VERTEX
  5
596C4
  8
0
 62
7
 10
24.738594638921739
 20
43.926273720048293
 70
0
  0
VERTEX
  5
596C5
  8
0
 62
7
 10
64.147730913791662
 20
24.072705202876289
 70
0
  0
SEQEND
  5
596C6
  8
0
  0
POLYLINE
  5
4A74E
  8
0
 62
7
 66
1
 70
0
 10
0
 20
0
 30
0
  0
VERTEX
  5
596C7
  8
0
 62
7
 10
64.189072059614659
 20
22.803704280884521
 70
0
  0
VERTEX
  5
596C8
  8
0
 62
7
 10
64.147730913791662
 20
22.845045426707511
 70
0
  0
VERTEX
  5
596C9
  8
0
 62
7
 10
64.10501172977456
 20
22.845045426707511
 70
0
  0
VERTEX
  5
596CA
  8
0
 62
7
 10
64.0622925457575
 20
22.88759235595035
 70
0
  0
SEQEND
  5
596CB
  8
0
  0
POLYLINE
  5
4A754
  8
0
 62
7
 66
1
 70
0
 10
0
 20
0
 30
0
  0
VERTEX
  5
596CC
  8
0
 62
7
 10
23.764321635693079
 20
42.782157509396811
 70
0
  0
VERTEX
  5
596CD
  8
0
 62
7
 10
23.722980489870078
 20
42.824876693413941
 70
0
  0
SEQEND
  5
596CE
  8
0
  0
POLYLINE
  5
4A758
  8
0
 62
7
 66
1
 70
0
 10
0
 20
0
 30
0
  0
VERTEX
  5
596CF
  8
0
 62
7
 10
23.807040819710181
 20
42.824876693413941
 70
0
  0
VERTEX
  5
596D0
  8
0
 62
7
 10
23.764321635693079
 20
42.867940386979569
 70
0
  0
SEQEND
  5
596D1
  8
0
  0
POLYLINE
  5
4A75C
  8
0
 62
7
 66
1
 70
0
 10
0
 20
0
 30
0
  0
VERTEX
  5
596D2
  8
0
 62
7
 10
24.908093336796021
 20
42.571662175248093
 70
0
  0
VERTEX
  5
596D3
  8
0
 62
7
 10
24.865374152778909
 20
42.571662175248093
 70
0
  0
SEQEND
  5
596D4
  8
0
  0
POLYLINE
  5
4A760
  8
0
 62
7
 66
1
 70
0
 10
0
 20
0
 30
0
  0
VERTEX
  5
596D5
  8
0
 62
7
 10
63.80873351804307
 20
23.606928293270489
 70
0
  0
VERTEX
  5
596D6
  8
0
 62
7
 10
63.80873351804307
 20
23.6496474772876
 70
0
  0
SEQEND
  5
596D7
  8
0
  0
POLYLINE
  5
4A764
  8
0
 62
7
 66
1
 70
0
 10
0
 20
0
 30
0
  0
VERTEX
  5
596D8
  8
0
 62
7
 10
26.30404602741925
 20
42.1899455954824
 70
0
  0
VERTEX
  5
596D9
  8
0
 62
7
 10
26.219985697579151
 20
42.148259940110847
 70
0
  0
SEQEND
  5
596DA
  8
0
  0
POLYLINE
  5
4A768
  8
0
 62
7
 66
1
 70
0
 10
0
 20
0
 30
0
  0
VERTEX
  5
596DB
  8
0
 62
7
 10
60.506954004979633
 20
25.470035931693609
 70
0
  0
VERTEX
  5
596DC
  8
0
 62
7
 10
60.422893675139527
 20
25.639706884342189
 70
0
  0
SEQEND
  5
596DD
  8
0
  0
POLYLINE
  5
4A76C
  8
0
 62
7
 66
1
 70
0
 10
0
 20
0
 30
0
  0
VERTEX
  5
596DE
  8
0
 62
7
 10
60.506954004979633
 20
25.76631414342512
 70
0
  0
VERTEX
  5
596DF
  8
0
 62
7
 10
60.59239237301383
 20
25.596643190776561
 70
0
  0
SEQEND
  5
596E0
  8
0
  0
POLYLINE
  5
4A770
  8
0
 62
7
 66
1
 70
0
 10
0
 20
0
 30
0
  0
VERTEX
  5
596E1
  8
0
 62
7
 10
60.549673188996742
 20
25.76631414342512
 70
0
  0
VERTEX
  5
596E2
  8
0
 62
7
 10
60.59239237301383
 20
25.596643190776561
 70
0
  0
SEQEND
  5
596E3
  8
0
  0
POLYLINE
  5
4A774
  8
0
 62
7
 66
1
 70
0
 10
0
 20
0
 30
0
  0
VERTEX
  5
596E4
  8
0
 62
7
 10
60.506954004979633
 20
25.80903332744219
 70
0
  0
VERTEX
  5
596E5
  8
0
 62
7
 10
60.422893675139527
 20
25.682426068359259
 70
0
  0
SEQEND
  5
596E6
  8
0
  0
POLYLINE
  5
4A778
  8
0
 62
7
 66
1
 70
0
 10
0
 20
0
 30
0
  0
VERTEX
  5
596E7
  8
0
 62
7
 10
60.59239237301383
 20
25.553924006759448
 70
0
  0
VERTEX
  5
596E8
  8
0
 62
7
 10
60.506954004979633
 20
25.470035931693609
 70
0
  0
SEQEND
  5
596E9
  8
0
  0
POLYLINE
  5
4A77C
  8
0
 62
7
 66
1
 70
0
 10
0
 20
0
 30
0
  0
VERTEX
  5
596EA
  8
0
 62
7
 10
60.59239237301383
 20
25.553924006759448
 70
0
  0
VERTEX
  5
596EB
  8
0
 62
7
 10
60.549673188996742
 20
25.470035931693609
 70
0
  0
SEQEND
  5
596EC
  8
0
  0
POLYLINE
  5
4A780
  8
0
 62
7
 66
1
 70
0
 10
0
 20
0
 30
0
  0
VERTEX
  5
596ED
  8
0
 62
7
 10
63.639234820168781
 20
23.47997652463906
 70
0
  0
VERTEX
  5
596EE
  8
0
 62
7
 10
63.639234820168781
 20
23.735085845321809
 70
0
  0
SEQEND
  5
596EF
  8
0
  0
POLYLINE
  5
4A784
  8
0
 62
7
 66
1
 70
0
 10
0
 20
0
 30
0
  0
VERTEX
  5
596F0
  8
0
 62
7
 10
63.80873351804307
 20
23.6496474772876
 70
0
  0
VERTEX
  5
596F1
  8
0
 62
7
 10
63.80873351804307
 20
23.606928293270489
 70
0
  0
SEQEND
  5
596F2
  8
0
  0
POLYLINE
  5
4A788
  8
0
 62
7
 66
1
 70
0
 10
0
 20
0
 30
0
  0
VERTEX
  5
596F3
  8
0
 62
7
 10
63.80873351804307
 20
23.47997652463906
 70
0
  0
VERTEX
  5
596F4
  8
0
 62
7
 10
63.80873351804307
 20
23.396088449573231
 70
0
  0
SEQEND
  5
596F5
  8
0
  0
POLYLINE
  5
4A78C
  8
0
 62
7
 66
1
 70
0
 10
0
 20
0
 30
0
  0
VERTEX
  5
596F6
  8
0
 62
7
 10
64.189072059614659
 20
23.14132363843899
 70
0
  0
VERTEX
  5
596F7
  8
0
 62
7
 10
64.189072059614659
 20
24.031364057053281
 70
0
  0
SEQEND
  5
596F8
  8
0
  0
POLYLINE
  5
4A790
  8
0
 62
7
 66
1
 70
0
 10
0
 20
0
 30
0
  0
VERTEX
  5
596F9
  8
0
 62
7
 10
64.189072059614659
 20
22.760640587318878
 70
0
  0
VERTEX
  5
596FA
  8
0
 62
7
 10
64.189072059614659
 20
22.803704280884521
 70
0
  0
SEQEND
  5
596FB
  8
0
  0
POLYLINE
  5
4A794
  8
0
 62
7
 66
1
 70
0
 10
0
 20
0
 30
0
  0
VERTEX
  5
596FC
  8
0
 62
7
 10
64.189072059614659
 20
22.507426069153009
 70
0
  0
VERTEX
  5
596FD
  8
0
 62
7
 10
64.189072059614659
 20
22.59131414421887
 70
0
  0
SEQEND
  5
596FE
  8
0
  0
POLYLINE
  5
4A798
  8
0
 62
7
 66
1
 70
0
 10
0
 20
0
 30
0
  0
VERTEX
  5
596FF
  8
0
 62
7
 10
24.949434482619012
 20
42.1899455954824
 70
0
  0
VERTEX
  5
59700
  8
0
 62
7
 10
25.034872850653219
 20
42.27521170874234
 70
0
  0
SEQEND
  5
59701
  8
0
  0
POLYLINE
  5
4A79C
  8
0
 62
7
 66
1
 70
0
 10
0
 20
0
 30
0
  0
VERTEX
  5
59702
  8
0
 62
7
 10
22.156151063178442
 20
41.386204818773592
 70
0
  0
VERTEX
  5
59703
  8
0
 62
7
 10
22.19887024719554
 20
41.343657889530782
 70
0
  0
SEQEND
  5
59704
  8
0
  0
POLYLINE
  5
4A7A0
  8
0
 62
7
 66
1
 70
0
 10
0
 20
0
 30
0
  0
VERTEX
  5
59705
  8
0
 62
7
 10
22.19887024719554
 20
41.343657889530782
 70
0
  0
VERTEX
  5
59706
  8
0
 62
7
 10
22.19887024719554
 20
41.343657889530782
 70
0
  0
SEQEND
  5
59707
  8
0
  0
POLYLINE
  5
4A7A4
  8
0
 62
7
 66
1
 70
0
 10
0
 20
0
 30
0
  0
VERTEX
  5
59708
  8
0
 62
7
 10
22.19887024719554
 20
41.343657889530782
 70
0
  0
VERTEX
  5
59709
  8
0
 62
7
 10
22.241589431212649
 20
41.300938705513651
 70
0
  0
SEQEND
  5
5970A
  8
0
  0
POLYLINE
  5
4A7A8
  8
0
 62
7
 66
1
 70
0
 10
0
 20
0
 30
0
  0
VERTEX
  5
5970B
  8
0
 62
7
 10
22.241589431212649
 20
41.300938705513651
 70
0
  0
VERTEX
  5
5970C
  8
0
 62
7
 10
22.241589431212649
 20
41.300938705513651
 70
0
  0
SEQEND
  5
5970D
  8
0
  0
POLYLINE
  5
4A7AC
  8
0
 62
7
 66
1
 70
0
 10
0
 20
0
 30
0
  0
VERTEX
  5
5970E
  8
0
 62
7
 10
22.241589431212649
 20
41.300938705513651
 70
0
  0
VERTEX
  5
5970F
  8
0
 62
7
 10
22.282930577035639
 20
41.300938705513651
 70
0
  0
SEQEND
  5
59710
  8
0
  0
POLYLINE
  5
4A7B0
  8
0
 62
7
 66
1
 70
0
 10
0
 20
0
 30
0
  0
VERTEX
  5
59711
  8
0
 62
7
 10
22.282930577035639
 20
41.300938705513651
 70
0
  0
VERTEX
  5
59712
  8
0
 62
7
 10
22.282930577035639
 20
41.300938705513651
 70
0
  0
SEQEND
  5
59713
  8
0
  0
POLYLINE
  5
4A7B4
  8
0
 62
7
 66
1
 70
0
 10
0
 20
0
 30
0
  0
VERTEX
  5
59714
  8
0
 62
7
 10
22.40971009089284
 20
41.216878375673559
 70
0
  0
VERTEX
  5
59715
  8
0
 62
7
 10
22.40971009089284
 20
41.216878375673559
 70
0
  0
SEQEND
  5
59716
  8
0
  0
POLYLINE
  5
4A7B8
  8
0
 62
7
 66
1
 70
0
 10
0
 20
0
 30
0
  0
VERTEX
  5
59717
  8
0
 62
7
 10
22.40971009089284
 20
41.216878375673559
 70
0
  0
VERTEX
  5
59718
  8
0
 62
7
 10
22.40971009089284
 20
41.216878375673559
 70
0
  0
SEQEND
  5
59719
  8
0
  0
POLYLINE
  5
4A7BC
  8
0
 62
7
 66
1
 70
0
 10
0
 20
0
 30
0
  0
VERTEX
  5
5971A
  8
0
 62
7
 10
22.40971009089284
 20
41.216878375673559
 70
0
  0
VERTEX
  5
5971B
  8
0
 62
7
 10
22.452429274909949
 20
41.174331446430742
 70
0
  0
SEQEND
  5
5971C
  8
0
  0
POLYLINE
  5
4A7C0
  8
0
 62
7
 66
1
 70
0
 10
0
 20
0
 30
0
  0
VERTEX
  5
5971D
  8
0
 62
7
 10
22.452429274909949
 20
41.174331446430742
 70
0
  0
VERTEX
  5
5971E
  8
0
 62
7
 10
22.40971009089284
 20
41.216878375673559
 70
0
  0
SEQEND
  5
5971F
  8
0
  0
POLYLINE
  5
4A7C4
  8
0
 62
7
 66
1
 70
0
 10
0
 20
0
 30
0
  0
VERTEX
  5
59720
  8
0
 62
7
 10
22.452429274909949
 20
41.174331446430742
 70
0
  0
VERTEX
  5
59721
  8
0
 62
7
 10
22.495148458927041
 20
41.174331446430742
 70
0
  0
SEQEND
  5
59722
  8
0
  0
POLYLINE
  5
4A7C8
  8
0
 62
7
 66
1
 70
0
 10
0
 20
0
 30
0
  0
VERTEX
  5
59723
  8
0
 62
7
 10
25.034872850653219
 20
42.27521170874234
 70
0
  0
VERTEX
  5
59724
  8
0
 62
7
 10
25.034872850653219
 20
42.27521170874234
 70
0
  0
SEQEND
  5
59725
  8
0
  0
POLYLINE
  5
4A7CC
  8
0
 62
7
 66
1
 70
0
 10
0
 20
0
 30
0
  0
VERTEX
  5
59726
  8
0
 62
7
 10
25.034872850653219
 20
42.316552854565323
 70
0
  0
VERTEX
  5
59727
  8
0
 62
7
 10
25.034872850653219
 20
42.316552854565323
 70
0
  0
SEQEND
  5
59728
  8
0
  0
POLYLINE
  5
4A7D0
  8
0
 62
7
 66
1
 70
0
 10
0
 20
0
 30
0
  0
VERTEX
  5
59729
  8
0
 62
7
 10
25.077592034670321
 20
43.0372668300796
 70
0
  0
VERTEX
  5
5972A
  8
0
 62
7
 10
25.077592034670321
 20
43.0372668300796
 70
0
  0
SEQEND
  5
5972B
  8
0
  0
POLYLINE
  5
4A7D4
  8
0
 62
7
 66
1
 70
0
 10
0
 20
0
 30
0
  0
VERTEX
  5
5972C
  8
0
 62
7
 10
25.077592034670321
 20
42.528942991230963
 70
0
  0
VERTEX
  5
5972D
  8
0
 62
7
 10
25.077592034670321
 20
42.528942991230963
 70
0
  0
SEQEND
  5
5972E
  8
0
  0
POLYLINE
  5
4A7D8
  8
0
 62
7
 66
1
 70
0
 10
0
 20
0
 30
0
  0
VERTEX
  5
5972F
  8
0
 62
7
 10
25.077592034670321
 20
42.528942991230963
 70
0
  0
VERTEX
  5
59730
  8
0
 62
7
 10
25.077592034670321
 20
42.528942991230963
 70
0
  0
SEQEND
  5
59731
  8
0
  0
POLYLINE
  5
4A7DC
  8
0
 62
7
 66
1
 70
0
 10
0
 20
0
 30
0
  0
VERTEX
  5
59732
  8
0
 62
7
 10
25.077592034670321
 20
42.528942991230963
 70
0
  0
VERTEX
  5
59733
  8
0
 62
7
 10
25.077592034670321
 20
42.528942991230963
 70
0
  0
SEQEND
  5
59734
  8
0
  0
POLYLINE
  5
4A7E0
  8
0
 62
7
 66
1
 70
0
 10
0
 20
0
 30
0
  0
VERTEX
  5
59735
  8
0
 62
7
 10
25.077592034670321
 20
42.528942991230963
 70
0
  0
VERTEX
  5
59736
  8
0
 62
7
 10
25.077592034670321
 20
42.528942991230963
 70
0
  0
SEQEND
  5
59737
  8
0
  0
POLYLINE
  5
4A7E4
  8
0
 62
7
 66
1
 70
0
 10
0
 20
0
 30
0
  0
VERTEX
  5
59738
  8
0
 62
7
 10
25.077592034670321
 20
42.528942991230963
 70
0
  0
VERTEX
  5
59739
  8
0
 62
7
 10
25.077592034670321
 20
42.528942991230963
 70
0
  0
SEQEND
  5
5973A
  8
0
  0
POLYLINE
  5
4A7E8
  8
0
 62
7
 66
1
 70
0
 10
0
 20
0
 30
0
  0
VERTEX
  5
5973B
  8
0
 62
7
 10
25.077592034670321
 20
42.528942991230963
 70
0
  0
VERTEX
  5
5973C
  8
0
 62
7
 10
25.077592034670321
 20
42.528942991230963
 70
0
  0
SEQEND
  5
5973D
  8
0
  0
POLYLINE
  5
4A7EC
  8
0
 62
7
 66
1
 70
0
 10
0
 20
0
 30
0
  0
VERTEX
  5
5973E
  8
0
 62
7
 10
25.077592034670321
 20
42.528942991230963
 70
0
  0
VERTEX
  5
5973F
  8
0
 62
7
 10
25.077592034670321
 20
42.528942991230963
 70
0
  0
SEQEND
  5
59740
  8
0
  0
POLYLINE
  5
4A7F0
  8
0
 62
7
 66
1
 70
0
 10
0
 20
0
 30
0
  0
VERTEX
  5
59741
  8
0
 62
7
 10
25.077592034670321
 20
42.528942991230963
 70
0
  0
VERTEX
  5
59742
  8
0
 62
7
 10
25.077592034670321
 20
42.528942991230963
 70
0
  0
SEQEND
  5
59743
  8
0
  0
POLYLINE
  5
4A7F4
  8
0
 62
7
 66
1
 70
0
 10
0
 20
0
 30
0
  0
VERTEX
  5
59744
  8
0
 62
7
 10
25.077592034670321
 20
42.528942991230963
 70
0
  0
VERTEX
  5
59745
  8
0
 62
7
 10
25.077592034670321
 20
42.528942991230963
 70
0
  0
SEQEND
  5
59746
  8
0
  0
POLYLINE
  5
4A7F8
  8
0
 62
7
 66
1
 70
0
 10
0
 20
0
 30
0
  0
VERTEX
  5
59747
  8
0
 62
7
 10
25.077592034670321
 20
42.528942991230963
 70
0
  0
VERTEX
  5
59748
  8
0
 62
7
 10
25.077592034670321
 20
42.528942991230963
 70
0
  0
SEQEND
  5
59749
  8
0
  0
POLYLINE
  5
4A7FC
  8
0
 62
7
 66
1
 70
0
 10
0
 20
0
 30
0
  0
VERTEX
  5
5974A
  8
0
 62
7
 10
25.077592034670321
 20
42.528942991230963
 70
0
  0
VERTEX
  5
5974B
  8
0
 62
7
 10
25.077592034670321
 20
42.528942991230963
 70
0
  0
SEQEND
  5
5974C
  8
0
  0
POLYLINE
  5
4A800
  8
0
 62
7
 66
1
 70
0
 10
0
 20
0
 30
0
  0
VERTEX
  5
5974D
  8
0
 62
7
 10
25.077592034670321
 20
42.528942991230963
 70
0
  0
VERTEX
  5
5974E
  8
0
 62
7
 10
25.077592034670321
 20
42.528942991230963
 70
0
  0
SEQEND
  5
5974F
  8
0
  0
POLYLINE
  5
4A804
  8
0
 62
7
 66
1
 70
0
 10
0
 20
0
 30
0
  0
VERTEX
  5
59750
  8
0
 62
7
 10
25.077592034670321
 20
42.528942991230963
 70
0
  0
VERTEX
  5
59751
  8
0
 62
7
 10
25.077592034670321
 20
42.528942991230963
 70
0
  0
SEQEND
  5
59752
  8
0
  0
POLYLINE
  5
4A808
  8
0
 62
7
 66
1
 70
0
 10
0
 20
0
 30
0
  0
VERTEX
  5
59753
  8
0
 62
7
 10
25.077592034670321
 20
42.528942991230963
 70
0
  0
VERTEX
  5
59754
  8
0
 62
7
 10
25.077592034670321
 20
42.528942991230963
 70
0
  0
SEQEND
  5
59755
  8
0
  0
POLYLINE
  5
4A80C
  8
0
 62
7
 66
1
 70
0
 10
0
 20
0
 30
0
  0
VERTEX
  5
59756
  8
0
 62
7
 10
25.077592034670321
 20
42.528942991230963
 70
0
  0
VERTEX
  5
59757
  8
0
 62
7
 10
25.077592034670321
 20
42.528942991230963
 70
0
  0
SEQEND
  5
59758
  8
0
  0
POLYLINE
  5
4A810
  8
0
 62
7
 66
1
 70
0
 10
0
 20
0
 30
0
  0
VERTEX
  5
59759
  8
0
 62
7
 10
25.077592034670321
 20
42.528942991230963
 70
0
  0
VERTEX
  5
5975A
  8
0
 62
7
 10
25.077592034670321
 20
42.528942991230963
 70
0
  0
SEQEND
  5
5975B
  8
0
  0
POLYLINE
  5
4A814
  8
0
 62
7
 66
1
 70
0
 10
0
 20
0
 30
0
  0
VERTEX
  5
5975C
  8
0
 62
7
 10
25.077592034670321
 20
42.528942991230963
 70
0
  0
VERTEX
  5
5975D
  8
0
 62
7
 10
25.077592034670321
 20
42.528942991230963
 70
0
  0
SEQEND
  5
5975E
  8
0
  0
POLYLINE
  5
4A818
  8
0
 62
7
 66
1
 70
0
 10
0
 20
0
 30
0
  0
VERTEX
  5
5975F
  8
0
 62
7
 10
25.077592034670321
 20
42.528942991230963
 70
0
  0
VERTEX
  5
59760
  8
0
 62
7
 10
25.077592034670321
 20
42.528942991230963
 70
0
  0
SEQEND
  5
59761
  8
0
  0
POLYLINE
  5
4A81C
  8
0
 62
7
 66
1
 70
0
 10
0
 20
0
 30
0
  0
VERTEX
  5
59762
  8
0
 62
7
 10
25.077592034670321
 20
42.528942991230963
 70
0
  0
VERTEX
  5
59763
  8
0
 62
7
 10
25.077592034670321
 20
42.528942991230963
 70
0
  0
SEQEND
  5
59764
  8
0
  0
POLYLINE
  5
4A820
  8
0
 62
7
 66
1
 70
0
 10
0
 20
0
 30
0
  0
VERTEX
  5
59765
  8
0
 62
7
 10
25.077592034670321
 20
42.528942991230963
 70
0
  0
VERTEX
  5
59766
  8
0
 62
7
 10
25.077592034670321
 20
42.528942991230963
 70
0
  0
SEQEND
  5
59767
  8
0
  0
POLYLINE
  5
4A824
  8
0
 62
7
 66
1
 70
0
 10
0
 20
0
 30
0
  0
VERTEX
  5
59768
  8
0
 62
7
 10
63.978232215917387
 20
22.507426069153009
 70
0
  0
VERTEX
  5
59769
  8
0
 62
7
 10
64.0622925457575
 20
22.59131414421887
 70
0
  0
SEQEND
  5
5976A
  8
0
  0
POLYLINE
  5
4A828
  8
0
 62
7
 66
1
 70
0
 10
0
 20
0
 30
0
  0
VERTEX
  5
5976B
  8
0
 62
7
 10
61.565287338048392
 20
21.49163966532711
 70
0
  0
VERTEX
  5
5976C
  8
0
 62
7
 10
61.522568154031283
 20
21.49163966532711
 70
0
  0
SEQEND
  5
5976D
  8
0
  0
POLYLINE
  5
4A82C
  8
0
 62
7
 66
1
 70
0
 10
0
 20
0
 30
0
  0
VERTEX
  5
5976E
  8
0
 62
7
 10
61.522568154031283
 20
21.49163966532711
 70
0
  0
VERTEX
  5
5976F
  8
0
 62
7
 10
61.522568154031283
 20
21.49163966532711
 70
0
  0
SEQEND
  5
59770
  8
0
  0
POLYLINE
  5
4A830
  8
0
 62
7
 66
1
 70
0
 10
0
 20
0
 30
0
  0
VERTEX
  5
59771
  8
0
 62
7
 10
61.522568154031283
 20
21.49163966532711
 70
0
  0
VERTEX
  5
59772
  8
0
 62
7
 10
61.522568154031283
 20
21.49163966532711
 70
0
  0
SEQEND
  5
59773
  8
0
  0
POLYLINE
  5
4A834
  8
0
 62
7
 66
1
 70
0
 10
0
 20
0
 30
0
  0
VERTEX
  5
59774
  8
0
 62
7
 10
61.522568154031283
 20
21.49163966532711
 70
0
  0
VERTEX
  5
59775
  8
0
 62
7
 10
61.522568154031283
 20
21.532980811150111
 70
0
  0
SEQEND
  5
59776
  8
0
  0
POLYLINE
  5
4A838
  8
0
 62
7
 66
1
 70
0
 10
0
 20
0
 30
0
  0
VERTEX
  5
59777
  8
0
 62
7
 10
61.522568154031283
 20
21.532980811150111
 70
0
  0
VERTEX
  5
59778
  8
0
 62
7
 10
61.522568154031283
 20
21.49163966532711
 70
0
  0
SEQEND
  5
59779
  8
0
  0
POLYLINE
  5
4A83C
  8
0
 62
7
 66
1
 70
0
 10
0
 20
0
 30
0
  0
VERTEX
  5
5977A
  8
0
 62
7
 10
61.522568154031283
 20
21.532980811150111
 70
0
  0
VERTEX
  5
5977B
  8
0
 62
7
 10
61.522568154031283
 20
21.532980811150111
 70
0
  0
SEQEND
  5
5977C
  8
0
  0
POLYLINE
  5
4A840
  8
0
 62
7
 66
1
 70
0
 10
0
 20
0
 30
0
  0
VERTEX
  5
5977D
  8
0
 62
7
 10
61.522568154031283
 20
21.532980811150111
 70
0
  0
VERTEX
  5
5977E
  8
0
 62
7
 10
61.481227008208279
 20
21.532980811150111
 70
0
  0
SEQEND
  5
5977F
  8
0
  0
POLYLINE
  5
4A844
  8
0
 62
7
 66
1
 70
0
 10
0
 20
0
 30
0
  0
VERTEX
  5
59780
  8
0
 62
7
 10
61.481227008208279
 20
21.532980811150111
 70
0
  0
VERTEX
  5
59781
  8
0
 62
7
 10
61.522568154031283
 20
21.532980811150111
 70
0
  0
SEQEND
  5
59782
  8
0
  0
POLYLINE
  5
4A848
  8
0
 62
7
 66
1
 70
0
 10
0
 20
0
 30
0
  0
VERTEX
  5
59783
  8
0
 62
7
 10
61.522568154031283
 20
21.532980811150111
 70
0
  0
VERTEX
  5
59784
  8
0
 62
7
 10
61.522568154031283
 20
21.532980811150111
 70
0
  0
SEQEND
  5
59785
  8
0
  0
POLYLINE
  5
4A84C
  8
0
 62
7
 66
1
 70
0
 10
0
 20
0
 30
0
  0
VERTEX
  5
59786
  8
0
 62
7
 10
64.0622925457575
 20
22.88759235595035
 70
0
  0
VERTEX
  5
59787
  8
0
 62
7
 10
64.0622925457575
 20
22.88759235595035
 70
0
  0
SEQEND
  5
59788
  8
0
  0
POLYLINE
  5
4A850
  8
0
 62
7
 66
1
 70
0
 10
0
 20
0
 30
0
  0
VERTEX
  5
59789
  8
0
 62
7
 10
64.0622925457575
 20
22.88759235595035
 70
0
  0
VERTEX
  5
5978A
  8
0
 62
7
 10
64.0622925457575
 20
22.88759235595035
 70
0
  0
SEQEND
  5
5978B
  8
0
  0
POLYLINE
  5
4A854
  8
0
 62
7
 66
1
 70
0
 10
0
 20
0
 30
0
  0
VERTEX
  5
5978C
  8
0
 62
7
 10
64.0622925457575
 20
22.88759235595035
 70
0
  0
VERTEX
  5
5978D
  8
0
 62
7
 10
64.0622925457575
 20
22.88759235595035
 70
0
  0
SEQEND
  5
5978E
  8
0
  0
POLYLINE
  5
4A858
  8
0
 62
7
 66
1
 70
0
 10
0
 20
0
 30
0
  0
VERTEX
  5
5978F
  8
0
 62
7
 10
64.0622925457575
 20
22.88759235595035
 70
0
  0
VERTEX
  5
59790
  8
0
 62
7
 10
64.0622925457575
 20
22.88759235595035
 70
0
  0
SEQEND
  5
59791
  8
0
  0
POLYLINE
  5
4A85C
  8
0
 62
7
 66
1
 70
0
 10
0
 20
0
 30
0
  0
VERTEX
  5
59792
  8
0
 62
7
 10
64.0622925457575
 20
22.88759235595035
 70
0
  0
VERTEX
  5
59793
  8
0
 62
7
 10
64.0622925457575
 20
22.88759235595035
 70
0
  0
SEQEND
  5
59794
  8
0
  0
POLYLINE
  5
4A860
  8
0
 62
7
 66
1
 70
0
 10
0
 20
0
 30
0
  0
VERTEX
  5
59795
  8
0
 62
7
 10
64.0622925457575
 20
22.88759235595035
 70
0
  0
VERTEX
  5
59796
  8
0
 62
7
 10
64.0622925457575
 20
22.88759235595035
 70
0
  0
SEQEND
  5
59797
  8
0
  0
POLYLINE
  5
4A864
  8
0
 62
7
 66
1
 70
0
 10
0
 20
0
 30
0
  0
VERTEX
  5
59798
  8
0
 62
7
 10
64.0622925457575
 20
22.88759235595035
 70
0
  0
VERTEX
  5
59799
  8
0
 62
7
 10
64.0622925457575
 20
22.88759235595035
 70
0
  0
SEQEND
  5
5979A
  8
0
  0
POLYLINE
  5
4A868
  8
0
 62
7
 66
1
 70
0
 10
0
 20
0
 30
0
  0
VERTEX
  5
5979B
  8
0
 62
7
 10
64.0622925457575
 20
22.88759235595035
 70
0
  0
VERTEX
  5
5979C
  8
0
 62
7
 10
64.0622925457575
 20
22.88759235595035
 70
0
  0
SEQEND
  5
5979D
  8
0
  0
POLYLINE
  5
4A86C
  8
0
 62
7
 66
1
 70
0
 10
0
 20
0
 30
0
  0
VERTEX
  5
5979E
  8
0
 62
7
 10
64.0622925457575
 20
22.88759235595035
 70
0
  0
VERTEX
  5
5979F
  8
0
 62
7
 10
64.0622925457575
 20
22.88759235595035
 70
0
  0
SEQEND
  5
597A0
  8
0
  0
POLYLINE
  5
4A870
  8
0
 62
7
 66
1
 70
0
 10
0
 20
0
 30
0
  0
VERTEX
  5
597A1
  8
0
 62
7
 10
64.0622925457575
 20
22.88759235595035
 70
0
  0
VERTEX
  5
597A2
  8
0
 62
7
 10
64.0622925457575
 20
22.88759235595035
 70
0
  0
SEQEND
  5
597A3
  8
0
  0
POLYLINE
  5
4A874
  8
0
 62
7
 66
1
 70
0
 10
0
 20
0
 30
0
  0
VERTEX
  5
597A4
  8
0
 62
7
 10
64.0622925457575
 20
22.88759235595035
 70
0
  0
VERTEX
  5
597A5
  8
0
 62
7
 10
64.0622925457575
 20
22.88759235595035
 70
0
  0
SEQEND
  5
597A6
  8
0
  0
POLYLINE
  5
4A878
  8
0
 62
7
 66
1
 70
0
 10
0
 20
0
 30
0
  0
VERTEX
  5
597A7
  8
0
 62
7
 10
64.0622925457575
 20
22.88759235595035
 70
0
  0
VERTEX
  5
597A8
  8
0
 62
7
 10
64.0622925457575
 20
22.88759235595035
 70
0
  0
SEQEND
  5
597A9
  8
0
  0
POLYLINE
  5
4A87C
  8
0
 62
7
 66
1
 70
0
 10
0
 20
0
 30
0
  0
VERTEX
  5
597AA
  8
0
 62
7
 10
23.722980489870078
 20
42.867940386979569
 70
0
  0
VERTEX
  5
597AB
  8
0
 62
7
 10
23.722980489870078
 20
42.867940386979569
 70
0
  0
SEQEND
  5
597AC
  8
0
  0
POLYLINE
  5
4A880
  8
0
 62
7
 66
1
 70
0
 10
0
 20
0
 30
0
  0
VERTEX
  5
597AD
  8
0
 62
7
 10
23.722980489870078
 20
42.824876693413941
 70
0
  0
VERTEX
  5
597AE
  8
0
 62
7
 10
23.722980489870078
 20
42.824876693413941
 70
0
  0
SEQEND
  5
597AF
  8
0
  0
POLYLINE
  5
4A884
  8
0
 62
7
 66
1
 70
0
 10
0
 20
0
 30
0
  0
VERTEX
  5
597B0
  8
0
 62
7
 10
22.029371549321269
 20
41.639936101262251
 70
0
  0
VERTEX
  5
597B1
  8
0
 62
7
 10
20.632040820503931
 20
40.073278929344887
 70
0
  0
SEQEND
  5
597B2
  8
0
  0
POLYLINE
  5
4A888
  8
0
 62
7
 66
1
 70
0
 10
0
 20
0
 30
0
  0
VERTEX
  5
597B3
  8
0
 62
7
 10
22.156151063178442
 20
41.936214312993741
 70
0
  0
VERTEX
  5
597B4
  8
0
 62
7
 10
22.156151063178442
 20
41.766543360345153
 70
0
  0
SEQEND
  5
597B5
  8
0
  0
POLYLINE
  5
4A88C
  8
0
 62
7
 66
1
 70
0
 10
0
 20
0
 30
0
  0
VERTEX
  5
597B6
  8
0
 62
7
 10
22.19887024719554
 20
42.062993826850906
 70
0
  0
VERTEX
  5
597B7
  8
0
 62
7
 10
22.19887024719554
 20
41.936214312993741
 70
0
  0
SEQEND
  5
597B8
  8
0
  0
POLYLINE
  5
4A890
  8
0
 62
7
 66
1
 70
0
 10
0
 20
0
 30
0
  0
VERTEX
  5
597B9
  8
0
 62
7
 10
22.19887024719554
 20
43.0372668300796
 70
0
  0
VERTEX
  5
597BA
  8
0
 62
7
 10
22.19887024719554
 20
42.062993826850906
 70
0
  0
SEQEND
  5
597BB
  8
0
  0
POLYLINE
  5
4A894
  8
0
 62
7
 66
1
 70
0
 10
0
 20
0
 30
0
  0
VERTEX
  5
597BC
  8
0
 62
7
 10
22.19887024719554
 20
41.766543360345153
 70
0
  0
VERTEX
  5
597BD
  8
0
 62
7
 10
22.19887024719554
 20
41.766543360345153
 70
0
  0
SEQEND
  5
597BE
  8
0
  0
POLYLINE
  5
4A898
  8
0
 62
7
 66
1
 70
0
 10
0
 20
0
 30
0
  0
VERTEX
  5
597BF
  8
0
 62
7
 10
22.19887024719554
 20
42.062993826850906
 70
0
  0
VERTEX
  5
597C0
  8
0
 62
7
 10
22.19887024719554
 20
43.0372668300796
 70
0
  0
SEQEND
  5
597C1
  8
0
  0
POLYLINE
  5
4A89C
  8
0
 62
7
 66
1
 70
0
 10
0
 20
0
 30
0
  0
VERTEX
  5
597C2
  8
0
 62
7
 10
22.19887024719554
 20
43.0372668300796
 70
0
  0
VERTEX
  5
597C3
  8
0
 62
7
 10
22.19887024719554
 20
43.078607975902557
 70
0
  0
SEQEND
  5
597C4
  8
0
  0
POLYLINE
  5
4A8A0
  8
0
 62
7
 66
1
 70
0
 10
0
 20
0
 30
0
  0
VERTEX
  5
597C5
  8
0
 62
7
 10
23.764321635693079
 20
43.078607975902557
 70
0
  0
VERTEX
  5
597C6
  8
0
 62
7
 10
23.764321635693079
 20
43.078607975902557
 70
0
  0
SEQEND
  5
597C7
  8
0
  0
POLYLINE
  5
4A8A4
  8
0
 62
7
 66
1
 70
0
 10
0
 20
0
 30
0
  0
VERTEX
  5
597C8
  8
0
 62
7
 10
23.764321635693079
 20
43.0372668300796
 70
0
  0
VERTEX
  5
597C9
  8
0
 62
7
 10
23.764321635693079
 20
43.0372668300796
 70
0
  0
SEQEND
  5
597CA
  8
0
  0
POLYLINE
  5
4A8A8
  8
0
 62
7
 66
1
 70
0
 10
0
 20
0
 30
0
  0
VERTEX
  5
597CB
  8
0
 62
7
 10
25.245712694350519
 20
39.353942992024713
 70
0
  0
VERTEX
  5
597CC
  8
0
 62
7
 10
25.288431878367621
 20
39.523269435124739
 70
0
  0
SEQEND
  5
597CD
  8
0
  0
POLYLINE
  5
4A8AC
  8
0
 62
7
 66
1
 70
0
 10
0
 20
0
 30
0
  0
VERTEX
  5
597CE
  8
0
 62
7
 10
25.500649760258991
 20
39.60870780315895
 70
0
  0
VERTEX
  5
597CF
  8
0
 62
7
 10
25.4579305762419
 20
39.480550251107672
 70
0
  0
SEQEND
  5
597D0
  8
0
  0
POLYLINE
  5
4A8B0
  8
0
 62
7
 66
1
 70
0
 10
0
 20
0
 30
0
  0
VERTEX
  5
597D1
  8
0
 62
7
 10
25.500649760258991
 20
39.60870780315895
 70
0
  0
VERTEX
  5
597D2
  8
0
 62
7
 10
25.4579305762419
 20
39.480550251107672
 70
0
  0
SEQEND
  5
597D3
  8
0
  0
POLYLINE
  5
4A8B4
  8
0
 62
7
 66
1
 70
0
 10
0
 20
0
 30
0
  0
VERTEX
  5
597D4
  8
0
 62
7
 10
24.695875454904641
 20
43.926273720048293
 70
0
  0
VERTEX
  5
597D5
  8
0
 62
7
 10
24.695875454904641
 20
43.926273720048293
 70
0
  0
SEQEND
  5
597D6
  8
0
  0
POLYLINE
  5
4A8B8
  8
0
 62
7
 66
1
 70
0
 10
0
 20
0
 30
0
  0
VERTEX
  5
597D7
  8
0
 62
7
 10
24.695875454904641
 20
42.910659570996643
 70
0
  0
VERTEX
  5
597D8
  8
0
 62
7
 10
24.695875454904641
 20
42.824876693413941
 70
0
  0
SEQEND
  5
597D9
  8
0
  0
POLYLINE
  5
4A8BC
  8
0
 62
7
 66
1
 70
0
 10
0
 20
0
 30
0
  0
VERTEX
  5
597DA
  8
0
 62
7
 10
24.695875454904641
 20
42.655550250313922
 70
0
  0
VERTEX
  5
597DB
  8
0
 62
7
 10
24.695875454904641
 20
42.655550250313922
 70
0
  0
SEQEND
  5
597DC
  8
0
  0
POLYLINE
  5
4A8C0
  8
0
 62
7
 66
1
 70
0
 10
0
 20
0
 30
0
  0
VERTEX
  5
597DD
  8
0
 62
7
 10
24.695875454904641
 20
42.824876693413941
 70
0
  0
VERTEX
  5
597DE
  8
0
 62
7
 10
24.695875454904641
 20
43.926273720048293
 70
0
  0
SEQEND
  5
597DF
  8
0
  0
POLYLINE
  5
4A8C4
  8
0
 62
7
 66
1
 70
0
 10
0
 20
0
 30
0
  0
VERTEX
  5
597E0
  8
0
 62
7
 10
25.245712694350519
 20
43.0372668300796
 70
0
  0
VERTEX
  5
597E1
  8
0
 62
7
 10
25.245712694350519
 20
42.824876693413941
 70
0
  0
SEQEND
  5
597E2
  8
0
  0
POLYLINE
  5
4A8C8
  8
0
 62
7
 66
1
 70
0
 10
0
 20
0
 30
0
  0
VERTEX
  5
597E3
  8
0
 62
7
 10
24.695875454904641
 20
43.967614865871319
 70
0
  0
VERTEX
  5
597E4
  8
0
 62
7
 10
22.19887024719554
 20
43.078607975902557
 70
0
  0
SEQEND
  5
597E5
  8
0
  0
POLYLINE
  5
4A8CC
  8
0
 62
7
 66
1
 70
0
 10
0
 20
0
 30
0
  0
VERTEX
  5
597E6
  8
0
 62
7
 10
24.653156270887539
 20
43.926273720048293
 70
0
  0
VERTEX
  5
597E7
  8
0
 62
7
 10
24.653156270887539
 20
43.926273720048293
 70
0
  0
SEQEND
  5
597E8
  8
0
  0
POLYLINE
  5
4A8D0
  8
0
 62
7
 66
1
 70
0
 10
0
 20
0
 30
0
  0
VERTEX
  5
597E9
  8
0
 62
7
 10
22.19887024719554
 20
43.078607975902557
 70
0
  0
VERTEX
  5
597EA
  8
0
 62
7
 10
22.19887024719554
 20
43.078607975902557
 70
0
  0
SEQEND
  5
597EB
  8
0
  0
POLYLINE
  5
4A8D4
  8
0
 62
7
 66
1
 70
0
 10
0
 20
0
 30
0
  0
VERTEX
  5
597EC
  8
0
 62
7
 10
24.695875454904641
 20
43.926273720048293
 70
0
  0
VERTEX
  5
597ED
  8
0
 62
7
 10
24.695875454904641
 20
43.926273720048293
 70
0
  0
SEQEND
  5
597EE
  8
0
  0
POLYLINE
  5
4A8D8
  8
0
 62
7
 66
1
 70
0
 10
0
 20
0
 30
0
  0
VERTEX
  5
597EF
  8
0
 62
7
 10
22.19887024719554
 20
43.0372668300796
 70
0
  0
VERTEX
  5
597F0
  8
0
 62
7
 10
22.19887024719554
 20
43.0372668300796
 70
0
  0
SEQEND
  5
597F1
  8
0
  0
POLYLINE
  5
4A8DC
  8
0
 62
7
 66
1
 70
0
 10
0
 20
0
 30
0
  0
VERTEX
  5
597F2
  8
0
 62
7
 10
23.807040819710181
 20
43.078607975902557
 70
0
  0
VERTEX
  5
597F3
  8
0
 62
7
 10
23.764321635693079
 20
43.078607975902557
 70
0
  0
SEQEND
  5
597F4
  8
0
  0
POLYLINE
  5
4A8E0
  8
0
 62
7
 66
1
 70
0
 10
0
 20
0
 30
0
  0
VERTEX
  5
597F5
  8
0
 62
7
 10
23.764321635693079
 20
43.078607975902557
 70
0
  0
VERTEX
  5
597F6
  8
0
 62
7
 10
23.807040819710181
 20
43.078607975902557
 70
0
  0
SEQEND
  5
597F7
  8
0
  0
POLYLINE
  5
4A8E4
  8
0
 62
7
 66
1
 70
0
 10
0
 20
0
 30
0
  0
VERTEX
  5
597F8
  8
0
 62
7
 10
20.590699674680941
 20
40.158545042604828
 70
0
  0
VERTEX
  5
597F9
  8
0
 62
7
 10
20.67476000452103
 20
40.242605372444928
 70
0
  0
SEQEND
  5
597FA
  8
0
  0
POLYLINE
  5
4A8E8
  8
0
 62
7
 66
1
 70
0
 10
0
 20
0
 30
0
  0
VERTEX
  5
597FB
  8
0
 62
7
 10
23.807040819710181
 20
43.0372668300796
 70
0
  0
VERTEX
  5
597FC
  8
0
 62
7
 10
23.764321635693079
 20
43.0372668300796
 70
0
  0
SEQEND
  5
597FD
  8
0
  0
POLYLINE
  5
4A8EC
  8
0
 62
7
 66
1
 70
0
 10
0
 20
0
 30
0
  0
VERTEX
  5
597FE
  8
0
 62
7
 10
23.764321635693079
 20
43.0372668300796
 70
0
  0
VERTEX
  5
597FF
  8
0
 62
7
 10
23.807040819710181
 20
43.0372668300796
 70
0
  0
SEQEND
  5
59800
  8
0
  0
POLYLINE
  5
4A8F0
  8
0
 62
7
 66
1
 70
0
 10
0
 20
0
 30
0
  0
VERTEX
  5
59801
  8
0
 62
7
 10
22.19887024719554
 20
42.062993826850906
 70
0
  0
VERTEX
  5
59802
  8
0
 62
7
 10
22.19887024719554
 20
42.062993826850906
 70
0
  0
SEQEND
  5
59803
  8
0
  0
POLYLINE
  5
4A8F4
  8
0
 62
7
 66
1
 70
0
 10
0
 20
0
 30
0
  0
VERTEX
  5
59804
  8
0
 62
7
 10
24.653156270887539
 20
42.910659570996643
 70
0
  0
VERTEX
  5
59805
  8
0
 62
7
 10
24.695875454904641
 20
42.910659570996643
 70
0
  0
SEQEND
  5
59806
  8
0
  0
POLYLINE
  5
4A8F8
  8
0
 62
7
 66
1
 70
0
 10
0
 20
0
 30
0
  0
VERTEX
  5
59807
  8
0
 62
7
 10
24.695875454904641
 20
42.824876693413941
 70
0
  0
VERTEX
  5
59808
  8
0
 62
7
 10
24.695875454904641
 20
42.824876693413941
 70
0
  0
SEQEND
  5
59809
  8
0
  0
POLYLINE
  5
4A8FC
  8
0
 62
7
 66
1
 70
0
 10
0
 20
0
 30
0
  0
VERTEX
  5
5980A
  8
0
 62
7
 10
22.156151063178442
 20
41.936214312993741
 70
0
  0
VERTEX
  5
5980B
  8
0
 62
7
 10
22.19887024719554
 20
41.936214312993741
 70
0
  0
SEQEND
  5
5980C
  8
0
  0
POLYLINE
  5
4A900
  8
0
 62
7
 66
1
 70
0
 10
0
 20
0
 30
0
  0
VERTEX
  5
5980D
  8
0
 62
7
 10
24.695875454904641
 20
42.655550250313922
 70
0
  0
VERTEX
  5
5980E
  8
0
 62
7
 10
24.695875454904641
 20
42.655550250313922
 70
0
  0
SEQEND
  5
5980F
  8
0
  0
POLYLINE
  5
4A904
  8
0
 62
7
 66
1
 70
0
 10
0
 20
0
 30
0
  0
VERTEX
  5
59810
  8
0
 62
7
 10
22.156151063178442
 20
41.766543360345153
 70
0
  0
VERTEX
  5
59811
  8
0
 62
7
 10
22.19887024719554
 20
41.766543360345153
 70
0
  0
SEQEND
  5
59812
  8
0
  0
POLYLINE
  5
4A908
  8
0
 62
7
 66
1
 70
0
 10
0
 20
0
 30
0
  0
VERTEX
  5
59813
  8
0
 62
7
 10
24.908093336796021
 20
42.655550250313922
 70
0
  0
VERTEX
  5
59814
  8
0
 62
7
 10
24.738594638921739
 20
42.614209104490882
 70
0
  0
SEQEND
  5
59815
  8
0
  0
POLYLINE
  5
4A90C
  8
0
 62
7
 66
1
 70
0
 10
0
 20
0
 30
0
  0
VERTEX
  5
59816
  8
0
 62
7
 10
22.156151063178442
 20
41.682655285279338
 70
0
  0
VERTEX
  5
59817
  8
0
 62
7
 10
22.029371549321269
 20
41.639936101262251
 70
0
  0
SEQEND
  5
59818
  8
0
  0
POLYLINE
  5
4A910
  8
0
 62
7
 66
1
 70
0
 10
0
 20
0
 30
0
  0
VERTEX
  5
59819
  8
0
 62
7
 10
25.331151062384691
 20
39.523269435124739
 70
0
  0
VERTEX
  5
5981A
  8
0
 62
7
 10
25.4579305762419
 20
39.60870780315895
 70
0
  0
SEQEND
  5
5981B
  8
0
  0
POLYLINE
  5
4A914
  8
0
 62
7
 66
1
 70
0
 10
0
 20
0
 30
0
  0
VERTEX
  5
5981C
  8
0
 62
7
 10
25.4579305762419
 20
39.439209105284647
 70
0
  0
VERTEX
  5
5981D
  8
0
 62
7
 10
25.245712694350519
 20
39.353942992024713
 70
0
  0
SEQEND
  5
5981E
  8
0
  0
POLYLINE
  5
4A918
  8
0
 62
7
 66
1
 70
0
 10
0
 20
0
 30
0
  0
VERTEX
  5
5981F
  8
0
 62
7
 10
25.4579305762419
 20
39.439209105284647
 70
0
  0
VERTEX
  5
59820
  8
0
 62
7
 10
25.245712694350519
 20
39.353942992024713
 70
0
  0
SEQEND
  5
59821
  8
0
  0
POLYLINE
  5
4A91C
  8
0
 62
7
 66
1
 70
0
 10
0
 20
0
 30
0
  0
VERTEX
  5
59822
  8
0
 62
7
 10
61.09951042844262
 20
24.49559067369071
 70
0
  0
VERTEX
  5
59823
  8
0
 62
7
 10
61.0567912444255
 20
24.49559067369071
 70
0
  0
SEQEND
  5
59824
  8
0
  0
POLYLINE
  5
4A920
  8
0
 62
7
 66
1
 70
0
 10
0
 20
0
 30
0
  0
VERTEX
  5
59825
  8
0
 62
7
 10
60.845951400728239
 20
24.58137355127343
 70
0
  0
VERTEX
  5
59826
  8
0
 62
7
 10
60.888670584745313
 20
24.58137355127343
 70
0
  0
SEQEND
  5
59827
  8
0
  0
POLYLINE
  5
4A924
  8
0
 62
7
 66
1
 70
0
 10
0
 20
0
 30
0
  0
VERTEX
  5
59828
  8
0
 62
7
 10
59.998457911356752
 20
20.221088450366981
 70
0
  0
VERTEX
  5
59829
  8
0
 62
7
 10
20.547980490663829
 20
40.073278929344887
 70
0
  0
SEQEND
  5
5982A
  8
0
  0
POLYLINE
  5
4A928
  8
0
 62
7
 66
1
 70
0
 10
0
 20
0
 30
0
  0
VERTEX
  5
5982B
  8
0
 62
7
 10
20.71747918853811
 20
40.2012642266219
 70
0
  0
VERTEX
  5
5982C
  8
0
 62
7
 10
20.67476000452103
 20
40.242605372444928
 70
0
  0
SEQEND
  5
5982D
  8
0
  0
POLYLINE
  5
4A92C
  8
0
 62
7
 66
1
 70
0
 10
0
 20
0
 30
0
  0
VERTEX
  5
5982E
  8
0
 62
7
 10
65.7131823022892
 20
22.21097560264727
 70
0
  0
VERTEX
  5
5982F
  8
0
 62
7
 10
64.358570757488962
 20
22.803704280884521
 70
0
  0
SEQEND
  5
59830
  8
0
  0
POLYLINE
  5
4A930
  8
0
 62
7
 66
1
 70
0
 10
0
 20
0
 30
0
  0
VERTEX
  5
59831
  8
0
 62
7
 10
22.156151063178442
 20
41.766543360345153
 70
0
  0
VERTEX
  5
59832
  8
0
 62
7
 10
22.156151063178442
 20
41.723824176328087
 70
0
  0
SEQEND
  5
59833
  8
0
  0
POLYLINE
  5
4A934
  8
0
 62
7
 66
1
 70
0
 10
0
 20
0
 30
0
  0
VERTEX
  5
59834
  8
0
 62
7
 10
22.282930577035639
 20
41.682655285279338
 70
0
  0
VERTEX
  5
59835
  8
0
 62
7
 10
22.19887024719554
 20
41.723824176328087
 70
0
  0
SEQEND
  5
59836
  8
0
  0
POLYLINE
  5
4A938
  8
0
 62
7
 66
1
 70
0
 10
0
 20
0
 30
0
  0
VERTEX
  5
59837
  8
0
 62
7
 10
61.0567912444255
 20
24.49559067369071
 70
0
  0
VERTEX
  5
59838
  8
0
 62
7
 10
60.888670584745313
 20
24.58137355127343
 70
0
  0
SEQEND
  5
59839
  8
0
  0
POLYLINE
  5
4A93C
  8
0
 62
7
 66
1
 70
0
 10
0
 20
0
 30
0
  0
VERTEX
  5
5983A
  8
0
 62
7
 10
60.888670584745313
 20
24.538309857707819
 70
0
  0
VERTEX
  5
5983B
  8
0
 62
7
 10
61.0567912444255
 20
24.49559067369071
 70
0
  0
SEQEND
  5
5983C
  8
0
  0
POLYLINE
  5
4A940
  8
0
 62
7
 66
1
 70
0
 10
0
 20
0
 30
0
  0
VERTEX
  5
5983D
  8
0
 62
7
 10
28.929208787179618
 20
40.667041136227681
 70
0
  0
VERTEX
  5
5983E
  8
0
 62
7
 10
28.75971008930534
 20
40.751273720842043
 70
0
  0
SEQEND
  5
5983F
  8
0
  0
POLYLINE
  5
4A944
  8
0
 62
7
 66
1
 70
0
 10
0
 20
0
 30
0
  0
VERTEX
  5
59840
  8
0
 62
7
 10
28.75971008930534
 20
40.751273720842043
 70
0
  0
VERTEX
  5
59841
  8
0
 62
7
 10
28.929208787179618
 20
40.667041136227681
 70
0
  0
SEQEND
  5
59842
  8
0
  0
POLYLINE
  5
4A948
  8
0
 62
7
 66
1
 70
0
 10
0
 20
0
 30
0
  0
VERTEX
  5
59843
  8
0
 62
7
 10
22.452429274909949
 20
42.782157509396811
 70
0
  0
VERTEX
  5
59844
  8
0
 62
7
 10
22.495148458927041
 20
42.782157509396811
 70
0
  0
SEQEND
  5
59845
  8
0
  0
POLYLINE
  5
4A94C
  8
0
 62
7
 66
1
 70
0
 10
0
 20
0
 30
0
  0
VERTEX
  5
59846
  8
0
 62
7
 10
22.579208788767119
 20
42.994547646062472
 70
0
  0
VERTEX
  5
59847
  8
0
 62
7
 10
22.579208788767119
 20
42.994547646062472
 70
0
  0
SEQEND
  5
59848
  8
0
  0
POLYLINE
  5
4A950
  8
0
 62
7
 66
1
 70
0
 10
0
 20
0
 30
0
  0
VERTEX
  5
59849
  8
0
 62
7
 10
24.822654968761839
 20
42.571662175248093
 70
0
  0
VERTEX
  5
5984A
  8
0
 62
7
 10
24.695875454904641
 20
42.614209104490882
 70
0
  0
SEQEND
  5
5984B
  8
0
  0
POLYLINE
  5
4A954
  8
0
 62
7
 66
1
 70
0
 10
0
 20
0
 30
0
  0
VERTEX
  5
5984C
  8
0
 62
7
 10
24.822654968761839
 20
42.571662175248093
 70
0
  0
VERTEX
  5
5984D
  8
0
 62
7
 10
24.738594638921739
 20
42.614209104490882
 70
0
  0
SEQEND
  5
5984E
  8
0
  0
POLYLINE
  5
4A958
  8
0
 62
7
 66
1
 70
0
 10
0
 20
0
 30
0
  0
VERTEX
  5
5984F
  8
0
 62
7
 10
24.738594638921739
 20
42.655550250313922
 70
0
  0
VERTEX
  5
59850
  8
0
 62
7
 10
24.781313822938841
 20
42.655550250313922
 70
0
  0
SEQEND
  5
59851
  8
0
  0
POLYLINE
  5
4A95C
  8
0
 62
7
 66
1
 70
0
 10
0
 20
0
 30
0
  0
VERTEX
  5
59852
  8
0
 62
7
 10
24.822654968761839
 20
42.824876693413941
 70
0
  0
VERTEX
  5
59853
  8
0
 62
7
 10
24.738594638921739
 20
42.824876693413941
 70
0
  0
SEQEND
  5
59854
  8
0
  0
POLYLINE
  5
4A960
  8
0
 62
7
 66
1
 70
0
 10
0
 20
0
 30
0
  0
VERTEX
  5
59855
  8
0
 62
7
 10
24.695875454904641
 20
42.910659570996643
 70
0
  0
VERTEX
  5
59856
  8
0
 62
7
 10
24.695875454904641
 20
42.910659570996643
 70
0
  0
SEQEND
  5
59857
  8
0
  0
POLYLINE
  5
4A964
  8
0
 62
7
 66
1
 70
0
 10
0
 20
0
 30
0
  0
VERTEX
  5
59858
  8
0
 62
7
 10
26.34676521143636
 20
42.1899455954824
 70
0
  0
VERTEX
  5
59859
  8
0
 62
7
 10
65.7559014863063
 20
22.337755116504471
 70
0
  0
SEQEND
  5
5985A
  8
0
  0
POLYLINE
  5
4A968
  8
0
 62
7
 66
1
 70
0
 10
0
 20
0
 30
0
  0
VERTEX
  5
5985B
  8
0
 62
7
 10
25.118933180493311
 20
42.910659570996643
 70
0
  0
VERTEX
  5
5985C
  8
0
 62
7
 10
25.077592034670321
 20
42.910659570996643
 70
0
  0
SEQEND
  5
5985D
  8
0
  0
POLYLINE
  5
4A96C
  8
0
 62
7
 66
1
 70
0
 10
0
 20
0
 30
0
  0
VERTEX
  5
5985E
  8
0
 62
7
 10
63.724673188202971
 20
23.47997652463906
 70
0
  0
VERTEX
  5
5985F
  8
0
 62
7
 10
63.766014334025982
 20
23.438635378816059
 70
0
  0
SEQEND
  5
59860
  8
0
  0
POLYLINE
  5
4A970
  8
0
 62
7
 66
1
 70
0
 10
0
 20
0
 30
0
  0
VERTEX
  5
59861
  8
0
 62
7
 10
25.118933180493311
 20
43.0372668300796
 70
0
  0
VERTEX
  5
59862
  8
0
 62
7
 10
25.118933180493311
 20
43.078607975902557
 70
0
  0
SEQEND
  5
59863
  8
0
  0
POLYLINE
  5
4A974
  8
0
 62
7
 66
1
 70
0
 10
0
 20
0
 30
0
  0
VERTEX
  5
59864
  8
0
 62
7
 10
63.766014334025982
 20
23.606928293270489
 70
0
  0
VERTEX
  5
59865
  8
0
 62
7
 10
63.80873351804307
 20
23.606928293270489
 70
0
  0
SEQEND
  5
59866
  8
0
  0
POLYLINE
  5
4A978
  8
0
 62
7
 66
1
 70
0
 10
0
 20
0
 30
0
  0
VERTEX
  5
59867
  8
0
 62
7
 10
25.077592034670321
 20
43.121327159919687
 70
0
  0
VERTEX
  5
59868
  8
0
 62
7
 10
25.245712694350519
 20
43.0372668300796
 70
0
  0
SEQEND
  5
59869
  8
0
  0
POLYLINE
  5
4A97C
  8
0
 62
7
 66
1
 70
0
 10
0
 20
0
 30
0
  0
VERTEX
  5
5986A
  8
0
 62
7
 10
63.639234820168781
 20
23.6923666613047
 70
0
  0
VERTEX
  5
5986B
  8
0
 62
7
 10
63.80873351804307
 20
23.606928293270489
 70
0
  0
SEQEND
  5
5986C
  8
0
  0
POLYLINE
  5
4A980
  8
0
 62
7
 66
1
 70
0
 10
0
 20
0
 30
0
  0
VERTEX
  5
5986D
  8
0
 62
7
 10
24.695875454904641
 20
43.883210026482672
 70
0
  0
VERTEX
  5
5986E
  8
0
 62
7
 10
24.695875454904641
 20
43.883210026482672
 70
0
  0
SEQEND
  5
5986F
  8
0
  0
POLYLINE
  5
4A984
  8
0
 62
7
 66
1
 70
0
 10
0
 20
0
 30
0
  0
VERTEX
  5
59870
  8
0
 62
7
 10
26.26270488159625
 20
42.062993826850906
 70
0
  0
VERTEX
  5
59871
  8
0
 62
7
 10
24.908093336796021
 20
42.655550250313922
 70
0
  0
SEQEND
  5
59872
  8
0
  0
POLYLINE
  5
4A988
  8
0
 62
7
 66
1
 70
0
 10
0
 20
0
 30
0
  0
VERTEX
  5
59873
  8
0
 62
7
 10
24.695875454904641
 20
43.926273720048293
 70
0
  0
VERTEX
  5
59874
  8
0
 62
7
 10
24.695875454904641
 20
43.967614865871319
 70
0
  0
SEQEND
  5
59875
  8
0
  0
POLYLINE
  5
4A98C
  8
0
 62
7
 66
1
 70
0
 10
0
 20
0
 30
0
  0
VERTEX
  5
59876
  8
0
 62
7
 10
28.97192797119672
 20
40.667041136227681
 70
0
  0
VERTEX
  5
59877
  8
0
 62
7
 10
28.929208787179618
 20
40.667041136227681
 70
0
  0
SEQEND
  5
59878
  8
0
  0
POLYLINE
  5
4A990
  8
0
 62
7
 66
1
 70
0
 10
0
 20
0
 30
0
  0
VERTEX
  5
59879
  8
0
 62
7
 10
28.716990905288242
 20
40.751273720842043
 70
0
  0
VERTEX
  5
5987A
  8
0
 62
7
 10
28.75971008930534
 20
40.751273720842043
 70
0
  0
SEQEND
  5
5987B
  8
0
  0
POLYLINE
  5
4A994
  8
0
 62
7
 66
1
 70
0
 10
0
 20
0
 30
0
  0
VERTEX
  5
5987C
  8
0
 62
7
 10
23.722980489870078
 20
42.824876693413941
 70
0
  0
VERTEX
  5
5987D
  8
0
 62
7
 10
23.764321635693079
 20
42.782157509396811
 70
0
  0
SEQEND
  5
5987E
  8
0
  0
POLYLINE
  5
4A998
  8
0
 62
7
 66
1
 70
0
 10
0
 20
0
 30
0
  0
VERTEX
  5
5987F
  8
0
 62
7
 10
23.764321635693079
 20
42.782157509396811
 70
0
  0
VERTEX
  5
59880
  8
0
 62
7
 10
23.722980489870078
 20
42.824876693413941
 70
0
  0
SEQEND
  5
59881
  8
0
  0
POLYLINE
  5
4A99C
  8
0
 62
7
 66
1
 70
0
 10
0
 20
0
 30
0
  0
VERTEX
  5
59882
  8
0
 62
7
 10
23.722980489870078
 20
42.867940386979569
 70
0
  0
VERTEX
  5
59883
  8
0
 62
7
 10
23.807040819710181
 20
42.824876693413941
 70
0
  0
SEQEND
  5
59884
  8
0
  0
POLYLINE
  5
4A9A0
  8
0
 62
7
 66
1
 70
0
 10
0
 20
0
 30
0
  0
VERTEX
  5
59885
  8
0
 62
7
 10
23.807040819710181
 20
42.824876693413941
 70
0
  0
VERTEX
  5
59886
  8
0
 62
7
 10
23.722980489870078
 20
42.867940386979569
 70
0
  0
SEQEND
  5
59887
  8
0
  0
POLYLINE
  5
4A9A4
  8
0
 62
7
 66
1
 70
0
 10
0
 20
0
 30
0
  0
VERTEX
  5
59888
  8
0
 62
7
 10
57.458733519630592
 20
23.353369265556118
 70
0
  0
VERTEX
  5
59889
  8
0
 62
7
 10
57.58689107168189
 20
23.438635378816059
 70
0
  0
SEQEND
  5
5988A
  8
0
  0
POLYLINE
  5
4A9A8
  8
0
 62
7
 66
1
 70
0
 10
0
 20
0
 30
0
  0
VERTEX
  5
5988B
  8
0
 62
7
 10
57.58689107168189
 20
23.26930893571603
 70
0
  0
VERTEX
  5
5988C
  8
0
 62
7
 10
57.374673189790492
 20
23.184042822456089
 70
0
  0
SEQEND
  5
5988D
  8
0
  0
POLYLINE
  5
4A9AC
  8
0
 62
7
 66
1
 70
0
 10
0
 20
0
 30
0
  0
VERTEX
  5
5988E
  8
0
 62
7
 10
57.58689107168189
 20
23.26930893571603
 70
0
  0
VERTEX
  5
5988F
  8
0
 62
7
 10
57.417392373807587
 20
23.14132363843899
 70
0
  0
SEQEND
  5
59890
  8
0
  0
POLYLINE
  5
4A9B0
  8
0
 62
7
 66
1
 70
0
 10
0
 20
0
 30
0
  0
VERTEX
  5
59891
  8
0
 62
7
 10
26.30404602741925
 20
42.1899455954824
 70
0
  0
VERTEX
  5
59892
  8
0
 62
7
 10
26.219985697579151
 20
42.1899455954824
 70
0
  0
SEQEND
  5
59893
  8
0
  0
POLYLINE
  5
4A9B4
  8
0
 62
7
 66
1
 70
0
 10
0
 20
0
 30
0
  0
VERTEX
  5
59894
  8
0
 62
7
 10
57.374673189790492
 20
23.184042822456089
 70
0
  0
VERTEX
  5
59895
  8
0
 62
7
 10
57.417392373807587
 20
23.353369265556118
 70
0
  0
SEQEND
  5
59896
  8
0
  0
POLYLINE
  5
4A9B8
  8
0
 62
7
 66
1
 70
0
 10
0
 20
0
 30
0
  0
VERTEX
  5
59897
  8
0
 62
7
 10
57.628232217504888
 20
23.438635378816059
 70
0
  0
VERTEX
  5
59898
  8
0
 62
7
 10
57.58689107168189
 20
23.26930893571603
 70
0
  0
SEQEND
  5
59899
  8
0
  0
POLYLINE
  5
4A9BC
  8
0
 62
7
 66
1
 70
0
 10
0
 20
0
 30
0
  0
VERTEX
  5
5989A
  8
0
 62
7
 10
57.628232217504888
 20
23.396088449573231
 70
0
  0
VERTEX
  5
5989B
  8
0
 62
7
 10
57.58689107168189
 20
23.26930893571603
 70
0
  0
SEQEND
  5
5989C
  8
0
  0
POLYLINE
  5
4A9C0
  8
0
 62
7
 66
1
 70
0
 10
0
 20
0
 30
0
  0
VERTEX
  5
5989D
  8
0
 62
7
 10
64.358570757488962
 20
22.803704280884521
 70
0
  0
VERTEX
  5
5989E
  8
0
 62
7
 10
64.189072059614659
 20
22.760640587318878
 70
0
  0
SEQEND
  5
5989F
  8
0
  0
POLYLINE
  5
4A9C4
  8
0
 62
7
 66
1
 70
0
 10
0
 20
0
 30
0
  0
VERTEX
  5
598A0
  8
0
 62
7
 10
63.80873351804307
 20
23.606928293270489
 70
0
  0
VERTEX
  5
598A1
  8
0
 62
7
 10
63.80873351804307
 20
23.606928293270489
 70
0
  0
SEQEND
  5
598A2
  8
0
  0
POLYLINE
  5
4A9C8
  8
0
 62
7
 66
1
 70
0
 10
0
 20
0
 30
0
  0
VERTEX
  5
598A3
  8
0
 62
7
 10
63.80873351804307
 20
23.47997652463906
 70
0
  0
VERTEX
  5
598A4
  8
0
 62
7
 10
63.80873351804307
 20
23.396088449573231
 70
0
  0
SEQEND
  5
598A5
  8
0
  0
POLYLINE
  5
4A9CC
  8
0
 62
7
 66
1
 70
0
 10
0
 20
0
 30
0
  0
VERTEX
  5
598A6
  8
0
 62
7
 10
61.31172831033399
 20
21.618419179184311
 70
0
  0
VERTEX
  5
598A7
  8
0
 62
7
 10
60.041177095373861
 20
20.221088450366981
 70
0
  0
SEQEND
  5
598A8
  8
0
  0
POLYLINE
  5
4A9D0
  8
0
 62
7
 66
1
 70
0
 10
0
 20
0
 30
0
  0
VERTEX
  5
598A9
  8
0
 62
7
 10
23.764321635693079
 20
42.782157509396811
 70
0
  0
VERTEX
  5
598AA
  8
0
 62
7
 10
23.764321635693079
 20
42.782157509396811
 70
0
  0
SEQEND
  5
598AB
  8
0
  0
POLYLINE
  5
4A9D4
  8
0
 62
7
 66
1
 70
0
 10
0
 20
0
 30
0
  0
VERTEX
  5
598AC
  8
0
 62
7
 10
23.764321635693079
 20
42.782157509396811
 70
0
  0
VERTEX
  5
598AD
  8
0
 62
7
 10
23.807040819710181
 20
42.824876693413941
 70
0
  0
SEQEND
  5
598AE
  8
0
  0
POLYLINE
  5
4A9D8
  8
0
 62
7
 66
1
 70
0
 10
0
 20
0
 30
0
  0
VERTEX
  5
598AF
  8
0
 62
7
 10
23.807040819710181
 20
42.824876693413941
 70
0
  0
VERTEX
  5
598B0
  8
0
 62
7
 10
23.807040819710181
 20
42.824876693413941
 70
0
  0
SEQEND
  5
598B1
  8
0
  0
POLYLINE
  5
4A9DC
  8
0
 62
7
 66
1
 70
0
 10
0
 20
0
 30
0
  0
VERTEX
  5
598B2
  8
0
 62
7
 10
23.807040819710181
 20
43.0372668300796
 70
0
  0
VERTEX
  5
598B3
  8
0
 62
7
 10
23.807040819710181
 20
43.0372668300796
 70
0
  0
SEQEND
  5
598B4
  8
0
  0
POLYLINE
  5
4A9E0
  8
0
 62
7
 66
1
 70
0
 10
0
 20
0
 30
0
  0
VERTEX
  5
598B5
  8
0
 62
7
 10
23.807040819710181
 20
43.0372668300796
 70
0
  0
VERTEX
  5
598B6
  8
0
 62
7
 10
23.807040819710181
 20
43.0372668300796
 70
0
  0
SEQEND
  5
598B7
  8
0
  0
POLYLINE
  5
4A9E4
  8
0
 62
7
 66
1
 70
0
 10
0
 20
0
 30
0
  0
VERTEX
  5
598B8
  8
0
 62
7
 10
23.807040819710181
 20
43.0372668300796
 70
0
  0
VERTEX
  5
598B9
  8
0
 62
7
 10
23.807040819710181
 20
43.078607975902557
 70
0
  0
SEQEND
  5
598BA
  8
0
  0
POLYLINE
  5
4A9E8
  8
0
 62
7
 66
1
 70
0
 10
0
 20
0
 30
0
  0
VERTEX
  5
598BB
  8
0
 62
7
 10
23.807040819710181
 20
43.078607975902557
 70
0
  0
VERTEX
  5
598BC
  8
0
 62
7
 10
23.807040819710181
 20
43.078607975902557
 70
0
  0
SEQEND
  5
598BD
  8
0
  0
POLYLINE
  5
4A9EC
  8
0
 62
7
 66
1
 70
0
 10
0
 20
0
 30
0
  0
VERTEX
  5
598BE
  8
0
 62
7
 10
23.807040819710181
 20
43.078607975902557
 70
0
  0
VERTEX
  5
598BF
  8
0
 62
7
 10
23.807040819710181
 20
43.078607975902557
 70
0
  0
SEQEND
  5
598C0
  8
0
  0
POLYLINE
  5
4A9F0
  8
0
 62
7
 66
1
 70
0
 10
0
 20
0
 30
0
  0
VERTEX
  5
598C1
  8
0
 62
7
 10
23.68026130585298
 20
43.37488618763409
 70
0
  0
VERTEX
  5
598C2
  8
0
 62
7
 10
23.68026130585298
 20
43.37488618763409
 70
0
  0
SEQEND
  5
598C3
  8
0
  0
POLYLINE
  5
4A9F4
  8
0
 62
7
 66
1
 70
0
 10
0
 20
0
 30
0
  0
VERTEX
  5
598C4
  8
0
 62
7
 10
23.2144843962472
 20
42.485879297665349
 70
0
  0
VERTEX
  5
598C5
  8
0
 62
7
 10
23.2144843962472
 20
42.485879297665349
 70
0
  0
SEQEND
  5
598C6
  8
0
  0
POLYLINE
  5
4AFD0
  8
0
 62
7
 66
1
 70
8
  0
VERTEX
  5
4AFD1
  8
0
 62
7
 10
25.1189
 20
42.9945
 30
0
 70
32
  0
VERTEX
  5
4AFD2
  8
0
 62
7
 10
25.1189
 20
42.9945
 30
0
 70
32
  0
VERTEX
  5
4AFD3
  8
0
 62
7
 10
25.119
 20
42.9945
 30
0
 70
32
  0
VERTEX
  5
4AFD4
  8
0
 62
7
 10
25.119
 20
42.9945
 30
0
 70
32
  0
VERTEX
  5
4AFD5
  8
0
 62
7
 10
25.1191
 20
42.9945
 30
0
 70
32
  0
VERTEX
  5
4AFD6
  8
0
 62
7
 10
25.1192
 20
42.994599999999991
 30
0
 70
32
  0
VERTEX
  5
4AFD7
  8
0
 62
7
 10
25.1193
 20
42.994599999999991
 30
0
 70
32
  0
VERTEX
  5
4AFD8
  8
0
 62
7
 10
25.1194
 20
42.994599999999991
 30
0
 70
32
  0
VERTEX
  5
4AFD9
  8
0
 62
7
 10
25.1196
 20
42.994599999999991
 30
0
 70
32
  0
VERTEX
  5
4AFDA
  8
0
 62
7
 10
25.1197
 20
42.994599999999991
 30
0
 70
32
  0
VERTEX
  5
4AFDB
  8
0
 62
7
 10
25.1199
 20
42.994599999999991
 30
0
 70
32
  0
VERTEX
  5
4AFDC
  8
0
 62
7
 10
25.1201
 20
42.994599999999991
 30
0
 70
32
  0
VERTEX
  5
4AFDD
  8
0
 62
7
 10
25.1203
 20
42.994599999999991
 30
0
 70
32
  0
VERTEX
  5
4AFDE
  8
0
 62
7
 10
25.1205
 20
42.994599999999991
 30
0
 70
32
  0
VERTEX
  5
4AFDF
  8
0
 62
7
 10
25.1208
 20
42.994599999999991
 30
0
 70
32
  0
VERTEX
  5
4AFE0
  8
0
 62
7
 10
25.121
 20
42.9947
 30
0
 70
32
  0
VERTEX
  5
4AFE1
  8
0
 62
7
 10
25.1213
 20
42.9947
 30
0
 70
32
  0
VERTEX
  5
4AFE2
  8
0
 62
7
 10
25.1216
 20
42.9947
 30
0
 70
32
  0
VERTEX
  5
4AFE3
  8
0
 62
7
 10
25.1219
 20
42.9947
 30
0
 70
32
  0
VERTEX
  5
4AFE4
  8
0
 62
7
 10
25.1222
 20
42.994799999999991
 30
0
 70
32
  0
VERTEX
  5
4AFE5
  8
0
 62
7
 10
25.1226
 20
42.994799999999991
 30
0
 70
32
  0
VERTEX
  5
4AFE6
  8
0
 62
7
 10
25.1229
 20
42.994799999999991
 30
0
 70
32
  0
VERTEX
  5
4AFE7
  8
0
 62
7
 10
25.1233
 20
42.9949
 30
0
 70
32
  0
VERTEX
  5
4AFE8
  8
0
 62
7
 10
25.1236
 20
42.9949
 30
0
 70
32
  0
VERTEX
  5
4AFE9
  8
0
 62
7
 10
25.124
 20
42.995
 30
0
 70
32
  0
VERTEX
  5
4AFEA
  8
0
 62
7
 10
25.1244
 20
42.995
 30
0
 70
32
  0
VERTEX
  5
4AFEB
  8
0
 62
7
 10
25.1248
 20
42.9951
 30
0
 70
32
  0
VERTEX
  5
4AFEC
  8
0
 62
7
 10
25.1252
 20
42.9952
 30
0
 70
32
  0
VERTEX
  5
4AFED
  8
0
 62
7
 10
25.1257
 20
42.9952
 30
0
 70
32
  0
VERTEX
  5
4AFEE
  8
0
 62
7
 10
25.1261
 20
42.995299999999993
 30
0
 70
32
  0
VERTEX
  5
4AFEF
  8
0
 62
7
 10
25.1265
 20
42.995399999999989
 30
0
 70
32
  0
VERTEX
  5
4AFF0
  8
0
 62
7
 10
25.127
 20
42.995499999999993
 30
0
 70
32
  0
VERTEX
  5
4AFF1
  8
0
 62
7
 10
25.1275
 20
42.9956
 30
0
 70
32
  0
VERTEX
  5
4AFF2
  8
0
 62
7
 10
25.1279
 20
42.9957
 30
0
 70
32
  0
VERTEX
  5
4AFF3
  8
0
 62
7
 10
25.1284
 20
42.9958
 30
0
 70
32
  0
VERTEX
  5
4AFF4
  8
0
 62
7
 10
25.1289
 20
42.9959
 30
0
 70
32
  0
VERTEX
  5
4AFF5
  8
0
 62
7
 10
25.1294
 20
42.996
 30
0
 70
32
  0
VERTEX
  5
4AFF6
  8
0
 62
7
 10
25.1299
 20
42.9961
 30
0
 70
32
  0
VERTEX
  5
4AFF7
  8
0
 62
7
 10
25.1304
 20
42.996199999999988
 30
0
 70
32
  0
VERTEX
  5
4AFF8
  8
0
 62
7
 10
25.131
 20
42.9964
 30
0
 70
32
  0
VERTEX
  5
4AFF9
  8
0
 62
7
 10
25.1315
 20
42.99649999999999
 30
0
 70
32
  0
VERTEX
  5
4AFFA
  8
0
 62
7
 10
25.132
 20
42.99669999999999
 30
0
 70
32
  0
VERTEX
  5
4AFFB
  8
0
 62
7
 10
25.1326
 20
42.9968
 30
0
 70
32
  0
VERTEX
  5
4AFFC
  8
0
 62
7
 10
25.1331
 20
42.997
 30
0
 70
32
  0
VERTEX
  5
4AFFD
  8
0
 62
7
 10
25.1336
 20
42.997199999999992
 30
0
 70
32
  0
VERTEX
  5
4AFFE
  8
0
 62
7
 10
25.1342
 20
42.997399999999992
 30
0
 70
32
  0
VERTEX
  5
4AFFF
  8
0
 62
7
 10
25.1347
 20
42.9975
 30
0
 70
32
  0
VERTEX
  5
4B000
  8
0
 62
7
 10
25.1353
 20
42.9977
 30
0
 70
32
  0
VERTEX
  5
4B001
  8
0
 62
7
 10
25.1359
 20
42.998
 30
0
 70
32
  0
VERTEX
  5
4B002
  8
0
 62
7
 10
25.1364
 20
42.99819999999999
 30
0
 70
32
  0
VERTEX
  5
4B003
  8
0
 62
7
 10
25.137
 20
42.99839999999999
 30
0
 70
32
  0
VERTEX
  5
4B004
  8
0
 62
7
 10
25.1376
 20
42.9986
 30
0
 70
32
  0
VERTEX
  5
4B005
  8
0
 62
7
 10
25.1381
 20
42.9989
 30
0
 70
32
  0
VERTEX
  5
4B006
  8
0
 62
7
 10
25.1387
 20
42.999099999999991
 30
0
 70
32
  0
VERTEX
  5
4B007
  8
0
 62
7
 10
25.1393
 20
42.9994
 30
0
 70
32
  0
VERTEX
  5
4B008
  8
0
 62
7
 10
25.1399
 20
42.9997
 30
0
 70
32
  0
VERTEX
  5
4B009
  8
0
 62
7
 10
25.1404
 20
43
 30
0
 70
32
  0
VERTEX
  5
4B00A
  8
0
 62
7
 10
25.141
 20
43.0003
 30
0
 70
32
  0
VERTEX
  5
4B00B
  8
0
 62
7
 10
25.1416
 20
43.0006
 30
0
 70
32
  0
VERTEX
  5
4B00C
  8
0
 62
7
 10
25.1422
 20
43.000899999999987
 30
0
 70
32
  0
VERTEX
  5
4B00D
  8
0
 62
7
 10
25.1427
 20
43.00119999999999
 30
0
 70
32
  0
VERTEX
  5
4B00E
  8
0
 62
7
 10
25.1433
 20
43.0015
 30
0
 70
32
  0
VERTEX
  5
4B00F
  8
0
 62
7
 10
25.1439
 20
43.001899999999992
 30
0
 70
32
  0
VERTEX
  5
4B010
  8
0
 62
7
 10
25.1444
 20
43.002299999999991
 30
0
 70
32
  0
VERTEX
  5
4B011
  8
0
 62
7
 10
25.145
 20
43.0026
 30
0
 70
32
  0
VERTEX
  5
4B012
  8
0
 62
7
 10
25.1456
 20
43.003
 30
0
 70
32
  0
VERTEX
  5
4B013
  8
0
 62
7
 10
25.1461
 20
43.0034
 30
0
 70
32
  0
VERTEX
  5
4B014
  8
0
 62
7
 10
25.1467
 20
43.003799999999991
 30
0
 70
32
  0
VERTEX
  5
4B015
  8
0
 62
7
 10
25.1472
 20
43.00419999999999
 30
0
 70
32
  0
VERTEX
  5
4B016
  8
0
 62
7
 10
25.1478
 20
43.004699999999993
 30
0
 70
32
  0
VERTEX
  5
4B017
  8
0
 62
7
 10
25.1483
 20
43.0051
 30
0
 70
32
  0
VERTEX
  5
4B018
  8
0
 62
7
 10
25.1488
 20
43.005599999999987
 30
0
 70
32
  0
VERTEX
  5
4B019
  8
0
 62
7
 10
25.1494
 20
43.0061
 30
0
 70
32
  0
VERTEX
  5
4B01A
  8
0
 62
7
 10
25.1499
 20
43.0065
 30
0
 70
32
  0
VERTEX
  5
4B01B
  8
0
 62
7
 10
25.1504
 20
43.006999999999991
 30
0
 70
32
  0
VERTEX
  5
4B01C
  8
0
 62
7
 10
25.1509
 20
43.007499999999993
 30
0
 70
32
  0
VERTEX
  5
4B01D
  8
0
 62
7
 10
25.1514
 20
43.0081
 30
0
 70
32
  0
VERTEX
  5
4B01E
  8
0
 62
7
 10
25.1519
 20
43.0086
 30
0
 70
32
  0
VERTEX
  5
4B01F
  8
0
 62
7
 10
25.1524
 20
43.0092
 30
0
 70
32
  0
VERTEX
  5
4B020
  8
0
 62
7
 10
25.1529
 20
43.0097
 30
0
 70
32
  0
VERTEX
  5
4B021
  8
0
 62
7
 10
25.1534
 20
43.010299999999987
 30
0
 70
32
  0
VERTEX
  5
4B022
  8
0
 62
7
 10
25.1538
 20
43.0109
 30
0
 70
32
  0
VERTEX
  5
4B023
  8
0
 62
7
 10
25.1543
 20
43.011499999999991
 30
0
 70
32
  0
VERTEX
  5
4B024
  8
0
 62
7
 10
25.1547
 20
43.012199999999993
 30
0
 70
32
  0
VERTEX
  5
4B025
  8
0
 62
7
 10
25.1551
 20
43.0128
 30
0
 70
32
  0
VERTEX
  5
4B026
  8
0
 62
7
 10
25.1556
 20
43.0135
 30
0
 70
32
  0
VERTEX
  5
4B027
  8
0
 62
7
 10
25.156
 20
43.014099999999992
 30
0
 70
32
  0
VERTEX
  5
4B028
  8
0
 62
7
 10
25.1564
 20
43.0148
 30
0
 70
32
  0
VERTEX
  5
4B029
  8
0
 62
7
 10
25.1568
 20
43.0155
 30
0
 70
32
  0
VERTEX
  5
4B02A
  8
0
 62
7
 10
25.1571
 20
43.0163
 30
0
 70
32
  0
VERTEX
  5
4B02B
  8
0
 62
7
 10
25.1575
 20
43.017
 30
0
 70
32
  0
VERTEX
  5
4B02C
  8
0
 62
7
 10
25.1579
 20
43.017799999999987
 30
0
 70
32
  0
VERTEX
  5
4B02D
  8
0
 62
7
 10
25.1582
 20
43.0185
 30
0
 70
32
  0
VERTEX
  5
4B02E
  8
0
 62
7
 10
25.1585
 20
43.0193
 30
0
 70
32
  0
VERTEX
  5
4B02F
  8
0
 62
7
 10
25.1588
 20
43.0201
 30
0
 70
32
  0
VERTEX
  5
4B030
  8
0
 62
7
 10
25.1591
 20
43.021
 30
0
 70
32
  0
VERTEX
  5
4B031
  8
0
 62
7
 10
25.1594
 20
43.021799999999992
 30
0
 70
32
  0
VERTEX
  5
4B032
  8
0
 62
7
 10
25.1597
 20
43.0227
 30
0
 70
32
  0
VERTEX
  5
4B033
  8
0
 62
7
 10
25.1599
 20
43.0236
 30
0
 70
32
  0
VERTEX
  5
4B034
  8
0
 62
7
 10
25.1602
 20
43.024399999999993
 30
0
 70
32
  0
VERTEX
  5
4B035
  8
0
 62
7
 10
25.1604
 20
43.025399999999991
 30
0
 70
32
  0
VERTEX
  5
4B036
  8
0
 62
7
 10
25.1606
 20
43.026299999999992
 30
0
 70
32
  0
VERTEX
  5
4B037
  8
0
 62
7
 10
25.1608
 20
43.02729999999999
 30
0
 70
32
  0
VERTEX
  5
4B038
  8
0
 62
7
 10
25.1609
 20
43.028199999999991
 30
0
 70
32
  0
VERTEX
  5
4B039
  8
0
 62
7
 10
25.1611
 20
43.0292
 30
0
 70
32
  0
VERTEX
  5
4B03A
  8
0
 62
7
 10
25.1612
 20
43.0302
 30
0
 70
32
  0
VERTEX
  5
4B03B
  8
0
 62
7
 10
25.1614
 20
43.0313
 30
0
 70
32
  0
VERTEX
  5
4B03C
  8
0
 62
7
 10
25.1614
 20
43.0323
 30
0
 70
32
  0
VERTEX
  5
4B03D
  8
0
 62
7
 10
25.1615
 20
43.0334
 30
0
 70
32
  0
VERTEX
  5
4B03E
  8
0
 62
7
 10
25.1616
 20
43.0345
 30
0
 70
32
  0
VERTEX
  5
4B03F
  8
0
 62
7
 10
25.1616
 20
43.0356
 30
0
 70
32
  0
VERTEX
  5
4B040
  8
0
 62
7
 10
25.1616
 20
43.0367
 30
0
 70
32
  0
VERTEX
  5
4B041
  8
0
 62
7
 10
25.1616
 20
43.03779999999999
 30
0
 70
32
  0
VERTEX
  5
4B042
  8
0
 62
7
 10
25.1616
 20
43.038899999999991
 30
0
 70
32
  0
VERTEX
  5
4B043
  8
0
 62
7
 10
25.1616
 20
43.04
 30
0
 70
32
  0
VERTEX
  5
4B044
  8
0
 62
7
 10
25.1615
 20
43.041
 30
0
 70
32
  0
VERTEX
  5
4B045
  8
0
 62
7
 10
25.1614
 20
43.0421
 30
0
 70
32
  0
VERTEX
  5
4B046
  8
0
 62
7
 10
25.1614
 20
43.0431
 30
0
 70
32
  0
VERTEX
  5
4B047
  8
0
 62
7
 10
25.1612
 20
43.044099999999993
 30
0
 70
32
  0
VERTEX
  5
4B048
  8
0
 62
7
 10
25.1611
 20
43.045099999999991
 30
0
 70
32
  0
VERTEX
  5
4B049
  8
0
 62
7
 10
25.1609
 20
43.045999999999992
 30
0
 70
32
  0
VERTEX
  5
4B04A
  8
0
 62
7
 10
25.1608
 20
43.04699999999999
 30
0
 70
32
  0
VERTEX
  5
4B04B
  8
0
 62
7
 10
25.1606
 20
43.047899999999991
 30
0
 70
32
  0
VERTEX
  5
4B04C
  8
0
 62
7
 10
25.1604
 20
43.048799999999993
 30
0
 70
32
  0
VERTEX
  5
4B04D
  8
0
 62
7
 10
25.1602
 20
43.049699999999987
 30
0
 70
32
  0
VERTEX
  5
4B04E
  8
0
 62
7
 10
25.1599
 20
43.0505
 30
0
 70
32
  0
VERTEX
  5
4B04F
  8
0
 62
7
 10
25.1597
 20
43.0514
 30
0
 70
32
  0
VERTEX
  5
4B050
  8
0
 62
7
 10
25.1594
 20
43.0522
 30
0
 70
32
  0
VERTEX
  5
4B051
  8
0
 62
7
 10
25.1591
 20
43.05299999999999
 30
0
 70
32
  0
VERTEX
  5
4B052
  8
0
 62
7
 10
25.1588
 20
43.0538
 30
0
 70
32
  0
VERTEX
  5
4B053
  8
0
 62
7
 10
25.1585
 20
43.0546
 30
0
 70
32
  0
VERTEX
  5
4B054
  8
0
 62
7
 10
25.1582
 20
43.055399999999992
 30
0
 70
32
  0
VERTEX
  5
4B055
  8
0
 62
7
 10
25.1579
 20
43.0561
 30
0
 70
32
  0
VERTEX
  5
4B056
  8
0
 62
7
 10
25.1575
 20
43.0569
 30
0
 70
32
  0
VERTEX
  5
4B057
  8
0
 62
7
 10
25.1571
 20
43.0576
 30
0
 70
32
  0
VERTEX
  5
4B058
  8
0
 62
7
 10
25.1568
 20
43.0583
 30
0
 70
32
  0
VERTEX
  5
4B059
  8
0
 62
7
 10
25.1564
 20
43.059
 30
0
 70
32
  0
VERTEX
  5
4B05A
  8
0
 62
7
 10
25.156
 20
43.0596
 30
0
 70
32
  0
VERTEX
  5
4B05B
  8
0
 62
7
 10
25.1556
 20
43.060299999999991
 30
0
 70
32
  0
VERTEX
  5
4B05C
  8
0
 62
7
 10
25.1551
 20
43.0609
 30
0
 70
32
  0
VERTEX
  5
4B05D
  8
0
 62
7
 10
25.1547
 20
43.0616
 30
0
 70
32
  0
VERTEX
  5
4B05E
  8
0
 62
7
 10
25.1543
 20
43.06219999999999
 30
0
 70
32
  0
VERTEX
  5
4B05F
  8
0
 62
7
 10
25.1538
 20
43.0628
 30
0
 70
32
  0
VERTEX
  5
4B060
  8
0
 62
7
 10
25.1534
 20
43.063299999999991
 30
0
 70
32
  0
VERTEX
  5
4B061
  8
0
 62
7
 10
25.1529
 20
43.06389999999999
 30
0
 70
32
  0
VERTEX
  5
4B062
  8
0
 62
7
 10
25.1524
 20
43.0645
 30
0
 70
32
  0
VERTEX
  5
4B063
  8
0
 62
7
 10
25.1519
 20
43.064999999999991
 30
0
 70
32
  0
VERTEX
  5
4B064
  8
0
 62
7
 10
25.1514
 20
43.0655
 30
0
 70
32
  0
VERTEX
  5
4B065
  8
0
 62
7
 10
25.1509
 20
43.066
 30
0
 70
32
  0
VERTEX
  5
4B066
  8
0
 62
7
 10
25.1504
 20
43.0665
 30
0
 70
32
  0
VERTEX
  5
4B067
  8
0
 62
7
 10
25.1499
 20
43.067
 30
0
 70
32
  0
VERTEX
  5
4B068
  8
0
 62
7
 10
25.1494
 20
43.0675
 30
0
 70
32
  0
VERTEX
  5
4B069
  8
0
 62
7
 10
25.1488
 20
43.0679
 30
0
 70
32
  0
VERTEX
  5
4B06A
  8
0
 62
7
 10
25.1483
 20
43.0684
 30
0
 70
32
  0
VERTEX
  5
4B06B
  8
0
 62
7
 10
25.1478
 20
43.0688
 30
0
 70
32
  0
VERTEX
  5
4B06C
  8
0
 62
7
 10
25.1472
 20
43.0692
 30
0
 70
32
  0
VERTEX
  5
4B06D
  8
0
 62
7
 10
25.1467
 20
43.0696
 30
0
 70
32
  0
VERTEX
  5
4B06E
  8
0
 62
7
 10
25.1461
 20
43.07
 30
0
 70
32
  0
VERTEX
  5
4B06F
  8
0
 62
7
 10
25.1456
 20
43.070399999999992
 30
0
 70
32
  0
VERTEX
  5
4B070
  8
0
 62
7
 10
25.145
 20
43.0708
 30
0
 70
32
  0
VERTEX
  5
4B071
  8
0
 62
7
 10
25.1444
 20
43.0712
 30
0
 70
32
  0
VERTEX
  5
4B072
  8
0
 62
7
 10
25.1439
 20
43.0715
 30
0
 70
32
  0
VERTEX
  5
4B073
  8
0
 62
7
 10
25.1433
 20
43.0718
 30
0
 70
32
  0
VERTEX
  5
4B074
  8
0
 62
7
 10
25.1427
 20
43.0722
 30
0
 70
32
  0
VERTEX
  5
4B075
  8
0
 62
7
 10
25.1422
 20
43.072499999999991
 30
0
 70
32
  0
VERTEX
  5
4B076
  8
0
 62
7
 10
25.1416
 20
43.0728
 30
0
 70
32
  0
VERTEX
  5
4B077
  8
0
 62
7
 10
25.141
 20
43.0731
 30
0
 70
32
  0
VERTEX
  5
4B078
  8
0
 62
7
 10
25.1404
 20
43.073399999999992
 30
0
 70
32
  0
VERTEX
  5
4B079
  8
0
 62
7
 10
25.1399
 20
43.0736
 30
0
 70
32
  0
VERTEX
  5
4B07A
  8
0
 62
7
 10
25.1393
 20
43.0739
 30
0
 70
32
  0
VERTEX
  5
4B07B
  8
0
 62
7
 10
25.1387
 20
43.07419999999999
 30
0
 70
32
  0
VERTEX
  5
4B07C
  8
0
 62
7
 10
25.1381
 20
43.07439999999999
 30
0
 70
32
  0
VERTEX
  5
4B07D
  8
0
 62
7
 10
25.1376
 20
43.0747
 30
0
 70
32
  0
VERTEX
  5
4B07E
  8
0
 62
7
 10
25.137
 20
43.0749
 30
0
 70
32
  0
VERTEX
  5
4B07F
  8
0
 62
7
 10
25.1364
 20
43.075099999999992
 30
0
 70
32
  0
VERTEX
  5
4B080
  8
0
 62
7
 10
25.1359
 20
43.075299999999991
 30
0
 70
32
  0
VERTEX
  5
4B081
  8
0
 62
7
 10
25.1353
 20
43.075499999999991
 30
0
 70
32
  0
VERTEX
  5
4B082
  8
0
 62
7
 10
25.1347
 20
43.0757
 30
0
 70
32
  0
VERTEX
  5
4B083
  8
0
 62
7
 10
25.1342
 20
43.0759
 30
0
 70
32
  0
VERTEX
  5
4B084
  8
0
 62
7
 10
25.1336
 20
43.07609999999999
 30
0
 70
32
  0
VERTEX
  5
4B085
  8
0
 62
7
 10
25.1331
 20
43.0762
 30
0
 70
32
  0
VERTEX
  5
4B086
  8
0
 62
7
 10
25.1326
 20
43.0764
 30
0
 70
32
  0
VERTEX
  5
4B087
  8
0
 62
7
 10
25.132
 20
43.0766
 30
0
 70
32
  0
VERTEX
  5
4B088
  8
0
 62
7
 10
25.1315
 20
43.0767
 30
0
 70
32
  0
VERTEX
  5
4B089
  8
0
 62
7
 10
25.131
 20
43.0768
 30
0
 70
32
  0
VERTEX
  5
4B08A
  8
0
 62
7
 10
25.1304
 20
43.076999999999991
 30
0
 70
32
  0
VERTEX
  5
4B08B
  8
0
 62
7
 10
25.1299
 20
43.0771
 30
0
 70
32
  0
VERTEX
  5
4B08C
  8
0
 62
7
 10
25.1294
 20
43.077199999999991
 30
0
 70
32
  0
VERTEX
  5
4B08D
  8
0
 62
7
 10
25.1289
 20
43.0773
 30
0
 70
32
  0
VERTEX
  5
4B08E
  8
0
 62
7
 10
25.1284
 20
43.07739999999999
 30
0
 70
32
  0
VERTEX
  5
4B08F
  8
0
 62
7
 10
25.1279
 20
43.0775
 30
0
 70
32
  0
VERTEX
  5
4B090
  8
0
 62
7
 10
25.1275
 20
43.0776
 30
0
 70
32
  0
VERTEX
  5
4B091
  8
0
 62
7
 10
25.127
 20
43.0777
 30
0
 70
32
  0
VERTEX
  5
4B092
  8
0
 62
7
 10
25.1265
 20
43.0778
 30
0
 70
32
  0
VERTEX
  5
4B093
  8
0
 62
7
 10
25.1261
 20
43.077899999999993
 30
0
 70
32
  0
VERTEX
  5
4B094
  8
0
 62
7
 10
25.1257
 20
43.078
 30
0
 70
32
  0
VERTEX
  5
4B095
  8
0
 62
7
 10
25.1252
 20
43.078
 30
0
 70
32
  0
VERTEX
  5
4B096
  8
0
 62
7
 10
25.1248
 20
43.078099999999992
 30
0
 70
32
  0
VERTEX
  5
4B097
  8
0
 62
7
 10
25.1244
 20
43.078099999999992
 30
0
 70
32
  0
VERTEX
  5
4B098
  8
0
 62
7
 10
25.124
 20
43.0782
 30
0
 70
32
  0
VERTEX
  5
4B099
  8
0
 62
7
 10
25.1236
 20
43.0782
 30
0
 70
32
  0
VERTEX
  5
4B09A
  8
0
 62
7
 10
25.1233
 20
43.0783
 30
0
 70
32
  0
VERTEX
  5
4B09B
  8
0
 62
7
 10
25.1229
 20
43.0783
 30
0
 70
32
  0
VERTEX
  5
4B09C
  8
0
 62
7
 10
25.1226
 20
43.0784
 30
0
 70
32
  0
VERTEX
  5
4B09D
  8
0
 62
7
 10
25.1222
 20
43.0784
 30
0
 70
32
  0
VERTEX
  5
4B09E
  8
0
 62
7
 10
25.1219
 20
43.0784
 30
0
 70
32
  0
VERTEX
  5
4B09F
  8
0
 62
7
 10
25.1216
 20
43.0785
 30
0
 70
32
  0
VERTEX
  5
4B0A0
  8
0
 62
7
 10
25.1213
 20
43.0785
 30
0
 70
32
  0
VERTEX
  5
4B0A1
  8
0
 62
7
 10
25.121
 20
43.0785
 30
0
 70
32
  0
VERTEX
  5
4B0A2
  8
0
 62
7
 10
25.1208
 20
43.0785
 30
0
 70
32
  0
VERTEX
  5
4B0A3
  8
0
 62
7
 10
25.1205
 20
43.0785
 30
0
 70
32
  0
VERTEX
  5
4B0A4
  8
0
 62
7
 10
25.1203
 20
43.0786
 30
0
 70
32
  0
VERTEX
  5
4B0A5
  8
0
 62
7
 10
25.1201
 20
43.0786
 30
0
 70
32
  0
VERTEX
  5
4B0A6
  8
0
 62
7
 10
25.1199
 20
43.0786
 30
0
 70
32
  0
VERTEX
  5
4B0A7
  8
0
 62
7
 10
25.1197
 20
43.0786
 30
0
 70
32
  0
VERTEX
  5
4B0A8
  8
0
 62
7
 10
25.1196
 20
43.0786
 30
0
 70
32
  0
VERTEX
  5
4B0A9
  8
0
 62
7
 10
25.1194
 20
43.0786
 30
0
 70
32
  0
VERTEX
  5
4B0AA
  8
0
 62
7
 10
25.1193
 20
43.0786
 30
0
 70
32
  0
VERTEX
  5
4B0AB
  8
0
 62
7
 10
25.1192
 20
43.0786
 30
0
 70
32
  0
VERTEX
  5
4B0AC
  8
0
 62
7
 10
25.1191
 20
43.0786
 30
0
 70
32
  0
VERTEX
  5
4B0AD
  8
0
 62
7
 10
25.119
 20
43.0786
 30
0
 70
32
  0
VERTEX
  5
4B0AE
  8
0
 62
7
 10
25.119
 20
43.0786
 30
0
 70
32
  0
VERTEX
  5
4B0AF
  8
0
 62
7
 10
25.1189
 20
43.0786
 30
0
 70
32
  0
VERTEX
  5
4B0B0
  8
0
 62
7
 10
25.1189
 20
43.0786
 30
0
 70
32
  0
SEQEND
  5
4B0B1
  8
0
  0
POLYLINE
  5
4A9F9
  8
0
 62
7
 66
1
 70
0
 10
0
 20
0
 30
0
  0
VERTEX
  5
598C7
  8
0
 62
7
 10
24.653156270887539
 20
43.926273720048293
 70
0
  0
VERTEX
  5
598C8
  8
0
 62
7
 10
24.695875454904641
 20
43.926273720048293
 70
0
  0
SEQEND
  5
598C9
  8
0
  0
POLYLINE
  5
4A9FD
  8
0
 62
7
 66
1
 70
0
 10
0
 20
0
 30
0
  0
VERTEX
  5
598CA
  8
0
 62
7
 10
24.653156270887539
 20
43.926273720048293
 70
0
  0
VERTEX
  5
598CB
  8
0
 62
7
 10
24.653156270887539
 20
43.926273720048293
 70
0
  0
SEQEND
  5
598CC
  8
0
  0
POLYLINE
  5
4AA01
  8
0
 62
7
 66
1
 70
0
 10
0
 20
0
 30
0
  0
VERTEX
  5
598CD
  8
0
 62
7
 10
22.19887024719554
 20
41.766543360345153
 70
0
  0
VERTEX
  5
598CE
  8
0
 62
7
 10
22.19887024719554
 20
41.766543360345153
 70
0
  0
SEQEND
  5
598CF
  8
0
  0
POLYLINE
  5
4AA05
  8
0
 62
7
 66
1
 70
0
 10
0
 20
0
 30
0
  0
VERTEX
  5
598D0
  8
0
 62
7
 10
22.19887024719554
 20
43.078607975902557
 70
0
  0
VERTEX
  5
598D1
  8
0
 62
7
 10
22.19887024719554
 20
43.078607975902557
 70
0
  0
SEQEND
  5
598D2
  8
0
  0
POLYLINE
  5
4AA09
  8
0
 62
7
 66
1
 70
0
 10
0
 20
0
 30
0
  0
VERTEX
  5
598D3
  8
0
 62
7
 10
25.245712694350519
 20
39.353942992024713
 70
0
  0
VERTEX
  5
598D4
  8
0
 62
7
 10
25.245712694350519
 20
39.353942992024713
 70
0
  0
SEQEND
  5
598D5
  8
0
  0
POLYLINE
  5
4AA0D
  8
0
 62
7
 66
1
 70
0
 10
0
 20
0
 30
0
  0
VERTEX
  5
598D6
  8
0
 62
7
 10
25.245712694350519
 20
39.353942992024713
 70
0
  0
VERTEX
  5
598D7
  8
0
 62
7
 10
25.245712694350519
 20
39.353942992024713
 70
0
  0
SEQEND
  5
598D8
  8
0
  0
POLYLINE
  5
4AA11
  8
0
 62
7
 66
1
 70
0
 10
0
 20
0
 30
0
  0
VERTEX
  5
598D9
  8
0
 62
7
 10
25.245712694350519
 20
39.353942992024713
 70
0
  0
VERTEX
  5
598DA
  8
0
 62
7
 10
25.245712694350519
 20
39.353942992024713
 70
0
  0
SEQEND
  5
598DB
  8
0
  0
POLYLINE
  5
4AA15
  8
0
 62
7
 66
1
 70
0
 10
0
 20
0
 30
0
  0
VERTEX
  5
598DC
  8
0
 62
7
 10
25.245712694350519
 20
39.353942992024713
 70
0
  0
VERTEX
  5
598DD
  8
0
 62
7
 10
25.245712694350519
 20
39.353942992024713
 70
0
  0
SEQEND
  5
598DE
  8
0
  0
POLYLINE
  5
4AA19
  8
0
 62
7
 66
1
 70
0
 10
0
 20
0
 30
0
  0
VERTEX
  5
598DF
  8
0
 62
7
 10
25.245712694350519
 20
39.353942992024713
 70
0
  0
VERTEX
  5
598E0
  8
0
 62
7
 10
25.245712694350519
 20
39.353942992024713
 70
0
  0
SEQEND
  5
598E1
  8
0
  0
POLYLINE
  5
4AA1D
  8
0
 62
7
 66
1
 70
0
 10
0
 20
0
 30
0
  0
VERTEX
  5
598E2
  8
0
 62
7
 10
25.245712694350519
 20
39.353942992024713
 70
0
  0
VERTEX
  5
598E3
  8
0
 62
7
 10
25.245712694350519
 20
39.353942992024713
 70
0
  0
SEQEND
  5
598E4
  8
0
  0
POLYLINE
  5
4B0B2
  8
0
 62
7
 66
1
 70
8
  0
VERTEX
  5
4B0B3
  8
0
 62
7
 10
63.724699999999991
 20
23.6069
 30
0
 70
32
  0
VERTEX
  5
4B0B4
  8
0
 62
7
 10
63.724699999999991
 20
23.6069
 30
0
 70
32
  0
VERTEX
  5
4B0B5
  8
0
 62
7
 10
63.724699999999991
 20
23.6069
 30
0
 70
32
  0
VERTEX
  5
4B0B6
  8
0
 62
7
 10
63.724699999999991
 20
23.6069
 30
0
 70
32
  0
VERTEX
  5
4B0B7
  8
0
 62
7
 10
63.724699999999991
 20
23.6069
 30
0
 70
32
  0
VERTEX
  5
4B0B8
  8
0
 62
7
 10
63.724699999999991
 20
23.6069
 30
0
 70
32
  0
VERTEX
  5
4B0B9
  8
0
 62
7
 10
63.724699999999991
 20
23.6069
 30
0
 70
32
  0
VERTEX
  5
4B0BA
  8
0
 62
7
 10
63.724699999999991
 20
23.6069
 30
0
 70
32
  0
VERTEX
  5
4B0BB
  8
0
 62
7
 10
63.724699999999991
 20
23.6069
 30
0
 70
32
  0
VERTEX
  5
4B0BC
  8
0
 62
7
 10
63.724699999999991
 20
23.6069
 30
0
 70
32
  0
VERTEX
  5
4B0BD
  8
0
 62
7
 10
63.724699999999991
 20
23.6069
 30
0
 70
32
  0
VERTEX
  5
4B0BE
  8
0
 62
7
 10
63.724699999999991
 20
23.6069
 30
0
 70
32
  0
VERTEX
  5
4B0BF
  8
0
 62
7
 10
63.724699999999991
 20
23.6069
 30
0
 70
32
  0
VERTEX
  5
4B0C0
  8
0
 62
7
 10
63.724699999999991
 20
23.6069
 30
0
 70
32
  0
VERTEX
  5
4B0C1
  8
0
 62
7
 10
63.724699999999991
 20
23.6069
 30
0
 70
32
  0
VERTEX
  5
4B0C2
  8
0
 62
7
 10
63.724699999999991
 20
23.6069
 30
0
 70
32
  0
VERTEX
  5
4B0C3
  8
0
 62
7
 10
63.724699999999991
 20
23.6069
 30
0
 70
32
  0
VERTEX
  5
4B0C4
  8
0
 62
7
 10
63.724699999999991
 20
23.6069
 30
0
 70
32
  0
VERTEX
  5
4B0C5
  8
0
 62
7
 10
63.724699999999991
 20
23.6069
 30
0
 70
32
  0
VERTEX
  5
4B0C6
  8
0
 62
7
 10
63.724699999999991
 20
23.6069
 30
0
 70
32
  0
VERTEX
  5
4B0C7
  8
0
 62
7
 10
63.724699999999991
 20
23.6069
 30
0
 70
32
  0
VERTEX
  5
4B0C8
  8
0
 62
7
 10
63.724699999999991
 20
23.6069
 30
0
 70
32
  0
VERTEX
  5
4B0C9
  8
0
 62
7
 10
63.724699999999991
 20
23.6069
 30
0
 70
32
  0
VERTEX
  5
4B0CA
  8
0
 62
7
 10
63.724699999999991
 20
23.6069
 30
0
 70
32
  0
VERTEX
  5
4B0CB
  8
0
 62
7
 10
63.724699999999991
 20
23.6069
 30
0
 70
32
  0
VERTEX
  5
4B0CC
  8
0
 62
7
 10
63.724699999999991
 20
23.6069
 30
0
 70
32
  0
VERTEX
  5
4B0CD
  8
0
 62
7
 10
63.724699999999991
 20
23.6069
 30
0
 70
32
  0
VERTEX
  5
4B0CE
  8
0
 62
7
 10
63.724699999999991
 20
23.6069
 30
0
 70
32
  0
VERTEX
  5
4B0CF
  8
0
 62
7
 10
63.724699999999991
 20
23.6069
 30
0
 70
32
  0
VERTEX
  5
4B0D0
  8
0
 62
7
 10
63.724699999999991
 20
23.6069
 30
0
 70
32
  0
VERTEX
  5
4B0D1
  8
0
 62
7
 10
63.724699999999991
 20
23.6069
 30
0
 70
32
  0
VERTEX
  5
4B0D2
  8
0
 62
7
 10
63.724699999999991
 20
23.6069
 30
0
 70
32
  0
VERTEX
  5
4B0D3
  8
0
 62
7
 10
63.724699999999991
 20
23.6069
 30
0
 70
32
  0
VERTEX
  5
4B0D4
  8
0
 62
7
 10
63.724699999999991
 20
23.6069
 30
0
 70
32
  0
VERTEX
  5
4B0D5
  8
0
 62
7
 10
63.724699999999991
 20
23.6069
 30
0
 70
32
  0
VERTEX
  5
4B0D6
  8
0
 62
7
 10
63.724699999999991
 20
23.6069
 30
0
 70
32
  0
VERTEX
  5
4B0D7
  8
0
 62
7
 10
63.724699999999991
 20
23.6069
 30
0
 70
32
  0
VERTEX
  5
4B0D8
  8
0
 62
7
 10
63.724699999999991
 20
23.6069
 30
0
 70
32
  0
VERTEX
  5
4B0D9
  8
0
 62
7
 10
63.724699999999991
 20
23.6069
 30
0
 70
32
  0
VERTEX
  5
4B0DA
  8
0
 62
7
 10
63.724699999999991
 20
23.6069
 30
0
 70
32
  0
VERTEX
  5
4B0DB
  8
0
 62
7
 10
63.724699999999991
 20
23.6069
 30
0
 70
32
  0
VERTEX
  5
4B0DC
  8
0
 62
7
 10
63.724699999999991
 20
23.6069
 30
0
 70
32
  0
VERTEX
  5
4B0DD
  8
0
 62
7
 10
63.724699999999991
 20
23.6069
 30
0
 70
32
  0
VERTEX
  5
4B0DE
  8
0
 62
7
 10
63.724699999999991
 20
23.6069
 30
0
 70
32
  0
VERTEX
  5
4B0DF
  8
0
 62
7
 10
63.724699999999991
 20
23.6069
 30
0
 70
32
  0
VERTEX
  5
4B0E0
  8
0
 62
7
 10
63.724699999999991
 20
23.6069
 30
0
 70
32
  0
VERTEX
  5
4B0E1
  8
0
 62
7
 10
63.724699999999991
 20
23.6069
 30
0
 70
32
  0
VERTEX
  5
4B0E2
  8
0
 62
7
 10
63.724699999999991
 20
23.6069
 30
0
 70
32
  0
VERTEX
  5
4B0E3
  8
0
 62
7
 10
63.724699999999991
 20
23.6069
 30
0
 70
32
  0
VERTEX
  5
4B0E4
  8
0
 62
7
 10
63.724699999999991
 20
23.6069
 30
0
 70
32
  0
VERTEX
  5
4B0E5
  8
0
 62
7
 10
63.724699999999991
 20
23.6069
 30
0
 70
32
  0
VERTEX
  5
4B0E6
  8
0
 62
7
 10
63.724699999999991
 20
23.6069
 30
0
 70
32
  0
VERTEX
  5
4B0E7
  8
0
 62
7
 10
63.724699999999991
 20
23.6069
 30
0
 70
32
  0
VERTEX
  5
4B0E8
  8
0
 62
7
 10
63.724699999999991
 20
23.6069
 30
0
 70
32
  0
VERTEX
  5
4B0E9
  8
0
 62
7
 10
63.724699999999991
 20
23.6069
 30
0
 70
32
  0
VERTEX
  5
4B0EA
  8
0
 62
7
 10
63.724699999999991
 20
23.6069
 30
0
 70
32
  0
VERTEX
  5
4B0EB
  8
0
 62
7
 10
63.724699999999991
 20
23.6069
 30
0
 70
32
  0
VERTEX
  5
4B0EC
  8
0
 62
7
 10
63.724699999999991
 20
23.6069
 30
0
 70
32
  0
VERTEX
  5
4B0ED
  8
0
 62
7
 10
63.724699999999991
 20
23.6069
 30
0
 70
32
  0
VERTEX
  5
4B0EE
  8
0
 62
7
 10
63.724699999999991
 20
23.6069
 30
0
 70
32
  0
VERTEX
  5
4B0EF
  8
0
 62
7
 10
63.724699999999991
 20
23.6069
 30
0
 70
32
  0
VERTEX
  5
4B0F0
  8
0
 62
7
 10
63.724699999999991
 20
23.6069
 30
0
 70
32
  0
VERTEX
  5
4B0F1
  8
0
 62
7
 10
63.724699999999991
 20
23.6069
 30
0
 70
32
  0
VERTEX
  5
4B0F2
  8
0
 62
7
 10
63.724699999999991
 20
23.6069
 30
0
 70
32
  0
VERTEX
  5
4B0F3
  8
0
 62
7
 10
63.724699999999991
 20
23.6069
 30
0
 70
32
  0
VERTEX
  5
4B0F4
  8
0
 62
7
 10
63.724699999999991
 20
23.6069
 30
0
 70
32
  0
VERTEX
  5
4B0F5
  8
0
 62
7
 10
63.724699999999991
 20
23.6069
 30
0
 70
32
  0
VERTEX
  5
4B0F6
  8
0
 62
7
 10
63.724699999999991
 20
23.6069
 30
0
 70
32
  0
VERTEX
  5
4B0F7
  8
0
 62
7
 10
63.724699999999991
 20
23.6069
 30
0
 70
32
  0
VERTEX
  5
4B0F8
  8
0
 62
7
 10
63.724699999999991
 20
23.6069
 30
0
 70
32
  0
VERTEX
  5
4B0F9
  8
0
 62
7
 10
63.724699999999991
 20
23.6069
 30
0
 70
32
  0
VERTEX
  5
4B0FA
  8
0
 62
7
 10
63.724699999999991
 20
23.6069
 30
0
 70
32
  0
VERTEX
  5
4B0FB
  8
0
 62
7
 10
63.724699999999991
 20
23.6069
 30
0
 70
32
  0
VERTEX
  5
4B0FC
  8
0
 62
7
 10
63.724699999999991
 20
23.6069
 30
0
 70
32
  0
VERTEX
  5
4B0FD
  8
0
 62
7
 10
63.724699999999991
 20
23.6069
 30
0
 70
32
  0
VERTEX
  5
4B0FE
  8
0
 62
7
 10
63.724699999999991
 20
23.6069
 30
0
 70
32
  0
VERTEX
  5
4B0FF
  8
0
 62
7
 10
63.724699999999991
 20
23.6069
 30
0
 70
32
  0
VERTEX
  5
4B100
  8
0
 62
7
 10
63.724699999999991
 20
23.6069
 30
0
 70
32
  0
VERTEX
  5
4B101
  8
0
 62
7
 10
63.724699999999991
 20
23.6069
 30
0
 70
32
  0
VERTEX
  5
4B102
  8
0
 62
7
 10
63.724699999999991
 20
23.6069
 30
0
 70
32
  0
VERTEX
  5
4B103
  8
0
 62
7
 10
63.724699999999991
 20
23.6069
 30
0
 70
32
  0
VERTEX
  5
4B104
  8
0
 62
7
 10
63.724699999999991
 20
23.6069
 30
0
 70
32
  0
VERTEX
  5
4B105
  8
0
 62
7
 10
63.724699999999991
 20
23.6069
 30
0
 70
32
  0
VERTEX
  5
4B106
  8
0
 62
7
 10
63.724699999999991
 20
23.6069
 30
0
 70
32
  0
VERTEX
  5
4B107
  8
0
 62
7
 10
63.724699999999991
 20
23.6069
 30
0
 70
32
  0
VERTEX
  5
4B108
  8
0
 62
7
 10
63.724699999999991
 20
23.6069
 30
0
 70
32
  0
VERTEX
  5
4B109
  8
0
 62
7
 10
63.724699999999991
 20
23.6069
 30
0
 70
32
  0
VERTEX
  5
4B10A
  8
0
 62
7
 10
63.724699999999991
 20
23.6069
 30
0
 70
32
  0
VERTEX
  5
4B10B
  8
0
 62
7
 10
63.724699999999991
 20
23.6069
 30
0
 70
32
  0
VERTEX
  5
4B10C
  8
0
 62
7
 10
63.724699999999991
 20
23.6069
 30
0
 70
32
  0
VERTEX
  5
4B10D
  8
0
 62
7
 10
63.724699999999991
 20
23.6069
 30
0
 70
32
  0
VERTEX
  5
4B10E
  8
0
 62
7
 10
63.724699999999991
 20
23.6069
 30
0
 70
32
  0
VERTEX
  5
4B10F
  8
0
 62
7
 10
63.724699999999991
 20
23.6069
 30
0
 70
32
  0
VERTEX
  5
4B110
  8
0
 62
7
 10
63.724699999999991
 20
23.6069
 30
0
 70
32
  0
VERTEX
  5
4B111
  8
0
 62
7
 10
63.724699999999991
 20
23.6069
 30
0
 70
32
  0
VERTEX
  5
4B112
  8
0
 62
7
 10
63.724699999999991
 20
23.6069
 30
0
 70
32
  0
VERTEX
  5
4B113
  8
0
 62
7
 10
63.724699999999991
 20
23.6069
 30
0
 70
32
  0
VERTEX
  5
4B114
  8
0
 62
7
 10
63.724699999999991
 20
23.6069
 30
0
 70
32
  0
VERTEX
  5
4B115
  8
0
 62
7
 10
63.724699999999991
 20
23.6069
 30
0
 70
32
  0
VERTEX
  5
4B116
  8
0
 62
7
 10
63.724699999999991
 20
23.6069
 30
0
 70
32
  0
VERTEX
  5
4B117
  8
0
 62
7
 10
63.724699999999991
 20
23.6069
 30
0
 70
32
  0
VERTEX
  5
4B118
  8
0
 62
7
 10
63.724699999999991
 20
23.6069
 30
0
 70
32
  0
VERTEX
  5
4B119
  8
0
 62
7
 10
63.724699999999991
 20
23.6069
 30
0
 70
32
  0
VERTEX
  5
4B11A
  8
0
 62
7
 10
63.724699999999991
 20
23.6069
 30
0
 70
32
  0
VERTEX
  5
4B11B
  8
0
 62
7
 10
63.724699999999991
 20
23.6069
 30
0
 70
32
  0
VERTEX
  5
4B11C
  8
0
 62
7
 10
63.724699999999991
 20
23.6069
 30
0
 70
32
  0
VERTEX
  5
4B11D
  8
0
 62
7
 10
63.724699999999991
 20
23.6069
 30
0
 70
32
  0
VERTEX
  5
4B11E
  8
0
 62
7
 10
63.724699999999991
 20
23.6069
 30
0
 70
32
  0
VERTEX
  5
4B11F
  8
0
 62
7
 10
63.724699999999991
 20
23.6069
 30
0
 70
32
  0
VERTEX
  5
4B120
  8
0
 62
7
 10
63.724699999999991
 20
23.6069
 30
0
 70
32
  0
VERTEX
  5
4B121
  8
0
 62
7
 10
63.724699999999991
 20
23.6069
 30
0
 70
32
  0
VERTEX
  5
4B122
  8
0
 62
7
 10
63.724699999999991
 20
23.6069
 30
0
 70
32
  0
VERTEX
  5
4B123
  8
0
 62
7
 10
63.7241
 20
23.6069
 30
0
 70
32
  0
VERTEX
  5
4B124
  8
0
 62
7
 10
63.723
 20
23.6069
 30
0
 70
32
  0
VERTEX
  5
4B125
  8
0
 62
7
 10
63.721899999999991
 20
23.6069
 30
0
 70
32
  0
VERTEX
  5
4B126
  8
0
 62
7
 10
63.7208
 20
23.6069
 30
0
 70
32
  0
VERTEX
  5
4B127
  8
0
 62
7
 10
63.71970000000001
 20
23.6069
 30
0
 70
32
  0
VERTEX
  5
4B128
  8
0
 62
7
 10
63.7187
 20
23.6069
 30
0
 70
32
  0
VERTEX
  5
4B129
  8
0
 62
7
 10
63.7176
 20
23.6069
 30
0
 70
32
  0
VERTEX
  5
4B12A
  8
0
 62
7
 10
63.7166
 20
23.6069
 30
0
 70
32
  0
VERTEX
  5
4B12B
  8
0
 62
7
 10
63.7156
 20
23.6069
 30
0
 70
32
  0
VERTEX
  5
4B12C
  8
0
 62
7
 10
63.7147
 20
23.6069
 30
0
 70
32
  0
VERTEX
  5
4B12D
  8
0
 62
7
 10
63.7137
 20
23.6069
 30
0
 70
32
  0
VERTEX
  5
4B12E
  8
0
 62
7
 10
63.7128
 20
23.6069
 30
0
 70
32
  0
VERTEX
  5
4B12F
  8
0
 62
7
 10
63.7119
 20
23.6069
 30
0
 70
32
  0
VERTEX
  5
4B130
  8
0
 62
7
 10
63.711
 20
23.6069
 30
0
 70
32
  0
VERTEX
  5
4B131
  8
0
 62
7
 10
63.7101
 20
23.6069
 30
0
 70
32
  0
VERTEX
  5
4B132
  8
0
 62
7
 10
63.7092
 20
23.6069
 30
0
 70
32
  0
VERTEX
  5
4B133
  8
0
 62
7
 10
63.7084
 20
23.6069
 30
0
 70
32
  0
VERTEX
  5
4B134
  8
0
 62
7
 10
63.7076
 20
23.6069
 30
0
 70
32
  0
VERTEX
  5
4B135
  8
0
 62
7
 10
63.7067
 20
23.6069
 30
0
 70
32
  0
VERTEX
  5
4B136
  8
0
 62
7
 10
63.706
 20
23.6069
 30
0
 70
32
  0
VERTEX
  5
4B137
  8
0
 62
7
 10
63.705199999999991
 20
23.6069
 30
0
 70
32
  0
VERTEX
  5
4B138
  8
0
 62
7
 10
63.7044
 20
23.6069
 30
0
 70
32
  0
VERTEX
  5
4B139
  8
0
 62
7
 10
63.7037
 20
23.6069
 30
0
 70
32
  0
VERTEX
  5
4B13A
  8
0
 62
7
 10
63.703
 20
23.6069
 30
0
 70
32
  0
VERTEX
  5
4B13B
  8
0
 62
7
 10
63.702199999999991
 20
23.6069
 30
0
 70
32
  0
VERTEX
  5
4B13C
  8
0
 62
7
 10
63.7016
 20
23.6069
 30
0
 70
32
  0
VERTEX
  5
4B13D
  8
0
 62
7
 10
63.7009
 20
23.6069
 30
0
 70
32
  0
VERTEX
  5
4B13E
  8
0
 62
7
 10
63.7002
 20
23.6069
 30
0
 70
32
  0
VERTEX
  5
4B13F
  8
0
 62
7
 10
63.69959999999999
 20
23.6069
 30
0
 70
32
  0
VERTEX
  5
4B140
  8
0
 62
7
 10
63.6989
 20
23.6069
 30
0
 70
32
  0
VERTEX
  5
4B141
  8
0
 62
7
 10
63.6983
 20
23.6069
 30
0
 70
32
  0
VERTEX
  5
4B142
  8
0
 62
7
 10
63.69769999999999
 20
23.6069
 30
0
 70
32
  0
VERTEX
  5
4B143
  8
0
 62
7
 10
63.6971
 20
23.6069
 30
0
 70
32
  0
VERTEX
  5
4B144
  8
0
 62
7
 10
63.696599999999989
 20
23.6069
 30
0
 70
32
  0
VERTEX
  5
4B145
  8
0
 62
7
 10
63.696
 20
23.6069
 30
0
 70
32
  0
VERTEX
  5
4B146
  8
0
 62
7
 10
63.6955
 20
23.6069
 30
0
 70
32
  0
VERTEX
  5
4B147
  8
0
 62
7
 10
63.695
 20
23.6069
 30
0
 70
32
  0
VERTEX
  5
4B148
  8
0
 62
7
 10
63.6944
 20
23.6069
 30
0
 70
32
  0
VERTEX
  5
4B149
  8
0
 62
7
 10
63.6939
 20
23.6069
 30
0
 70
32
  0
VERTEX
  5
4B14A
  8
0
 62
7
 10
63.6935
 20
23.6069
 30
0
 70
32
  0
VERTEX
  5
4B14B
  8
0
 62
7
 10
63.692999999999991
 20
23.6069
 30
0
 70
32
  0
VERTEX
  5
4B14C
  8
0
 62
7
 10
63.6925
 20
23.6069
 30
0
 70
32
  0
VERTEX
  5
4B14D
  8
0
 62
7
 10
63.6921
 20
23.6069
 30
0
 70
32
  0
VERTEX
  5
4B14E
  8
0
 62
7
 10
63.6916
 20
23.6069
 30
0
 70
32
  0
VERTEX
  5
4B14F
  8
0
 62
7
 10
63.6912
 20
23.6069
 30
0
 70
32
  0
VERTEX
  5
4B150
  8
0
 62
7
 10
63.6908
 20
23.6069
 30
0
 70
32
  0
VERTEX
  5
4B151
  8
0
 62
7
 10
63.6904
 20
23.6069
 30
0
 70
32
  0
VERTEX
  5
4B152
  8
0
 62
7
 10
63.689999999999991
 20
23.6069
 30
0
 70
32
  0
VERTEX
  5
4B153
  8
0
 62
7
 10
63.6897
 20
23.6069
 30
0
 70
32
  0
VERTEX
  5
4B154
  8
0
 62
7
 10
63.6893
 20
23.6069
 30
0
 70
32
  0
VERTEX
  5
4B155
  8
0
 62
7
 10
63.6889
 20
23.6069
 30
0
 70
32
  0
VERTEX
  5
4B156
  8
0
 62
7
 10
63.6886
 20
23.6069
 30
0
 70
32
  0
VERTEX
  5
4B157
  8
0
 62
7
 10
63.688299999999991
 20
23.6069
 30
0
 70
32
  0
VERTEX
  5
4B158
  8
0
 62
7
 10
63.688
 20
23.6069
 30
0
 70
32
  0
VERTEX
  5
4B159
  8
0
 62
7
 10
63.6877
 20
23.6069
 30
0
 70
32
  0
VERTEX
  5
4B15A
  8
0
 62
7
 10
63.68739999999999
 20
23.6069
 30
0
 70
32
  0
VERTEX
  5
4B15B
  8
0
 62
7
 10
63.6871
 20
23.6069
 30
0
 70
32
  0
VERTEX
  5
4B15C
  8
0
 62
7
 10
63.6868
 20
23.6069
 30
0
 70
32
  0
VERTEX
  5
4B15D
  8
0
 62
7
 10
63.6865
 20
23.6069
 30
0
 70
32
  0
VERTEX
  5
4B15E
  8
0
 62
7
 10
63.6863
 20
23.6069
 30
0
 70
32
  0
VERTEX
  5
4B15F
  8
0
 62
7
 10
63.686
 20
23.6069
 30
0
 70
32
  0
VERTEX
  5
4B160
  8
0
 62
7
 10
63.6858
 20
23.6069
 30
0
 70
32
  0
VERTEX
  5
4B161
  8
0
 62
7
 10
63.6856
 20
23.6069
 30
0
 70
32
  0
VERTEX
  5
4B162
  8
0
 62
7
 10
63.6854
 20
23.6069
 30
0
 70
32
  0
VERTEX
  5
4B163
  8
0
 62
7
 10
63.6852
 20
23.6069
 30
0
 70
32
  0
VERTEX
  5
4B164
  8
0
 62
7
 10
63.685
 20
23.6069
 30
0
 70
32
  0
VERTEX
  5
4B165
  8
0
 62
7
 10
63.6848
 20
23.6069
 30
0
 70
32
  0
VERTEX
  5
4B166
  8
0
 62
7
 10
63.6846
 20
23.6069
 30
0
 70
32
  0
VERTEX
  5
4B167
  8
0
 62
7
 10
63.684399999999989
 20
23.6069
 30
0
 70
32
  0
VERTEX
  5
4B168
  8
0
 62
7
 10
63.6842
 20
23.6069
 30
0
 70
32
  0
VERTEX
  5
4B169
  8
0
 62
7
 10
63.6841
 20
23.6069
 30
0
 70
32
  0
VERTEX
  5
4B16A
  8
0
 62
7
 10
63.6839
 20
23.6069
 30
0
 70
32
  0
VERTEX
  5
4B16B
  8
0
 62
7
 10
63.6838
 20
23.6069
 30
0
 70
32
  0
VERTEX
  5
4B16C
  8
0
 62
7
 10
63.6836
 20
23.6069
 30
0
 70
32
  0
VERTEX
  5
4B16D
  8
0
 62
7
 10
63.6835
 20
23.6069
 30
0
 70
32
  0
VERTEX
  5
4B16E
  8
0
 62
7
 10
63.683399999999992
 20
23.6069
 30
0
 70
32
  0
VERTEX
  5
4B16F
  8
0
 62
7
 10
63.6833
 20
23.6069
 30
0
 70
32
  0
VERTEX
  5
4B170
  8
0
 62
7
 10
63.6832
 20
23.6069
 30
0
 70
32
  0
VERTEX
  5
4B171
  8
0
 62
7
 10
63.68310000000001
 20
23.6069
 30
0
 70
32
  0
VERTEX
  5
4B172
  8
0
 62
7
 10
63.683
 20
23.6069
 30
0
 70
32
  0
VERTEX
  5
4B173
  8
0
 62
7
 10
63.6829
 20
23.6069
 30
0
 70
32
  0
VERTEX
  5
4B174
  8
0
 62
7
 10
63.6828
 20
23.6069
 30
0
 70
32
  0
VERTEX
  5
4B175
  8
0
 62
7
 10
63.68269999999999
 20
23.6069
 30
0
 70
32
  0
VERTEX
  5
4B176
  8
0
 62
7
 10
63.6826
 20
23.6069
 30
0
 70
32
  0
VERTEX
  5
4B177
  8
0
 62
7
 10
63.6826
 20
23.6069
 30
0
 70
32
  0
VERTEX
  5
4B178
  8
0
 62
7
 10
63.68249999999999
 20
23.6069
 30
0
 70
32
  0
VERTEX
  5
4B179
  8
0
 62
7
 10
63.6824
 20
23.6069
 30
0
 70
32
  0
VERTEX
  5
4B17A
  8
0
 62
7
 10
63.6824
 20
23.6069
 30
0
 70
32
  0
VERTEX
  5
4B17B
  8
0
 62
7
 10
63.6823
 20
23.6069
 30
0
 70
32
  0
VERTEX
  5
4B17C
  8
0
 62
7
 10
63.6823
 20
23.6069
 30
0
 70
32
  0
VERTEX
  5
4B17D
  8
0
 62
7
 10
63.6822
 20
23.6069
 30
0
 70
32
  0
VERTEX
  5
4B17E
  8
0
 62
7
 10
63.6822
 20
23.6069
 30
0
 70
32
  0
VERTEX
  5
4B17F
  8
0
 62
7
 10
63.6822
 20
23.6069
 30
0
 70
32
  0
VERTEX
  5
4B180
  8
0
 62
7
 10
63.6821
 20
23.6069
 30
0
 70
32
  0
VERTEX
  5
4B181
  8
0
 62
7
 10
63.6821
 20
23.6069
 30
0
 70
32
  0
VERTEX
  5
4B182
  8
0
 62
7
 10
63.6821
 20
23.6069
 30
0
 70
32
  0
VERTEX
  5
4B183
  8
0
 62
7
 10
63.6821
 20
23.6069
 30
0
 70
32
  0
VERTEX
  5
4B184
  8
0
 62
7
 10
63.682
 20
23.6069
 30
0
 70
32
  0
VERTEX
  5
4B185
  8
0
 62
7
 10
63.682
 20
23.6069
 30
0
 70
32
  0
VERTEX
  5
4B186
  8
0
 62
7
 10
63.682
 20
23.6069
 30
0
 70
32
  0
VERTEX
  5
4B187
  8
0
 62
7
 10
63.682
 20
23.6069
 30
0
 70
32
  0
VERTEX
  5
4B188
  8
0
 62
7
 10
63.682
 20
23.6069
 30
0
 70
32
  0
VERTEX
  5
4B189
  8
0
 62
7
 10
63.682
 20
23.6069
 30
0
 70
32
  0
VERTEX
  5
4B18A
  8
0
 62
7
 10
63.682
 20
23.6069
 30
0
 70
32
  0
VERTEX
  5
4B18B
  8
0
 62
7
 10
63.682
 20
23.6069
 30
0
 70
32
  0
VERTEX
  5
4B18C
  8
0
 62
7
 10
63.682
 20
23.6069
 30
0
 70
32
  0
VERTEX
  5
4B18D
  8
0
 62
7
 10
63.682
 20
23.6069
 30
0
 70
32
  0
VERTEX
  5
4B18E
  8
0
 62
7
 10
63.682
 20
23.6069
 30
0
 70
32
  0
VERTEX
  5
4B18F
  8
0
 62
7
 10
63.682
 20
23.6069
 30
0
 70
32
  0
VERTEX
  5
4B190
  8
0
 62
7
 10
63.682
 20
23.6069
 30
0
 70
32
  0
VERTEX
  5
4B191
  8
0
 62
7
 10
63.682
 20
23.6069
 30
0
 70
32
  0
VERTEX
  5
4B192
  8
0
 62
7
 10
63.682
 20
23.6069
 30
0
 70
32
  0
SEQEND
  5
4B193
  8
0
  0
POLYLINE
  5
4AA22
  8
0
 62
7
 66
1
 70
0
 10
0
 20
0
 30
0
  0
VERTEX
  5
598E5
  8
0
 62
7
 10
57.374673189790492
 20
23.184042822456089
 70
0
  0
VERTEX
  5
598E6
  8
0
 62
7
 10
57.374673189790492
 20
23.184042822456089
 70
0
  0
SEQEND
  5
598E7
  8
0
  0
POLYLINE
  5
4AA26
  8
0
 62
7
 66
1
 70
0
 10
0
 20
0
 30
0
  0
VERTEX
  5
598E8
  8
0
 62
7
 10
57.374673189790492
 20
23.184042822456089
 70
0
  0
VERTEX
  5
598E9
  8
0
 62
7
 10
57.374673189790492
 20
23.184042822456089
 70
0
  0
SEQEND
  5
598EA
  8
0
  0
POLYLINE
  5
4AA2A
  8
0
 62
7
 66
1
 70
0
 10
0
 20
0
 30
0
  0
VERTEX
  5
598EB
  8
0
 62
7
 10
57.374673189790492
 20
23.184042822456089
 70
0
  0
VERTEX
  5
598EC
  8
0
 62
7
 10
57.374673189790492
 20
23.184042822456089
 70
0
  0
SEQEND
  5
598ED
  8
0
  0
POLYLINE
  5
4AA2E
  8
0
 62
7
 66
1
 70
0
 10
0
 20
0
 30
0
  0
VERTEX
  5
598EE
  8
0
 62
7
 10
57.374673189790492
 20
23.184042822456089
 70
0
  0
VERTEX
  5
598EF
  8
0
 62
7
 10
57.374673189790492
 20
23.184042822456089
 70
0
  0
SEQEND
  5
598F0
  8
0
  0
POLYLINE
  5
4AA32
  8
0
 62
7
 66
1
 70
0
 10
0
 20
0
 30
0
  0
VERTEX
  5
598F1
  8
0
 62
7
 10
57.374673189790492
 20
23.184042822456089
 70
0
  0
VERTEX
  5
598F2
  8
0
 62
7
 10
57.374673189790492
 20
23.184042822456089
 70
0
  0
SEQEND
  5
598F3
  8
0
  0
POLYLINE
  5
4AA36
  8
0
 62
7
 66
1
 70
0
 10
0
 20
0
 30
0
  0
VERTEX
  5
598F4
  8
0
 62
7
 10
57.374673189790492
 20
23.184042822456089
 70
0
  0
VERTEX
  5
598F5
  8
0
 62
7
 10
57.374673189790492
 20
23.184042822456089
 70
0
  0
SEQEND
  5
598F6
  8
0
  0
POLYLINE
  5
4AA3A
  8
0
 62
7
 66
1
 70
0
 10
0
 20
0
 30
0
  0
VERTEX
  5
598F7
  8
0
 62
7
 10
64.189072059614659
 20
22.59131414421887
 70
0
  0
VERTEX
  5
598F8
  8
0
 62
7
 10
64.189072059614659
 20
22.760640587318878
 70
0
  0
SEQEND
  5
598F9
  8
0
  0
POLYLINE
  5
4AA3E
  8
0
 62
7
 66
1
 70
0
 10
0
 20
0
 30
0
  0
VERTEX
  5
598FA
  8
0
 62
7
 10
64.189072059614659
 20
22.507426069153009
 70
0
  0
VERTEX
  5
598FB
  8
0
 62
7
 10
64.189072059614659
 20
22.507426069153009
 70
0
  0
VERTEX
  5
598FC
  8
0
 62
7
 10
64.10501172977456
 20
22.464706885135929
 70
0
  0
VERTEX
  5
598FD
  8
0
 62
7
 10
64.0622925457575
 20
22.3803020457473
 70
0
  0
VERTEX
  5
598FE
  8
0
 62
7
 10
63.978232215917387
 20
22.295035932487369
 70
0
  0
VERTEX
  5
598FF
  8
0
 62
7
 10
63.935513031900292
 20
22.21097560264727
 70
0
  0
VERTEX
  5
59900
  8
0
 62
7
 10
63.851452702060172
 20
22.125709489387329
 70
0
  0
VERTEX
  5
59901
  8
0
 62
7
 10
63.80873351804307
 20
22.08402383401582
 70
0
  0
VERTEX
  5
59902
  8
0
 62
7
 10
63.724673188202971
 20
21.99875772075589
 70
0
  0
VERTEX
  5
59903
  8
0
 62
7
 10
63.68195400418589
 20
21.956038536738792
 70
0
  0
VERTEX
  5
59904
  8
0
 62
7
 10
63.639234820168781
 20
21.956038536738792
 70
0
  0
VERTEX
  5
59905
  8
0
 62
7
 10
63.5965156361517
 20
21.871978206898689
 70
0
  0
VERTEX
  5
59906
  8
0
 62
7
 10
63.55517449032871
 20
21.871978206898689
 70
0
  0
VERTEX
  5
59907
  8
0
 62
7
 10
63.5124553063116
 20
21.82925902288159
 70
0
  0
VERTEX
  5
59908
  8
0
 62
7
 10
63.428394976471509
 20
21.745370947815761
 70
0
  0
VERTEX
  5
59909
  8
0
 62
7
 10
63.342956608437291
 20
21.70230725425014
 70
0
  0
VERTEX
  5
5990A
  8
0
 62
7
 10
63.3002374244202
 20
21.659588070233038
 70
0
  0
VERTEX
  5
5990B
  8
0
 62
7
 10
63.2161770945801
 20
21.618419179184311
 70
0
  0
VERTEX
  5
5990C
  8
0
 62
7
 10
63.132116764740012
 20
21.575699995167209
 70
0
  0
VERTEX
  5
5990D
  8
0
 62
7
 10
63.089397580722931
 20
21.575699995167209
 70
0
  0
VERTEX
  5
5990E
  8
0
 62
7
 10
63.046678396705829
 20
21.532980811150111
 70
0
  0
VERTEX
  5
5990F
  8
0
 62
7
 10
62.962618066865723
 20
21.49163966532711
 70
0
  0
VERTEX
  5
59910
  8
0
 62
7
 10
62.919898882848628
 20
21.449092736084278
 70
0
  0
VERTEX
  5
59911
  8
0
 62
7
 10
62.793119368991427
 20
21.449092736084278
 70
0
  0
VERTEX
  5
59912
  8
0
 62
7
 10
62.75040018497431
 20
21.40637355206718
 70
0
  0
VERTEX
  5
59913
  8
0
 62
7
 10
62.707681000957251
 20
21.40637355206718
 70
0
  0
VERTEX
  5
59914
  8
0
 62
7
 10
62.666339855134261
 20
21.363309858501569
 70
0
  0
VERTEX
  5
59915
  8
0
 62
7
 10
62.58090148710005
 20
21.363309858501569
 70
0
  0
VERTEX
  5
59916
  8
0
 62
7
 10
62.496841157259951
 20
21.363309858501569
 70
0
  0
VERTEX
  5
59917
  8
0
 62
7
 10
62.411402789225747
 20
21.363309858501569
 70
0
  0
VERTEX
  5
59918
  8
0
 62
7
 10
62.327342459385662
 20
21.321968712678562
 70
0
  0
VERTEX
  5
59919
  8
0
 62
7
 10
62.115124577494278
 20
21.321968712678562
 70
0
  0
VERTEX
  5
5991A
  8
0
 62
7
 10
62.031064247654172
 20
21.363309858501569
 70
0
  0
VERTEX
  5
5991B
  8
0
 62
7
 10
61.945625879619961
 20
21.363309858501569
 70
0
  0
VERTEX
  5
5991C
  8
0
 62
7
 10
61.90428473379697
 20
21.363309858501569
 70
0
  0
VERTEX
  5
5991D
  8
0
 62
7
 10
61.818846365762781
 20
21.363309858501569
 70
0
  0
VERTEX
  5
5991E
  8
0
 62
7
 10
61.818846365762781
 20
21.40637355206718
 70
0
  0
VERTEX
  5
5991F
  8
0
 62
7
 10
61.777505219939783
 20
21.40637355206718
 70
0
  0
VERTEX
  5
59920
  8
0
 62
7
 10
61.777505219939783
 20
21.449092736084278
 70
0
  0
VERTEX
  5
59921
  8
0
 62
7
 10
61.692066851905587
 20
21.449092736084278
 70
0
  0
SEQEND
  5
59922
  8
0
  0
POLYLINE
  5
4AA68
  8
0
 62
7
 66
1
 70
0
 10
0
 20
0
 30
0
  0
VERTEX
  5
59923
  8
0
 62
7
 10
64.189072059614659
 20
22.59131414421887
 70
0
  0
VERTEX
  5
59924
  8
0
 62
7
 10
64.189072059614659
 20
22.548594960201768
 70
0
  0
SEQEND
  5
59925
  8
0
  0
POLYLINE
  5
4AA6C
  8
0
 62
7
 66
1
 70
0
 10
0
 20
0
 30
0
  0
VERTEX
  5
59926
  8
0
 62
7
 10
64.189072059614659
 20
22.548594960201768
 70
0
  0
VERTEX
  5
59927
  8
0
 62
7
 10
64.189072059614659
 20
22.507426069153009
 70
0
  0
VERTEX
  5
59928
  8
0
 62
7
 10
64.10501172977456
 20
22.464706885135929
 70
0
  0
VERTEX
  5
59929
  8
0
 62
7
 10
64.0622925457575
 20
22.3803020457473
 70
0
  0
VERTEX
  5
5992A
  8
0
 62
7
 10
63.978232215917387
 20
22.295035932487369
 70
0
  0
VERTEX
  5
5992B
  8
0
 62
7
 10
63.935513031900292
 20
22.252316748470271
 70
0
  0
VERTEX
  5
5992C
  8
0
 62
7
 10
63.935513031900292
 20
22.21097560264727
 70
0
  0
VERTEX
  5
5992D
  8
0
 62
7
 10
63.851452702060172
 20
22.168428673404438
 70
0
  0
VERTEX
  5
5992E
  8
0
 62
7
 10
63.851452702060172
 20
22.125709489387329
 70
0
  0
VERTEX
  5
5992F
  8
0
 62
7
 10
63.80873351804307
 20
22.08402383401582
 70
0
  0
VERTEX
  5
59930
  8
0
 62
7
 10
63.724673188202971
 20
21.99875772075589
 70
0
  0
VERTEX
  5
59931
  8
0
 62
7
 10
63.68195400418589
 20
21.956038536738792
 70
0
  0
VERTEX
  5
59932
  8
0
 62
7
 10
63.639234820168781
 20
21.956038536738792
 70
0
  0
VERTEX
  5
59933
  8
0
 62
7
 10
63.5965156361517
 20
21.9146973909158
 70
0
  0
VERTEX
  5
59934
  8
0
 62
7
 10
63.5965156361517
 20
21.871978206898689
 70
0
  0
VERTEX
  5
59935
  8
0
 62
7
 10
63.5124553063116
 20
21.82925902288159
 70
0
  0
VERTEX
  5
59936
  8
0
 62
7
 10
63.428394976471509
 20
21.78809013183286
 70
0
  0
VERTEX
  5
59937
  8
0
 62
7
 10
63.385675792454407
 20
21.745370947815761
 70
0
  0
VERTEX
  5
59938
  8
0
 62
7
 10
63.342956608437291
 20
21.745370947815761
 70
0
  0
VERTEX
  5
59939
  8
0
 62
7
 10
63.3002374244202
 20
21.70230725425014
 70
0
  0
VERTEX
  5
5993A
  8
0
 62
7
 10
63.2161770945801
 20
21.618419179184311
 70
0
  0
VERTEX
  5
5993B
  8
0
 62
7
 10
63.17345791056303
 20
21.618419179184311
 70
0
  0
VERTEX
  5
5993C
  8
0
 62
7
 10
63.132116764740012
 20
21.575699995167209
 70
0
  0
VERTEX
  5
5993D
  8
0
 62
7
 10
63.046678396705829
 20
21.575699995167209
 70
0
  0
VERTEX
  5
5993E
  8
0
 62
7
 10
63.00395921268872
 20
21.49163966532711
 70
0
  0
VERTEX
  5
5993F
  8
0
 62
7
 10
62.919898882848628
 20
21.49163966532711
 70
0
  0
VERTEX
  5
59940
  8
0
 62
7
 10
62.835838553008529
 20
21.449092736084278
 70
0
  0
VERTEX
  5
59941
  8
0
 62
7
 10
62.75040018497431
 20
21.449092736084278
 70
0
  0
VERTEX
  5
59942
  8
0
 62
7
 10
62.707681000957251
 20
21.40637355206718
 70
0
  0
VERTEX
  5
59943
  8
0
 62
7
 10
62.666339855134261
 20
21.40637355206718
 70
0
  0
VERTEX
  5
59944
  8
0
 62
7
 10
62.623620671117152
 20
21.363309858501569
 70
0
  0
VERTEX
  5
59945
  8
0
 62
7
 10
62.539560341277038
 20
21.363309858501569
 70
0
  0
VERTEX
  5
59946
  8
0
 62
7
 10
62.454121973242842
 20
21.363309858501569
 70
0
  0
VERTEX
  5
59947
  8
0
 62
7
 10
62.370061643402728
 20
21.363309858501569
 70
0
  0
VERTEX
  5
59948
  8
0
 62
7
 10
62.327342459385662
 20
21.321968712678562
 70
0
  0
VERTEX
  5
59949
  8
0
 62
7
 10
62.157843761511373
 20
21.321968712678562
 70
0
  0
VERTEX
  5
5994A
  8
0
 62
7
 10
62.073783431671281
 20
21.321968712678562
 70
0
  0
VERTEX
  5
5994B
  8
0
 62
7
 10
62.073783431671281
 20
21.363309858501569
 70
0
  0
VERTEX
  5
5994C
  8
0
 62
7
 10
62.031064247654172
 20
21.363309858501569
 70
0
  0
VERTEX
  5
5994D
  8
0
 62
7
 10
61.945625879619961
 20
21.363309858501569
 70
0
  0
VERTEX
  5
5994E
  8
0
 62
7
 10
61.90428473379697
 20
21.363309858501569
 70
0
  0
VERTEX
  5
5994F
  8
0
 62
7
 10
61.818846365762781
 20
21.40637355206718
 70
0
  0
SEQEND
  5
59950
  8
0
  0
POLYLINE
  5
4AA98
  8
0
 62
7
 66
1
 70
0
 10
0
 20
0
 30
0
  0
VERTEX
  5
59951
  8
0
 62
7
 10
64.189072059614659
 20
22.507426069153009
 70
0
  0
VERTEX
  5
59952
  8
0
 62
7
 10
64.189072059614659
 20
22.548594960201768
 70
0
  0
SEQEND
  5
59953
  8
0
  0
POLYLINE
  5
4AA9C
  8
0
 62
7
 66
1
 70
0
 10
0
 20
0
 30
0
  0
VERTEX
  5
59954
  8
0
 62
7
 10
64.189072059614659
 20
22.803704280884521
 70
0
  0
VERTEX
  5
59955
  8
0
 62
7
 10
64.189072059614659
 20
22.760640587318878
 70
0
  0
SEQEND
  5
59956
  8
0
  0
POLYLINE
  5
4AAA0
  8
0
 62
7
 66
1
 70
0
 10
0
 20
0
 30
0
  0
VERTEX
  5
59957
  8
0
 62
7
 10
64.0622925457575
 20
22.63403332823594
 70
0
  0
VERTEX
  5
59958
  8
0
 62
7
 10
64.0622925457575
 20
22.59131414421887
 70
0
  0
SEQEND
  5
59959
  8
0
  0
POLYLINE
  5
4AAA4
  8
0
 62
7
 66
1
 70
0
 10
0
 20
0
 30
0
  0
VERTEX
  5
5995A
  8
0
 62
7
 10
64.0622925457575
 20
22.59131414421887
 70
0
  0
VERTEX
  5
5995B
  8
0
 62
7
 10
64.0622925457575
 20
22.59131414421887
 70
0
  0
SEQEND
  5
5995C
  8
0
  0
POLYLINE
  5
4AAA8
  8
0
 62
7
 66
1
 70
0
 10
0
 20
0
 30
0
  0
VERTEX
  5
5995D
  8
0
 62
7
 10
64.0622925457575
 20
22.59131414421887
 70
0
  0
VERTEX
  5
5995E
  8
0
 62
7
 10
64.0622925457575
 20
22.59131414421887
 70
0
  0
SEQEND
  5
5995F
  8
0
  0
POLYLINE
  5
4AAAC
  8
0
 62
7
 66
1
 70
0
 10
0
 20
0
 30
0
  0
VERTEX
  5
59960
  8
0
 62
7
 10
63.978232215917387
 20
22.507426069153009
 70
0
  0
VERTEX
  5
59961
  8
0
 62
7
 10
63.978232215917387
 20
22.507426069153009
 70
0
  0
VERTEX
  5
59962
  8
0
 62
7
 10
63.935513031900292
 20
22.464706885135929
 70
0
  0
VERTEX
  5
59963
  8
0
 62
7
 10
63.935513031900292
 20
22.4216431915703
 70
0
  0
VERTEX
  5
59964
  8
0
 62
7
 10
63.851452702060172
 20
22.3803020457473
 70
0
  0
VERTEX
  5
59965
  8
0
 62
7
 10
63.851452702060172
 20
22.337755116504471
 70
0
  0
VERTEX
  5
59966
  8
0
 62
7
 10
63.80873351804307
 20
22.295035932487369
 70
0
  0
VERTEX
  5
59967
  8
0
 62
7
 10
63.80873351804307
 20
22.252316748470271
 70
0
  0
VERTEX
  5
59968
  8
0
 62
7
 10
63.724673188202971
 20
22.21097560264727
 70
0
  0
VERTEX
  5
59969
  8
0
 62
7
 10
63.68195400418589
 20
22.125709489387329
 70
0
  0
VERTEX
  5
5996A
  8
0
 62
7
 10
63.639234820168781
 20
22.125709489387329
 70
0
  0
VERTEX
  5
5996B
  8
0
 62
7
 10
63.5965156361517
 20
22.08402383401582
 70
0
  0
VERTEX
  5
5996C
  8
0
 62
7
 10
63.5124553063116
 20
21.99875772075589
 70
0
  0
VERTEX
  5
5996D
  8
0
 62
7
 10
63.428394976471509
 20
21.956038536738792
 70
0
  0
VERTEX
  5
5996E
  8
0
 62
7
 10
63.342956608437291
 20
21.871978206898689
 70
0
  0
VERTEX
  5
5996F
  8
0
 62
7
 10
63.3002374244202
 20
21.82925902288159
 70
0
  0
VERTEX
  5
59970
  8
0
 62
7
 10
63.2161770945801
 20
21.78809013183286
 70
0
  0
VERTEX
  5
59971
  8
0
 62
7
 10
63.2161770945801
 20
21.745370947815761
 70
0
  0
VERTEX
  5
59972
  8
0
 62
7
 10
63.17345791056303
 20
21.745370947815761
 70
0
  0
VERTEX
  5
59973
  8
0
 62
7
 10
63.132116764740012
 20
21.70230725425014
 70
0
  0
VERTEX
  5
59974
  8
0
 62
7
 10
63.046678396705829
 20
21.70230725425014
 70
0
  0
VERTEX
  5
59975
  8
0
 62
7
 10
63.00395921268872
 20
21.618419179184311
 70
0
  0
VERTEX
  5
59976
  8
0
 62
7
 10
62.919898882848628
 20
21.618419179184311
 70
0
  0
VERTEX
  5
59977
  8
0
 62
7
 10
62.919898882848628
 20
21.575699995167209
 70
0
  0
VERTEX
  5
59978
  8
0
 62
7
 10
62.835838553008529
 20
21.575699995167209
 70
0
  0
VERTEX
  5
59979
  8
0
 62
7
 10
62.75040018497431
 20
21.532980811150111
 70
0
  0
VERTEX
  5
5997A
  8
0
 62
7
 10
62.666339855134261
 20
21.49163966532711
 70
0
  0
VERTEX
  5
5997B
  8
0
 62
7
 10
62.58090148710005
 20
21.49163966532711
 70
0
  0
VERTEX
  5
5997C
  8
0
 62
7
 10
62.58090148710005
 20
21.449092736084278
 70
0
  0
VERTEX
  5
5997D
  8
0
 62
7
 10
62.411402789225747
 20
21.449092736084278
 70
0
  0
VERTEX
  5
5997E
  8
0
 62
7
 10
62.370061643402728
 20
21.40637355206718
 70
0
  0
VERTEX
  5
5997F
  8
0
 62
7
 10
62.284623275368538
 20
21.40637355206718
 70
0
  0
VERTEX
  5
59980
  8
0
 62
7
 10
62.200562945528468
 20
21.40637355206718
 70
0
  0
VERTEX
  5
59981
  8
0
 62
7
 10
61.90428473379697
 20
21.40637355206718
 70
0
  0
VERTEX
  5
59982
  8
0
 62
7
 10
61.818846365762781
 20
21.40637355206718
 70
0
  0
VERTEX
  5
59983
  8
0
 62
7
 10
61.818846365762781
 20
21.449092736084278
 70
0
  0
VERTEX
  5
59984
  8
0
 62
7
 10
61.777505219939783
 20
21.449092736084278
 70
0
  0
VERTEX
  5
59985
  8
0
 62
7
 10
61.692066851905587
 20
21.449092736084278
 70
0
  0
VERTEX
  5
59986
  8
0
 62
7
 10
61.649347667888492
 20
21.49163966532711
 70
0
  0
VERTEX
  5
59987
  8
0
 62
7
 10
61.565287338048392
 20
21.49163966532711
 70
0
  0
SEQEND
  5
59988
  8
0
  0
POLYLINE
  5
4AAD6
  8
0
 62
7
 66
1
 70
0
 10
0
 20
0
 30
0
  0
VERTEX
  5
59989
  8
0
 62
7
 10
64.189072059614659
 20
22.760640587318878
 70
0
  0
VERTEX
  5
5998A
  8
0
 62
7
 10
64.189072059614659
 20
22.760640587318878
 70
0
  0
SEQEND
  5
5998B
  8
0
  0
POLYLINE
  5
4AADA
  8
0
 62
7
 66
1
 70
0
 10
0
 20
0
 30
0
  0
VERTEX
  5
5998C
  8
0
 62
7
 10
64.189072059614659
 20
22.59131414421887
 70
0
  0
VERTEX
  5
5998D
  8
0
 62
7
 10
64.189072059614659
 20
22.59131414421887
 70
0
  0
SEQEND
  5
5998E
  8
0
  0
POLYLINE
  5
4AADE
  8
0
 62
7
 66
1
 70
0
 10
0
 20
0
 30
0
  0
VERTEX
  5
5998F
  8
0
 62
7
 10
64.189072059614659
 20
22.59131414421887
 70
0
  0
VERTEX
  5
59990
  8
0
 62
7
 10
64.189072059614659
 20
22.63403332823594
 70
0
  0
VERTEX
  5
59991
  8
0
 62
7
 10
64.147730913791662
 20
22.63403332823594
 70
0
  0
VERTEX
  5
59992
  8
0
 62
7
 10
64.147730913791662
 20
22.7179214033018
 70
0
  0
VERTEX
  5
59993
  8
0
 62
7
 10
64.189072059614659
 20
22.7179214033018
 70
0
  0
VERTEX
  5
59994
  8
0
 62
7
 10
64.189072059614659
 20
22.760640587318878
 70
0
  0
SEQEND
  5
59995
  8
0
  0
POLYLINE
  5
4AAE6
  8
0
 62
7
 66
1
 70
0
 10
0
 20
0
 30
0
  0
VERTEX
  5
59996
  8
0
 62
7
 10
25.077592034670321
 20
42.528942991230963
 70
0
  0
VERTEX
  5
59997
  8
0
 62
7
 10
25.077592034670321
 20
42.528942991230963
 70
0
  0
SEQEND
  5
59998
  8
0
  0
POLYLINE
  5
4AAEA
  8
0
 62
7
 66
1
 70
0
 10
0
 20
0
 30
0
  0
VERTEX
  5
59999
  8
0
 62
7
 10
22.156151063178442
 20
41.427545964596618
 70
0
  0
VERTEX
  5
5999A
  8
0
 62
7
 10
22.156151063178442
 20
41.59721691724512
 70
0
  0
SEQEND
  5
5999B
  8
0
  0
POLYLINE
  5
4AAEE
  8
0
 62
7
 66
1
 70
0
 10
0
 20
0
 30
0
  0
VERTEX
  5
5999C
  8
0
 62
7
 10
25.034872850653219
 20
42.27521170874234
 70
0
  0
VERTEX
  5
5999D
  8
0
 62
7
 10
25.034872850653219
 20
42.316552854565323
 70
0
  0
SEQEND
  5
5999E
  8
0
  0
POLYLINE
  5
4AAF2
  8
0
 62
7
 66
1
 70
0
 10
0
 20
0
 30
0
  0
VERTEX
  5
5999F
  8
0
 62
7
 10
22.452429274909949
 20
41.174331446430742
 70
0
  0
VERTEX
  5
599A0
  8
0
 62
7
 10
22.537867642944121
 20
41.174331446430742
 70
0
  0
VERTEX
  5
599A1
  8
0
 62
7
 10
22.537867642944121
 20
41.131612262413618
 70
0
  0
VERTEX
  5
599A2
  8
0
 62
7
 10
22.664647156801319
 20
41.131612262413618
 70
0
  0
VERTEX
  5
599A3
  8
0
 62
7
 10
22.70598830262432
 20
41.0899266070421
 70
0
  0
VERTEX
  5
599A4
  8
0
 62
7
 10
22.748707486641411
 20
41.0899266070421
 70
0
  0
VERTEX
  5
599A5
  8
0
 62
7
 10
22.791426670658531
 20
41.047207423025043
 70
0
  0
VERTEX
  5
599A6
  8
0
 62
7
 10
22.960925368532831
 20
41.047207423025043
 70
0
  0
VERTEX
  5
599A7
  8
0
 62
7
 10
23.0449856983729
 20
41.047207423025043
 70
0
  0
VERTEX
  5
599A8
  8
0
 62
7
 10
23.3412639101044
 20
41.047207423025043
 70
0
  0
VERTEX
  5
599A9
  8
0
 62
7
 10
23.42670227813861
 20
41.0899266070421
 70
0
  0
VERTEX
  5
599AA
  8
0
 62
7
 10
23.4680434239616
 20
41.0899266070421
 70
0
  0
VERTEX
  5
599AB
  8
0
 62
7
 10
23.51076260797868
 20
41.131612262413618
 70
0
  0
VERTEX
  5
599AC
  8
0
 62
7
 10
23.68026130585298
 20
41.131612262413618
 70
0
  0
VERTEX
  5
599AD
  8
0
 62
7
 10
23.722980489870078
 20
41.174331446430742
 70
0
  0
VERTEX
  5
599AE
  8
0
 62
7
 10
23.807040819710181
 20
41.216878375673559
 70
0
  0
VERTEX
  5
599AF
  8
0
 62
7
 10
23.891101149550281
 20
41.259597559690683
 70
0
  0
VERTEX
  5
599B0
  8
0
 62
7
 10
23.97653951758446
 20
41.300938705513651
 70
0
  0
VERTEX
  5
599B1
  8
0
 62
7
 10
24.060599847424552
 20
41.300938705513651
 70
0
  0
VERTEX
  5
599B2
  8
0
 62
7
 10
24.060599847424552
 20
41.343657889530782
 70
0
  0
VERTEX
  5
599B3
  8
0
 62
7
 10
24.103319031441661
 20
41.386204818773592
 70
0
  0
VERTEX
  5
599B4
  8
0
 62
7
 10
24.188757399475861
 20
41.427545964596618
 70
0
  0
VERTEX
  5
599B5
  8
0
 62
7
 10
24.272817729315971
 20
41.470609658162218
 70
0
  0
VERTEX
  5
599B6
  8
0
 62
7
 10
24.272817729315971
 20
41.5133288421793
 70
0
  0
VERTEX
  5
599B7
  8
0
 62
7
 10
24.35687805915606
 20
41.5133288421793
 70
0
  0
VERTEX
  5
599B8
  8
0
 62
7
 10
24.35687805915606
 20
41.555875771422158
 70
0
  0
VERTEX
  5
599B9
  8
0
 62
7
 10
24.442316427190239
 20
41.59721691724512
 70
0
  0
VERTEX
  5
599BA
  8
0
 62
7
 10
24.485035611207341
 20
41.639936101262251
 70
0
  0
VERTEX
  5
599BB
  8
0
 62
7
 10
24.485035611207341
 20
41.682655285279338
 70
0
  0
VERTEX
  5
599BC
  8
0
 62
7
 10
24.56909594104744
 20
41.723824176328087
 70
0
  0
VERTEX
  5
599BD
  8
0
 62
7
 10
24.611815125064538
 20
41.766543360345153
 70
0
  0
VERTEX
  5
599BE
  8
0
 62
7
 10
24.653156270887539
 20
41.809607053910831
 70
0
  0
VERTEX
  5
599BF
  8
0
 62
7
 10
24.695875454904641
 20
41.8523262379279
 70
0
  0
VERTEX
  5
599C0
  8
0
 62
7
 10
24.695875454904641
 20
41.893495128976653
 70
0
  0
VERTEX
  5
599C1
  8
0
 62
7
 10
24.781313822938841
 20
41.936214312993741
 70
0
  0
VERTEX
  5
599C2
  8
0
 62
7
 10
24.822654968761839
 20
42.02027464283384
 70
0
  0
VERTEX
  5
599C3
  8
0
 62
7
 10
24.908093336796021
 20
42.062993826850906
 70
0
  0
VERTEX
  5
599C4
  8
0
 62
7
 10
24.949434482619012
 20
42.148259940110847
 70
0
  0
VERTEX
  5
599C5
  8
0
 62
7
 10
24.949434482619012
 20
42.1899455954824
 70
0
  0
VERTEX
  5
599C6
  8
0
 62
7
 10
24.99215366663611
 20
42.232664779499473
 70
0
  0
VERTEX
  5
599C7
  8
0
 62
7
 10
25.034872850653219
 20
42.27521170874234
 70
0
  0
SEQEND
  5
599C8
  8
0
  0
POLYLINE
  5
4AB1D
  8
0
 62
7
 66
1
 70
0
 10
0
 20
0
 30
0
  0
VERTEX
  5
599C9
  8
0
 62
7
 10
25.077592034670321
 20
42.528942991230963
 70
0
  0
VERTEX
  5
599CA
  8
0
 62
7
 10
25.034872850653219
 20
42.528942991230963
 70
0
  0
VERTEX
  5
599CB
  8
0
 62
7
 10
25.034872850653219
 20
42.444538151842387
 70
0
  0
VERTEX
  5
599CC
  8
0
 62
7
 10
24.99215366663611
 20
42.444538151842387
 70
0
  0
VERTEX
  5
599CD
  8
0
 62
7
 10
24.99215366663611
 20
42.359272038582453
 70
0
  0
VERTEX
  5
599CE
  8
0
 62
7
 10
25.034872850653219
 20
42.316552854565323
 70
0
  0
SEQEND
  5
599CF
  8
0
  0
POLYLINE
  5
4AB25
  8
0
 62
7
 66
1
 70
0
 10
0
 20
0
 30
0
  0
VERTEX
  5
599D0
  8
0
 62
7
 10
24.738594638921739
 20
42.571662175248093
 70
0
  0
VERTEX
  5
599D1
  8
0
 62
7
 10
24.781313822938841
 20
42.571662175248093
 70
0
  0
SEQEND
  5
599D2
  8
0
  0
POLYLINE
  5
4AB29
  8
0
 62
7
 66
1
 70
0
 10
0
 20
0
 30
0
  0
VERTEX
  5
599D3
  8
0
 62
7
 10
24.822654968761839
 20
42.571662175248093
 70
0
  0
VERTEX
  5
599D4
  8
0
 62
7
 10
24.865374152778909
 20
42.571662175248093
 70
0
  0
SEQEND
  5
599D5
  8
0
  0
POLYLINE
  5
4AB2D
  8
0
 62
7
 66
1
 70
0
 10
0
 20
0
 30
0
  0
VERTEX
  5
599D6
  8
0
 62
7
 10
22.282930577035639
 20
41.300938705513651
 70
0
  0
VERTEX
  5
599D7
  8
0
 62
7
 10
22.282930577035639
 20
41.300938705513651
 70
0
  0
VERTEX
  5
599D8
  8
0
 62
7
 10
22.325649761052741
 20
41.259597559690683
 70
0
  0
VERTEX
  5
599D9
  8
0
 62
7
 10
22.40971009089284
 20
41.259597559690683
 70
0
  0
VERTEX
  5
599DA
  8
0
 62
7
 10
22.40971009089284
 20
41.216878375673559
 70
0
  0
VERTEX
  5
599DB
  8
0
 62
7
 10
22.452429274909949
 20
41.216878375673559
 70
0
  0
VERTEX
  5
599DC
  8
0
 62
7
 10
22.495148458927041
 20
41.174331446430742
 70
0
  0
VERTEX
  5
599DD
  8
0
 62
7
 10
22.537867642944121
 20
41.174331446430742
 70
0
  0
VERTEX
  5
599DE
  8
0
 62
7
 10
22.621927972784221
 20
41.174331446430742
 70
0
  0
VERTEX
  5
599DF
  8
0
 62
7
 10
22.664647156801319
 20
41.131612262413618
 70
0
  0
VERTEX
  5
599E0
  8
0
 62
7
 10
22.748707486641411
 20
41.131612262413618
 70
0
  0
VERTEX
  5
599E1
  8
0
 62
7
 10
22.960925368532831
 20
41.131612262413618
 70
0
  0
VERTEX
  5
599E2
  8
0
 62
7
 10
23.0449856983729
 20
41.131612262413618
 70
0
  0
VERTEX
  5
599E3
  8
0
 62
7
 10
23.171765212230088
 20
41.131612262413618
 70
0
  0
VERTEX
  5
599E4
  8
0
 62
7
 10
23.2572035802643
 20
41.131612262413618
 70
0
  0
VERTEX
  5
599E5
  8
0
 62
7
 10
23.3412639101044
 20
41.174331446430742
 70
0
  0
VERTEX
  5
599E6
  8
0
 62
7
 10
23.42670227813861
 20
41.174331446430742
 70
0
  0
VERTEX
  5
599E7
  8
0
 62
7
 10
23.4680434239616
 20
41.216878375673559
 70
0
  0
VERTEX
  5
599E8
  8
0
 62
7
 10
23.553481791995772
 20
41.259597559690683
 70
0
  0
VERTEX
  5
599E9
  8
0
 62
7
 10
23.637542121835882
 20
41.259597559690683
 70
0
  0
VERTEX
  5
599EA
  8
0
 62
7
 10
23.722980489870078
 20
41.300938705513651
 70
0
  0
VERTEX
  5
599EB
  8
0
 62
7
 10
23.807040819710181
 20
41.343657889530782
 70
0
  0
VERTEX
  5
599EC
  8
0
 62
7
 10
23.84976000372728
 20
41.386204818773592
 70
0
  0
VERTEX
  5
599ED
  8
0
 62
7
 10
23.933820333567379
 20
41.427545964596618
 70
0
  0
VERTEX
  5
599EE
  8
0
 62
7
 10
24.019258701601562
 20
41.470609658162218
 70
0
  0
VERTEX
  5
599EF
  8
0
 62
7
 10
24.103319031441661
 20
41.5133288421793
 70
0
  0
VERTEX
  5
599F0
  8
0
 62
7
 10
24.188757399475861
 20
41.555875771422158
 70
0
  0
VERTEX
  5
599F1
  8
0
 62
7
 10
24.230098545298858
 20
41.639936101262251
 70
0
  0
VERTEX
  5
599F2
  8
0
 62
7
 10
24.315536913333059
 20
41.682655285279338
 70
0
  0
VERTEX
  5
599F3
  8
0
 62
7
 10
24.35687805915606
 20
41.766543360345153
 70
0
  0
VERTEX
  5
599F4
  8
0
 62
7
 10
24.442316427190239
 20
41.809607053910831
 70
0
  0
VERTEX
  5
599F5
  8
0
 62
7
 10
24.485035611207341
 20
41.893495128976653
 70
0
  0
VERTEX
  5
599F6
  8
0
 62
7
 10
24.526376757030341
 20
41.893495128976653
 70
0
  0
VERTEX
  5
599F7
  8
0
 62
7
 10
24.56909594104744
 20
41.936214312993741
 70
0
  0
VERTEX
  5
599F8
  8
0
 62
7
 10
24.653156270887539
 20
42.02027464283384
 70
0
  0
VERTEX
  5
599F9
  8
0
 62
7
 10
24.695875454904641
 20
42.062993826850906
 70
0
  0
VERTEX
  5
599FA
  8
0
 62
7
 10
24.781313822938841
 20
42.148259940110847
 70
0
  0
VERTEX
  5
599FB
  8
0
 62
7
 10
24.822654968761839
 20
42.232664779499473
 70
0
  0
VERTEX
  5
599FC
  8
0
 62
7
 10
24.865374152778909
 20
42.316552854565323
 70
0
  0
SEQEND
  5
599FD
  8
0
  0
POLYLINE
  5
4AB56
  8
0
 62
7
 66
1
 70
0
 10
0
 20
0
 30
0
  0
VERTEX
  5
599FE
  8
0
 62
7
 10
24.908093336796021
 20
42.571662175248093
 70
0
  0
VERTEX
  5
599FF
  8
0
 62
7
 10
24.908093336796021
 20
42.571662175248093
 70
0
  0
SEQEND
  5
59A00
  8
0
  0
POLYLINE
  5
4AB5A
  8
0
 62
7
 66
1
 70
0
 10
0
 20
0
 30
0
  0
VERTEX
  5
59A01
  8
0
 62
7
 10
22.156151063178442
 20
41.427545964596618
 70
0
  0
VERTEX
  5
59A02
  8
0
 62
7
 10
22.156151063178442
 20
41.427545964596618
 70
0
  0
SEQEND
  5
59A03
  8
0
  0
POLYLINE
  5
4AB5E
  8
0
 62
7
 66
1
 70
0
 10
0
 20
0
 30
0
  0
VERTEX
  5
59A04
  8
0
 62
7
 10
22.282930577035639
 20
41.682655285279338
 70
0
  0
VERTEX
  5
59A05
  8
0
 62
7
 10
22.282930577035639
 20
41.682655285279338
 70
0
  0
SEQEND
  5
59A06
  8
0
  0
POLYLINE
  5
4AB62
  8
0
 62
7
 66
1
 70
0
 10
0
 20
0
 30
0
  0
VERTEX
  5
59A07
  8
0
 62
7
 10
24.822654968761839
 20
42.359272038582453
 70
0
  0
VERTEX
  5
59A08
  8
0
 62
7
 10
24.822654968761839
 20
42.571662175248093
 70
0
  0
SEQEND
  5
59A09
  8
0
  0
POLYLINE
  5
4AB66
  8
0
 62
7
 66
1
 70
0
 10
0
 20
0
 30
0
  0
VERTEX
  5
59A0A
  8
0
 62
7
 10
22.156151063178442
 20
41.427545964596618
 70
0
  0
VERTEX
  5
59A0B
  8
0
 62
7
 10
22.19887024719554
 20
41.427545964596618
 70
0
  0
VERTEX
  5
59A0C
  8
0
 62
7
 10
22.241589431212649
 20
41.386204818773592
 70
0
  0
VERTEX
  5
59A0D
  8
0
 62
7
 10
22.282930577035639
 20
41.343657889530782
 70
0
  0
VERTEX
  5
59A0E
  8
0
 62
7
 10
22.325649761052741
 20
41.300938705513651
 70
0
  0
VERTEX
  5
59A0F
  8
0
 62
7
 10
22.40971009089284
 20
41.300938705513651
 70
0
  0
VERTEX
  5
59A10
  8
0
 62
7
 10
22.452429274909949
 20
41.259597559690683
 70
0
  0
VERTEX
  5
59A11
  8
0
 62
7
 10
22.537867642944121
 20
41.259597559690683
 70
0
  0
VERTEX
  5
59A12
  8
0
 62
7
 10
22.579208788767119
 20
41.216878375673559
 70
0
  0
VERTEX
  5
59A13
  8
0
 62
7
 10
22.664647156801319
 20
41.216878375673559
 70
0
  0
VERTEX
  5
59A14
  8
0
 62
7
 10
22.70598830262432
 20
41.174331446430742
 70
0
  0
VERTEX
  5
59A15
  8
0
 62
7
 10
22.791426670658531
 20
41.174331446430742
 70
0
  0
VERTEX
  5
59A16
  8
0
 62
7
 10
22.875487000498619
 20
41.174331446430742
 70
0
  0
VERTEX
  5
59A17
  8
0
 62
7
 10
23.08770488239
 20
41.174331446430742
 70
0
  0
VERTEX
  5
59A18
  8
0
 62
7
 10
23.171765212230088
 20
41.174331446430742
 70
0
  0
VERTEX
  5
59A19
  8
0
 62
7
 10
23.2144843962472
 20
41.216878375673559
 70
0
  0
VERTEX
  5
59A1A
  8
0
 62
7
 10
23.2985447260873
 20
41.216878375673559
 70
0
  0
VERTEX
  5
59A1B
  8
0
 62
7
 10
23.3839830941215
 20
41.259597559690683
 70
0
  0
VERTEX
  5
59A1C
  8
0
 62
7
 10
23.4680434239616
 20
41.259597559690683
 70
0
  0
VERTEX
  5
59A1D
  8
0
 62
7
 10
23.553481791995772
 20
41.300938705513651
 70
0
  0
VERTEX
  5
59A1E
  8
0
 62
7
 10
23.59482293781878
 20
41.300938705513651
 70
0
  0
VERTEX
  5
59A1F
  8
0
 62
7
 10
23.68026130585298
 20
41.386204818773592
 70
0
  0
VERTEX
  5
59A20
  8
0
 62
7
 10
23.764321635693079
 20
41.386204818773592
 70
0
  0
VERTEX
  5
59A21
  8
0
 62
7
 10
23.807040819710181
 20
41.427545964596618
 70
0
  0
VERTEX
  5
59A22
  8
0
 62
7
 10
23.84976000372728
 20
41.427545964596618
 70
0
  0
VERTEX
  5
59A23
  8
0
 62
7
 10
23.891101149550281
 20
41.470609658162218
 70
0
  0
VERTEX
  5
59A24
  8
0
 62
7
 10
23.933820333567379
 20
41.470609658162218
 70
0
  0
VERTEX
  5
59A25
  8
0
 62
7
 10
23.97653951758446
 20
41.5133288421793
 70
0
  0
VERTEX
  5
59A26
  8
0
 62
7
 10
24.060599847424552
 20
41.555875771422158
 70
0
  0
VERTEX
  5
59A27
  8
0
 62
7
 10
24.103319031441661
 20
41.639936101262251
 70
0
  0
VERTEX
  5
59A28
  8
0
 62
7
 10
24.188757399475861
 20
41.682655285279338
 70
0
  0
VERTEX
  5
59A29
  8
0
 62
7
 10
24.230098545298858
 20
41.723824176328087
 70
0
  0
VERTEX
  5
59A2A
  8
0
 62
7
 10
24.272817729315971
 20
41.723824176328087
 70
0
  0
VERTEX
  5
59A2B
  8
0
 62
7
 10
24.315536913333059
 20
41.809607053910831
 70
0
  0
VERTEX
  5
59A2C
  8
0
 62
7
 10
24.39959724317314
 20
41.8523262379279
 70
0
  0
VERTEX
  5
59A2D
  8
0
 62
7
 10
24.442316427190239
 20
41.936214312993741
 70
0
  0
VERTEX
  5
59A2E
  8
0
 62
7
 10
24.485035611207341
 20
41.936214312993741
 70
0
  0
VERTEX
  5
59A2F
  8
0
 62
7
 10
24.526376757030341
 20
41.978933497010857
 70
0
  0
VERTEX
  5
59A30
  8
0
 62
7
 10
24.611815125064538
 20
42.062993826850906
 70
0
  0
VERTEX
  5
59A31
  8
0
 62
7
 10
24.653156270887539
 20
42.148259940110847
 70
0
  0
VERTEX
  5
59A32
  8
0
 62
7
 10
24.695875454904641
 20
42.1899455954824
 70
0
  0
VERTEX
  5
59A33
  8
0
 62
7
 10
24.781313822938841
 20
42.27521170874234
 70
0
  0
VERTEX
  5
59A34
  8
0
 62
7
 10
24.822654968761839
 20
42.359272038582453
 70
0
  0
SEQEND
  5
59A35
  8
0
  0
POLYLINE
  5
4AB93
  8
0
 62
7
 66
1
 70
0
 10
0
 20
0
 30
0
  0
VERTEX
  5
59A36
  8
0
 62
7
 10
22.156151063178442
 20
41.639936101262251
 70
0
  0
VERTEX
  5
59A37
  8
0
 62
7
 10
22.19887024719554
 20
41.59721691724512
 70
0
  0
VERTEX
  5
59A38
  8
0
 62
7
 10
22.19887024719554
 20
41.427545964596618
 70
0
  0
VERTEX
  5
59A39
  8
0
 62
7
 10
22.156151063178442
 20
41.427545964596618
 70
0
  0
SEQEND
  5
59A3A
  8
0
  0
POLYLINE
  5
4AB99
  8
0
 62
7
 66
1
 70
0
 10
0
 20
0
 30
0
  0
VERTEX
  5
59A3B
  8
0
 62
7
 10
22.282930577035639
 20
41.639936101262251
 70
0
  0
VERTEX
  5
59A3C
  8
0
 62
7
 10
22.282930577035639
 20
41.639936101262251
 70
0
  0
SEQEND
  5
59A3D
  8
0
  0
POLYLINE
  5
4AB9D
  8
0
 62
7
 66
1
 70
0
 10
0
 20
0
 30
0
  0
VERTEX
  5
59A3E
  8
0
 62
7
 10
24.738594638921739
 20
42.571662175248093
 70
0
  0
VERTEX
  5
59A3F
  8
0
 62
7
 10
24.738594638921739
 20
42.571662175248093
 70
0
  0
SEQEND
  5
59A40
  8
0
  0
POLYLINE
  5
4ABA1
  8
0
 62
7
 66
1
 70
0
 10
0
 20
0
 30
0
  0
VERTEX
  5
59A41
  8
0
 62
7
 10
24.738594638921739
 20
42.571662175248093
 70
0
  0
VERTEX
  5
59A42
  8
0
 62
7
 10
24.738594638921739
 20
42.528942991230963
 70
0
  0
SEQEND
  5
59A43
  8
0
  0
POLYLINE
  5
4ABA5
  8
0
 62
7
 66
1
 70
0
 10
0
 20
0
 30
0
  0
VERTEX
  5
59A44
  8
0
 62
7
 10
22.282930577035639
 20
41.682655285279338
 70
0
  0
VERTEX
  5
59A45
  8
0
 62
7
 10
22.282930577035639
 20
41.682655285279338
 70
0
  0
SEQEND
  5
59A46
  8
0
  0
POLYLINE
  5
4ABA9
  8
0
 62
7
 66
1
 70
0
 10
0
 20
0
 30
0
  0
VERTEX
  5
59A47
  8
0
 62
7
 10
24.738594638921739
 20
42.571662175248093
 70
0
  0
VERTEX
  5
59A48
  8
0
 62
7
 10
24.781313822938841
 20
42.571662175248093
 70
0
  0
SEQEND
  5
59A49
  8
0
  0
POLYLINE
  5
4ABAD
  8
0
 62
7
 66
1
 70
0
 10
0
 20
0
 30
0
  0
VERTEX
  5
59A4A
  8
0
 62
7
 10
24.738594638921739
 20
42.571662175248093
 70
0
  0
VERTEX
  5
59A4B
  8
0
 62
7
 10
24.738594638921739
 20
42.571662175248093
 70
0
  0
SEQEND
  5
59A4C
  8
0
  0
POLYLINE
  5
4ABB1
  8
0
 62
7
 66
1
 70
0
 10
0
 20
0
 30
0
  0
VERTEX
  5
59A4D
  8
0
 62
7
 10
24.865374152778909
 20
42.316552854565323
 70
0
  0
VERTEX
  5
59A4E
  8
0
 62
7
 10
24.865374152778909
 20
42.359272038582453
 70
0
  0
VERTEX
  5
59A4F
  8
0
 62
7
 10
24.822654968761839
 20
42.359272038582453
 70
0
  0
SEQEND
  5
59A50
  8
0
  0
POLYLINE
  5
4ABB6
  8
0
 62
7
 66
1
 70
0
 10
0
 20
0
 30
0
  0
VERTEX
  5
59A51
  8
0
 62
7
 10
24.822654968761839
 20
42.359272038582453
 70
0
  0
VERTEX
  5
59A52
  8
0
 62
7
 10
24.865374152778909
 20
42.359272038582453
 70
0
  0
VERTEX
  5
59A53
  8
0
 62
7
 10
24.865374152778909
 20
42.401991222599513
 70
0
  0
VERTEX
  5
59A54
  8
0
 62
7
 10
24.908093336796021
 20
42.359272038582453
 70
0
  0
SEQEND
  5
59A55
  8
0
  0
POLYLINE
  5
4ABBC
  8
0
 62
7
 66
1
 70
0
 10
0
 20
0
 30
0
  0
VERTEX
  5
59A56
  8
0
 62
7
 10
22.156151063178442
 20
41.427545964596618
 70
0
  0
VERTEX
  5
59A57
  8
0
 62
7
 10
22.156151063178442
 20
41.386204818773592
 70
0
  0
SEQEND
  5
59A58
  8
0
  0
POLYLINE
  5
4ABC0
  8
0
 62
7
 66
1
 70
0
 10
0
 20
0
 30
0
  0
VERTEX
  5
59A59
  8
0
 62
7
 10
24.738594638921739
 20
42.571662175248093
 70
0
  0
VERTEX
  5
59A5A
  8
0
 62
7
 10
24.781313822938841
 20
42.571662175248093
 70
0
  0
SEQEND
  5
59A5B
  8
0
  0
POLYLINE
  5
4ABC4
  8
0
 62
7
 66
1
 70
0
 10
0
 20
0
 30
0
  0
VERTEX
  5
59A5C
  8
0
 62
7
 10
22.156151063178442
 20
41.639936101262251
 70
0
  0
VERTEX
  5
59A5D
  8
0
 62
7
 10
22.156151063178442
 20
41.639936101262251
 70
0
  0
SEQEND
  5
59A5E
  8
0
  0
POLYLINE
  5
4ABC8
  8
0
 62
7
 66
1
 70
0
 10
0
 20
0
 30
0
  0
VERTEX
  5
59A5F
  8
0
 62
7
 10
22.156151063178442
 20
41.639936101262251
 70
0
  0
VERTEX
  5
59A60
  8
0
 62
7
 10
22.156151063178442
 20
41.59721691724512
 70
0
  0
SEQEND
  5
59A61
  8
0
  0
POLYLINE
  5
4ABCC
  8
0
 62
7
 66
1
 70
0
 10
0
 20
0
 30
0
  0
VERTEX
  5
59A62
  8
0
 62
7
 10
24.908093336796021
 20
42.571662175248093
 70
0
  0
VERTEX
  5
59A63
  8
0
 62
7
 10
24.908093336796021
 20
42.528942991230963
 70
0
  0
VERTEX
  5
59A64
  8
0
 62
7
 10
24.865374152778909
 20
42.528942991230963
 70
0
  0
VERTEX
  5
59A65
  8
0
 62
7
 10
24.865374152778909
 20
42.401991222599513
 70
0
  0
VERTEX
  5
59A66
  8
0
 62
7
 10
24.908093336796021
 20
42.401991222599513
 70
0
  0
VERTEX
  5
59A67
  8
0
 62
7
 10
24.908093336796021
 20
42.359272038582453
 70
0
  0
SEQEND
  5
59A68
  8
0
  0
POLYLINE
  5
4ABD4
  8
0
 62
7
 66
1
 70
0
 10
0
 20
0
 30
0
  0
VERTEX
  5
59A69
  8
0
 62
7
 10
24.822654968761839
 20
42.571662175248093
 70
0
  0
VERTEX
  5
59A6A
  8
0
 62
7
 10
24.865374152778909
 20
42.571662175248093
 70
0
  0
VERTEX
  5
59A6B
  8
0
 62
7
 10
24.908093336796021
 20
42.571662175248093
 70
0
  0
SEQEND
  5
59A6C
  8
0
  0
POLYLINE
  5
4ABD9
  8
0
 62
7
 66
1
 70
0
 10
0
 20
0
 30
0
  0
VERTEX
  5
59A6D
  8
0
 62
7
 10
24.865374152778909
 20
42.316552854565323
 70
0
  0
VERTEX
  5
59A6E
  8
0
 62
7
 10
24.908093336796021
 20
42.316552854565323
 70
0
  0
VERTEX
  5
59A6F
  8
0
 62
7
 10
24.908093336796021
 20
42.359272038582453
 70
0
  0
SEQEND
  5
59A70
  8
0
  0
POLYLINE
  5
4ABDE
  8
0
 62
7
 66
1
 70
0
 10
0
 20
0
 30
0
  0
VERTEX
  5
59A71
  8
0
 62
7
 10
25.077592034670321
 20
42.951828462045377
 70
0
  0
VERTEX
  5
59A72
  8
0
 62
7
 10
25.118933180493311
 20
42.951828462045377
 70
0
  0
VERTEX
  5
59A73
  8
0
 62
7
 10
25.118933180493311
 20
43.0372668300796
 70
0
  0
VERTEX
  5
59A74
  8
0
 62
7
 10
25.077592034670321
 20
43.0372668300796
 70
0
  0
SEQEND
  5
59A75
  8
0
  0
POLYLINE
  5
4ABE4
  8
0
 62
7
 66
1
 70
0
 10
0
 20
0
 30
0
  0
VERTEX
  5
59A76
  8
0
 62
7
 10
22.19887024719554
 20
41.766543360345153
 70
0
  0
VERTEX
  5
59A77
  8
0
 62
7
 10
22.156151063178442
 20
41.766543360345153
 70
0
  0
SEQEND
  5
59A78
  8
0
  0
POLYLINE
  5
4ABE8
  8
0
 62
7
 66
1
 70
0
 10
0
 20
0
 30
0
  0
VERTEX
  5
59A79
  8
0
 62
7
 10
24.695875454904641
 20
42.655550250313922
 70
0
  0
VERTEX
  5
59A7A
  8
0
 62
7
 10
24.695875454904641
 20
42.655550250313922
 70
0
  0
SEQEND
  5
59A7B
  8
0
  0
POLYLINE
  5
4ABEC
  8
0
 62
7
 66
1
 70
0
 10
0
 20
0
 30
0
  0
VERTEX
  5
59A7C
  8
0
 62
7
 10
24.695875454904641
 20
42.655550250313922
 70
0
  0
VERTEX
  5
59A7D
  8
0
 62
7
 10
24.695875454904641
 20
42.655550250313922
 70
0
  0
SEQEND
  5
59A7E
  8
0
  0
POLYLINE
  5
4ABF0
  8
0
 62
7
 66
1
 70
0
 10
0
 20
0
 30
0
  0
VERTEX
  5
59A7F
  8
0
 62
7
 10
24.738594638921739
 20
42.655550250313922
 70
0
  0
VERTEX
  5
59A80
  8
0
 62
7
 10
24.738594638921739
 20
42.655550250313922
 70
0
  0
SEQEND
  5
59A81
  8
0
  0
POLYLINE
  5
4ABF4
  8
0
 62
7
 66
1
 70
0
 10
0
 20
0
 30
0
  0
VERTEX
  5
59A82
  8
0
 62
7
 10
25.077592034670321
 20
43.0372668300796
 70
0
  0
VERTEX
  5
59A83
  8
0
 62
7
 10
25.077592034670321
 20
43.0372668300796
 70
0
  0
VERTEX
  5
59A84
  8
0
 62
7
 10
25.118933180493311
 20
42.994547646062472
 70
0
  0
SEQEND
  5
59A85
  8
0
  0
POLYLINE
  5
4ABF9
  8
0
 62
7
 66
1
 70
0
 10
0
 20
0
 30
0
  0
VERTEX
  5
59A86
  8
0
 62
7
 10
25.118933180493311
 20
43.0372668300796
 70
0
  0
VERTEX
  5
59A87
  8
0
 62
7
 10
25.077592034670321
 20
43.0372668300796
 70
0
  0
SEQEND
  5
59A88
  8
0
  0
POLYLINE
  5
4ABFD
  8
0
 62
7
 66
1
 70
0
 10
0
 20
0
 30
0
  0
VERTEX
  5
59A89
  8
0
 62
7
 10
22.156151063178442
 20
41.766543360345153
 70
0
  0
VERTEX
  5
59A8A
  8
0
 62
7
 10
22.156151063178442
 20
41.766543360345153
 70
0
  0
SEQEND
  5
59A8B
  8
0
  0
POLYLINE
  5
4AC01
  8
0
 62
7
 66
1
 70
0
 10
0
 20
0
 30
0
  0
VERTEX
  5
59A8C
  8
0
 62
7
 10
64.0622925457575
 20
22.59131414421887
 70
0
  0
VERTEX
  5
59A8D
  8
0
 62
7
 10
64.0622925457575
 20
22.63403332823594
 70
0
  0
SEQEND
  5
59A8E
  8
0
  0
POLYLINE
  5
4AC05
  8
0
 62
7
 66
1
 70
0
 10
0
 20
0
 30
0
  0
VERTEX
  5
59A8F
  8
0
 62
7
 10
64.0622925457575
 20
22.845045426707511
 70
0
  0
VERTEX
  5
59A90
  8
0
 62
7
 10
64.0622925457575
 20
22.760640587318878
 70
0
  0
VERTEX
  5
59A91
  8
0
 62
7
 10
64.020951399934475
 20
22.7179214033018
 70
0
  0
VERTEX
  5
59A92
  8
0
 62
7
 10
64.0622925457575
 20
22.7179214033018
 70
0
  0
VERTEX
  5
59A93
  8
0
 62
7
 10
64.0622925457575
 20
22.63403332823594
 70
0
  0
SEQEND
  5
59A94
  8
0
  0
POLYLINE
  5
4AC0C
  8
0
 62
7
 66
1
 70
0
 10
0
 20
0
 30
0
  0
VERTEX
  5
59A95
  8
0
 62
7
 10
64.0622925457575
 20
22.845045426707511
 70
0
  0
VERTEX
  5
59A96
  8
0
 62
7
 10
64.0622925457575
 20
22.88759235595035
 70
0
  0
SEQEND
  5
59A97
  8
0
  0
POLYLINE
  5
4AC10
  8
0
 62
7
 66
1
 70
0
 10
0
 20
0
 30
0
  0
VERTEX
  5
59A98
  8
0
 62
7
 10
24.695875454904641
 20
42.867940386979569
 70
0
  0
VERTEX
  5
59A99
  8
0
 62
7
 10
24.695875454904641
 20
42.867940386979569
 70
0
  0
SEQEND
  5
59A9A
  8
0
  0
POLYLINE
  5
4AC14
  8
0
 62
7
 66
1
 70
0
 10
0
 20
0
 30
0
  0
VERTEX
  5
59A9B
  8
0
 62
7
 10
64.0622925457575
 20
22.59131414421887
 70
0
  0
VERTEX
  5
59A9C
  8
0
 62
7
 10
64.020951399934475
 20
22.548594960201768
 70
0
  0
VERTEX
  5
59A9D
  8
0
 62
7
 10
63.978232215917387
 20
22.507426069153009
 70
0
  0
VERTEX
  5
59A9E
  8
0
 62
7
 10
63.935513031900292
 20
22.464706885135929
 70
0
  0
VERTEX
  5
59A9F
  8
0
 62
7
 10
63.935513031900292
 20
22.4216431915703
 70
0
  0
VERTEX
  5
59AA0
  8
0
 62
7
 10
63.851452702060172
 20
22.3803020457473
 70
0
  0
VERTEX
  5
59AA1
  8
0
 62
7
 10
63.851452702060172
 20
22.337755116504471
 70
0
  0
VERTEX
  5
59AA2
  8
0
 62
7
 10
63.80873351804307
 20
22.295035932487369
 70
0
  0
VERTEX
  5
59AA3
  8
0
 62
7
 10
63.766014334025982
 20
22.252316748470271
 70
0
  0
VERTEX
  5
59AA4
  8
0
 62
7
 10
63.724673188202971
 20
22.21097560264727
 70
0
  0
VERTEX
  5
59AA5
  8
0
 62
7
 10
63.68195400418589
 20
22.21097560264727
 70
0
  0
VERTEX
  5
59AA6
  8
0
 62
7
 10
63.68195400418589
 20
22.125709489387329
 70
0
  0
VERTEX
  5
59AA7
  8
0
 62
7
 10
63.5965156361517
 20
22.125709489387329
 70
0
  0
VERTEX
  5
59AA8
  8
0
 62
7
 10
63.5965156361517
 20
22.08402383401582
 70
0
  0
VERTEX
  5
59AA9
  8
0
 62
7
 10
63.55517449032871
 20
22.041304649998722
 70
0
  0
VERTEX
  5
59AAA
  8
0
 62
7
 10
63.5124553063116
 20
21.99875772075589
 70
0
  0
VERTEX
  5
59AAB
  8
0
 62
7
 10
63.469736122294513
 20
21.956038536738792
 70
0
  0
VERTEX
  5
59AAC
  8
0
 62
7
 10
63.428394976471509
 20
21.956038536738792
 70
0
  0
VERTEX
  5
59AAD
  8
0
 62
7
 10
63.385675792454407
 20
21.9146973909158
 70
0
  0
VERTEX
  5
59AAE
  8
0
 62
7
 10
63.342956608437291
 20
21.871978206898689
 70
0
  0
VERTEX
  5
59AAF
  8
0
 62
7
 10
63.3002374244202
 20
21.82925902288159
 70
0
  0
VERTEX
  5
59AB0
  8
0
 62
7
 10
63.2588962785972
 20
21.82925902288159
 70
0
  0
VERTEX
  5
59AB1
  8
0
 62
7
 10
63.2161770945801
 20
21.78809013183286
 70
0
  0
VERTEX
  5
59AB2
  8
0
 62
7
 10
63.17345791056303
 20
21.745370947815761
 70
0
  0
VERTEX
  5
59AB3
  8
0
 62
7
 10
63.132116764740012
 20
21.745370947815761
 70
0
  0
VERTEX
  5
59AB4
  8
0
 62
7
 10
63.089397580722931
 20
21.70230725425014
 70
0
  0
VERTEX
  5
59AB5
  8
0
 62
7
 10
63.046678396705829
 20
21.70230725425014
 70
0
  0
VERTEX
  5
59AB6
  8
0
 62
7
 10
63.046678396705829
 20
21.659588070233038
 70
0
  0
VERTEX
  5
59AB7
  8
0
 62
7
 10
62.962618066865723
 20
21.618419179184311
 70
0
  0
VERTEX
  5
59AB8
  8
0
 62
7
 10
62.919898882848628
 20
21.618419179184311
 70
0
  0
VERTEX
  5
59AB9
  8
0
 62
7
 10
62.919898882848628
 20
21.575699995167209
 70
0
  0
VERTEX
  5
59ABA
  8
0
 62
7
 10
62.793119368991427
 20
21.575699995167209
 70
0
  0
VERTEX
  5
59ABB
  8
0
 62
7
 10
62.793119368991427
 20
21.532980811150111
 70
0
  0
VERTEX
  5
59ABC
  8
0
 62
7
 10
62.707681000957251
 20
21.49163966532711
 70
0
  0
VERTEX
  5
59ABD
  8
0
 62
7
 10
62.666339855134261
 20
21.49163966532711
 70
0
  0
VERTEX
  5
59ABE
  8
0
 62
7
 10
62.58090148710005
 20
21.49163966532711
 70
0
  0
VERTEX
  5
59ABF
  8
0
 62
7
 10
62.539560341277038
 20
21.449092736084278
 70
0
  0
VERTEX
  5
59AC0
  8
0
 62
7
 10
62.411402789225747
 20
21.449092736084278
 70
0
  0
VERTEX
  5
59AC1
  8
0
 62
7
 10
62.327342459385662
 20
21.40637355206718
 70
0
  0
VERTEX
  5
59AC2
  8
0
 62
7
 10
62.284623275368538
 20
21.40637355206718
 70
0
  0
VERTEX
  5
59AC3
  8
0
 62
7
 10
62.157843761511373
 20
21.40637355206718
 70
0
  0
VERTEX
  5
59AC4
  8
0
 62
7
 10
62.031064247654172
 20
21.40637355206718
 70
0
  0
VERTEX
  5
59AC5
  8
0
 62
7
 10
61.945625879619961
 20
21.40637355206718
 70
0
  0
VERTEX
  5
59AC6
  8
0
 62
7
 10
61.861565549779861
 20
21.40637355206718
 70
0
  0
VERTEX
  5
59AC7
  8
0
 62
7
 10
61.818846365762781
 20
21.449092736084278
 70
0
  0
VERTEX
  5
59AC8
  8
0
 62
7
 10
61.649347667888492
 20
21.449092736084278
 70
0
  0
VERTEX
  5
59AC9
  8
0
 62
7
 10
61.649347667888492
 20
21.49163966532711
 70
0
  0
VERTEX
  5
59ACA
  8
0
 62
7
 10
61.565287338048392
 20
21.49163966532711
 70
0
  0
VERTEX
  5
59ACB
  8
0
 62
7
 10
61.522568154031283
 20
21.49163966532711
 70
0
  0
SEQEND
  5
59ACC
  8
0
  0
POLYLINE
  5
4AC47
  8
0
 62
7
 66
1
 70
0
 10
0
 20
0
 30
0
  0
VERTEX
  5
59ACD
  8
0
 62
7
 10
25.034872850653219
 20
42.316552854565323
 70
0
  0
VERTEX
  5
59ACE
  8
0
 62
7
 10
25.034872850653219
 20
42.316552854565323
 70
0
  0
VERTEX
  5
59ACF
  8
0
 62
7
 10
24.99215366663611
 20
42.359272038582453
 70
0
  0
VERTEX
  5
59AD0
  8
0
 62
7
 10
24.99215366663611
 20
42.444538151842387
 70
0
  0
VERTEX
  5
59AD1
  8
0
 62
7
 10
25.034872850653219
 20
42.444538151842387
 70
0
  0
VERTEX
  5
59AD2
  8
0
 62
7
 10
25.034872850653219
 20
42.528942991230963
 70
0
  0
VERTEX
  5
59AD3
  8
0
 62
7
 10
25.077592034670321
 20
42.528942991230963
 70
0
  0
SEQEND
  5
59AD4
  8
0
  0
POLYLINE
  5
4AC50
  8
0
 62
7
 66
1
 70
0
 10
0
 20
0
 30
0
  0
VERTEX
  5
59AD5
  8
0
 62
7
 10
25.077592034670321
 20
42.528942991230963
 70
0
  0
VERTEX
  5
59AD6
  8
0
 62
7
 10
25.077592034670321
 20
42.528942991230963
 70
0
  0
SEQEND
  5
59AD7
  8
0
  0
POLYLINE
  5
4AC54
  8
0
 62
7
 66
1
 70
0
 10
0
 20
0
 30
0
  0
VERTEX
  5
59AD8
  8
0
 62
7
 10
25.034872850653219
 20
42.27521170874234
 70
0
  0
VERTEX
  5
59AD9
  8
0
 62
7
 10
25.034872850653219
 20
42.27521170874234
 70
0
  0
SEQEND
  5
59ADA
  8
0
  0
POLYLINE
  5
4AC58
  8
0
 62
7
 66
1
 70
0
 10
0
 20
0
 30
0
  0
VERTEX
  5
59ADB
  8
0
 62
7
 10
25.034872850653219
 20
42.27521170874234
 70
0
  0
VERTEX
  5
59ADC
  8
0
 62
7
 10
25.034872850653219
 20
42.27521170874234
 70
0
  0
SEQEND
  5
59ADD
  8
0
  0
POLYLINE
  5
4AC5C
  8
0
 62
7
 66
1
 70
0
 10
0
 20
0
 30
0
  0
VERTEX
  5
59ADE
  8
0
 62
7
 10
25.034872850653219
 20
42.27521170874234
 70
0
  0
VERTEX
  5
59ADF
  8
0
 62
7
 10
25.034872850653219
 20
42.316552854565323
 70
0
  0
SEQEND
  5
59AE0
  8
0
  0
POLYLINE
  5
4AC60
  8
0
 62
7
 66
1
 70
0
 10
0
 20
0
 30
0
  0
VERTEX
  5
59AE1
  8
0
 62
7
 10
22.495148458927041
 20
41.174331446430742
 70
0
  0
VERTEX
  5
59AE2
  8
0
 62
7
 10
22.537867642944121
 20
41.174331446430742
 70
0
  0
VERTEX
  5
59AE3
  8
0
 62
7
 10
22.579208788767119
 20
41.131612262413618
 70
0
  0
VERTEX
  5
59AE4
  8
0
 62
7
 10
22.664647156801319
 20
41.131612262413618
 70
0
  0
VERTEX
  5
59AE5
  8
0
 62
7
 10
22.70598830262432
 20
41.0899266070421
 70
0
  0
VERTEX
  5
59AE6
  8
0
 62
7
 10
22.748707486641411
 20
41.0899266070421
 70
0
  0
VERTEX
  5
59AE7
  8
0
 62
7
 10
22.791426670658531
 20
41.047207423025043
 70
0
  0
VERTEX
  5
59AE8
  8
0
 62
7
 10
23.2144843962472
 20
41.047207423025043
 70
0
  0
VERTEX
  5
59AE9
  8
0
 62
7
 10
23.3412639101044
 20
41.047207423025043
 70
0
  0
VERTEX
  5
59AEA
  8
0
 62
7
 10
23.42670227813861
 20
41.0899266070421
 70
0
  0
VERTEX
  5
59AEB
  8
0
 62
7
 10
23.4680434239616
 20
41.0899266070421
 70
0
  0
VERTEX
  5
59AEC
  8
0
 62
7
 10
23.553481791995772
 20
41.131612262413618
 70
0
  0
VERTEX
  5
59AED
  8
0
 62
7
 10
23.59482293781878
 20
41.131612262413618
 70
0
  0
VERTEX
  5
59AEE
  8
0
 62
7
 10
23.68026130585298
 20
41.131612262413618
 70
0
  0
VERTEX
  5
59AEF
  8
0
 62
7
 10
23.722980489870078
 20
41.174331446430742
 70
0
  0
VERTEX
  5
59AF0
  8
0
 62
7
 10
23.807040819710181
 20
41.174331446430742
 70
0
  0
VERTEX
  5
59AF1
  8
0
 62
7
 10
23.84976000372728
 20
41.216878375673559
 70
0
  0
VERTEX
  5
59AF2
  8
0
 62
7
 10
23.84976000372728
 20
41.259597559690683
 70
0
  0
VERTEX
  5
59AF3
  8
0
 62
7
 10
23.933820333567379
 20
41.259597559690683
 70
0
  0
VERTEX
  5
59AF4
  8
0
 62
7
 10
23.97653951758446
 20
41.300938705513651
 70
0
  0
VERTEX
  5
59AF5
  8
0
 62
7
 10
24.060599847424552
 20
41.300938705513651
 70
0
  0
VERTEX
  5
59AF6
  8
0
 62
7
 10
24.103319031441661
 20
41.343657889530782
 70
0
  0
VERTEX
  5
59AF7
  8
0
 62
7
 10
24.103319031441661
 20
41.386204818773592
 70
0
  0
VERTEX
  5
59AF8
  8
0
 62
7
 10
24.188757399475861
 20
41.386204818773592
 70
0
  0
VERTEX
  5
59AF9
  8
0
 62
7
 10
24.230098545298858
 20
41.427545964596618
 70
0
  0
VERTEX
  5
59AFA
  8
0
 62
7
 10
24.230098545298858
 20
41.470609658162218
 70
0
  0
VERTEX
  5
59AFB
  8
0
 62
7
 10
24.315536913333059
 20
41.5133288421793
 70
0
  0
VERTEX
  5
59AFC
  8
0
 62
7
 10
24.35687805915606
 20
41.555875771422158
 70
0
  0
VERTEX
  5
59AFD
  8
0
 62
7
 10
24.442316427190239
 20
41.59721691724512
 70
0
  0
VERTEX
  5
59AFE
  8
0
 62
7
 10
24.442316427190239
 20
41.639936101262251
 70
0
  0
VERTEX
  5
59AFF
  8
0
 62
7
 10
24.485035611207341
 20
41.639936101262251
 70
0
  0
VERTEX
  5
59B00
  8
0
 62
7
 10
24.526376757030341
 20
41.682655285279338
 70
0
  0
VERTEX
  5
59B01
  8
0
 62
7
 10
24.56909594104744
 20
41.723824176328087
 70
0
  0
VERTEX
  5
59B02
  8
0
 62
7
 10
24.611815125064538
 20
41.766543360345153
 70
0
  0
VERTEX
  5
59B03
  8
0
 62
7
 10
24.653156270887539
 20
41.809607053910831
 70
0
  0
VERTEX
  5
59B04
  8
0
 62
7
 10
24.695875454904641
 20
41.809607053910831
 70
0
  0
VERTEX
  5
59B05
  8
0
 62
7
 10
24.738594638921739
 20
41.893495128976653
 70
0
  0
VERTEX
  5
59B06
  8
0
 62
7
 10
24.781313822938841
 20
41.936214312993741
 70
0
  0
VERTEX
  5
59B07
  8
0
 62
7
 10
24.822654968761839
 20
42.02027464283384
 70
0
  0
VERTEX
  5
59B08
  8
0
 62
7
 10
24.865374152778909
 20
42.02027464283384
 70
0
  0
VERTEX
  5
59B09
  8
0
 62
7
 10
24.865374152778909
 20
42.062993826850906
 70
0
  0
VERTEX
  5
59B0A
  8
0
 62
7
 10
24.949434482619012
 20
42.148259940110847
 70
0
  0
VERTEX
  5
59B0B
  8
0
 62
7
 10
24.949434482619012
 20
42.1899455954824
 70
0
  0
SEQEND
  5
59B0C
  8
0
  0
POLYLINE
  5
4AC8D
  8
0
 62
7
 66
1
 70
0
 10
0
 20
0
 30
0
  0
VERTEX
  5
59B0D
  8
0
 62
7
 10
25.077592034670321
 20
42.528942991230963
 70
0
  0
VERTEX
  5
59B0E
  8
0
 62
7
 10
25.077592034670321
 20
42.528942991230963
 70
0
  0
SEQEND
  5
59B0F
  8
0
  0
POLYLINE
  5
4AC91
  8
0
 62
7
 66
1
 70
0
 10
0
 20
0
 30
0
  0
VERTEX
  5
59B10
  8
0
 62
7
 10
28.379371547733768
 20
41.978933497010857
 70
0
  0
VERTEX
  5
59B11
  8
0
 62
7
 10
28.379371547733768
 20
41.978933497010857
 70
0
  0
SEQEND
  5
59B12
  8
0
  0
POLYLINE
  5
4AC95
  8
0
 62
7
 66
1
 70
0
 10
0
 20
0
 30
0
  0
VERTEX
  5
59B13
  8
0
 62
7
 10
28.379371547733768
 20
41.978933497010857
 70
0
  0
VERTEX
  5
59B14
  8
0
 62
7
 10
28.379371547733768
 20
41.978933497010857
 70
0
  0
SEQEND
  5
59B15
  8
0
  0
POLYLINE
  5
4AC99
  8
0
 62
7
 66
1
 70
0
 10
0
 20
0
 30
0
  0
VERTEX
  5
59B16
  8
0
 62
7
 10
60.506954004979633
 20
25.80903332744219
 70
0
  0
VERTEX
  5
59B17
  8
0
 62
7
 10
60.506954004979633
 20
25.80903332744219
 70
0
  0
SEQEND
  5
59B18
  8
0
  0
POLYLINE
  5
4AC9D
  8
0
 62
7
 66
1
 70
0
 10
0
 20
0
 30
0
  0
VERTEX
  5
59B19
  8
0
 62
7
 10
60.506954004979633
 20
25.80903332744219
 70
0
  0
VERTEX
  5
59B1A
  8
0
 62
7
 10
60.506954004979633
 20
25.80903332744219
 70
0
  0
SEQEND
  5
59B1B
  8
0
  0
POLYLINE
  5
4ACA1
  8
0
 62
7
 66
1
 70
0
 10
0
 20
0
 30
0
  0
VERTEX
  5
59B1C
  8
0
 62
7
 10
21.98665236530417
 20
41.639936101262251
 70
0
  0
VERTEX
  5
59B1D
  8
0
 62
7
 10
21.98665236530417
 20
41.682655285279338
 70
0
  0
VERTEX
  5
59B1E
  8
0
 62
7
 10
22.029371549321269
 20
41.682655285279338
 70
0
  0
SEQEND
  5
59B1F
  8
0
  0
POLYLINE
  5
4ACA6
  8
0
 62
7
 66
1
 70
0
 10
0
 20
0
 30
0
  0
VERTEX
  5
59B20
  8
0
 62
7
 10
24.908093336796021
 20
42.698269434330967
 70
0
  0
VERTEX
  5
59B21
  8
0
 62
7
 10
24.908093336796021
 20
42.698269434330967
 70
0
  0
SEQEND
  5
59B22
  8
0
  0
POLYLINE
  5
4ACAA
  8
0
 62
7
 66
1
 70
0
 10
0
 20
0
 30
0
  0
VERTEX
  5
59B23
  8
0
 62
7
 10
26.26270488159625
 20
42.105540756093767
 70
0
  0
VERTEX
  5
59B24
  8
0
 62
7
 10
26.30404602741925
 20
42.105540756093767
 70
0
  0
VERTEX
  5
59B25
  8
0
 62
7
 10
26.34676521143636
 20
42.105540756093767
 70
0
  0
VERTEX
  5
59B26
  8
0
 62
7
 10
26.34676521143636
 20
42.1899455954824
 70
0
  0
SEQEND
  5
59B27
  8
0
  0
POLYLINE
  5
4ACB0
  8
0
 62
7
 66
1
 70
0
 10
0
 20
0
 30
0
  0
VERTEX
  5
59B28
  8
0
 62
7
 10
20.632040820503931
 20
40.115998113361947
 70
0
  0
VERTEX
  5
59B29
  8
0
 62
7
 10
20.632040820503931
 20
40.115998113361947
 70
0
  0
VERTEX
  5
59B2A
  8
0
 62
7
 10
20.590699674680941
 20
40.073278929344887
 70
0
  0
SEQEND
  5
59B2B
  8
0
  0
POLYLINE
  5
4ACB5
  8
0
 62
7
 66
1
 70
0
 10
0
 20
0
 30
0
  0
VERTEX
  5
59B2C
  8
0
 62
7
 10
28.379371547733768
 20
41.978933497010857
 70
0
  0
VERTEX
  5
59B2D
  8
0
 62
7
 10
28.379371547733768
 20
41.936214312993741
 70
0
  0
SEQEND
  5
59B2E
  8
0
  0
POLYLINE
  5
4ACB9
  8
0
 62
7
 66
1
 70
0
 10
0
 20
0
 30
0
  0
VERTEX
  5
59B2F
  8
0
 62
7
 10
24.695875454904641
 20
43.926273720048293
 70
0
  0
VERTEX
  5
59B30
  8
0
 62
7
 10
24.738594638921739
 20
43.926273720048293
 70
0
  0
SEQEND
  5
59B31
  8
0
  0
POLYLINE
  5
4ACBD
  8
0
 62
7
 66
1
 70
0
 10
0
 20
0
 30
0
  0
VERTEX
  5
59B32
  8
0
 62
7
 10
60.506954004979633
 20
25.80903332744219
 70
0
  0
VERTEX
  5
59B33
  8
0
 62
7
 10
60.506954004979633
 20
25.76631414342512
 70
0
  0
SEQEND
  5
59B34
  8
0
  0
POLYLINE
  5
4ACC1
  8
0
 62
7
 66
1
 70
0
 10
0
 20
0
 30
0
  0
VERTEX
  5
59B35
  8
0
 62
7
 10
22.19887024719554
 20
43.0372668300796
 70
0
  0
VERTEX
  5
59B36
  8
0
 62
7
 10
22.19887024719554
 20
43.0372668300796
 70
0
  0
SEQEND
  5
59B37
  8
0
  0
POLYLINE
  5
4ACC5
  8
0
 62
7
 66
1
 70
0
 10
0
 20
0
 30
0
  0
VERTEX
  5
59B38
  8
0
 62
7
 10
22.156151063178442
 20
41.723824176328087
 70
0
  0
VERTEX
  5
59B39
  8
0
 62
7
 10
22.156151063178442
 20
41.766543360345153
 70
0
  0
VERTEX
  5
59B3A
  8
0
 62
7
 10
22.19887024719554
 20
41.766543360345153
 70
0
  0
SEQEND
  5
59B3B
  8
0
  0
POLYLINE
  5
4ACCA
  8
0
 62
7
 66
1
 70
0
 10
0
 20
0
 30
0
  0
VERTEX
  5
59B3C
  8
0
 62
7
 10
24.738594638921739
 20
42.655550250313922
 70
0
  0
VERTEX
  5
59B3D
  8
0
 62
7
 10
24.738594638921739
 20
42.655550250313922
 70
0
  0
SEQEND
  5
59B3E
  8
0
  0
POLYLINE
  5
4ACCE
  8
0
 62
7
 66
1
 70
0
 10
0
 20
0
 30
0
  0
VERTEX
  5
59B3F
  8
0
 62
7
 10
64.147730913791662
 20
24.072705202876289
 70
0
  0
VERTEX
  5
59B40
  8
0
 62
7
 10
64.189072059614659
 20
24.072705202876289
 70
0
  0
VERTEX
  5
59B41
  8
0
 62
7
 10
64.189072059614659
 20
24.031364057053281
 70
0
  0
SEQEND
  5
59B42
  8
0
  0
POLYLINE
  5
4ACD3
  8
0
 62
7
 66
1
 70
0
 10
0
 20
0
 30
0
  0
VERTEX
  5
59B43
  8
0
 62
7
 10
28.293933179699572
 20
41.893495128976653
 70
0
  0
VERTEX
  5
59B44
  8
0
 62
7
 10
28.293933179699572
 20
41.8523262379279
 70
0
  0
SEQEND
  5
59B45
  8
0
  0
POLYLINE
  5
4ACD7
  8
0
 62
7
 66
1
 70
0
 10
0
 20
0
 30
0
  0
VERTEX
  5
59B46
  8
0
 62
7
 10
28.379371547733768
 20
41.639936101262251
 70
0
  0
VERTEX
  5
59B47
  8
0
 62
7
 10
28.379371547733768
 20
41.639936101262251
 70
0
  0
SEQEND
  5
59B48
  8
0
  0
POLYLINE
  5
4ACDB
  8
0
 62
7
 66
1
 70
0
 10
0
 20
0
 30
0
  0
VERTEX
  5
59B49
  8
0
 62
7
 10
28.379371547733768
 20
41.639936101262251
 70
0
  0
VERTEX
  5
59B4A
  8
0
 62
7
 10
28.379371547733768
 20
41.639936101262251
 70
0
  0
SEQEND
  5
59B4B
  8
0
  0
POLYLINE
  5
4ACDF
  8
0
 62
7
 66
1
 70
0
 10
0
 20
0
 30
0
  0
VERTEX
  5
59B4C
  8
0
 62
7
 10
28.379371547733768
 20
41.639936101262251
 70
0
  0
VERTEX
  5
59B4D
  8
0
 62
7
 10
28.379371547733768
 20
41.639936101262251
 70
0
  0
SEQEND
  5
59B4E
  8
0
  0
POLYLINE
  5
4ACE3
  8
0
 62
7
 66
1
 70
0
 10
0
 20
0
 30
0
  0
VERTEX
  5
59B4F
  8
0
 62
7
 10
60.422893675139527
 20
25.682426068359259
 70
0
  0
VERTEX
  5
59B50
  8
0
 62
7
 10
60.422893675139527
 20
25.639706884342189
 70
0
  0
SEQEND
  5
59B51
  8
0
  0
POLYLINE
  5
4ACE7
  8
0
 62
7
 66
1
 70
0
 10
0
 20
0
 30
0
  0
VERTEX
  5
59B52
  8
0
 62
7
 10
60.506954004979633
 20
25.470035931693609
 70
0
  0
VERTEX
  5
59B53
  8
0
 62
7
 10
60.506954004979633
 20
25.470035931693609
 70
0
  0
SEQEND
  5
59B54
  8
0
  0
POLYLINE
  5
4ACEB
  8
0
 62
7
 66
1
 70
0
 10
0
 20
0
 30
0
  0
VERTEX
  5
59B55
  8
0
 62
7
 10
60.506954004979633
 20
25.470035931693609
 70
0
  0
VERTEX
  5
59B56
  8
0
 62
7
 10
60.506954004979633
 20
25.42731674767651
 70
0
  0
SEQEND
  5
59B57
  8
0
  0
POLYLINE
  5
4ACEF
  8
0
 62
7
 66
1
 70
0
 10
0
 20
0
 30
0
  0
VERTEX
  5
59B58
  8
0
 62
7
 10
60.506954004979633
 20
25.42731674767651
 70
0
  0
VERTEX
  5
59B59
  8
0
 62
7
 10
60.506954004979633
 20
25.42731674767651
 70
0
  0
SEQEND
  5
59B5A
  8
0
  0
POLYLINE
  5
4ACF3
  8
0
 62
7
 66
1
 70
0
 10
0
 20
0
 30
0
  0
VERTEX
  5
59B5B
  8
0
 62
7
 10
28.463431877573871
 20
41.766543360345153
 70
0
  0
VERTEX
  5
59B5C
  8
0
 62
7
 10
28.463431877573871
 20
41.766543360345153
 70
0
  0
SEQEND
  5
59B5D
  8
0
  0
POLYLINE
  5
4ACF7
  8
0
 62
7
 66
1
 70
0
 10
0
 20
0
 30
0
  0
VERTEX
  5
59B5E
  8
0
 62
7
 10
28.379371547733768
 20
41.639936101262251
 70
0
  0
VERTEX
  5
59B5F
  8
0
 62
7
 10
28.379371547733768
 20
41.639936101262251
 70
0
  0
SEQEND
  5
59B60
  8
0
  0
POLYLINE
  5
4ACFB
  8
0
 62
7
 66
1
 70
0
 10
0
 20
0
 30
0
  0
VERTEX
  5
59B61
  8
0
 62
7
 10
60.506954004979633
 20
25.470035931693609
 70
0
  0
VERTEX
  5
59B62
  8
0
 62
7
 10
60.506954004979633
 20
25.42731674767651
 70
0
  0
SEQEND
  5
59B63
  8
0
  0
POLYLINE
  5
4ACFF
  8
0
 62
7
 66
1
 70
0
 10
0
 20
0
 30
0
  0
VERTEX
  5
59B64
  8
0
 62
7
 10
60.59239237301383
 20
25.596643190776561
 70
0
  0
VERTEX
  5
59B65
  8
0
 62
7
 10
60.59239237301383
 20
25.553924006759448
 70
0
  0
SEQEND
  5
59B66
  8
0
  0
POLYLINE
  5
4AD03
  8
0
 62
7
 66
1
 70
0
 10
0
 20
0
 30
0
  0
VERTEX
  5
59B67
  8
0
 62
7
 10
24.738594638921739
 20
42.655550250313922
 70
0
  0
VERTEX
  5
59B68
  8
0
 62
7
 10
24.738594638921739
 20
42.655550250313922
 70
0
  0
SEQEND
  5
59B69
  8
0
  0
POLYLINE
  5
4AD07
  8
0
 62
7
 66
1
 70
0
 10
0
 20
0
 30
0
  0
VERTEX
  5
59B6A
  8
0
 62
7
 10
24.738594638921739
 20
43.926273720048293
 70
0
  0
VERTEX
  5
59B6B
  8
0
 62
7
 10
24.738594638921739
 20
43.926273720048293
 70
0
  0
SEQEND
  5
59B6C
  8
0
  0
POLYLINE
  5
4B194
  8
0
 62
7
 66
1
 70
8
  0
VERTEX
  5
4B195
  8
0
 62
7
 10
20.5907
 20
40.0733
 30
0
 70
32
  0
VERTEX
  5
4B196
  8
0
 62
7
 10
20.5907
 20
40.0733
 30
0
 70
32
  0
VERTEX
  5
4B197
  8
0
 62
7
 10
20.5907
 20
40.0733
 30
0
 70
32
  0
VERTEX
  5
4B198
  8
0
 62
7
 10
20.5907
 20
40.0734
 30
0
 70
32
  0
VERTEX
  5
4B199
  8
0
 62
7
 10
20.5907
 20
40.0735
 30
0
 70
32
  0
VERTEX
  5
4B19A
  8
0
 62
7
 10
20.5907
 20
40.0736
 30
0
 70
32
  0
VERTEX
  5
4B19B
  8
0
 62
7
 10
20.5907
 20
40.0737
 30
0
 70
32
  0
VERTEX
  5
4B19C
  8
0
 62
7
 10
20.5907
 20
40.0738
 30
0
 70
32
  0
VERTEX
  5
4B19D
  8
0
 62
7
 10
20.5907
 20
40.073999999999991
 30
0
 70
32
  0
VERTEX
  5
4B19E
  8
0
 62
7
 10
20.5907
 20
40.07419999999999
 30
0
 70
32
  0
VERTEX
  5
4B19F
  8
0
 62
7
 10
20.5907
 20
40.07439999999999
 30
0
 70
32
  0
VERTEX
  5
4B1A0
  8
0
 62
7
 10
20.5907
 20
40.0746
 30
0
 70
32
  0
VERTEX
  5
4B1A1
  8
0
 62
7
 10
20.5907
 20
40.074899999999992
 30
0
 70
32
  0
VERTEX
  5
4B1A2
  8
0
 62
7
 10
20.5907
 20
40.075099999999992
 30
0
 70
32
  0
VERTEX
  5
4B1A3
  8
0
 62
7
 10
20.5907
 20
40.0754
 30
0
 70
32
  0
VERTEX
  5
4B1A4
  8
0
 62
7
 10
20.5907
 20
40.0757
 30
0
 70
32
  0
VERTEX
  5
4B1A5
  8
0
 62
7
 10
20.5907
 20
40.076
 30
0
 70
32
  0
VERTEX
  5
4B1A6
  8
0
 62
7
 10
20.5907
 20
40.0763
 30
0
 70
32
  0
VERTEX
  5
4B1A7
  8
0
 62
7
 10
20.5907
 20
40.0767
 30
0
 70
32
  0
VERTEX
  5
4B1A8
  8
0
 62
7
 10
20.5907
 20
40.0771
 30
0
 70
32
  0
VERTEX
  5
4B1A9
  8
0
 62
7
 10
20.5907
 20
40.0774
 30
0
 70
32
  0
VERTEX
  5
4B1AA
  8
0
 62
7
 10
20.5907
 20
40.0778
 30
0
 70
32
  0
VERTEX
  5
4B1AB
  8
0
 62
7
 10
20.5907
 20
40.0782
 30
0
 70
32
  0
VERTEX
  5
4B1AC
  8
0
 62
7
 10
20.5907
 20
40.078599999999987
 30
0
 70
32
  0
VERTEX
  5
4B1AD
  8
0
 62
7
 10
20.5907
 20
40.07909999999999
 30
0
 70
32
  0
VERTEX
  5
4B1AE
  8
0
 62
7
 10
20.5907
 20
40.0795
 30
0
 70
32
  0
VERTEX
  5
4B1AF
  8
0
 62
7
 10
20.5907
 20
40.08
 30
0
 70
32
  0
VERTEX
  5
4B1B0
  8
0
 62
7
 10
20.5907
 20
40.080499999999986
 30
0
 70
32
  0
VERTEX
  5
4B1B1
  8
0
 62
7
 10
20.5907
 20
40.0809
 30
0
 70
32
  0
VERTEX
  5
4B1B2
  8
0
 62
7
 10
20.5907
 20
40.0814
 30
0
 70
32
  0
VERTEX
  5
4B1B3
  8
0
 62
7
 10
20.5907
 20
40.08189999999999
 30
0
 70
32
  0
VERTEX
  5
4B1B4
  8
0
 62
7
 10
20.5907
 20
40.082399999999993
 30
0
 70
32
  0
VERTEX
  5
4B1B5
  8
0
 62
7
 10
20.5907
 20
40.083
 30
0
 70
32
  0
VERTEX
  5
4B1B6
  8
0
 62
7
 10
20.5907
 20
40.0835
 30
0
 70
32
  0
VERTEX
  5
4B1B7
  8
0
 62
7
 10
20.5907
 20
40.084
 30
0
 70
32
  0
VERTEX
  5
4B1B8
  8
0
 62
7
 10
20.5907
 20
40.0846
 30
0
 70
32
  0
VERTEX
  5
4B1B9
  8
0
 62
7
 10
20.5907
 20
40.0851
 30
0
 70
32
  0
VERTEX
  5
4B1BA
  8
0
 62
7
 10
20.5907
 20
40.0857
 30
0
 70
32
  0
VERTEX
  5
4B1BB
  8
0
 62
7
 10
20.5907
 20
40.0863
 30
0
 70
32
  0
VERTEX
  5
4B1BC
  8
0
 62
7
 10
20.5907
 20
40.0868
 30
0
 70
32
  0
VERTEX
  5
4B1BD
  8
0
 62
7
 10
20.5907
 20
40.0874
 30
0
 70
32
  0
VERTEX
  5
4B1BE
  8
0
 62
7
 10
20.5907
 20
40.087999999999987
 30
0
 70
32
  0
VERTEX
  5
4B1BF
  8
0
 62
7
 10
20.5907
 20
40.0886
 30
0
 70
32
  0
VERTEX
  5
4B1C0
  8
0
 62
7
 10
20.5907
 20
40.089199999999991
 30
0
 70
32
  0
VERTEX
  5
4B1C1
  8
0
 62
7
 10
20.5907
 20
40.0898
 30
0
 70
32
  0
VERTEX
  5
4B1C2
  8
0
 62
7
 10
20.5907
 20
40.0904
 30
0
 70
32
  0
VERTEX
  5
4B1C3
  8
0
 62
7
 10
20.5907
 20
40.091
 30
0
 70
32
  0
VERTEX
  5
4B1C4
  8
0
 62
7
 10
20.5907
 20
40.0916
 30
0
 70
32
  0
VERTEX
  5
4B1C5
  8
0
 62
7
 10
20.5907
 20
40.0922
 30
0
 70
32
  0
VERTEX
  5
4B1C6
  8
0
 62
7
 10
20.5907
 20
40.0929
 30
0
 70
32
  0
VERTEX
  5
4B1C7
  8
0
 62
7
 10
20.5907
 20
40.0935
 30
0
 70
32
  0
VERTEX
  5
4B1C8
  8
0
 62
7
 10
20.5907
 20
40.09409999999999
 30
0
 70
32
  0
VERTEX
  5
4B1C9
  8
0
 62
7
 10
20.5907
 20
40.0947
 30
0
 70
32
  0
VERTEX
  5
4B1CA
  8
0
 62
7
 10
20.5907
 20
40.0953
 30
0
 70
32
  0
VERTEX
  5
4B1CB
  8
0
 62
7
 10
20.5907
 20
40.095999999999989
 30
0
 70
32
  0
VERTEX
  5
4B1CC
  8
0
 62
7
 10
20.5907
 20
40.0966
 30
0
 70
32
  0
VERTEX
  5
4B1CD
  8
0
 62
7
 10
20.5907
 20
40.0972
 30
0
 70
32
  0
VERTEX
  5
4B1CE
  8
0
 62
7
 10
20.5907
 20
40.0978
 30
0
 70
32
  0
VERTEX
  5
4B1CF
  8
0
 62
7
 10
20.5907
 20
40.098399999999991
 30
0
 70
32
  0
VERTEX
  5
4B1D0
  8
0
 62
7
 10
20.5907
 20
40.099
 30
0
 70
32
  0
VERTEX
  5
4B1D1
  8
0
 62
7
 10
20.5907
 20
40.0996
 30
0
 70
32
  0
VERTEX
  5
4B1D2
  8
0
 62
7
 10
20.5907
 20
40.100199999999987
 30
0
 70
32
  0
VERTEX
  5
4B1D3
  8
0
 62
7
 10
20.5907
 20
40.1008
 30
0
 70
32
  0
VERTEX
  5
4B1D4
  8
0
 62
7
 10
20.5907
 20
40.101399999999991
 30
0
 70
32
  0
VERTEX
  5
4B1D5
  8
0
 62
7
 10
20.5907
 20
40.102
 30
0
 70
32
  0
VERTEX
  5
4B1D6
  8
0
 62
7
 10
20.5907
 20
40.1026
 30
0
 70
32
  0
VERTEX
  5
4B1D7
  8
0
 62
7
 10
20.5907
 20
40.103099999999991
 30
0
 70
32
  0
VERTEX
  5
4B1D8
  8
0
 62
7
 10
20.5907
 20
40.1037
 30
0
 70
32
  0
VERTEX
  5
4B1D9
  8
0
 62
7
 10
20.5907
 20
40.1043
 30
0
 70
32
  0
VERTEX
  5
4B1DA
  8
0
 62
7
 10
20.5907
 20
40.1048
 30
0
 70
32
  0
VERTEX
  5
4B1DB
  8
0
 62
7
 10
20.5907
 20
40.1054
 30
0
 70
32
  0
VERTEX
  5
4B1DC
  8
0
 62
7
 10
20.5907
 20
40.105899999999991
 30
0
 70
32
  0
VERTEX
  5
4B1DD
  8
0
 62
7
 10
20.5907
 20
40.1064
 30
0
 70
32
  0
VERTEX
  5
4B1DE
  8
0
 62
7
 10
20.5907
 20
40.106999999999992
 30
0
 70
32
  0
VERTEX
  5
4B1DF
  8
0
 62
7
 10
20.5907
 20
40.1075
 30
0
 70
32
  0
VERTEX
  5
4B1E0
  8
0
 62
7
 10
20.5907
 20
40.10799999999999
 30
0
 70
32
  0
VERTEX
  5
4B1E1
  8
0
 62
7
 10
20.5907
 20
40.1085
 30
0
 70
32
  0
VERTEX
  5
4B1E2
  8
0
 62
7
 10
20.5907
 20
40.108899999999991
 30
0
 70
32
  0
VERTEX
  5
4B1E3
  8
0
 62
7
 10
20.5907
 20
40.1094
 30
0
 70
32
  0
VERTEX
  5
4B1E4
  8
0
 62
7
 10
20.5907
 20
40.1099
 30
0
 70
32
  0
VERTEX
  5
4B1E5
  8
0
 62
7
 10
20.5907
 20
40.1103
 30
0
 70
32
  0
VERTEX
  5
4B1E6
  8
0
 62
7
 10
20.5907
 20
40.1107
 30
0
 70
32
  0
VERTEX
  5
4B1E7
  8
0
 62
7
 10
20.5907
 20
40.1112
 30
0
 70
32
  0
VERTEX
  5
4B1E8
  8
0
 62
7
 10
20.5907
 20
40.1116
 30
0
 70
32
  0
VERTEX
  5
4B1E9
  8
0
 62
7
 10
20.5907
 20
40.1119
 30
0
 70
32
  0
VERTEX
  5
4B1EA
  8
0
 62
7
 10
20.5907
 20
40.1123
 30
0
 70
32
  0
VERTEX
  5
4B1EB
  8
0
 62
7
 10
20.5907
 20
40.11269999999999
 30
0
 70
32
  0
VERTEX
  5
4B1EC
  8
0
 62
7
 10
20.5907
 20
40.113
 30
0
 70
32
  0
VERTEX
  5
4B1ED
  8
0
 62
7
 10
20.5907
 20
40.1133
 30
0
 70
32
  0
VERTEX
  5
4B1EE
  8
0
 62
7
 10
20.5907
 20
40.1137
 30
0
 70
32
  0
VERTEX
  5
4B1EF
  8
0
 62
7
 10
20.5907
 20
40.1139
 30
0
 70
32
  0
VERTEX
  5
4B1F0
  8
0
 62
7
 10
20.5907
 20
40.1142
 30
0
 70
32
  0
VERTEX
  5
4B1F1
  8
0
 62
7
 10
20.5907
 20
40.114499999999992
 30
0
 70
32
  0
VERTEX
  5
4B1F2
  8
0
 62
7
 10
20.5907
 20
40.1147
 30
0
 70
32
  0
VERTEX
  5
4B1F3
  8
0
 62
7
 10
20.5907
 20
40.1149
 30
0
 70
32
  0
VERTEX
  5
4B1F4
  8
0
 62
7
 10
20.5907
 20
40.1151
 30
0
 70
32
  0
VERTEX
  5
4B1F5
  8
0
 62
7
 10
20.5907
 20
40.115299999999991
 30
0
 70
32
  0
VERTEX
  5
4B1F6
  8
0
 62
7
 10
20.5907
 20
40.11549999999999
 30
0
 70
32
  0
VERTEX
  5
4B1F7
  8
0
 62
7
 10
20.5907
 20
40.1156
 30
0
 70
32
  0
VERTEX
  5
4B1F8
  8
0
 62
7
 10
20.5907
 20
40.11569999999999
 30
0
 70
32
  0
VERTEX
  5
4B1F9
  8
0
 62
7
 10
20.5907
 20
40.1158
 30
0
 70
32
  0
VERTEX
  5
4B1FA
  8
0
 62
7
 10
20.5907
 20
40.1159
 30
0
 70
32
  0
VERTEX
  5
4B1FB
  8
0
 62
7
 10
20.5907
 20
40.116
 30
0
 70
32
  0
VERTEX
  5
4B1FC
  8
0
 62
7
 10
20.5907
 20
40.116
 30
0
 70
32
  0
VERTEX
  5
4B1FD
  8
0
 62
7
 10
20.5907
 20
40.116
 30
0
 70
32
  0
VERTEX
  5
4B1FE
  8
0
 62
7
 10
20.5907
 20
40.116
 30
0
 70
32
  0
VERTEX
  5
4B1FF
  8
0
 62
7
 10
20.5906
 20
40.116
 30
0
 70
32
  0
VERTEX
  5
4B200
  8
0
 62
7
 10
20.5906
 20
40.116
 30
0
 70
32
  0
VERTEX
  5
4B201
  8
0
 62
7
 10
20.5905
 20
40.116
 30
0
 70
32
  0
VERTEX
  5
4B202
  8
0
 62
7
 10
20.5904
 20
40.116
 30
0
 70
32
  0
VERTEX
  5
4B203
  8
0
 62
7
 10
20.5903
 20
40.116
 30
0
 70
32
  0
VERTEX
  5
4B204
  8
0
 62
7
 10
20.5901
 20
40.116
 30
0
 70
32
  0
VERTEX
  5
4B205
  8
0
 62
7
 10
20.5899
 20
40.116
 30
0
 70
32
  0
VERTEX
  5
4B206
  8
0
 62
7
 10
20.5897
 20
40.116
 30
0
 70
32
  0
VERTEX
  5
4B207
  8
0
 62
7
 10
20.5895
 20
40.116
 30
0
 70
32
  0
VERTEX
  5
4B208
  8
0
 62
7
 10
20.5893
 20
40.116
 30
0
 70
32
  0
VERTEX
  5
4B209
  8
0
 62
7
 10
20.5891
 20
40.116
 30
0
 70
32
  0
VERTEX
  5
4B20A
  8
0
 62
7
 10
20.5888
 20
40.116
 30
0
 70
32
  0
VERTEX
  5
4B20B
  8
0
 62
7
 10
20.5885
 20
40.116
 30
0
 70
32
  0
VERTEX
  5
4B20C
  8
0
 62
7
 10
20.5882
 20
40.116
 30
0
 70
32
  0
VERTEX
  5
4B20D
  8
0
 62
7
 10
20.5879
 20
40.116
 30
0
 70
32
  0
VERTEX
  5
4B20E
  8
0
 62
7
 10
20.5875
 20
40.116
 30
0
 70
32
  0
VERTEX
  5
4B20F
  8
0
 62
7
 10
20.5872
 20
40.116
 30
0
 70
32
  0
VERTEX
  5
4B210
  8
0
 62
7
 10
20.5868
 20
40.116
 30
0
 70
32
  0
VERTEX
  5
4B211
  8
0
 62
7
 10
20.5865
 20
40.116
 30
0
 70
32
  0
VERTEX
  5
4B212
  8
0
 62
7
 10
20.5861
 20
40.116
 30
0
 70
32
  0
VERTEX
  5
4B213
  8
0
 62
7
 10
20.5856
 20
40.116
 30
0
 70
32
  0
VERTEX
  5
4B214
  8
0
 62
7
 10
20.5852
 20
40.116
 30
0
 70
32
  0
VERTEX
  5
4B215
  8
0
 62
7
 10
20.5848
 20
40.116
 30
0
 70
32
  0
VERTEX
  5
4B216
  8
0
 62
7
 10
20.5843
 20
40.116
 30
0
 70
32
  0
VERTEX
  5
4B217
  8
0
 62
7
 10
20.5839
 20
40.116
 30
0
 70
32
  0
VERTEX
  5
4B218
  8
0
 62
7
 10
20.5834
 20
40.116
 30
0
 70
32
  0
VERTEX
  5
4B219
  8
0
 62
7
 10
20.5829
 20
40.116
 30
0
 70
32
  0
VERTEX
  5
4B21A
  8
0
 62
7
 10
20.5824
 20
40.116
 30
0
 70
32
  0
VERTEX
  5
4B21B
  8
0
 62
7
 10
20.5819
 20
40.116
 30
0
 70
32
  0
VERTEX
  5
4B21C
  8
0
 62
7
 10
20.5814
 20
40.116
 30
0
 70
32
  0
VERTEX
  5
4B21D
  8
0
 62
7
 10
20.5809
 20
40.116
 30
0
 70
32
  0
VERTEX
  5
4B21E
  8
0
 62
7
 10
20.5803
 20
40.116
 30
0
 70
32
  0
VERTEX
  5
4B21F
  8
0
 62
7
 10
20.5798
 20
40.116
 30
0
 70
32
  0
VERTEX
  5
4B220
  8
0
 62
7
 10
20.5793
 20
40.116
 30
0
 70
32
  0
VERTEX
  5
4B221
  8
0
 62
7
 10
20.5787
 20
40.116
 30
0
 70
32
  0
VERTEX
  5
4B222
  8
0
 62
7
 10
20.5781
 20
40.116
 30
0
 70
32
  0
VERTEX
  5
4B223
  8
0
 62
7
 10
20.5776
 20
40.116
 30
0
 70
32
  0
VERTEX
  5
4B224
  8
0
 62
7
 10
20.577
 20
40.116
 30
0
 70
32
  0
VERTEX
  5
4B225
  8
0
 62
7
 10
20.5764
 20
40.116
 30
0
 70
32
  0
VERTEX
  5
4B226
  8
0
 62
7
 10
20.5758
 20
40.116
 30
0
 70
32
  0
VERTEX
  5
4B227
  8
0
 62
7
 10
20.5752
 20
40.116
 30
0
 70
32
  0
VERTEX
  5
4B228
  8
0
 62
7
 10
20.5746
 20
40.116
 30
0
 70
32
  0
VERTEX
  5
4B229
  8
0
 62
7
 10
20.574
 20
40.116
 30
0
 70
32
  0
VERTEX
  5
4B22A
  8
0
 62
7
 10
20.5734
 20
40.116
 30
0
 70
32
  0
VERTEX
  5
4B22B
  8
0
 62
7
 10
20.5728
 20
40.116
 30
0
 70
32
  0
VERTEX
  5
4B22C
  8
0
 62
7
 10
20.5722
 20
40.116
 30
0
 70
32
  0
VERTEX
  5
4B22D
  8
0
 62
7
 10
20.5716
 20
40.116
 30
0
 70
32
  0
VERTEX
  5
4B22E
  8
0
 62
7
 10
20.571
 20
40.116
 30
0
 70
32
  0
VERTEX
  5
4B22F
  8
0
 62
7
 10
20.5703
 20
40.116
 30
0
 70
32
  0
VERTEX
  5
4B230
  8
0
 62
7
 10
20.5697
 20
40.116
 30
0
 70
32
  0
VERTEX
  5
4B231
  8
0
 62
7
 10
20.5691
 20
40.116
 30
0
 70
32
  0
VERTEX
  5
4B232
  8
0
 62
7
 10
20.5685
 20
40.116
 30
0
 70
32
  0
VERTEX
  5
4B233
  8
0
 62
7
 10
20.5679
 20
40.116
 30
0
 70
32
  0
VERTEX
  5
4B234
  8
0
 62
7
 10
20.5673
 20
40.116
 30
0
 70
32
  0
VERTEX
  5
4B235
  8
0
 62
7
 10
20.5666
 20
40.116
 30
0
 70
32
  0
VERTEX
  5
4B236
  8
0
 62
7
 10
20.566
 20
40.116
 30
0
 70
32
  0
VERTEX
  5
4B237
  8
0
 62
7
 10
20.5654
 20
40.116
 30
0
 70
32
  0
VERTEX
  5
4B238
  8
0
 62
7
 10
20.5648
 20
40.116
 30
0
 70
32
  0
VERTEX
  5
4B239
  8
0
 62
7
 10
20.5642
 20
40.116
 30
0
 70
32
  0
VERTEX
  5
4B23A
  8
0
 62
7
 10
20.5636
 20
40.116
 30
0
 70
32
  0
VERTEX
  5
4B23B
  8
0
 62
7
 10
20.563
 20
40.116
 30
0
 70
32
  0
VERTEX
  5
4B23C
  8
0
 62
7
 10
20.5624
 20
40.116
 30
0
 70
32
  0
VERTEX
  5
4B23D
  8
0
 62
7
 10
20.5618
 20
40.116
 30
0
 70
32
  0
VERTEX
  5
4B23E
  8
0
 62
7
 10
20.5613
 20
40.116
 30
0
 70
32
  0
VERTEX
  5
4B23F
  8
0
 62
7
 10
20.5607
 20
40.116
 30
0
 70
32
  0
VERTEX
  5
4B240
  8
0
 62
7
 10
20.5601
 20
40.116
 30
0
 70
32
  0
VERTEX
  5
4B241
  8
0
 62
7
 10
20.5596
 20
40.116
 30
0
 70
32
  0
VERTEX
  5
4B242
  8
0
 62
7
 10
20.559
 20
40.116
 30
0
 70
32
  0
VERTEX
  5
4B243
  8
0
 62
7
 10
20.5585
 20
40.116
 30
0
 70
32
  0
VERTEX
  5
4B244
  8
0
 62
7
 10
20.5579
 20
40.116
 30
0
 70
32
  0
VERTEX
  5
4B245
  8
0
 62
7
 10
20.5574
 20
40.116
 30
0
 70
32
  0
VERTEX
  5
4B246
  8
0
 62
7
 10
20.5569
 20
40.116
 30
0
 70
32
  0
VERTEX
  5
4B247
  8
0
 62
7
 10
20.5564
 20
40.116
 30
0
 70
32
  0
VERTEX
  5
4B248
  8
0
 62
7
 10
20.5559
 20
40.116
 30
0
 70
32
  0
VERTEX
  5
4B249
  8
0
 62
7
 10
20.5554
 20
40.116
 30
0
 70
32
  0
VERTEX
  5
4B24A
  8
0
 62
7
 10
20.5549
 20
40.116
 30
0
 70
32
  0
VERTEX
  5
4B24B
  8
0
 62
7
 10
20.5545
 20
40.116
 30
0
 70
32
  0
VERTEX
  5
4B24C
  8
0
 62
7
 10
20.554
 20
40.116
 30
0
 70
32
  0
VERTEX
  5
4B24D
  8
0
 62
7
 10
20.5536
 20
40.116
 30
0
 70
32
  0
VERTEX
  5
4B24E
  8
0
 62
7
 10
20.5531
 20
40.116
 30
0
 70
32
  0
VERTEX
  5
4B24F
  8
0
 62
7
 10
20.5527
 20
40.116
 30
0
 70
32
  0
VERTEX
  5
4B250
  8
0
 62
7
 10
20.5523
 20
40.116
 30
0
 70
32
  0
VERTEX
  5
4B251
  8
0
 62
7
 10
20.5519
 20
40.116
 30
0
 70
32
  0
VERTEX
  5
4B252
  8
0
 62
7
 10
20.5516
 20
40.116
 30
0
 70
32
  0
VERTEX
  5
4B253
  8
0
 62
7
 10
20.5512
 20
40.116
 30
0
 70
32
  0
VERTEX
  5
4B254
  8
0
 62
7
 10
20.5509
 20
40.116
 30
0
 70
32
  0
VERTEX
  5
4B255
  8
0
 62
7
 10
20.5506
 20
40.116
 30
0
 70
32
  0
VERTEX
  5
4B256
  8
0
 62
7
 10
20.5503
 20
40.116
 30
0
 70
32
  0
VERTEX
  5
4B257
  8
0
 62
7
 10
20.55
 20
40.116
 30
0
 70
32
  0
VERTEX
  5
4B258
  8
0
 62
7
 10
20.5497
 20
40.116
 30
0
 70
32
  0
VERTEX
  5
4B259
  8
0
 62
7
 10
20.5494
 20
40.116
 30
0
 70
32
  0
VERTEX
  5
4B25A
  8
0
 62
7
 10
20.5492
 20
40.116
 30
0
 70
32
  0
VERTEX
  5
4B25B
  8
0
 62
7
 10
20.549
 20
40.116
 30
0
 70
32
  0
VERTEX
  5
4B25C
  8
0
 62
7
 10
20.5488
 20
40.116
 30
0
 70
32
  0
VERTEX
  5
4B25D
  8
0
 62
7
 10
20.5486
 20
40.116
 30
0
 70
32
  0
VERTEX
  5
4B25E
  8
0
 62
7
 10
20.5485
 20
40.116
 30
0
 70
32
  0
VERTEX
  5
4B25F
  8
0
 62
7
 10
20.5483
 20
40.116
 30
0
 70
32
  0
VERTEX
  5
4B260
  8
0
 62
7
 10
20.5482
 20
40.116
 30
0
 70
32
  0
VERTEX
  5
4B261
  8
0
 62
7
 10
20.5481
 20
40.116
 30
0
 70
32
  0
VERTEX
  5
4B262
  8
0
 62
7
 10
20.5481
 20
40.116
 30
0
 70
32
  0
VERTEX
  5
4B263
  8
0
 62
7
 10
20.548
 20
40.116
 30
0
 70
32
  0
VERTEX
  5
4B264
  8
0
 62
7
 10
20.548
 20
40.116
 30
0
 70
32
  0
VERTEX
  5
4B265
  8
0
 62
7
 10
20.548
 20
40.116
 30
0
 70
32
  0
VERTEX
  5
4B266
  8
0
 62
7
 10
20.548
 20
40.116
 30
0
 70
32
  0
VERTEX
  5
4B267
  8
0
 62
7
 10
20.5481
 20
40.116
 30
0
 70
32
  0
VERTEX
  5
4B268
  8
0
 62
7
 10
20.5481
 20
40.116
 30
0
 70
32
  0
VERTEX
  5
4B269
  8
0
 62
7
 10
20.5482
 20
40.116
 30
0
 70
32
  0
VERTEX
  5
4B26A
  8
0
 62
7
 10
20.5483
 20
40.116
 30
0
 70
32
  0
VERTEX
  5
4B26B
  8
0
 62
7
 10
20.5485
 20
40.116
 30
0
 70
32
  0
VERTEX
  5
4B26C
  8
0
 62
7
 10
20.5486
 20
40.116
 30
0
 70
32
  0
VERTEX
  5
4B26D
  8
0
 62
7
 10
20.5488
 20
40.116
 30
0
 70
32
  0
VERTEX
  5
4B26E
  8
0
 62
7
 10
20.549
 20
40.116
 30
0
 70
32
  0
VERTEX
  5
4B26F
  8
0
 62
7
 10
20.5492
 20
40.116
 30
0
 70
32
  0
VERTEX
  5
4B270
  8
0
 62
7
 10
20.5494
 20
40.116
 30
0
 70
32
  0
VERTEX
  5
4B271
  8
0
 62
7
 10
20.5497
 20
40.116
 30
0
 70
32
  0
VERTEX
  5
4B272
  8
0
 62
7
 10
20.55
 20
40.116
 30
0
 70
32
  0
VERTEX
  5
4B273
  8
0
 62
7
 10
20.5503
 20
40.116
 30
0
 70
32
  0
VERTEX
  5
4B274
  8
0
 62
7
 10
20.5506
 20
40.116
 30
0
 70
32
  0
VERTEX
  5
4B275
  8
0
 62
7
 10
20.5509
 20
40.116
 30
0
 70
32
  0
VERTEX
  5
4B276
  8
0
 62
7
 10
20.5512
 20
40.116
 30
0
 70
32
  0
VERTEX
  5
4B277
  8
0
 62
7
 10
20.5516
 20
40.116
 30
0
 70
32
  0
VERTEX
  5
4B278
  8
0
 62
7
 10
20.5519
 20
40.116
 30
0
 70
32
  0
VERTEX
  5
4B279
  8
0
 62
7
 10
20.5523
 20
40.116
 30
0
 70
32
  0
VERTEX
  5
4B27A
  8
0
 62
7
 10
20.5527
 20
40.116
 30
0
 70
32
  0
VERTEX
  5
4B27B
  8
0
 62
7
 10
20.5531
 20
40.116
 30
0
 70
32
  0
VERTEX
  5
4B27C
  8
0
 62
7
 10
20.5536
 20
40.116
 30
0
 70
32
  0
VERTEX
  5
4B27D
  8
0
 62
7
 10
20.554
 20
40.116
 30
0
 70
32
  0
VERTEX
  5
4B27E
  8
0
 62
7
 10
20.5545
 20
40.116
 30
0
 70
32
  0
VERTEX
  5
4B27F
  8
0
 62
7
 10
20.5549
 20
40.116
 30
0
 70
32
  0
VERTEX
  5
4B280
  8
0
 62
7
 10
20.5554
 20
40.116
 30
0
 70
32
  0
VERTEX
  5
4B281
  8
0
 62
7
 10
20.5559
 20
40.116
 30
0
 70
32
  0
VERTEX
  5
4B282
  8
0
 62
7
 10
20.5564
 20
40.116
 30
0
 70
32
  0
VERTEX
  5
4B283
  8
0
 62
7
 10
20.5569
 20
40.116
 30
0
 70
32
  0
VERTEX
  5
4B284
  8
0
 62
7
 10
20.5574
 20
40.116
 30
0
 70
32
  0
VERTEX
  5
4B285
  8
0
 62
7
 10
20.5579
 20
40.116
 30
0
 70
32
  0
VERTEX
  5
4B286
  8
0
 62
7
 10
20.5585
 20
40.116
 30
0
 70
32
  0
VERTEX
  5
4B287
  8
0
 62
7
 10
20.559
 20
40.116
 30
0
 70
32
  0
VERTEX
  5
4B288
  8
0
 62
7
 10
20.5596
 20
40.116
 30
0
 70
32
  0
VERTEX
  5
4B289
  8
0
 62
7
 10
20.5601
 20
40.116
 30
0
 70
32
  0
VERTEX
  5
4B28A
  8
0
 62
7
 10
20.5607
 20
40.116
 30
0
 70
32
  0
VERTEX
  5
4B28B
  8
0
 62
7
 10
20.5613
 20
40.116
 30
0
 70
32
  0
VERTEX
  5
4B28C
  8
0
 62
7
 10
20.5618
 20
40.116
 30
0
 70
32
  0
VERTEX
  5
4B28D
  8
0
 62
7
 10
20.5624
 20
40.116
 30
0
 70
32
  0
VERTEX
  5
4B28E
  8
0
 62
7
 10
20.563
 20
40.116
 30
0
 70
32
  0
VERTEX
  5
4B28F
  8
0
 62
7
 10
20.5636
 20
40.116
 30
0
 70
32
  0
VERTEX
  5
4B290
  8
0
 62
7
 10
20.5642
 20
40.116
 30
0
 70
32
  0
VERTEX
  5
4B291
  8
0
 62
7
 10
20.5648
 20
40.116
 30
0
 70
32
  0
VERTEX
  5
4B292
  8
0
 62
7
 10
20.5654
 20
40.116
 30
0
 70
32
  0
VERTEX
  5
4B293
  8
0
 62
7
 10
20.566
 20
40.116
 30
0
 70
32
  0
VERTEX
  5
4B294
  8
0
 62
7
 10
20.5666
 20
40.116
 30
0
 70
32
  0
VERTEX
  5
4B295
  8
0
 62
7
 10
20.5673
 20
40.116
 30
0
 70
32
  0
VERTEX
  5
4B296
  8
0
 62
7
 10
20.5679
 20
40.116
 30
0
 70
32
  0
VERTEX
  5
4B297
  8
0
 62
7
 10
20.5685
 20
40.116
 30
0
 70
32
  0
VERTEX
  5
4B298
  8
0
 62
7
 10
20.5691
 20
40.116
 30
0
 70
32
  0
VERTEX
  5
4B299
  8
0
 62
7
 10
20.5697
 20
40.116
 30
0
 70
32
  0
VERTEX
  5
4B29A
  8
0
 62
7
 10
20.5703
 20
40.116
 30
0
 70
32
  0
VERTEX
  5
4B29B
  8
0
 62
7
 10
20.571
 20
40.116
 30
0
 70
32
  0
VERTEX
  5
4B29C
  8
0
 62
7
 10
20.5716
 20
40.116
 30
0
 70
32
  0
VERTEX
  5
4B29D
  8
0
 62
7
 10
20.5722
 20
40.116
 30
0
 70
32
  0
VERTEX
  5
4B29E
  8
0
 62
7
 10
20.5728
 20
40.116
 30
0
 70
32
  0
VERTEX
  5
4B29F
  8
0
 62
7
 10
20.5734
 20
40.116
 30
0
 70
32
  0
VERTEX
  5
4B2A0
  8
0
 62
7
 10
20.574
 20
40.116
 30
0
 70
32
  0
VERTEX
  5
4B2A1
  8
0
 62
7
 10
20.5746
 20
40.116
 30
0
 70
32
  0
VERTEX
  5
4B2A2
  8
0
 62
7
 10
20.5752
 20
40.116
 30
0
 70
32
  0
VERTEX
  5
4B2A3
  8
0
 62
7
 10
20.5758
 20
40.116
 30
0
 70
32
  0
VERTEX
  5
4B2A4
  8
0
 62
7
 10
20.5764
 20
40.116
 30
0
 70
32
  0
VERTEX
  5
4B2A5
  8
0
 62
7
 10
20.577
 20
40.116
 30
0
 70
32
  0
VERTEX
  5
4B2A6
  8
0
 62
7
 10
20.5776
 20
40.116
 30
0
 70
32
  0
VERTEX
  5
4B2A7
  8
0
 62
7
 10
20.5781
 20
40.116
 30
0
 70
32
  0
VERTEX
  5
4B2A8
  8
0
 62
7
 10
20.5787
 20
40.116
 30
0
 70
32
  0
VERTEX
  5
4B2A9
  8
0
 62
7
 10
20.5793
 20
40.116
 30
0
 70
32
  0
VERTEX
  5
4B2AA
  8
0
 62
7
 10
20.5798
 20
40.116
 30
0
 70
32
  0
VERTEX
  5
4B2AB
  8
0
 62
7
 10
20.5803
 20
40.116
 30
0
 70
32
  0
VERTEX
  5
4B2AC
  8
0
 62
7
 10
20.5809
 20
40.116
 30
0
 70
32
  0
VERTEX
  5
4B2AD
  8
0
 62
7
 10
20.5814
 20
40.116
 30
0
 70
32
  0
VERTEX
  5
4B2AE
  8
0
 62
7
 10
20.5819
 20
40.116
 30
0
 70
32
  0
VERTEX
  5
4B2AF
  8
0
 62
7
 10
20.5824
 20
40.116
 30
0
 70
32
  0
VERTEX
  5
4B2B0
  8
0
 62
7
 10
20.5829
 20
40.116
 30
0
 70
32
  0
VERTEX
  5
4B2B1
  8
0
 62
7
 10
20.5834
 20
40.116
 30
0
 70
32
  0
VERTEX
  5
4B2B2
  8
0
 62
7
 10
20.5839
 20
40.116
 30
0
 70
32
  0
VERTEX
  5
4B2B3
  8
0
 62
7
 10
20.5843
 20
40.116
 30
0
 70
32
  0
VERTEX
  5
4B2B4
  8
0
 62
7
 10
20.5848
 20
40.116
 30
0
 70
32
  0
VERTEX
  5
4B2B5
  8
0
 62
7
 10
20.5852
 20
40.116
 30
0
 70
32
  0
VERTEX
  5
4B2B6
  8
0
 62
7
 10
20.5856
 20
40.116
 30
0
 70
32
  0
VERTEX
  5
4B2B7
  8
0
 62
7
 10
20.5861
 20
40.116
 30
0
 70
32
  0
VERTEX
  5
4B2B8
  8
0
 62
7
 10
20.5865
 20
40.116
 30
0
 70
32
  0
VERTEX
  5
4B2B9
  8
0
 62
7
 10
20.5868
 20
40.116
 30
0
 70
32
  0
VERTEX
  5
4B2BA
  8
0
 62
7
 10
20.5872
 20
40.116
 30
0
 70
32
  0
VERTEX
  5
4B2BB
  8
0
 62
7
 10
20.5875
 20
40.116
 30
0
 70
32
  0
VERTEX
  5
4B2BC
  8
0
 62
7
 10
20.5879
 20
40.116
 30
0
 70
32
  0
VERTEX
  5
4B2BD
  8
0
 62
7
 10
20.5882
 20
40.116
 30
0
 70
32
  0
VERTEX
  5
4B2BE
  8
0
 62
7
 10
20.5885
 20
40.116
 30
0
 70
32
  0
VERTEX
  5
4B2BF
  8
0
 62
7
 10
20.5888
 20
40.116
 30
0
 70
32
  0
VERTEX
  5
4B2C0
  8
0
 62
7
 10
20.5891
 20
40.116
 30
0
 70
32
  0
VERTEX
  5
4B2C1
  8
0
 62
7
 10
20.5893
 20
40.116
 30
0
 70
32
  0
VERTEX
  5
4B2C2
  8
0
 62
7
 10
20.5895
 20
40.116
 30
0
 70
32
  0
VERTEX
  5
4B2C3
  8
0
 62
7
 10
20.5897
 20
40.116
 30
0
 70
32
  0
VERTEX
  5
4B2C4
  8
0
 62
7
 10
20.5899
 20
40.116
 30
0
 70
32
  0
VERTEX
  5
4B2C5
  8
0
 62
7
 10
20.5901
 20
40.116
 30
0
 70
32
  0
VERTEX
  5
4B2C6
  8
0
 62
7
 10
20.5903
 20
40.116
 30
0
 70
32
  0
VERTEX
  5
4B2C7
  8
0
 62
7
 10
20.5904
 20
40.116
 30
0
 70
32
  0
VERTEX
  5
4B2C8
  8
0
 62
7
 10
20.5905
 20
40.116
 30
0
 70
32
  0
VERTEX
  5
4B2C9
  8
0
 62
7
 10
20.5906
 20
40.116
 30
0
 70
32
  0
VERTEX
  5
4B2CA
  8
0
 62
7
 10
20.5906
 20
40.116
 30
0
 70
32
  0
VERTEX
  5
4B2CB
  8
0
 62
7
 10
20.5907
 20
40.116
 30
0
 70
32
  0
VERTEX
  5
4B2CC
  8
0
 62
7
 10
20.5907
 20
40.116
 30
0
 70
32
  0
VERTEX
  5
4B2CD
  8
0
 62
7
 10
20.5907
 20
40.116
 30
0
 70
32
  0
VERTEX
  5
4B2CE
  8
0
 62
7
 10
20.5907
 20
40.116
 30
0
 70
32
  0
VERTEX
  5
4B2CF
  8
0
 62
7
 10
20.5907
 20
40.1161
 30
0
 70
32
  0
VERTEX
  5
4B2D0
  8
0
 62
7
 10
20.5907
 20
40.116199999999992
 30
0
 70
32
  0
VERTEX
  5
4B2D1
  8
0
 62
7
 10
20.5907
 20
40.1163
 30
0
 70
32
  0
VERTEX
  5
4B2D2
  8
0
 62
7
 10
20.5907
 20
40.116399999999992
 30
0
 70
32
  0
VERTEX
  5
4B2D3
  8
0
 62
7
 10
20.5907
 20
40.1165
 30
0
 70
32
  0
VERTEX
  5
4B2D4
  8
0
 62
7
 10
20.5907
 20
40.1167
 30
0
 70
32
  0
VERTEX
  5
4B2D5
  8
0
 62
7
 10
20.5907
 20
40.1169
 30
0
 70
32
  0
VERTEX
  5
4B2D6
  8
0
 62
7
 10
20.5907
 20
40.117099999999994
 30
0
 70
32
  0
VERTEX
  5
4B2D7
  8
0
 62
7
 10
20.5907
 20
40.1173
 30
0
 70
32
  0
VERTEX
  5
4B2D8
  8
0
 62
7
 10
20.5907
 20
40.1175
 30
0
 70
32
  0
VERTEX
  5
4B2D9
  8
0
 62
7
 10
20.5907
 20
40.1178
 30
0
 70
32
  0
VERTEX
  5
4B2DA
  8
0
 62
7
 10
20.5907
 20
40.118
 30
0
 70
32
  0
VERTEX
  5
4B2DB
  8
0
 62
7
 10
20.5907
 20
40.118299999999991
 30
0
 70
32
  0
VERTEX
  5
4B2DC
  8
0
 62
7
 10
20.5907
 20
40.1186
 30
0
 70
32
  0
VERTEX
  5
4B2DD
  8
0
 62
7
 10
20.5907
 20
40.118999999999993
 30
0
 70
32
  0
VERTEX
  5
4B2DE
  8
0
 62
7
 10
20.5907
 20
40.1193
 30
0
 70
32
  0
VERTEX
  5
4B2DF
  8
0
 62
7
 10
20.5907
 20
40.1197
 30
0
 70
32
  0
VERTEX
  5
4B2E0
  8
0
 62
7
 10
20.5907
 20
40.11999999999999
 30
0
 70
32
  0
VERTEX
  5
4B2E1
  8
0
 62
7
 10
20.5907
 20
40.120399999999989
 30
0
 70
32
  0
VERTEX
  5
4B2E2
  8
0
 62
7
 10
20.5907
 20
40.1208
 30
0
 70
32
  0
VERTEX
  5
4B2E3
  8
0
 62
7
 10
20.5907
 20
40.1212
 30
0
 70
32
  0
VERTEX
  5
4B2E4
  8
0
 62
7
 10
20.5907
 20
40.1217
 30
0
 70
32
  0
VERTEX
  5
4B2E5
  8
0
 62
7
 10
20.5907
 20
40.1221
 30
0
 70
32
  0
VERTEX
  5
4B2E6
  8
0
 62
7
 10
20.5907
 20
40.1226
 30
0
 70
32
  0
VERTEX
  5
4B2E7
  8
0
 62
7
 10
20.5907
 20
40.12299999999999
 30
0
 70
32
  0
VERTEX
  5
4B2E8
  8
0
 62
7
 10
20.5907
 20
40.1235
 30
0
 70
32
  0
VERTEX
  5
4B2E9
  8
0
 62
7
 10
20.5907
 20
40.124
 30
0
 70
32
  0
VERTEX
  5
4B2EA
  8
0
 62
7
 10
20.5907
 20
40.1245
 30
0
 70
32
  0
VERTEX
  5
4B2EB
  8
0
 62
7
 10
20.5907
 20
40.125
 30
0
 70
32
  0
VERTEX
  5
4B2EC
  8
0
 62
7
 10
20.5907
 20
40.1255
 30
0
 70
32
  0
VERTEX
  5
4B2ED
  8
0
 62
7
 10
20.5907
 20
40.125999999999991
 30
0
 70
32
  0
VERTEX
  5
4B2EE
  8
0
 62
7
 10
20.5907
 20
40.1266
 30
0
 70
32
  0
VERTEX
  5
4B2EF
  8
0
 62
7
 10
20.5907
 20
40.1271
 30
0
 70
32
  0
VERTEX
  5
4B2F0
  8
0
 62
7
 10
20.5907
 20
40.12769999999999
 30
0
 70
32
  0
VERTEX
  5
4B2F1
  8
0
 62
7
 10
20.5907
 20
40.1282
 30
0
 70
32
  0
VERTEX
  5
4B2F2
  8
0
 62
7
 10
20.5907
 20
40.1288
 30
0
 70
32
  0
VERTEX
  5
4B2F3
  8
0
 62
7
 10
20.5907
 20
40.12939999999999
 30
0
 70
32
  0
VERTEX
  5
4B2F4
  8
0
 62
7
 10
20.5907
 20
40.1299
 30
0
 70
32
  0
VERTEX
  5
4B2F5
  8
0
 62
7
 10
20.5907
 20
40.130499999999991
 30
0
 70
32
  0
VERTEX
  5
4B2F6
  8
0
 62
7
 10
20.5907
 20
40.1311
 30
0
 70
32
  0
VERTEX
  5
4B2F7
  8
0
 62
7
 10
20.5907
 20
40.1317
 30
0
 70
32
  0
VERTEX
  5
4B2F8
  8
0
 62
7
 10
20.5907
 20
40.1323
 30
0
 70
32
  0
VERTEX
  5
4B2F9
  8
0
 62
7
 10
20.5907
 20
40.1329
 30
0
 70
32
  0
VERTEX
  5
4B2FA
  8
0
 62
7
 10
20.5907
 20
40.133499999999991
 30
0
 70
32
  0
VERTEX
  5
4B2FB
  8
0
 62
7
 10
20.5907
 20
40.134099999999989
 30
0
 70
32
  0
VERTEX
  5
4B2FC
  8
0
 62
7
 10
20.5907
 20
40.1347
 30
0
 70
32
  0
VERTEX
  5
4B2FD
  8
0
 62
7
 10
20.5907
 20
40.13539999999999
 30
0
 70
32
  0
VERTEX
  5
4B2FE
  8
0
 62
7
 10
20.5907
 20
40.136
 30
0
 70
32
  0
VERTEX
  5
4B2FF
  8
0
 62
7
 10
20.5907
 20
40.1366
 30
0
 70
32
  0
VERTEX
  5
4B300
  8
0
 62
7
 10
20.5907
 20
40.1372
 30
0
 70
32
  0
VERTEX
  5
4B301
  8
0
 62
7
 10
20.5907
 20
40.137799999999991
 30
0
 70
32
  0
VERTEX
  5
4B302
  8
0
 62
7
 10
20.5907
 20
40.1384
 30
0
 70
32
  0
VERTEX
  5
4B303
  8
0
 62
7
 10
20.5907
 20
40.139
 30
0
 70
32
  0
VERTEX
  5
4B304
  8
0
 62
7
 10
20.5907
 20
40.139699999999991
 30
0
 70
32
  0
VERTEX
  5
4B305
  8
0
 62
7
 10
20.5907
 20
40.1403
 30
0
 70
32
  0
VERTEX
  5
4B306
  8
0
 62
7
 10
20.5907
 20
40.1409
 30
0
 70
32
  0
VERTEX
  5
4B307
  8
0
 62
7
 10
20.5907
 20
40.141499999999994
 30
0
 70
32
  0
VERTEX
  5
4B308
  8
0
 62
7
 10
20.5907
 20
40.1421
 30
0
 70
32
  0
VERTEX
  5
4B309
  8
0
 62
7
 10
20.5907
 20
40.142699999999991
 30
0
 70
32
  0
VERTEX
  5
4B30A
  8
0
 62
7
 10
20.5907
 20
40.1433
 30
0
 70
32
  0
VERTEX
  5
4B30B
  8
0
 62
7
 10
20.5907
 20
40.1439
 30
0
 70
32
  0
VERTEX
  5
4B30C
  8
0
 62
7
 10
20.5907
 20
40.14439999999999
 30
0
 70
32
  0
VERTEX
  5
4B30D
  8
0
 62
7
 10
20.5907
 20
40.145
 30
0
 70
32
  0
VERTEX
  5
4B30E
  8
0
 62
7
 10
20.5907
 20
40.1456
 30
0
 70
32
  0
VERTEX
  5
4B30F
  8
0
 62
7
 10
20.5907
 20
40.146199999999993
 30
0
 70
32
  0
VERTEX
  5
4B310
  8
0
 62
7
 10
20.5907
 20
40.1467
 30
0
 70
32
  0
VERTEX
  5
4B311
  8
0
 62
7
 10
20.5907
 20
40.1473
 30
0
 70
32
  0
VERTEX
  5
4B312
  8
0
 62
7
 10
20.5907
 20
40.1478
 30
0
 70
32
  0
VERTEX
  5
4B313
  8
0
 62
7
 10
20.5907
 20
40.1484
 30
0
 70
32
  0
VERTEX
  5
4B314
  8
0
 62
7
 10
20.5907
 20
40.1489
 30
0
 70
32
  0
VERTEX
  5
4B315
  8
0
 62
7
 10
20.5907
 20
40.1494
 30
0
 70
32
  0
VERTEX
  5
4B316
  8
0
 62
7
 10
20.5907
 20
40.1499
 30
0
 70
32
  0
VERTEX
  5
4B317
  8
0
 62
7
 10
20.5907
 20
40.150399999999991
 30
0
 70
32
  0
VERTEX
  5
4B318
  8
0
 62
7
 10
20.5907
 20
40.150899999999993
 30
0
 70
32
  0
VERTEX
  5
4B319
  8
0
 62
7
 10
20.5907
 20
40.1514
 30
0
 70
32
  0
VERTEX
  5
4B31A
  8
0
 62
7
 10
20.5907
 20
40.151899999999991
 30
0
 70
32
  0
VERTEX
  5
4B31B
  8
0
 62
7
 10
20.5907
 20
40.15229999999999
 30
0
 70
32
  0
VERTEX
  5
4B31C
  8
0
 62
7
 10
20.5907
 20
40.152799999999992
 30
0
 70
32
  0
VERTEX
  5
4B31D
  8
0
 62
7
 10
20.5907
 20
40.1532
 30
0
 70
32
  0
VERTEX
  5
4B31E
  8
0
 62
7
 10
20.5907
 20
40.1536
 30
0
 70
32
  0
VERTEX
  5
4B31F
  8
0
 62
7
 10
20.5907
 20
40.154
 30
0
 70
32
  0
VERTEX
  5
4B320
  8
0
 62
7
 10
20.5907
 20
40.1544
 30
0
 70
32
  0
VERTEX
  5
4B321
  8
0
 62
7
 10
20.5907
 20
40.1548
 30
0
 70
32
  0
VERTEX
  5
4B322
  8
0
 62
7
 10
20.5907
 20
40.15509999999999
 30
0
 70
32
  0
VERTEX
  5
4B323
  8
0
 62
7
 10
20.5907
 20
40.1555
 30
0
 70
32
  0
VERTEX
  5
4B324
  8
0
 62
7
 10
20.5907
 20
40.155799999999992
 30
0
 70
32
  0
VERTEX
  5
4B325
  8
0
 62
7
 10
20.5907
 20
40.1561
 30
0
 70
32
  0
VERTEX
  5
4B326
  8
0
 62
7
 10
20.5907
 20
40.1564
 30
0
 70
32
  0
VERTEX
  5
4B327
  8
0
 62
7
 10
20.5907
 20
40.1567
 30
0
 70
32
  0
VERTEX
  5
4B328
  8
0
 62
7
 10
20.5907
 20
40.156999999999989
 30
0
 70
32
  0
VERTEX
  5
4B329
  8
0
 62
7
 10
20.5907
 20
40.1572
 30
0
 70
32
  0
VERTEX
  5
4B32A
  8
0
 62
7
 10
20.5907
 20
40.1574
 30
0
 70
32
  0
VERTEX
  5
4B32B
  8
0
 62
7
 10
20.5907
 20
40.1576
 30
0
 70
32
  0
VERTEX
  5
4B32C
  8
0
 62
7
 10
20.5907
 20
40.1578
 30
0
 70
32
  0
VERTEX
  5
4B32D
  8
0
 62
7
 10
20.5907
 20
40.158
 30
0
 70
32
  0
VERTEX
  5
4B32E
  8
0
 62
7
 10
20.5907
 20
40.1581
 30
0
 70
32
  0
VERTEX
  5
4B32F
  8
0
 62
7
 10
20.5907
 20
40.1583
 30
0
 70
32
  0
VERTEX
  5
4B330
  8
0
 62
7
 10
20.5907
 20
40.158399999999993
 30
0
 70
32
  0
VERTEX
  5
4B331
  8
0
 62
7
 10
20.5907
 20
40.158399999999993
 30
0
 70
32
  0
VERTEX
  5
4B332
  8
0
 62
7
 10
20.5907
 20
40.158499999999989
 30
0
 70
32
  0
VERTEX
  5
4B333
  8
0
 62
7
 10
20.5907
 20
40.158499999999989
 30
0
 70
32
  0
VERTEX
  5
4B334
  8
0
 62
7
 10
20.5907
 20
40.158499999999989
 30
0
 70
32
  0
SEQEND
  5
4B335
  8
0
  0
POLYLINE
  5
4AD0C
  8
0
 62
7
 66
1
 70
0
 10
0
 20
0
 30
0
  0
VERTEX
  5
59B6D
  8
0
 62
7
 10
26.34676521143636
 20
42.1899455954824
 70
0
  0
VERTEX
  5
59B6E
  8
0
 62
7
 10
26.30404602741925
 20
42.1899455954824
 70
0
  0
SEQEND
  5
59B6F
  8
0
  0
POLYLINE
  5
4AD10
  8
0
 62
7
 66
1
 70
0
 10
0
 20
0
 30
0
  0
VERTEX
  5
59B70
  8
0
 62
7
 10
28.379371547733768
 20
41.978933497010857
 70
0
  0
VERTEX
  5
59B71
  8
0
 62
7
 10
28.379371547733768
 20
41.978933497010857
 70
0
  0
SEQEND
  5
59B72
  8
0
  0
POLYLINE
  5
4AD14
  8
0
 62
7
 66
1
 70
0
 10
0
 20
0
 30
0
  0
VERTEX
  5
59B73
  8
0
 62
7
 10
28.463431877573871
 20
41.766543360345153
 70
0
  0
VERTEX
  5
59B74
  8
0
 62
7
 10
28.463431877573871
 20
41.766543360345153
 70
0
  0
SEQEND
  5
59B75
  8
0
  0
POLYLINE
  5
4AD18
  8
0
 62
7
 66
1
 70
0
 10
0
 20
0
 30
0
  0
VERTEX
  5
59B76
  8
0
 62
7
 10
28.379371547733768
 20
41.639936101262251
 70
0
  0
VERTEX
  5
59B77
  8
0
 62
7
 10
28.379371547733768
 20
41.639936101262251
 70
0
  0
SEQEND
  5
59B78
  8
0
  0
POLYLINE
  5
4AD1C
  8
0
 62
7
 66
1
 70
0
 10
0
 20
0
 30
0
  0
VERTEX
  5
59B79
  8
0
 62
7
 10
60.549673188996742
 20
25.76631414342512
 70
0
  0
VERTEX
  5
59B7A
  8
0
 62
7
 10
60.506954004979633
 20
25.76631414342512
 70
0
  0
VERTEX
  5
59B7B
  8
0
 62
7
 10
60.506954004979633
 20
25.80903332744219
 70
0
  0
SEQEND
  5
59B7C
  8
0
  0
POLYLINE
  5
4AD21
  8
0
 62
7
 66
1
 70
0
 10
0
 20
0
 30
0
  0
VERTEX
  5
59B7D
  8
0
 62
7
 10
60.59239237301383
 20
25.553924006759448
 70
0
  0
VERTEX
  5
59B7E
  8
0
 62
7
 10
60.59239237301383
 20
25.596643190776561
 70
0
  0
SEQEND
  5
59B7F
  8
0
  0
POLYLINE
  5
4AD25
  8
0
 62
7
 66
1
 70
0
 10
0
 20
0
 30
0
  0
VERTEX
  5
59B80
  8
0
 62
7
 10
60.506954004979633
 20
25.42731674767651
 70
0
  0
VERTEX
  5
59B81
  8
0
 62
7
 10
60.506954004979633
 20
25.470035931693609
 70
0
  0
VERTEX
  5
59B82
  8
0
 62
7
 10
60.549673188996742
 20
25.470035931693609
 70
0
  0
SEQEND
  5
59B83
  8
0
  0
POLYLINE
  5
4AD2A
  8
0
 62
7
 66
1
 70
0
 10
0
 20
0
 30
0
  0
VERTEX
  5
59B84
  8
0
 62
7
 10
63.80873351804307
 20
23.606928293270489
 70
0
  0
VERTEX
  5
59B85
  8
0
 62
7
 10
63.80873351804307
 20
23.47997652463906
 70
0
  0
SEQEND
  5
59B86
  8
0
  0
POLYLINE
  5
4AD2E
  8
0
 62
7
 66
1
 70
0
 10
0
 20
0
 30
0
  0
VERTEX
  5
59B87
  8
0
 62
7
 10
63.80873351804307
 20
23.47997652463906
 70
0
  0
VERTEX
  5
59B88
  8
0
 62
7
 10
63.80873351804307
 20
23.47997652463906
 70
0
  0
VERTEX
  5
59B89
  8
0
 62
7
 10
63.766014334025982
 20
23.438635378816059
 70
0
  0
SEQEND
  5
59B8A
  8
0
  0
POLYLINE
  5
4AD33
  8
0
 62
7
 66
1
 70
0
 10
0
 20
0
 30
0
  0
VERTEX
  5
59B8B
  8
0
 62
7
 10
63.80873351804307
 20
23.52304021820467
 70
0
  0
VERTEX
  5
59B8C
  8
0
 62
7
 10
63.766014334025982
 20
23.52304021820467
 70
0
  0
VERTEX
  5
59B8D
  8
0
 62
7
 10
63.766014334025982
 20
23.47997652463906
 70
0
  0
VERTEX
  5
59B8E
  8
0
 62
7
 10
63.724673188202971
 20
23.47997652463906
 70
0
  0
SEQEND
  5
59B8F
  8
0
  0
POLYLINE
  5
4AD39
  8
0
 62
7
 66
1
 70
0
 10
0
 20
0
 30
0
  0
VERTEX
  5
59B90
  8
0
 62
7
 10
63.724673188202971
 20
23.47997652463906
 70
0
  0
VERTEX
  5
59B91
  8
0
 62
7
 10
63.68195400418589
 20
23.47997652463906
 70
0
  0
VERTEX
  5
59B92
  8
0
 62
7
 10
63.68195400418589
 20
23.606928293270489
 70
0
  0
VERTEX
  5
59B93
  8
0
 62
7
 10
63.724673188202971
 20
23.606928293270489
 70
0
  0
SEQEND
  5
59B94
  8
0
  0
POLYLINE
  5
4AD3F
  8
0
 62
7
 66
1
 70
0
 10
0
 20
0
 30
0
  0
VERTEX
  5
59B95
  8
0
 62
7
 10
63.766014334025982
 20
23.606928293270489
 70
0
  0
VERTEX
  5
59B96
  8
0
 62
7
 10
63.80873351804307
 20
23.606928293270489
 70
0
  0
VERTEX
  5
59B97
  8
0
 62
7
 10
63.80873351804307
 20
23.52304021820467
 70
0
  0
SEQEND
  5
59B98
  8
0
  0
POLYLINE
  5
4AD44
  8
0
 62
7
 66
1
 70
0
 10
0
 20
0
 30
0
  0
VERTEX
  5
59B99
  8
0
 62
7
 10
24.908093336796021
 20
42.698269434330967
 70
0
  0
VERTEX
  5
59B9A
  8
0
 62
7
 10
24.908093336796021
 20
42.740988618348112
 70
0
  0
VERTEX
  5
59B9B
  8
0
 62
7
 10
24.865374152778909
 20
42.740988618348112
 70
0
  0
VERTEX
  5
59B9C
  8
0
 62
7
 10
24.865374152778909
 20
42.824876693413941
 70
0
  0
VERTEX
  5
59B9D
  8
0
 62
7
 10
24.822654968761839
 20
42.824876693413941
 70
0
  0
SEQEND
  5
59B9E
  8
0
  0
POLYLINE
  5
4AD4B
  8
0
 62
7
 66
1
 70
0
 10
0
 20
0
 30
0
  0
VERTEX
  5
59B9F
  8
0
 62
7
 10
23.807040819710181
 20
43.0372668300796
 70
0
  0
VERTEX
  5
59BA0
  8
0
 62
7
 10
23.807040819710181
 20
42.824876693413941
 70
0
  0
SEQEND
  5
59BA1
  8
0
  0
POLYLINE
  5
4AD4F
  8
0
 62
7
 66
1
 70
0
 10
0
 20
0
 30
0
  0
VERTEX
  5
59BA2
  8
0
 62
7
 10
23.42670227813861
 20
42.485879297665349
 70
0
  0
VERTEX
  5
59BA3
  8
0
 62
7
 10
23.42670227813861
 20
42.444538151842387
 70
0
  0
VERTEX
  5
59BA4
  8
0
 62
7
 10
23.3839830941215
 20
42.444538151842387
 70
0
  0
VERTEX
  5
59BA5
  8
0
 62
7
 10
23.3412639101044
 20
42.444538151842387
 70
0
  0
VERTEX
  5
59BA6
  8
0
 62
7
 10
23.2985447260873
 20
42.444538151842387
 70
0
  0
VERTEX
  5
59BA7
  8
0
 62
7
 10
23.2572035802643
 20
42.444538151842387
 70
0
  0
VERTEX
  5
59BA8
  8
0
 62
7
 10
23.2144843962472
 20
42.444538151842387
 70
0
  0
VERTEX
  5
59BA9
  8
0
 62
7
 10
23.2144843962472
 20
42.485879297665349
 70
0
  0
SEQEND
  5
59BAA
  8
0
  0
POLYLINE
  5
4AD59
  8
0
 62
7
 66
1
 70
0
 10
0
 20
0
 30
0
  0
VERTEX
  5
59BAB
  8
0
 62
7
 10
23.764321635693079
 20
42.782157509396811
 70
0
  0
VERTEX
  5
59BAC
  8
0
 62
7
 10
23.764321635693079
 20
42.782157509396811
 70
0
  0
SEQEND
  5
59BAD
  8
0
  0
POLYLINE
  5
4AD5D
  8
0
 62
7
 66
1
 70
0
 10
0
 20
0
 30
0
  0
VERTEX
  5
59BAE
  8
0
 62
7
 10
23.764321635693079
 20
42.782157509396811
 70
0
  0
VERTEX
  5
59BAF
  8
0
 62
7
 10
23.722980489870078
 20
42.782157509396811
 70
0
  0
VERTEX
  5
59BB0
  8
0
 62
7
 10
23.722980489870078
 20
42.698269434330967
 70
0
  0
VERTEX
  5
59BB1
  8
0
 62
7
 10
23.68026130585298
 20
42.698269434330967
 70
0
  0
VERTEX
  5
59BB2
  8
0
 62
7
 10
23.68026130585298
 20
42.655550250313922
 70
0
  0
VERTEX
  5
59BB3
  8
0
 62
7
 10
23.637542121835882
 20
42.655550250313922
 70
0
  0
VERTEX
  5
59BB4
  8
0
 62
7
 10
23.637542121835882
 20
42.614209104490882
 70
0
  0
VERTEX
  5
59BB5
  8
0
 62
7
 10
23.59482293781878
 20
42.571662175248093
 70
0
  0
VERTEX
  5
59BB6
  8
0
 62
7
 10
23.553481791995772
 20
42.571662175248093
 70
0
  0
VERTEX
  5
59BB7
  8
0
 62
7
 10
23.553481791995772
 20
42.528942991230963
 70
0
  0
VERTEX
  5
59BB8
  8
0
 62
7
 10
23.51076260797868
 20
42.528942991230963
 70
0
  0
VERTEX
  5
59BB9
  8
0
 62
7
 10
23.4680434239616
 20
42.528942991230963
 70
0
  0
VERTEX
  5
59BBA
  8
0
 62
7
 10
23.4680434239616
 20
42.485879297665349
 70
0
  0
VERTEX
  5
59BBB
  8
0
 62
7
 10
23.42670227813861
 20
42.485879297665349
 70
0
  0
SEQEND
  5
59BBC
  8
0
  0
POLYLINE
  5
4AD6D
  8
0
 62
7
 66
1
 70
0
 10
0
 20
0
 30
0
  0
VERTEX
  5
59BBD
  8
0
 62
7
 10
23.807040819710181
 20
42.824876693413941
 70
0
  0
VERTEX
  5
59BBE
  8
0
 62
7
 10
23.807040819710181
 20
42.824876693413941
 70
0
  0
SEQEND
  5
59BBF
  8
0
  0
POLYLINE
  5
4AD71
  8
0
 62
7
 66
1
 70
0
 10
0
 20
0
 30
0
  0
VERTEX
  5
59BC0
  8
0
 62
7
 10
23.68026130585298
 20
43.37488618763409
 70
0
  0
VERTEX
  5
59BC1
  8
0
 62
7
 10
23.68026130585298
 20
43.37488618763409
 70
0
  0
VERTEX
  5
59BC2
  8
0
 62
7
 10
23.722980489870078
 20
43.333545041811078
 70
0
  0
VERTEX
  5
59BC3
  8
0
 62
7
 10
23.764321635693079
 20
43.333545041811078
 70
0
  0
VERTEX
  5
59BC4
  8
0
 62
7
 10
23.764321635693079
 20
43.2909981125682
 70
0
  0
VERTEX
  5
59BC5
  8
0
 62
7
 10
23.807040819710181
 20
43.2909981125682
 70
0
  0
VERTEX
  5
59BC6
  8
0
 62
7
 10
23.807040819710181
 20
43.078607975902557
 70
0
  0
SEQEND
  5
59BC7
  8
0
  0
POLYLINE
  5
4AD7A
  8
0
 62
7
 66
1
 70
0
 10
0
 20
0
 30
0
  0
VERTEX
  5
59BC8
  8
0
 62
7
 10
22.156151063178442
 20
41.936214312993741
 70
0
  0
VERTEX
  5
59BC9
  8
0
 62
7
 10
22.156151063178442
 20
41.936214312993741
 70
0
  0
SEQEND
  5
59BCA
  8
0
  0
POLYLINE
  5
4AD7E
  8
0
 62
7
 66
1
 70
0
 10
0
 20
0
 30
0
  0
VERTEX
  5
59BCB
  8
0
 62
7
 10
22.156151063178442
 20
41.936214312993741
 70
0
  0
VERTEX
  5
59BCC
  8
0
 62
7
 10
22.156151063178442
 20
41.936214312993741
 70
0
  0
SEQEND
  5
59BCD
  8
0
  0
POLYLINE
  5
4AD82
  8
0
 62
7
 66
1
 70
0
 10
0
 20
0
 30
0
  0
VERTEX
  5
59BCE
  8
0
 62
7
 10
22.19887024719554
 20
41.766543360345153
 70
0
  0
VERTEX
  5
59BCF
  8
0
 62
7
 10
22.19887024719554
 20
41.723824176328087
 70
0
  0
SEQEND
  5
59BD0
  8
0
  0
POLYLINE
  5
4AD86
  8
0
 62
7
 66
1
 70
0
 10
0
 20
0
 30
0
  0
VERTEX
  5
59BD1
  8
0
 62
7
 10
22.19887024719554
 20
41.766543360345153
 70
0
  0
VERTEX
  5
59BD2
  8
0
 62
7
 10
22.19887024719554
 20
41.766543360345153
 70
0
  0
SEQEND
  5
59BD3
  8
0
  0
POLYLINE
  5
4AD8A
  8
0
 62
7
 66
1
 70
0
 10
0
 20
0
 30
0
  0
VERTEX
  5
59BD4
  8
0
 62
7
 10
24.695875454904641
 20
42.824876693413941
 70
0
  0
VERTEX
  5
59BD5
  8
0
 62
7
 10
24.738594638921739
 20
42.824876693413941
 70
0
  0
SEQEND
  5
59BD6
  8
0
  0
POLYLINE
  5
4AD8E
  8
0
 62
7
 66
1
 70
0
 10
0
 20
0
 30
0
  0
VERTEX
  5
59BD7
  8
0
 62
7
 10
24.738594638921739
 20
42.824876693413941
 70
0
  0
VERTEX
  5
59BD8
  8
0
 62
7
 10
24.738594638921739
 20
42.824876693413941
 70
0
  0
SEQEND
  5
59BD9
  8
0
  0
POLYLINE
  5
4AD92
  8
0
 62
7
 66
1
 70
0
 10
0
 20
0
 30
0
  0
VERTEX
  5
59BDA
  8
0
 62
7
 10
22.19887024719554
 20
43.078607975902557
 70
0
  0
VERTEX
  5
59BDB
  8
0
 62
7
 10
22.19887024719554
 20
43.078607975902557
 70
0
  0
SEQEND
  5
59BDC
  8
0
  0
POLYLINE
  5
4AD96
  8
0
 62
7
 66
1
 70
0
 10
0
 20
0
 30
0
  0
VERTEX
  5
59BDD
  8
0
 62
7
 10
24.695875454904641
 20
43.883210026482672
 70
0
  0
VERTEX
  5
59BDE
  8
0
 62
7
 10
24.695875454904641
 20
43.926273720048293
 70
0
  0
SEQEND
  5
59BDF
  8
0
  0
POLYLINE
  5
4AD9A
  8
0
 62
7
 66
1
 70
0
 10
0
 20
0
 30
0
  0
VERTEX
  5
59BE0
  8
0
 62
7
 10
24.695875454904641
 20
43.926273720048293
 70
0
  0
VERTEX
  5
59BE1
  8
0
 62
7
 10
24.695875454904641
 20
43.926273720048293
 70
0
  0
SEQEND
  5
59BE2
  8
0
  0
POLYLINE
  5
4AD9E
  8
0
 62
7
 66
1
 70
0
 10
0
 20
0
 30
0
  0
VERTEX
  5
59BE3
  8
0
 62
7
 10
25.118933180493311
 20
43.078607975902557
 70
0
  0
VERTEX
  5
59BE4
  8
0
 62
7
 10
25.077592034670321
 20
43.078607975902557
 70
0
  0
SEQEND
  5
59BE5
  8
0
  0
POLYLINE
  5
4ADA2
  8
0
 62
7
 66
1
 70
0
 10
0
 20
0
 30
0
  0
VERTEX
  5
59BE6
  8
0
 62
7
 10
22.19887024719554
 20
43.0372668300796
 70
0
  0
VERTEX
  5
59BE7
  8
0
 62
7
 10
22.19887024719554
 20
43.0372668300796
 70
0
  0
SEQEND
  5
59BE8
  8
0
  0
POLYLINE
  5
4ADA6
  8
0
 62
7
 66
1
 70
0
 10
0
 20
0
 30
0
  0
VERTEX
  5
59BE9
  8
0
 62
7
 10
24.695875454904641
 20
43.967614865871319
 70
0
  0
VERTEX
  5
59BEA
  8
0
 62
7
 10
24.695875454904641
 20
43.967614865871319
 70
0
  0
SEQEND
  5
59BEB
  8
0
  0
POLYLINE
  5
4ADAA
  8
0
 62
7
 66
1
 70
0
 10
0
 20
0
 30
0
  0
VERTEX
  5
59BEC
  8
0
 62
7
 10
22.156151063178442
 20
41.766543360345153
 70
0
  0
VERTEX
  5
59BED
  8
0
 62
7
 10
22.156151063178442
 20
41.766543360345153
 70
0
  0
SEQEND
  5
59BEE
  8
0
  0
POLYLINE
  5
4ADAE
  8
0
 62
7
 66
1
 70
0
 10
0
 20
0
 30
0
  0
VERTEX
  5
59BEF
  8
0
 62
7
 10
24.39959724317314
 20
43.587276324299737
 70
0
  0
VERTEX
  5
59BF0
  8
0
 62
7
 10
24.442316427190239
 20
43.587276324299737
 70
0
  0
VERTEX
  5
59BF1
  8
0
 62
7
 10
24.442316427190239
 20
43.460324555668251
 70
0
  0
VERTEX
  5
59BF2
  8
0
 62
7
 10
24.39959724317314
 20
43.41760537165117
 70
0
  0
VERTEX
  5
59BF3
  8
0
 62
7
 10
24.35687805915606
 20
43.41760537165117
 70
0
  0
VERTEX
  5
59BF4
  8
0
 62
7
 10
24.35687805915606
 20
43.37488618763409
 70
0
  0
SEQEND
  5
59BF5
  8
0
  0
POLYLINE
  5
4ADB6
  8
0
 62
7
 66
1
 70
0
 10
0
 20
0
 30
0
  0
VERTEX
  5
59BF6
  8
0
 62
7
 10
24.35687805915606
 20
43.37488618763409
 70
0
  0
VERTEX
  5
59BF7
  8
0
 62
7
 10
24.315536913333059
 20
43.37488618763409
 70
0
  0
SEQEND
  5
59BF8
  8
0
  0
POLYLINE
  5
4ADBA
  8
0
 62
7
 66
1
 70
0
 10
0
 20
0
 30
0
  0
VERTEX
  5
59BF9
  8
0
 62
7
 10
22.452429274909949
 20
42.782157509396811
 70
0
  0
VERTEX
  5
59BFA
  8
0
 62
7
 10
22.452429274909949
 20
42.824876693413941
 70
0
  0
VERTEX
  5
59BFB
  8
0
 62
7
 10
22.40971009089284
 20
42.824876693413941
 70
0
  0
VERTEX
  5
59BFC
  8
0
 62
7
 10
22.452429274909949
 20
42.867940386979569
 70
0
  0
VERTEX
  5
59BFD
  8
0
 62
7
 10
22.452429274909949
 20
42.951828462045377
 70
0
  0
VERTEX
  5
59BFE
  8
0
 62
7
 10
22.495148458927041
 20
42.951828462045377
 70
0
  0
VERTEX
  5
59BFF
  8
0
 62
7
 10
22.495148458927041
 20
42.994547646062472
 70
0
  0
VERTEX
  5
59C00
  8
0
 62
7
 10
22.537867642944121
 20
42.994547646062472
 70
0
  0
SEQEND
  5
59C01
  8
0
  0
POLYLINE
  5
4ADC4
  8
0
 62
7
 66
1
 70
0
 10
0
 20
0
 30
0
  0
VERTEX
  5
59C02
  8
0
 62
7
 10
22.537867642944121
 20
42.994547646062472
 70
0
  0
VERTEX
  5
59C03
  8
0
 62
7
 10
22.579208788767119
 20
42.994547646062472
 70
0
  0
SEQEND
  5
59C04
  8
0
  0
POLYLINE
  5
4ADC8
  8
0
 62
7
 66
1
 70
0
 10
0
 20
0
 30
0
  0
VERTEX
  5
59C05
  8
0
 62
7
 10
24.653156270887539
 20
43.926273720048293
 70
0
  0
VERTEX
  5
59C06
  8
0
 62
7
 10
24.653156270887539
 20
43.926273720048293
 70
0
  0
SEQEND
  5
59C07
  8
0
  0
POLYLINE
  5
4ADCC
  8
0
 62
7
 66
1
 70
0
 10
0
 20
0
 30
0
  0
VERTEX
  5
59C08
  8
0
 62
7
 10
22.19887024719554
 20
43.078607975902557
 70
0
  0
VERTEX
  5
59C09
  8
0
 62
7
 10
22.19887024719554
 20
43.078607975902557
 70
0
  0
SEQEND
  5
59C0A
  8
0
  0
POLYLINE
  5
4ADD0
  8
0
 62
7
 66
1
 70
0
 10
0
 20
0
 30
0
  0
VERTEX
  5
59C0B
  8
0
 62
7
 10
22.19887024719554
 20
43.078607975902557
 70
0
  0
VERTEX
  5
59C0C
  8
0
 62
7
 10
22.19887024719554
 20
43.078607975902557
 70
0
  0
SEQEND
  5
59C0D
  8
0
  0
POLYLINE
  5
4ADD4
  8
0
 62
7
 66
1
 70
0
 10
0
 20
0
 30
0
  0
VERTEX
  5
59C0E
  8
0
 62
7
 10
22.579208788767119
 20
42.994547646062472
 70
0
  0
VERTEX
  5
59C0F
  8
0
 62
7
 10
22.621927972784221
 20
42.994547646062472
 70
0
  0
VERTEX
  5
59C10
  8
0
 62
7
 10
22.621927972784221
 20
42.951828462045377
 70
0
  0
VERTEX
  5
59C11
  8
0
 62
7
 10
22.664647156801319
 20
42.951828462045377
 70
0
  0
VERTEX
  5
59C12
  8
0
 62
7
 10
22.664647156801319
 20
42.824876693413941
 70
0
  0
VERTEX
  5
59C13
  8
0
 62
7
 10
22.621927972784221
 20
42.824876693413941
 70
0
  0
VERTEX
  5
59C14
  8
0
 62
7
 10
22.621927972784221
 20
42.782157509396811
 70
0
  0
VERTEX
  5
59C15
  8
0
 62
7
 10
22.579208788767119
 20
42.782157509396811
 70
0
  0
VERTEX
  5
59C16
  8
0
 62
7
 10
22.537867642944121
 20
42.782157509396811
 70
0
  0
VERTEX
  5
59C17
  8
0
 62
7
 10
22.537867642944121
 20
42.740988618348112
 70
0
  0
SEQEND
  5
59C18
  8
0
  0
POLYLINE
  5
4ADE0
  8
0
 62
7
 66
1
 70
0
 10
0
 20
0
 30
0
  0
VERTEX
  5
59C19
  8
0
 62
7
 10
22.537867642944121
 20
42.740988618348112
 70
0
  0
VERTEX
  5
59C1A
  8
0
 62
7
 10
22.495148458927041
 20
42.740988618348112
 70
0
  0
VERTEX
  5
59C1B
  8
0
 62
7
 10
22.495148458927041
 20
42.782157509396811
 70
0
  0
VERTEX
  5
59C1C
  8
0
 62
7
 10
22.452429274909949
 20
42.782157509396811
 70
0
  0
SEQEND
  5
59C1D
  8
0
  0
POLYLINE
  5
4ADE6
  8
0
 62
7
 66
1
 70
0
 10
0
 20
0
 30
0
  0
VERTEX
  5
59C1E
  8
0
 62
7
 10
24.315536913333059
 20
43.333545041811078
 70
0
  0
VERTEX
  5
59C1F
  8
0
 62
7
 10
24.272817729315971
 20
43.333545041811078
 70
0
  0
VERTEX
  5
59C20
  8
0
 62
7
 10
24.230098545298858
 20
43.333545041811078
 70
0
  0
VERTEX
  5
59C21
  8
0
 62
7
 10
24.230098545298858
 20
43.41760537165117
 70
0
  0
VERTEX
  5
59C22
  8
0
 62
7
 10
24.188757399475861
 20
43.41760537165117
 70
0
  0
VERTEX
  5
59C23
  8
0
 62
7
 10
24.188757399475861
 20
43.502871484911111
 70
0
  0
VERTEX
  5
59C24
  8
0
 62
7
 10
24.230098545298858
 20
43.544212630734073
 70
0
  0
VERTEX
  5
59C25
  8
0
 62
7
 10
24.230098545298858
 20
43.587276324299737
 70
0
  0
VERTEX
  5
59C26
  8
0
 62
7
 10
24.272817729315971
 20
43.587276324299737
 70
0
  0
VERTEX
  5
59C27
  8
0
 62
7
 10
24.272817729315971
 20
43.62999550831681
 70
0
  0
VERTEX
  5
59C28
  8
0
 62
7
 10
24.315536913333059
 20
43.62999550831681
 70
0
  0
VERTEX
  5
59C29
  8
0
 62
7
 10
24.315536913333059
 20
43.67116439936558
 70
0
  0
SEQEND
  5
59C2A
  8
0
  0
POLYLINE
  5
4ADF4
  8
0
 62
7
 66
1
 70
0
 10
0
 20
0
 30
0
  0
VERTEX
  5
59C2B
  8
0
 62
7
 10
24.315536913333059
 20
43.67116439936558
 70
0
  0
VERTEX
  5
59C2C
  8
0
 62
7
 10
24.35687805915606
 20
43.67116439936558
 70
0
  0
VERTEX
  5
59C2D
  8
0
 62
7
 10
24.39959724317314
 20
43.67116439936558
 70
0
  0
VERTEX
  5
59C2E
  8
0
 62
7
 10
24.442316427190239
 20
43.67116439936558
 70
0
  0
VERTEX
  5
59C2F
  8
0
 62
7
 10
24.442316427190239
 20
43.41760537165117
 70
0
  0
VERTEX
  5
59C30
  8
0
 62
7
 10
24.39959724317314
 20
43.41760537165117
 70
0
  0
VERTEX
  5
59C31
  8
0
 62
7
 10
24.35687805915606
 20
43.41760537165117
 70
0
  0
VERTEX
  5
59C32
  8
0
 62
7
 10
24.35687805915606
 20
43.333545041811078
 70
0
  0
VERTEX
  5
59C33
  8
0
 62
7
 10
24.315536913333059
 20
43.333545041811078
 70
0
  0
SEQEND
  5
59C34
  8
0
  0
POLYLINE
  5
4ADFF
  8
0
 62
7
 66
1
 70
0
 10
0
 20
0
 30
0
  0
VERTEX
  5
59C35
  8
0
 62
7
 10
25.118933180493311
 20
42.910659570996643
 70
0
  0
VERTEX
  5
59C36
  8
0
 62
7
 10
25.118933180493311
 20
42.910659570996643
 70
0
  0
SEQEND
  5
59C37
  8
0
  0
POLYLINE
  5
4AE03
  8
0
 62
7
 66
1
 70
0
 10
0
 20
0
 30
0
  0
VERTEX
  5
59C38
  8
0
 62
7
 10
22.537867642944121
 20
42.782157509396811
 70
0
  0
VERTEX
  5
59C39
  8
0
 62
7
 10
22.537867642944121
 20
42.824876693413941
 70
0
  0
VERTEX
  5
59C3A
  8
0
 62
7
 10
22.579208788767119
 20
42.824876693413941
 70
0
  0
VERTEX
  5
59C3B
  8
0
 62
7
 10
22.579208788767119
 20
42.951828462045377
 70
0
  0
VERTEX
  5
59C3C
  8
0
 62
7
 10
22.537867642944121
 20
42.951828462045377
 70
0
  0
SEQEND
  5
59C3D
  8
0
  0
POLYLINE
  5
4AE0A
  8
0
 62
7
 66
1
 70
0
 10
0
 20
0
 30
0
  0
VERTEX
  5
59C3E
  8
0
 62
7
 10
22.537867642944121
 20
42.951828462045377
 70
0
  0
VERTEX
  5
59C3F
  8
0
 62
7
 10
22.495148458927041
 20
42.951828462045377
 70
0
  0
VERTEX
  5
59C40
  8
0
 62
7
 10
22.452429274909949
 20
42.951828462045377
 70
0
  0
VERTEX
  5
59C41
  8
0
 62
7
 10
22.452429274909949
 20
42.782157509396811
 70
0
  0
VERTEX
  5
59C42
  8
0
 62
7
 10
22.495148458927041
 20
42.782157509396811
 70
0
  0
VERTEX
  5
59C43
  8
0
 62
7
 10
22.537867642944121
 20
42.782157509396811
 70
0
  0
SEQEND
  5
59C44
  8
0
  0
POLYLINE
  5
4AE12
  8
0
 62
7
 66
1
 70
0
 10
0
 20
0
 30
0
  0
VERTEX
  5
59C45
  8
0
 62
7
 10
22.537867642944121
 20
42.782157509396811
 70
0
  0
VERTEX
  5
59C46
  8
0
 62
7
 10
22.579208788767119
 20
42.782157509396811
 70
0
  0
VERTEX
  5
59C47
  8
0
 62
7
 10
22.579208788767119
 20
42.824876693413941
 70
0
  0
VERTEX
  5
59C48
  8
0
 62
7
 10
22.621927972784221
 20
42.824876693413941
 70
0
  0
VERTEX
  5
59C49
  8
0
 62
7
 10
22.621927972784221
 20
42.951828462045377
 70
0
  0
VERTEX
  5
59C4A
  8
0
 62
7
 10
22.579208788767119
 20
42.951828462045377
 70
0
  0
VERTEX
  5
59C4B
  8
0
 62
7
 10
22.579208788767119
 20
42.994547646062472
 70
0
  0
SEQEND
  5
59C4C
  8
0
  0
POLYLINE
  5
4AE1B
  8
0
 62
7
 66
1
 70
0
 10
0
 20
0
 30
0
  0
VERTEX
  5
59C4D
  8
0
 62
7
 10
25.118933180493311
 20
42.910659570996643
 70
0
  0
VERTEX
  5
59C4E
  8
0
 62
7
 10
25.118933180493311
 20
42.951828462045377
 70
0
  0
VERTEX
  5
59C4F
  8
0
 62
7
 10
25.16165236451042
 20
42.951828462045377
 70
0
  0
VERTEX
  5
59C50
  8
0
 62
7
 10
25.16165236451042
 20
42.994547646062472
 70
0
  0
SEQEND
  5
59C51
  8
0
  0
POLYLINE
  5
4AE21
  8
0
 62
7
 66
1
 70
0
 10
0
 20
0
 30
0
  0
VERTEX
  5
59C52
  8
0
 62
7
 10
25.16165236451042
 20
42.994547646062472
 70
0
  0
VERTEX
  5
59C53
  8
0
 62
7
 10
25.16165236451042
 20
43.0372668300796
 70
0
  0
VERTEX
  5
59C54
  8
0
 62
7
 10
25.118933180493311
 20
43.0372668300796
 70
0
  0
SEQEND
  5
59C55
  8
0
  0
POLYLINE
  5
4AE26
  8
0
 62
7
 66
1
 70
0
 10
0
 20
0
 30
0
  0
VERTEX
  5
59C56
  8
0
 62
7
 10
25.077592034670321
 20
42.951828462045377
 70
0
  0
VERTEX
  5
59C57
  8
0
 62
7
 10
25.118933180493311
 20
42.951828462045377
 70
0
  0
VERTEX
  5
59C58
  8
0
 62
7
 10
25.118933180493311
 20
43.078607975902557
 70
0
  0
SEQEND
  5
59C59
  8
0
  0
POLYLINE
  5
4AE2B
  8
0
 62
7
 66
1
 70
0
 10
0
 20
0
 30
0
  0
VERTEX
  5
59C5A
  8
0
 62
7
 10
22.537867642944121
 20
42.782157509396811
 70
0
  0
VERTEX
  5
59C5B
  8
0
 62
7
 10
22.579208788767119
 20
42.782157509396811
 70
0
  0
VERTEX
  5
59C5C
  8
0
 62
7
 10
22.579208788767119
 20
42.824876693413941
 70
0
  0
VERTEX
  5
59C5D
  8
0
 62
7
 10
22.621927972784221
 20
42.824876693413941
 70
0
  0
VERTEX
  5
59C5E
  8
0
 62
7
 10
22.621927972784221
 20
42.867940386979569
 70
0
  0
VERTEX
  5
59C5F
  8
0
 62
7
 10
22.664647156801319
 20
42.867940386979569
 70
0
  0
VERTEX
  5
59C60
  8
0
 62
7
 10
22.664647156801319
 20
42.951828462045377
 70
0
  0
VERTEX
  5
59C61
  8
0
 62
7
 10
22.621927972784221
 20
42.951828462045377
 70
0
  0
VERTEX
  5
59C62
  8
0
 62
7
 10
22.579208788767119
 20
42.994547646062472
 70
0
  0
SEQEND
  5
59C63
  8
0
  0
POLYLINE
  5
4AE36
  8
0
 62
7
 66
1
 70
0
 10
0
 20
0
 30
0
  0
VERTEX
  5
59C64
  8
0
 62
7
 10
24.695875454904641
 20
42.655550250313922
 70
0
  0
VERTEX
  5
59C65
  8
0
 62
7
 10
24.695875454904641
 20
42.655550250313922
 70
0
  0
SEQEND
  5
59C66
  8
0
  0
POLYLINE
  5
4AE3A
  8
0
 62
7
 66
1
 70
0
 10
0
 20
0
 30
0
  0
VERTEX
  5
59C67
  8
0
 62
7
 10
24.695875454904641
 20
42.655550250313922
 70
0
  0
VERTEX
  5
59C68
  8
0
 62
7
 10
24.695875454904641
 20
42.614209104490882
 70
0
  0
SEQEND
  5
59C69
  8
0
  0
POLYLINE
  5
4AE3E
  8
0
 62
7
 66
1
 70
0
 10
0
 20
0
 30
0
  0
VERTEX
  5
59C6A
  8
0
 62
7
 10
24.315536913333059
 20
43.37488618763409
 70
0
  0
VERTEX
  5
59C6B
  8
0
 62
7
 10
24.272817729315971
 20
43.37488618763409
 70
0
  0
VERTEX
  5
59C6C
  8
0
 62
7
 10
24.272817729315971
 20
43.41760537165117
 70
0
  0
VERTEX
  5
59C6D
  8
0
 62
7
 10
24.230098545298858
 20
43.41760537165117
 70
0
  0
VERTEX
  5
59C6E
  8
0
 62
7
 10
24.230098545298858
 20
43.544212630734073
 70
0
  0
VERTEX
  5
59C6F
  8
0
 62
7
 10
24.272817729315971
 20
43.544212630734073
 70
0
  0
VERTEX
  5
59C70
  8
0
 62
7
 10
24.272817729315971
 20
43.587276324299737
 70
0
  0
VERTEX
  5
59C71
  8
0
 62
7
 10
24.315536913333059
 20
43.587276324299737
 70
0
  0
VERTEX
  5
59C72
  8
0
 62
7
 10
24.35687805915606
 20
43.587276324299737
 70
0
  0
SEQEND
  5
59C73
  8
0
  0
POLYLINE
  5
4AE49
  8
0
 62
7
 66
1
 70
0
 10
0
 20
0
 30
0
  0
VERTEX
  5
59C74
  8
0
 62
7
 10
23.42670227813861
 20
43.41760537165117
 70
0
  0
VERTEX
  5
59C75
  8
0
 62
7
 10
23.42670227813861
 20
43.37488618763409
 70
0
  0
VERTEX
  5
59C76
  8
0
 62
7
 10
23.3839830941215
 20
43.37488618763409
 70
0
  0
VERTEX
  5
59C77
  8
0
 62
7
 10
23.3839830941215
 20
43.333545041811078
 70
0
  0
VERTEX
  5
59C78
  8
0
 62
7
 10
23.3412639101044
 20
43.333545041811078
 70
0
  0
VERTEX
  5
59C79
  8
0
 62
7
 10
23.2985447260873
 20
43.2909981125682
 70
0
  0
VERTEX
  5
59C7A
  8
0
 62
7
 10
23.2572035802643
 20
43.2909981125682
 70
0
  0
VERTEX
  5
59C7B
  8
0
 62
7
 10
23.2144843962472
 20
43.24827892855113
 70
0
  0
VERTEX
  5
59C7C
  8
0
 62
7
 10
23.2144843962472
 20
43.206593273179621
 70
0
  0
VERTEX
  5
59C7D
  8
0
 62
7
 10
23.171765212230088
 20
43.163874089162491
 70
0
  0
VERTEX
  5
59C7E
  8
0
 62
7
 10
23.171765212230088
 20
43.121327159919687
 70
0
  0
VERTEX
  5
59C7F
  8
0
 62
7
 10
23.130424066407109
 20
43.078607975902557
 70
0
  0
VERTEX
  5
59C80
  8
0
 62
7
 10
23.08770488239
 20
43.0372668300796
 70
0
  0
VERTEX
  5
59C81
  8
0
 62
7
 10
23.08770488239
 20
42.910659570996643
 70
0
  0
VERTEX
  5
59C82
  8
0
 62
7
 10
23.0449856983729
 20
42.867940386979569
 70
0
  0
VERTEX
  5
59C83
  8
0
 62
7
 10
23.0449856983729
 20
42.698269434330967
 70
0
  0
VERTEX
  5
59C84
  8
0
 62
7
 10
23.08770488239
 20
42.698269434330967
 70
0
  0
VERTEX
  5
59C85
  8
0
 62
7
 10
23.08770488239
 20
42.571662175248093
 70
0
  0
VERTEX
  5
59C86
  8
0
 62
7
 10
23.130424066407109
 20
42.571662175248093
 70
0
  0
VERTEX
  5
59C87
  8
0
 62
7
 10
23.171765212230088
 20
42.528942991230963
 70
0
  0
VERTEX
  5
59C88
  8
0
 62
7
 10
23.2144843962472
 20
42.485879297665349
 70
0
  0
SEQEND
  5
59C89
  8
0
  0
POLYLINE
  5
4AE60
  8
0
 62
7
 66
1
 70
0
 10
0
 20
0
 30
0
  0
VERTEX
  5
59C8A
  8
0
 62
7
 10
24.39959724317314
 20
43.587276324299737
 70
0
  0
VERTEX
  5
59C8B
  8
0
 62
7
 10
24.39959724317314
 20
43.587276324299737
 70
0
  0
SEQEND
  5
59C8C
  8
0
  0
POLYLINE
  5
4AE64
  8
0
 62
7
 66
1
 70
0
 10
0
 20
0
 30
0
  0
VERTEX
  5
59C8D
  8
0
 62
7
 10
24.39959724317314
 20
43.587276324299737
 70
0
  0
VERTEX
  5
59C8E
  8
0
 62
7
 10
24.35687805915606
 20
43.587276324299737
 70
0
  0
SEQEND
  5
59C8F
  8
0
  0
POLYLINE
  5
4AE68
  8
0
 62
7
 66
1
 70
0
 10
0
 20
0
 30
0
  0
VERTEX
  5
59C90
  8
0
 62
7
 10
24.35687805915606
 20
43.587276324299737
 70
0
  0
VERTEX
  5
59C91
  8
0
 62
7
 10
24.315536913333059
 20
43.587276324299737
 70
0
  0
VERTEX
  5
59C92
  8
0
 62
7
 10
24.315536913333059
 20
43.544212630734073
 70
0
  0
VERTEX
  5
59C93
  8
0
 62
7
 10
24.272817729315971
 20
43.544212630734073
 70
0
  0
VERTEX
  5
59C94
  8
0
 62
7
 10
24.272817729315971
 20
43.37488618763409
 70
0
  0
VERTEX
  5
59C95
  8
0
 62
7
 10
24.315536913333059
 20
43.37488618763409
 70
0
  0
SEQEND
  5
59C96
  8
0
  0
POLYLINE
  5
4AE70
  8
0
 62
7
 66
1
 70
0
 10
0
 20
0
 30
0
  0
VERTEX
  5
59C97
  8
0
 62
7
 10
24.695875454904641
 20
42.655550250313922
 70
0
  0
VERTEX
  5
59C98
  8
0
 62
7
 10
24.695875454904641
 20
42.698269434330967
 70
0
  0
VERTEX
  5
59C99
  8
0
 62
7
 10
24.738594638921739
 20
42.698269434330967
 70
0
  0
VERTEX
  5
59C9A
  8
0
 62
7
 10
24.738594638921739
 20
42.655550250313922
 70
0
  0
SEQEND
  5
59C9B
  8
0
  0
POLYLINE
  5
4AE76
  8
0
 62
7
 66
1
 70
0
 10
0
 20
0
 30
0
  0
VERTEX
  5
59C9C
  8
0
 62
7
 10
22.495148458927041
 20
42.782157509396811
 70
0
  0
VERTEX
  5
59C9D
  8
0
 62
7
 10
22.537867642944121
 20
42.782157509396811
 70
0
  0
SEQEND
  5
59C9E
  8
0
  0
POLYLINE
  5
4AE7A
  8
0
 62
7
 66
1
 70
0
 10
0
 20
0
 30
0
  0
VERTEX
  5
59C9F
  8
0
 62
7
 10
22.452429274909949
 20
42.782157509396811
 70
0
  0
VERTEX
  5
59CA0
  8
0
 62
7
 10
22.495148458927041
 20
42.782157509396811
 70
0
  0
VERTEX
  5
59CA1
  8
0
 62
7
 10
22.537867642944121
 20
42.782157509396811
 70
0
  0
SEQEND
  5
59CA2
  8
0
  0
POLYLINE
  5
4AE7F
  8
0
 62
7
 66
1
 70
0
 10
0
 20
0
 30
0
  0
VERTEX
  5
59CA3
  8
0
 62
7
 10
24.442316427190239
 20
43.587276324299737
 70
0
  0
VERTEX
  5
59CA4
  8
0
 62
7
 10
24.39959724317314
 20
43.587276324299737
 70
0
  0
VERTEX
  5
59CA5
  8
0
 62
7
 10
24.35687805915606
 20
43.587276324299737
 70
0
  0
SEQEND
  5
59CA6
  8
0
  0
POLYLINE
  5
4AE84
  8
0
 62
7
 66
1
 70
0
 10
0
 20
0
 30
0
  0
VERTEX
  5
59CA7
  8
0
 62
7
 10
24.653156270887539
 20
43.926273720048293
 70
0
  0
VERTEX
  5
59CA8
  8
0
 62
7
 10
24.695875454904641
 20
43.926273720048293
 70
0
  0
VERTEX
  5
59CA9
  8
0
 62
7
 10
24.695875454904641
 20
43.967614865871319
 70
0
  0
SEQEND
  5
59CAA
  8
0
  0
POLYLINE
  5
4AE89
  8
0
 62
7
 66
1
 70
0
 10
0
 20
0
 30
0
  0
VERTEX
  5
59CAB
  8
0
 62
7
 10
24.35687805915606
 20
43.587276324299737
 70
0
  0
VERTEX
  5
59CAC
  8
0
 62
7
 10
24.315536913333059
 20
43.587276324299737
 70
0
  0
VERTEX
  5
59CAD
  8
0
 62
7
 10
24.315536913333059
 20
43.544212630734073
 70
0
  0
VERTEX
  5
59CAE
  8
0
 62
7
 10
24.272817729315971
 20
43.544212630734073
 70
0
  0
VERTEX
  5
59CAF
  8
0
 62
7
 10
24.272817729315971
 20
43.502871484911111
 70
0
  0
VERTEX
  5
59CB0
  8
0
 62
7
 10
24.230098545298858
 20
43.502871484911111
 70
0
  0
VERTEX
  5
59CB1
  8
0
 62
7
 10
24.230098545298858
 20
43.41760537165117
 70
0
  0
VERTEX
  5
59CB2
  8
0
 62
7
 10
24.272817729315971
 20
43.41760537165117
 70
0
  0
VERTEX
  5
59CB3
  8
0
 62
7
 10
24.272817729315971
 20
43.37488618763409
 70
0
  0
VERTEX
  5
59CB4
  8
0
 62
7
 10
24.315536913333059
 20
43.37488618763409
 70
0
  0
SEQEND
  5
59CB5
  8
0
  0
POLYLINE
  5
4AE95
  8
0
 62
7
 66
1
 70
0
 10
0
 20
0
 30
0
  0
VERTEX
  5
59CB6
  8
0
 62
7
 10
24.35687805915606
 20
43.587276324299737
 70
0
  0
VERTEX
  5
59CB7
  8
0
 62
7
 10
24.35687805915606
 20
43.62999550831681
 70
0
  0
VERTEX
  5
59CB8
  8
0
 62
7
 10
24.39959724317314
 20
43.62999550831681
 70
0
  0
VERTEX
  5
59CB9
  8
0
 62
7
 10
24.39959724317314
 20
43.587276324299737
 70
0
  0
SEQEND
  5
59CBA
  8
0
  0
POLYLINE
  5
4AE9B
  8
0
 62
7
 66
1
 70
0
 10
0
 20
0
 30
0
  0
VERTEX
  5
59CBB
  8
0
 62
7
 10
24.695875454904641
 20
42.910659570996643
 70
0
  0
VERTEX
  5
59CBC
  8
0
 62
7
 10
24.695875454904641
 20
42.910659570996643
 70
0
  0
SEQEND
  5
59CBD
  8
0
  0
POLYLINE
  5
4AE9F
  8
0
 62
7
 66
1
 70
0
 10
0
 20
0
 30
0
  0
VERTEX
  5
59CBE
  8
0
 62
7
 10
22.156151063178442
 20
41.766543360345153
 70
0
  0
VERTEX
  5
59CBF
  8
0
 62
7
 10
22.156151063178442
 20
41.766543360345153
 70
0
  0
SEQEND
  5
59CC0
  8
0
  0
POLYLINE
  5
4AEA3
  8
0
 62
7
 66
1
 70
0
 10
0
 20
0
 30
0
  0
VERTEX
  5
59CC1
  8
0
 62
7
 10
23.42670227813861
 20
43.41760537165117
 70
0
  0
VERTEX
  5
59CC2
  8
0
 62
7
 10
23.4680434239616
 20
43.41760537165117
 70
0
  0
VERTEX
  5
59CC3
  8
0
 62
7
 10
23.51076260797868
 20
43.41760537165117
 70
0
  0
VERTEX
  5
59CC4
  8
0
 62
7
 10
23.553481791995772
 20
43.41760537165117
 70
0
  0
VERTEX
  5
59CC5
  8
0
 62
7
 10
23.59482293781878
 20
43.41760537165117
 70
0
  0
VERTEX
  5
59CC6
  8
0
 62
7
 10
23.637542121835882
 20
43.41760537165117
 70
0
  0
VERTEX
  5
59CC7
  8
0
 62
7
 10
23.68026130585298
 20
43.41760537165117
 70
0
  0
VERTEX
  5
59CC8
  8
0
 62
7
 10
23.68026130585298
 20
43.37488618763409
 70
0
  0
SEQEND
  5
59CC9
  8
0
  0
POLYLINE
  5
4AEAD
  8
0
 62
7
 66
1
 70
0
 10
0
 20
0
 30
0
  0
VERTEX
  5
59CCA
  8
0
 62
7
 10
23.2144843962472
 20
42.485879297665349
 70
0
  0
VERTEX
  5
59CCB
  8
0
 62
7
 10
23.171765212230088
 20
42.485879297665349
 70
0
  0
VERTEX
  5
59CCC
  8
0
 62
7
 10
23.171765212230088
 20
42.528942991230963
 70
0
  0
VERTEX
  5
59CCD
  8
0
 62
7
 10
23.130424066407109
 20
42.528942991230963
 70
0
  0
VERTEX
  5
59CCE
  8
0
 62
7
 10
23.130424066407109
 20
42.571662175248093
 70
0
  0
VERTEX
  5
59CCF
  8
0
 62
7
 10
23.08770488239
 20
42.571662175248093
 70
0
  0
VERTEX
  5
59CD0
  8
0
 62
7
 10
23.08770488239
 20
42.655550250313922
 70
0
  0
VERTEX
  5
59CD1
  8
0
 62
7
 10
23.0449856983729
 20
42.698269434330967
 70
0
  0
VERTEX
  5
59CD2
  8
0
 62
7
 10
23.0449856983729
 20
42.910659570996643
 70
0
  0
VERTEX
  5
59CD3
  8
0
 62
7
 10
23.08770488239
 20
42.951828462045377
 70
0
  0
VERTEX
  5
59CD4
  8
0
 62
7
 10
23.08770488239
 20
43.078607975902557
 70
0
  0
VERTEX
  5
59CD5
  8
0
 62
7
 10
23.130424066407109
 20
43.078607975902557
 70
0
  0
VERTEX
  5
59CD6
  8
0
 62
7
 10
23.130424066407109
 20
43.121327159919687
 70
0
  0
VERTEX
  5
59CD7
  8
0
 62
7
 10
23.171765212230088
 20
43.121327159919687
 70
0
  0
VERTEX
  5
59CD8
  8
0
 62
7
 10
23.171765212230088
 20
43.206593273179621
 70
0
  0
VERTEX
  5
59CD9
  8
0
 62
7
 10
23.2144843962472
 20
43.206593273179621
 70
0
  0
VERTEX
  5
59CDA
  8
0
 62
7
 10
23.2144843962472
 20
43.24827892855113
 70
0
  0
VERTEX
  5
59CDB
  8
0
 62
7
 10
23.2572035802643
 20
43.2909981125682
 70
0
  0
VERTEX
  5
59CDC
  8
0
 62
7
 10
23.2985447260873
 20
43.2909981125682
 70
0
  0
VERTEX
  5
59CDD
  8
0
 62
7
 10
23.2985447260873
 20
43.333545041811078
 70
0
  0
VERTEX
  5
59CDE
  8
0
 62
7
 10
23.3412639101044
 20
43.333545041811078
 70
0
  0
VERTEX
  5
59CDF
  8
0
 62
7
 10
23.3839830941215
 20
43.37488618763409
 70
0
  0
VERTEX
  5
59CE0
  8
0
 62
7
 10
23.42670227813861
 20
43.37488618763409
 70
0
  0
VERTEX
  5
59CE1
  8
0
 62
7
 10
23.42670227813861
 20
43.41760537165117
 70
0
  0
SEQEND
  5
59CE2
  8
0
  0
POLYLINE
  5
4AEC7
  8
0
 62
7
 66
1
 70
0
 10
0
 20
0
 30
0
  0
VERTEX
  5
59CE3
  8
0
 62
7
 10
23.68026130585298
 20
43.37488618763409
 70
0
  0
VERTEX
  5
59CE4
  8
0
 62
7
 10
23.68026130585298
 20
43.41760537165117
 70
0
  0
VERTEX
  5
59CE5
  8
0
 62
7
 10
23.637542121835882
 20
43.41760537165117
 70
0
  0
VERTEX
  5
59CE6
  8
0
 62
7
 10
23.59482293781878
 20
43.41760537165117
 70
0
  0
VERTEX
  5
59CE7
  8
0
 62
7
 10
23.553481791995772
 20
43.41760537165117
 70
0
  0
VERTEX
  5
59CE8
  8
0
 62
7
 10
23.51076260797868
 20
43.41760537165117
 70
0
  0
VERTEX
  5
59CE9
  8
0
 62
7
 10
23.4680434239616
 20
43.41760537165117
 70
0
  0
VERTEX
  5
59CEA
  8
0
 62
7
 10
23.42670227813861
 20
43.41760537165117
 70
0
  0
SEQEND
  5
59CEB
  8
0
  0
POLYLINE
  5
4AED1
  8
0
 62
7
 66
1
 70
0
 10
0
 20
0
 30
0
  0
VERTEX
  5
59CEC
  8
0
 62
7
 10
25.500649760258991
 20
39.60870780315895
 70
0
  0
VERTEX
  5
59CED
  8
0
 62
7
 10
25.500649760258991
 20
39.60870780315895
 70
0
  0
SEQEND
  5
59CEE
  8
0
  0
POLYLINE
  5
4AED5
  8
0
 62
7
 66
1
 70
0
 10
0
 20
0
 30
0
  0
VERTEX
  5
59CEF
  8
0
 62
7
 10
64.358570757488962
 20
22.803704280884521
 70
0
  0
VERTEX
  5
59CF0
  8
0
 62
7
 10
64.358570757488962
 20
22.803704280884521
 70
0
  0
SEQEND
  5
59CF1
  8
0
  0
POLYLINE
  5
4AED9
  8
0
 62
7
 66
1
 70
0
 10
0
 20
0
 30
0
  0
VERTEX
  5
59CF2
  8
0
 62
7
 10
57.628232217504888
 20
23.438635378816059
 70
0
  0
VERTEX
  5
59CF3
  8
0
 62
7
 10
57.628232217504888
 20
23.438635378816059
 70
0
  0
SEQEND
  5
59CF4
  8
0
  0
POLYLINE
  5
4AEDD
  8
0
 62
7
 66
1
 70
0
 10
0
 20
0
 30
0
  0
VERTEX
  5
59CF5
  8
0
 62
7
 10
65.7131823022892
 20
22.21097560264727
 70
0
  0
VERTEX
  5
59CF6
  8
0
 62
7
 10
65.7559014863063
 20
22.21097560264727
 70
0
  0
VERTEX
  5
59CF7
  8
0
 62
7
 10
65.7559014863063
 20
22.252316748470271
 70
0
  0
VERTEX
  5
59CF8
  8
0
 62
7
 10
65.7986206703234
 20
22.252316748470271
 70
0
  0
VERTEX
  5
59CF9
  8
0
 62
7
 10
65.7986206703234
 20
22.337755116504471
 70
0
  0
VERTEX
  5
59CFA
  8
0
 62
7
 10
65.7559014863063
 20
22.337755116504471
 70
0
  0
SEQEND
  5
59CFB
  8
0
  0
POLYLINE
  5
4AEE5
  8
0
 62
7
 66
1
 70
0
 10
0
 20
0
 30
0
  0
VERTEX
  5
59CFC
  8
0
 62
7
 10
60.041177095373861
 20
20.221088450366981
 70
0
  0
VERTEX
  5
59CFD
  8
0
 62
7
 10
60.041177095373861
 20
20.178369266349879
 70
0
  0
VERTEX
  5
59CFE
  8
0
 62
7
 10
59.998457911356752
 20
20.178369266349879
 70
0
  0
VERTEX
  5
59CFF
  8
0
 62
7
 10
59.998457911356752
 20
20.221088450366981
 70
0
  0
SEQEND
  5
59D00
  8
0
  0
POLYLINE
  5
4AEEB
  8
0
 62
7
 66
1
 70
0
 10
0
 20
0
 30
0
  0
VERTEX
  5
59D01
  8
0
 62
7
 10
24.695875454904641
 20
42.655550250313922
 70
0
  0
VERTEX
  5
59D02
  8
0
 62
7
 10
24.695875454904641
 20
42.614209104490882
 70
0
  0
VERTEX
  5
59D03
  8
0
 62
7
 10
24.738594638921739
 20
42.614209104490882
 70
0
  0
SEQEND
  5
59D04
  8
0
  0
POLYLINE
  5
4AEF0
  8
0
 62
7
 66
1
 70
0
 10
0
 20
0
 30
0
  0
VERTEX
  5
59D05
  8
0
 62
7
 10
60.845951400728239
 20
24.58137355127343
 70
0
  0
VERTEX
  5
59D06
  8
0
 62
7
 10
60.845951400728239
 20
24.58137355127343
 70
0
  0
SEQEND
  5
59D07
  8
0
  0
POLYLINE
  5
4AEF4
  8
0
 62
7
 66
1
 70
0
 10
0
 20
0
 30
0
  0
VERTEX
  5
59D08
  8
0
 62
7
 10
60.888670584745313
 20
24.538309857707819
 70
0
  0
VERTEX
  5
59D09
  8
0
 62
7
 10
60.888670584745313
 20
24.58137355127343
 70
0
  0
SEQEND
  5
59D0A
  8
0
  0
POLYLINE
  5
4AEF8
  8
0
 62
7
 66
1
 70
0
 10
0
 20
0
 30
0
  0
VERTEX
  5
59D0B
  8
0
 62
7
 10
28.716990905288242
 20
40.751273720842043
 70
0
  0
VERTEX
  5
59D0C
  8
0
 62
7
 10
28.716990905288242
 20
40.751273720842043
 70
0
  0
SEQEND
  5
59D0D
  8
0
  0
POLYLINE
  5
4AEFC
  8
0
 62
7
 66
1
 70
0
 10
0
 20
0
 30
0
  0
VERTEX
  5
59D0E
  8
0
 62
7
 10
28.75971008930534
 20
40.751273720842043
 70
0
  0
VERTEX
  5
59D0F
  8
0
 62
7
 10
28.75971008930534
 20
40.751273720842043
 70
0
  0
SEQEND
  5
59D10
  8
0
  0
POLYLINE
  5
4AF00
  8
0
 62
7
 66
1
 70
0
 10
0
 20
0
 30
0
  0
VERTEX
  5
59D11
  8
0
 62
7
 10
57.458733519630592
 20
23.353369265556118
 70
0
  0
VERTEX
  5
59D12
  8
0
 62
7
 10
57.417392373807587
 20
23.353369265556118
 70
0
  0
SEQEND
  5
59D13
  8
0
  0
POLYLINE
  5
4AF04
  8
0
 62
7
 66
1
 70
0
 10
0
 20
0
 30
0
  0
VERTEX
  5
59D14
  8
0
 62
7
 10
57.374673189790492
 20
23.184042822456089
 70
0
  0
VERTEX
  5
59D15
  8
0
 62
7
 10
57.374673189790492
 20
23.14132363843899
 70
0
  0
SEQEND
  5
59D16
  8
0
  0
POLYLINE
  5
4AF08
  8
0
 62
7
 66
1
 70
0
 10
0
 20
0
 30
0
  0
VERTEX
  5
59D17
  8
0
 62
7
 10
57.374673189790492
 20
23.14132363843899
 70
0
  0
VERTEX
  5
59D18
  8
0
 62
7
 10
57.374673189790492
 20
23.14132363843899
 70
0
  0
SEQEND
  5
59D19
  8
0
  0
POLYLINE
  5
4AF0C
  8
0
 62
7
 66
1
 70
0
 10
0
 20
0
 30
0
  0
VERTEX
  5
59D1A
  8
0
 62
7
 10
25.331151062384691
 20
39.523269435124739
 70
0
  0
VERTEX
  5
59D1B
  8
0
 62
7
 10
25.288431878367621
 20
39.523269435124739
 70
0
  0
SEQEND
  5
59D1C
  8
0
  0
POLYLINE
  5
4AF10
  8
0
 62
7
 66
1
 70
0
 10
0
 20
0
 30
0
  0
VERTEX
  5
59D1D
  8
0
 62
7
 10
25.245712694350519
 20
39.353942992024713
 70
0
  0
VERTEX
  5
59D1E
  8
0
 62
7
 10
25.245712694350519
 20
39.353942992024713
 70
0
  0
SEQEND
  5
59D1F
  8
0
  0
POLYLINE
  5
4AF14
  8
0
 62
7
 66
1
 70
0
 10
0
 20
0
 30
0
  0
VERTEX
  5
59D20
  8
0
 62
7
 10
25.245712694350519
 20
39.353942992024713
 70
0
  0
VERTEX
  5
59D21
  8
0
 62
7
 10
25.245712694350519
 20
39.353942992024713
 70
0
  0
SEQEND
  5
59D22
  8
0
  0
POLYLINE
  5
4AF18
  8
0
 62
7
 66
1
 70
0
 10
0
 20
0
 30
0
  0
VERTEX
  5
59D23
  8
0
 62
7
 10
25.500649760258991
 20
39.60870780315895
 70
0
  0
VERTEX
  5
59D24
  8
0
 62
7
 10
25.500649760258991
 20
39.60870780315895
 70
0
  0
SEQEND
  5
59D25
  8
0
  0
POLYLINE
  5
4AF1C
  8
0
 62
7
 66
1
 70
0
 10
0
 20
0
 30
0
  0
VERTEX
  5
59D26
  8
0
 62
7
 10
25.500649760258991
 20
39.60870780315895
 70
0
  0
VERTEX
  5
59D27
  8
0
 62
7
 10
25.500649760258991
 20
39.60870780315895
 70
0
  0
SEQEND
  5
59D28
  8
0
  0
POLYLINE
  5
4AF20
  8
0
 62
7
 66
1
 70
0
 10
0
 20
0
 30
0
  0
VERTEX
  5
59D29
  8
0
 62
7
 10
25.500649760258991
 20
39.60870780315895
 70
0
  0
VERTEX
  5
59D2A
  8
0
 62
7
 10
25.4579305762419
 20
39.60870780315895
 70
0
  0
SEQEND
  5
59D2B
  8
0
  0
POLYLINE
  5
4AF24
  8
0
 62
7
 66
1
 70
0
 10
0
 20
0
 30
0
  0
VERTEX
  5
59D2C
  8
0
 62
7
 10
57.628232217504888
 20
23.438635378816059
 70
0
  0
VERTEX
  5
59D2D
  8
0
 62
7
 10
57.628232217504888
 20
23.438635378816059
 70
0
  0
SEQEND
  5
59D2E
  8
0
  0
POLYLINE
  5
4AF28
  8
0
 62
7
 66
1
 70
0
 10
0
 20
0
 30
0
  0
VERTEX
  5
59D2F
  8
0
 62
7
 10
57.628232217504888
 20
23.438635378816059
 70
0
  0
VERTEX
  5
59D30
  8
0
 62
7
 10
57.628232217504888
 20
23.438635378816059
 70
0
  0
SEQEND
  5
59D31
  8
0
  0
POLYLINE
  5
4AF2C
  8
0
 62
7
 66
1
 70
0
 10
0
 20
0
 30
0
  0
VERTEX
  5
59D32
  8
0
 62
7
 10
57.628232217504888
 20
23.438635378816059
 70
0
  0
VERTEX
  5
59D33
  8
0
 62
7
 10
57.58689107168189
 20
23.438635378816059
 70
0
  0
SEQEND
  5
59D34
  8
0
  0
POLYLINE
  5
4AF30
  8
0
 62
7
 66
1
 70
0
 10
0
 20
0
 30
0
  0
VERTEX
  5
59D35
  8
0
 62
7
 10
28.97192797119672
 20
40.667041136227681
 70
0
  0
VERTEX
  5
59D36
  8
0
 62
7
 10
28.929208787179618
 20
40.667041136227681
 70
0
  0
SEQEND
  5
59D37
  8
0
  0
POLYLINE
  5
4AF34
  8
0
 62
7
 66
1
 70
0
 10
0
 20
0
 30
0
  0
VERTEX
  5
59D38
  8
0
 62
7
 10
61.09951042844262
 20
24.49559067369071
 70
0
  0
VERTEX
  5
59D39
  8
0
 62
7
 10
61.0567912444255
 20
24.49559067369071
 70
0
  0
SEQEND
  5
59D3A
  8
0
  0
POLYLINE
  5
4AF38
  8
0
 62
7
 66
1
 70
0
 10
0
 20
0
 30
0
  0
VERTEX
  5
59D3B
  8
0
 62
7
 10
20.547980490663829
 20
40.073278929344887
 70
0
  0
VERTEX
  5
59D3C
  8
0
 62
7
 10
20.547980490663829
 20
40.158545042604828
 70
0
  0
VERTEX
  5
59D3D
  8
0
 62
7
 10
20.590699674680941
 20
40.158545042604828
 70
0
  0
SEQEND
  5
59D3E
  8
0
  0
POLYLINE
  5
4AF3D
  8
0
 62
7
 66
1
 70
0
 10
0
 20
0
 30
0
  0
VERTEX
  5
59D3F
  8
0
 62
7
 10
26.34676521143636
 20
42.1899455954824
 70
0
  0
VERTEX
  5
59D40
  8
0
 62
7
 10
26.30404602741925
 20
42.1899455954824
 70
0
  0
SEQEND
  5
59D41
  8
0
  0
POLYLINE
  5
4AF41
  8
0
 62
7
 66
1
 70
0
 10
0
 20
0
 30
0
  0
VERTEX
  5
59D42
  8
0
 62
7
 10
24.695875454904641
 20
43.926273720048293
 70
0
  0
VERTEX
  5
59D43
  8
0
 62
7
 10
24.695875454904641
 20
43.926273720048293
 70
0
  0
SEQEND
  5
59D44
  8
0
  0
POLYLINE
  5
4AF45
  8
0
 62
7
 66
1
 70
0
 10
0
 20
0
 30
0
  0
VERTEX
  5
59D45
  8
0
 62
7
 10
25.245712694350519
 20
39.353942992024713
 70
0
  0
VERTEX
  5
59D46
  8
0
 62
7
 10
25.245712694350519
 20
39.353942992024713
 70
0
  0
SEQEND
  5
59D47
  8
0
  0
POLYLINE
  5
4AF49
  8
0
 62
7
 66
1
 70
0
 10
0
 20
0
 30
0
  0
VERTEX
  5
59D48
  8
0
 62
7
 10
25.4579305762419
 20
39.480550251107672
 70
0
  0
VERTEX
  5
59D49
  8
0
 62
7
 10
25.4579305762419
 20
39.439209105284647
 70
0
  0
SEQEND
  5
59D4A
  8
0
  0
POLYLINE
  5
4AF4D
  8
0
 62
7
 66
1
 70
0
 10
0
 20
0
 30
0
  0
VERTEX
  5
59D4B
  8
0
 62
7
 10
57.374673189790492
 20
23.184042822456089
 70
0
  0
VERTEX
  5
59D4C
  8
0
 62
7
 10
57.374673189790492
 20
23.14132363843899
 70
0
  0
SEQEND
  5
59D4D
  8
0
  0
POLYLINE
  5
4AF51
  8
0
 62
7
 66
1
 70
0
 10
0
 20
0
 30
0
  0
VERTEX
  5
59D4E
  8
0
 62
7
 10
57.58689107168189
 20
23.26930893571603
 70
0
  0
VERTEX
  5
59D4F
  8
0
 62
7
 10
57.58689107168189
 20
23.26930893571603
 70
0
  0
SEQEND
  5
59D50
  8
0
  0
POLYLINE
  5
4AF55
  8
0
 62
7
 66
1
 70
0
 10
0
 20
0
 30
0
  0
VERTEX
  5
59D51
  8
0
 62
7
 10
22.156151063178442
 20
41.682655285279338
 70
0
  0
VERTEX
  5
59D52
  8
0
 62
7
 10
22.19887024719554
 20
41.682655285279338
 70
0
  0
VERTEX
  5
59D53
  8
0
 62
7
 10
22.19887024719554
 20
41.766543360345153
 70
0
  0
SEQEND
  5
59D54
  8
0
  0
POLYLINE
  5
4AF5A
  8
0
 62
7
 66
1
 70
0
 10
0
 20
0
 30
0
  0
VERTEX
  5
59D55
  8
0
 62
7
 10
25.245712694350519
 20
39.353942992024713
 70
0
  0
VERTEX
  5
59D56
  8
0
 62
7
 10
25.245712694350519
 20
39.353942992024713
 70
0
  0
SEQEND
  5
59D57
  8
0
  0
POLYLINE
  5
4AF5E
  8
0
 62
7
 66
1
 70
0
 10
0
 20
0
 30
0
  0
VERTEX
  5
59D58
  8
0
 62
7
 10
57.374673189790492
 20
23.14132363843899
 70
0
  0
VERTEX
  5
59D59
  8
0
 62
7
 10
57.417392373807587
 20
23.14132363843899
 70
0
  0
SEQEND
  5
59D5A
  8
0
  0
POLYLINE
  5
4AF62
  8
0
 62
7
 66
1
 70
0
 10
0
 20
0
 30
0
  0
VERTEX
  5
59D5B
  8
0
 62
7
 10
24.908093336796021
 20
42.655550250313922
 70
0
  0
VERTEX
  5
59D5C
  8
0
 62
7
 10
24.908093336796021
 20
42.655550250313922
 70
0
  0
SEQEND
  5
59D5D
  8
0
  0
POLYLINE
  5
4AF66
  8
0
 62
7
 66
1
 70
0
 10
0
 20
0
 30
0
  0
VERTEX
  5
59D5E
  8
0
 62
7
 10
28.716990905288242
 20
40.751273720842043
 70
0
  0
VERTEX
  5
59D5F
  8
0
 62
7
 10
28.75971008930534
 20
40.751273720842043
 70
0
  0
SEQEND
  5
59D60
  8
0
  0
POLYLINE
  5
4AF6A
  8
0
 62
7
 66
1
 70
0
 10
0
 20
0
 30
0
  0
VERTEX
  5
59D61
  8
0
 62
7
 10
60.845951400728239
 20
24.58137355127343
 70
0
  0
VERTEX
  5
59D62
  8
0
 62
7
 10
60.888670584745313
 20
24.58137355127343
 70
0
  0
SEQEND
  5
59D63
  8
0
  0
POLYLINE
  5
4AF6E
  8
0
 62
7
 66
1
 70
0
 10
0
 20
0
 30
0
  0
VERTEX
  5
59D64
  8
0
 62
7
 10
22.19887024719554
 20
43.0372668300796
 70
0
  0
VERTEX
  5
59D65
  8
0
 62
7
 10
22.19887024719554
 20
43.0372668300796
 70
0
  0
SEQEND
  5
59D66
  8
0
  0
POLYLINE
  5
4AF72
  8
0
 62
7
 66
1
 70
0
 10
0
 20
0
 30
0
  0
VERTEX
  5
59D67
  8
0
 62
7
 10
24.695875454904641
 20
43.926273720048293
 70
0
  0
VERTEX
  5
59D68
  8
0
 62
7
 10
24.695875454904641
 20
43.926273720048293
 70
0
  0
SEQEND
  5
59D69
  8
0
  0
POLYLINE
  5
4AF76
  8
0
 62
7
 66
1
 70
0
 10
0
 20
0
 30
0
  0
VERTEX
  5
59D6A
  8
0
 62
7
 10
24.738594638921739
 20
42.614209104490882
 70
0
  0
VERTEX
  5
59D6B
  8
0
 62
7
 10
24.738594638921739
 20
42.614209104490882
 70
0
  0
SEQEND
  5
59D6C
  8
0
  0
POLYLINE
  5
4AF7A
  8
0
 62
7
 66
1
 70
0
 10
0
 20
0
 30
0
  0
VERTEX
  5
59D6D
  8
0
 62
7
 10
61.0567912444255
 20
24.49559067369071
 70
0
  0
VERTEX
  5
59D6E
  8
0
 62
7
 10
61.0567912444255
 20
24.49559067369071
 70
0
  0
SEQEND
  5
59D6F
  8
0
  0
POLYLINE
  5
4AF7E
  8
0
 62
7
 66
1
 70
0
 10
0
 20
0
 30
0
  0
VERTEX
  5
59D70
  8
0
 62
7
 10
61.09951042844262
 20
24.49559067369071
 70
0
  0
VERTEX
  5
59D71
  8
0
 62
7
 10
61.09951042844262
 20
24.49559067369071
 70
0
  0
SEQEND
  5
59D72
  8
0
  0
POLYLINE
  5
4AF82
  8
0
 62
7
 66
1
 70
0
 10
0
 20
0
 30
0
  0
VERTEX
  5
59D73
  8
0
 62
7
 10
28.929208787179618
 20
40.667041136227681
 70
0
  0
VERTEX
  5
59D74
  8
0
 62
7
 10
28.929208787179618
 20
40.667041136227681
 70
0
  0
SEQEND
  5
59D75
  8
0
  0
POLYLINE
  5
4AF86
  8
0
 62
7
 66
1
 70
0
 10
0
 20
0
 30
0
  0
VERTEX
  5
59D76
  8
0
 62
7
 10
28.97192797119672
 20
40.667041136227681
 70
0
  0
VERTEX
  5
59D77
  8
0
 62
7
 10
28.97192797119672
 20
40.667041136227681
 70
0
  0
SEQEND
  5
59D78
  8
0
  0
POLYLINE
  5
4AF8A
  8
0
 62
7
 66
1
 70
0
 10
0
 20
0
 30
0
  0
VERTEX
  5
59D79
  8
0
 62
7
 10
57.628232217504888
 20
23.396088449573231
 70
0
  0
VERTEX
  5
59D7A
  8
0
 62
7
 10
57.628232217504888
 20
23.438635378816059
 70
0
  0
SEQEND
  5
59D7B
  8
0
  0
POLYLINE
  5
4AF8E
  8
0
 62
7
 66
1
 70
0
 10
0
 20
0
 30
0
  0
VERTEX
  5
59D7C
  8
0
 62
7
 10
57.58689107168189
 20
23.26930893571603
 70
0
  0
VERTEX
  5
59D7D
  8
0
 62
7
 10
57.58689107168189
 20
23.26930893571603
 70
0
  0
SEQEND
  5
59D7E
  8
0
  0
POLYLINE
  5
4AF92
  8
0
 62
7
 66
1
 70
0
 10
0
 20
0
 30
0
  0
VERTEX
  5
59D7F
  8
0
 62
7
 10
25.500649760258991
 20
39.60870780315895
 70
0
  0
VERTEX
  5
59D80
  8
0
 62
7
 10
25.500649760258991
 20
39.60870780315895
 70
0
  0
SEQEND
  5
59D81
  8
0
  0
POLYLINE
  5
4AF96
  8
0
 62
7
 66
1
 70
0
 10
0
 20
0
 30
0
  0
VERTEX
  5
59D82
  8
0
 62
7
 10
25.4579305762419
 20
39.439209105284647
 70
0
  0
VERTEX
  5
59D83
  8
0
 62
7
 10
25.4579305762419
 20
39.480550251107672
 70
0
  0
SEQEND
  5
59D84
  8
0
  0
POLYLINE
  5
4AF9A
  8
0
 62
7
 66
1
 70
0
 10
0
 20
0
 30
0
  0
VERTEX
  5
59D85
  8
0
 62
7
 10
26.26270488159625
 20
42.062993826850906
 70
0
  0
VERTEX
  5
59D86
  8
0
 62
7
 10
26.30404602741925
 20
42.062993826850906
 70
0
  0
VERTEX
  5
59D87
  8
0
 62
7
 10
26.34676521143636
 20
42.062993826850906
 70
0
  0
VERTEX
  5
59D88
  8
0
 62
7
 10
26.34676521143636
 20
42.1899455954824
 70
0
  0
SEQEND
  5
59D89
  8
0
  0
POLYLINE
  5
4AFA0
  8
0
 62
7
 66
1
 70
0
 10
0
 20
0
 30
0
  0
VERTEX
  5
59D8A
  8
0
 62
7
 10
22.029371549321269
 20
41.639936101262251
 70
0
  0
VERTEX
  5
59D8B
  8
0
 62
7
 10
22.029371549321269
 20
41.639936101262251
 70
0
  0
SEQEND
  5
59D8C
  8
0
  0
POLYLINE
  5
4B336
  8
0
 62
7
 66
1
 70
8
  0
VERTEX
  5
4B337
  8
0
 62
7
 10
20.632
 20
40.0733
 30
0
 70
32
  0
VERTEX
  5
4B338
  8
0
 62
7
 10
20.632
 20
40.0733
 30
0
 70
32
  0
VERTEX
  5
4B339
  8
0
 62
7
 10
20.632
 20
40.0733
 30
0
 70
32
  0
VERTEX
  5
4B33A
  8
0
 62
7
 10
20.6319
 20
40.0733
 30
0
 70
32
  0
VERTEX
  5
4B33B
  8
0
 62
7
 10
20.6319
 20
40.0733
 30
0
 70
32
  0
VERTEX
  5
4B33C
  8
0
 62
7
 10
20.6318
 20
40.0733
 30
0
 70
32
  0
VERTEX
  5
4B33D
  8
0
 62
7
 10
20.6316
 20
40.0733
 30
0
 70
32
  0
VERTEX
  5
4B33E
  8
0
 62
7
 10
20.6315
 20
40.0733
 30
0
 70
32
  0
VERTEX
  5
4B33F
  8
0
 62
7
 10
20.6313
 20
40.0733
 30
0
 70
32
  0
VERTEX
  5
4B340
  8
0
 62
7
 10
20.6312
 20
40.0733
 30
0
 70
32
  0
VERTEX
  5
4B341
  8
0
 62
7
 10
20.631
 20
40.0733
 30
0
 70
32
  0
VERTEX
  5
4B342
  8
0
 62
7
 10
20.6307
 20
40.0733
 30
0
 70
32
  0
VERTEX
  5
4B343
  8
0
 62
7
 10
20.6305
 20
40.0733
 30
0
 70
32
  0
VERTEX
  5
4B344
  8
0
 62
7
 10
20.6303
 20
40.0733
 30
0
 70
32
  0
VERTEX
  5
4B345
  8
0
 62
7
 10
20.63
 20
40.0733
 30
0
 70
32
  0
VERTEX
  5
4B346
  8
0
 62
7
 10
20.6297
 20
40.0733
 30
0
 70
32
  0
VERTEX
  5
4B347
  8
0
 62
7
 10
20.6294
 20
40.0733
 30
0
 70
32
  0
VERTEX
  5
4B348
  8
0
 62
7
 10
20.6291
 20
40.0733
 30
0
 70
32
  0
VERTEX
  5
4B349
  8
0
 62
7
 10
20.6287
 20
40.0733
 30
0
 70
32
  0
VERTEX
  5
4B34A
  8
0
 62
7
 10
20.6284
 20
40.0733
 30
0
 70
32
  0
VERTEX
  5
4B34B
  8
0
 62
7
 10
20.628
 20
40.0733
 30
0
 70
32
  0
VERTEX
  5
4B34C
  8
0
 62
7
 10
20.6276
 20
40.0733
 30
0
 70
32
  0
VERTEX
  5
4B34D
  8
0
 62
7
 10
20.6273
 20
40.0733
 30
0
 70
32
  0
VERTEX
  5
4B34E
  8
0
 62
7
 10
20.6268
 20
40.0733
 30
0
 70
32
  0
VERTEX
  5
4B34F
  8
0
 62
7
 10
20.6264
 20
40.0733
 30
0
 70
32
  0
VERTEX
  5
4B350
  8
0
 62
7
 10
20.626
 20
40.0733
 30
0
 70
32
  0
VERTEX
  5
4B351
  8
0
 62
7
 10
20.6256
 20
40.0733
 30
0
 70
32
  0
VERTEX
  5
4B352
  8
0
 62
7
 10
20.6251
 20
40.0733
 30
0
 70
32
  0
VERTEX
  5
4B353
  8
0
 62
7
 10
20.6246
 20
40.0733
 30
0
 70
32
  0
VERTEX
  5
4B354
  8
0
 62
7
 10
20.6242
 20
40.0733
 30
0
 70
32
  0
VERTEX
  5
4B355
  8
0
 62
7
 10
20.6237
 20
40.0733
 30
0
 70
32
  0
VERTEX
  5
4B356
  8
0
 62
7
 10
20.6232
 20
40.0733
 30
0
 70
32
  0
VERTEX
  5
4B357
  8
0
 62
7
 10
20.6227
 20
40.0733
 30
0
 70
32
  0
VERTEX
  5
4B358
  8
0
 62
7
 10
20.6222
 20
40.0733
 30
0
 70
32
  0
VERTEX
  5
4B359
  8
0
 62
7
 10
20.6216
 20
40.0733
 30
0
 70
32
  0
VERTEX
  5
4B35A
  8
0
 62
7
 10
20.6211
 20
40.0733
 30
0
 70
32
  0
VERTEX
  5
4B35B
  8
0
 62
7
 10
20.6206
 20
40.0733
 30
0
 70
32
  0
VERTEX
  5
4B35C
  8
0
 62
7
 10
20.62
 20
40.0733
 30
0
 70
32
  0
VERTEX
  5
4B35D
  8
0
 62
7
 10
20.6195
 20
40.0733
 30
0
 70
32
  0
VERTEX
  5
4B35E
  8
0
 62
7
 10
20.6189
 20
40.0733
 30
0
 70
32
  0
VERTEX
  5
4B35F
  8
0
 62
7
 10
20.6183
 20
40.0733
 30
0
 70
32
  0
VERTEX
  5
4B360
  8
0
 62
7
 10
20.6178
 20
40.0733
 30
0
 70
32
  0
VERTEX
  5
4B361
  8
0
 62
7
 10
20.6172
 20
40.0733
 30
0
 70
32
  0
VERTEX
  5
4B362
  8
0
 62
7
 10
20.6166
 20
40.0733
 30
0
 70
32
  0
VERTEX
  5
4B363
  8
0
 62
7
 10
20.616
 20
40.0733
 30
0
 70
32
  0
VERTEX
  5
4B364
  8
0
 62
7
 10
20.6155
 20
40.0733
 30
0
 70
32
  0
VERTEX
  5
4B365
  8
0
 62
7
 10
20.6149
 20
40.0733
 30
0
 70
32
  0
VERTEX
  5
4B366
  8
0
 62
7
 10
20.6143
 20
40.0733
 30
0
 70
32
  0
VERTEX
  5
4B367
  8
0
 62
7
 10
20.6137
 20
40.0733
 30
0
 70
32
  0
VERTEX
  5
4B368
  8
0
 62
7
 10
20.6131
 20
40.0733
 30
0
 70
32
  0
VERTEX
  5
4B369
  8
0
 62
7
 10
20.6125
 20
40.0733
 30
0
 70
32
  0
VERTEX
  5
4B36A
  8
0
 62
7
 10
20.6119
 20
40.0733
 30
0
 70
32
  0
VERTEX
  5
4B36B
  8
0
 62
7
 10
20.6113
 20
40.0733
 30
0
 70
32
  0
VERTEX
  5
4B36C
  8
0
 62
7
 10
20.6107
 20
40.0733
 30
0
 70
32
  0
VERTEX
  5
4B36D
  8
0
 62
7
 10
20.6101
 20
40.0733
 30
0
 70
32
  0
VERTEX
  5
4B36E
  8
0
 62
7
 10
20.6095
 20
40.0733
 30
0
 70
32
  0
VERTEX
  5
4B36F
  8
0
 62
7
 10
20.6089
 20
40.0733
 30
0
 70
32
  0
VERTEX
  5
4B370
  8
0
 62
7
 10
20.6083
 20
40.0733
 30
0
 70
32
  0
VERTEX
  5
4B371
  8
0
 62
7
 10
20.6077
 20
40.0733
 30
0
 70
32
  0
VERTEX
  5
4B372
  8
0
 62
7
 10
20.6071
 20
40.0733
 30
0
 70
32
  0
VERTEX
  5
4B373
  8
0
 62
7
 10
20.6066
 20
40.0733
 30
0
 70
32
  0
VERTEX
  5
4B374
  8
0
 62
7
 10
20.606
 20
40.0733
 30
0
 70
32
  0
VERTEX
  5
4B375
  8
0
 62
7
 10
20.6054
 20
40.0733
 30
0
 70
32
  0
VERTEX
  5
4B376
  8
0
 62
7
 10
20.6048
 20
40.0733
 30
0
 70
32
  0
VERTEX
  5
4B377
  8
0
 62
7
 10
20.6043
 20
40.0733
 30
0
 70
32
  0
VERTEX
  5
4B378
  8
0
 62
7
 10
20.6037
 20
40.0733
 30
0
 70
32
  0
VERTEX
  5
4B379
  8
0
 62
7
 10
20.6031
 20
40.0733
 30
0
 70
32
  0
VERTEX
  5
4B37A
  8
0
 62
7
 10
20.6026
 20
40.0733
 30
0
 70
32
  0
VERTEX
  5
4B37B
  8
0
 62
7
 10
20.602
 20
40.0733
 30
0
 70
32
  0
VERTEX
  5
4B37C
  8
0
 62
7
 10
20.6015
 20
40.0733
 30
0
 70
32
  0
VERTEX
  5
4B37D
  8
0
 62
7
 10
20.601
 20
40.0733
 30
0
 70
32
  0
VERTEX
  5
4B37E
  8
0
 62
7
 10
20.6005
 20
40.0733
 30
0
 70
32
  0
VERTEX
  5
4B37F
  8
0
 62
7
 10
20.5999
 20
40.0733
 30
0
 70
32
  0
VERTEX
  5
4B380
  8
0
 62
7
 10
20.5994
 20
40.0733
 30
0
 70
32
  0
VERTEX
  5
4B381
  8
0
 62
7
 10
20.5989
 20
40.0733
 30
0
 70
32
  0
VERTEX
  5
4B382
  8
0
 62
7
 10
20.5985
 20
40.0733
 30
0
 70
32
  0
VERTEX
  5
4B383
  8
0
 62
7
 10
20.598
 20
40.0733
 30
0
 70
32
  0
VERTEX
  5
4B384
  8
0
 62
7
 10
20.5975
 20
40.0733
 30
0
 70
32
  0
VERTEX
  5
4B385
  8
0
 62
7
 10
20.5971
 20
40.0733
 30
0
 70
32
  0
VERTEX
  5
4B386
  8
0
 62
7
 10
20.5966
 20
40.0733
 30
0
 70
32
  0
VERTEX
  5
4B387
  8
0
 62
7
 10
20.5962
 20
40.0733
 30
0
 70
32
  0
VERTEX
  5
4B388
  8
0
 62
7
 10
20.5958
 20
40.0733
 30
0
 70
32
  0
VERTEX
  5
4B389
  8
0
 62
7
 10
20.5954
 20
40.0733
 30
0
 70
32
  0
VERTEX
  5
4B38A
  8
0
 62
7
 10
20.595
 20
40.0733
 30
0
 70
32
  0
VERTEX
  5
4B38B
  8
0
 62
7
 10
20.5946
 20
40.0733
 30
0
 70
32
  0
VERTEX
  5
4B38C
  8
0
 62
7
 10
20.5943
 20
40.0733
 30
0
 70
32
  0
VERTEX
  5
4B38D
  8
0
 62
7
 10
20.5939
 20
40.0733
 30
0
 70
32
  0
VERTEX
  5
4B38E
  8
0
 62
7
 10
20.5936
 20
40.0733
 30
0
 70
32
  0
VERTEX
  5
4B38F
  8
0
 62
7
 10
20.5933
 20
40.0733
 30
0
 70
32
  0
VERTEX
  5
4B390
  8
0
 62
7
 10
20.593
 20
40.0733
 30
0
 70
32
  0
VERTEX
  5
4B391
  8
0
 62
7
 10
20.5927
 20
40.0733
 30
0
 70
32
  0
VERTEX
  5
4B392
  8
0
 62
7
 10
20.5924
 20
40.0733
 30
0
 70
32
  0
VERTEX
  5
4B393
  8
0
 62
7
 10
20.5922
 20
40.0733
 30
0
 70
32
  0
VERTEX
  5
4B394
  8
0
 62
7
 10
20.5919
 20
40.0733
 30
0
 70
32
  0
VERTEX
  5
4B395
  8
0
 62
7
 10
20.5917
 20
40.0733
 30
0
 70
32
  0
VERTEX
  5
4B396
  8
0
 62
7
 10
20.5915
 20
40.0733
 30
0
 70
32
  0
VERTEX
  5
4B397
  8
0
 62
7
 10
20.5914
 20
40.0733
 30
0
 70
32
  0
VERTEX
  5
4B398
  8
0
 62
7
 10
20.5912
 20
40.0733
 30
0
 70
32
  0
VERTEX
  5
4B399
  8
0
 62
7
 10
20.5911
 20
40.0733
 30
0
 70
32
  0
VERTEX
  5
4B39A
  8
0
 62
7
 10
20.591
 20
40.0733
 30
0
 70
32
  0
VERTEX
  5
4B39B
  8
0
 62
7
 10
20.5909
 20
40.0733
 30
0
 70
32
  0
VERTEX
  5
4B39C
  8
0
 62
7
 10
20.5908
 20
40.0733
 30
0
 70
32
  0
VERTEX
  5
4B39D
  8
0
 62
7
 10
20.5907
 20
40.0733
 30
0
 70
32
  0
VERTEX
  5
4B39E
  8
0
 62
7
 10
20.5907
 20
40.0733
 30
0
 70
32
  0
VERTEX
  5
4B39F
  8
0
 62
7
 10
20.5907
 20
40.0733
 30
0
 70
32
  0
VERTEX
  5
4B3A0
  8
0
 62
7
 10
20.5907
 20
40.0733
 30
0
 70
32
  0
VERTEX
  5
4B3A1
  8
0
 62
7
 10
20.5907
 20
40.073199999999993
 30
0
 70
32
  0
VERTEX
  5
4B3A2
  8
0
 62
7
 10
20.5907
 20
40.073199999999993
 30
0
 70
32
  0
VERTEX
  5
4B3A3
  8
0
 62
7
 10
20.5907
 20
40.07309999999999
 30
0
 70
32
  0
VERTEX
  5
4B3A4
  8
0
 62
7
 10
20.5907
 20
40.072999999999993
 30
0
 70
32
  0
VERTEX
  5
4B3A5
  8
0
 62
7
 10
20.5907
 20
40.0728
 30
0
 70
32
  0
VERTEX
  5
4B3A6
  8
0
 62
7
 10
20.5907
 20
40.0727
 30
0
 70
32
  0
VERTEX
  5
4B3A7
  8
0
 62
7
 10
20.5907
 20
40.072499999999991
 30
0
 70
32
  0
VERTEX
  5
4B3A8
  8
0
 62
7
 10
20.5907
 20
40.072299999999991
 30
0
 70
32
  0
VERTEX
  5
4B3A9
  8
0
 62
7
 10
20.5907
 20
40.072099999999992
 30
0
 70
32
  0
VERTEX
  5
4B3AA
  8
0
 62
7
 10
20.5907
 20
40.0719
 30
0
 70
32
  0
VERTEX
  5
4B3AB
  8
0
 62
7
 10
20.5907
 20
40.0717
 30
0
 70
32
  0
VERTEX
  5
4B3AC
  8
0
 62
7
 10
20.5907
 20
40.07139999999999
 30
0
 70
32
  0
VERTEX
  5
4B3AD
  8
0
 62
7
 10
20.5907
 20
40.071099999999987
 30
0
 70
32
  0
VERTEX
  5
4B3AE
  8
0
 62
7
 10
20.5907
 20
40.0708
 30
0
 70
32
  0
VERTEX
  5
4B3AF
  8
0
 62
7
 10
20.5907
 20
40.0705
 30
0
 70
32
  0
VERTEX
  5
4B3B0
  8
0
 62
7
 10
20.5907
 20
40.070199999999993
 30
0
 70
32
  0
VERTEX
  5
4B3B1
  8
0
 62
7
 10
20.5907
 20
40.0699
 30
0
 70
32
  0
VERTEX
  5
4B3B2
  8
0
 62
7
 10
20.5907
 20
40.069499999999991
 30
0
 70
32
  0
VERTEX
  5
4B3B3
  8
0
 62
7
 10
20.5907
 20
40.0691
 30
0
 70
32
  0
VERTEX
  5
4B3B4
  8
0
 62
7
 10
20.5907
 20
40.0687
 30
0
 70
32
  0
VERTEX
  5
4B3B5
  8
0
 62
7
 10
20.5907
 20
40.068299999999986
 30
0
 70
32
  0
VERTEX
  5
4B3B6
  8
0
 62
7
 10
20.5907
 20
40.0679
 30
0
 70
32
  0
VERTEX
  5
4B3B7
  8
0
 62
7
 10
20.5907
 20
40.0675
 30
0
 70
32
  0
VERTEX
  5
4B3B8
  8
0
 62
7
 10
20.5907
 20
40.0671
 30
0
 70
32
  0
VERTEX
  5
4B3B9
  8
0
 62
7
 10
20.5907
 20
40.0666
 30
0
 70
32
  0
VERTEX
  5
4B3BA
  8
0
 62
7
 10
20.5907
 20
40.0662
 30
0
 70
32
  0
VERTEX
  5
4B3BB
  8
0
 62
7
 10
20.5907
 20
40.065699999999993
 30
0
 70
32
  0
VERTEX
  5
4B3BC
  8
0
 62
7
 10
20.5907
 20
40.0652
 30
0
 70
32
  0
VERTEX
  5
4B3BD
  8
0
 62
7
 10
20.5907
 20
40.0647
 30
0
 70
32
  0
VERTEX
  5
4B3BE
  8
0
 62
7
 10
20.5907
 20
40.0642
 30
0
 70
32
  0
VERTEX
  5
4B3BF
  8
0
 62
7
 10
20.5907
 20
40.06369999999999
 30
0
 70
32
  0
VERTEX
  5
4B3C0
  8
0
 62
7
 10
20.5907
 20
40.0632
 30
0
 70
32
  0
VERTEX
  5
4B3C1
  8
0
 62
7
 10
20.5907
 20
40.0626
 30
0
 70
32
  0
VERTEX
  5
4B3C2
  8
0
 62
7
 10
20.5907
 20
40.0621
 30
0
 70
32
  0
VERTEX
  5
4B3C3
  8
0
 62
7
 10
20.5907
 20
40.0616
 30
0
 70
32
  0
VERTEX
  5
4B3C4
  8
0
 62
7
 10
20.5907
 20
40.060999999999993
 30
0
 70
32
  0
VERTEX
  5
4B3C5
  8
0
 62
7
 10
20.5907
 20
40.0605
 30
0
 70
32
  0
VERTEX
  5
4B3C6
  8
0
 62
7
 10
20.5907
 20
40.059899999999992
 30
0
 70
32
  0
VERTEX
  5
4B3C7
  8
0
 62
7
 10
20.5907
 20
40.0593
 30
0
 70
32
  0
VERTEX
  5
4B3C8
  8
0
 62
7
 10
20.5907
 20
40.0588
 30
0
 70
32
  0
VERTEX
  5
4B3C9
  8
0
 62
7
 10
20.5907
 20
40.058199999999992
 30
0
 70
32
  0
VERTEX
  5
4B3CA
  8
0
 62
7
 10
20.5907
 20
40.0576
 30
0
 70
32
  0
VERTEX
  5
4B3CB
  8
0
 62
7
 10
20.5907
 20
40.057
 30
0
 70
32
  0
VERTEX
  5
4B3CC
  8
0
 62
7
 10
20.5907
 20
40.056399999999989
 30
0
 70
32
  0
VERTEX
  5
4B3CD
  8
0
 62
7
 10
20.5907
 20
40.0558
 30
0
 70
32
  0
VERTEX
  5
4B3CE
  8
0
 62
7
 10
20.5907
 20
40.055199999999992
 30
0
 70
32
  0
VERTEX
  5
4B3CF
  8
0
 62
7
 10
20.5907
 20
40.0546
 30
0
 70
32
  0
VERTEX
  5
4B3D0
  8
0
 62
7
 10
20.5907
 20
40.054
 30
0
 70
32
  0
VERTEX
  5
4B3D1
  8
0
 62
7
 10
20.5907
 20
40.0534
 30
0
 70
32
  0
VERTEX
  5
4B3D2
  8
0
 62
7
 10
20.5907
 20
40.052799999999991
 30
0
 70
32
  0
VERTEX
  5
4B3D3
  8
0
 62
7
 10
20.5907
 20
40.0522
 30
0
 70
32
  0
VERTEX
  5
4B3D4
  8
0
 62
7
 10
20.5907
 20
40.0516
 30
0
 70
32
  0
VERTEX
  5
4B3D5
  8
0
 62
7
 10
20.5907
 20
40.051
 30
0
 70
32
  0
VERTEX
  5
4B3D6
  8
0
 62
7
 10
20.5907
 20
40.0504
 30
0
 70
32
  0
VERTEX
  5
4B3D7
  8
0
 62
7
 10
20.5907
 20
40.049799999999991
 30
0
 70
32
  0
VERTEX
  5
4B3D8
  8
0
 62
7
 10
20.5907
 20
40.0492
 30
0
 70
32
  0
VERTEX
  5
4B3D9
  8
0
 62
7
 10
20.5907
 20
40.048599999999993
 30
0
 70
32
  0
VERTEX
  5
4B3DA
  8
0
 62
7
 10
20.5907
 20
40.048
 30
0
 70
32
  0
VERTEX
  5
4B3DB
  8
0
 62
7
 10
20.5907
 20
40.0474
 30
0
 70
32
  0
VERTEX
  5
4B3DC
  8
0
 62
7
 10
20.5907
 20
40.04679999999999
 30
0
 70
32
  0
VERTEX
  5
4B3DD
  8
0
 62
7
 10
20.5907
 20
40.0463
 30
0
 70
32
  0
VERTEX
  5
4B3DE
  8
0
 62
7
 10
20.5907
 20
40.0457
 30
0
 70
32
  0
VERTEX
  5
4B3DF
  8
0
 62
7
 10
20.5907
 20
40.045099999999991
 30
0
 70
32
  0
VERTEX
  5
4B3E0
  8
0
 62
7
 10
20.5907
 20
40.0446
 30
0
 70
32
  0
VERTEX
  5
4B3E1
  8
0
 62
7
 10
20.5907
 20
40.04399999999999
 30
0
 70
32
  0
VERTEX
  5
4B3E2
  8
0
 62
7
 10
20.5907
 20
40.0434
 30
0
 70
32
  0
VERTEX
  5
4B3E3
  8
0
 62
7
 10
20.5907
 20
40.0429
 30
0
 70
32
  0
VERTEX
  5
4B3E4
  8
0
 62
7
 10
20.5907
 20
40.0424
 30
0
 70
32
  0
VERTEX
  5
4B3E5
  8
0
 62
7
 10
20.5907
 20
40.0418
 30
0
 70
32
  0
VERTEX
  5
4B3E6
  8
0
 62
7
 10
20.5907
 20
40.041299999999993
 30
0
 70
32
  0
VERTEX
  5
4B3E7
  8
0
 62
7
 10
20.5907
 20
40.0408
 30
0
 70
32
  0
VERTEX
  5
4B3E8
  8
0
 62
7
 10
20.5907
 20
40.0403
 30
0
 70
32
  0
VERTEX
  5
4B3E9
  8
0
 62
7
 10
20.5907
 20
40.0398
 30
0
 70
32
  0
VERTEX
  5
4B3EA
  8
0
 62
7
 10
20.5907
 20
40.03929999999999
 30
0
 70
32
  0
VERTEX
  5
4B3EB
  8
0
 62
7
 10
20.5907
 20
40.0388
 30
0
 70
32
  0
VERTEX
  5
4B3EC
  8
0
 62
7
 10
20.5907
 20
40.0384
 30
0
 70
32
  0
VERTEX
  5
4B3ED
  8
0
 62
7
 10
20.5907
 20
40.0379
 30
0
 70
32
  0
VERTEX
  5
4B3EE
  8
0
 62
7
 10
20.5907
 20
40.0375
 30
0
 70
32
  0
VERTEX
  5
4B3EF
  8
0
 62
7
 10
20.5907
 20
40.037
 30
0
 70
32
  0
VERTEX
  5
4B3F0
  8
0
 62
7
 10
20.5907
 20
40.036599999999993
 30
0
 70
32
  0
VERTEX
  5
4B3F1
  8
0
 62
7
 10
20.5907
 20
40.0362
 30
0
 70
32
  0
VERTEX
  5
4B3F2
  8
0
 62
7
 10
20.5907
 20
40.0358
 30
0
 70
32
  0
VERTEX
  5
4B3F3
  8
0
 62
7
 10
20.5907
 20
40.035499999999992
 30
0
 70
32
  0
VERTEX
  5
4B3F4
  8
0
 62
7
 10
20.5907
 20
40.0351
 30
0
 70
32
  0
VERTEX
  5
4B3F5
  8
0
 62
7
 10
20.5907
 20
40.03479999999999
 30
0
 70
32
  0
VERTEX
  5
4B3F6
  8
0
 62
7
 10
20.5907
 20
40.0344
 30
0
 70
32
  0
VERTEX
  5
4B3F7
  8
0
 62
7
 10
20.5907
 20
40.0341
 30
0
 70
32
  0
VERTEX
  5
4B3F8
  8
0
 62
7
 10
20.5907
 20
40.033799999999992
 30
0
 70
32
  0
VERTEX
  5
4B3F9
  8
0
 62
7
 10
20.5907
 20
40.0335
 30
0
 70
32
  0
VERTEX
  5
4B3FA
  8
0
 62
7
 10
20.5907
 20
40.0333
 30
0
 70
32
  0
VERTEX
  5
4B3FB
  8
0
 62
7
 10
20.5907
 20
40.033
 30
0
 70
32
  0
VERTEX
  5
4B3FC
  8
0
 62
7
 10
20.5907
 20
40.0328
 30
0
 70
32
  0
VERTEX
  5
4B3FD
  8
0
 62
7
 10
20.5907
 20
40.0326
 30
0
 70
32
  0
VERTEX
  5
4B3FE
  8
0
 62
7
 10
20.5907
 20
40.0324
 30
0
 70
32
  0
VERTEX
  5
4B3FF
  8
0
 62
7
 10
20.5907
 20
40.0322
 30
0
 70
32
  0
VERTEX
  5
4B400
  8
0
 62
7
 10
20.5907
 20
40.0321
 30
0
 70
32
  0
VERTEX
  5
4B401
  8
0
 62
7
 10
20.5907
 20
40.0319
 30
0
 70
32
  0
VERTEX
  5
4B402
  8
0
 62
7
 10
20.5907
 20
40.03179999999999
 30
0
 70
32
  0
VERTEX
  5
4B403
  8
0
 62
7
 10
20.5907
 20
40.031699999999987
 30
0
 70
32
  0
VERTEX
  5
4B404
  8
0
 62
7
 10
20.5907
 20
40.031699999999987
 30
0
 70
32
  0
VERTEX
  5
4B405
  8
0
 62
7
 10
20.5907
 20
40.0316
 30
0
 70
32
  0
VERTEX
  5
4B406
  8
0
 62
7
 10
20.5907
 20
40.0316
 30
0
 70
32
  0
VERTEX
  5
4B407
  8
0
 62
7
 10
20.5907
 20
40.0316
 30
0
 70
32
  0
VERTEX
  5
4B408
  8
0
 62
7
 10
20.5907
 20
40.0316
 30
0
 70
32
  0
VERTEX
  5
4B409
  8
0
 62
7
 10
20.5907
 20
40.031699999999987
 30
0
 70
32
  0
VERTEX
  5
4B40A
  8
0
 62
7
 10
20.5907
 20
40.031699999999987
 30
0
 70
32
  0
VERTEX
  5
4B40B
  8
0
 62
7
 10
20.5907
 20
40.03179999999999
 30
0
 70
32
  0
VERTEX
  5
4B40C
  8
0
 62
7
 10
20.5907
 20
40.0319
 30
0
 70
32
  0
VERTEX
  5
4B40D
  8
0
 62
7
 10
20.5907
 20
40.0321
 30
0
 70
32
  0
VERTEX
  5
4B40E
  8
0
 62
7
 10
20.5907
 20
40.0322
 30
0
 70
32
  0
VERTEX
  5
4B40F
  8
0
 62
7
 10
20.5907
 20
40.0324
 30
0
 70
32
  0
VERTEX
  5
4B410
  8
0
 62
7
 10
20.5907
 20
40.0326
 30
0
 70
32
  0
VERTEX
  5
4B411
  8
0
 62
7
 10
20.5907
 20
40.0328
 30
0
 70
32
  0
VERTEX
  5
4B412
  8
0
 62
7
 10
20.5907
 20
40.033
 30
0
 70
32
  0
VERTEX
  5
4B413
  8
0
 62
7
 10
20.5907
 20
40.0333
 30
0
 70
32
  0
VERTEX
  5
4B414
  8
0
 62
7
 10
20.5907
 20
40.0335
 30
0
 70
32
  0
VERTEX
  5
4B415
  8
0
 62
7
 10
20.5907
 20
40.033799999999992
 30
0
 70
32
  0
VERTEX
  5
4B416
  8
0
 62
7
 10
20.5907
 20
40.0341
 30
0
 70
32
  0
VERTEX
  5
4B417
  8
0
 62
7
 10
20.5907
 20
40.0344
 30
0
 70
32
  0
VERTEX
  5
4B418
  8
0
 62
7
 10
20.5907
 20
40.03479999999999
 30
0
 70
32
  0
VERTEX
  5
4B419
  8
0
 62
7
 10
20.5907
 20
40.0351
 30
0
 70
32
  0
VERTEX
  5
4B41A
  8
0
 62
7
 10
20.5907
 20
40.035499999999992
 30
0
 70
32
  0
VERTEX
  5
4B41B
  8
0
 62
7
 10
20.5907
 20
40.0358
 30
0
 70
32
  0
VERTEX
  5
4B41C
  8
0
 62
7
 10
20.5907
 20
40.0362
 30
0
 70
32
  0
VERTEX
  5
4B41D
  8
0
 62
7
 10
20.5907
 20
40.036599999999993
 30
0
 70
32
  0
VERTEX
  5
4B41E
  8
0
 62
7
 10
20.5907
 20
40.037
 30
0
 70
32
  0
VERTEX
  5
4B41F
  8
0
 62
7
 10
20.5907
 20
40.0375
 30
0
 70
32
  0
VERTEX
  5
4B420
  8
0
 62
7
 10
20.5907
 20
40.0379
 30
0
 70
32
  0
VERTEX
  5
4B421
  8
0
 62
7
 10
20.5907
 20
40.0384
 30
0
 70
32
  0
VERTEX
  5
4B422
  8
0
 62
7
 10
20.5907
 20
40.0388
 30
0
 70
32
  0
VERTEX
  5
4B423
  8
0
 62
7
 10
20.5907
 20
40.03929999999999
 30
0
 70
32
  0
VERTEX
  5
4B424
  8
0
 62
7
 10
20.5907
 20
40.0398
 30
0
 70
32
  0
VERTEX
  5
4B425
  8
0
 62
7
 10
20.5907
 20
40.0403
 30
0
 70
32
  0
VERTEX
  5
4B426
  8
0
 62
7
 10
20.5907
 20
40.0408
 30
0
 70
32
  0
VERTEX
  5
4B427
  8
0
 62
7
 10
20.5907
 20
40.041299999999993
 30
0
 70
32
  0
VERTEX
  5
4B428
  8
0
 62
7
 10
20.5907
 20
40.0418
 30
0
 70
32
  0
VERTEX
  5
4B429
  8
0
 62
7
 10
20.5907
 20
40.0424
 30
0
 70
32
  0
VERTEX
  5
4B42A
  8
0
 62
7
 10
20.5907
 20
40.0429
 30
0
 70
32
  0
VERTEX
  5
4B42B
  8
0
 62
7
 10
20.5907
 20
40.0434
 30
0
 70
32
  0
VERTEX
  5
4B42C
  8
0
 62
7
 10
20.5907
 20
40.04399999999999
 30
0
 70
32
  0
VERTEX
  5
4B42D
  8
0
 62
7
 10
20.5907
 20
40.0446
 30
0
 70
32
  0
VERTEX
  5
4B42E
  8
0
 62
7
 10
20.5907
 20
40.045099999999991
 30
0
 70
32
  0
VERTEX
  5
4B42F
  8
0
 62
7
 10
20.5907
 20
40.0457
 30
0
 70
32
  0
VERTEX
  5
4B430
  8
0
 62
7
 10
20.5907
 20
40.0463
 30
0
 70
32
  0
VERTEX
  5
4B431
  8
0
 62
7
 10
20.5907
 20
40.04679999999999
 30
0
 70
32
  0
VERTEX
  5
4B432
  8
0
 62
7
 10
20.5907
 20
40.0474
 30
0
 70
32
  0
VERTEX
  5
4B433
  8
0
 62
7
 10
20.5907
 20
40.048
 30
0
 70
32
  0
VERTEX
  5
4B434
  8
0
 62
7
 10
20.5907
 20
40.048599999999993
 30
0
 70
32
  0
VERTEX
  5
4B435
  8
0
 62
7
 10
20.5907
 20
40.0492
 30
0
 70
32
  0
VERTEX
  5
4B436
  8
0
 62
7
 10
20.5907
 20
40.049799999999991
 30
0
 70
32
  0
VERTEX
  5
4B437
  8
0
 62
7
 10
20.5907
 20
40.0504
 30
0
 70
32
  0
VERTEX
  5
4B438
  8
0
 62
7
 10
20.5907
 20
40.051
 30
0
 70
32
  0
VERTEX
  5
4B439
  8
0
 62
7
 10
20.5907
 20
40.0516
 30
0
 70
32
  0
VERTEX
  5
4B43A
  8
0
 62
7
 10
20.5907
 20
40.0522
 30
0
 70
32
  0
VERTEX
  5
4B43B
  8
0
 62
7
 10
20.5907
 20
40.052799999999991
 30
0
 70
32
  0
VERTEX
  5
4B43C
  8
0
 62
7
 10
20.5907
 20
40.0534
 30
0
 70
32
  0
VERTEX
  5
4B43D
  8
0
 62
7
 10
20.5907
 20
40.054
 30
0
 70
32
  0
VERTEX
  5
4B43E
  8
0
 62
7
 10
20.5907
 20
40.0546
 30
0
 70
32
  0
VERTEX
  5
4B43F
  8
0
 62
7
 10
20.5907
 20
40.055199999999992
 30
0
 70
32
  0
VERTEX
  5
4B440
  8
0
 62
7
 10
20.5907
 20
40.0558
 30
0
 70
32
  0
VERTEX
  5
4B441
  8
0
 62
7
 10
20.5907
 20
40.056399999999989
 30
0
 70
32
  0
VERTEX
  5
4B442
  8
0
 62
7
 10
20.5907
 20
40.057
 30
0
 70
32
  0
VERTEX
  5
4B443
  8
0
 62
7
 10
20.5907
 20
40.0576
 30
0
 70
32
  0
VERTEX
  5
4B444
  8
0
 62
7
 10
20.5907
 20
40.058199999999992
 30
0
 70
32
  0
VERTEX
  5
4B445
  8
0
 62
7
 10
20.5907
 20
40.0588
 30
0
 70
32
  0
VERTEX
  5
4B446
  8
0
 62
7
 10
20.5907
 20
40.0593
 30
0
 70
32
  0
VERTEX
  5
4B447
  8
0
 62
7
 10
20.5907
 20
40.059899999999992
 30
0
 70
32
  0
VERTEX
  5
4B448
  8
0
 62
7
 10
20.5907
 20
40.0605
 30
0
 70
32
  0
VERTEX
  5
4B449
  8
0
 62
7
 10
20.5907
 20
40.060999999999993
 30
0
 70
32
  0
VERTEX
  5
4B44A
  8
0
 62
7
 10
20.5907
 20
40.0616
 30
0
 70
32
  0
VERTEX
  5
4B44B
  8
0
 62
7
 10
20.5907
 20
40.0621
 30
0
 70
32
  0
VERTEX
  5
4B44C
  8
0
 62
7
 10
20.5907
 20
40.0626
 30
0
 70
32
  0
VERTEX
  5
4B44D
  8
0
 62
7
 10
20.5907
 20
40.0632
 30
0
 70
32
  0
VERTEX
  5
4B44E
  8
0
 62
7
 10
20.5907
 20
40.06369999999999
 30
0
 70
32
  0
VERTEX
  5
4B44F
  8
0
 62
7
 10
20.5907
 20
40.0642
 30
0
 70
32
  0
VERTEX
  5
4B450
  8
0
 62
7
 10
20.5907
 20
40.0647
 30
0
 70
32
  0
VERTEX
  5
4B451
  8
0
 62
7
 10
20.5907
 20
40.0652
 30
0
 70
32
  0
VERTEX
  5
4B452
  8
0
 62
7
 10
20.5907
 20
40.065699999999993
 30
0
 70
32
  0
VERTEX
  5
4B453
  8
0
 62
7
 10
20.5907
 20
40.0662
 30
0
 70
32
  0
VERTEX
  5
4B454
  8
0
 62
7
 10
20.5907
 20
40.0666
 30
0
 70
32
  0
VERTEX
  5
4B455
  8
0
 62
7
 10
20.5907
 20
40.0671
 30
0
 70
32
  0
VERTEX
  5
4B456
  8
0
 62
7
 10
20.5907
 20
40.0675
 30
0
 70
32
  0
VERTEX
  5
4B457
  8
0
 62
7
 10
20.5907
 20
40.0679
 30
0
 70
32
  0
VERTEX
  5
4B458
  8
0
 62
7
 10
20.5907
 20
40.068299999999986
 30
0
 70
32
  0
VERTEX
  5
4B459
  8
0
 62
7
 10
20.5907
 20
40.0687
 30
0
 70
32
  0
VERTEX
  5
4B45A
  8
0
 62
7
 10
20.5907
 20
40.0691
 30
0
 70
32
  0
VERTEX
  5
4B45B
  8
0
 62
7
 10
20.5907
 20
40.069499999999991
 30
0
 70
32
  0
VERTEX
  5
4B45C
  8
0
 62
7
 10
20.5907
 20
40.0699
 30
0
 70
32
  0
VERTEX
  5
4B45D
  8
0
 62
7
 10
20.5907
 20
40.070199999999993
 30
0
 70
32
  0
VERTEX
  5
4B45E
  8
0
 62
7
 10
20.5907
 20
40.0705
 30
0
 70
32
  0
VERTEX
  5
4B45F
  8
0
 62
7
 10
20.5907
 20
40.0708
 30
0
 70
32
  0
VERTEX
  5
4B460
  8
0
 62
7
 10
20.5907
 20
40.071099999999987
 30
0
 70
32
  0
VERTEX
  5
4B461
  8
0
 62
7
 10
20.5907
 20
40.07139999999999
 30
0
 70
32
  0
VERTEX
  5
4B462
  8
0
 62
7
 10
20.5907
 20
40.0717
 30
0
 70
32
  0
VERTEX
  5
4B463
  8
0
 62
7
 10
20.5907
 20
40.0719
 30
0
 70
32
  0
VERTEX
  5
4B464
  8
0
 62
7
 10
20.5907
 20
40.072099999999992
 30
0
 70
32
  0
VERTEX
  5
4B465
  8
0
 62
7
 10
20.5907
 20
40.072299999999991
 30
0
 70
32
  0
VERTEX
  5
4B466
  8
0
 62
7
 10
20.5907
 20
40.072499999999991
 30
0
 70
32
  0
VERTEX
  5
4B467
  8
0
 62
7
 10
20.5907
 20
40.0727
 30
0
 70
32
  0
VERTEX
  5
4B468
  8
0
 62
7
 10
20.5907
 20
40.0728
 30
0
 70
32
  0
VERTEX
  5
4B469
  8
0
 62
7
 10
20.5907
 20
40.072999999999993
 30
0
 70
32
  0
VERTEX
  5
4B46A
  8
0
 62
7
 10
20.5907
 20
40.07309999999999
 30
0
 70
32
  0
VERTEX
  5
4B46B
  8
0
 62
7
 10
20.5907
 20
40.073199999999993
 30
0
 70
32
  0
VERTEX
  5
4B46C
  8
0
 62
7
 10
20.5907
 20
40.073199999999993
 30
0
 70
32
  0
VERTEX
  5
4B46D
  8
0
 62
7
 10
20.5907
 20
40.0733
 30
0
 70
32
  0
VERTEX
  5
4B46E
  8
0
 62
7
 10
20.5907
 20
40.0733
 30
0
 70
32
  0
VERTEX
  5
4B46F
  8
0
 62
7
 10
20.5907
 20
40.0733
 30
0
 70
32
  0
VERTEX
  5
4B470
  8
0
 62
7
 10
20.5907
 20
40.0733
 30
0
 70
32
  0
VERTEX
  5
4B471
  8
0
 62
7
 10
20.5906
 20
40.0733
 30
0
 70
32
  0
VERTEX
  5
4B472
  8
0
 62
7
 10
20.5905
 20
40.0733
 30
0
 70
32
  0
VERTEX
  5
4B473
  8
0
 62
7
 10
20.5904
 20
40.0733
 30
0
 70
32
  0
VERTEX
  5
4B474
  8
0
 62
7
 10
20.5903
 20
40.0733
 30
0
 70
32
  0
VERTEX
  5
4B475
  8
0
 62
7
 10
20.5902
 20
40.0733
 30
0
 70
32
  0
VERTEX
  5
4B476
  8
0
 62
7
 10
20.59
 20
40.0733
 30
0
 70
32
  0
VERTEX
  5
4B477
  8
0
 62
7
 10
20.5898
 20
40.0733
 30
0
 70
32
  0
VERTEX
  5
4B478
  8
0
 62
7
 10
20.5896
 20
40.0733
 30
0
 70
32
  0
VERTEX
  5
4B479
  8
0
 62
7
 10
20.5894
 20
40.0733
 30
0
 70
32
  0
VERTEX
  5
4B47A
  8
0
 62
7
 10
20.5892
 20
40.0733
 30
0
 70
32
  0
VERTEX
  5
4B47B
  8
0
 62
7
 10
20.5889
 20
40.0733
 30
0
 70
32
  0
VERTEX
  5
4B47C
  8
0
 62
7
 10
20.5886
 20
40.0733
 30
0
 70
32
  0
VERTEX
  5
4B47D
  8
0
 62
7
 10
20.5884
 20
40.0733
 30
0
 70
32
  0
VERTEX
  5
4B47E
  8
0
 62
7
 10
20.588
 20
40.0733
 30
0
 70
32
  0
VERTEX
  5
4B47F
  8
0
 62
7
 10
20.5877
 20
40.0733
 30
0
 70
32
  0
VERTEX
  5
4B480
  8
0
 62
7
 10
20.5874
 20
40.0733
 30
0
 70
32
  0
VERTEX
  5
4B481
  8
0
 62
7
 10
20.587
 20
40.0733
 30
0
 70
32
  0
VERTEX
  5
4B482
  8
0
 62
7
 10
20.5866
 20
40.0733
 30
0
 70
32
  0
VERTEX
  5
4B483
  8
0
 62
7
 10
20.5863
 20
40.0733
 30
0
 70
32
  0
VERTEX
  5
4B484
  8
0
 62
7
 10
20.5859
 20
40.0733
 30
0
 70
32
  0
VERTEX
  5
4B485
  8
0
 62
7
 10
20.5854
 20
40.0733
 30
0
 70
32
  0
VERTEX
  5
4B486
  8
0
 62
7
 10
20.585
 20
40.0733
 30
0
 70
32
  0
VERTEX
  5
4B487
  8
0
 62
7
 10
20.5846
 20
40.0733
 30
0
 70
32
  0
VERTEX
  5
4B488
  8
0
 62
7
 10
20.5841
 20
40.0733
 30
0
 70
32
  0
VERTEX
  5
4B489
  8
0
 62
7
 10
20.5836
 20
40.0733
 30
0
 70
32
  0
VERTEX
  5
4B48A
  8
0
 62
7
 10
20.5832
 20
40.0733
 30
0
 70
32
  0
VERTEX
  5
4B48B
  8
0
 62
7
 10
20.5827
 20
40.0733
 30
0
 70
32
  0
VERTEX
  5
4B48C
  8
0
 62
7
 10
20.5822
 20
40.0733
 30
0
 70
32
  0
VERTEX
  5
4B48D
  8
0
 62
7
 10
20.5817
 20
40.0733
 30
0
 70
32
  0
VERTEX
  5
4B48E
  8
0
 62
7
 10
20.5811
 20
40.0733
 30
0
 70
32
  0
VERTEX
  5
4B48F
  8
0
 62
7
 10
20.5806
 20
40.0733
 30
0
 70
32
  0
VERTEX
  5
4B490
  8
0
 62
7
 10
20.5801
 20
40.0733
 30
0
 70
32
  0
VERTEX
  5
4B491
  8
0
 62
7
 10
20.5795
 20
40.0733
 30
0
 70
32
  0
VERTEX
  5
4B492
  8
0
 62
7
 10
20.579
 20
40.0733
 30
0
 70
32
  0
VERTEX
  5
4B493
  8
0
 62
7
 10
20.5784
 20
40.0733
 30
0
 70
32
  0
VERTEX
  5
4B494
  8
0
 62
7
 10
20.5778
 20
40.0733
 30
0
 70
32
  0
VERTEX
  5
4B495
  8
0
 62
7
 10
20.5773
 20
40.0733
 30
0
 70
32
  0
VERTEX
  5
4B496
  8
0
 62
7
 10
20.5767
 20
40.0733
 30
0
 70
32
  0
VERTEX
  5
4B497
  8
0
 62
7
 10
20.5761
 20
40.0733
 30
0
 70
32
  0
VERTEX
  5
4B498
  8
0
 62
7
 10
20.5755
 20
40.0733
 30
0
 70
32
  0
VERTEX
  5
4B499
  8
0
 62
7
 10
20.5749
 20
40.0733
 30
0
 70
32
  0
VERTEX
  5
4B49A
  8
0
 62
7
 10
20.5743
 20
40.0733
 30
0
 70
32
  0
VERTEX
  5
4B49B
  8
0
 62
7
 10
20.5737
 20
40.0733
 30
0
 70
32
  0
VERTEX
  5
4B49C
  8
0
 62
7
 10
20.5731
 20
40.0733
 30
0
 70
32
  0
VERTEX
  5
4B49D
  8
0
 62
7
 10
20.5725
 20
40.0733
 30
0
 70
32
  0
VERTEX
  5
4B49E
  8
0
 62
7
 10
20.5719
 20
40.0733
 30
0
 70
32
  0
VERTEX
  5
4B49F
  8
0
 62
7
 10
20.5713
 20
40.0733
 30
0
 70
32
  0
VERTEX
  5
4B4A0
  8
0
 62
7
 10
20.5707
 20
40.0733
 30
0
 70
32
  0
VERTEX
  5
4B4A1
  8
0
 62
7
 10
20.57
 20
40.0733
 30
0
 70
32
  0
VERTEX
  5
4B4A2
  8
0
 62
7
 10
20.5694
 20
40.0733
 30
0
 70
32
  0
VERTEX
  5
4B4A3
  8
0
 62
7
 10
20.5688
 20
40.0733
 30
0
 70
32
  0
VERTEX
  5
4B4A4
  8
0
 62
7
 10
20.5682
 20
40.0733
 30
0
 70
32
  0
VERTEX
  5
4B4A5
  8
0
 62
7
 10
20.5676
 20
40.0733
 30
0
 70
32
  0
VERTEX
  5
4B4A6
  8
0
 62
7
 10
20.567
 20
40.0733
 30
0
 70
32
  0
VERTEX
  5
4B4A7
  8
0
 62
7
 10
20.5663
 20
40.0733
 30
0
 70
32
  0
VERTEX
  5
4B4A8
  8
0
 62
7
 10
20.5657
 20
40.0733
 30
0
 70
32
  0
VERTEX
  5
4B4A9
  8
0
 62
7
 10
20.5651
 20
40.0733
 30
0
 70
32
  0
VERTEX
  5
4B4AA
  8
0
 62
7
 10
20.5645
 20
40.0733
 30
0
 70
32
  0
VERTEX
  5
4B4AB
  8
0
 62
7
 10
20.5639
 20
40.0733
 30
0
 70
32
  0
VERTEX
  5
4B4AC
  8
0
 62
7
 10
20.5633
 20
40.0733
 30
0
 70
32
  0
VERTEX
  5
4B4AD
  8
0
 62
7
 10
20.5627
 20
40.0733
 30
0
 70
32
  0
VERTEX
  5
4B4AE
  8
0
 62
7
 10
20.5621
 20
40.0733
 30
0
 70
32
  0
VERTEX
  5
4B4AF
  8
0
 62
7
 10
20.5616
 20
40.0733
 30
0
 70
32
  0
VERTEX
  5
4B4B0
  8
0
 62
7
 10
20.561
 20
40.0733
 30
0
 70
32
  0
VERTEX
  5
4B4B1
  8
0
 62
7
 10
20.5604
 20
40.0733
 30
0
 70
32
  0
VERTEX
  5
4B4B2
  8
0
 62
7
 10
20.5598
 20
40.0733
 30
0
 70
32
  0
VERTEX
  5
4B4B3
  8
0
 62
7
 10
20.5593
 20
40.0733
 30
0
 70
32
  0
VERTEX
  5
4B4B4
  8
0
 62
7
 10
20.5587
 20
40.0733
 30
0
 70
32
  0
VERTEX
  5
4B4B5
  8
0
 62
7
 10
20.5582
 20
40.0733
 30
0
 70
32
  0
VERTEX
  5
4B4B6
  8
0
 62
7
 10
20.5577
 20
40.0733
 30
0
 70
32
  0
VERTEX
  5
4B4B7
  8
0
 62
7
 10
20.5571
 20
40.0733
 30
0
 70
32
  0
VERTEX
  5
4B4B8
  8
0
 62
7
 10
20.5566
 20
40.0733
 30
0
 70
32
  0
VERTEX
  5
4B4B9
  8
0
 62
7
 10
20.5561
 20
40.0733
 30
0
 70
32
  0
VERTEX
  5
4B4BA
  8
0
 62
7
 10
20.5556
 20
40.0733
 30
0
 70
32
  0
VERTEX
  5
4B4BB
  8
0
 62
7
 10
20.5552
 20
40.0733
 30
0
 70
32
  0
VERTEX
  5
4B4BC
  8
0
 62
7
 10
20.5547
 20
40.0733
 30
0
 70
32
  0
VERTEX
  5
4B4BD
  8
0
 62
7
 10
20.5542
 20
40.0733
 30
0
 70
32
  0
VERTEX
  5
4B4BE
  8
0
 62
7
 10
20.5538
 20
40.0733
 30
0
 70
32
  0
VERTEX
  5
4B4BF
  8
0
 62
7
 10
20.5533
 20
40.0733
 30
0
 70
32
  0
VERTEX
  5
4B4C0
  8
0
 62
7
 10
20.5529
 20
40.0733
 30
0
 70
32
  0
VERTEX
  5
4B4C1
  8
0
 62
7
 10
20.5525
 20
40.0733
 30
0
 70
32
  0
VERTEX
  5
4B4C2
  8
0
 62
7
 10
20.5521
 20
40.0733
 30
0
 70
32
  0
VERTEX
  5
4B4C3
  8
0
 62
7
 10
20.5518
 20
40.0733
 30
0
 70
32
  0
VERTEX
  5
4B4C4
  8
0
 62
7
 10
20.5514
 20
40.0733
 30
0
 70
32
  0
VERTEX
  5
4B4C5
  8
0
 62
7
 10
20.551
 20
40.0733
 30
0
 70
32
  0
VERTEX
  5
4B4C6
  8
0
 62
7
 10
20.5507
 20
40.0733
 30
0
 70
32
  0
VERTEX
  5
4B4C7
  8
0
 62
7
 10
20.5504
 20
40.0733
 30
0
 70
32
  0
VERTEX
  5
4B4C8
  8
0
 62
7
 10
20.5501
 20
40.0733
 30
0
 70
32
  0
VERTEX
  5
4B4C9
  8
0
 62
7
 10
20.5498
 20
40.0733
 30
0
 70
32
  0
VERTEX
  5
4B4CA
  8
0
 62
7
 10
20.5496
 20
40.0733
 30
0
 70
32
  0
VERTEX
  5
4B4CB
  8
0
 62
7
 10
20.5493
 20
40.0733
 30
0
 70
32
  0
VERTEX
  5
4B4CC
  8
0
 62
7
 10
20.5491
 20
40.0733
 30
0
 70
32
  0
VERTEX
  5
4B4CD
  8
0
 62
7
 10
20.5489
 20
40.0733
 30
0
 70
32
  0
VERTEX
  5
4B4CE
  8
0
 62
7
 10
20.5487
 20
40.0733
 30
0
 70
32
  0
VERTEX
  5
4B4CF
  8
0
 62
7
 10
20.5485
 20
40.0733
 30
0
 70
32
  0
VERTEX
  5
4B4D0
  8
0
 62
7
 10
20.5484
 20
40.0733
 30
0
 70
32
  0
VERTEX
  5
4B4D1
  8
0
 62
7
 10
20.5483
 20
40.0733
 30
0
 70
32
  0
VERTEX
  5
4B4D2
  8
0
 62
7
 10
20.5482
 20
40.0733
 30
0
 70
32
  0
VERTEX
  5
4B4D3
  8
0
 62
7
 10
20.5481
 20
40.0733
 30
0
 70
32
  0
VERTEX
  5
4B4D4
  8
0
 62
7
 10
20.548
 20
40.0733
 30
0
 70
32
  0
VERTEX
  5
4B4D5
  8
0
 62
7
 10
20.548
 20
40.0733
 30
0
 70
32
  0
VERTEX
  5
4B4D6
  8
0
 62
7
 10
20.548
 20
40.0733
 30
0
 70
32
  0
SEQEND
  5
4B4D7
  8
0
  0
INSERT
  5
59D9D
  8
0
  2
SPEC_BLOCK
 10
125.7105738374499
 20
7.8750023616987868
 30
0
 41
1
 42
1
 43
1
 50
0
  0
ENDSEC
999
Created By CadLib version 4.0.36.7
999
CadLib website: www.woutware.com
  0
EOF
