  0
SECTION
  2
HEADER
  9
$ACADVER
  1
AC1015
  9
$ACADMAINTVER
 70
6
  9
$DWGCODEPAGE
  3
ANSI_932
  9
$INSBASE
 10
0.0
 20
0.0
 30
0.0
  9
$EXTMIN
 10
0.0
 20
0.0
 30
0.0
  9
$EXTMAX
 10
0.0
 20
0.0
 30
0.0
  9
$LIMMIN
 10
0.0
 20
0.0
  9
$LIMMAX
 10
12.0
 20
9.0
  9
$ORTHOMODE
 70
0
  9
$REGENMODE
 70
1
  9
$FILLMODE
 70
1
  9
$QTEXTMODE
 70
0
  9
$MIRRTEXT
 70
1
  9
$LTSCALE
 40
1.0
  9
$ATTMODE
 70
1
  9
$TEXTSIZE
 40
0.2
  9
$TRACEWID
 40
1.0
  9
$TEXTSTYLE
  7
STANDARD
  9
$CLAYER
  8
__
  9
$CELTYPE
  6
ByLayer
  9
$CECOLOR
 62
256
  9
$CELTSCALE
 40
1.0
  9
$DISPSILH
 70
0
  9
$DIMSCALE
 40
1.0
  9
$DIMASZ
 40
0.18
  9
$DIMEXO
 40
0.0625
  9
$DIMDLI
 40
0.38
  9
$DIMRND
 40
0.0
  9
$DIMDLE
 40
0.0
  9
$DIMEXE
 40
0.18
  9
$DIMTP
 40
0.0
  9
$DIMTM
 40
0.0
  9
$DIMTXT
 40
0.18
  9
$DIMCEN
 40
0.09
  9
$DIMTSZ
 40
0.0
  9
$DIMTOL
 70
0
  9
$DIMLIM
 70
0
  9
$DIMTIH
 70
1
  9
$DIMTOH
 70
1
  9
$DIMSE1
 70
0
  9
$DIMSE2
 70
0
  9
$DIMTAD
 70
0
  9
$DIMZIN
 70
0
  9
$DIMBLK
  1

  9
$DIMASO
 70
1
  9
$DIMSHO
 70
1
  9
$DIMPOST
  1

  9
$DIMAPOST
  1

  9
$DIMALT
 70
0
  9
$DIMALTD
 70
2
  9
$DIMALTF
 40
25.4
  9
$DIMLFAC
 40
1.0
  9
$DIMTOFL
 70
0
  9
$DIMTVP
 40
0.0
  9
$DIMTIX
 70
0
  9
$DIMSOXD
 70
0
  9
$DIMSAH
 70
0
  9
$DIMBLK1
  1

  9
$DIMBLK2
  1

  9
$DIMSTYLE
  2
STANDARD
  9
$DIMCLRD
 70
0
  9
$DIMCLRE
 70
0
  9
$DIMCLRT
 70
0
  9
$DIMTFAC
 40
1.0
  9
$DIMGAP
 40
0.09
  9
$DIMJUST
 70
0
  9
$DIMSD1
 70
0
  9
$DIMSD2
 70
0
  9
$DIMTOLJ
 70
1
  9
$DIMTZIN
 70
0
  9
$DIMALTZ
 70
0
  9
$DIMALTTZ
 70
0
  9
$DIMUPT
 70
0
  9
$DIMDEC
 70
4
  9
$DIMTDEC
 70
4
  9
$DIMALTU
 70
2
  9
$DIMALTTD
 70
2
  9
$DIMTXSTY
  7
STANDARD
  9
$DIMAUNIT
 70
0
  9
$DIMADEC
 70
0
  9
$DIMALTRND
 40
0.0
  9
$DIMAZIN
 70
0
  9
$DIMDSEP
 70
46
  9
$DIMATFIT
 70
3
  9
$DIMFRAC
 70
0
  9
$DIMLDRBLK
  1

  9
$DIMLUNIT
 70
2
  9
$DIMLWD
 70
-2
  9
$DIMLWE
 70
-2
  9
$DIMTMOVE
 70
0
  9
$LUNITS
 70
2
  9
$LUPREC
 70
2
  9
$SKETCHINC
 40
0.1
  9
$FILLETRAD
 40
0.5
  9
$AUNITS
 70
0
  9
$AUPREC
 70
2
  9
$MENU
  1
.
  9
$ELEVATION
 40
0.0
  9
$PELEVATION
 40
0.0
  9
$THICKNESS
 40
0.0
  9
$LIMCHECK
 70
0
  9
$CHAMFERA
 40
0.0
  9
$CHAMFERB
 40
0.0
  9
$CHAMFERC
 40
0.0
  9
$CHAMFERD
 40
0.0
  9
$SKPOLY
 70
0
  9
$TDCREATE
 40
2459829.5247800928
  9
$TDUCREATE
 40
2459044.413842593
  9
$TDUPDATE
 40
2459829.5247800928
  9
$TDUUPDATE
 40
2459045.001064815
  9
$TDINDWG
 40
0.001006956
  9
$TDUSRTIMER
 40
0.0009953819
  9
$USRTIMER
 70
1
  9
$ANGBASE
 50
0.0
  9
$ANGDIR
 70
0
  9
$PDMODE
 70
1
  9
$PDSIZE
 40
-2.0
  9
$PLINEWID
 40
0.0
  9
$SPLFRAME
 70
0
  9
$SPLINETYPE
 70
6
  9
$SPLINESEGS
 70
8
  9
$HANDSEED
  5
116D
  9
$SURFTAB1
 70
6
  9
$SURFTAB2
 70
6
  9
$SURFTYPE
 70
6
  9
$SURFU
 70
6
  9
$SURFV
 70
6
  9
$UCSBASE
  2

  9
$UCSNAME
  2

  9
$UCSORG
 10
0.0
 20
0.0
 30
0.0
  9
$UCSXDIR
 10
1.0
 20
0.0
 30
0.0
  9
$UCSYDIR
 10
0.0
 20
1.0
 30
0.0
  9
$UCSORTHOREF
  2

  9
$UCSORTHOVIEW
 70
0
  9
$UCSORGTOP
 10
0.0
 20
0.0
 30
0.0
  9
$UCSORGBOTTOM
 10
0.0
 20
0.0
 30
0.0
  9
$UCSORGLEFT
 10
0.0
 20
0.0
 30
0.0
  9
$UCSORGRIGHT
 10
0.0
 20
0.0
 30
0.0
  9
$UCSORGFRONT
 10
0.0
 20
0.0
 30
0.0
  9
$UCSORGBACK
 10
0.0
 20
0.0
 30
0.0
  9
$PUCSBASE
  2

  9
$PUCSNAME
  2

  9
$PUCSORG
 10
0.0
 20
0.0
 30
0.0
  9
$PUCSXDIR
 10
1.0
 20
0.0
 30
0.0
  9
$PUCSYDIR
 10
0.0
 20
1.0
 30
0.0
  9
$PUCSORTHOREF
  2

  9
$PUCSORTHOVIEW
 70
0
  9
$PUCSORGTOP
 10
0.0
 20
0.0
 30
0.0
  9
$PUCSORGBOTTOM
 10
0.0
 20
0.0
 30
0.0
  9
$PUCSORGLEFT
 10
0.0
 20
0.0
 30
0.0
  9
$PUCSORGRIGHT
 10
0.0
 20
0.0
 30
0.0
  9
$PUCSORGFRONT
 10
0.0
 20
0.0
 30
0.0
  9
$PUCSORGBACK
 10
0.0
 20
0.0
 30
0.0
  9
$USERI1
 70
0
  9
$USERI2
 70
0
  9
$USERI3
 70
0
  9
$USERI4
 70
0
  9
$USERI5
 70
0
  9
$USERR1
 40
0.0
  9
$USERR2
 40
0.0
  9
$USERR3
 40
0.0
  9
$USERR4
 40
0.0
  9
$USERR5
 40
0.0
  9
$WORLDVIEW
 70
1
  9
$SHADEDGE
 70
3
  9
$SHADEDIF
 70
70
  9
$TILEMODE
 70
1
  9
$MAXACTVP
 70
64
  9
$PINSBASE
 10
0.0
 20
0.0
 30
0.0
  9
$PLIMCHECK
 70
0
  9
$PEXTMIN
 10
1e+20
 20
1e+20
 30
1e+20
  9
$PEXTMAX
 10
-1e+20
 20
-1e+20
 30
-1e+20
  9
$PLIMMIN
 10
-20.0
 20
-7.5
  9
$PLIMMAX
 10
277.0
 20
202.5
  9
$UNITMODE
 70
0
  9
$VISRETAIN
 70
1
  9
$PLINEGEN
 70
0
  9
$PSLTSCALE
 70
1
  9
$TREEDEPTH
 70
3020
  9
$CMLSTYLE
  2
Standard
  9
$CMLJUST
 70
0
  9
$CMLSCALE
 40
1.0
  9
$PROXYGRAPHICS
 70
1
  9
$MEASUREMENT
 70
0
  9
$CELWEIGHT
370
-1
  9
$ENDCAPS
280
0
  9
$JOINSTYLE
280
0
  9
$LWDISPLAY
290
0
  9
$INSUNITS
 70
0
  9
$HYPERLINKBASE
  1

  9
$STYLESHEET
  1

  9
$XEDIT
290
1
  9
$CEPSNTYPE
380
0
  9
$PSTYLEMODE
290
1
  9
$FINGERPRINTGUID
  2
{504C8331-2B93-47EC-A389-7153418B61F3}
  9
$VERSIONGUID
  2
{672EE313-A3EF-4380-BD4B-DB5DA0B32EC1}
  9
$EXTNAMES
290
1
  9
$PSVPSCALE
 40
0.0
  9
$OLESTARTUP
290
0
  0
ENDSEC
  0
SECTION
  2
CLASSES
  0
CLASS
  1
ACDBDICTIONARYWDFLT
  2
AcDbDictionaryWithDefault
  3
ObjectDBX Classes
 90
0
280
0
281
0
  0
CLASS
  1
MATERIAL
  2
AcDbMaterial
  3
ObjectDBX Classes
 90
1153
280
0
281
0
  0
CLASS
  1
VISUALSTYLE
  2
AcDbVisualStyle
  3
ObjectDBX Classes
 90
4095
280
0
281
0
  0
CLASS
  1
SCALE
  2
AcDbScale
  3
ObjectDBX Classes
 90
1153
280
0
281
0
  0
CLASS
  1
TABLESTYLE
  2
AcDbTableStyle
  3
ObjectDBX Classes
 90
4095
280
0
281
0
  0
CLASS
  1
MLEADERSTYLE
  2
AcDbMLeaderStyle
  3
ACDB_MLEADERSTYLE_CLASS
 90
4095
280
0
281
0
  0
CLASS
  1
ACDBSECTIONVIEWSTYLE
  2
AcDbSectionViewStyle
  3
ObjectDBX Classes
 90
1025
280
0
281
0
  0
CLASS
  1
ACDBDETAILVIEWSTYLE
  2
AcDbDetailViewStyle
  3
ObjectDBX Classes
 90
1025
280
0
281
0
  0
CLASS
  1
DICTIONARYVAR
  2
AcDbDictionaryVar
  3
ObjectDBX Classes
 90
0
280
0
281
0
  0
CLASS
  1
CELLSTYLEMAP
  2
AcDbCellStyleMap
  3
ObjectDBX Classes
 90
1152
280
0
281
0
  0
CLASS
  1
ACDBPLACEHOLDER
  2
AcDbPlaceHolder
  3
ObjectDBX Classes
 90
0
280
0
281
0
  0
CLASS
  1
LAYOUT
  2
AcDbLayout
  3
ObjectDBX Classes
 90
0
280
0
281
0
  0
CLASS
  1
SUN
  2
AcDbSun
  3
SCENEOE
 90
1153
280
0
281
0
  0
CLASS
  1
MENTALRAYRENDERSETTINGS
  2
AcDbMentalRayRenderSettings
  3
SCENEOE
 90
1024
280
0
281
0
  0
CLASS
  1
RASTERVARIABLES
  2
AcDbRasterVariables
  3
ISM
 90
0
280
0
281
0
  0
ENDSEC
  0
SECTION
  2
TABLES
  0
TABLE
  2
VPORT
  5
9CE
330
0
100
AcDbSymbolTable
 70
1
  0
VPORT
  5
A3A
330
9CE
100
AcDbSymbolTableRecord
100
AcDbViewportTableRecord
  2
*ACTIVE
 70
0
 10
0.0
 20
0.0
 11
1.0
 21
1.0
 12
50.22649720630994
 22
14.7479721186084
 13
0.0
 23
0.0
 14
0.5
 24
0.5
 15
0.5
 25
0.5
 16
0.0
 26
0.0
 36
1.0
 17
0.0
 27
0.0
 37
0.0
 40
167.9470367482983
 41
2.193641618497109
 42
50.0
 43
0.0
 44
0.0
 50
0.0
 51
0.0
 71
0
 72
1000
 73
1
 74
3
 75
0
 76
0
 77
0
 78
0
281
0
 65
1
110
0.0
120
0.0
130
0.0
111
1.0
121
0.0
131
0.0
112
0.0
122
1.0
132
0.0
 79
0
146
0.0
1001
ACAD_NAV_VCDISPLAY
1070
3
  0
ENDTAB
  0
TABLE
  2
LTYPE
  5
9CB
330
0
100
AcDbSymbolTable
 70
3
  0
LTYPE
  5
A3B
330
9CB
100
AcDbSymbolTableRecord
100
AcDbLinetypeTableRecord
  2
BYBLOCK
 70
0
  3

 72
65
 73
0
 40
0.0
  0
LTYPE
  5
A3C
330
9CB
100
AcDbSymbolTableRecord
100
AcDbLinetypeTableRecord
  2
BYLAYER
 70
0
  3

 72
65
 73
0
 40
0.0
  0
LTYPE
  5
A22
330
9CB
100
AcDbSymbolTableRecord
100
AcDbLinetypeTableRecord
  2
CONTINUOUS
 70
0
  3
Solid line
 72
65
 73
0
 40
0.0
  0
ENDTAB
  0
TABLE
  2
LAYER
  5
9C8
330
0
100
AcDbSymbolTable
 70
4
  0
LAYER
  5
A1A
102
{ACAD_XDICTIONARY
360
A49
102
}
330
9C8
100
AcDbSymbolTableRecord
100
AcDbLayerTableRecord
  2
0
 70
0
 62
7
  6
CONTINUOUS
370
-3
390
9D5
  0
LAYER
  5
A39
102
{ACAD_XDICTIONARY
360
A4B
102
}
330
9C8
100
AcDbSymbolTableRecord
100
AcDbLayerTableRecord
  2
__
 70
0
 62
7
  6
CONTINUOUS
370
-3
390
9D5
  0
LAYER
  5
A3D
102
{ACAD_XDICTIONARY
360
A4D
102
}
330
9C8
100
AcDbSymbolTableRecord
100
AcDbLayerTableRecord
  2
_____1
 70
0
 62
7
  6
CONTINUOUS
370
-3
390
9D5
  0
LAYER
  5
A3E
330
9C8
100
AcDbSymbolTableRecord
100
AcDbLayerTableRecord
  2
DEFPOINTS
 70
0
 62
7
  6
CONTINUOUS
290
0
370
-3
390
9D5
  0
ENDTAB
  0
TABLE
  2
STYLE
  5
9C9
330
0
100
AcDbSymbolTable
 70
2
  0
STYLE
  5
A1B
330
9C9
100
AcDbSymbolTableRecord
100
AcDbTextStyleTableRecord
  2
STANDARD
 70
0
 40
0.0
 41
1.0
 50
0.0
 71
0
 42
0.2
  3
txt
  4
BIGFONT.SHX
  0
STYLE
  5
A1F
330
9C9
100
AcDbSymbolTableRecord
100
AcDbTextStyleTableRecord
  2
Annotative
 70
0
 40
0.0
 41
1.0
 50
0.0
 71
0
 42
0.2
  3
txt
  4

1001
AcadAnnotative
1000
AnnotativeData
1002
{
1070
1
1070
1
1002
}
  0
ENDTAB
  0
TABLE
  2
VIEW
  5
9CC
330
0
100
AcDbSymbolTable
 70
0
  0
ENDTAB
  0
TABLE
  2
UCS
  5
9CD
330
0
100
AcDbSymbolTable
 70
0
  0
ENDTAB
  0
TABLE
  2
APPID
  5
9CF
330
0
100
AcDbSymbolTable
 70
8
  0
APPID
  5
A1C
330
9CF
100
AcDbSymbolTableRecord
100
AcDbRegAppTableRecord
  2
ACAD
 70
0
  0
APPID
  5
A23
330
9CF
100
AcDbSymbolTableRecord
100
AcDbRegAppTableRecord
  2
AcadAnnotative
 70
0
  0
APPID
  5
A3F
330
9CF
100
AcDbSymbolTableRecord
100
AcDbRegAppTableRecord
  2
ACCMTRANSPARENCY
 70
0
  0
APPID
  5
A40
330
9CF
100
AcDbSymbolTableRecord
100
AcDbRegAppTableRecord
  2
ACAECLAYERSTANDARD
 70
0
  0
APPID
  5
A59
330
9CF
100
AcDbSymbolTableRecord
100
AcDbRegAppTableRecord
  2
ACAD_NAV_VCDISPLAY
 70
0
  0
APPID
  5
A94
330
9CF
100
AcDbSymbolTableRecord
100
AcDbRegAppTableRecord
  2
ACAD_MLEADERVER
 70
0
  0
APPID
  5
1169
330
9CF
100
AcDbSymbolTableRecord
100
AcDbRegAppTableRecord
  2
HATCHBACKGROUNDCOLOR
 70
0
  0
APPID
  5
116A
330
9CF
100
AcDbSymbolTableRecord
100
AcDbRegAppTableRecord
  2
EZDXF
 70
0
  0
ENDTAB
  0
TABLE
  2
DIMSTYLE
  5
9D0
330
0
100
AcDbSymbolTable
 70
2
100
AcDbDimStyleTable
  0
DIMSTYLE
105
A1D
330
9D0
100
AcDbSymbolTableRecord
100
AcDbDimStyleTableRecord
  2
STANDARD
 70
0
  3

  4

 40
1.0
 41
2.5
 42
0.625
 43
3.75
 44
1.25
 45
0.0
 46
0.0
 47
0.0
 48
0.0
140
2.5
141
2.5
142
0.0
143
0.03937007874
144
1.0
145
0.0
146
1.0
147
0.625
148
0.0
 71
0
 72
0
 73
0
 74
0
 75
0
 76
0
 77
1
 78
8
 79
0
170
0
171
3
172
1
173
0
174
0
175
0
176
0
177
0
178
0
179
0
271
2
272
2
273
2
274
3
275
0
276
0
277
2
278
44
279
2
280
0
281
0
282
0
283
0
284
8
285
0
286
0
288
0
289
3
371
-2
372
-2
  0
DIMSTYLE
105
A1E
330
9D0
100
AcDbSymbolTableRecord
100
AcDbDimStyleTableRecord
  2
Annotative
 70
0
  3

  4

 40
1.0
 41
2.5
 42
0.625
 43
3.75
 44
1.25
 45
0.0
 46
0.0
 47
0.0
 48
0.0
140
2.5
141
2.5
142
0.0
143
0.03937007874
144
1.0
145
0.0
146
1.0
147
0.625
148
0.0
 71
0
 72
0
 73
0
 74
0
 75
0
 76
0
 77
1
 78
8
 79
0
170
0
171
3
172
1
173
0
174
0
175
0
176
0
177
0
178
0
179
0
271
0
272
2
273
2
274
3
275
0
276
0
277
2
278
44
279
0
280
0
281
0
282
0
283
0
284
8
285
0
286
0
288
0
289
3
371
-2
372
-2
1001
AcadAnnotative
1000
AnnotativeData
1002
{
1070
1
1070
1
1002
}
  0
ENDTAB
  0
TABLE
  2
BLOCK_RECORD
  5
9C7
330
0
100
AcDbSymbolTable
 70
4
  0
BLOCK_RECORD
  5
A35
330
9C7
100
AcDbSymbolTableRecord
100
AcDbBlockTableRecord
  2
*Model_Space
340
A38
  0
BLOCK_RECORD
  5
A31
330
9C7
100
AcDbSymbolTableRecord
100
AcDbBlockTableRecord
  2
*Paper_Space
340
A34
  0
BLOCK_RECORD
  5
A43
330
9C7
100
AcDbSymbolTableRecord
100
AcDbBlockTableRecord
  2
$MODEL_SPACE
340
0
  0
BLOCK_RECORD
  5
A44
330
9C7
100
AcDbSymbolTableRecord
100
AcDbBlockTableRecord
  2
$PAPER_SPACE
340
0
  0
ENDTAB
  0
ENDSEC
  0
SECTION
  2
BLOCKS
  0
BLOCK
  5
A36
330
A35
100
AcDbEntity
  8
0
100
AcDbBlockBegin
  2
*Model_Space
 70
0
 10
0.0
 20
0.0
 30
0.0
  3
*Model_Space
  1

  0
ENDBLK
  5
A37
330
A35
100
AcDbEntity
  8
0
100
AcDbBlockEnd
  0
BLOCK
  5
A32
330
A31
100
AcDbEntity
 67
1
  8
0
100
AcDbBlockBegin
  2
*Paper_Space
 70
0
 10
0.0
 20
0.0
 30
0.0
  3
*Paper_Space
  1

  0
ENDBLK
  5
A33
330
A31
100
AcDbEntity
 67
1
  8
0
100
AcDbBlockEnd
  0
BLOCK
  5
470
330
A43
100
AcDbEntity
  8
0
100
AcDbBlockBegin
  2
$MODEL_SPACE
 70
0
 10
0.0
 20
0.0
 30
0.0
  3
$MODEL_SPACE
  1

  0
ENDBLK
  5
21
330
A43
100
AcDbEntity
  8
0
100
AcDbBlockEnd
  0
BLOCK
  5
471
330
A44
100
AcDbEntity
  8
0
100
AcDbBlockBegin
  2
$PAPER_SPACE
 70
0
 10
0.0
 20
0.0
 30
0.0
  3
$PAPER_SPACE
  1

  0
ENDBLK
  5
1D
330
A44
100
AcDbEntity
  8
0
100
AcDbBlockEnd
  0
ENDSEC
  0
SECTION
  2
ENTITIES
  0
LINE
  5
A9D
330
A35
100
AcDbEntity
  8
0
100
AcDbLine
 10
1.964
 20
78.457
 30
0.0
 11
1.964
 21
78.514
 31
0.0
  0
LINE
  5
A9E
330
A35
100
AcDbEntity
  8
0
100
AcDbLine
 10
2.132
 20
78.85
 30
0.0
 11
2.132
 21
78.625
 31
0.0
  0
LINE
  5
A9F
330
A35
100
AcDbEntity
  8
0
100
AcDbLine
 10
2.132
 20
78.514
 30
0.0
 11
2.132
 21
78.568
 31
0.0
  0
LINE
  5
AA0
330
A35
100
AcDbEntity
  8
0
100
AcDbLine
 10
2.189
 20
79.018
 30
0.0
 11
2.189
 21
80.365
 31
0.0
  0
LINE
  5
AA1
330
A35
100
AcDbEntity
  8
0
100
AcDbLine
 10
2.3
 20
78.457
 30
0.0
 11
2.3
 21
78.514
 31
0.0
  0
LINE
  5
AA2
330
A35
100
AcDbEntity
  8
0
100
AcDbLine
 10
5.781
 20
79.804
 30
0.0
 11
5.781
 21
79.86
 31
0.0
  0
LINE
  5
AA3
330
A35
100
AcDbEntity
  8
0
100
AcDbLine
 10
5.443
 20
81.488
 30
0.0
 11
5.443
 21
80.142
 31
0.0
  0
LINE
  5
AA4
330
A35
100
AcDbEntity
  8
0
100
AcDbLine
 10
7.577
 20
79.018
 30
0.0
 11
7.577
 21
79.074
 31
0.0
  0
LINE
  5
AA5
330
A35
100
AcDbEntity
  8
0
100
AcDbLine
 10
5.5
 20
81.543
 30
0.0
 11
5.5
 21
81.488
 31
0.0
  0
LINE
  5
AA6
330
A35
100
AcDbEntity
  8
0
100
AcDbLine
 10
5.5
 20
81.431
 30
0.0
 11
5.5
 21
80.142
 31
0.0
  0
LINE
  5
AA7
330
A35
100
AcDbEntity
  8
0
100
AcDbLine
 10
5.5
 20
79.749
 30
0.0
 11
5.5
 21
79.804
 31
0.0
  0
LINE
  5
AA8
330
A35
100
AcDbEntity
  8
0
100
AcDbLine
 10
5.5
 20
79.804
 30
0.0
 11
5.5
 21
80.028
 31
0.0
  0
LINE
  5
AA9
330
A35
100
AcDbEntity
  8
0
100
AcDbLine
 10
5.557
 20
79.749
 30
0.0
 11
5.557
 21
79.804
 31
0.0
  0
LINE
  5
AAA
330
A35
100
AcDbEntity
  8
0
100
AcDbLine
 10
5.557
 20
79.636
 30
0.0
 11
5.557
 21
79.692
 31
0.0
  0
LINE
  5
AAB
330
A35
100
AcDbEntity
  8
0
100
AcDbLine
 10
5.557
 20
79.804
 30
0.0
 11
5.557
 21
80.028
 31
0.0
  0
LINE
  5
AAC
330
A35
100
AcDbEntity
  8
0
100
AcDbLine
 10
5.781
 20
79.804
 30
0.0
 11
5.781
 21
79.86
 31
0.0
  0
LINE
  5
AAD
330
A35
100
AcDbEntity
  8
0
100
AcDbLine
 10
5.443
 20
81.488
 30
0.0
 11
2.189
 21
80.365
 31
0.0
  0
LINE
  5
AAE
330
A35
100
AcDbEntity
  8
0
100
AcDbLine
 10
5.5
 20
81.488
 30
0.0
 11
5.557
 21
81.488
 31
0.0
  0
LINE
  5
AAF
330
A35
100
AcDbEntity
  8
0
100
AcDbLine
 10
2.189
 20
78.625
 30
0.0
 11
5.5
 21
79.804
 31
0.0
  0
LINE
  5
AB0
330
A35
100
AcDbEntity
  8
0
100
AcDbLine
 10
5.5
 20
79.804
 30
0.0
 11
5.557
 21
79.804
 31
0.0
  0
LINE
  5
AB1
330
A35
100
AcDbEntity
  8
0
100
AcDbLine
 10
2.189
 20
78.568
 30
0.0
 11
5.5
 21
79.749
 31
0.0
  0
LINE
  5
AB2
330
A35
100
AcDbEntity
  8
0
100
AcDbLine
 10
5.557
 20
79.692
 30
0.0
 11
2.3
 21
78.514
 31
0.0
  0
LINE
  5
AB3
330
A35
100
AcDbEntity
  8
0
100
AcDbLine
 10
5.668
 20
79.692
 30
0.0
 11
5.557
 21
79.636
 31
0.0
  0
LINE
  5
AB4
330
A35
100
AcDbEntity
  8
0
100
AcDbLine
 10
2.3
 20
78.457
 30
0.0
 11
2.132
 21
78.457
 31
0.0
  0
LINE
  5
AB5
330
A35
100
AcDbEntity
  8
0
100
AcDbLine
 10
10.384
 20
78.85
 30
0.0
 11
10.384
 21
78.906
 31
0.0
  0
LINE
  5
AB6
330
A35
100
AcDbEntity
  8
0
100
AcDbLine
 10
0.111
 20
76.38
 30
0.0
 11
0.111
 21
76.436
 31
0.0
  0
LINE
  5
AB7
330
A35
100
AcDbEntity
  8
0
100
AcDbLine
 10
1.964
 20
78.457
 30
0.0
 11
1.908
 21
78.457
 31
0.0
  0
LINE
  5
AB8
330
A35
100
AcDbEntity
  8
0
100
AcDbLine
 10
52.366
 20
50.057
 30
0.0
 11
0.111
 21
76.38
 31
0.0
  0
LINE
  5
AB9
330
A35
100
AcDbEntity
  8
0
100
AcDbLine
 10
0.111
 20
76.436
 30
0.0
 11
0.057
 21
76.493
 31
0.0
  0
LINE
  5
ABA
330
A35
100
AcDbEntity
  8
0
100
AcDbLine
 10
1.964
 20
78.457
 30
0.0
 11
2.132
 21
78.345
 31
0.0
  0
LINE
  5
ABB
330
A35
100
AcDbEntity
  8
0
100
AcDbLine
 10
1.964
 20
78.457
 30
0.0
 11
2.132
 21
78.345
 31
0.0
  0
LINE
  5
ABC
330
A35
100
AcDbEntity
  8
0
100
AcDbLine
 10
2.132
 20
78.514
 30
0.0
 11
2.246
 21
78.514
 31
0.0
  0
LINE
  5
ABD
330
A35
100
AcDbEntity
  8
0
100
AcDbLine
 10
5.949
 20
79.354
 30
0.0
 11
5.781
 21
79.411
 31
0.0
  0
LINE
  5
ABE
330
A35
100
AcDbEntity
  8
0
100
AcDbLine
 10
57.698
 20
53.199
 30
0.0
 11
57.866
 21
53.143
 31
0.0
  0
LINE
  5
ABF
330
A35
100
AcDbEntity
  8
0
100
AcDbLine
 10
5.949
 20
79.299
 30
0.0
 11
57.698
 21
53.199
 31
0.0
  0
LINE
  5
AC0
330
A35
100
AcDbEntity
  8
0
100
AcDbLine
 10
5.949
 20
79.354
 30
0.0
 11
57.698
 21
53.256
 31
0.0
  0
LINE
  5
AC1
330
A35
100
AcDbEntity
  8
0
100
AcDbLine
 10
5.557
 20
79.749
 30
0.0
 11
5.668
 21
79.692
 31
0.0
  0
LINE
  5
AC2
330
A35
100
AcDbEntity
  8
0
100
AcDbLine
 10
6.006
 20
79.636
 30
0.0
 11
57.698
 21
53.536
 31
0.0
  0
LINE
  5
AC3
330
A35
100
AcDbEntity
  8
0
100
AcDbLine
 10
5.781
 20
79.804
 30
0.0
 11
58.091
 21
53.481
 31
0.0
  0
LINE
  5
AC4
330
A35
100
AcDbEntity
  8
0
100
AcDbLine
 10
5.781
 20
79.804
 30
0.0
 11
58.091
 21
53.481
 31
0.0
  0
LINE
  5
AC5
330
A35
100
AcDbEntity
  8
0
100
AcDbLine
 10
7.577
 20
79.018
 30
0.0
 11
59.887
 21
52.695
 31
0.0
  0
LINE
  5
AC6
330
A35
100
AcDbEntity
  8
0
100
AcDbLine
 10
7.632
 20
79.186
 30
0.0
 11
7.689
 21
79.131
 31
0.0
  0
LINE
  5
AC7
330
A35
100
AcDbEntity
  8
0
100
AcDbLine
 10
5.949
 20
79.299
 30
0.0
 11
5.725
 21
79.354
 31
0.0
  0
LINE
  5
AC8
330
A35
100
AcDbEntity
  8
0
100
AcDbLine
 10
5.557
 20
81.488
 30
0.0
 11
57.866
 21
55.109
 31
0.0
  0
LINE
  5
AC9
330
A35
100
AcDbEntity
  8
0
100
AcDbLine
 10
57.698
 20
53.256
 30
0.0
 11
57.866
 21
53.199
 31
0.0
  0
LINE
  5
ACA
330
A35
100
AcDbEntity
  8
0
100
AcDbLine
 10
48.83
 20
53.985
 30
0.0
 11
48.887
 21
53.929
 31
0.0
  0
LINE
  5
ACB
330
A35
100
AcDbEntity
  8
0
100
AcDbLine
 10
49.166
 20
54.323
 30
0.0
 11
49.166
 21
54.267
 31
0.0
  0
LINE
  5
ACC
330
A35
100
AcDbEntity
  8
0
100
AcDbLine
 10
52.984
 20
57.409
 30
0.0
 11
53.04
 21
57.409
 31
0.0
  0
LINE
  5
ACD
330
A35
100
AcDbEntity
  8
0
100
AcDbLine
 10
52.984
 20
57.016
 30
0.0
 11
53.04
 21
57.016
 31
0.0
  0
LINE
  5
ACE
330
A35
100
AcDbEntity
  8
0
100
AcDbLine
 10
5.781
 20
79.692
 30
0.0
 11
6.006
 21
79.636
 31
0.0
  0
LINE
  5
ACF
330
A35
100
AcDbEntity
  8
0
100
AcDbLine
 10
57.698
 20
53.536
 30
0.0
 11
57.866
 21
53.424
 31
0.0
  0
LINE
  5
AD0
330
A35
100
AcDbEntity
  8
0
100
AcDbLine
 10
54.723
 20
51.628
 30
0.0
 11
54.668
 21
51.628
 31
0.0
  0
LINE
  5
AD1
330
A35
100
AcDbEntity
  8
0
100
AcDbLine
 10
54.668
 20
51.628
 30
0.0
 11
54.612
 21
51.685
 31
0.0
  0
LINE
  5
AD2
330
A35
100
AcDbEntity
  8
0
100
AcDbLine
 10
54.612
 20
51.685
 30
0.0
 11
54.555
 21
51.685
 31
0.0
  0
LINE
  5
AD3
330
A35
100
AcDbEntity
  8
0
100
AcDbLine
 10
0.168
 20
76.604
 30
0.0
 11
0.168
 21
76.549
 31
0.0
  0
LINE
  5
AD4
330
A35
100
AcDbEntity
  8
0
100
AcDbLine
 10
2.132
 20
78.175
 30
0.0
 11
2.132
 21
78.12
 31
0.0
  0
LINE
  5
AD5
330
A35
100
AcDbEntity
  8
0
100
AcDbLine
 10
1.908
 20
78.457
 30
0.0
 11
0.111
 21
76.436
 31
0.0
  0
LINE
  5
AD6
330
A35
100
AcDbEntity
  8
0
100
AcDbLine
 10
2.189
 20
80.31
 30
0.0
 11
2.189
 21
78.85
 31
0.0
  0
LINE
  5
AD7
330
A35
100
AcDbEntity
  8
0
100
AcDbLine
 10
2.3
 20
78.457
 30
0.0
 11
2.3
 21
78.514
 31
0.0
  0
LINE
  5
AD8
330
A35
100
AcDbEntity
  8
0
100
AcDbLine
 10
5.5
 20
80.142
 30
0.0
 11
5.5
 21
80.028
 31
0.0
  0
LINE
  5
AD9
330
A35
100
AcDbEntity
  8
0
100
AcDbLine
 10
5.557
 20
80.028
 30
0.0
 11
5.557
 21
81.488
 31
0.0
  0
LINE
  5
ADA
330
A35
100
AcDbEntity
  8
0
100
AcDbLine
 10
6.006
 20
80.142
 30
0.0
 11
6.006
 21
80.421
 31
0.0
  0
LINE
  5
ADB
330
A35
100
AcDbEntity
  8
0
100
AcDbLine
 10
6.229
 20
80.31
 30
0.0
 11
6.229
 21
80.028
 31
0.0
  0
LINE
  5
ADC
330
A35
100
AcDbEntity
  8
0
100
AcDbLine
 10
7.521
 20
79.186
 30
0.0
 11
7.521
 21
79.131
 31
0.0
  0
LINE
  5
ADD
330
A35
100
AcDbEntity
  8
0
100
AcDbLine
 10
10.271
 20
78.793
 30
0.0
 11
10.384
 21
78.906
 31
0.0
  0
LINE
  5
ADE
330
A35
100
AcDbEntity
  8
0
100
AcDbLine
 10
10.495
 20
78.625
 30
0.0
 11
10.384
 21
78.457
 31
0.0
  0
LINE
  5
ADF
330
A35
100
AcDbEntity
  8
0
100
AcDbLine
 10
10.495
 20
78.625
 30
0.0
 11
10.384
 21
78.457
 31
0.0
  0
LINE
  5
AE0
330
A35
100
AcDbEntity
  8
0
100
AcDbLine
 10
2.189
 20
80.365
 30
0.0
 11
2.189
 21
80.31
 31
0.0
  0
LINE
  5
AE1
330
A35
100
AcDbEntity
  8
0
100
AcDbLine
 10
0.057
 20
76.493
 30
0.0
 11
0.168
 21
76.549
 31
0.0
  0
LINE
  5
AE2
330
A35
100
AcDbEntity
  8
0
100
AcDbLine
 10
2.132
 20
78.457
 30
0.0
 11
2.132
 21
78.4
 31
0.0
  0
LINE
  5
AE3
330
A35
100
AcDbEntity
  8
0
100
AcDbLine
 10
5.557
 20
79.804
 30
0.0
 11
5.5
 21
79.804
 31
0.0
  0
LINE
  5
AE4
330
A35
100
AcDbEntity
  8
0
100
AcDbLine
 10
5.781
 20
79.86
 30
0.0
 11
5.557
 21
79.804
 31
0.0
  0
LINE
  5
AE5
330
A35
100
AcDbEntity
  8
0
100
AcDbLine
 10
2.132
 20
78.568
 30
0.0
 11
1.964
 21
78.514
 31
0.0
  0
LINE
  5
AE6
330
A35
100
AcDbEntity
  8
0
100
AcDbLine
 10
5.557
 20
79.692
 30
0.0
 11
2.3
 21
78.514
 31
0.0
  0
LINE
  5
AE7
330
A35
100
AcDbEntity
  8
0
100
AcDbLine
 10
5.725
 20
79.692
 30
0.0
 11
5.613
 21
79.692
 31
0.0
  0
LINE
  5
AE8
330
A35
100
AcDbEntity
  8
0
100
AcDbLine
 10
2.3
 20
78.514
 30
0.0
 11
2.132
 21
78.457
 31
0.0
  0
LINE
  5
AE9
330
A35
100
AcDbEntity
  8
0
100
AcDbLine
 10
10.384
 20
78.457
 30
0.0
 11
10.271
 21
78.739
 31
0.0
  0
LINE
  5
AEA
330
A35
100
AcDbEntity
  8
0
100
AcDbLine
 10
10.384
 20
78.85
 30
0.0
 11
10.495
 21
78.625
 31
0.0
  0
LINE
  5
AEB
330
A35
100
AcDbEntity
  8
0
100
AcDbLine
 10
10.384
 20
78.906
 30
0.0
 11
10.495
 21
78.625
 31
0.0
  0
LINE
  5
AEC
330
A35
100
AcDbEntity
  8
0
100
AcDbLine
 10
54.33
 20
51.741
 30
0.0
 11
54.555
 21
51.685
 31
0.0
  0
LINE
  5
AED
330
A35
100
AcDbEntity
  8
0
100
AcDbLine
 10
2.469
 20
77.896
 30
0.0
 11
2.3
 21
78.007
 31
0.0
  0
LINE
  5
AEE
330
A35
100
AcDbEntity
  8
0
100
AcDbLine
 10
2.525
 20
77.84
 30
0.0
 11
54.275
 21
51.796
 31
0.0
  0
LINE
  5
AEF
330
A35
100
AcDbEntity
  8
0
100
AcDbLine
 10
2.132
 20
78.625
 30
0.0
 11
2.189
 21
78.625
 31
0.0
  0
LINE
  5
AF0
330
A35
100
AcDbEntity
  8
0
100
AcDbLine
 10
2.132
 20
78.625
 30
0.0
 11
2.189
 21
78.625
 31
0.0
  0
LINE
  5
AF1
330
A35
100
AcDbEntity
  8
0
100
AcDbLine
 10
4.21
 20
80.085
 30
0.0
 11
4.265
 21
80.085
 31
0.0
  0
LINE
  5
AF2
330
A35
100
AcDbEntity
  8
0
100
AcDbLine
 10
4.265
 20
80.31
 30
0.0
 11
4.321
 21
80.31
 31
0.0
  0
LINE
  5
AF3
330
A35
100
AcDbEntity
  8
0
100
AcDbLine
 10
4.265
 20
80.365
 30
0.0
 11
4.321
 21
80.365
 31
0.0
  0
LINE
  5
AF4
330
A35
100
AcDbEntity
  8
0
100
AcDbLine
 10
5.5
 20
79.804
 30
0.0
 11
5.557
 21
79.804
 31
0.0
  0
LINE
  5
AF5
330
A35
100
AcDbEntity
  8
0
100
AcDbLine
 10
57.698
 20
53.592
 30
0.0
 11
6.006
 21
79.636
 31
0.0
  0
LINE
  5
AF6
330
A35
100
AcDbEntity
  8
0
100
AcDbLine
 10
7.521
 20
79.131
 30
0.0
 11
7.632
 21
79.074
 31
0.0
  0
LINE
  5
AF7
330
A35
100
AcDbEntity
  8
0
100
AcDbLine
 10
57.362
 20
54.267
 30
0.0
 11
57.137
 21
54.378
 31
0.0
  0
LINE
  5
AF8
330
A35
100
AcDbEntity
  8
0
100
AcDbLine
 10
6.229
 20
80.028
 30
0.0
 11
6.006
 21
80.142
 31
0.0
  0
LINE
  5
AF9
330
A35
100
AcDbEntity
  8
0
100
AcDbLine
 10
6.006
 20
80.421
 30
0.0
 11
6.229
 21
80.31
 31
0.0
  0
LINE
  5
AFA
330
A35
100
AcDbEntity
  8
0
100
AcDbLine
 10
57.137
 20
54.716
 30
0.0
 11
57.362
 21
54.603
 31
0.0
  0
LINE
  5
AFB
330
A35
100
AcDbEntity
  8
0
100
AcDbLine
 10
5.557
 20
79.692
 30
0.0
 11
5.668
 21
79.692
 31
0.0
  0
LINE
  5
AFC
330
A35
100
AcDbEntity
  8
0
100
AcDbLine
 10
7.577
 20
79.074
 30
0.0
 11
5.781
 21
79.86
 31
0.0
  0
LINE
  5
AFD
330
A35
100
AcDbEntity
  8
0
100
AcDbLine
 10
5.443
 20
81.488
 30
0.0
 11
5.5
 21
81.488
 31
0.0
  0
LINE
  5
AFE
330
A35
100
AcDbEntity
  8
0
100
AcDbLine
 10
5.557
 20
81.488
 30
0.0
 11
57.811
 21
55.164
 31
0.0
  0
LINE
  5
AFF
330
A35
100
AcDbEntity
  8
0
100
AcDbLine
 10
4.265
 20
79.971
 30
0.0
 11
4.21
 21
80.028
 31
0.0
  0
LINE
  5
B00
330
A35
100
AcDbEntity
  8
0
100
AcDbLine
 10
4.321
 20
80.028
 30
0.0
 11
4.265
 21
80.085
 31
0.0
  0
LINE
  5
B01
330
A35
100
AcDbEntity
  8
0
100
AcDbLine
 10
5.781
 20
79.692
 30
0.0
 11
5.725
 21
79.692
 31
0.0
  0
LINE
  5
B02
330
A35
100
AcDbEntity
  8
0
100
AcDbLine
 10
57.362
 20
54.546
 30
0.0
 11
57.362
 21
54.603
 31
0.0
  0
LINE
  5
B03
330
A35
100
AcDbEntity
  8
0
100
AcDbLine
 10
7.632
 20
79.186
 30
0.0
 11
7.521
 21
79.131
 31
0.0
  0
LINE
  5
B04
330
A35
100
AcDbEntity
  8
0
100
AcDbLine
 10
52.984
 20
57.016
 30
0.0
 11
52.872
 21
57.241
 31
0.0
  0
LINE
  5
B05
330
A35
100
AcDbEntity
  8
0
100
AcDbLine
 10
52.984
 20
57.409
 30
0.0
 11
53.097
 21
57.184
 31
0.0
  0
LINE
  5
B06
330
A35
100
AcDbEntity
  8
0
100
AcDbLine
 10
53.04
 20
57.409
 30
0.0
 11
53.097
 21
57.184
 31
0.0
  0
LINE
  5
B07
330
A35
100
AcDbEntity
  8
0
100
AcDbLine
 10
52.984
 20
57.466
 30
0.0
 11
52.872
 21
57.298
 31
0.0
  0
LINE
  5
B08
330
A35
100
AcDbEntity
  8
0
100
AcDbLine
 10
53.097
 20
57.128
 30
0.0
 11
52.984
 21
57.016
 31
0.0
  0
LINE
  5
B09
330
A35
100
AcDbEntity
  8
0
100
AcDbLine
 10
53.097
 20
57.128
 30
0.0
 11
53.04
 21
57.016
 31
0.0
  0
LINE
  5
B0A
330
A35
100
AcDbEntity
  8
0
100
AcDbLine
 10
57.137
 20
54.378
 30
0.0
 11
57.137
 21
54.716
 31
0.0
  0
LINE
  5
B0B
330
A35
100
AcDbEntity
  8
0
100
AcDbLine
 10
57.362
 20
54.603
 30
0.0
 11
57.362
 21
54.546
 31
0.0
  0
LINE
  5
B0C
330
A35
100
AcDbEntity
  8
0
100
AcDbLine
 10
57.362
 20
54.378
 30
0.0
 11
57.362
 21
54.267
 31
0.0
  0
LINE
  5
B0D
330
A35
100
AcDbEntity
  8
0
100
AcDbLine
 10
57.866
 20
53.929
 30
0.0
 11
57.866
 21
55.109
 31
0.0
  0
LINE
  5
B0E
330
A35
100
AcDbEntity
  8
0
100
AcDbLine
 10
57.866
 20
53.424
 30
0.0
 11
57.866
 21
53.481
 31
0.0
  0
LINE
  5
B0F
330
A35
100
AcDbEntity
  8
0
100
AcDbLine
 10
57.866
 20
53.088
 30
0.0
 11
57.866
 21
53.199
 31
0.0
  0
LINE
  5
B10
330
A35
100
AcDbEntity
  8
0
100
AcDbLine
 10
5.836
 20
79.186
 30
0.0
 11
5.949
 21
79.299
 31
0.0
  0
LINE
  5
B11
330
A35
100
AcDbEntity
  8
0
100
AcDbLine
 10
2.132
 20
78.12
 30
0.0
 11
2.189
 21
78.064
 31
0.0
  0
LINE
  5
B12
330
A35
100
AcDbEntity
  8
0
100
AcDbLine
 10
2.189
 20
78.064
 30
0.0
 11
2.246
 21
78.007
 31
0.0
  0
LINE
  5
B13
330
A35
100
AcDbEntity
  8
0
100
AcDbLine
 10
2.246
 20
78.007
 30
0.0
 11
2.3
 21
78.007
 31
0.0
  0
LINE
  5
B14
330
A35
100
AcDbEntity
  8
0
100
AcDbLine
 10
2.469
 20
77.896
 30
0.0
 11
2.525
 21
77.84
 31
0.0
  0
LINE
  5
B15
330
A35
100
AcDbEntity
  8
0
100
AcDbLine
 10
2.525
 20
77.84
 30
0.0
 11
2.469
 21
77.896
 31
0.0
  0
LINE
  5
B16
330
A35
100
AcDbEntity
  8
0
100
AcDbLine
 10
2.525
 20
77.84
 30
0.0
 11
2.582
 21
77.84
 31
0.0
  0
LINE
  5
B17
330
A35
100
AcDbEntity
  8
0
100
AcDbLine
 10
57.586
 20
53.088
 30
0.0
 11
57.698
 21
53.199
 31
0.0
  0
LINE
  5
B18
330
A35
100
AcDbEntity
  8
0
100
AcDbLine
 10
54.387
 20
51.741
 30
0.0
 11
54.33
 21
51.741
 31
0.0
  0
LINE
  5
B19
330
A35
100
AcDbEntity
  8
0
100
AcDbLine
 10
54.33
 20
51.741
 30
0.0
 11
54.33
 21
51.796
 31
0.0
  0
LINE
  5
B1A
330
A35
100
AcDbEntity
  8
0
100
AcDbLine
 10
54.33
 20
51.796
 30
0.0
 11
54.33
 21
51.741
 31
0.0
  0
LINE
  5
B1B
330
A35
100
AcDbEntity
  8
0
100
AcDbLine
 10
54.33
 20
51.796
 30
0.0
 11
54.275
 21
51.796
 31
0.0
  0
LINE
  5
B1C
330
A35
100
AcDbEntity
  8
0
100
AcDbLine
 10
54.275
 20
51.796
 30
0.0
 11
54.33
 21
51.796
 31
0.0
  0
LINE
  5
B1D
330
A35
100
AcDbEntity
  8
0
100
AcDbLine
 10
1.964
 20
78.457
 30
0.0
 11
0.111
 21
76.38
 31
0.0
  0
LINE
  5
B1E
330
A35
100
AcDbEntity
  8
0
100
AcDbLine
 10
2.132
 20
78.85
 30
0.0
 11
2.132
 21
78.625
 31
0.0
  0
LINE
  5
B1F
330
A35
100
AcDbEntity
  8
0
100
AcDbLine
 10
2.189
 20
79.018
 30
0.0
 11
2.189
 21
78.85
 31
0.0
  0
LINE
  5
B20
330
A35
100
AcDbEntity
  8
0
100
AcDbLine
 10
2.189
 20
80.31
 30
0.0
 11
2.189
 21
79.018
 31
0.0
  0
LINE
  5
B21
330
A35
100
AcDbEntity
  8
0
100
AcDbLine
 10
2.189
 20
79.018
 30
0.0
 11
2.189
 21
80.31
 31
0.0
  0
LINE
  5
B22
330
A35
100
AcDbEntity
  8
0
100
AcDbLine
 10
2.189
 20
80.31
 30
0.0
 11
2.189
 21
80.365
 31
0.0
  0
LINE
  5
B23
330
A35
100
AcDbEntity
  8
0
100
AcDbLine
 10
6.229
 20
75.426
 30
0.0
 11
6.286
 21
75.65
 31
0.0
  0
LINE
  5
B24
330
A35
100
AcDbEntity
  8
0
100
AcDbLine
 10
6.567
 20
75.764
 30
0.0
 11
6.51
 21
75.594
 31
0.0
  0
LINE
  5
B25
330
A35
100
AcDbEntity
  8
0
100
AcDbLine
 10
6.567
 20
75.764
 30
0.0
 11
6.51
 21
75.594
 31
0.0
  0
LINE
  5
B26
330
A35
100
AcDbEntity
  8
0
100
AcDbLine
 10
5.5
 20
80.142
 30
0.0
 11
5.5
 21
80.028
 31
0.0
  0
LINE
  5
B27
330
A35
100
AcDbEntity
  8
0
100
AcDbLine
 10
5.5
 20
80.028
 30
0.0
 11
5.5
 21
81.488
 31
0.0
  0
LINE
  5
B28
330
A35
100
AcDbEntity
  8
0
100
AcDbLine
 10
6.229
 20
80.31
 30
0.0
 11
6.229
 21
80.028
 31
0.0
  0
LINE
  5
B29
330
A35
100
AcDbEntity
  8
0
100
AcDbLine
 10
5.5
 20
81.543
 30
0.0
 11
2.189
 21
80.365
 31
0.0
  0
LINE
  5
B2A
330
A35
100
AcDbEntity
  8
0
100
AcDbLine
 10
4.321
 20
80.365
 30
0.0
 11
4.265
 21
80.365
 31
0.0
  0
LINE
  5
B2B
330
A35
100
AcDbEntity
  8
0
100
AcDbLine
 10
4.265
 20
80.365
 30
0.0
 11
4.321
 21
80.365
 31
0.0
  0
LINE
  5
B2C
330
A35
100
AcDbEntity
  8
0
100
AcDbLine
 10
0.057
 20
76.493
 30
0.0
 11
0.168
 21
76.604
 31
0.0
  0
LINE
  5
B2D
330
A35
100
AcDbEntity
  8
0
100
AcDbLine
 10
4.321
 20
80.31
 30
0.0
 11
4.265
 21
80.31
 31
0.0
  0
LINE
  5
B2E
330
A35
100
AcDbEntity
  8
0
100
AcDbLine
 10
4.265
 20
80.31
 30
0.0
 11
4.321
 21
80.31
 31
0.0
  0
LINE
  5
B2F
330
A35
100
AcDbEntity
  8
0
100
AcDbLine
 10
5.443
 20
80.142
 30
0.0
 11
5.5
 21
80.142
 31
0.0
  0
LINE
  5
B30
330
A35
100
AcDbEntity
  8
0
100
AcDbLine
 10
2.132
 20
78.85
 30
0.0
 11
2.189
 21
78.85
 31
0.0
  0
LINE
  5
B31
330
A35
100
AcDbEntity
  8
0
100
AcDbLine
 10
2.132
 20
78.625
 30
0.0
 11
2.189
 21
78.625
 31
0.0
  0
LINE
  5
B32
330
A35
100
AcDbEntity
  8
0
100
AcDbLine
 10
5.781
 20
79.804
 30
0.0
 11
5.557
 21
79.749
 31
0.0
  0
LINE
  5
B33
330
A35
100
AcDbEntity
  8
0
100
AcDbLine
 10
2.132
 20
78.514
 30
0.0
 11
1.964
 21
78.457
 31
0.0
  0
LINE
  5
B34
330
A35
100
AcDbEntity
  8
0
100
AcDbLine
 10
6.342
 20
75.65
 30
0.0
 11
6.51
 21
75.764
 31
0.0
  0
LINE
  5
B35
330
A35
100
AcDbEntity
  8
0
100
AcDbLine
 10
6.51
 20
75.539
 30
0.0
 11
6.229
 21
75.426
 31
0.0
  0
LINE
  5
B36
330
A35
100
AcDbEntity
  8
0
100
AcDbLine
 10
6.51
 20
75.539
 30
0.0
 11
6.229
 21
75.426
 31
0.0
  0
LINE
  5
B37
330
A35
100
AcDbEntity
  8
0
100
AcDbLine
 10
53.769
 20
55.724
 30
0.0
 11
53.713
 21
55.724
 31
0.0
  0
LINE
  5
B38
330
A35
100
AcDbEntity
  8
0
100
AcDbLine
 10
53.433
 20
55.838
 30
0.0
 11
53.49
 21
55.838
 31
0.0
  0
LINE
  5
B39
330
A35
100
AcDbEntity
  8
0
100
AcDbLine
 10
52.309
 20
50.057
 30
0.0
 11
0.0
 21
76.38
 31
0.0
  0
LINE
  5
B3A
330
A35
100
AcDbEntity
  8
0
100
AcDbLine
 10
0.225
 20
76.549
 30
0.0
 11
0.168
 21
76.604
 31
0.0
  0
LINE
  5
B3B
330
A35
100
AcDbEntity
  8
0
100
AcDbLine
 10
59.887
 20
52.695
 30
0.0
 11
58.091
 21
53.481
 31
0.0
  0
LINE
  5
B3C
330
A35
100
AcDbEntity
  8
0
100
AcDbLine
 10
2.132
 20
78.625
 30
0.0
 11
2.132
 21
78.568
 31
0.0
  0
LINE
  5
B3D
330
A35
100
AcDbEntity
  8
0
100
AcDbLine
 10
2.3
 20
78.514
 30
0.0
 11
2.189
 21
78.568
 31
0.0
  0
LINE
  5
B3E
330
A35
100
AcDbEntity
  8
0
100
AcDbLine
 10
53.713
 20
55.724
 30
0.0
 11
53.49
 21
55.838
 31
0.0
  0
LINE
  5
B3F
330
A35
100
AcDbEntity
  8
0
100
AcDbLine
 10
53.49
 20
55.781
 30
0.0
 11
53.713
 21
55.724
 31
0.0
  0
LINE
  5
B40
330
A35
100
AcDbEntity
  8
0
100
AcDbLine
 10
11.113
 20
77.167
 30
0.0
 11
10.888
 21
77.279
 31
0.0
  0
LINE
  5
B41
330
A35
100
AcDbEntity
  8
0
100
AcDbLine
 10
10.888
 20
77.279
 30
0.0
 11
11.113
 21
77.167
 31
0.0
  0
LINE
  5
B42
330
A35
100
AcDbEntity
  8
0
100
AcDbLine
 10
2.525
 20
79.971
 30
0.0
 11
2.582
 21
79.971
 31
0.0
  0
LINE
  5
B43
330
A35
100
AcDbEntity
  8
0
100
AcDbLine
 10
5.668
 20
79.692
 30
0.0
 11
5.5
 21
79.749
 31
0.0
  0
LINE
  5
B44
330
A35
100
AcDbEntity
  8
0
100
AcDbLine
 10
5.668
 20
79.692
 30
0.0
 11
5.557
 21
79.749
 31
0.0
  0
LINE
  5
B45
330
A35
100
AcDbEntity
  8
0
100
AcDbLine
 10
5.557
 20
79.804
 30
0.0
 11
5.613
 21
79.804
 31
0.0
  0
LINE
  5
B46
330
A35
100
AcDbEntity
  8
0
100
AcDbLine
 10
5.668
 20
80.028
 30
0.0
 11
5.557
 21
80.028
 31
0.0
  0
LINE
  5
B47
330
A35
100
AcDbEntity
  8
0
100
AcDbLine
 10
7.689
 20
79.186
 30
0.0
 11
59.943
 21
52.863
 31
0.0
  0
LINE
  5
B48
330
A35
100
AcDbEntity
  8
0
100
AcDbLine
 10
6.061
 20
80.142
 30
0.0
 11
6.006
 21
80.142
 31
0.0
  0
LINE
  5
B49
330
A35
100
AcDbEntity
  8
0
100
AcDbLine
 10
57.25
 20
54.378
 30
0.0
 11
57.305
 21
54.323
 31
0.0
  0
LINE
  5
B4A
330
A35
100
AcDbEntity
  8
0
100
AcDbLine
 10
6.061
 20
80.31
 30
0.0
 11
6.061
 21
80.365
 31
0.0
  0
LINE
  5
B4B
330
A35
100
AcDbEntity
  8
0
100
AcDbLine
 10
57.305
 20
54.546
 30
0.0
 11
57.362
 21
54.546
 31
0.0
  0
LINE
  5
B4C
330
A35
100
AcDbEntity
  8
0
100
AcDbLine
 10
6.006
 20
80.421
 30
0.0
 11
6.229
 21
80.31
 31
0.0
  0
LINE
  5
B4D
330
A35
100
AcDbEntity
  8
0
100
AcDbLine
 10
57.137
 20
54.659
 30
0.0
 11
57.362
 21
54.546
 31
0.0
  0
LINE
  5
B4E
330
A35
100
AcDbEntity
  8
0
100
AcDbLine
 10
7.577
 20
79.018
 30
0.0
 11
5.781
 21
79.804
 31
0.0
  0
LINE
  5
B4F
330
A35
100
AcDbEntity
  8
0
100
AcDbLine
 10
5.5
 20
81.488
 30
0.0
 11
5.5
 21
81.543
 31
0.0
  0
LINE
  5
B50
330
A35
100
AcDbEntity
  8
0
100
AcDbLine
 10
11.17
 20
77.167
 30
0.0
 11
11.113
 21
77.167
 31
0.0
  0
LINE
  5
B51
330
A35
100
AcDbEntity
  8
0
100
AcDbLine
 10
10.832
 20
77.279
 30
0.0
 11
10.888
 21
77.279
 31
0.0
  0
LINE
  5
B52
330
A35
100
AcDbEntity
  8
0
100
AcDbLine
 10
4.21
 20
80.028
 30
0.0
 11
4.265
 21
79.971
 31
0.0
  0
LINE
  5
B53
330
A35
100
AcDbEntity
  8
0
100
AcDbLine
 10
4.265
 20
79.971
 30
0.0
 11
4.21
 21
80.028
 31
0.0
  0
LINE
  5
B54
330
A35
100
AcDbEntity
  8
0
100
AcDbLine
 10
4.21
 20
80.085
 30
0.0
 11
4.321
 21
80.028
 31
0.0
  0
LINE
  5
B55
330
A35
100
AcDbEntity
  8
0
100
AcDbLine
 10
4.321
 20
80.028
 30
0.0
 11
4.21
 21
80.085
 31
0.0
  0
LINE
  5
B56
330
A35
100
AcDbEntity
  8
0
100
AcDbLine
 10
48.942
 20
54.21
 30
0.0
 11
49.112
 21
54.323
 31
0.0
  0
LINE
  5
B57
330
A35
100
AcDbEntity
  8
0
100
AcDbLine
 10
49.112
 20
54.098
 30
0.0
 11
48.83
 21
53.985
 31
0.0
  0
LINE
  5
B58
330
A35
100
AcDbEntity
  8
0
100
AcDbLine
 10
49.112
 20
54.098
 30
0.0
 11
48.887
 21
53.929
 31
0.0
  0
LINE
  5
B59
330
A35
100
AcDbEntity
  8
0
100
AcDbLine
 10
7.632
 20
79.186
 30
0.0
 11
7.521
 21
79.186
 31
0.0
  0
LINE
  5
B5A
330
A35
100
AcDbEntity
  8
0
100
AcDbLine
 10
48.83
 20
53.985
 30
0.0
 11
48.887
 21
54.21
 31
0.0
  0
LINE
  5
B5B
330
A35
100
AcDbEntity
  8
0
100
AcDbLine
 10
49.166
 20
54.323
 30
0.0
 11
49.112
 21
54.098
 31
0.0
  0
LINE
  5
B5C
330
A35
100
AcDbEntity
  8
0
100
AcDbLine
 10
49.166
 20
54.267
 30
0.0
 11
49.112
 21
54.098
 31
0.0
  0
LINE
  5
B5D
330
A35
100
AcDbEntity
  8
0
100
AcDbLine
 10
58.091
 20
53.481
 30
0.0
 11
57.866
 21
53.424
 31
0.0
  0
LINE
  5
B5E
330
A35
100
AcDbEntity
  8
0
100
AcDbLine
 10
57.362
 20
54.378
 30
0.0
 11
57.362
 21
54.267
 31
0.0
  0
LINE
  5
B5F
330
A35
100
AcDbEntity
  8
0
100
AcDbLine
 10
54.051
 20
51.909
 30
0.0
 11
52.366
 21
50.057
 31
0.0
  0
LINE
  5
B60
330
A35
100
AcDbEntity
  8
0
100
AcDbLine
 10
4.265
 20
79.971
 30
0.0
 11
4.321
 21
80.028
 31
0.0
  0
LINE
  5
B61
330
A35
100
AcDbEntity
  8
0
100
AcDbLine
 10
4.321
 20
80.31
 30
0.0
 11
4.321
 21
80.365
 31
0.0
  0
LINE
  5
B62
330
A35
100
AcDbEntity
  8
0
100
AcDbLine
 10
5.443
 20
81.488
 30
0.0
 11
5.5
 21
81.488
 31
0.0
  0
LINE
  5
B63
330
A35
100
AcDbEntity
  8
0
100
AcDbLine
 10
57.866
 20
53.199
 30
0.0
 11
57.866
 21
53.424
 31
0.0
  0
LINE
  5
B64
330
A35
100
AcDbEntity
  8
0
100
AcDbLine
 10
57.866
 20
53.199
 30
0.0
 11
57.866
 21
53.143
 31
0.0
  0
LINE
  5
B65
330
A35
100
AcDbEntity
  8
0
100
AcDbLine
 10
57.866
 20
53.088
 30
0.0
 11
57.866
 21
53.143
 31
0.0
  0
LINE
  5
B66
330
A35
100
AcDbEntity
  8
0
100
AcDbLine
 10
57.866
 20
53.481
 30
0.0
 11
57.866
 21
53.424
 31
0.0
  0
LINE
  5
B67
330
A35
100
AcDbEntity
  8
0
100
AcDbLine
 10
57.698
 20
53.256
 30
0.0
 11
57.698
 21
53.199
 31
0.0
  0
LINE
  5
B68
330
A35
100
AcDbEntity
  8
0
100
AcDbLine
 10
2.132
 20
78.175
 30
0.0
 11
2.132
 21
78.4
 31
0.0
  0
LINE
  5
B69
330
A35
100
AcDbEntity
  8
0
100
AcDbLine
 10
5.949
 20
79.299
 30
0.0
 11
5.949
 21
79.354
 31
0.0
  0
LINE
  5
B6A
330
A35
100
AcDbEntity
  8
0
100
AcDbLine
 10
5.557
 20
79.692
 30
0.0
 11
5.613
 21
79.692
 31
0.0
  0
LINE
  5
B6B
330
A35
100
AcDbEntity
  8
0
100
AcDbLine
 10
5.668
 20
79.692
 30
0.0
 11
5.725
 21
79.692
 31
0.0
  0
LINE
  5
B6C
330
A35
100
AcDbEntity
  8
0
100
AcDbLine
 10
5.668
 20
79.411
 30
0.0
 11
5.668
 21
79.692
 31
0.0
  0
LINE
  5
B6D
330
A35
100
AcDbEntity
  8
0
100
AcDbLine
 10
5.557
 20
79.692
 30
0.0
 11
5.557
 21
79.636
 31
0.0
  0
LINE
  5
B6E
330
A35
100
AcDbEntity
  8
0
100
AcDbLine
 10
5.557
 20
79.692
 30
0.0
 11
5.613
 21
79.692
 31
0.0
  0
LINE
  5
B6F
330
A35
100
AcDbEntity
  8
0
100
AcDbLine
 10
2.132
 20
78.175
 30
0.0
 11
2.132
 21
78.12
 31
0.0
  0
LINE
  5
B70
330
A35
100
AcDbEntity
  8
0
100
AcDbLine
 10
5.557
 20
79.692
 30
0.0
 11
5.613
 21
79.692
 31
0.0
  0
LINE
  5
B71
330
A35
100
AcDbEntity
  8
0
100
AcDbLine
 10
2.132
 20
78.457
 30
0.0
 11
2.132
 21
78.4
 31
0.0
  0
LINE
  5
B72
330
A35
100
AcDbEntity
  8
0
100
AcDbLine
 10
2.189
 20
78.625
 30
0.0
 11
2.132
 21
78.625
 31
0.0
  0
LINE
  5
B73
330
A35
100
AcDbEntity
  8
0
100
AcDbLine
 10
6.006
 20
80.31
 30
0.0
 11
6.061
 21
80.253
 31
0.0
  0
LINE
  5
B74
330
A35
100
AcDbEntity
  8
0
100
AcDbLine
 10
6.061
 20
80.31
 30
0.0
 11
6.006
 21
80.31
 31
0.0
  0
LINE
  5
B75
330
A35
100
AcDbEntity
  8
0
100
AcDbLine
 10
57.698
 20
53.199
 30
0.0
 11
57.698
 21
53.256
 31
0.0
  0
LINE
  5
B76
330
A35
100
AcDbEntity
  8
0
100
AcDbLine
 10
57.698
 20
53.536
 30
0.0
 11
57.698
 21
53.592
 31
0.0
  0
LINE
  5
B77
330
A35
100
AcDbEntity
  8
0
100
AcDbLine
 10
5.949
 20
79.299
 30
0.0
 11
5.949
 21
79.354
 31
0.0
  0
LINE
  5
B78
330
A35
100
AcDbEntity
  8
0
100
AcDbLine
 10
0.111
 20
76.436
 30
0.0
 11
0.057
 21
76.38
 31
0.0
  0
LINE
  5
B79
330
A35
100
AcDbEntity
  8
0
100
AcDbLine
 10
10.384
 20
78.906
 30
0.0
 11
10.384
 21
78.85
 31
0.0
  0
LINE
  5
B7A
330
A35
100
AcDbEntity
  8
0
100
AcDbLine
 10
5.5
 20
81.488
 30
0.0
 11
5.557
 21
81.488
 31
0.0
  0
LINE
  5
B7B
330
A35
100
AcDbEntity
  8
0
100
AcDbLine
 10
52.984
 20
57.466
 30
0.0
 11
52.984
 21
57.409
 31
0.0
  0
LINE
  5
B7C
330
A35
100
AcDbEntity
  8
0
100
AcDbLine
 10
10.271
 20
78.793
 30
0.0
 11
10.271
 21
78.739
 31
0.0
  0
LINE
  5
B7D
330
A35
100
AcDbEntity
  8
0
100
AcDbLine
 10
52.872
 20
57.298
 30
0.0
 11
52.872
 21
57.241
 31
0.0
  0
LINE
  5
B7E
330
A35
100
AcDbEntity
  8
0
100
AcDbLine
 10
52.984
 20
57.016
 30
0.0
 11
52.984
 21
56.96
 31
0.0
  0
LINE
  5
B7F
330
A35
100
AcDbEntity
  8
0
100
AcDbLine
 10
52.984
 20
57.016
 30
0.0
 11
52.984
 21
56.96
 31
0.0
  0
LINE
  5
B80
330
A35
100
AcDbEntity
  8
0
100
AcDbLine
 10
53.097
 20
57.184
 30
0.0
 11
53.097
 21
57.128
 31
0.0
  0
LINE
  5
B81
330
A35
100
AcDbEntity
  8
0
100
AcDbLine
 10
7.689
 20
79.186
 30
0.0
 11
7.632
 21
79.186
 31
0.0
  0
LINE
  5
B82
330
A35
100
AcDbEntity
  8
0
100
AcDbLine
 10
53.097
 20
57.128
 30
0.0
 11
53.097
 21
57.184
 31
0.0
  0
LINE
  5
B83
330
A35
100
AcDbEntity
  8
0
100
AcDbLine
 10
57.362
 20
54.546
 30
0.0
 11
57.362
 21
54.378
 31
0.0
  0
LINE
  5
B84
330
A35
100
AcDbEntity
  8
0
100
AcDbLine
 10
57.362
 20
54.378
 30
0.0
 11
57.305
 21
54.323
 31
0.0
  0
LINE
  5
B85
330
A35
100
AcDbEntity
  8
0
100
AcDbLine
 10
4.321
 20
80.31
 30
0.0
 11
4.321
 21
80.028
 31
0.0
  0
LINE
  5
B86
330
A35
100
AcDbEntity
  8
0
100
AcDbLine
 10
2.189
 20
78.625
 30
0.0
 11
2.189
 21
78.568
 31
0.0
  0
LINE
  5
B87
330
A35
100
AcDbEntity
  8
0
100
AcDbLine
 10
5.5
 20
80.028
 30
0.0
 11
5.557
 21
80.028
 31
0.0
  0
LINE
  5
B88
330
A35
100
AcDbEntity
  8
0
100
AcDbLine
 10
5.5
 20
81.431
 30
0.0
 11
5.5
 21
81.488
 31
0.0
  0
LINE
  5
B89
330
A35
100
AcDbEntity
  8
0
100
AcDbLine
 10
6.061
 20
80.365
 30
0.0
 11
6.006
 21
80.365
 31
0.0
  0
LINE
  5
B8A
330
A35
100
AcDbEntity
  8
0
100
AcDbLine
 10
5.05
 20
80.757
 30
0.0
 11
4.996
 21
80.757
 31
0.0
  0
LINE
  5
B8B
330
A35
100
AcDbEntity
  8
0
100
AcDbLine
 10
2.638
 20
80.253
 30
0.0
 11
2.693
 21
80.253
 31
0.0
  0
LINE
  5
B8C
330
A35
100
AcDbEntity
  8
0
100
AcDbLine
 10
5.5
 20
79.804
 30
0.0
 11
5.5
 21
79.749
 31
0.0
  0
LINE
  5
B8D
330
A35
100
AcDbEntity
  8
0
100
AcDbLine
 10
5.107
 20
81.039
 30
0.0
 11
5.05
 21
81.039
 31
0.0
  0
LINE
  5
B8E
330
A35
100
AcDbEntity
  8
0
100
AcDbLine
 10
2.582
 20
79.971
 30
0.0
 11
2.638
 21
79.971
 31
0.0
  0
LINE
  5
B8F
330
A35
100
AcDbEntity
  8
0
100
AcDbLine
 10
53.49
 20
55.781
 30
0.0
 11
53.49
 21
55.838
 31
0.0
  0
LINE
  5
B90
330
A35
100
AcDbEntity
  8
0
100
AcDbLine
 10
48.942
 20
54.21
 30
0.0
 11
48.887
 21
54.21
 31
0.0
  0
LINE
  5
B91
330
A35
100
AcDbEntity
  8
0
100
AcDbLine
 10
48.83
 20
53.985
 30
0.0
 11
48.83
 21
53.929
 31
0.0
  0
LINE
  5
B92
330
A35
100
AcDbEntity
  8
0
100
AcDbLine
 10
6.342
 20
75.65
 30
0.0
 11
6.286
 21
75.65
 31
0.0
  0
LINE
  5
B93
330
A35
100
AcDbEntity
  8
0
100
AcDbLine
 10
6.567
 20
75.764
 30
0.0
 11
6.51
 21
75.764
 31
0.0
  0
LINE
  5
B94
330
A35
100
AcDbEntity
  8
0
100
AcDbLine
 10
49.166
 20
54.323
 30
0.0
 11
49.112
 21
54.323
 31
0.0
  0
LINE
  5
B95
330
A35
100
AcDbEntity
  8
0
100
AcDbLine
 10
11.17
 20
77.167
 30
0.0
 11
11.113
 21
77.167
 31
0.0
  0
LINE
  5
B96
330
A35
100
AcDbEntity
  8
0
100
AcDbLine
 10
53.769
 20
55.724
 30
0.0
 11
53.713
 21
55.724
 31
0.0
  0
LINE
  5
B97
330
A35
100
AcDbEntity
  8
0
100
AcDbLine
 10
7.689
 20
79.186
 30
0.0
 11
7.632
 21
79.186
 31
0.0
  0
LINE
  5
B98
330
A35
100
AcDbEntity
  8
0
100
AcDbLine
 10
6.51
 20
75.594
 30
0.0
 11
6.51
 21
75.539
 31
0.0
  0
LINE
  5
B99
330
A35
100
AcDbEntity
  8
0
100
AcDbLine
 10
48.83
 20
53.985
 30
0.0
 11
48.83
 21
53.929
 31
0.0
  0
LINE
  5
B9A
330
A35
100
AcDbEntity
  8
0
100
AcDbLine
 10
48.83
 20
53.929
 30
0.0
 11
48.887
 21
53.929
 31
0.0
  0
LINE
  5
B9B
330
A35
100
AcDbEntity
  8
0
100
AcDbLine
 10
10.832
 20
77.279
 30
0.0
 11
10.888
 21
77.279
 31
0.0
  0
LINE
  5
B9C
330
A35
100
AcDbEntity
  8
0
100
AcDbLine
 10
53.433
 20
55.838
 30
0.0
 11
53.49
 21
55.838
 31
0.0
  0
LINE
  5
B9D
330
A35
100
AcDbEntity
  8
0
100
AcDbLine
 10
49.166
 20
54.267
 30
0.0
 11
49.166
 21
54.323
 31
0.0
  0
LINE
  5
B9E
330
A35
100
AcDbEntity
  8
0
100
AcDbLine
 10
6.51
 20
75.539
 30
0.0
 11
6.51
 21
75.594
 31
0.0
  0
POLYLINE
  5
B9F
330
A35
100
AcDbEntity
  8
0
100
AcDb2dPolyline
 66
1
 10
0.0
 20
0.0
 30
0.0
 70
0
  0
VERTEX
  5
BA1
330
A35
100
AcDbEntity
  8
0
100
AcDbVertex
100
AcDb2dVertex
 10
6.006
 20
79.636
 30
0.0
 70
0
  0
VERTEX
  5
BA2
330
A35
100
AcDbEntity
  8
0
100
AcDbVertex
100
AcDb2dVertex
 10
5.893
 20
79.692
 30
0.0
 70
0
  0
VERTEX
  5
BA3
330
A35
100
AcDbEntity
  8
0
100
AcDbVertex
100
AcDb2dVertex
 10
5.781
 20
79.692
 30
0.0
 70
0
  0
SEQEND
  5
BA0
330
A35
100
AcDbEntity
  8
0
  0
POLYLINE
  5
BA4
330
A35
100
AcDbEntity
  8
0
100
AcDb2dPolyline
 66
1
 10
0.0
 20
0.0
 30
0.0
 70
0
  0
VERTEX
  5
BA6
330
A35
100
AcDbEntity
  8
0
100
AcDbVertex
100
AcDb2dVertex
 10
57.866
 20
53.481
 30
0.0
 70
0
  0
VERTEX
  5
BA7
330
A35
100
AcDbEntity
  8
0
100
AcDbVertex
100
AcDb2dVertex
 10
57.811
 20
53.536
 30
0.0
 70
0
  0
VERTEX
  5
BA8
330
A35
100
AcDbEntity
  8
0
100
AcDbVertex
100
AcDb2dVertex
 10
57.754
 20
53.536
 30
0.0
 70
0
  0
VERTEX
  5
BA9
330
A35
100
AcDbEntity
  8
0
100
AcDbVertex
100
AcDb2dVertex
 10
57.698
 20
53.592
 30
0.0
 70
0
  0
SEQEND
  5
BA5
330
A35
100
AcDbEntity
  8
0
  0
POLYLINE
  5
BAA
330
A35
100
AcDbEntity
  8
0
100
AcDb2dPolyline
 66
1
 10
0.0
 20
0.0
 30
0.0
 70
0
  0
VERTEX
  5
BAC
330
A35
100
AcDbEntity
  8
0
100
AcDbVertex
100
AcDb2dVertex
 10
6.061
 20
80.253
 30
0.0
 70
0
  0
VERTEX
  5
BAD
330
A35
100
AcDbEntity
  8
0
100
AcDbVertex
100
AcDb2dVertex
 10
6.062
 20
80.253
 30
0.0
 70
0
  0
VERTEX
  5
BAE
330
A35
100
AcDbEntity
  8
0
100
AcDbVertex
100
AcDb2dVertex
 10
6.063
 20
80.253
 30
0.0
 70
0
  0
VERTEX
  5
BAF
330
A35
100
AcDbEntity
  8
0
100
AcDbVertex
100
AcDb2dVertex
 10
6.064
 20
80.253
 30
0.0
 70
0
  0
VERTEX
  5
BB0
330
A35
100
AcDbEntity
  8
0
100
AcDbVertex
100
AcDb2dVertex
 10
6.065
 20
80.253
 30
0.0
 70
0
  0
VERTEX
  5
BB1
330
A35
100
AcDbEntity
  8
0
100
AcDbVertex
100
AcDb2dVertex
 10
6.066
 20
80.253
 30
0.0
 70
0
  0
VERTEX
  5
BB2
330
A35
100
AcDbEntity
  8
0
100
AcDbVertex
100
AcDb2dVertex
 10
6.067
 20
80.254
 30
0.0
 70
0
  0
VERTEX
  5
BB3
330
A35
100
AcDbEntity
  8
0
100
AcDbVertex
100
AcDb2dVertex
 10
6.068
 20
80.254
 30
0.0
 70
0
  0
VERTEX
  5
BB4
330
A35
100
AcDbEntity
  8
0
100
AcDbVertex
100
AcDb2dVertex
 10
6.069
 20
80.254
 30
0.0
 70
0
  0
VERTEX
  5
BB5
330
A35
100
AcDbEntity
  8
0
100
AcDbVertex
100
AcDb2dVertex
 10
6.07
 20
80.254
 30
0.0
 70
0
  0
VERTEX
  5
BB6
330
A35
100
AcDbEntity
  8
0
100
AcDbVertex
100
AcDb2dVertex
 10
6.071
 20
80.254
 30
0.0
 70
0
  0
VERTEX
  5
BB7
330
A35
100
AcDbEntity
  8
0
100
AcDbVertex
100
AcDb2dVertex
 10
6.072
 20
80.254
 30
0.0
 70
0
  0
VERTEX
  5
BB8
330
A35
100
AcDbEntity
  8
0
100
AcDbVertex
100
AcDb2dVertex
 10
6.073
 20
80.255
 30
0.0
 70
0
  0
VERTEX
  5
BB9
330
A35
100
AcDbEntity
  8
0
100
AcDbVertex
100
AcDb2dVertex
 10
6.074
 20
80.255
 30
0.0
 70
0
  0
VERTEX
  5
BBA
330
A35
100
AcDbEntity
  8
0
100
AcDbVertex
100
AcDb2dVertex
 10
6.075
 20
80.255
 30
0.0
 70
0
  0
VERTEX
  5
BBB
330
A35
100
AcDbEntity
  8
0
100
AcDbVertex
100
AcDb2dVertex
 10
6.076
 20
80.255
 30
0.0
 70
0
  0
VERTEX
  5
BBC
330
A35
100
AcDbEntity
  8
0
100
AcDbVertex
100
AcDb2dVertex
 10
6.077
 20
80.256
 30
0.0
 70
0
  0
VERTEX
  5
BBD
330
A35
100
AcDbEntity
  8
0
100
AcDbVertex
100
AcDb2dVertex
 10
6.078
 20
80.256
 30
0.0
 70
0
  0
VERTEX
  5
BBE
330
A35
100
AcDbEntity
  8
0
100
AcDbVertex
100
AcDb2dVertex
 10
6.079
 20
80.256
 30
0.0
 70
0
  0
VERTEX
  5
BBF
330
A35
100
AcDbEntity
  8
0
100
AcDbVertex
100
AcDb2dVertex
 10
6.08
 20
80.256
 30
0.0
 70
0
  0
VERTEX
  5
BC0
330
A35
100
AcDbEntity
  8
0
100
AcDbVertex
100
AcDb2dVertex
 10
6.08
 20
80.257
 30
0.0
 70
0
  0
VERTEX
  5
BC1
330
A35
100
AcDbEntity
  8
0
100
AcDbVertex
100
AcDb2dVertex
 10
6.081
 20
80.257
 30
0.0
 70
0
  0
VERTEX
  5
BC2
330
A35
100
AcDbEntity
  8
0
100
AcDbVertex
100
AcDb2dVertex
 10
6.082
 20
80.257
 30
0.0
 70
0
  0
VERTEX
  5
BC3
330
A35
100
AcDbEntity
  8
0
100
AcDbVertex
100
AcDb2dVertex
 10
6.083
 20
80.257
 30
0.0
 70
0
  0
VERTEX
  5
BC4
330
A35
100
AcDbEntity
  8
0
100
AcDbVertex
100
AcDb2dVertex
 10
6.083
 20
80.258
 30
0.0
 70
0
  0
VERTEX
  5
BC5
330
A35
100
AcDbEntity
  8
0
100
AcDbVertex
100
AcDb2dVertex
 10
6.084
 20
80.258
 30
0.0
 70
0
  0
VERTEX
  5
BC6
330
A35
100
AcDbEntity
  8
0
100
AcDbVertex
100
AcDb2dVertex
 10
6.085
 20
80.258
 30
0.0
 70
0
  0
VERTEX
  5
BC7
330
A35
100
AcDbEntity
  8
0
100
AcDbVertex
100
AcDb2dVertex
 10
6.086
 20
80.258
 30
0.0
 70
0
  0
VERTEX
  5
BC8
330
A35
100
AcDbEntity
  8
0
100
AcDbVertex
100
AcDb2dVertex
 10
6.086
 20
80.259
 30
0.0
 70
0
  0
VERTEX
  5
BC9
330
A35
100
AcDbEntity
  8
0
100
AcDbVertex
100
AcDb2dVertex
 10
6.087
 20
80.259
 30
0.0
 70
0
  0
VERTEX
  5
BCA
330
A35
100
AcDbEntity
  8
0
100
AcDbVertex
100
AcDb2dVertex
 10
6.088
 20
80.26
 30
0.0
 70
0
  0
VERTEX
  5
BCB
330
A35
100
AcDbEntity
  8
0
100
AcDbVertex
100
AcDb2dVertex
 10
6.089
 20
80.26
 30
0.0
 70
0
  0
VERTEX
  5
BCC
330
A35
100
AcDbEntity
  8
0
100
AcDbVertex
100
AcDb2dVertex
 10
6.09
 20
80.261
 30
0.0
 70
0
  0
VERTEX
  5
BCD
330
A35
100
AcDbEntity
  8
0
100
AcDbVertex
100
AcDb2dVertex
 10
6.091
 20
80.261
 30
0.0
 70
0
  0
VERTEX
  5
BCE
330
A35
100
AcDbEntity
  8
0
100
AcDbVertex
100
AcDb2dVertex
 10
6.092
 20
80.261
 30
0.0
 70
0
  0
VERTEX
  5
BCF
330
A35
100
AcDbEntity
  8
0
100
AcDbVertex
100
AcDb2dVertex
 10
6.092
 20
80.262
 30
0.0
 70
0
  0
VERTEX
  5
BD0
330
A35
100
AcDbEntity
  8
0
100
AcDbVertex
100
AcDb2dVertex
 10
6.093
 20
80.262
 30
0.0
 70
0
  0
VERTEX
  5
BD1
330
A35
100
AcDbEntity
  8
0
100
AcDbVertex
100
AcDb2dVertex
 10
6.094
 20
80.263
 30
0.0
 70
0
  0
VERTEX
  5
BD2
330
A35
100
AcDbEntity
  8
0
100
AcDbVertex
100
AcDb2dVertex
 10
6.095
 20
80.263
 30
0.0
 70
0
  0
VERTEX
  5
BD3
330
A35
100
AcDbEntity
  8
0
100
AcDbVertex
100
AcDb2dVertex
 10
6.095
 20
80.264
 30
0.0
 70
0
  0
VERTEX
  5
BD4
330
A35
100
AcDbEntity
  8
0
100
AcDbVertex
100
AcDb2dVertex
 10
6.096
 20
80.264
 30
0.0
 70
0
  0
VERTEX
  5
BD5
330
A35
100
AcDbEntity
  8
0
100
AcDbVertex
100
AcDb2dVertex
 10
6.097
 20
80.265
 30
0.0
 70
0
  0
VERTEX
  5
BD6
330
A35
100
AcDbEntity
  8
0
100
AcDbVertex
100
AcDb2dVertex
 10
6.098
 20
80.265
 30
0.0
 70
0
  0
VERTEX
  5
BD7
330
A35
100
AcDbEntity
  8
0
100
AcDbVertex
100
AcDb2dVertex
 10
6.098
 20
80.266
 30
0.0
 70
0
  0
VERTEX
  5
BD8
330
A35
100
AcDbEntity
  8
0
100
AcDbVertex
100
AcDb2dVertex
 10
6.099
 20
80.267
 30
0.0
 70
0
  0
VERTEX
  5
BD9
330
A35
100
AcDbEntity
  8
0
100
AcDbVertex
100
AcDb2dVertex
 10
6.1
 20
80.267
 30
0.0
 70
0
  0
VERTEX
  5
BDA
330
A35
100
AcDbEntity
  8
0
100
AcDbVertex
100
AcDb2dVertex
 10
6.1
 20
80.268
 30
0.0
 70
0
  0
VERTEX
  5
BDB
330
A35
100
AcDbEntity
  8
0
100
AcDbVertex
100
AcDb2dVertex
 10
6.101
 20
80.268
 30
0.0
 70
0
  0
VERTEX
  5
BDC
330
A35
100
AcDbEntity
  8
0
100
AcDbVertex
100
AcDb2dVertex
 10
6.102
 20
80.269
 30
0.0
 70
0
  0
VERTEX
  5
BDD
330
A35
100
AcDbEntity
  8
0
100
AcDbVertex
100
AcDb2dVertex
 10
6.103
 20
80.27
 30
0.0
 70
0
  0
VERTEX
  5
BDE
330
A35
100
AcDbEntity
  8
0
100
AcDbVertex
100
AcDb2dVertex
 10
6.104
 20
80.271
 30
0.0
 70
0
  0
VERTEX
  5
BDF
330
A35
100
AcDbEntity
  8
0
100
AcDbVertex
100
AcDb2dVertex
 10
6.105
 20
80.272
 30
0.0
 70
0
  0
VERTEX
  5
BE0
330
A35
100
AcDbEntity
  8
0
100
AcDbVertex
100
AcDb2dVertex
 10
6.106
 20
80.273
 30
0.0
 70
0
  0
VERTEX
  5
BE1
330
A35
100
AcDbEntity
  8
0
100
AcDbVertex
100
AcDb2dVertex
 10
6.107
 20
80.274
 30
0.0
 70
0
  0
VERTEX
  5
BE2
330
A35
100
AcDbEntity
  8
0
100
AcDbVertex
100
AcDb2dVertex
 10
6.107
 20
80.275
 30
0.0
 70
0
  0
VERTEX
  5
BE3
330
A35
100
AcDbEntity
  8
0
100
AcDbVertex
100
AcDb2dVertex
 10
6.108
 20
80.276
 30
0.0
 70
0
  0
VERTEX
  5
BE4
330
A35
100
AcDbEntity
  8
0
100
AcDbVertex
100
AcDb2dVertex
 10
6.109
 20
80.277
 30
0.0
 70
0
  0
VERTEX
  5
BE5
330
A35
100
AcDbEntity
  8
0
100
AcDbVertex
100
AcDb2dVertex
 10
6.109
 20
80.278
 30
0.0
 70
0
  0
VERTEX
  5
BE6
330
A35
100
AcDbEntity
  8
0
100
AcDbVertex
100
AcDb2dVertex
 10
6.11
 20
80.279
 30
0.0
 70
0
  0
VERTEX
  5
BE7
330
A35
100
AcDbEntity
  8
0
100
AcDbVertex
100
AcDb2dVertex
 10
6.111
 20
80.28
 30
0.0
 70
0
  0
VERTEX
  5
BE8
330
A35
100
AcDbEntity
  8
0
100
AcDbVertex
100
AcDb2dVertex
 10
6.111
 20
80.281
 30
0.0
 70
0
  0
VERTEX
  5
BE9
330
A35
100
AcDbEntity
  8
0
100
AcDbVertex
100
AcDb2dVertex
 10
6.111
 20
80.282
 30
0.0
 70
0
  0
VERTEX
  5
BEA
330
A35
100
AcDbEntity
  8
0
100
AcDbVertex
100
AcDb2dVertex
 10
6.112
 20
80.283
 30
0.0
 70
0
  0
VERTEX
  5
BEB
330
A35
100
AcDbEntity
  8
0
100
AcDbVertex
100
AcDb2dVertex
 10
6.113
 20
80.284
 30
0.0
 70
0
  0
VERTEX
  5
BEC
330
A35
100
AcDbEntity
  8
0
100
AcDbVertex
100
AcDb2dVertex
 10
6.113
 20
80.285
 30
0.0
 70
0
  0
VERTEX
  5
BED
330
A35
100
AcDbEntity
  8
0
100
AcDbVertex
100
AcDb2dVertex
 10
6.113
 20
80.286
 30
0.0
 70
0
  0
VERTEX
  5
BEE
330
A35
100
AcDbEntity
  8
0
100
AcDbVertex
100
AcDb2dVertex
 10
6.114
 20
80.287
 30
0.0
 70
0
  0
VERTEX
  5
BEF
330
A35
100
AcDbEntity
  8
0
100
AcDbVertex
100
AcDb2dVertex
 10
6.114
 20
80.288
 30
0.0
 70
0
  0
VERTEX
  5
BF0
330
A35
100
AcDbEntity
  8
0
100
AcDbVertex
100
AcDb2dVertex
 10
6.115
 20
80.289
 30
0.0
 70
0
  0
VERTEX
  5
BF1
330
A35
100
AcDbEntity
  8
0
100
AcDbVertex
100
AcDb2dVertex
 10
6.115
 20
80.29
 30
0.0
 70
0
  0
VERTEX
  5
BF2
330
A35
100
AcDbEntity
  8
0
100
AcDbVertex
100
AcDb2dVertex
 10
6.115
 20
80.292
 30
0.0
 70
0
  0
VERTEX
  5
BF3
330
A35
100
AcDbEntity
  8
0
100
AcDbVertex
100
AcDb2dVertex
 10
6.116
 20
80.293
 30
0.0
 70
0
  0
VERTEX
  5
BF4
330
A35
100
AcDbEntity
  8
0
100
AcDbVertex
100
AcDb2dVertex
 10
6.116
 20
80.294
 30
0.0
 70
0
  0
VERTEX
  5
BF5
330
A35
100
AcDbEntity
  8
0
100
AcDbVertex
100
AcDb2dVertex
 10
6.116
 20
80.295
 30
0.0
 70
0
  0
VERTEX
  5
BF6
330
A35
100
AcDbEntity
  8
0
100
AcDbVertex
100
AcDb2dVertex
 10
6.116
 20
80.296
 30
0.0
 70
0
  0
VERTEX
  5
BF7
330
A35
100
AcDbEntity
  8
0
100
AcDbVertex
100
AcDb2dVertex
 10
6.116
 20
80.298
 30
0.0
 70
0
  0
VERTEX
  5
BF8
330
A35
100
AcDbEntity
  8
0
100
AcDbVertex
100
AcDb2dVertex
 10
6.117
 20
80.299
 30
0.0
 70
0
  0
VERTEX
  5
BF9
330
A35
100
AcDbEntity
  8
0
100
AcDbVertex
100
AcDb2dVertex
 10
6.117
 20
80.3
 30
0.0
 70
0
  0
VERTEX
  5
BFA
330
A35
100
AcDbEntity
  8
0
100
AcDbVertex
100
AcDb2dVertex
 10
6.117
 20
80.302
 30
0.0
 70
0
  0
VERTEX
  5
BFB
330
A35
100
AcDbEntity
  8
0
100
AcDbVertex
100
AcDb2dVertex
 10
6.117
 20
80.303
 30
0.0
 70
0
  0
VERTEX
  5
BFC
330
A35
100
AcDbEntity
  8
0
100
AcDbVertex
100
AcDb2dVertex
 10
6.117
 20
80.305
 30
0.0
 70
0
  0
VERTEX
  5
BFD
330
A35
100
AcDbEntity
  8
0
100
AcDbVertex
100
AcDb2dVertex
 10
6.117
 20
80.306
 30
0.0
 70
0
  0
VERTEX
  5
BFE
330
A35
100
AcDbEntity
  8
0
100
AcDbVertex
100
AcDb2dVertex
 10
6.117
 20
80.308
 30
0.0
 70
0
  0
VERTEX
  5
BFF
330
A35
100
AcDbEntity
  8
0
100
AcDbVertex
100
AcDb2dVertex
 10
6.117
 20
80.309
 30
0.0
 70
0
  0
VERTEX
  5
C00
330
A35
100
AcDbEntity
  8
0
100
AcDbVertex
100
AcDb2dVertex
 10
6.117
 20
80.31
 30
0.0
 70
0
  0
VERTEX
  5
C01
330
A35
100
AcDbEntity
  8
0
100
AcDbVertex
100
AcDb2dVertex
 10
6.117
 20
80.312
 30
0.0
 70
0
  0
VERTEX
  5
C02
330
A35
100
AcDbEntity
  8
0
100
AcDbVertex
100
AcDb2dVertex
 10
6.117
 20
80.313
 30
0.0
 70
0
  0
VERTEX
  5
C03
330
A35
100
AcDbEntity
  8
0
100
AcDbVertex
100
AcDb2dVertex
 10
6.117
 20
80.315
 30
0.0
 70
0
  0
VERTEX
  5
C04
330
A35
100
AcDbEntity
  8
0
100
AcDbVertex
100
AcDb2dVertex
 10
6.117
 20
80.316
 30
0.0
 70
0
  0
VERTEX
  5
C05
330
A35
100
AcDbEntity
  8
0
100
AcDbVertex
100
AcDb2dVertex
 10
6.117
 20
80.317
 30
0.0
 70
0
  0
VERTEX
  5
C06
330
A35
100
AcDbEntity
  8
0
100
AcDbVertex
100
AcDb2dVertex
 10
6.117
 20
80.319
 30
0.0
 70
0
  0
VERTEX
  5
C07
330
A35
100
AcDbEntity
  8
0
100
AcDbVertex
100
AcDb2dVertex
 10
6.117
 20
80.32
 30
0.0
 70
0
  0
VERTEX
  5
C08
330
A35
100
AcDbEntity
  8
0
100
AcDbVertex
100
AcDb2dVertex
 10
6.116
 20
80.321
 30
0.0
 70
0
  0
VERTEX
  5
C09
330
A35
100
AcDbEntity
  8
0
100
AcDbVertex
100
AcDb2dVertex
 10
6.116
 20
80.323
 30
0.0
 70
0
  0
VERTEX
  5
C0A
330
A35
100
AcDbEntity
  8
0
100
AcDbVertex
100
AcDb2dVertex
 10
6.116
 20
80.324
 30
0.0
 70
0
  0
VERTEX
  5
C0B
330
A35
100
AcDbEntity
  8
0
100
AcDbVertex
100
AcDb2dVertex
 10
6.116
 20
80.325
 30
0.0
 70
0
  0
VERTEX
  5
C0C
330
A35
100
AcDbEntity
  8
0
100
AcDbVertex
100
AcDb2dVertex
 10
6.116
 20
80.326
 30
0.0
 70
0
  0
VERTEX
  5
C0D
330
A35
100
AcDbEntity
  8
0
100
AcDbVertex
100
AcDb2dVertex
 10
6.115
 20
80.327
 30
0.0
 70
0
  0
VERTEX
  5
C0E
330
A35
100
AcDbEntity
  8
0
100
AcDbVertex
100
AcDb2dVertex
 10
6.115
 20
80.328
 30
0.0
 70
0
  0
VERTEX
  5
C0F
330
A35
100
AcDbEntity
  8
0
100
AcDbVertex
100
AcDb2dVertex
 10
6.115
 20
80.33
 30
0.0
 70
0
  0
VERTEX
  5
C10
330
A35
100
AcDbEntity
  8
0
100
AcDbVertex
100
AcDb2dVertex
 10
6.114
 20
80.331
 30
0.0
 70
0
  0
VERTEX
  5
C11
330
A35
100
AcDbEntity
  8
0
100
AcDbVertex
100
AcDb2dVertex
 10
6.114
 20
80.332
 30
0.0
 70
0
  0
VERTEX
  5
C12
330
A35
100
AcDbEntity
  8
0
100
AcDbVertex
100
AcDb2dVertex
 10
6.113
 20
80.333
 30
0.0
 70
0
  0
VERTEX
  5
C13
330
A35
100
AcDbEntity
  8
0
100
AcDbVertex
100
AcDb2dVertex
 10
6.113
 20
80.334
 30
0.0
 70
0
  0
VERTEX
  5
C14
330
A35
100
AcDbEntity
  8
0
100
AcDbVertex
100
AcDb2dVertex
 10
6.113
 20
80.335
 30
0.0
 70
0
  0
VERTEX
  5
C15
330
A35
100
AcDbEntity
  8
0
100
AcDbVertex
100
AcDb2dVertex
 10
6.112
 20
80.336
 30
0.0
 70
0
  0
VERTEX
  5
C16
330
A35
100
AcDbEntity
  8
0
100
AcDbVertex
100
AcDb2dVertex
 10
6.111
 20
80.337
 30
0.0
 70
0
  0
VERTEX
  5
C17
330
A35
100
AcDbEntity
  8
0
100
AcDbVertex
100
AcDb2dVertex
 10
6.111
 20
80.338
 30
0.0
 70
0
  0
VERTEX
  5
C18
330
A35
100
AcDbEntity
  8
0
100
AcDbVertex
100
AcDb2dVertex
 10
6.111
 20
80.339
 30
0.0
 70
0
  0
VERTEX
  5
C19
330
A35
100
AcDbEntity
  8
0
100
AcDbVertex
100
AcDb2dVertex
 10
6.11
 20
80.339
 30
0.0
 70
0
  0
VERTEX
  5
C1A
330
A35
100
AcDbEntity
  8
0
100
AcDbVertex
100
AcDb2dVertex
 10
6.109
 20
80.34
 30
0.0
 70
0
  0
VERTEX
  5
C1B
330
A35
100
AcDbEntity
  8
0
100
AcDbVertex
100
AcDb2dVertex
 10
6.109
 20
80.341
 30
0.0
 70
0
  0
VERTEX
  5
C1C
330
A35
100
AcDbEntity
  8
0
100
AcDbVertex
100
AcDb2dVertex
 10
6.108
 20
80.342
 30
0.0
 70
0
  0
VERTEX
  5
C1D
330
A35
100
AcDbEntity
  8
0
100
AcDbVertex
100
AcDb2dVertex
 10
6.108
 20
80.343
 30
0.0
 70
0
  0
VERTEX
  5
C1E
330
A35
100
AcDbEntity
  8
0
100
AcDbVertex
100
AcDb2dVertex
 10
6.107
 20
80.344
 30
0.0
 70
0
  0
VERTEX
  5
C1F
330
A35
100
AcDbEntity
  8
0
100
AcDbVertex
100
AcDb2dVertex
 10
6.106
 20
80.345
 30
0.0
 70
0
  0
VERTEX
  5
C20
330
A35
100
AcDbEntity
  8
0
100
AcDbVertex
100
AcDb2dVertex
 10
6.105
 20
80.346
 30
0.0
 70
0
  0
VERTEX
  5
C21
330
A35
100
AcDbEntity
  8
0
100
AcDbVertex
100
AcDb2dVertex
 10
6.104
 20
80.347
 30
0.0
 70
0
  0
VERTEX
  5
C22
330
A35
100
AcDbEntity
  8
0
100
AcDbVertex
100
AcDb2dVertex
 10
6.103
 20
80.348
 30
0.0
 70
0
  0
VERTEX
  5
C23
330
A35
100
AcDbEntity
  8
0
100
AcDbVertex
100
AcDb2dVertex
 10
6.102
 20
80.349
 30
0.0
 70
0
  0
VERTEX
  5
C24
330
A35
100
AcDbEntity
  8
0
100
AcDbVertex
100
AcDb2dVertex
 10
6.101
 20
80.35
 30
0.0
 70
0
  0
VERTEX
  5
C25
330
A35
100
AcDbEntity
  8
0
100
AcDbVertex
100
AcDb2dVertex
 10
6.1
 20
80.35
 30
0.0
 70
0
  0
VERTEX
  5
C26
330
A35
100
AcDbEntity
  8
0
100
AcDbVertex
100
AcDb2dVertex
 10
6.1
 20
80.351
 30
0.0
 70
0
  0
VERTEX
  5
C27
330
A35
100
AcDbEntity
  8
0
100
AcDbVertex
100
AcDb2dVertex
 10
6.099
 20
80.352
 30
0.0
 70
0
  0
VERTEX
  5
C28
330
A35
100
AcDbEntity
  8
0
100
AcDbVertex
100
AcDb2dVertex
 10
6.098
 20
80.352
 30
0.0
 70
0
  0
VERTEX
  5
C29
330
A35
100
AcDbEntity
  8
0
100
AcDbVertex
100
AcDb2dVertex
 10
6.098
 20
80.353
 30
0.0
 70
0
  0
VERTEX
  5
C2A
330
A35
100
AcDbEntity
  8
0
100
AcDbVertex
100
AcDb2dVertex
 10
6.097
 20
80.353
 30
0.0
 70
0
  0
VERTEX
  5
C2B
330
A35
100
AcDbEntity
  8
0
100
AcDbVertex
100
AcDb2dVertex
 10
6.096
 20
80.354
 30
0.0
 70
0
  0
VERTEX
  5
C2C
330
A35
100
AcDbEntity
  8
0
100
AcDbVertex
100
AcDb2dVertex
 10
6.095
 20
80.354
 30
0.0
 70
0
  0
VERTEX
  5
C2D
330
A35
100
AcDbEntity
  8
0
100
AcDbVertex
100
AcDb2dVertex
 10
6.095
 20
80.355
 30
0.0
 70
0
  0
VERTEX
  5
C2E
330
A35
100
AcDbEntity
  8
0
100
AcDbVertex
100
AcDb2dVertex
 10
6.094
 20
80.355
 30
0.0
 70
0
  0
VERTEX
  5
C2F
330
A35
100
AcDbEntity
  8
0
100
AcDbVertex
100
AcDb2dVertex
 10
6.093
 20
80.356
 30
0.0
 70
0
  0
VERTEX
  5
C30
330
A35
100
AcDbEntity
  8
0
100
AcDbVertex
100
AcDb2dVertex
 10
6.092
 20
80.356
 30
0.0
 70
0
  0
VERTEX
  5
C31
330
A35
100
AcDbEntity
  8
0
100
AcDbVertex
100
AcDb2dVertex
 10
6.091
 20
80.357
 30
0.0
 70
0
  0
VERTEX
  5
C32
330
A35
100
AcDbEntity
  8
0
100
AcDbVertex
100
AcDb2dVertex
 10
6.09
 20
80.357
 30
0.0
 70
0
  0
VERTEX
  5
C33
330
A35
100
AcDbEntity
  8
0
100
AcDbVertex
100
AcDb2dVertex
 10
6.089
 20
80.358
 30
0.0
 70
0
  0
VERTEX
  5
C34
330
A35
100
AcDbEntity
  8
0
100
AcDbVertex
100
AcDb2dVertex
 10
6.088
 20
80.358
 30
0.0
 70
0
  0
VERTEX
  5
C35
330
A35
100
AcDbEntity
  8
0
100
AcDbVertex
100
AcDb2dVertex
 10
6.087
 20
80.359
 30
0.0
 70
0
  0
VERTEX
  5
C36
330
A35
100
AcDbEntity
  8
0
100
AcDbVertex
100
AcDb2dVertex
 10
6.086
 20
80.359
 30
0.0
 70
0
  0
VERTEX
  5
C37
330
A35
100
AcDbEntity
  8
0
100
AcDbVertex
100
AcDb2dVertex
 10
6.085
 20
80.36
 30
0.0
 70
0
  0
VERTEX
  5
C38
330
A35
100
AcDbEntity
  8
0
100
AcDbVertex
100
AcDb2dVertex
 10
6.084
 20
80.36
 30
0.0
 70
0
  0
VERTEX
  5
C39
330
A35
100
AcDbEntity
  8
0
100
AcDbVertex
100
AcDb2dVertex
 10
6.083
 20
80.36
 30
0.0
 70
0
  0
VERTEX
  5
C3A
330
A35
100
AcDbEntity
  8
0
100
AcDbVertex
100
AcDb2dVertex
 10
6.082
 20
80.361
 30
0.0
 70
0
  0
VERTEX
  5
C3B
330
A35
100
AcDbEntity
  8
0
100
AcDbVertex
100
AcDb2dVertex
 10
6.081
 20
80.361
 30
0.0
 70
0
  0
VERTEX
  5
C3C
330
A35
100
AcDbEntity
  8
0
100
AcDbVertex
100
AcDb2dVertex
 10
6.08
 20
80.361
 30
0.0
 70
0
  0
VERTEX
  5
C3D
330
A35
100
AcDbEntity
  8
0
100
AcDbVertex
100
AcDb2dVertex
 10
6.079
 20
80.362
 30
0.0
 70
0
  0
VERTEX
  5
C3E
330
A35
100
AcDbEntity
  8
0
100
AcDbVertex
100
AcDb2dVertex
 10
6.078
 20
80.362
 30
0.0
 70
0
  0
VERTEX
  5
C3F
330
A35
100
AcDbEntity
  8
0
100
AcDbVertex
100
AcDb2dVertex
 10
6.077
 20
80.362
 30
0.0
 70
0
  0
VERTEX
  5
C40
330
A35
100
AcDbEntity
  8
0
100
AcDbVertex
100
AcDb2dVertex
 10
6.076
 20
80.362
 30
0.0
 70
0
  0
VERTEX
  5
C41
330
A35
100
AcDbEntity
  8
0
100
AcDbVertex
100
AcDb2dVertex
 10
6.075
 20
80.363
 30
0.0
 70
0
  0
VERTEX
  5
C42
330
A35
100
AcDbEntity
  8
0
100
AcDbVertex
100
AcDb2dVertex
 10
6.074
 20
80.363
 30
0.0
 70
0
  0
VERTEX
  5
C43
330
A35
100
AcDbEntity
  8
0
100
AcDbVertex
100
AcDb2dVertex
 10
6.073
 20
80.363
 30
0.0
 70
0
  0
VERTEX
  5
C44
330
A35
100
AcDbEntity
  8
0
100
AcDbVertex
100
AcDb2dVertex
 10
6.072
 20
80.363
 30
0.0
 70
0
  0
VERTEX
  5
C45
330
A35
100
AcDbEntity
  8
0
100
AcDbVertex
100
AcDb2dVertex
 10
6.071
 20
80.363
 30
0.0
 70
0
  0
VERTEX
  5
C46
330
A35
100
AcDbEntity
  8
0
100
AcDbVertex
100
AcDb2dVertex
 10
6.07
 20
80.364
 30
0.0
 70
0
  0
VERTEX
  5
C47
330
A35
100
AcDbEntity
  8
0
100
AcDbVertex
100
AcDb2dVertex
 10
6.069
 20
80.364
 30
0.0
 70
0
  0
VERTEX
  5
C48
330
A35
100
AcDbEntity
  8
0
100
AcDbVertex
100
AcDb2dVertex
 10
6.068
 20
80.364
 30
0.0
 70
0
  0
VERTEX
  5
C49
330
A35
100
AcDbEntity
  8
0
100
AcDbVertex
100
AcDb2dVertex
 10
6.067
 20
80.364
 30
0.0
 70
0
  0
VERTEX
  5
C4A
330
A35
100
AcDbEntity
  8
0
100
AcDbVertex
100
AcDb2dVertex
 10
6.066
 20
80.364
 30
0.0
 70
0
  0
VERTEX
  5
C4B
330
A35
100
AcDbEntity
  8
0
100
AcDbVertex
100
AcDb2dVertex
 10
6.065
 20
80.364
 30
0.0
 70
0
  0
VERTEX
  5
C4C
330
A35
100
AcDbEntity
  8
0
100
AcDbVertex
100
AcDb2dVertex
 10
6.064
 20
80.364
 30
0.0
 70
0
  0
VERTEX
  5
C4D
330
A35
100
AcDbEntity
  8
0
100
AcDbVertex
100
AcDb2dVertex
 10
6.063
 20
80.364
 30
0.0
 70
0
  0
VERTEX
  5
C4E
330
A35
100
AcDbEntity
  8
0
100
AcDbVertex
100
AcDb2dVertex
 10
6.063
 20
80.365
 30
0.0
 70
0
  0
VERTEX
  5
C4F
330
A35
100
AcDbEntity
  8
0
100
AcDbVertex
100
AcDb2dVertex
 10
6.062
 20
80.365
 30
0.0
 70
0
  0
VERTEX
  5
C50
330
A35
100
AcDbEntity
  8
0
100
AcDbVertex
100
AcDb2dVertex
 10
6.061
 20
80.365
 30
0.0
 70
0
  0
SEQEND
  5
BAB
330
A35
100
AcDbEntity
  8
0
  0
POLYLINE
  5
C51
330
A35
100
AcDbEntity
  8
0
100
AcDb2dPolyline
 66
1
 10
0.0
 20
0.0
 30
0.0
 70
0
  0
VERTEX
  5
C53
330
A35
100
AcDbEntity
  8
0
100
AcDbVertex
100
AcDb2dVertex
 10
57.25
 20
54.546
 30
0.0
 70
0
  0
VERTEX
  5
C54
330
A35
100
AcDbEntity
  8
0
100
AcDbVertex
100
AcDb2dVertex
 10
57.249
 20
54.546
 30
0.0
 70
0
  0
VERTEX
  5
C55
330
A35
100
AcDbEntity
  8
0
100
AcDbVertex
100
AcDb2dVertex
 10
57.248
 20
54.546
 30
0.0
 70
0
  0
VERTEX
  5
C56
330
A35
100
AcDbEntity
  8
0
100
AcDbVertex
100
AcDb2dVertex
 10
57.246
 20
54.546
 30
0.0
 70
0
  0
VERTEX
  5
C57
330
A35
100
AcDbEntity
  8
0
100
AcDbVertex
100
AcDb2dVertex
 10
57.245
 20
54.546
 30
0.0
 70
0
  0
VERTEX
  5
C58
330
A35
100
AcDbEntity
  8
0
100
AcDbVertex
100
AcDb2dVertex
 10
57.243
 20
54.546
 30
0.0
 70
0
  0
VERTEX
  5
C59
330
A35
100
AcDbEntity
  8
0
100
AcDbVertex
100
AcDb2dVertex
 10
57.242
 20
54.546
 30
0.0
 70
0
  0
VERTEX
  5
C5A
330
A35
100
AcDbEntity
  8
0
100
AcDbVertex
100
AcDb2dVertex
 10
57.241
 20
54.546
 30
0.0
 70
0
  0
VERTEX
  5
C5B
330
A35
100
AcDbEntity
  8
0
100
AcDbVertex
100
AcDb2dVertex
 10
57.239
 20
54.546
 30
0.0
 70
0
  0
VERTEX
  5
C5C
330
A35
100
AcDbEntity
  8
0
100
AcDbVertex
100
AcDb2dVertex
 10
57.238
 20
54.546
 30
0.0
 70
0
  0
VERTEX
  5
C5D
330
A35
100
AcDbEntity
  8
0
100
AcDbVertex
100
AcDb2dVertex
 10
57.237
 20
54.546
 30
0.0
 70
0
  0
VERTEX
  5
C5E
330
A35
100
AcDbEntity
  8
0
100
AcDbVertex
100
AcDb2dVertex
 10
57.236
 20
54.546
 30
0.0
 70
0
  0
VERTEX
  5
C5F
330
A35
100
AcDbEntity
  8
0
100
AcDbVertex
100
AcDb2dVertex
 10
57.234
 20
54.546
 30
0.0
 70
0
  0
VERTEX
  5
C60
330
A35
100
AcDbEntity
  8
0
100
AcDbVertex
100
AcDb2dVertex
 10
57.233
 20
54.546
 30
0.0
 70
0
  0
VERTEX
  5
C61
330
A35
100
AcDbEntity
  8
0
100
AcDbVertex
100
AcDb2dVertex
 10
57.232
 20
54.546
 30
0.0
 70
0
  0
VERTEX
  5
C62
330
A35
100
AcDbEntity
  8
0
100
AcDbVertex
100
AcDb2dVertex
 10
57.231
 20
54.546
 30
0.0
 70
0
  0
VERTEX
  5
C63
330
A35
100
AcDbEntity
  8
0
100
AcDbVertex
100
AcDb2dVertex
 10
57.23
 20
54.546
 30
0.0
 70
0
  0
VERTEX
  5
C64
330
A35
100
AcDbEntity
  8
0
100
AcDbVertex
100
AcDb2dVertex
 10
57.228
 20
54.546
 30
0.0
 70
0
  0
VERTEX
  5
C65
330
A35
100
AcDbEntity
  8
0
100
AcDbVertex
100
AcDb2dVertex
 10
57.227
 20
54.546
 30
0.0
 70
0
  0
VERTEX
  5
C66
330
A35
100
AcDbEntity
  8
0
100
AcDbVertex
100
AcDb2dVertex
 10
57.226
 20
54.546
 30
0.0
 70
0
  0
VERTEX
  5
C67
330
A35
100
AcDbEntity
  8
0
100
AcDbVertex
100
AcDb2dVertex
 10
57.225
 20
54.546
 30
0.0
 70
0
  0
VERTEX
  5
C68
330
A35
100
AcDbEntity
  8
0
100
AcDbVertex
100
AcDb2dVertex
 10
57.224
 20
54.546
 30
0.0
 70
0
  0
VERTEX
  5
C69
330
A35
100
AcDbEntity
  8
0
100
AcDbVertex
100
AcDb2dVertex
 10
57.223
 20
54.546
 30
0.0
 70
0
  0
VERTEX
  5
C6A
330
A35
100
AcDbEntity
  8
0
100
AcDbVertex
100
AcDb2dVertex
 10
57.222
 20
54.546
 30
0.0
 70
0
  0
VERTEX
  5
C6B
330
A35
100
AcDbEntity
  8
0
100
AcDbVertex
100
AcDb2dVertex
 10
57.221
 20
54.546
 30
0.0
 70
0
  0
VERTEX
  5
C6C
330
A35
100
AcDbEntity
  8
0
100
AcDbVertex
100
AcDb2dVertex
 10
57.22
 20
54.546
 30
0.0
 70
0
  0
VERTEX
  5
C6D
330
A35
100
AcDbEntity
  8
0
100
AcDbVertex
100
AcDb2dVertex
 10
57.219
 20
54.546
 30
0.0
 70
0
  0
VERTEX
  5
C6E
330
A35
100
AcDbEntity
  8
0
100
AcDbVertex
100
AcDb2dVertex
 10
57.218
 20
54.546
 30
0.0
 70
0
  0
VERTEX
  5
C6F
330
A35
100
AcDbEntity
  8
0
100
AcDbVertex
100
AcDb2dVertex
 10
57.217
 20
54.546
 30
0.0
 70
0
  0
VERTEX
  5
C70
330
A35
100
AcDbEntity
  8
0
100
AcDbVertex
100
AcDb2dVertex
 10
57.216
 20
54.546
 30
0.0
 70
0
  0
VERTEX
  5
C71
330
A35
100
AcDbEntity
  8
0
100
AcDbVertex
100
AcDb2dVertex
 10
57.215
 20
54.546
 30
0.0
 70
0
  0
VERTEX
  5
C72
330
A35
100
AcDbEntity
  8
0
100
AcDbVertex
100
AcDb2dVertex
 10
57.214
 20
54.546
 30
0.0
 70
0
  0
VERTEX
  5
C73
330
A35
100
AcDbEntity
  8
0
100
AcDbVertex
100
AcDb2dVertex
 10
57.213
 20
54.546
 30
0.0
 70
0
  0
VERTEX
  5
C74
330
A35
100
AcDbEntity
  8
0
100
AcDbVertex
100
AcDb2dVertex
 10
57.212
 20
54.546
 30
0.0
 70
0
  0
VERTEX
  5
C75
330
A35
100
AcDbEntity
  8
0
100
AcDbVertex
100
AcDb2dVertex
 10
57.211
 20
54.546
 30
0.0
 70
0
  0
VERTEX
  5
C76
330
A35
100
AcDbEntity
  8
0
100
AcDbVertex
100
AcDb2dVertex
 10
57.21
 20
54.546
 30
0.0
 70
0
  0
VERTEX
  5
C77
330
A35
100
AcDbEntity
  8
0
100
AcDbVertex
100
AcDb2dVertex
 10
57.209
 20
54.546
 30
0.0
 70
0
  0
VERTEX
  5
C78
330
A35
100
AcDbEntity
  8
0
100
AcDbVertex
100
AcDb2dVertex
 10
57.208
 20
54.546
 30
0.0
 70
0
  0
VERTEX
  5
C79
330
A35
100
AcDbEntity
  8
0
100
AcDbVertex
100
AcDb2dVertex
 10
57.207
 20
54.546
 30
0.0
 70
0
  0
VERTEX
  5
C7A
330
A35
100
AcDbEntity
  8
0
100
AcDbVertex
100
AcDb2dVertex
 10
57.206
 20
54.546
 30
0.0
 70
0
  0
VERTEX
  5
C7B
330
A35
100
AcDbEntity
  8
0
100
AcDbVertex
100
AcDb2dVertex
 10
57.205
 20
54.546
 30
0.0
 70
0
  0
VERTEX
  5
C7C
330
A35
100
AcDbEntity
  8
0
100
AcDbVertex
100
AcDb2dVertex
 10
57.204
 20
54.546
 30
0.0
 70
0
  0
VERTEX
  5
C7D
330
A35
100
AcDbEntity
  8
0
100
AcDbVertex
100
AcDb2dVertex
 10
57.203
 20
54.546
 30
0.0
 70
0
  0
VERTEX
  5
C7E
330
A35
100
AcDbEntity
  8
0
100
AcDbVertex
100
AcDb2dVertex
 10
57.202
 20
54.546
 30
0.0
 70
0
  0
VERTEX
  5
C7F
330
A35
100
AcDbEntity
  8
0
100
AcDbVertex
100
AcDb2dVertex
 10
57.201
 20
54.546
 30
0.0
 70
0
  0
VERTEX
  5
C80
330
A35
100
AcDbEntity
  8
0
100
AcDbVertex
100
AcDb2dVertex
 10
57.2
 20
54.546
 30
0.0
 70
0
  0
VERTEX
  5
C81
330
A35
100
AcDbEntity
  8
0
100
AcDbVertex
100
AcDb2dVertex
 10
57.199
 20
54.546
 30
0.0
 70
0
  0
VERTEX
  5
C82
330
A35
100
AcDbEntity
  8
0
100
AcDbVertex
100
AcDb2dVertex
 10
57.198
 20
54.546
 30
0.0
 70
0
  0
VERTEX
  5
C83
330
A35
100
AcDbEntity
  8
0
100
AcDbVertex
100
AcDb2dVertex
 10
57.197
 20
54.546
 30
0.0
 70
0
  0
VERTEX
  5
C84
330
A35
100
AcDbEntity
  8
0
100
AcDbVertex
100
AcDb2dVertex
 10
57.196
 20
54.546
 30
0.0
 70
0
  0
VERTEX
  5
C85
330
A35
100
AcDbEntity
  8
0
100
AcDbVertex
100
AcDb2dVertex
 10
57.195
 20
54.546
 30
0.0
 70
0
  0
VERTEX
  5
C86
330
A35
100
AcDbEntity
  8
0
100
AcDbVertex
100
AcDb2dVertex
 10
57.194
 20
54.546
 30
0.0
 70
0
  0
VERTEX
  5
C87
330
A35
100
AcDbEntity
  8
0
100
AcDbVertex
100
AcDb2dVertex
 10
57.193
 20
54.546
 30
0.0
 70
0
  0
SEQEND
  5
C52
330
A35
100
AcDbEntity
  8
0
  0
POLYLINE
  5
C88
330
A35
100
AcDbEntity
  8
0
100
AcDb2dPolyline
 66
1
 10
0.0
 20
0.0
 30
0.0
 70
0
  0
VERTEX
  5
C8A
330
A35
100
AcDbEntity
  8
0
100
AcDbVertex
100
AcDb2dVertex
 10
57.866
 20
53.088
 30
0.0
 70
0
  0
VERTEX
  5
C8B
330
A35
100
AcDbEntity
  8
0
100
AcDbVertex
100
AcDb2dVertex
 10
57.754
 20
53.032
 30
0.0
 70
0
  0
VERTEX
  5
C8C
330
A35
100
AcDbEntity
  8
0
100
AcDbVertex
100
AcDb2dVertex
 10
57.698
 20
52.92
 30
0.0
 70
0
  0
VERTEX
  5
C8D
330
A35
100
AcDbEntity
  8
0
100
AcDbVertex
100
AcDb2dVertex
 10
57.586
 20
52.807
 30
0.0
 70
0
  0
VERTEX
  5
C8E
330
A35
100
AcDbEntity
  8
0
100
AcDbVertex
100
AcDb2dVertex
 10
57.53
 20
52.695
 30
0.0
 70
0
  0
VERTEX
  5
C8F
330
A35
100
AcDbEntity
  8
0
100
AcDbVertex
100
AcDb2dVertex
 10
57.418
 20
52.582
 30
0.0
 70
0
  0
VERTEX
  5
C90
330
A35
100
AcDbEntity
  8
0
100
AcDbVertex
100
AcDb2dVertex
 10
57.362
 20
52.527
 30
0.0
 70
0
  0
VERTEX
  5
C91
330
A35
100
AcDbEntity
  8
0
100
AcDbVertex
100
AcDb2dVertex
 10
57.25
 20
52.414
 30
0.0
 70
0
  0
VERTEX
  5
C92
330
A35
100
AcDbEntity
  8
0
100
AcDbVertex
100
AcDb2dVertex
 10
57.193
 20
52.357
 30
0.0
 70
0
  0
VERTEX
  5
C93
330
A35
100
AcDbEntity
  8
0
100
AcDbVertex
100
AcDb2dVertex
 10
57.137
 20
52.357
 30
0.0
 70
0
  0
VERTEX
  5
C94
330
A35
100
AcDbEntity
  8
0
100
AcDbVertex
100
AcDb2dVertex
 10
57.08
 20
52.246
 30
0.0
 70
0
  0
VERTEX
  5
C95
330
A35
100
AcDbEntity
  8
0
100
AcDbVertex
100
AcDb2dVertex
 10
57.025
 20
52.246
 30
0.0
 70
0
  0
VERTEX
  5
C96
330
A35
100
AcDbEntity
  8
0
100
AcDbVertex
100
AcDb2dVertex
 10
56.969
 20
52.189
 30
0.0
 70
0
  0
VERTEX
  5
C97
330
A35
100
AcDbEntity
  8
0
100
AcDbVertex
100
AcDb2dVertex
 10
56.857
 20
52.078
 30
0.0
 70
0
  0
VERTEX
  5
C98
330
A35
100
AcDbEntity
  8
0
100
AcDbVertex
100
AcDb2dVertex
 10
56.744
 20
52.021
 30
0.0
 70
0
  0
VERTEX
  5
C99
330
A35
100
AcDbEntity
  8
0
100
AcDbVertex
100
AcDb2dVertex
 10
56.687
 20
51.964
 30
0.0
 70
0
  0
VERTEX
  5
C9A
330
A35
100
AcDbEntity
  8
0
100
AcDbVertex
100
AcDb2dVertex
 10
56.576
 20
51.909
 30
0.0
 70
0
  0
VERTEX
  5
C9B
330
A35
100
AcDbEntity
  8
0
100
AcDbVertex
100
AcDb2dVertex
 10
56.464
 20
51.853
 30
0.0
 70
0
  0
VERTEX
  5
C9C
330
A35
100
AcDbEntity
  8
0
100
AcDbVertex
100
AcDb2dVertex
 10
56.408
 20
51.853
 30
0.0
 70
0
  0
VERTEX
  5
C9D
330
A35
100
AcDbEntity
  8
0
100
AcDbVertex
100
AcDb2dVertex
 10
56.351
 20
51.796
 30
0.0
 70
0
  0
VERTEX
  5
C9E
330
A35
100
AcDbEntity
  8
0
100
AcDbVertex
100
AcDb2dVertex
 10
56.24
 20
51.741
 30
0.0
 70
0
  0
VERTEX
  5
C9F
330
A35
100
AcDbEntity
  8
0
100
AcDbVertex
100
AcDb2dVertex
 10
56.183
 20
51.685
 30
0.0
 70
0
  0
VERTEX
  5
CA0
330
A35
100
AcDbEntity
  8
0
100
AcDbVertex
100
AcDb2dVertex
 10
56.015
 20
51.685
 30
0.0
 70
0
  0
VERTEX
  5
CA1
330
A35
100
AcDbEntity
  8
0
100
AcDbVertex
100
AcDb2dVertex
 10
55.958
 20
51.628
 30
0.0
 70
0
  0
VERTEX
  5
CA2
330
A35
100
AcDbEntity
  8
0
100
AcDbVertex
100
AcDb2dVertex
 10
55.902
 20
51.628
 30
0.0
 70
0
  0
VERTEX
  5
CA3
330
A35
100
AcDbEntity
  8
0
100
AcDbVertex
100
AcDb2dVertex
 10
55.847
 20
51.571
 30
0.0
 70
0
  0
VERTEX
  5
CA4
330
A35
100
AcDbEntity
  8
0
100
AcDbVertex
100
AcDb2dVertex
 10
55.733
 20
51.571
 30
0.0
 70
0
  0
VERTEX
  5
CA5
330
A35
100
AcDbEntity
  8
0
100
AcDbVertex
100
AcDb2dVertex
 10
55.622
 20
51.571
 30
0.0
 70
0
  0
VERTEX
  5
CA6
330
A35
100
AcDbEntity
  8
0
100
AcDbVertex
100
AcDb2dVertex
 10
55.509
 20
51.571
 30
0.0
 70
0
  0
VERTEX
  5
CA7
330
A35
100
AcDbEntity
  8
0
100
AcDbVertex
100
AcDb2dVertex
 10
55.397
 20
51.516
 30
0.0
 70
0
  0
VERTEX
  5
CA8
330
A35
100
AcDbEntity
  8
0
100
AcDbVertex
100
AcDb2dVertex
 10
55.116
 20
51.516
 30
0.0
 70
0
  0
VERTEX
  5
CA9
330
A35
100
AcDbEntity
  8
0
100
AcDbVertex
100
AcDb2dVertex
 10
55.004
 20
51.571
 30
0.0
 70
0
  0
VERTEX
  5
CAA
330
A35
100
AcDbEntity
  8
0
100
AcDbVertex
100
AcDb2dVertex
 10
54.891
 20
51.571
 30
0.0
 70
0
  0
VERTEX
  5
CAB
330
A35
100
AcDbEntity
  8
0
100
AcDbVertex
100
AcDb2dVertex
 10
54.836
 20
51.571
 30
0.0
 70
0
  0
VERTEX
  5
CAC
330
A35
100
AcDbEntity
  8
0
100
AcDbVertex
100
AcDb2dVertex
 10
54.723
 20
51.571
 30
0.0
 70
0
  0
VERTEX
  5
CAD
330
A35
100
AcDbEntity
  8
0
100
AcDbVertex
100
AcDb2dVertex
 10
54.723
 20
51.628
 30
0.0
 70
0
  0
VERTEX
  5
CAE
330
A35
100
AcDbEntity
  8
0
100
AcDbVertex
100
AcDb2dVertex
 10
54.668
 20
51.628
 30
0.0
 70
0
  0
VERTEX
  5
CAF
330
A35
100
AcDbEntity
  8
0
100
AcDbVertex
100
AcDb2dVertex
 10
54.668
 20
51.685
 30
0.0
 70
0
  0
VERTEX
  5
CB0
330
A35
100
AcDbEntity
  8
0
100
AcDbVertex
100
AcDb2dVertex
 10
54.555
 20
51.685
 30
0.0
 70
0
  0
SEQEND
  5
C89
330
A35
100
AcDbEntity
  8
0
  0
POLYLINE
  5
CB1
330
A35
100
AcDbEntity
  8
0
100
AcDb2dPolyline
 66
1
 10
0.0
 20
0.0
 30
0.0
 70
0
  0
VERTEX
  5
CB3
330
A35
100
AcDbEntity
  8
0
100
AcDbVertex
100
AcDb2dVertex
 10
57.866
 20
53.143
 30
0.0
 70
0
  0
VERTEX
  5
CB4
330
A35
100
AcDbEntity
  8
0
100
AcDbVertex
100
AcDb2dVertex
 10
57.866
 20
53.088
 30
0.0
 70
0
  0
VERTEX
  5
CB5
330
A35
100
AcDbEntity
  8
0
100
AcDbVertex
100
AcDb2dVertex
 10
57.754
 20
53.032
 30
0.0
 70
0
  0
VERTEX
  5
CB6
330
A35
100
AcDbEntity
  8
0
100
AcDbVertex
100
AcDb2dVertex
 10
57.698
 20
52.92
 30
0.0
 70
0
  0
VERTEX
  5
CB7
330
A35
100
AcDbEntity
  8
0
100
AcDbVertex
100
AcDb2dVertex
 10
57.586
 20
52.807
 30
0.0
 70
0
  0
VERTEX
  5
CB8
330
A35
100
AcDbEntity
  8
0
100
AcDbVertex
100
AcDb2dVertex
 10
57.53
 20
52.75
 30
0.0
 70
0
  0
VERTEX
  5
CB9
330
A35
100
AcDbEntity
  8
0
100
AcDbVertex
100
AcDb2dVertex
 10
57.53
 20
52.695
 30
0.0
 70
0
  0
VERTEX
  5
CBA
330
A35
100
AcDbEntity
  8
0
100
AcDbVertex
100
AcDb2dVertex
 10
57.418
 20
52.639
 30
0.0
 70
0
  0
VERTEX
  5
CBB
330
A35
100
AcDbEntity
  8
0
100
AcDbVertex
100
AcDb2dVertex
 10
57.418
 20
52.582
 30
0.0
 70
0
  0
VERTEX
  5
CBC
330
A35
100
AcDbEntity
  8
0
100
AcDbVertex
100
AcDb2dVertex
 10
57.362
 20
52.527
 30
0.0
 70
0
  0
VERTEX
  5
CBD
330
A35
100
AcDbEntity
  8
0
100
AcDbVertex
100
AcDb2dVertex
 10
57.25
 20
52.414
 30
0.0
 70
0
  0
VERTEX
  5
CBE
330
A35
100
AcDbEntity
  8
0
100
AcDbVertex
100
AcDb2dVertex
 10
57.193
 20
52.357
 30
0.0
 70
0
  0
VERTEX
  5
CBF
330
A35
100
AcDbEntity
  8
0
100
AcDbVertex
100
AcDb2dVertex
 10
57.137
 20
52.357
 30
0.0
 70
0
  0
VERTEX
  5
CC0
330
A35
100
AcDbEntity
  8
0
100
AcDbVertex
100
AcDb2dVertex
 10
57.08
 20
52.302
 30
0.0
 70
0
  0
VERTEX
  5
CC1
330
A35
100
AcDbEntity
  8
0
100
AcDbVertex
100
AcDb2dVertex
 10
57.08
 20
52.246
 30
0.0
 70
0
  0
VERTEX
  5
CC2
330
A35
100
AcDbEntity
  8
0
100
AcDbVertex
100
AcDb2dVertex
 10
56.969
 20
52.189
 30
0.0
 70
0
  0
VERTEX
  5
CC3
330
A35
100
AcDbEntity
  8
0
100
AcDbVertex
100
AcDb2dVertex
 10
56.857
 20
52.134
 30
0.0
 70
0
  0
VERTEX
  5
CC4
330
A35
100
AcDbEntity
  8
0
100
AcDbVertex
100
AcDb2dVertex
 10
56.801
 20
52.078
 30
0.0
 70
0
  0
VERTEX
  5
CC5
330
A35
100
AcDbEntity
  8
0
100
AcDbVertex
100
AcDb2dVertex
 10
56.744
 20
52.078
 30
0.0
 70
0
  0
VERTEX
  5
CC6
330
A35
100
AcDbEntity
  8
0
100
AcDbVertex
100
AcDb2dVertex
 10
56.687
 20
52.021
 30
0.0
 70
0
  0
VERTEX
  5
CC7
330
A35
100
AcDbEntity
  8
0
100
AcDbVertex
100
AcDb2dVertex
 10
56.576
 20
51.909
 30
0.0
 70
0
  0
VERTEX
  5
CC8
330
A35
100
AcDbEntity
  8
0
100
AcDbVertex
100
AcDb2dVertex
 10
56.519
 20
51.909
 30
0.0
 70
0
  0
VERTEX
  5
CC9
330
A35
100
AcDbEntity
  8
0
100
AcDbVertex
100
AcDb2dVertex
 10
56.464
 20
51.853
 30
0.0
 70
0
  0
VERTEX
  5
CCA
330
A35
100
AcDbEntity
  8
0
100
AcDbVertex
100
AcDb2dVertex
 10
56.351
 20
51.853
 30
0.0
 70
0
  0
VERTEX
  5
CCB
330
A35
100
AcDbEntity
  8
0
100
AcDbVertex
100
AcDb2dVertex
 10
56.294
 20
51.741
 30
0.0
 70
0
  0
VERTEX
  5
CCC
330
A35
100
AcDbEntity
  8
0
100
AcDbVertex
100
AcDb2dVertex
 10
56.183
 20
51.741
 30
0.0
 70
0
  0
VERTEX
  5
CCD
330
A35
100
AcDbEntity
  8
0
100
AcDbVertex
100
AcDb2dVertex
 10
56.072
 20
51.685
 30
0.0
 70
0
  0
VERTEX
  5
CCE
330
A35
100
AcDbEntity
  8
0
100
AcDbVertex
100
AcDb2dVertex
 10
55.958
 20
51.685
 30
0.0
 70
0
  0
VERTEX
  5
CCF
330
A35
100
AcDbEntity
  8
0
100
AcDbVertex
100
AcDb2dVertex
 10
55.902
 20
51.628
 30
0.0
 70
0
  0
VERTEX
  5
CD0
330
A35
100
AcDbEntity
  8
0
100
AcDbVertex
100
AcDb2dVertex
 10
55.847
 20
51.628
 30
0.0
 70
0
  0
VERTEX
  5
CD1
330
A35
100
AcDbEntity
  8
0
100
AcDbVertex
100
AcDb2dVertex
 10
55.79
 20
51.571
 30
0.0
 70
0
  0
VERTEX
  5
CD2
330
A35
100
AcDbEntity
  8
0
100
AcDbVertex
100
AcDb2dVertex
 10
55.679
 20
51.571
 30
0.0
 70
0
  0
VERTEX
  5
CD3
330
A35
100
AcDbEntity
  8
0
100
AcDbVertex
100
AcDb2dVertex
 10
55.565
 20
51.571
 30
0.0
 70
0
  0
VERTEX
  5
CD4
330
A35
100
AcDbEntity
  8
0
100
AcDbVertex
100
AcDb2dVertex
 10
55.454
 20
51.571
 30
0.0
 70
0
  0
VERTEX
  5
CD5
330
A35
100
AcDbEntity
  8
0
100
AcDbVertex
100
AcDb2dVertex
 10
55.397
 20
51.516
 30
0.0
 70
0
  0
VERTEX
  5
CD6
330
A35
100
AcDbEntity
  8
0
100
AcDbVertex
100
AcDb2dVertex
 10
55.173
 20
51.516
 30
0.0
 70
0
  0
VERTEX
  5
CD7
330
A35
100
AcDbEntity
  8
0
100
AcDbVertex
100
AcDb2dVertex
 10
55.061
 20
51.516
 30
0.0
 70
0
  0
VERTEX
  5
CD8
330
A35
100
AcDbEntity
  8
0
100
AcDbVertex
100
AcDb2dVertex
 10
55.061
 20
51.571
 30
0.0
 70
0
  0
VERTEX
  5
CD9
330
A35
100
AcDbEntity
  8
0
100
AcDbVertex
100
AcDb2dVertex
 10
55.004
 20
51.571
 30
0.0
 70
0
  0
VERTEX
  5
CDA
330
A35
100
AcDbEntity
  8
0
100
AcDbVertex
100
AcDb2dVertex
 10
54.891
 20
51.571
 30
0.0
 70
0
  0
VERTEX
  5
CDB
330
A35
100
AcDbEntity
  8
0
100
AcDbVertex
100
AcDb2dVertex
 10
54.836
 20
51.571
 30
0.0
 70
0
  0
VERTEX
  5
CDC
330
A35
100
AcDbEntity
  8
0
100
AcDbVertex
100
AcDb2dVertex
 10
54.723
 20
51.628
 30
0.0
 70
0
  0
SEQEND
  5
CB2
330
A35
100
AcDbEntity
  8
0
  0
POLYLINE
  5
CDD
330
A35
100
AcDbEntity
  8
0
100
AcDb2dPolyline
 66
1
 10
0.0
 20
0.0
 30
0.0
 70
0
  0
VERTEX
  5
CDF
330
A35
100
AcDbEntity
  8
0
100
AcDbVertex
100
AcDb2dVertex
 10
57.586
 20
53.088
 30
0.0
 70
0
  0
VERTEX
  5
CE0
330
A35
100
AcDbEntity
  8
0
100
AcDbVertex
100
AcDb2dVertex
 10
57.53
 20
53.032
 30
0.0
 70
0
  0
VERTEX
  5
CE1
330
A35
100
AcDbEntity
  8
0
100
AcDbVertex
100
AcDb2dVertex
 10
57.53
 20
52.974
 30
0.0
 70
0
  0
VERTEX
  5
CE2
330
A35
100
AcDbEntity
  8
0
100
AcDbVertex
100
AcDb2dVertex
 10
57.418
 20
52.92
 30
0.0
 70
0
  0
VERTEX
  5
CE3
330
A35
100
AcDbEntity
  8
0
100
AcDbVertex
100
AcDb2dVertex
 10
57.418
 20
52.863
 30
0.0
 70
0
  0
VERTEX
  5
CE4
330
A35
100
AcDbEntity
  8
0
100
AcDbVertex
100
AcDb2dVertex
 10
57.362
 20
52.807
 30
0.0
 70
0
  0
VERTEX
  5
CE5
330
A35
100
AcDbEntity
  8
0
100
AcDbVertex
100
AcDb2dVertex
 10
57.362
 20
52.75
 30
0.0
 70
0
  0
VERTEX
  5
CE6
330
A35
100
AcDbEntity
  8
0
100
AcDbVertex
100
AcDb2dVertex
 10
57.25
 20
52.695
 30
0.0
 70
0
  0
VERTEX
  5
CE7
330
A35
100
AcDbEntity
  8
0
100
AcDbVertex
100
AcDb2dVertex
 10
57.193
 20
52.582
 30
0.0
 70
0
  0
VERTEX
  5
CE8
330
A35
100
AcDbEntity
  8
0
100
AcDbVertex
100
AcDb2dVertex
 10
57.137
 20
52.582
 30
0.0
 70
0
  0
VERTEX
  5
CE9
330
A35
100
AcDbEntity
  8
0
100
AcDbVertex
100
AcDb2dVertex
 10
57.08
 20
52.527
 30
0.0
 70
0
  0
VERTEX
  5
CEA
330
A35
100
AcDbEntity
  8
0
100
AcDbVertex
100
AcDb2dVertex
 10
56.969
 20
52.414
 30
0.0
 70
0
  0
VERTEX
  5
CEB
330
A35
100
AcDbEntity
  8
0
100
AcDbVertex
100
AcDb2dVertex
 10
56.857
 20
52.357
 30
0.0
 70
0
  0
VERTEX
  5
CEC
330
A35
100
AcDbEntity
  8
0
100
AcDbVertex
100
AcDb2dVertex
 10
56.744
 20
52.246
 30
0.0
 70
0
  0
VERTEX
  5
CED
330
A35
100
AcDbEntity
  8
0
100
AcDbVertex
100
AcDb2dVertex
 10
56.687
 20
52.189
 30
0.0
 70
0
  0
VERTEX
  5
CEE
330
A35
100
AcDbEntity
  8
0
100
AcDbVertex
100
AcDb2dVertex
 10
56.576
 20
52.134
 30
0.0
 70
0
  0
VERTEX
  5
CEF
330
A35
100
AcDbEntity
  8
0
100
AcDbVertex
100
AcDb2dVertex
 10
56.576
 20
52.078
 30
0.0
 70
0
  0
VERTEX
  5
CF0
330
A35
100
AcDbEntity
  8
0
100
AcDbVertex
100
AcDb2dVertex
 10
56.519
 20
52.078
 30
0.0
 70
0
  0
VERTEX
  5
CF1
330
A35
100
AcDbEntity
  8
0
100
AcDbVertex
100
AcDb2dVertex
 10
56.464
 20
52.021
 30
0.0
 70
0
  0
VERTEX
  5
CF2
330
A35
100
AcDbEntity
  8
0
100
AcDbVertex
100
AcDb2dVertex
 10
56.351
 20
52.021
 30
0.0
 70
0
  0
VERTEX
  5
CF3
330
A35
100
AcDbEntity
  8
0
100
AcDbVertex
100
AcDb2dVertex
 10
56.294
 20
51.909
 30
0.0
 70
0
  0
VERTEX
  5
CF4
330
A35
100
AcDbEntity
  8
0
100
AcDbVertex
100
AcDb2dVertex
 10
56.183
 20
51.909
 30
0.0
 70
0
  0
VERTEX
  5
CF5
330
A35
100
AcDbEntity
  8
0
100
AcDbVertex
100
AcDb2dVertex
 10
56.183
 20
51.853
 30
0.0
 70
0
  0
VERTEX
  5
CF6
330
A35
100
AcDbEntity
  8
0
100
AcDbVertex
100
AcDb2dVertex
 10
56.072
 20
51.853
 30
0.0
 70
0
  0
VERTEX
  5
CF7
330
A35
100
AcDbEntity
  8
0
100
AcDbVertex
100
AcDb2dVertex
 10
55.958
 20
51.796
 30
0.0
 70
0
  0
VERTEX
  5
CF8
330
A35
100
AcDbEntity
  8
0
100
AcDbVertex
100
AcDb2dVertex
 10
55.847
 20
51.741
 30
0.0
 70
0
  0
VERTEX
  5
CF9
330
A35
100
AcDbEntity
  8
0
100
AcDbVertex
100
AcDb2dVertex
 10
55.733
 20
51.741
 30
0.0
 70
0
  0
VERTEX
  5
CFA
330
A35
100
AcDbEntity
  8
0
100
AcDbVertex
100
AcDb2dVertex
 10
55.733
 20
51.685
 30
0.0
 70
0
  0
VERTEX
  5
CFB
330
A35
100
AcDbEntity
  8
0
100
AcDbVertex
100
AcDb2dVertex
 10
55.509
 20
51.685
 30
0.0
 70
0
  0
VERTEX
  5
CFC
330
A35
100
AcDbEntity
  8
0
100
AcDbVertex
100
AcDb2dVertex
 10
55.454
 20
51.628
 30
0.0
 70
0
  0
VERTEX
  5
CFD
330
A35
100
AcDbEntity
  8
0
100
AcDbVertex
100
AcDb2dVertex
 10
55.341
 20
51.628
 30
0.0
 70
0
  0
VERTEX
  5
CFE
330
A35
100
AcDbEntity
  8
0
100
AcDbVertex
100
AcDb2dVertex
 10
55.229
 20
51.628
 30
0.0
 70
0
  0
VERTEX
  5
CFF
330
A35
100
AcDbEntity
  8
0
100
AcDbVertex
100
AcDb2dVertex
 10
54.836
 20
51.628
 30
0.0
 70
0
  0
VERTEX
  5
D00
330
A35
100
AcDbEntity
  8
0
100
AcDbVertex
100
AcDb2dVertex
 10
54.723
 20
51.628
 30
0.0
 70
0
  0
VERTEX
  5
D01
330
A35
100
AcDbEntity
  8
0
100
AcDbVertex
100
AcDb2dVertex
 10
54.723
 20
51.685
 30
0.0
 70
0
  0
VERTEX
  5
D02
330
A35
100
AcDbEntity
  8
0
100
AcDbVertex
100
AcDb2dVertex
 10
54.668
 20
51.685
 30
0.0
 70
0
  0
VERTEX
  5
D03
330
A35
100
AcDbEntity
  8
0
100
AcDbVertex
100
AcDb2dVertex
 10
54.555
 20
51.685
 30
0.0
 70
0
  0
VERTEX
  5
D04
330
A35
100
AcDbEntity
  8
0
100
AcDbVertex
100
AcDb2dVertex
 10
54.498
 20
51.741
 30
0.0
 70
0
  0
VERTEX
  5
D05
330
A35
100
AcDbEntity
  8
0
100
AcDbVertex
100
AcDb2dVertex
 10
54.387
 20
51.741
 30
0.0
 70
0
  0
SEQEND
  5
CDE
330
A35
100
AcDbEntity
  8
0
  0
POLYLINE
  5
D06
330
A35
100
AcDbEntity
  8
0
100
AcDb2dPolyline
 66
1
 10
0.0
 20
0.0
 30
0.0
 70
0
  0
VERTEX
  5
D08
330
A35
100
AcDbEntity
  8
0
100
AcDbVertex
100
AcDb2dVertex
 10
57.866
 20
53.199
 30
0.0
 70
0
  0
VERTEX
  5
D09
330
A35
100
AcDbEntity
  8
0
100
AcDbVertex
100
AcDb2dVertex
 10
57.866
 20
53.256
 30
0.0
 70
0
  0
VERTEX
  5
D0A
330
A35
100
AcDbEntity
  8
0
100
AcDbVertex
100
AcDb2dVertex
 10
57.811
 20
53.256
 30
0.0
 70
0
  0
VERTEX
  5
D0B
330
A35
100
AcDbEntity
  8
0
100
AcDbVertex
100
AcDb2dVertex
 10
57.811
 20
53.367
 30
0.0
 70
0
  0
VERTEX
  5
D0C
330
A35
100
AcDbEntity
  8
0
100
AcDbVertex
100
AcDb2dVertex
 10
57.866
 20
53.367
 30
0.0
 70
0
  0
VERTEX
  5
D0D
330
A35
100
AcDbEntity
  8
0
100
AcDbVertex
100
AcDb2dVertex
 10
57.866
 20
53.424
 30
0.0
 70
0
  0
SEQEND
  5
D07
330
A35
100
AcDbEntity
  8
0
  0
POLYLINE
  5
D0E
330
A35
100
AcDbEntity
  8
0
100
AcDb2dPolyline
 66
1
 10
0.0
 20
0.0
 30
0.0
 70
0
  0
VERTEX
  5
D10
330
A35
100
AcDbEntity
  8
0
100
AcDbVertex
100
AcDb2dVertex
 10
2.525
 20
77.84
 30
0.0
 70
0
  0
VERTEX
  5
D11
330
A35
100
AcDbEntity
  8
0
100
AcDbVertex
100
AcDb2dVertex
 10
2.638
 20
77.84
 30
0.0
 70
0
  0
VERTEX
  5
D12
330
A35
100
AcDbEntity
  8
0
100
AcDbVertex
100
AcDb2dVertex
 10
2.638
 20
77.783
 30
0.0
 70
0
  0
VERTEX
  5
D13
330
A35
100
AcDbEntity
  8
0
100
AcDbVertex
100
AcDb2dVertex
 10
2.807
 20
77.783
 30
0.0
 70
0
  0
VERTEX
  5
D14
330
A35
100
AcDbEntity
  8
0
100
AcDbVertex
100
AcDb2dVertex
 10
2.861
 20
77.728
 30
0.0
 70
0
  0
VERTEX
  5
D15
330
A35
100
AcDbEntity
  8
0
100
AcDbVertex
100
AcDb2dVertex
 10
2.918
 20
77.728
 30
0.0
 70
0
  0
VERTEX
  5
D16
330
A35
100
AcDbEntity
  8
0
100
AcDbVertex
100
AcDb2dVertex
 10
2.975
 20
77.671
 30
0.0
 70
0
  0
VERTEX
  5
D17
330
A35
100
AcDbEntity
  8
0
100
AcDbVertex
100
AcDb2dVertex
 10
3.199
 20
77.671
 30
0.0
 70
0
  0
VERTEX
  5
D18
330
A35
100
AcDbEntity
  8
0
100
AcDbVertex
100
AcDb2dVertex
 10
3.311
 20
77.671
 30
0.0
 70
0
  0
VERTEX
  5
D19
330
A35
100
AcDbEntity
  8
0
100
AcDbVertex
100
AcDb2dVertex
 10
3.704
 20
77.671
 30
0.0
 70
0
  0
VERTEX
  5
D1A
330
A35
100
AcDbEntity
  8
0
100
AcDbVertex
100
AcDb2dVertex
 10
3.817
 20
77.728
 30
0.0
 70
0
  0
VERTEX
  5
D1B
330
A35
100
AcDbEntity
  8
0
100
AcDbVertex
100
AcDb2dVertex
 10
3.872
 20
77.728
 30
0.0
 70
0
  0
VERTEX
  5
D1C
330
A35
100
AcDbEntity
  8
0
100
AcDbVertex
100
AcDb2dVertex
 10
3.928
 20
77.783
 30
0.0
 70
0
  0
VERTEX
  5
D1D
330
A35
100
AcDbEntity
  8
0
100
AcDbVertex
100
AcDb2dVertex
 10
4.153
 20
77.783
 30
0.0
 70
0
  0
VERTEX
  5
D1E
330
A35
100
AcDbEntity
  8
0
100
AcDbVertex
100
AcDb2dVertex
 10
4.21
 20
77.84
 30
0.0
 70
0
  0
VERTEX
  5
D1F
330
A35
100
AcDbEntity
  8
0
100
AcDbVertex
100
AcDb2dVertex
 10
4.321
 20
77.896
 30
0.0
 70
0
  0
VERTEX
  5
D20
330
A35
100
AcDbEntity
  8
0
100
AcDbVertex
100
AcDb2dVertex
 10
4.433
 20
77.953
 30
0.0
 70
0
  0
VERTEX
  5
D21
330
A35
100
AcDbEntity
  8
0
100
AcDbVertex
100
AcDb2dVertex
 10
4.546
 20
78.007
 30
0.0
 70
0
  0
VERTEX
  5
D22
330
A35
100
AcDbEntity
  8
0
100
AcDbVertex
100
AcDb2dVertex
 10
4.658
 20
78.007
 30
0.0
 70
0
  0
VERTEX
  5
D23
330
A35
100
AcDbEntity
  8
0
100
AcDbVertex
100
AcDb2dVertex
 10
4.658
 20
78.064
 30
0.0
 70
0
  0
VERTEX
  5
D24
330
A35
100
AcDbEntity
  8
0
100
AcDbVertex
100
AcDb2dVertex
 10
4.714
 20
78.12
 30
0.0
 70
0
  0
VERTEX
  5
D25
330
A35
100
AcDbEntity
  8
0
100
AcDbVertex
100
AcDb2dVertex
 10
4.827
 20
78.175
 30
0.0
 70
0
  0
VERTEX
  5
D26
330
A35
100
AcDbEntity
  8
0
100
AcDbVertex
100
AcDb2dVertex
 10
4.939
 20
78.232
 30
0.0
 70
0
  0
VERTEX
  5
D27
330
A35
100
AcDbEntity
  8
0
100
AcDbVertex
100
AcDb2dVertex
 10
4.939
 20
78.289
 30
0.0
 70
0
  0
VERTEX
  5
D28
330
A35
100
AcDbEntity
  8
0
100
AcDbVertex
100
AcDb2dVertex
 10
5.05
 20
78.289
 30
0.0
 70
0
  0
VERTEX
  5
D29
330
A35
100
AcDbEntity
  8
0
100
AcDbVertex
100
AcDb2dVertex
 10
5.05
 20
78.345
 30
0.0
 70
0
  0
VERTEX
  5
D2A
330
A35
100
AcDbEntity
  8
0
100
AcDbVertex
100
AcDb2dVertex
 10
5.164
 20
78.4
 30
0.0
 70
0
  0
VERTEX
  5
D2B
330
A35
100
AcDbEntity
  8
0
100
AcDbVertex
100
AcDb2dVertex
 10
5.22
 20
78.457
 30
0.0
 70
0
  0
VERTEX
  5
D2C
330
A35
100
AcDbEntity
  8
0
100
AcDbVertex
100
AcDb2dVertex
 10
5.22
 20
78.514
 30
0.0
 70
0
  0
VERTEX
  5
D2D
330
A35
100
AcDbEntity
  8
0
100
AcDbVertex
100
AcDb2dVertex
 10
5.332
 20
78.568
 30
0.0
 70
0
  0
VERTEX
  5
D2E
330
A35
100
AcDbEntity
  8
0
100
AcDbVertex
100
AcDb2dVertex
 10
5.388
 20
78.625
 30
0.0
 70
0
  0
VERTEX
  5
D2F
330
A35
100
AcDbEntity
  8
0
100
AcDbVertex
100
AcDb2dVertex
 10
5.443
 20
78.682
 30
0.0
 70
0
  0
VERTEX
  5
D30
330
A35
100
AcDbEntity
  8
0
100
AcDbVertex
100
AcDb2dVertex
 10
5.5
 20
78.739
 30
0.0
 70
0
  0
VERTEX
  5
D31
330
A35
100
AcDbEntity
  8
0
100
AcDbVertex
100
AcDb2dVertex
 10
5.5
 20
78.793
 30
0.0
 70
0
  0
VERTEX
  5
D32
330
A35
100
AcDbEntity
  8
0
100
AcDbVertex
100
AcDb2dVertex
 10
5.613
 20
78.85
 30
0.0
 70
0
  0
VERTEX
  5
D33
330
A35
100
AcDbEntity
  8
0
100
AcDbVertex
100
AcDb2dVertex
 10
5.668
 20
78.961
 30
0.0
 70
0
  0
VERTEX
  5
D34
330
A35
100
AcDbEntity
  8
0
100
AcDbVertex
100
AcDb2dVertex
 10
5.781
 20
79.018
 30
0.0
 70
0
  0
VERTEX
  5
D35
330
A35
100
AcDbEntity
  8
0
100
AcDbVertex
100
AcDb2dVertex
 10
5.836
 20
79.131
 30
0.0
 70
0
  0
VERTEX
  5
D36
330
A35
100
AcDbEntity
  8
0
100
AcDbVertex
100
AcDb2dVertex
 10
5.836
 20
79.186
 30
0.0
 70
0
  0
VERTEX
  5
D37
330
A35
100
AcDbEntity
  8
0
100
AcDbVertex
100
AcDb2dVertex
 10
5.893
 20
79.243
 30
0.0
 70
0
  0
VERTEX
  5
D38
330
A35
100
AcDbEntity
  8
0
100
AcDbVertex
100
AcDb2dVertex
 10
5.949
 20
79.299
 30
0.0
 70
0
  0
SEQEND
  5
D0F
330
A35
100
AcDbEntity
  8
0
  0
POLYLINE
  5
D39
330
A35
100
AcDbEntity
  8
0
100
AcDb2dPolyline
 66
1
 10
0.0
 20
0.0
 30
0.0
 70
0
  0
VERTEX
  5
D3B
330
A35
100
AcDbEntity
  8
0
100
AcDbVertex
100
AcDb2dVertex
 10
6.006
 20
79.636
 30
0.0
 70
0
  0
VERTEX
  5
D3C
330
A35
100
AcDbEntity
  8
0
100
AcDbVertex
100
AcDb2dVertex
 10
5.949
 20
79.636
 30
0.0
 70
0
  0
VERTEX
  5
D3D
330
A35
100
AcDbEntity
  8
0
100
AcDbVertex
100
AcDb2dVertex
 10
5.949
 20
79.524
 30
0.0
 70
0
  0
VERTEX
  5
D3E
330
A35
100
AcDbEntity
  8
0
100
AcDbVertex
100
AcDb2dVertex
 10
5.893
 20
79.524
 30
0.0
 70
0
  0
VERTEX
  5
D3F
330
A35
100
AcDbEntity
  8
0
100
AcDbVertex
100
AcDb2dVertex
 10
5.893
 20
79.411
 30
0.0
 70
0
  0
VERTEX
  5
D40
330
A35
100
AcDbEntity
  8
0
100
AcDbVertex
100
AcDb2dVertex
 10
5.949
 20
79.354
 30
0.0
 70
0
  0
SEQEND
  5
D3A
330
A35
100
AcDbEntity
  8
0
  0
POLYLINE
  5
D41
330
A35
100
AcDbEntity
  8
0
100
AcDb2dPolyline
 66
1
 10
0.0
 20
0.0
 30
0.0
 70
0
  0
VERTEX
  5
D43
330
A35
100
AcDbEntity
  8
0
100
AcDbVertex
100
AcDb2dVertex
 10
2.3
 20
78.007
 30
0.0
 70
0
  0
VERTEX
  5
D44
330
A35
100
AcDbEntity
  8
0
100
AcDbVertex
100
AcDb2dVertex
 10
2.357
 20
77.953
 30
0.0
 70
0
  0
VERTEX
  5
D45
330
A35
100
AcDbEntity
  8
0
100
AcDbVertex
100
AcDb2dVertex
 10
2.469
 20
77.953
 30
0.0
 70
0
  0
VERTEX
  5
D46
330
A35
100
AcDbEntity
  8
0
100
AcDbVertex
100
AcDb2dVertex
 10
2.469
 20
77.896
 30
0.0
 70
0
  0
VERTEX
  5
D47
330
A35
100
AcDbEntity
  8
0
100
AcDbVertex
100
AcDb2dVertex
 10
2.525
 20
77.896
 30
0.0
 70
0
  0
VERTEX
  5
D48
330
A35
100
AcDbEntity
  8
0
100
AcDbVertex
100
AcDb2dVertex
 10
2.582
 20
77.84
 30
0.0
 70
0
  0
VERTEX
  5
D49
330
A35
100
AcDbEntity
  8
0
100
AcDbVertex
100
AcDb2dVertex
 10
2.638
 20
77.84
 30
0.0
 70
0
  0
VERTEX
  5
D4A
330
A35
100
AcDbEntity
  8
0
100
AcDbVertex
100
AcDb2dVertex
 10
2.75
 20
77.84
 30
0.0
 70
0
  0
VERTEX
  5
D4B
330
A35
100
AcDbEntity
  8
0
100
AcDbVertex
100
AcDb2dVertex
 10
2.807
 20
77.783
 30
0.0
 70
0
  0
VERTEX
  5
D4C
330
A35
100
AcDbEntity
  8
0
100
AcDbVertex
100
AcDb2dVertex
 10
2.918
 20
77.783
 30
0.0
 70
0
  0
VERTEX
  5
D4D
330
A35
100
AcDbEntity
  8
0
100
AcDbVertex
100
AcDb2dVertex
 10
3.199
 20
77.783
 30
0.0
 70
0
  0
VERTEX
  5
D4E
330
A35
100
AcDbEntity
  8
0
100
AcDbVertex
100
AcDb2dVertex
 10
3.311
 20
77.783
 30
0.0
 70
0
  0
VERTEX
  5
D4F
330
A35
100
AcDbEntity
  8
0
100
AcDbVertex
100
AcDb2dVertex
 10
3.479
 20
77.783
 30
0.0
 70
0
  0
VERTEX
  5
D50
330
A35
100
AcDbEntity
  8
0
100
AcDbVertex
100
AcDb2dVertex
 10
3.592
 20
77.783
 30
0.0
 70
0
  0
VERTEX
  5
D51
330
A35
100
AcDbEntity
  8
0
100
AcDbVertex
100
AcDb2dVertex
 10
3.704
 20
77.84
 30
0.0
 70
0
  0
VERTEX
  5
D52
330
A35
100
AcDbEntity
  8
0
100
AcDbVertex
100
AcDb2dVertex
 10
3.817
 20
77.84
 30
0.0
 70
0
  0
VERTEX
  5
D53
330
A35
100
AcDbEntity
  8
0
100
AcDbVertex
100
AcDb2dVertex
 10
3.872
 20
77.896
 30
0.0
 70
0
  0
VERTEX
  5
D54
330
A35
100
AcDbEntity
  8
0
100
AcDbVertex
100
AcDb2dVertex
 10
3.985
 20
77.953
 30
0.0
 70
0
  0
VERTEX
  5
D55
330
A35
100
AcDbEntity
  8
0
100
AcDbVertex
100
AcDb2dVertex
 10
4.097
 20
77.953
 30
0.0
 70
0
  0
VERTEX
  5
D56
330
A35
100
AcDbEntity
  8
0
100
AcDbVertex
100
AcDb2dVertex
 10
4.21
 20
78.007
 30
0.0
 70
0
  0
VERTEX
  5
D57
330
A35
100
AcDbEntity
  8
0
100
AcDbVertex
100
AcDb2dVertex
 10
4.321
 20
78.064
 30
0.0
 70
0
  0
VERTEX
  5
D58
330
A35
100
AcDbEntity
  8
0
100
AcDbVertex
100
AcDb2dVertex
 10
4.378
 20
78.12
 30
0.0
 70
0
  0
VERTEX
  5
D59
330
A35
100
AcDbEntity
  8
0
100
AcDbVertex
100
AcDb2dVertex
 10
4.489
 20
78.175
 30
0.0
 70
0
  0
VERTEX
  5
D5A
330
A35
100
AcDbEntity
  8
0
100
AcDbVertex
100
AcDb2dVertex
 10
4.603
 20
78.232
 30
0.0
 70
0
  0
VERTEX
  5
D5B
330
A35
100
AcDbEntity
  8
0
100
AcDbVertex
100
AcDb2dVertex
 10
4.714
 20
78.289
 30
0.0
 70
0
  0
VERTEX
  5
D5C
330
A35
100
AcDbEntity
  8
0
100
AcDbVertex
100
AcDb2dVertex
 10
4.827
 20
78.345
 30
0.0
 70
0
  0
VERTEX
  5
D5D
330
A35
100
AcDbEntity
  8
0
100
AcDbVertex
100
AcDb2dVertex
 10
4.882
 20
78.457
 30
0.0
 70
0
  0
VERTEX
  5
D5E
330
A35
100
AcDbEntity
  8
0
100
AcDbVertex
100
AcDb2dVertex
 10
4.996
 20
78.514
 30
0.0
 70
0
  0
VERTEX
  5
D5F
330
A35
100
AcDbEntity
  8
0
100
AcDbVertex
100
AcDb2dVertex
 10
5.05
 20
78.625
 30
0.0
 70
0
  0
VERTEX
  5
D60
330
A35
100
AcDbEntity
  8
0
100
AcDbVertex
100
AcDb2dVertex
 10
5.164
 20
78.682
 30
0.0
 70
0
  0
VERTEX
  5
D61
330
A35
100
AcDbEntity
  8
0
100
AcDbVertex
100
AcDb2dVertex
 10
5.22
 20
78.793
 30
0.0
 70
0
  0
VERTEX
  5
D62
330
A35
100
AcDbEntity
  8
0
100
AcDbVertex
100
AcDb2dVertex
 10
5.275
 20
78.793
 30
0.0
 70
0
  0
VERTEX
  5
D63
330
A35
100
AcDbEntity
  8
0
100
AcDbVertex
100
AcDb2dVertex
 10
5.332
 20
78.85
 30
0.0
 70
0
  0
VERTEX
  5
D64
330
A35
100
AcDbEntity
  8
0
100
AcDbVertex
100
AcDb2dVertex
 10
5.443
 20
78.961
 30
0.0
 70
0
  0
VERTEX
  5
D65
330
A35
100
AcDbEntity
  8
0
100
AcDbVertex
100
AcDb2dVertex
 10
5.5
 20
79.018
 30
0.0
 70
0
  0
VERTEX
  5
D66
330
A35
100
AcDbEntity
  8
0
100
AcDbVertex
100
AcDb2dVertex
 10
5.613
 20
79.131
 30
0.0
 70
0
  0
VERTEX
  5
D67
330
A35
100
AcDbEntity
  8
0
100
AcDbVertex
100
AcDb2dVertex
 10
5.668
 20
79.243
 30
0.0
 70
0
  0
VERTEX
  5
D68
330
A35
100
AcDbEntity
  8
0
100
AcDbVertex
100
AcDb2dVertex
 10
5.725
 20
79.354
 30
0.0
 70
0
  0
SEQEND
  5
D42
330
A35
100
AcDbEntity
  8
0
  0
POLYLINE
  5
D69
330
A35
100
AcDbEntity
  8
0
100
AcDb2dPolyline
 66
1
 10
0.0
 20
0.0
 30
0.0
 70
0
  0
VERTEX
  5
D6B
330
A35
100
AcDbEntity
  8
0
100
AcDbVertex
100
AcDb2dVertex
 10
2.132
 20
78.175
 30
0.0
 70
0
  0
VERTEX
  5
D6C
330
A35
100
AcDbEntity
  8
0
100
AcDbVertex
100
AcDb2dVertex
 10
2.189
 20
78.175
 30
0.0
 70
0
  0
VERTEX
  5
D6D
330
A35
100
AcDbEntity
  8
0
100
AcDbVertex
100
AcDb2dVertex
 10
2.246
 20
78.12
 30
0.0
 70
0
  0
VERTEX
  5
D6E
330
A35
100
AcDbEntity
  8
0
100
AcDbVertex
100
AcDb2dVertex
 10
2.3
 20
78.064
 30
0.0
 70
0
  0
VERTEX
  5
D6F
330
A35
100
AcDbEntity
  8
0
100
AcDbVertex
100
AcDb2dVertex
 10
2.357
 20
78.007
 30
0.0
 70
0
  0
VERTEX
  5
D70
330
A35
100
AcDbEntity
  8
0
100
AcDbVertex
100
AcDb2dVertex
 10
2.469
 20
78.007
 30
0.0
 70
0
  0
VERTEX
  5
D71
330
A35
100
AcDbEntity
  8
0
100
AcDbVertex
100
AcDb2dVertex
 10
2.525
 20
77.953
 30
0.0
 70
0
  0
VERTEX
  5
D72
330
A35
100
AcDbEntity
  8
0
100
AcDbVertex
100
AcDb2dVertex
 10
2.638
 20
77.953
 30
0.0
 70
0
  0
VERTEX
  5
D73
330
A35
100
AcDbEntity
  8
0
100
AcDbVertex
100
AcDb2dVertex
 10
2.693
 20
77.896
 30
0.0
 70
0
  0
VERTEX
  5
D74
330
A35
100
AcDbEntity
  8
0
100
AcDbVertex
100
AcDb2dVertex
 10
2.807
 20
77.896
 30
0.0
 70
0
  0
VERTEX
  5
D75
330
A35
100
AcDbEntity
  8
0
100
AcDbVertex
100
AcDb2dVertex
 10
2.861
 20
77.84
 30
0.0
 70
0
  0
VERTEX
  5
D76
330
A35
100
AcDbEntity
  8
0
100
AcDbVertex
100
AcDb2dVertex
 10
2.975
 20
77.84
 30
0.0
 70
0
  0
VERTEX
  5
D77
330
A35
100
AcDbEntity
  8
0
100
AcDbVertex
100
AcDb2dVertex
 10
3.086
 20
77.84
 30
0.0
 70
0
  0
VERTEX
  5
D78
330
A35
100
AcDbEntity
  8
0
100
AcDbVertex
100
AcDb2dVertex
 10
3.368
 20
77.84
 30
0.0
 70
0
  0
VERTEX
  5
D79
330
A35
100
AcDbEntity
  8
0
100
AcDbVertex
100
AcDb2dVertex
 10
3.479
 20
77.84
 30
0.0
 70
0
  0
VERTEX
  5
D7A
330
A35
100
AcDbEntity
  8
0
100
AcDbVertex
100
AcDb2dVertex
 10
3.536
 20
77.896
 30
0.0
 70
0
  0
VERTEX
  5
D7B
330
A35
100
AcDbEntity
  8
0
100
AcDbVertex
100
AcDb2dVertex
 10
3.647
 20
77.896
 30
0.0
 70
0
  0
VERTEX
  5
D7C
330
A35
100
AcDbEntity
  8
0
100
AcDbVertex
100
AcDb2dVertex
 10
3.76
 20
77.953
 30
0.0
 70
0
  0
VERTEX
  5
D7D
330
A35
100
AcDbEntity
  8
0
100
AcDbVertex
100
AcDb2dVertex
 10
3.872
 20
77.953
 30
0.0
 70
0
  0
VERTEX
  5
D7E
330
A35
100
AcDbEntity
  8
0
100
AcDbVertex
100
AcDb2dVertex
 10
3.985
 20
78.007
 30
0.0
 70
0
  0
VERTEX
  5
D7F
330
A35
100
AcDbEntity
  8
0
100
AcDbVertex
100
AcDb2dVertex
 10
4.04
 20
78.007
 30
0.0
 70
0
  0
VERTEX
  5
D80
330
A35
100
AcDbEntity
  8
0
100
AcDbVertex
100
AcDb2dVertex
 10
4.153
 20
78.12
 30
0.0
 70
0
  0
VERTEX
  5
D81
330
A35
100
AcDbEntity
  8
0
100
AcDbVertex
100
AcDb2dVertex
 10
4.265
 20
78.12
 30
0.0
 70
0
  0
VERTEX
  5
D82
330
A35
100
AcDbEntity
  8
0
100
AcDbVertex
100
AcDb2dVertex
 10
4.321
 20
78.175
 30
0.0
 70
0
  0
VERTEX
  5
D83
330
A35
100
AcDbEntity
  8
0
100
AcDbVertex
100
AcDb2dVertex
 10
4.378
 20
78.175
 30
0.0
 70
0
  0
VERTEX
  5
D84
330
A35
100
AcDbEntity
  8
0
100
AcDbVertex
100
AcDb2dVertex
 10
4.433
 20
78.232
 30
0.0
 70
0
  0
VERTEX
  5
D85
330
A35
100
AcDbEntity
  8
0
100
AcDbVertex
100
AcDb2dVertex
 10
4.489
 20
78.232
 30
0.0
 70
0
  0
VERTEX
  5
D86
330
A35
100
AcDbEntity
  8
0
100
AcDbVertex
100
AcDb2dVertex
 10
4.546
 20
78.289
 30
0.0
 70
0
  0
VERTEX
  5
D87
330
A35
100
AcDbEntity
  8
0
100
AcDbVertex
100
AcDb2dVertex
 10
4.658
 20
78.345
 30
0.0
 70
0
  0
VERTEX
  5
D88
330
A35
100
AcDbEntity
  8
0
100
AcDbVertex
100
AcDb2dVertex
 10
4.714
 20
78.457
 30
0.0
 70
0
  0
VERTEX
  5
D89
330
A35
100
AcDbEntity
  8
0
100
AcDbVertex
100
AcDb2dVertex
 10
4.827
 20
78.514
 30
0.0
 70
0
  0
VERTEX
  5
D8A
330
A35
100
AcDbEntity
  8
0
100
AcDbVertex
100
AcDb2dVertex
 10
4.882
 20
78.568
 30
0.0
 70
0
  0
VERTEX
  5
D8B
330
A35
100
AcDbEntity
  8
0
100
AcDbVertex
100
AcDb2dVertex
 10
4.939
 20
78.568
 30
0.0
 70
0
  0
VERTEX
  5
D8C
330
A35
100
AcDbEntity
  8
0
100
AcDbVertex
100
AcDb2dVertex
 10
4.996
 20
78.682
 30
0.0
 70
0
  0
VERTEX
  5
D8D
330
A35
100
AcDbEntity
  8
0
100
AcDbVertex
100
AcDb2dVertex
 10
5.107
 20
78.739
 30
0.0
 70
0
  0
VERTEX
  5
D8E
330
A35
100
AcDbEntity
  8
0
100
AcDbVertex
100
AcDb2dVertex
 10
5.164
 20
78.85
 30
0.0
 70
0
  0
VERTEX
  5
D8F
330
A35
100
AcDbEntity
  8
0
100
AcDbVertex
100
AcDb2dVertex
 10
5.22
 20
78.85
 30
0.0
 70
0
  0
VERTEX
  5
D90
330
A35
100
AcDbEntity
  8
0
100
AcDbVertex
100
AcDb2dVertex
 10
5.275
 20
78.906
 30
0.0
 70
0
  0
VERTEX
  5
D91
330
A35
100
AcDbEntity
  8
0
100
AcDbVertex
100
AcDb2dVertex
 10
5.388
 20
79.018
 30
0.0
 70
0
  0
VERTEX
  5
D92
330
A35
100
AcDbEntity
  8
0
100
AcDbVertex
100
AcDb2dVertex
 10
5.443
 20
79.131
 30
0.0
 70
0
  0
VERTEX
  5
D93
330
A35
100
AcDbEntity
  8
0
100
AcDbVertex
100
AcDb2dVertex
 10
5.5
 20
79.186
 30
0.0
 70
0
  0
VERTEX
  5
D94
330
A35
100
AcDbEntity
  8
0
100
AcDbVertex
100
AcDb2dVertex
 10
5.613
 20
79.299
 30
0.0
 70
0
  0
VERTEX
  5
D95
330
A35
100
AcDbEntity
  8
0
100
AcDbVertex
100
AcDb2dVertex
 10
5.668
 20
79.411
 30
0.0
 70
0
  0
SEQEND
  5
D6A
330
A35
100
AcDbEntity
  8
0
  0
POLYLINE
  5
D96
330
A35
100
AcDbEntity
  8
0
100
AcDb2dPolyline
 66
1
 10
0.0
 20
0.0
 30
0.0
 70
0
  0
VERTEX
  5
D98
330
A35
100
AcDbEntity
  8
0
100
AcDbVertex
100
AcDb2dVertex
 10
2.132
 20
78.457
 30
0.0
 70
0
  0
VERTEX
  5
D99
330
A35
100
AcDbEntity
  8
0
100
AcDbVertex
100
AcDb2dVertex
 10
2.189
 20
78.4
 30
0.0
 70
0
  0
VERTEX
  5
D9A
330
A35
100
AcDbEntity
  8
0
100
AcDbVertex
100
AcDb2dVertex
 10
2.189
 20
78.175
 30
0.0
 70
0
  0
VERTEX
  5
D9B
330
A35
100
AcDbEntity
  8
0
100
AcDbVertex
100
AcDb2dVertex
 10
2.132
 20
78.175
 30
0.0
 70
0
  0
SEQEND
  5
D97
330
A35
100
AcDbEntity
  8
0
  0
POLYLINE
  5
D9C
330
A35
100
AcDbEntity
  8
0
100
AcDb2dPolyline
 66
1
 10
0.0
 20
0.0
 30
0.0
 70
0
  0
VERTEX
  5
D9E
330
A35
100
AcDbEntity
  8
0
100
AcDbVertex
100
AcDb2dVertex
 10
5.725
 20
79.354
 30
0.0
 70
0
  0
VERTEX
  5
D9F
330
A35
100
AcDbEntity
  8
0
100
AcDbVertex
100
AcDb2dVertex
 10
5.725
 20
79.411
 30
0.0
 70
0
  0
VERTEX
  5
DA0
330
A35
100
AcDbEntity
  8
0
100
AcDbVertex
100
AcDb2dVertex
 10
5.668
 20
79.411
 30
0.0
 70
0
  0
SEQEND
  5
D9D
330
A35
100
AcDbEntity
  8
0
  0
POLYLINE
  5
DA1
330
A35
100
AcDbEntity
  8
0
100
AcDb2dPolyline
 66
1
 10
0.0
 20
0.0
 30
0.0
 70
0
  0
VERTEX
  5
DA3
330
A35
100
AcDbEntity
  8
0
100
AcDbVertex
100
AcDb2dVertex
 10
5.668
 20
79.411
 30
0.0
 70
0
  0
VERTEX
  5
DA4
330
A35
100
AcDbEntity
  8
0
100
AcDbVertex
100
AcDb2dVertex
 10
5.725
 20
79.411
 30
0.0
 70
0
  0
VERTEX
  5
DA5
330
A35
100
AcDbEntity
  8
0
100
AcDbVertex
100
AcDb2dVertex
 10
5.725
 20
79.467
 30
0.0
 70
0
  0
VERTEX
  5
DA6
330
A35
100
AcDbEntity
  8
0
100
AcDbVertex
100
AcDb2dVertex
 10
5.781
 20
79.411
 30
0.0
 70
0
  0
SEQEND
  5
DA2
330
A35
100
AcDbEntity
  8
0
  0
POLYLINE
  5
DA7
330
A35
100
AcDbEntity
  8
0
100
AcDb2dPolyline
 66
1
 10
0.0
 20
0.0
 30
0.0
 70
0
  0
VERTEX
  5
DA9
330
A35
100
AcDbEntity
  8
0
100
AcDbVertex
100
AcDb2dVertex
 10
5.781
 20
79.692
 30
0.0
 70
0
  0
VERTEX
  5
DAA
330
A35
100
AcDbEntity
  8
0
100
AcDbVertex
100
AcDb2dVertex
 10
5.781
 20
79.636
 30
0.0
 70
0
  0
VERTEX
  5
DAB
330
A35
100
AcDbEntity
  8
0
100
AcDbVertex
100
AcDb2dVertex
 10
5.725
 20
79.636
 30
0.0
 70
0
  0
VERTEX
  5
DAC
330
A35
100
AcDbEntity
  8
0
100
AcDbVertex
100
AcDb2dVertex
 10
5.725
 20
79.467
 30
0.0
 70
0
  0
VERTEX
  5
DAD
330
A35
100
AcDbEntity
  8
0
100
AcDbVertex
100
AcDb2dVertex
 10
5.781
 20
79.467
 30
0.0
 70
0
  0
VERTEX
  5
DAE
330
A35
100
AcDbEntity
  8
0
100
AcDbVertex
100
AcDb2dVertex
 10
5.781
 20
79.411
 30
0.0
 70
0
  0
SEQEND
  5
DA8
330
A35
100
AcDbEntity
  8
0
  0
POLYLINE
  5
DAF
330
A35
100
AcDbEntity
  8
0
100
AcDb2dPolyline
 66
1
 10
0.0
 20
0.0
 30
0.0
 70
0
  0
VERTEX
  5
DB1
330
A35
100
AcDbEntity
  8
0
100
AcDbVertex
100
AcDb2dVertex
 10
5.668
 20
79.692
 30
0.0
 70
0
  0
VERTEX
  5
DB2
330
A35
100
AcDbEntity
  8
0
100
AcDbVertex
100
AcDb2dVertex
 10
5.725
 20
79.692
 30
0.0
 70
0
  0
VERTEX
  5
DB3
330
A35
100
AcDbEntity
  8
0
100
AcDbVertex
100
AcDb2dVertex
 10
5.781
 20
79.692
 30
0.0
 70
0
  0
SEQEND
  5
DB0
330
A35
100
AcDbEntity
  8
0
  0
POLYLINE
  5
DB4
330
A35
100
AcDbEntity
  8
0
100
AcDb2dPolyline
 66
1
 10
0.0
 20
0.0
 30
0.0
 70
0
  0
VERTEX
  5
DB6
330
A35
100
AcDbEntity
  8
0
100
AcDbVertex
100
AcDb2dVertex
 10
5.725
 20
79.354
 30
0.0
 70
0
  0
VERTEX
  5
DB7
330
A35
100
AcDbEntity
  8
0
100
AcDbVertex
100
AcDb2dVertex
 10
5.781
 20
79.354
 30
0.0
 70
0
  0
VERTEX
  5
DB8
330
A35
100
AcDbEntity
  8
0
100
AcDbVertex
100
AcDb2dVertex
 10
5.781
 20
79.411
 30
0.0
 70
0
  0
SEQEND
  5
DB5
330
A35
100
AcDbEntity
  8
0
  0
POLYLINE
  5
DB9
330
A35
100
AcDbEntity
  8
0
100
AcDb2dPolyline
 66
1
 10
0.0
 20
0.0
 30
0.0
 70
0
  0
VERTEX
  5
DBB
330
A35
100
AcDbEntity
  8
0
100
AcDbVertex
100
AcDb2dVertex
 10
6.006
 20
80.196
 30
0.0
 70
0
  0
VERTEX
  5
DBC
330
A35
100
AcDbEntity
  8
0
100
AcDbVertex
100
AcDb2dVertex
 10
6.061
 20
80.196
 30
0.0
 70
0
  0
VERTEX
  5
DBD
330
A35
100
AcDbEntity
  8
0
100
AcDbVertex
100
AcDb2dVertex
 10
6.061
 20
80.31
 30
0.0
 70
0
  0
VERTEX
  5
DBE
330
A35
100
AcDbEntity
  8
0
100
AcDbVertex
100
AcDb2dVertex
 10
6.006
 20
80.31
 30
0.0
 70
0
  0
SEQEND
  5
DBA
330
A35
100
AcDbEntity
  8
0
  0
POLYLINE
  5
DBF
330
A35
100
AcDbEntity
  8
0
100
AcDb2dPolyline
 66
1
 10
0.0
 20
0.0
 30
0.0
 70
0
  0
VERTEX
  5
DC1
330
A35
100
AcDbEntity
  8
0
100
AcDbVertex
100
AcDb2dVertex
 10
57.698
 20
53.536
 30
0.0
 70
0
  0
VERTEX
  5
DC2
330
A35
100
AcDbEntity
  8
0
100
AcDbVertex
100
AcDb2dVertex
 10
57.698
 20
53.424
 30
0.0
 70
0
  0
VERTEX
  5
DC3
330
A35
100
AcDbEntity
  8
0
100
AcDbVertex
100
AcDb2dVertex
 10
57.643
 20
53.367
 30
0.0
 70
0
  0
VERTEX
  5
DC4
330
A35
100
AcDbEntity
  8
0
100
AcDbVertex
100
AcDb2dVertex
 10
57.698
 20
53.367
 30
0.0
 70
0
  0
VERTEX
  5
DC5
330
A35
100
AcDbEntity
  8
0
100
AcDbVertex
100
AcDb2dVertex
 10
57.698
 20
53.256
 30
0.0
 70
0
  0
SEQEND
  5
DC0
330
A35
100
AcDbEntity
  8
0
  0
POLYLINE
  5
DC6
330
A35
100
AcDbEntity
  8
0
100
AcDb2dPolyline
 66
1
 10
0.0
 20
0.0
 30
0.0
 70
0
  0
VERTEX
  5
DC8
330
A35
100
AcDbEntity
  8
0
100
AcDbVertex
100
AcDb2dVertex
 10
57.698
 20
53.199
 30
0.0
 70
0
  0
VERTEX
  5
DC9
330
A35
100
AcDbEntity
  8
0
100
AcDbVertex
100
AcDb2dVertex
 10
57.643
 20
53.143
 30
0.0
 70
0
  0
VERTEX
  5
DCA
330
A35
100
AcDbEntity
  8
0
100
AcDbVertex
100
AcDb2dVertex
 10
57.586
 20
53.088
 30
0.0
 70
0
  0
VERTEX
  5
DCB
330
A35
100
AcDbEntity
  8
0
100
AcDbVertex
100
AcDb2dVertex
 10
57.53
 20
53.032
 30
0.0
 70
0
  0
VERTEX
  5
DCC
330
A35
100
AcDbEntity
  8
0
100
AcDbVertex
100
AcDb2dVertex
 10
57.53
 20
52.974
 30
0.0
 70
0
  0
VERTEX
  5
DCD
330
A35
100
AcDbEntity
  8
0
100
AcDbVertex
100
AcDb2dVertex
 10
57.418
 20
52.92
 30
0.0
 70
0
  0
VERTEX
  5
DCE
330
A35
100
AcDbEntity
  8
0
100
AcDbVertex
100
AcDb2dVertex
 10
57.418
 20
52.863
 30
0.0
 70
0
  0
VERTEX
  5
DCF
330
A35
100
AcDbEntity
  8
0
100
AcDbVertex
100
AcDb2dVertex
 10
57.362
 20
52.807
 30
0.0
 70
0
  0
VERTEX
  5
DD0
330
A35
100
AcDbEntity
  8
0
100
AcDbVertex
100
AcDb2dVertex
 10
57.305
 20
52.75
 30
0.0
 70
0
  0
VERTEX
  5
DD1
330
A35
100
AcDbEntity
  8
0
100
AcDbVertex
100
AcDb2dVertex
 10
57.25
 20
52.695
 30
0.0
 70
0
  0
VERTEX
  5
DD2
330
A35
100
AcDbEntity
  8
0
100
AcDbVertex
100
AcDb2dVertex
 10
57.193
 20
52.695
 30
0.0
 70
0
  0
VERTEX
  5
DD3
330
A35
100
AcDbEntity
  8
0
100
AcDbVertex
100
AcDb2dVertex
 10
57.193
 20
52.582
 30
0.0
 70
0
  0
VERTEX
  5
DD4
330
A35
100
AcDbEntity
  8
0
100
AcDbVertex
100
AcDb2dVertex
 10
57.08
 20
52.582
 30
0.0
 70
0
  0
VERTEX
  5
DD5
330
A35
100
AcDbEntity
  8
0
100
AcDbVertex
100
AcDb2dVertex
 10
57.08
 20
52.527
 30
0.0
 70
0
  0
VERTEX
  5
DD6
330
A35
100
AcDbEntity
  8
0
100
AcDbVertex
100
AcDb2dVertex
 10
57.025
 20
52.47
 30
0.0
 70
0
  0
VERTEX
  5
DD7
330
A35
100
AcDbEntity
  8
0
100
AcDbVertex
100
AcDb2dVertex
 10
56.969
 20
52.414
 30
0.0
 70
0
  0
VERTEX
  5
DD8
330
A35
100
AcDbEntity
  8
0
100
AcDbVertex
100
AcDb2dVertex
 10
56.912
 20
52.357
 30
0.0
 70
0
  0
VERTEX
  5
DD9
330
A35
100
AcDbEntity
  8
0
100
AcDbVertex
100
AcDb2dVertex
 10
56.857
 20
52.357
 30
0.0
 70
0
  0
VERTEX
  5
DDA
330
A35
100
AcDbEntity
  8
0
100
AcDbVertex
100
AcDb2dVertex
 10
56.801
 20
52.302
 30
0.0
 70
0
  0
VERTEX
  5
DDB
330
A35
100
AcDbEntity
  8
0
100
AcDbVertex
100
AcDb2dVertex
 10
56.744
 20
52.246
 30
0.0
 70
0
  0
VERTEX
  5
DDC
330
A35
100
AcDbEntity
  8
0
100
AcDbVertex
100
AcDb2dVertex
 10
56.687
 20
52.189
 30
0.0
 70
0
  0
VERTEX
  5
DDD
330
A35
100
AcDbEntity
  8
0
100
AcDbVertex
100
AcDb2dVertex
 10
56.632
 20
52.189
 30
0.0
 70
0
  0
VERTEX
  5
DDE
330
A35
100
AcDbEntity
  8
0
100
AcDbVertex
100
AcDb2dVertex
 10
56.576
 20
52.134
 30
0.0
 70
0
  0
VERTEX
  5
DDF
330
A35
100
AcDbEntity
  8
0
100
AcDbVertex
100
AcDb2dVertex
 10
56.519
 20
52.078
 30
0.0
 70
0
  0
VERTEX
  5
DE0
330
A35
100
AcDbEntity
  8
0
100
AcDbVertex
100
AcDb2dVertex
 10
56.464
 20
52.078
 30
0.0
 70
0
  0
VERTEX
  5
DE1
330
A35
100
AcDbEntity
  8
0
100
AcDbVertex
100
AcDb2dVertex
 10
56.408
 20
52.021
 30
0.0
 70
0
  0
VERTEX
  5
DE2
330
A35
100
AcDbEntity
  8
0
100
AcDbVertex
100
AcDb2dVertex
 10
56.351
 20
52.021
 30
0.0
 70
0
  0
VERTEX
  5
DE3
330
A35
100
AcDbEntity
  8
0
100
AcDbVertex
100
AcDb2dVertex
 10
56.351
 20
51.964
 30
0.0
 70
0
  0
VERTEX
  5
DE4
330
A35
100
AcDbEntity
  8
0
100
AcDbVertex
100
AcDb2dVertex
 10
56.24
 20
51.909
 30
0.0
 70
0
  0
VERTEX
  5
DE5
330
A35
100
AcDbEntity
  8
0
100
AcDbVertex
100
AcDb2dVertex
 10
56.183
 20
51.909
 30
0.0
 70
0
  0
VERTEX
  5
DE6
330
A35
100
AcDbEntity
  8
0
100
AcDbVertex
100
AcDb2dVertex
 10
56.183
 20
51.853
 30
0.0
 70
0
  0
VERTEX
  5
DE7
330
A35
100
AcDbEntity
  8
0
100
AcDbVertex
100
AcDb2dVertex
 10
56.015
 20
51.853
 30
0.0
 70
0
  0
VERTEX
  5
DE8
330
A35
100
AcDbEntity
  8
0
100
AcDbVertex
100
AcDb2dVertex
 10
56.015
 20
51.796
 30
0.0
 70
0
  0
VERTEX
  5
DE9
330
A35
100
AcDbEntity
  8
0
100
AcDbVertex
100
AcDb2dVertex
 10
55.902
 20
51.741
 30
0.0
 70
0
  0
VERTEX
  5
DEA
330
A35
100
AcDbEntity
  8
0
100
AcDbVertex
100
AcDb2dVertex
 10
55.847
 20
51.741
 30
0.0
 70
0
  0
VERTEX
  5
DEB
330
A35
100
AcDbEntity
  8
0
100
AcDbVertex
100
AcDb2dVertex
 10
55.733
 20
51.741
 30
0.0
 70
0
  0
VERTEX
  5
DEC
330
A35
100
AcDbEntity
  8
0
100
AcDbVertex
100
AcDb2dVertex
 10
55.679
 20
51.685
 30
0.0
 70
0
  0
VERTEX
  5
DED
330
A35
100
AcDbEntity
  8
0
100
AcDbVertex
100
AcDb2dVertex
 10
55.509
 20
51.685
 30
0.0
 70
0
  0
VERTEX
  5
DEE
330
A35
100
AcDbEntity
  8
0
100
AcDbVertex
100
AcDb2dVertex
 10
55.397
 20
51.628
 30
0.0
 70
0
  0
VERTEX
  5
DEF
330
A35
100
AcDbEntity
  8
0
100
AcDbVertex
100
AcDb2dVertex
 10
55.341
 20
51.628
 30
0.0
 70
0
  0
VERTEX
  5
DF0
330
A35
100
AcDbEntity
  8
0
100
AcDbVertex
100
AcDb2dVertex
 10
55.173
 20
51.628
 30
0.0
 70
0
  0
VERTEX
  5
DF1
330
A35
100
AcDbEntity
  8
0
100
AcDbVertex
100
AcDb2dVertex
 10
55.004
 20
51.628
 30
0.0
 70
0
  0
VERTEX
  5
DF2
330
A35
100
AcDbEntity
  8
0
100
AcDbVertex
100
AcDb2dVertex
 10
54.891
 20
51.628
 30
0.0
 70
0
  0
VERTEX
  5
DF3
330
A35
100
AcDbEntity
  8
0
100
AcDbVertex
100
AcDb2dVertex
 10
54.78
 20
51.628
 30
0.0
 70
0
  0
VERTEX
  5
DF4
330
A35
100
AcDbEntity
  8
0
100
AcDbVertex
100
AcDb2dVertex
 10
54.723
 20
51.685
 30
0.0
 70
0
  0
VERTEX
  5
DF5
330
A35
100
AcDbEntity
  8
0
100
AcDbVertex
100
AcDb2dVertex
 10
54.498
 20
51.685
 30
0.0
 70
0
  0
VERTEX
  5
DF6
330
A35
100
AcDbEntity
  8
0
100
AcDbVertex
100
AcDb2dVertex
 10
54.498
 20
51.741
 30
0.0
 70
0
  0
VERTEX
  5
DF7
330
A35
100
AcDbEntity
  8
0
100
AcDbVertex
100
AcDb2dVertex
 10
54.387
 20
51.741
 30
0.0
 70
0
  0
VERTEX
  5
DF8
330
A35
100
AcDbEntity
  8
0
100
AcDbVertex
100
AcDb2dVertex
 10
54.33
 20
51.741
 30
0.0
 70
0
  0
SEQEND
  5
DC7
330
A35
100
AcDbEntity
  8
0
  0
POLYLINE
  5
DF9
330
A35
100
AcDbEntity
  8
0
100
AcDb2dPolyline
 66
1
 10
0.0
 20
0.0
 30
0.0
 70
0
  0
VERTEX
  5
DFB
330
A35
100
AcDbEntity
  8
0
100
AcDbVertex
100
AcDb2dVertex
 10
5.949
 20
79.354
 30
0.0
 70
0
  0
VERTEX
  5
DFC
330
A35
100
AcDbEntity
  8
0
100
AcDbVertex
100
AcDb2dVertex
 10
5.893
 20
79.411
 30
0.0
 70
0
  0
VERTEX
  5
DFD
330
A35
100
AcDbEntity
  8
0
100
AcDbVertex
100
AcDb2dVertex
 10
5.893
 20
79.524
 30
0.0
 70
0
  0
VERTEX
  5
DFE
330
A35
100
AcDbEntity
  8
0
100
AcDbVertex
100
AcDb2dVertex
 10
5.949
 20
79.524
 30
0.0
 70
0
  0
VERTEX
  5
DFF
330
A35
100
AcDbEntity
  8
0
100
AcDbVertex
100
AcDb2dVertex
 10
5.949
 20
79.636
 30
0.0
 70
0
  0
VERTEX
  5
E00
330
A35
100
AcDbEntity
  8
0
100
AcDbVertex
100
AcDb2dVertex
 10
6.006
 20
79.636
 30
0.0
 70
0
  0
SEQEND
  5
DFA
330
A35
100
AcDbEntity
  8
0
  0
POLYLINE
  5
E01
330
A35
100
AcDbEntity
  8
0
100
AcDb2dPolyline
 66
1
 10
0.0
 20
0.0
 30
0.0
 70
0
  0
VERTEX
  5
E03
330
A35
100
AcDbEntity
  8
0
100
AcDbVertex
100
AcDb2dVertex
 10
2.582
 20
77.84
 30
0.0
 70
0
  0
VERTEX
  5
E04
330
A35
100
AcDbEntity
  8
0
100
AcDbVertex
100
AcDb2dVertex
 10
2.638
 20
77.84
 30
0.0
 70
0
  0
VERTEX
  5
E05
330
A35
100
AcDbEntity
  8
0
100
AcDbVertex
100
AcDb2dVertex
 10
2.693
 20
77.783
 30
0.0
 70
0
  0
VERTEX
  5
E06
330
A35
100
AcDbEntity
  8
0
100
AcDbVertex
100
AcDb2dVertex
 10
2.807
 20
77.783
 30
0.0
 70
0
  0
VERTEX
  5
E07
330
A35
100
AcDbEntity
  8
0
100
AcDbVertex
100
AcDb2dVertex
 10
2.861
 20
77.728
 30
0.0
 70
0
  0
VERTEX
  5
E08
330
A35
100
AcDbEntity
  8
0
100
AcDbVertex
100
AcDb2dVertex
 10
2.918
 20
77.728
 30
0.0
 70
0
  0
VERTEX
  5
E09
330
A35
100
AcDbEntity
  8
0
100
AcDbVertex
100
AcDb2dVertex
 10
2.975
 20
77.671
 30
0.0
 70
0
  0
VERTEX
  5
E0A
330
A35
100
AcDbEntity
  8
0
100
AcDbVertex
100
AcDb2dVertex
 10
3.536
 20
77.671
 30
0.0
 70
0
  0
VERTEX
  5
E0B
330
A35
100
AcDbEntity
  8
0
100
AcDbVertex
100
AcDb2dVertex
 10
3.704
 20
77.671
 30
0.0
 70
0
  0
VERTEX
  5
E0C
330
A35
100
AcDbEntity
  8
0
100
AcDbVertex
100
AcDb2dVertex
 10
3.817
 20
77.728
 30
0.0
 70
0
  0
VERTEX
  5
E0D
330
A35
100
AcDbEntity
  8
0
100
AcDbVertex
100
AcDb2dVertex
 10
3.872
 20
77.728
 30
0.0
 70
0
  0
VERTEX
  5
E0E
330
A35
100
AcDbEntity
  8
0
100
AcDbVertex
100
AcDb2dVertex
 10
3.985
 20
77.783
 30
0.0
 70
0
  0
VERTEX
  5
E0F
330
A35
100
AcDbEntity
  8
0
100
AcDbVertex
100
AcDb2dVertex
 10
4.04
 20
77.783
 30
0.0
 70
0
  0
VERTEX
  5
E10
330
A35
100
AcDbEntity
  8
0
100
AcDbVertex
100
AcDb2dVertex
 10
4.153
 20
77.783
 30
0.0
 70
0
  0
VERTEX
  5
E11
330
A35
100
AcDbEntity
  8
0
100
AcDbVertex
100
AcDb2dVertex
 10
4.21
 20
77.84
 30
0.0
 70
0
  0
VERTEX
  5
E12
330
A35
100
AcDbEntity
  8
0
100
AcDbVertex
100
AcDb2dVertex
 10
4.321
 20
77.84
 30
0.0
 70
0
  0
VERTEX
  5
E13
330
A35
100
AcDbEntity
  8
0
100
AcDbVertex
100
AcDb2dVertex
 10
4.378
 20
77.896
 30
0.0
 70
0
  0
VERTEX
  5
E14
330
A35
100
AcDbEntity
  8
0
100
AcDbVertex
100
AcDb2dVertex
 10
4.378
 20
77.953
 30
0.0
 70
0
  0
VERTEX
  5
E15
330
A35
100
AcDbEntity
  8
0
100
AcDbVertex
100
AcDb2dVertex
 10
4.489
 20
77.953
 30
0.0
 70
0
  0
VERTEX
  5
E16
330
A35
100
AcDbEntity
  8
0
100
AcDbVertex
100
AcDb2dVertex
 10
4.546
 20
78.007
 30
0.0
 70
0
  0
VERTEX
  5
E17
330
A35
100
AcDbEntity
  8
0
100
AcDbVertex
100
AcDb2dVertex
 10
4.658
 20
78.007
 30
0.0
 70
0
  0
VERTEX
  5
E18
330
A35
100
AcDbEntity
  8
0
100
AcDbVertex
100
AcDb2dVertex
 10
4.714
 20
78.064
 30
0.0
 70
0
  0
VERTEX
  5
E19
330
A35
100
AcDbEntity
  8
0
100
AcDbVertex
100
AcDb2dVertex
 10
4.714
 20
78.12
 30
0.0
 70
0
  0
VERTEX
  5
E1A
330
A35
100
AcDbEntity
  8
0
100
AcDbVertex
100
AcDb2dVertex
 10
4.827
 20
78.12
 30
0.0
 70
0
  0
VERTEX
  5
E1B
330
A35
100
AcDbEntity
  8
0
100
AcDbVertex
100
AcDb2dVertex
 10
4.882
 20
78.175
 30
0.0
 70
0
  0
VERTEX
  5
E1C
330
A35
100
AcDbEntity
  8
0
100
AcDbVertex
100
AcDb2dVertex
 10
4.882
 20
78.232
 30
0.0
 70
0
  0
VERTEX
  5
E1D
330
A35
100
AcDbEntity
  8
0
100
AcDbVertex
100
AcDb2dVertex
 10
4.996
 20
78.289
 30
0.0
 70
0
  0
VERTEX
  5
E1E
330
A35
100
AcDbEntity
  8
0
100
AcDbVertex
100
AcDb2dVertex
 10
5.05
 20
78.345
 30
0.0
 70
0
  0
VERTEX
  5
E1F
330
A35
100
AcDbEntity
  8
0
100
AcDbVertex
100
AcDb2dVertex
 10
5.164
 20
78.4
 30
0.0
 70
0
  0
VERTEX
  5
E20
330
A35
100
AcDbEntity
  8
0
100
AcDbVertex
100
AcDb2dVertex
 10
5.164
 20
78.457
 30
0.0
 70
0
  0
VERTEX
  5
E21
330
A35
100
AcDbEntity
  8
0
100
AcDbVertex
100
AcDb2dVertex
 10
5.22
 20
78.457
 30
0.0
 70
0
  0
VERTEX
  5
E22
330
A35
100
AcDbEntity
  8
0
100
AcDbVertex
100
AcDb2dVertex
 10
5.275
 20
78.514
 30
0.0
 70
0
  0
VERTEX
  5
E23
330
A35
100
AcDbEntity
  8
0
100
AcDbVertex
100
AcDb2dVertex
 10
5.332
 20
78.568
 30
0.0
 70
0
  0
VERTEX
  5
E24
330
A35
100
AcDbEntity
  8
0
100
AcDbVertex
100
AcDb2dVertex
 10
5.388
 20
78.625
 30
0.0
 70
0
  0
VERTEX
  5
E25
330
A35
100
AcDbEntity
  8
0
100
AcDbVertex
100
AcDb2dVertex
 10
5.443
 20
78.682
 30
0.0
 70
0
  0
VERTEX
  5
E26
330
A35
100
AcDbEntity
  8
0
100
AcDbVertex
100
AcDb2dVertex
 10
5.5
 20
78.682
 30
0.0
 70
0
  0
VERTEX
  5
E27
330
A35
100
AcDbEntity
  8
0
100
AcDbVertex
100
AcDb2dVertex
 10
5.557
 20
78.793
 30
0.0
 70
0
  0
VERTEX
  5
E28
330
A35
100
AcDbEntity
  8
0
100
AcDbVertex
100
AcDb2dVertex
 10
5.613
 20
78.85
 30
0.0
 70
0
  0
VERTEX
  5
E29
330
A35
100
AcDbEntity
  8
0
100
AcDbVertex
100
AcDb2dVertex
 10
5.668
 20
78.961
 30
0.0
 70
0
  0
VERTEX
  5
E2A
330
A35
100
AcDbEntity
  8
0
100
AcDbVertex
100
AcDb2dVertex
 10
5.725
 20
78.961
 30
0.0
 70
0
  0
VERTEX
  5
E2B
330
A35
100
AcDbEntity
  8
0
100
AcDbVertex
100
AcDb2dVertex
 10
5.725
 20
79.018
 30
0.0
 70
0
  0
VERTEX
  5
E2C
330
A35
100
AcDbEntity
  8
0
100
AcDbVertex
100
AcDb2dVertex
 10
5.836
 20
79.131
 30
0.0
 70
0
  0
VERTEX
  5
E2D
330
A35
100
AcDbEntity
  8
0
100
AcDbVertex
100
AcDb2dVertex
 10
5.836
 20
79.186
 30
0.0
 70
0
  0
SEQEND
  5
E02
330
A35
100
AcDbEntity
  8
0
  0
POLYLINE
  5
E2E
330
A35
100
AcDbEntity
  8
0
100
AcDb2dPolyline
 66
1
 10
0.0
 20
0.0
 30
0.0
 70
0
  0
VERTEX
  5
E30
330
A35
100
AcDbEntity
  8
0
100
AcDbVertex
100
AcDb2dVertex
 10
1.908
 20
78.457
 30
0.0
 70
0
  0
VERTEX
  5
E31
330
A35
100
AcDbEntity
  8
0
100
AcDbVertex
100
AcDb2dVertex
 10
1.908
 20
78.514
 30
0.0
 70
0
  0
VERTEX
  5
E32
330
A35
100
AcDbEntity
  8
0
100
AcDbVertex
100
AcDb2dVertex
 10
1.964
 20
78.514
 30
0.0
 70
0
  0
SEQEND
  5
E2F
330
A35
100
AcDbEntity
  8
0
  0
POLYLINE
  5
E33
330
A35
100
AcDbEntity
  8
0
100
AcDb2dPolyline
 66
1
 10
0.0
 20
0.0
 30
0.0
 70
0
  0
VERTEX
  5
E35
330
A35
100
AcDbEntity
  8
0
100
AcDbVertex
100
AcDb2dVertex
 10
7.577
 20
79.074
 30
0.0
 70
0
  0
VERTEX
  5
E36
330
A35
100
AcDbEntity
  8
0
100
AcDbVertex
100
AcDb2dVertex
 10
7.632
 20
79.074
 30
0.0
 70
0
  0
VERTEX
  5
E37
330
A35
100
AcDbEntity
  8
0
100
AcDbVertex
100
AcDb2dVertex
 10
7.689
 20
79.074
 30
0.0
 70
0
  0
VERTEX
  5
E38
330
A35
100
AcDbEntity
  8
0
100
AcDbVertex
100
AcDb2dVertex
 10
7.689
 20
79.186
 30
0.0
 70
0
  0
SEQEND
  5
E34
330
A35
100
AcDbEntity
  8
0
  0
POLYLINE
  5
E39
330
A35
100
AcDbEntity
  8
0
100
AcDb2dPolyline
 66
1
 10
0.0
 20
0.0
 30
0.0
 70
0
  0
VERTEX
  5
E3B
330
A35
100
AcDbEntity
  8
0
100
AcDbVertex
100
AcDb2dVertex
 10
2.132
 20
78.568
 30
0.0
 70
0
  0
VERTEX
  5
E3C
330
A35
100
AcDbEntity
  8
0
100
AcDbVertex
100
AcDb2dVertex
 10
2.132
 20
78.625
 30
0.0
 70
0
  0
VERTEX
  5
E3D
330
A35
100
AcDbEntity
  8
0
100
AcDbVertex
100
AcDb2dVertex
 10
2.189
 20
78.625
 30
0.0
 70
0
  0
SEQEND
  5
E3A
330
A35
100
AcDbEntity
  8
0
  0
POLYLINE
  5
E3E
330
A35
100
AcDbEntity
  8
0
100
AcDb2dPolyline
 66
1
 10
0.0
 20
0.0
 30
0.0
 70
0
  0
VERTEX
  5
E40
330
A35
100
AcDbEntity
  8
0
100
AcDbVertex
100
AcDb2dVertex
 10
57.811
 20
55.164
 30
0.0
 70
0
  0
VERTEX
  5
E41
330
A35
100
AcDbEntity
  8
0
100
AcDbVertex
100
AcDb2dVertex
 10
57.866
 20
55.164
 30
0.0
 70
0
  0
VERTEX
  5
E42
330
A35
100
AcDbEntity
  8
0
100
AcDbVertex
100
AcDb2dVertex
 10
57.866
 20
55.109
 30
0.0
 70
0
  0
SEQEND
  5
E3F
330
A35
100
AcDbEntity
  8
0
  0
POLYLINE
  5
E43
330
A35
100
AcDbEntity
  8
0
100
AcDb2dPolyline
 66
1
 10
0.0
 20
0.0
 30
0.0
 70
0
  0
VERTEX
  5
E45
330
A35
100
AcDbEntity
  8
0
100
AcDbVertex
100
AcDb2dVertex
 10
0.057
 20
76.38
 30
0.0
 70
0
  0
VERTEX
  5
E46
330
A35
100
AcDbEntity
  8
0
100
AcDbVertex
100
AcDb2dVertex
 10
0.057
 20
76.381
 30
0.0
 70
0
  0
VERTEX
  5
E47
330
A35
100
AcDbEntity
  8
0
100
AcDbVertex
100
AcDb2dVertex
 10
0.057
 20
76.382
 30
0.0
 70
0
  0
VERTEX
  5
E48
330
A35
100
AcDbEntity
  8
0
100
AcDbVertex
100
AcDb2dVertex
 10
0.057
 20
76.383
 30
0.0
 70
0
  0
VERTEX
  5
E49
330
A35
100
AcDbEntity
  8
0
100
AcDbVertex
100
AcDb2dVertex
 10
0.057
 20
76.384
 30
0.0
 70
0
  0
VERTEX
  5
E4A
330
A35
100
AcDbEntity
  8
0
100
AcDbVertex
100
AcDb2dVertex
 10
0.057
 20
76.385
 30
0.0
 70
0
  0
VERTEX
  5
E4B
330
A35
100
AcDbEntity
  8
0
100
AcDbVertex
100
AcDb2dVertex
 10
0.057
 20
76.386
 30
0.0
 70
0
  0
VERTEX
  5
E4C
330
A35
100
AcDbEntity
  8
0
100
AcDbVertex
100
AcDb2dVertex
 10
0.057
 20
76.387
 30
0.0
 70
0
  0
VERTEX
  5
E4D
330
A35
100
AcDbEntity
  8
0
100
AcDbVertex
100
AcDb2dVertex
 10
0.057
 20
76.388
 30
0.0
 70
0
  0
VERTEX
  5
E4E
330
A35
100
AcDbEntity
  8
0
100
AcDbVertex
100
AcDb2dVertex
 10
0.057
 20
76.389
 30
0.0
 70
0
  0
VERTEX
  5
E4F
330
A35
100
AcDbEntity
  8
0
100
AcDbVertex
100
AcDb2dVertex
 10
0.057
 20
76.39
 30
0.0
 70
0
  0
VERTEX
  5
E50
330
A35
100
AcDbEntity
  8
0
100
AcDbVertex
100
AcDb2dVertex
 10
0.057
 20
76.391
 30
0.0
 70
0
  0
VERTEX
  5
E51
330
A35
100
AcDbEntity
  8
0
100
AcDbVertex
100
AcDb2dVertex
 10
0.057
 20
76.392
 30
0.0
 70
0
  0
VERTEX
  5
E52
330
A35
100
AcDbEntity
  8
0
100
AcDbVertex
100
AcDb2dVertex
 10
0.057
 20
76.393
 30
0.0
 70
0
  0
VERTEX
  5
E53
330
A35
100
AcDbEntity
  8
0
100
AcDbVertex
100
AcDb2dVertex
 10
0.057
 20
76.394
 30
0.0
 70
0
  0
VERTEX
  5
E54
330
A35
100
AcDbEntity
  8
0
100
AcDbVertex
100
AcDb2dVertex
 10
0.057
 20
76.395
 30
0.0
 70
0
  0
VERTEX
  5
E55
330
A35
100
AcDbEntity
  8
0
100
AcDbVertex
100
AcDb2dVertex
 10
0.057
 20
76.396
 30
0.0
 70
0
  0
VERTEX
  5
E56
330
A35
100
AcDbEntity
  8
0
100
AcDbVertex
100
AcDb2dVertex
 10
0.057
 20
76.397
 30
0.0
 70
0
  0
VERTEX
  5
E57
330
A35
100
AcDbEntity
  8
0
100
AcDbVertex
100
AcDb2dVertex
 10
0.057
 20
76.398
 30
0.0
 70
0
  0
VERTEX
  5
E58
330
A35
100
AcDbEntity
  8
0
100
AcDbVertex
100
AcDb2dVertex
 10
0.057
 20
76.399
 30
0.0
 70
0
  0
VERTEX
  5
E59
330
A35
100
AcDbEntity
  8
0
100
AcDbVertex
100
AcDb2dVertex
 10
0.057
 20
76.4
 30
0.0
 70
0
  0
VERTEX
  5
E5A
330
A35
100
AcDbEntity
  8
0
100
AcDbVertex
100
AcDb2dVertex
 10
0.057
 20
76.401
 30
0.0
 70
0
  0
VERTEX
  5
E5B
330
A35
100
AcDbEntity
  8
0
100
AcDbVertex
100
AcDb2dVertex
 10
0.057
 20
76.402
 30
0.0
 70
0
  0
VERTEX
  5
E5C
330
A35
100
AcDbEntity
  8
0
100
AcDbVertex
100
AcDb2dVertex
 10
0.057
 20
76.403
 30
0.0
 70
0
  0
VERTEX
  5
E5D
330
A35
100
AcDbEntity
  8
0
100
AcDbVertex
100
AcDb2dVertex
 10
0.057
 20
76.404
 30
0.0
 70
0
  0
VERTEX
  5
E5E
330
A35
100
AcDbEntity
  8
0
100
AcDbVertex
100
AcDb2dVertex
 10
0.057
 20
76.405
 30
0.0
 70
0
  0
VERTEX
  5
E5F
330
A35
100
AcDbEntity
  8
0
100
AcDbVertex
100
AcDb2dVertex
 10
0.057
 20
76.406
 30
0.0
 70
0
  0
VERTEX
  5
E60
330
A35
100
AcDbEntity
  8
0
100
AcDbVertex
100
AcDb2dVertex
 10
0.057
 20
76.407
 30
0.0
 70
0
  0
VERTEX
  5
E61
330
A35
100
AcDbEntity
  8
0
100
AcDbVertex
100
AcDb2dVertex
 10
0.057
 20
76.408
 30
0.0
 70
0
  0
VERTEX
  5
E62
330
A35
100
AcDbEntity
  8
0
100
AcDbVertex
100
AcDb2dVertex
 10
0.057
 20
76.409
 30
0.0
 70
0
  0
VERTEX
  5
E63
330
A35
100
AcDbEntity
  8
0
100
AcDbVertex
100
AcDb2dVertex
 10
0.057
 20
76.41
 30
0.0
 70
0
  0
VERTEX
  5
E64
330
A35
100
AcDbEntity
  8
0
100
AcDbVertex
100
AcDb2dVertex
 10
0.057
 20
76.411
 30
0.0
 70
0
  0
VERTEX
  5
E65
330
A35
100
AcDbEntity
  8
0
100
AcDbVertex
100
AcDb2dVertex
 10
0.057
 20
76.412
 30
0.0
 70
0
  0
VERTEX
  5
E66
330
A35
100
AcDbEntity
  8
0
100
AcDbVertex
100
AcDb2dVertex
 10
0.057
 20
76.413
 30
0.0
 70
0
  0
VERTEX
  5
E67
330
A35
100
AcDbEntity
  8
0
100
AcDbVertex
100
AcDb2dVertex
 10
0.057
 20
76.414
 30
0.0
 70
0
  0
VERTEX
  5
E68
330
A35
100
AcDbEntity
  8
0
100
AcDbVertex
100
AcDb2dVertex
 10
0.057
 20
76.415
 30
0.0
 70
0
  0
VERTEX
  5
E69
330
A35
100
AcDbEntity
  8
0
100
AcDbVertex
100
AcDb2dVertex
 10
0.057
 20
76.416
 30
0.0
 70
0
  0
VERTEX
  5
E6A
330
A35
100
AcDbEntity
  8
0
100
AcDbVertex
100
AcDb2dVertex
 10
0.057
 20
76.417
 30
0.0
 70
0
  0
VERTEX
  5
E6B
330
A35
100
AcDbEntity
  8
0
100
AcDbVertex
100
AcDb2dVertex
 10
0.057
 20
76.418
 30
0.0
 70
0
  0
VERTEX
  5
E6C
330
A35
100
AcDbEntity
  8
0
100
AcDbVertex
100
AcDb2dVertex
 10
0.057
 20
76.419
 30
0.0
 70
0
  0
VERTEX
  5
E6D
330
A35
100
AcDbEntity
  8
0
100
AcDbVertex
100
AcDb2dVertex
 10
0.057
 20
76.42
 30
0.0
 70
0
  0
VERTEX
  5
E6E
330
A35
100
AcDbEntity
  8
0
100
AcDbVertex
100
AcDb2dVertex
 10
0.057
 20
76.421
 30
0.0
 70
0
  0
VERTEX
  5
E6F
330
A35
100
AcDbEntity
  8
0
100
AcDbVertex
100
AcDb2dVertex
 10
0.057
 20
76.422
 30
0.0
 70
0
  0
VERTEX
  5
E70
330
A35
100
AcDbEntity
  8
0
100
AcDbVertex
100
AcDb2dVertex
 10
0.057
 20
76.423
 30
0.0
 70
0
  0
VERTEX
  5
E71
330
A35
100
AcDbEntity
  8
0
100
AcDbVertex
100
AcDb2dVertex
 10
0.057
 20
76.424
 30
0.0
 70
0
  0
VERTEX
  5
E72
330
A35
100
AcDbEntity
  8
0
100
AcDbVertex
100
AcDb2dVertex
 10
0.057
 20
76.425
 30
0.0
 70
0
  0
VERTEX
  5
E73
330
A35
100
AcDbEntity
  8
0
100
AcDbVertex
100
AcDb2dVertex
 10
0.057
 20
76.426
 30
0.0
 70
0
  0
VERTEX
  5
E74
330
A35
100
AcDbEntity
  8
0
100
AcDbVertex
100
AcDb2dVertex
 10
0.057
 20
76.427
 30
0.0
 70
0
  0
VERTEX
  5
E75
330
A35
100
AcDbEntity
  8
0
100
AcDbVertex
100
AcDb2dVertex
 10
0.057
 20
76.428
 30
0.0
 70
0
  0
VERTEX
  5
E76
330
A35
100
AcDbEntity
  8
0
100
AcDbVertex
100
AcDb2dVertex
 10
0.057
 20
76.429
 30
0.0
 70
0
  0
VERTEX
  5
E77
330
A35
100
AcDbEntity
  8
0
100
AcDbVertex
100
AcDb2dVertex
 10
0.057
 20
76.43
 30
0.0
 70
0
  0
VERTEX
  5
E78
330
A35
100
AcDbEntity
  8
0
100
AcDbVertex
100
AcDb2dVertex
 10
0.057
 20
76.431
 30
0.0
 70
0
  0
VERTEX
  5
E79
330
A35
100
AcDbEntity
  8
0
100
AcDbVertex
100
AcDb2dVertex
 10
0.057
 20
76.432
 30
0.0
 70
0
  0
VERTEX
  5
E7A
330
A35
100
AcDbEntity
  8
0
100
AcDbVertex
100
AcDb2dVertex
 10
0.057
 20
76.433
 30
0.0
 70
0
  0
VERTEX
  5
E7B
330
A35
100
AcDbEntity
  8
0
100
AcDbVertex
100
AcDb2dVertex
 10
0.057
 20
76.434
 30
0.0
 70
0
  0
VERTEX
  5
E7C
330
A35
100
AcDbEntity
  8
0
100
AcDbVertex
100
AcDb2dVertex
 10
0.057
 20
76.435
 30
0.0
 70
0
  0
VERTEX
  5
E7D
330
A35
100
AcDbEntity
  8
0
100
AcDbVertex
100
AcDb2dVertex
 10
0.057
 20
76.436
 30
0.0
 70
0
  0
VERTEX
  5
E7E
330
A35
100
AcDbEntity
  8
0
100
AcDbVertex
100
AcDb2dVertex
 10
0.056
 20
76.436
 30
0.0
 70
0
  0
VERTEX
  5
E7F
330
A35
100
AcDbEntity
  8
0
100
AcDbVertex
100
AcDb2dVertex
 10
0.055
 20
76.436
 30
0.0
 70
0
  0
VERTEX
  5
E80
330
A35
100
AcDbEntity
  8
0
100
AcDbVertex
100
AcDb2dVertex
 10
0.054
 20
76.436
 30
0.0
 70
0
  0
VERTEX
  5
E81
330
A35
100
AcDbEntity
  8
0
100
AcDbVertex
100
AcDb2dVertex
 10
0.053
 20
76.436
 30
0.0
 70
0
  0
VERTEX
  5
E82
330
A35
100
AcDbEntity
  8
0
100
AcDbVertex
100
AcDb2dVertex
 10
0.052
 20
76.436
 30
0.0
 70
0
  0
VERTEX
  5
E83
330
A35
100
AcDbEntity
  8
0
100
AcDbVertex
100
AcDb2dVertex
 10
0.051
 20
76.436
 30
0.0
 70
0
  0
VERTEX
  5
E84
330
A35
100
AcDbEntity
  8
0
100
AcDbVertex
100
AcDb2dVertex
 10
0.05
 20
76.436
 30
0.0
 70
0
  0
VERTEX
  5
E85
330
A35
100
AcDbEntity
  8
0
100
AcDbVertex
100
AcDb2dVertex
 10
0.049
 20
76.436
 30
0.0
 70
0
  0
VERTEX
  5
E86
330
A35
100
AcDbEntity
  8
0
100
AcDbVertex
100
AcDb2dVertex
 10
0.048
 20
76.436
 30
0.0
 70
0
  0
VERTEX
  5
E87
330
A35
100
AcDbEntity
  8
0
100
AcDbVertex
100
AcDb2dVertex
 10
0.047
 20
76.436
 30
0.0
 70
0
  0
VERTEX
  5
E88
330
A35
100
AcDbEntity
  8
0
100
AcDbVertex
100
AcDb2dVertex
 10
0.046
 20
76.436
 30
0.0
 70
0
  0
VERTEX
  5
E89
330
A35
100
AcDbEntity
  8
0
100
AcDbVertex
100
AcDb2dVertex
 10
0.045
 20
76.436
 30
0.0
 70
0
  0
VERTEX
  5
E8A
330
A35
100
AcDbEntity
  8
0
100
AcDbVertex
100
AcDb2dVertex
 10
0.044
 20
76.436
 30
0.0
 70
0
  0
VERTEX
  5
E8B
330
A35
100
AcDbEntity
  8
0
100
AcDbVertex
100
AcDb2dVertex
 10
0.043
 20
76.436
 30
0.0
 70
0
  0
VERTEX
  5
E8C
330
A35
100
AcDbEntity
  8
0
100
AcDbVertex
100
AcDb2dVertex
 10
0.042
 20
76.436
 30
0.0
 70
0
  0
VERTEX
  5
E8D
330
A35
100
AcDbEntity
  8
0
100
AcDbVertex
100
AcDb2dVertex
 10
0.041
 20
76.436
 30
0.0
 70
0
  0
VERTEX
  5
E8E
330
A35
100
AcDbEntity
  8
0
100
AcDbVertex
100
AcDb2dVertex
 10
0.04
 20
76.436
 30
0.0
 70
0
  0
VERTEX
  5
E8F
330
A35
100
AcDbEntity
  8
0
100
AcDbVertex
100
AcDb2dVertex
 10
0.039
 20
76.436
 30
0.0
 70
0
  0
VERTEX
  5
E90
330
A35
100
AcDbEntity
  8
0
100
AcDbVertex
100
AcDb2dVertex
 10
0.038
 20
76.436
 30
0.0
 70
0
  0
VERTEX
  5
E91
330
A35
100
AcDbEntity
  8
0
100
AcDbVertex
100
AcDb2dVertex
 10
0.037
 20
76.436
 30
0.0
 70
0
  0
VERTEX
  5
E92
330
A35
100
AcDbEntity
  8
0
100
AcDbVertex
100
AcDb2dVertex
 10
0.036
 20
76.436
 30
0.0
 70
0
  0
VERTEX
  5
E93
330
A35
100
AcDbEntity
  8
0
100
AcDbVertex
100
AcDb2dVertex
 10
0.035
 20
76.436
 30
0.0
 70
0
  0
VERTEX
  5
E94
330
A35
100
AcDbEntity
  8
0
100
AcDbVertex
100
AcDb2dVertex
 10
0.034
 20
76.436
 30
0.0
 70
0
  0
VERTEX
  5
E95
330
A35
100
AcDbEntity
  8
0
100
AcDbVertex
100
AcDb2dVertex
 10
0.033
 20
76.436
 30
0.0
 70
0
  0
VERTEX
  5
E96
330
A35
100
AcDbEntity
  8
0
100
AcDbVertex
100
AcDb2dVertex
 10
0.032
 20
76.436
 30
0.0
 70
0
  0
VERTEX
  5
E97
330
A35
100
AcDbEntity
  8
0
100
AcDbVertex
100
AcDb2dVertex
 10
0.031
 20
76.436
 30
0.0
 70
0
  0
VERTEX
  5
E98
330
A35
100
AcDbEntity
  8
0
100
AcDbVertex
100
AcDb2dVertex
 10
0.03
 20
76.436
 30
0.0
 70
0
  0
VERTEX
  5
E99
330
A35
100
AcDbEntity
  8
0
100
AcDbVertex
100
AcDb2dVertex
 10
0.029
 20
76.436
 30
0.0
 70
0
  0
VERTEX
  5
E9A
330
A35
100
AcDbEntity
  8
0
100
AcDbVertex
100
AcDb2dVertex
 10
0.028
 20
76.436
 30
0.0
 70
0
  0
VERTEX
  5
E9B
330
A35
100
AcDbEntity
  8
0
100
AcDbVertex
100
AcDb2dVertex
 10
0.027
 20
76.436
 30
0.0
 70
0
  0
VERTEX
  5
E9C
330
A35
100
AcDbEntity
  8
0
100
AcDbVertex
100
AcDb2dVertex
 10
0.026
 20
76.436
 30
0.0
 70
0
  0
VERTEX
  5
E9D
330
A35
100
AcDbEntity
  8
0
100
AcDbVertex
100
AcDb2dVertex
 10
0.025
 20
76.436
 30
0.0
 70
0
  0
VERTEX
  5
E9E
330
A35
100
AcDbEntity
  8
0
100
AcDbVertex
100
AcDb2dVertex
 10
0.024
 20
76.436
 30
0.0
 70
0
  0
VERTEX
  5
E9F
330
A35
100
AcDbEntity
  8
0
100
AcDbVertex
100
AcDb2dVertex
 10
0.023
 20
76.436
 30
0.0
 70
0
  0
VERTEX
  5
EA0
330
A35
100
AcDbEntity
  8
0
100
AcDbVertex
100
AcDb2dVertex
 10
0.022
 20
76.436
 30
0.0
 70
0
  0
VERTEX
  5
EA1
330
A35
100
AcDbEntity
  8
0
100
AcDbVertex
100
AcDb2dVertex
 10
0.021
 20
76.436
 30
0.0
 70
0
  0
VERTEX
  5
EA2
330
A35
100
AcDbEntity
  8
0
100
AcDbVertex
100
AcDb2dVertex
 10
0.02
 20
76.436
 30
0.0
 70
0
  0
VERTEX
  5
EA3
330
A35
100
AcDbEntity
  8
0
100
AcDbVertex
100
AcDb2dVertex
 10
0.019
 20
76.436
 30
0.0
 70
0
  0
VERTEX
  5
EA4
330
A35
100
AcDbEntity
  8
0
100
AcDbVertex
100
AcDb2dVertex
 10
0.018
 20
76.436
 30
0.0
 70
0
  0
VERTEX
  5
EA5
330
A35
100
AcDbEntity
  8
0
100
AcDbVertex
100
AcDb2dVertex
 10
0.017
 20
76.436
 30
0.0
 70
0
  0
VERTEX
  5
EA6
330
A35
100
AcDbEntity
  8
0
100
AcDbVertex
100
AcDb2dVertex
 10
0.016
 20
76.436
 30
0.0
 70
0
  0
VERTEX
  5
EA7
330
A35
100
AcDbEntity
  8
0
100
AcDbVertex
100
AcDb2dVertex
 10
0.015
 20
76.436
 30
0.0
 70
0
  0
VERTEX
  5
EA8
330
A35
100
AcDbEntity
  8
0
100
AcDbVertex
100
AcDb2dVertex
 10
0.014
 20
76.436
 30
0.0
 70
0
  0
VERTEX
  5
EA9
330
A35
100
AcDbEntity
  8
0
100
AcDbVertex
100
AcDb2dVertex
 10
0.013
 20
76.436
 30
0.0
 70
0
  0
VERTEX
  5
EAA
330
A35
100
AcDbEntity
  8
0
100
AcDbVertex
100
AcDb2dVertex
 10
0.012
 20
76.436
 30
0.0
 70
0
  0
VERTEX
  5
EAB
330
A35
100
AcDbEntity
  8
0
100
AcDbVertex
100
AcDb2dVertex
 10
0.011
 20
76.436
 30
0.0
 70
0
  0
VERTEX
  5
EAC
330
A35
100
AcDbEntity
  8
0
100
AcDbVertex
100
AcDb2dVertex
 10
0.01
 20
76.436
 30
0.0
 70
0
  0
VERTEX
  5
EAD
330
A35
100
AcDbEntity
  8
0
100
AcDbVertex
100
AcDb2dVertex
 10
0.009
 20
76.436
 30
0.0
 70
0
  0
VERTEX
  5
EAE
330
A35
100
AcDbEntity
  8
0
100
AcDbVertex
100
AcDb2dVertex
 10
0.008
 20
76.436
 30
0.0
 70
0
  0
VERTEX
  5
EAF
330
A35
100
AcDbEntity
  8
0
100
AcDbVertex
100
AcDb2dVertex
 10
0.007
 20
76.436
 30
0.0
 70
0
  0
VERTEX
  5
EB0
330
A35
100
AcDbEntity
  8
0
100
AcDbVertex
100
AcDb2dVertex
 10
0.006
 20
76.436
 30
0.0
 70
0
  0
VERTEX
  5
EB1
330
A35
100
AcDbEntity
  8
0
100
AcDbVertex
100
AcDb2dVertex
 10
0.005
 20
76.436
 30
0.0
 70
0
  0
VERTEX
  5
EB2
330
A35
100
AcDbEntity
  8
0
100
AcDbVertex
100
AcDb2dVertex
 10
0.004
 20
76.436
 30
0.0
 70
0
  0
VERTEX
  5
EB3
330
A35
100
AcDbEntity
  8
0
100
AcDbVertex
100
AcDb2dVertex
 10
0.003
 20
76.436
 30
0.0
 70
0
  0
VERTEX
  5
EB4
330
A35
100
AcDbEntity
  8
0
100
AcDbVertex
100
AcDb2dVertex
 10
0.002
 20
76.436
 30
0.0
 70
0
  0
VERTEX
  5
EB5
330
A35
100
AcDbEntity
  8
0
100
AcDbVertex
100
AcDb2dVertex
 10
0.001
 20
76.436
 30
0.0
 70
0
  0
VERTEX
  5
EB6
330
A35
100
AcDbEntity
  8
0
100
AcDbVertex
100
AcDb2dVertex
 10
0.0
 20
76.436
 30
0.0
 70
0
  0
VERTEX
  5
EB7
330
A35
100
AcDbEntity
  8
0
100
AcDbVertex
100
AcDb2dVertex
 10
0.001
 20
76.436
 30
0.0
 70
0
  0
VERTEX
  5
EB8
330
A35
100
AcDbEntity
  8
0
100
AcDbVertex
100
AcDb2dVertex
 10
0.002
 20
76.436
 30
0.0
 70
0
  0
VERTEX
  5
EB9
330
A35
100
AcDbEntity
  8
0
100
AcDbVertex
100
AcDb2dVertex
 10
0.003
 20
76.436
 30
0.0
 70
0
  0
VERTEX
  5
EBA
330
A35
100
AcDbEntity
  8
0
100
AcDbVertex
100
AcDb2dVertex
 10
0.004
 20
76.436
 30
0.0
 70
0
  0
VERTEX
  5
EBB
330
A35
100
AcDbEntity
  8
0
100
AcDbVertex
100
AcDb2dVertex
 10
0.005
 20
76.436
 30
0.0
 70
0
  0
VERTEX
  5
EBC
330
A35
100
AcDbEntity
  8
0
100
AcDbVertex
100
AcDb2dVertex
 10
0.006
 20
76.436
 30
0.0
 70
0
  0
VERTEX
  5
EBD
330
A35
100
AcDbEntity
  8
0
100
AcDbVertex
100
AcDb2dVertex
 10
0.007
 20
76.436
 30
0.0
 70
0
  0
VERTEX
  5
EBE
330
A35
100
AcDbEntity
  8
0
100
AcDbVertex
100
AcDb2dVertex
 10
0.008
 20
76.436
 30
0.0
 70
0
  0
VERTEX
  5
EBF
330
A35
100
AcDbEntity
  8
0
100
AcDbVertex
100
AcDb2dVertex
 10
0.009
 20
76.436
 30
0.0
 70
0
  0
VERTEX
  5
EC0
330
A35
100
AcDbEntity
  8
0
100
AcDbVertex
100
AcDb2dVertex
 10
0.01
 20
76.436
 30
0.0
 70
0
  0
VERTEX
  5
EC1
330
A35
100
AcDbEntity
  8
0
100
AcDbVertex
100
AcDb2dVertex
 10
0.011
 20
76.436
 30
0.0
 70
0
  0
VERTEX
  5
EC2
330
A35
100
AcDbEntity
  8
0
100
AcDbVertex
100
AcDb2dVertex
 10
0.012
 20
76.436
 30
0.0
 70
0
  0
VERTEX
  5
EC3
330
A35
100
AcDbEntity
  8
0
100
AcDbVertex
100
AcDb2dVertex
 10
0.013
 20
76.436
 30
0.0
 70
0
  0
VERTEX
  5
EC4
330
A35
100
AcDbEntity
  8
0
100
AcDbVertex
100
AcDb2dVertex
 10
0.014
 20
76.436
 30
0.0
 70
0
  0
VERTEX
  5
EC5
330
A35
100
AcDbEntity
  8
0
100
AcDbVertex
100
AcDb2dVertex
 10
0.015
 20
76.436
 30
0.0
 70
0
  0
VERTEX
  5
EC6
330
A35
100
AcDbEntity
  8
0
100
AcDbVertex
100
AcDb2dVertex
 10
0.016
 20
76.436
 30
0.0
 70
0
  0
VERTEX
  5
EC7
330
A35
100
AcDbEntity
  8
0
100
AcDbVertex
100
AcDb2dVertex
 10
0.017
 20
76.436
 30
0.0
 70
0
  0
VERTEX
  5
EC8
330
A35
100
AcDbEntity
  8
0
100
AcDbVertex
100
AcDb2dVertex
 10
0.018
 20
76.436
 30
0.0
 70
0
  0
VERTEX
  5
EC9
330
A35
100
AcDbEntity
  8
0
100
AcDbVertex
100
AcDb2dVertex
 10
0.019
 20
76.436
 30
0.0
 70
0
  0
VERTEX
  5
ECA
330
A35
100
AcDbEntity
  8
0
100
AcDbVertex
100
AcDb2dVertex
 10
0.02
 20
76.436
 30
0.0
 70
0
  0
VERTEX
  5
ECB
330
A35
100
AcDbEntity
  8
0
100
AcDbVertex
100
AcDb2dVertex
 10
0.021
 20
76.436
 30
0.0
 70
0
  0
VERTEX
  5
ECC
330
A35
100
AcDbEntity
  8
0
100
AcDbVertex
100
AcDb2dVertex
 10
0.022
 20
76.436
 30
0.0
 70
0
  0
VERTEX
  5
ECD
330
A35
100
AcDbEntity
  8
0
100
AcDbVertex
100
AcDb2dVertex
 10
0.023
 20
76.436
 30
0.0
 70
0
  0
VERTEX
  5
ECE
330
A35
100
AcDbEntity
  8
0
100
AcDbVertex
100
AcDb2dVertex
 10
0.024
 20
76.436
 30
0.0
 70
0
  0
VERTEX
  5
ECF
330
A35
100
AcDbEntity
  8
0
100
AcDbVertex
100
AcDb2dVertex
 10
0.025
 20
76.436
 30
0.0
 70
0
  0
VERTEX
  5
ED0
330
A35
100
AcDbEntity
  8
0
100
AcDbVertex
100
AcDb2dVertex
 10
0.026
 20
76.436
 30
0.0
 70
0
  0
VERTEX
  5
ED1
330
A35
100
AcDbEntity
  8
0
100
AcDbVertex
100
AcDb2dVertex
 10
0.027
 20
76.436
 30
0.0
 70
0
  0
VERTEX
  5
ED2
330
A35
100
AcDbEntity
  8
0
100
AcDbVertex
100
AcDb2dVertex
 10
0.028
 20
76.436
 30
0.0
 70
0
  0
VERTEX
  5
ED3
330
A35
100
AcDbEntity
  8
0
100
AcDbVertex
100
AcDb2dVertex
 10
0.029
 20
76.436
 30
0.0
 70
0
  0
VERTEX
  5
ED4
330
A35
100
AcDbEntity
  8
0
100
AcDbVertex
100
AcDb2dVertex
 10
0.03
 20
76.436
 30
0.0
 70
0
  0
VERTEX
  5
ED5
330
A35
100
AcDbEntity
  8
0
100
AcDbVertex
100
AcDb2dVertex
 10
0.031
 20
76.436
 30
0.0
 70
0
  0
VERTEX
  5
ED6
330
A35
100
AcDbEntity
  8
0
100
AcDbVertex
100
AcDb2dVertex
 10
0.032
 20
76.436
 30
0.0
 70
0
  0
VERTEX
  5
ED7
330
A35
100
AcDbEntity
  8
0
100
AcDbVertex
100
AcDb2dVertex
 10
0.033
 20
76.436
 30
0.0
 70
0
  0
VERTEX
  5
ED8
330
A35
100
AcDbEntity
  8
0
100
AcDbVertex
100
AcDb2dVertex
 10
0.034
 20
76.436
 30
0.0
 70
0
  0
VERTEX
  5
ED9
330
A35
100
AcDbEntity
  8
0
100
AcDbVertex
100
AcDb2dVertex
 10
0.035
 20
76.436
 30
0.0
 70
0
  0
VERTEX
  5
EDA
330
A35
100
AcDbEntity
  8
0
100
AcDbVertex
100
AcDb2dVertex
 10
0.036
 20
76.436
 30
0.0
 70
0
  0
VERTEX
  5
EDB
330
A35
100
AcDbEntity
  8
0
100
AcDbVertex
100
AcDb2dVertex
 10
0.037
 20
76.436
 30
0.0
 70
0
  0
VERTEX
  5
EDC
330
A35
100
AcDbEntity
  8
0
100
AcDbVertex
100
AcDb2dVertex
 10
0.038
 20
76.436
 30
0.0
 70
0
  0
VERTEX
  5
EDD
330
A35
100
AcDbEntity
  8
0
100
AcDbVertex
100
AcDb2dVertex
 10
0.039
 20
76.436
 30
0.0
 70
0
  0
VERTEX
  5
EDE
330
A35
100
AcDbEntity
  8
0
100
AcDbVertex
100
AcDb2dVertex
 10
0.04
 20
76.436
 30
0.0
 70
0
  0
VERTEX
  5
EDF
330
A35
100
AcDbEntity
  8
0
100
AcDbVertex
100
AcDb2dVertex
 10
0.041
 20
76.436
 30
0.0
 70
0
  0
VERTEX
  5
EE0
330
A35
100
AcDbEntity
  8
0
100
AcDbVertex
100
AcDb2dVertex
 10
0.042
 20
76.436
 30
0.0
 70
0
  0
VERTEX
  5
EE1
330
A35
100
AcDbEntity
  8
0
100
AcDbVertex
100
AcDb2dVertex
 10
0.043
 20
76.436
 30
0.0
 70
0
  0
VERTEX
  5
EE2
330
A35
100
AcDbEntity
  8
0
100
AcDbVertex
100
AcDb2dVertex
 10
0.044
 20
76.436
 30
0.0
 70
0
  0
VERTEX
  5
EE3
330
A35
100
AcDbEntity
  8
0
100
AcDbVertex
100
AcDb2dVertex
 10
0.045
 20
76.436
 30
0.0
 70
0
  0
VERTEX
  5
EE4
330
A35
100
AcDbEntity
  8
0
100
AcDbVertex
100
AcDb2dVertex
 10
0.046
 20
76.436
 30
0.0
 70
0
  0
VERTEX
  5
EE5
330
A35
100
AcDbEntity
  8
0
100
AcDbVertex
100
AcDb2dVertex
 10
0.047
 20
76.436
 30
0.0
 70
0
  0
VERTEX
  5
EE6
330
A35
100
AcDbEntity
  8
0
100
AcDbVertex
100
AcDb2dVertex
 10
0.048
 20
76.436
 30
0.0
 70
0
  0
VERTEX
  5
EE7
330
A35
100
AcDbEntity
  8
0
100
AcDbVertex
100
AcDb2dVertex
 10
0.049
 20
76.436
 30
0.0
 70
0
  0
VERTEX
  5
EE8
330
A35
100
AcDbEntity
  8
0
100
AcDbVertex
100
AcDb2dVertex
 10
0.05
 20
76.436
 30
0.0
 70
0
  0
VERTEX
  5
EE9
330
A35
100
AcDbEntity
  8
0
100
AcDbVertex
100
AcDb2dVertex
 10
0.051
 20
76.436
 30
0.0
 70
0
  0
VERTEX
  5
EEA
330
A35
100
AcDbEntity
  8
0
100
AcDbVertex
100
AcDb2dVertex
 10
0.052
 20
76.436
 30
0.0
 70
0
  0
VERTEX
  5
EEB
330
A35
100
AcDbEntity
  8
0
100
AcDbVertex
100
AcDb2dVertex
 10
0.053
 20
76.436
 30
0.0
 70
0
  0
VERTEX
  5
EEC
330
A35
100
AcDbEntity
  8
0
100
AcDbVertex
100
AcDb2dVertex
 10
0.054
 20
76.436
 30
0.0
 70
0
  0
VERTEX
  5
EED
330
A35
100
AcDbEntity
  8
0
100
AcDbVertex
100
AcDb2dVertex
 10
0.055
 20
76.436
 30
0.0
 70
0
  0
VERTEX
  5
EEE
330
A35
100
AcDbEntity
  8
0
100
AcDbVertex
100
AcDb2dVertex
 10
0.056
 20
76.436
 30
0.0
 70
0
  0
VERTEX
  5
EEF
330
A35
100
AcDbEntity
  8
0
100
AcDbVertex
100
AcDb2dVertex
 10
0.057
 20
76.436
 30
0.0
 70
0
  0
VERTEX
  5
EF0
330
A35
100
AcDbEntity
  8
0
100
AcDbVertex
100
AcDb2dVertex
 10
0.057
 20
76.437
 30
0.0
 70
0
  0
VERTEX
  5
EF1
330
A35
100
AcDbEntity
  8
0
100
AcDbVertex
100
AcDb2dVertex
 10
0.057
 20
76.438
 30
0.0
 70
0
  0
VERTEX
  5
EF2
330
A35
100
AcDbEntity
  8
0
100
AcDbVertex
100
AcDb2dVertex
 10
0.057
 20
76.439
 30
0.0
 70
0
  0
VERTEX
  5
EF3
330
A35
100
AcDbEntity
  8
0
100
AcDbVertex
100
AcDb2dVertex
 10
0.057
 20
76.44
 30
0.0
 70
0
  0
VERTEX
  5
EF4
330
A35
100
AcDbEntity
  8
0
100
AcDbVertex
100
AcDb2dVertex
 10
0.057
 20
76.441
 30
0.0
 70
0
  0
VERTEX
  5
EF5
330
A35
100
AcDbEntity
  8
0
100
AcDbVertex
100
AcDb2dVertex
 10
0.057
 20
76.442
 30
0.0
 70
0
  0
VERTEX
  5
EF6
330
A35
100
AcDbEntity
  8
0
100
AcDbVertex
100
AcDb2dVertex
 10
0.057
 20
76.443
 30
0.0
 70
0
  0
VERTEX
  5
EF7
330
A35
100
AcDbEntity
  8
0
100
AcDbVertex
100
AcDb2dVertex
 10
0.057
 20
76.444
 30
0.0
 70
0
  0
VERTEX
  5
EF8
330
A35
100
AcDbEntity
  8
0
100
AcDbVertex
100
AcDb2dVertex
 10
0.057
 20
76.445
 30
0.0
 70
0
  0
VERTEX
  5
EF9
330
A35
100
AcDbEntity
  8
0
100
AcDbVertex
100
AcDb2dVertex
 10
0.057
 20
76.446
 30
0.0
 70
0
  0
VERTEX
  5
EFA
330
A35
100
AcDbEntity
  8
0
100
AcDbVertex
100
AcDb2dVertex
 10
0.057
 20
76.447
 30
0.0
 70
0
  0
VERTEX
  5
EFB
330
A35
100
AcDbEntity
  8
0
100
AcDbVertex
100
AcDb2dVertex
 10
0.057
 20
76.448
 30
0.0
 70
0
  0
VERTEX
  5
EFC
330
A35
100
AcDbEntity
  8
0
100
AcDbVertex
100
AcDb2dVertex
 10
0.057
 20
76.449
 30
0.0
 70
0
  0
VERTEX
  5
EFD
330
A35
100
AcDbEntity
  8
0
100
AcDbVertex
100
AcDb2dVertex
 10
0.057
 20
76.45
 30
0.0
 70
0
  0
VERTEX
  5
EFE
330
A35
100
AcDbEntity
  8
0
100
AcDbVertex
100
AcDb2dVertex
 10
0.057
 20
76.451
 30
0.0
 70
0
  0
VERTEX
  5
EFF
330
A35
100
AcDbEntity
  8
0
100
AcDbVertex
100
AcDb2dVertex
 10
0.057
 20
76.452
 30
0.0
 70
0
  0
VERTEX
  5
F00
330
A35
100
AcDbEntity
  8
0
100
AcDbVertex
100
AcDb2dVertex
 10
0.057
 20
76.453
 30
0.0
 70
0
  0
VERTEX
  5
F01
330
A35
100
AcDbEntity
  8
0
100
AcDbVertex
100
AcDb2dVertex
 10
0.057
 20
76.454
 30
0.0
 70
0
  0
VERTEX
  5
F02
330
A35
100
AcDbEntity
  8
0
100
AcDbVertex
100
AcDb2dVertex
 10
0.057
 20
76.455
 30
0.0
 70
0
  0
VERTEX
  5
F03
330
A35
100
AcDbEntity
  8
0
100
AcDbVertex
100
AcDb2dVertex
 10
0.057
 20
76.456
 30
0.0
 70
0
  0
VERTEX
  5
F04
330
A35
100
AcDbEntity
  8
0
100
AcDbVertex
100
AcDb2dVertex
 10
0.057
 20
76.457
 30
0.0
 70
0
  0
VERTEX
  5
F05
330
A35
100
AcDbEntity
  8
0
100
AcDbVertex
100
AcDb2dVertex
 10
0.057
 20
76.458
 30
0.0
 70
0
  0
VERTEX
  5
F06
330
A35
100
AcDbEntity
  8
0
100
AcDbVertex
100
AcDb2dVertex
 10
0.057
 20
76.459
 30
0.0
 70
0
  0
VERTEX
  5
F07
330
A35
100
AcDbEntity
  8
0
100
AcDbVertex
100
AcDb2dVertex
 10
0.057
 20
76.46
 30
0.0
 70
0
  0
VERTEX
  5
F08
330
A35
100
AcDbEntity
  8
0
100
AcDbVertex
100
AcDb2dVertex
 10
0.057
 20
76.461
 30
0.0
 70
0
  0
VERTEX
  5
F09
330
A35
100
AcDbEntity
  8
0
100
AcDbVertex
100
AcDb2dVertex
 10
0.057
 20
76.462
 30
0.0
 70
0
  0
VERTEX
  5
F0A
330
A35
100
AcDbEntity
  8
0
100
AcDbVertex
100
AcDb2dVertex
 10
0.057
 20
76.463
 30
0.0
 70
0
  0
VERTEX
  5
F0B
330
A35
100
AcDbEntity
  8
0
100
AcDbVertex
100
AcDb2dVertex
 10
0.057
 20
76.464
 30
0.0
 70
0
  0
VERTEX
  5
F0C
330
A35
100
AcDbEntity
  8
0
100
AcDbVertex
100
AcDb2dVertex
 10
0.057
 20
76.465
 30
0.0
 70
0
  0
VERTEX
  5
F0D
330
A35
100
AcDbEntity
  8
0
100
AcDbVertex
100
AcDb2dVertex
 10
0.057
 20
76.466
 30
0.0
 70
0
  0
VERTEX
  5
F0E
330
A35
100
AcDbEntity
  8
0
100
AcDbVertex
100
AcDb2dVertex
 10
0.057
 20
76.467
 30
0.0
 70
0
  0
VERTEX
  5
F0F
330
A35
100
AcDbEntity
  8
0
100
AcDbVertex
100
AcDb2dVertex
 10
0.057
 20
76.468
 30
0.0
 70
0
  0
VERTEX
  5
F10
330
A35
100
AcDbEntity
  8
0
100
AcDbVertex
100
AcDb2dVertex
 10
0.057
 20
76.469
 30
0.0
 70
0
  0
VERTEX
  5
F11
330
A35
100
AcDbEntity
  8
0
100
AcDbVertex
100
AcDb2dVertex
 10
0.057
 20
76.47
 30
0.0
 70
0
  0
VERTEX
  5
F12
330
A35
100
AcDbEntity
  8
0
100
AcDbVertex
100
AcDb2dVertex
 10
0.057
 20
76.471
 30
0.0
 70
0
  0
VERTEX
  5
F13
330
A35
100
AcDbEntity
  8
0
100
AcDbVertex
100
AcDb2dVertex
 10
0.057
 20
76.472
 30
0.0
 70
0
  0
VERTEX
  5
F14
330
A35
100
AcDbEntity
  8
0
100
AcDbVertex
100
AcDb2dVertex
 10
0.057
 20
76.473
 30
0.0
 70
0
  0
VERTEX
  5
F15
330
A35
100
AcDbEntity
  8
0
100
AcDbVertex
100
AcDb2dVertex
 10
0.057
 20
76.474
 30
0.0
 70
0
  0
VERTEX
  5
F16
330
A35
100
AcDbEntity
  8
0
100
AcDbVertex
100
AcDb2dVertex
 10
0.057
 20
76.475
 30
0.0
 70
0
  0
VERTEX
  5
F17
330
A35
100
AcDbEntity
  8
0
100
AcDbVertex
100
AcDb2dVertex
 10
0.057
 20
76.476
 30
0.0
 70
0
  0
VERTEX
  5
F18
330
A35
100
AcDbEntity
  8
0
100
AcDbVertex
100
AcDb2dVertex
 10
0.057
 20
76.477
 30
0.0
 70
0
  0
VERTEX
  5
F19
330
A35
100
AcDbEntity
  8
0
100
AcDbVertex
100
AcDb2dVertex
 10
0.057
 20
76.478
 30
0.0
 70
0
  0
VERTEX
  5
F1A
330
A35
100
AcDbEntity
  8
0
100
AcDbVertex
100
AcDb2dVertex
 10
0.057
 20
76.479
 30
0.0
 70
0
  0
VERTEX
  5
F1B
330
A35
100
AcDbEntity
  8
0
100
AcDbVertex
100
AcDb2dVertex
 10
0.057
 20
76.48
 30
0.0
 70
0
  0
VERTEX
  5
F1C
330
A35
100
AcDbEntity
  8
0
100
AcDbVertex
100
AcDb2dVertex
 10
0.057
 20
76.481
 30
0.0
 70
0
  0
VERTEX
  5
F1D
330
A35
100
AcDbEntity
  8
0
100
AcDbVertex
100
AcDb2dVertex
 10
0.057
 20
76.482
 30
0.0
 70
0
  0
VERTEX
  5
F1E
330
A35
100
AcDbEntity
  8
0
100
AcDbVertex
100
AcDb2dVertex
 10
0.057
 20
76.483
 30
0.0
 70
0
  0
VERTEX
  5
F1F
330
A35
100
AcDbEntity
  8
0
100
AcDbVertex
100
AcDb2dVertex
 10
0.057
 20
76.484
 30
0.0
 70
0
  0
VERTEX
  5
F20
330
A35
100
AcDbEntity
  8
0
100
AcDbVertex
100
AcDb2dVertex
 10
0.057
 20
76.485
 30
0.0
 70
0
  0
VERTEX
  5
F21
330
A35
100
AcDbEntity
  8
0
100
AcDbVertex
100
AcDb2dVertex
 10
0.057
 20
76.486
 30
0.0
 70
0
  0
VERTEX
  5
F22
330
A35
100
AcDbEntity
  8
0
100
AcDbVertex
100
AcDb2dVertex
 10
0.057
 20
76.487
 30
0.0
 70
0
  0
VERTEX
  5
F23
330
A35
100
AcDbEntity
  8
0
100
AcDbVertex
100
AcDb2dVertex
 10
0.057
 20
76.488
 30
0.0
 70
0
  0
VERTEX
  5
F24
330
A35
100
AcDbEntity
  8
0
100
AcDbVertex
100
AcDb2dVertex
 10
0.057
 20
76.489
 30
0.0
 70
0
  0
VERTEX
  5
F25
330
A35
100
AcDbEntity
  8
0
100
AcDbVertex
100
AcDb2dVertex
 10
0.057
 20
76.49
 30
0.0
 70
0
  0
VERTEX
  5
F26
330
A35
100
AcDbEntity
  8
0
100
AcDbVertex
100
AcDb2dVertex
 10
0.057
 20
76.491
 30
0.0
 70
0
  0
VERTEX
  5
F27
330
A35
100
AcDbEntity
  8
0
100
AcDbVertex
100
AcDb2dVertex
 10
0.057
 20
76.492
 30
0.0
 70
0
  0
VERTEX
  5
F28
330
A35
100
AcDbEntity
  8
0
100
AcDbVertex
100
AcDb2dVertex
 10
0.057
 20
76.493
 30
0.0
 70
0
  0
SEQEND
  5
E44
330
A35
100
AcDbEntity
  8
0
  0
POLYLINE
  5
F29
330
A35
100
AcDbEntity
  8
0
100
AcDb2dPolyline
 66
1
 10
0.0
 20
0.0
 30
0.0
 70
0
  0
VERTEX
  5
F2B
330
A35
100
AcDbEntity
  8
0
100
AcDbVertex
100
AcDb2dVertex
 10
53.04
 20
57.409
 30
0.0
 70
0
  0
VERTEX
  5
F2C
330
A35
100
AcDbEntity
  8
0
100
AcDbVertex
100
AcDb2dVertex
 10
52.984
 20
57.409
 30
0.0
 70
0
  0
VERTEX
  5
F2D
330
A35
100
AcDbEntity
  8
0
100
AcDbVertex
100
AcDb2dVertex
 10
52.984
 20
57.466
 30
0.0
 70
0
  0
SEQEND
  5
F2A
330
A35
100
AcDbEntity
  8
0
  0
POLYLINE
  5
F2E
330
A35
100
AcDbEntity
  8
0
100
AcDb2dPolyline
 66
1
 10
0.0
 20
0.0
 30
0.0
 70
0
  0
VERTEX
  5
F30
330
A35
100
AcDbEntity
  8
0
100
AcDbVertex
100
AcDb2dVertex
 10
52.984
 20
56.96
 30
0.0
 70
0
  0
VERTEX
  5
F31
330
A35
100
AcDbEntity
  8
0
100
AcDbVertex
100
AcDb2dVertex
 10
52.984
 20
57.016
 30
0.0
 70
0
  0
VERTEX
  5
F32
330
A35
100
AcDbEntity
  8
0
100
AcDbVertex
100
AcDb2dVertex
 10
53.04
 20
57.016
 30
0.0
 70
0
  0
SEQEND
  5
F2F
330
A35
100
AcDbEntity
  8
0
  0
POLYLINE
  5
F33
330
A35
100
AcDbEntity
  8
0
100
AcDb2dPolyline
 66
1
 10
0.0
 20
0.0
 30
0.0
 70
0
  0
VERTEX
  5
F35
330
A35
100
AcDbEntity
  8
0
100
AcDbVertex
100
AcDb2dVertex
 10
57.362
 20
54.435
 30
0.0
 70
0
  0
VERTEX
  5
F36
330
A35
100
AcDbEntity
  8
0
100
AcDbVertex
100
AcDb2dVertex
 10
57.305
 20
54.435
 30
0.0
 70
0
  0
VERTEX
  5
F37
330
A35
100
AcDbEntity
  8
0
100
AcDbVertex
100
AcDb2dVertex
 10
57.305
 20
54.378
 30
0.0
 70
0
  0
VERTEX
  5
F38
330
A35
100
AcDbEntity
  8
0
100
AcDbVertex
100
AcDb2dVertex
 10
57.25
 20
54.378
 30
0.0
 70
0
  0
SEQEND
  5
F34
330
A35
100
AcDbEntity
  8
0
  0
POLYLINE
  5
F39
330
A35
100
AcDbEntity
  8
0
100
AcDb2dPolyline
 66
1
 10
0.0
 20
0.0
 30
0.0
 70
0
  0
VERTEX
  5
F3B
330
A35
100
AcDbEntity
  8
0
100
AcDbVertex
100
AcDb2dVertex
 10
57.25
 20
54.378
 30
0.0
 70
0
  0
VERTEX
  5
F3C
330
A35
100
AcDbEntity
  8
0
100
AcDbVertex
100
AcDb2dVertex
 10
57.193
 20
54.378
 30
0.0
 70
0
  0
VERTEX
  5
F3D
330
A35
100
AcDbEntity
  8
0
100
AcDbVertex
100
AcDb2dVertex
 10
57.193
 20
54.546
 30
0.0
 70
0
  0
VERTEX
  5
F3E
330
A35
100
AcDbEntity
  8
0
100
AcDbVertex
100
AcDb2dVertex
 10
57.25
 20
54.546
 30
0.0
 70
0
  0
SEQEND
  5
F3A
330
A35
100
AcDbEntity
  8
0
  0
POLYLINE
  5
F3F
330
A35
100
AcDbEntity
  8
0
100
AcDb2dPolyline
 66
1
 10
0.0
 20
0.0
 30
0.0
 70
0
  0
VERTEX
  5
F41
330
A35
100
AcDbEntity
  8
0
100
AcDbVertex
100
AcDb2dVertex
 10
57.305
 20
54.546
 30
0.0
 70
0
  0
VERTEX
  5
F42
330
A35
100
AcDbEntity
  8
0
100
AcDbVertex
100
AcDb2dVertex
 10
57.362
 20
54.546
 30
0.0
 70
0
  0
VERTEX
  5
F43
330
A35
100
AcDbEntity
  8
0
100
AcDbVertex
100
AcDb2dVertex
 10
57.362
 20
54.435
 30
0.0
 70
0
  0
SEQEND
  5
F40
330
A35
100
AcDbEntity
  8
0
  0
POLYLINE
  5
F44
330
A35
100
AcDbEntity
  8
0
100
AcDb2dPolyline
 66
1
 10
0.0
 20
0.0
 30
0.0
 70
0
  0
VERTEX
  5
F46
330
A35
100
AcDbEntity
  8
0
100
AcDbVertex
100
AcDb2dVertex
 10
5.781
 20
79.86
 30
0.0
 70
0
  0
VERTEX
  5
F47
330
A35
100
AcDbEntity
  8
0
100
AcDbVertex
100
AcDb2dVertex
 10
5.781
 20
79.917
 30
0.0
 70
0
  0
VERTEX
  5
F48
330
A35
100
AcDbEntity
  8
0
100
AcDbVertex
100
AcDb2dVertex
 10
5.725
 20
79.917
 30
0.0
 70
0
  0
VERTEX
  5
F49
330
A35
100
AcDbEntity
  8
0
100
AcDbVertex
100
AcDb2dVertex
 10
5.725
 20
80.028
 30
0.0
 70
0
  0
VERTEX
  5
F4A
330
A35
100
AcDbEntity
  8
0
100
AcDbVertex
100
AcDb2dVertex
 10
5.668
 20
80.028
 30
0.0
 70
0
  0
SEQEND
  5
F45
330
A35
100
AcDbEntity
  8
0
  0
POLYLINE
  5
F4B
330
A35
100
AcDbEntity
  8
0
100
AcDb2dPolyline
 66
1
 10
0.0
 20
0.0
 30
0.0
 70
0
  0
VERTEX
  5
F4D
330
A35
100
AcDbEntity
  8
0
100
AcDbVertex
100
AcDb2dVertex
 10
3.817
 20
79.579
 30
0.0
 70
0
  0
VERTEX
  5
F4E
330
A35
100
AcDbEntity
  8
0
100
AcDbVertex
100
AcDb2dVertex
 10
3.817
 20
79.524
 30
0.0
 70
0
  0
VERTEX
  5
F4F
330
A35
100
AcDbEntity
  8
0
100
AcDbVertex
100
AcDb2dVertex
 10
3.76
 20
79.524
 30
0.0
 70
0
  0
VERTEX
  5
F50
330
A35
100
AcDbEntity
  8
0
100
AcDbVertex
100
AcDb2dVertex
 10
3.704
 20
79.524
 30
0.0
 70
0
  0
VERTEX
  5
F51
330
A35
100
AcDbEntity
  8
0
100
AcDbVertex
100
AcDb2dVertex
 10
3.647
 20
79.524
 30
0.0
 70
0
  0
VERTEX
  5
F52
330
A35
100
AcDbEntity
  8
0
100
AcDbVertex
100
AcDb2dVertex
 10
3.592
 20
79.524
 30
0.0
 70
0
  0
VERTEX
  5
F53
330
A35
100
AcDbEntity
  8
0
100
AcDbVertex
100
AcDb2dVertex
 10
3.536
 20
79.524
 30
0.0
 70
0
  0
VERTEX
  5
F54
330
A35
100
AcDbEntity
  8
0
100
AcDbVertex
100
AcDb2dVertex
 10
3.536
 20
79.579
 30
0.0
 70
0
  0
SEQEND
  5
F4C
330
A35
100
AcDbEntity
  8
0
  0
POLYLINE
  5
F55
330
A35
100
AcDbEntity
  8
0
100
AcDb2dPolyline
 66
1
 10
0.0
 20
0.0
 30
0.0
 70
0
  0
VERTEX
  5
F57
330
A35
100
AcDbEntity
  8
0
100
AcDbVertex
100
AcDb2dVertex
 10
4.265
 20
79.971
 30
0.0
 70
0
  0
VERTEX
  5
F58
330
A35
100
AcDbEntity
  8
0
100
AcDbVertex
100
AcDb2dVertex
 10
4.21
 20
79.971
 30
0.0
 70
0
  0
VERTEX
  5
F59
330
A35
100
AcDbEntity
  8
0
100
AcDbVertex
100
AcDb2dVertex
 10
4.21
 20
79.86
 30
0.0
 70
0
  0
VERTEX
  5
F5A
330
A35
100
AcDbEntity
  8
0
100
AcDbVertex
100
AcDb2dVertex
 10
4.153
 20
79.86
 30
0.0
 70
0
  0
VERTEX
  5
F5B
330
A35
100
AcDbEntity
  8
0
100
AcDbVertex
100
AcDb2dVertex
 10
4.153
 20
79.804
 30
0.0
 70
0
  0
VERTEX
  5
F5C
330
A35
100
AcDbEntity
  8
0
100
AcDbVertex
100
AcDb2dVertex
 10
4.097
 20
79.804
 30
0.0
 70
0
  0
VERTEX
  5
F5D
330
A35
100
AcDbEntity
  8
0
100
AcDbVertex
100
AcDb2dVertex
 10
4.097
 20
79.749
 30
0.0
 70
0
  0
VERTEX
  5
F5E
330
A35
100
AcDbEntity
  8
0
100
AcDbVertex
100
AcDb2dVertex
 10
4.04
 20
79.692
 30
0.0
 70
0
  0
VERTEX
  5
F5F
330
A35
100
AcDbEntity
  8
0
100
AcDbVertex
100
AcDb2dVertex
 10
3.985
 20
79.692
 30
0.0
 70
0
  0
VERTEX
  5
F60
330
A35
100
AcDbEntity
  8
0
100
AcDbVertex
100
AcDb2dVertex
 10
3.985
 20
79.636
 30
0.0
 70
0
  0
VERTEX
  5
F61
330
A35
100
AcDbEntity
  8
0
100
AcDbVertex
100
AcDb2dVertex
 10
3.928
 20
79.636
 30
0.0
 70
0
  0
VERTEX
  5
F62
330
A35
100
AcDbEntity
  8
0
100
AcDbVertex
100
AcDb2dVertex
 10
3.872
 20
79.636
 30
0.0
 70
0
  0
VERTEX
  5
F63
330
A35
100
AcDbEntity
  8
0
100
AcDbVertex
100
AcDb2dVertex
 10
3.872
 20
79.579
 30
0.0
 70
0
  0
VERTEX
  5
F64
330
A35
100
AcDbEntity
  8
0
100
AcDbVertex
100
AcDb2dVertex
 10
3.817
 20
79.579
 30
0.0
 70
0
  0
SEQEND
  5
F56
330
A35
100
AcDbEntity
  8
0
  0
POLYLINE
  5
F65
330
A35
100
AcDbEntity
  8
0
100
AcDb2dPolyline
 66
1
 10
0.0
 20
0.0
 30
0.0
 70
0
  0
VERTEX
  5
F67
330
A35
100
AcDbEntity
  8
0
100
AcDbVertex
100
AcDb2dVertex
 10
4.153
 20
80.757
 30
0.0
 70
0
  0
VERTEX
  5
F68
330
A35
100
AcDbEntity
  8
0
100
AcDbVertex
100
AcDb2dVertex
 10
4.21
 20
80.703
 30
0.0
 70
0
  0
VERTEX
  5
F69
330
A35
100
AcDbEntity
  8
0
100
AcDbVertex
100
AcDb2dVertex
 10
4.265
 20
80.703
 30
0.0
 70
0
  0
VERTEX
  5
F6A
330
A35
100
AcDbEntity
  8
0
100
AcDbVertex
100
AcDb2dVertex
 10
4.265
 20
80.646
 30
0.0
 70
0
  0
VERTEX
  5
F6B
330
A35
100
AcDbEntity
  8
0
100
AcDbVertex
100
AcDb2dVertex
 10
4.321
 20
80.646
 30
0.0
 70
0
  0
VERTEX
  5
F6C
330
A35
100
AcDbEntity
  8
0
100
AcDbVertex
100
AcDb2dVertex
 10
4.321
 20
80.365
 30
0.0
 70
0
  0
SEQEND
  5
F66
330
A35
100
AcDbEntity
  8
0
  0
POLYLINE
  5
F6D
330
A35
100
AcDbEntity
  8
0
100
AcDb2dPolyline
 66
1
 10
0.0
 20
0.0
 30
0.0
 70
0
  0
VERTEX
  5
F6F
330
A35
100
AcDbEntity
  8
0
100
AcDbVertex
100
AcDb2dVertex
 10
5.107
 20
81.039
 30
0.0
 70
0
  0
VERTEX
  5
F70
330
A35
100
AcDbEntity
  8
0
100
AcDbVertex
100
AcDb2dVertex
 10
5.164
 20
81.039
 30
0.0
 70
0
  0
VERTEX
  5
F71
330
A35
100
AcDbEntity
  8
0
100
AcDbVertex
100
AcDb2dVertex
 10
5.164
 20
80.871
 30
0.0
 70
0
  0
VERTEX
  5
F72
330
A35
100
AcDbEntity
  8
0
100
AcDbVertex
100
AcDb2dVertex
 10
5.107
 20
80.814
 30
0.0
 70
0
  0
VERTEX
  5
F73
330
A35
100
AcDbEntity
  8
0
100
AcDbVertex
100
AcDb2dVertex
 10
5.05
 20
80.814
 30
0.0
 70
0
  0
VERTEX
  5
F74
330
A35
100
AcDbEntity
  8
0
100
AcDbVertex
100
AcDb2dVertex
 10
5.05
 20
80.757
 30
0.0
 70
0
  0
SEQEND
  5
F6E
330
A35
100
AcDbEntity
  8
0
  0
POLYLINE
  5
F75
330
A35
100
AcDbEntity
  8
0
100
AcDb2dPolyline
 66
1
 10
0.0
 20
0.0
 30
0.0
 70
0
  0
VERTEX
  5
F77
330
A35
100
AcDbEntity
  8
0
100
AcDbVertex
100
AcDb2dVertex
 10
2.525
 20
79.971
 30
0.0
 70
0
  0
VERTEX
  5
F78
330
A35
100
AcDbEntity
  8
0
100
AcDbVertex
100
AcDb2dVertex
 10
2.525
 20
80.028
 30
0.0
 70
0
  0
VERTEX
  5
F79
330
A35
100
AcDbEntity
  8
0
100
AcDbVertex
100
AcDb2dVertex
 10
2.469
 20
80.028
 30
0.0
 70
0
  0
VERTEX
  5
F7A
330
A35
100
AcDbEntity
  8
0
100
AcDbVertex
100
AcDb2dVertex
 10
2.525
 20
80.085
 30
0.0
 70
0
  0
VERTEX
  5
F7B
330
A35
100
AcDbEntity
  8
0
100
AcDbVertex
100
AcDb2dVertex
 10
2.525
 20
80.196
 30
0.0
 70
0
  0
VERTEX
  5
F7C
330
A35
100
AcDbEntity
  8
0
100
AcDbVertex
100
AcDb2dVertex
 10
2.582
 20
80.196
 30
0.0
 70
0
  0
VERTEX
  5
F7D
330
A35
100
AcDbEntity
  8
0
100
AcDbVertex
100
AcDb2dVertex
 10
2.582
 20
80.253
 30
0.0
 70
0
  0
VERTEX
  5
F7E
330
A35
100
AcDbEntity
  8
0
100
AcDbVertex
100
AcDb2dVertex
 10
2.638
 20
80.253
 30
0.0
 70
0
  0
SEQEND
  5
F76
330
A35
100
AcDbEntity
  8
0
  0
POLYLINE
  5
F7F
330
A35
100
AcDbEntity
  8
0
100
AcDb2dPolyline
 66
1
 10
0.0
 20
0.0
 30
0.0
 70
0
  0
VERTEX
  5
F81
330
A35
100
AcDbEntity
  8
0
100
AcDbVertex
100
AcDb2dVertex
 10
2.693
 20
80.253
 30
0.0
 70
0
  0
VERTEX
  5
F82
330
A35
100
AcDbEntity
  8
0
100
AcDbVertex
100
AcDb2dVertex
 10
2.75
 20
80.253
 30
0.0
 70
0
  0
VERTEX
  5
F83
330
A35
100
AcDbEntity
  8
0
100
AcDbVertex
100
AcDb2dVertex
 10
2.75
 20
80.196
 30
0.0
 70
0
  0
VERTEX
  5
F84
330
A35
100
AcDbEntity
  8
0
100
AcDbVertex
100
AcDb2dVertex
 10
2.807
 20
80.196
 30
0.0
 70
0
  0
VERTEX
  5
F85
330
A35
100
AcDbEntity
  8
0
100
AcDbVertex
100
AcDb2dVertex
 10
2.807
 20
80.028
 30
0.0
 70
0
  0
VERTEX
  5
F86
330
A35
100
AcDbEntity
  8
0
100
AcDbVertex
100
AcDb2dVertex
 10
2.75
 20
80.028
 30
0.0
 70
0
  0
VERTEX
  5
F87
330
A35
100
AcDbEntity
  8
0
100
AcDbVertex
100
AcDb2dVertex
 10
2.75
 20
79.971
 30
0.0
 70
0
  0
VERTEX
  5
F88
330
A35
100
AcDbEntity
  8
0
100
AcDbVertex
100
AcDb2dVertex
 10
2.693
 20
79.971
 30
0.0
 70
0
  0
VERTEX
  5
F89
330
A35
100
AcDbEntity
  8
0
100
AcDbVertex
100
AcDb2dVertex
 10
2.638
 20
79.971
 30
0.0
 70
0
  0
VERTEX
  5
F8A
330
A35
100
AcDbEntity
  8
0
100
AcDbVertex
100
AcDb2dVertex
 10
2.638
 20
79.917
 30
0.0
 70
0
  0
SEQEND
  5
F80
330
A35
100
AcDbEntity
  8
0
  0
POLYLINE
  5
F8B
330
A35
100
AcDbEntity
  8
0
100
AcDb2dPolyline
 66
1
 10
0.0
 20
0.0
 30
0.0
 70
0
  0
VERTEX
  5
F8D
330
A35
100
AcDbEntity
  8
0
100
AcDbVertex
100
AcDb2dVertex
 10
2.638
 20
79.917
 30
0.0
 70
0
  0
VERTEX
  5
F8E
330
A35
100
AcDbEntity
  8
0
100
AcDbVertex
100
AcDb2dVertex
 10
2.582
 20
79.917
 30
0.0
 70
0
  0
VERTEX
  5
F8F
330
A35
100
AcDbEntity
  8
0
100
AcDbVertex
100
AcDb2dVertex
 10
2.582
 20
79.971
 30
0.0
 70
0
  0
VERTEX
  5
F90
330
A35
100
AcDbEntity
  8
0
100
AcDbVertex
100
AcDb2dVertex
 10
2.525
 20
79.971
 30
0.0
 70
0
  0
SEQEND
  5
F8C
330
A35
100
AcDbEntity
  8
0
  0
POLYLINE
  5
F91
330
A35
100
AcDbEntity
  8
0
100
AcDb2dPolyline
 66
1
 10
0.0
 20
0.0
 30
0.0
 70
0
  0
VERTEX
  5
F93
330
A35
100
AcDbEntity
  8
0
100
AcDbVertex
100
AcDb2dVertex
 10
4.996
 20
80.703
 30
0.0
 70
0
  0
VERTEX
  5
F94
330
A35
100
AcDbEntity
  8
0
100
AcDbVertex
100
AcDb2dVertex
 10
4.939
 20
80.703
 30
0.0
 70
0
  0
VERTEX
  5
F95
330
A35
100
AcDbEntity
  8
0
100
AcDbVertex
100
AcDb2dVertex
 10
4.882
 20
80.703
 30
0.0
 70
0
  0
VERTEX
  5
F96
330
A35
100
AcDbEntity
  8
0
100
AcDbVertex
100
AcDb2dVertex
 10
4.882
 20
80.814
 30
0.0
 70
0
  0
VERTEX
  5
F97
330
A35
100
AcDbEntity
  8
0
100
AcDbVertex
100
AcDb2dVertex
 10
4.827
 20
80.814
 30
0.0
 70
0
  0
VERTEX
  5
F98
330
A35
100
AcDbEntity
  8
0
100
AcDbVertex
100
AcDb2dVertex
 10
4.827
 20
80.927
 30
0.0
 70
0
  0
VERTEX
  5
F99
330
A35
100
AcDbEntity
  8
0
100
AcDbVertex
100
AcDb2dVertex
 10
4.882
 20
80.982
 30
0.0
 70
0
  0
VERTEX
  5
F9A
330
A35
100
AcDbEntity
  8
0
100
AcDbVertex
100
AcDb2dVertex
 10
4.882
 20
81.039
 30
0.0
 70
0
  0
VERTEX
  5
F9B
330
A35
100
AcDbEntity
  8
0
100
AcDbVertex
100
AcDb2dVertex
 10
4.939
 20
81.039
 30
0.0
 70
0
  0
VERTEX
  5
F9C
330
A35
100
AcDbEntity
  8
0
100
AcDbVertex
100
AcDb2dVertex
 10
4.939
 20
81.096
 30
0.0
 70
0
  0
VERTEX
  5
F9D
330
A35
100
AcDbEntity
  8
0
100
AcDbVertex
100
AcDb2dVertex
 10
4.996
 20
81.096
 30
0.0
 70
0
  0
VERTEX
  5
F9E
330
A35
100
AcDbEntity
  8
0
100
AcDbVertex
100
AcDb2dVertex
 10
4.996
 20
81.15
 30
0.0
 70
0
  0
SEQEND
  5
F92
330
A35
100
AcDbEntity
  8
0
  0
POLYLINE
  5
F9F
330
A35
100
AcDbEntity
  8
0
100
AcDb2dPolyline
 66
1
 10
0.0
 20
0.0
 30
0.0
 70
0
  0
VERTEX
  5
FA1
330
A35
100
AcDbEntity
  8
0
100
AcDbVertex
100
AcDb2dVertex
 10
4.996
 20
81.15
 30
0.0
 70
0
  0
VERTEX
  5
FA2
330
A35
100
AcDbEntity
  8
0
100
AcDbVertex
100
AcDb2dVertex
 10
5.05
 20
81.15
 30
0.0
 70
0
  0
VERTEX
  5
FA3
330
A35
100
AcDbEntity
  8
0
100
AcDbVertex
100
AcDb2dVertex
 10
5.107
 20
81.15
 30
0.0
 70
0
  0
VERTEX
  5
FA4
330
A35
100
AcDbEntity
  8
0
100
AcDbVertex
100
AcDb2dVertex
 10
5.164
 20
81.15
 30
0.0
 70
0
  0
VERTEX
  5
FA5
330
A35
100
AcDbEntity
  8
0
100
AcDbVertex
100
AcDb2dVertex
 10
5.164
 20
80.814
 30
0.0
 70
0
  0
VERTEX
  5
FA6
330
A35
100
AcDbEntity
  8
0
100
AcDbVertex
100
AcDb2dVertex
 10
5.107
 20
80.814
 30
0.0
 70
0
  0
VERTEX
  5
FA7
330
A35
100
AcDbEntity
  8
0
100
AcDbVertex
100
AcDb2dVertex
 10
5.05
 20
80.814
 30
0.0
 70
0
  0
VERTEX
  5
FA8
330
A35
100
AcDbEntity
  8
0
100
AcDbVertex
100
AcDb2dVertex
 10
5.05
 20
80.703
 30
0.0
 70
0
  0
VERTEX
  5
FA9
330
A35
100
AcDbEntity
  8
0
100
AcDbVertex
100
AcDb2dVertex
 10
4.996
 20
80.703
 30
0.0
 70
0
  0
SEQEND
  5
FA0
330
A35
100
AcDbEntity
  8
0
  0
POLYLINE
  5
FAA
330
A35
100
AcDbEntity
  8
0
100
AcDb2dPolyline
 66
1
 10
0.0
 20
0.0
 30
0.0
 70
0
  0
VERTEX
  5
FAC
330
A35
100
AcDbEntity
  8
0
100
AcDbVertex
100
AcDb2dVertex
 10
2.638
 20
79.971
 30
0.0
 70
0
  0
VERTEX
  5
FAD
330
A35
100
AcDbEntity
  8
0
100
AcDbVertex
100
AcDb2dVertex
 10
2.638
 20
80.028
 30
0.0
 70
0
  0
VERTEX
  5
FAE
330
A35
100
AcDbEntity
  8
0
100
AcDbVertex
100
AcDb2dVertex
 10
2.693
 20
80.028
 30
0.0
 70
0
  0
VERTEX
  5
FAF
330
A35
100
AcDbEntity
  8
0
100
AcDbVertex
100
AcDb2dVertex
 10
2.693
 20
80.196
 30
0.0
 70
0
  0
VERTEX
  5
FB0
330
A35
100
AcDbEntity
  8
0
100
AcDbVertex
100
AcDb2dVertex
 10
2.638
 20
80.196
 30
0.0
 70
0
  0
SEQEND
  5
FAB
330
A35
100
AcDbEntity
  8
0
  0
POLYLINE
  5
FB1
330
A35
100
AcDbEntity
  8
0
100
AcDb2dPolyline
 66
1
 10
0.0
 20
0.0
 30
0.0
 70
0
  0
VERTEX
  5
FB3
330
A35
100
AcDbEntity
  8
0
100
AcDbVertex
100
AcDb2dVertex
 10
2.638
 20
80.196
 30
0.0
 70
0
  0
VERTEX
  5
FB4
330
A35
100
AcDbEntity
  8
0
100
AcDbVertex
100
AcDb2dVertex
 10
2.582
 20
80.196
 30
0.0
 70
0
  0
VERTEX
  5
FB5
330
A35
100
AcDbEntity
  8
0
100
AcDbVertex
100
AcDb2dVertex
 10
2.525
 20
80.196
 30
0.0
 70
0
  0
VERTEX
  5
FB6
330
A35
100
AcDbEntity
  8
0
100
AcDbVertex
100
AcDb2dVertex
 10
2.525
 20
79.971
 30
0.0
 70
0
  0
VERTEX
  5
FB7
330
A35
100
AcDbEntity
  8
0
100
AcDbVertex
100
AcDb2dVertex
 10
2.582
 20
79.971
 30
0.0
 70
0
  0
VERTEX
  5
FB8
330
A35
100
AcDbEntity
  8
0
100
AcDbVertex
100
AcDb2dVertex
 10
2.638
 20
79.971
 30
0.0
 70
0
  0
SEQEND
  5
FB2
330
A35
100
AcDbEntity
  8
0
  0
POLYLINE
  5
FB9
330
A35
100
AcDbEntity
  8
0
100
AcDb2dPolyline
 66
1
 10
0.0
 20
0.0
 30
0.0
 70
0
  0
VERTEX
  5
FBB
330
A35
100
AcDbEntity
  8
0
100
AcDbVertex
100
AcDb2dVertex
 10
2.638
 20
79.971
 30
0.0
 70
0
  0
VERTEX
  5
FBC
330
A35
100
AcDbEntity
  8
0
100
AcDbVertex
100
AcDb2dVertex
 10
2.693
 20
79.971
 30
0.0
 70
0
  0
VERTEX
  5
FBD
330
A35
100
AcDbEntity
  8
0
100
AcDbVertex
100
AcDb2dVertex
 10
2.693
 20
80.028
 30
0.0
 70
0
  0
VERTEX
  5
FBE
330
A35
100
AcDbEntity
  8
0
100
AcDbVertex
100
AcDb2dVertex
 10
2.75
 20
80.028
 30
0.0
 70
0
  0
VERTEX
  5
FBF
330
A35
100
AcDbEntity
  8
0
100
AcDbVertex
100
AcDb2dVertex
 10
2.75
 20
80.196
 30
0.0
 70
0
  0
VERTEX
  5
FC0
330
A35
100
AcDbEntity
  8
0
100
AcDbVertex
100
AcDb2dVertex
 10
2.693
 20
80.196
 30
0.0
 70
0
  0
VERTEX
  5
FC1
330
A35
100
AcDbEntity
  8
0
100
AcDbVertex
100
AcDb2dVertex
 10
2.693
 20
80.253
 30
0.0
 70
0
  0
SEQEND
  5
FBA
330
A35
100
AcDbEntity
  8
0
  0
POLYLINE
  5
FC2
330
A35
100
AcDbEntity
  8
0
100
AcDb2dPolyline
 66
1
 10
0.0
 20
0.0
 30
0.0
 70
0
  0
VERTEX
  5
FC4
330
A35
100
AcDbEntity
  8
0
100
AcDbVertex
100
AcDb2dVertex
 10
6.061
 20
80.142
 30
0.0
 70
0
  0
VERTEX
  5
FC5
330
A35
100
AcDbEntity
  8
0
100
AcDbVertex
100
AcDb2dVertex
 10
6.061
 20
80.196
 30
0.0
 70
0
  0
VERTEX
  5
FC6
330
A35
100
AcDbEntity
  8
0
100
AcDbVertex
100
AcDb2dVertex
 10
6.117
 20
80.196
 30
0.0
 70
0
  0
VERTEX
  5
FC7
330
A35
100
AcDbEntity
  8
0
100
AcDbVertex
100
AcDb2dVertex
 10
6.117
 20
80.253
 30
0.0
 70
0
  0
SEQEND
  5
FC3
330
A35
100
AcDbEntity
  8
0
  0
POLYLINE
  5
FC8
330
A35
100
AcDbEntity
  8
0
100
AcDb2dPolyline
 66
1
 10
0.0
 20
0.0
 30
0.0
 70
0
  0
VERTEX
  5
FCA
330
A35
100
AcDbEntity
  8
0
100
AcDbVertex
100
AcDb2dVertex
 10
6.117
 20
80.253
 30
0.0
 70
0
  0
VERTEX
  5
FCB
330
A35
100
AcDbEntity
  8
0
100
AcDbVertex
100
AcDb2dVertex
 10
6.117
 20
80.31
 30
0.0
 70
0
  0
VERTEX
  5
FCC
330
A35
100
AcDbEntity
  8
0
100
AcDbVertex
100
AcDb2dVertex
 10
6.061
 20
80.31
 30
0.0
 70
0
  0
SEQEND
  5
FC9
330
A35
100
AcDbEntity
  8
0
  0
POLYLINE
  5
FCD
330
A35
100
AcDbEntity
  8
0
100
AcDb2dPolyline
 66
1
 10
0.0
 20
0.0
 30
0.0
 70
0
  0
VERTEX
  5
FCF
330
A35
100
AcDbEntity
  8
0
100
AcDbVertex
100
AcDb2dVertex
 10
6.006
 20
80.196
 30
0.0
 70
0
  0
VERTEX
  5
FD0
330
A35
100
AcDbEntity
  8
0
100
AcDbVertex
100
AcDb2dVertex
 10
6.061
 20
80.196
 30
0.0
 70
0
  0
VERTEX
  5
FD1
330
A35
100
AcDbEntity
  8
0
100
AcDbVertex
100
AcDb2dVertex
 10
6.061
 20
80.365
 30
0.0
 70
0
  0
SEQEND
  5
FCE
330
A35
100
AcDbEntity
  8
0
  0
POLYLINE
  5
FD2
330
A35
100
AcDbEntity
  8
0
100
AcDb2dPolyline
 66
1
 10
0.0
 20
0.0
 30
0.0
 70
0
  0
VERTEX
  5
FD4
330
A35
100
AcDbEntity
  8
0
100
AcDbVertex
100
AcDb2dVertex
 10
2.638
 20
79.971
 30
0.0
 70
0
  0
VERTEX
  5
FD5
330
A35
100
AcDbEntity
  8
0
100
AcDbVertex
100
AcDb2dVertex
 10
2.693
 20
79.971
 30
0.0
 70
0
  0
VERTEX
  5
FD6
330
A35
100
AcDbEntity
  8
0
100
AcDbVertex
100
AcDb2dVertex
 10
2.693
 20
80.028
 30
0.0
 70
0
  0
VERTEX
  5
FD7
330
A35
100
AcDbEntity
  8
0
100
AcDbVertex
100
AcDb2dVertex
 10
2.75
 20
80.028
 30
0.0
 70
0
  0
VERTEX
  5
FD8
330
A35
100
AcDbEntity
  8
0
100
AcDbVertex
100
AcDb2dVertex
 10
2.75
 20
80.085
 30
0.0
 70
0
  0
VERTEX
  5
FD9
330
A35
100
AcDbEntity
  8
0
100
AcDbVertex
100
AcDb2dVertex
 10
2.807
 20
80.085
 30
0.0
 70
0
  0
VERTEX
  5
FDA
330
A35
100
AcDbEntity
  8
0
100
AcDbVertex
100
AcDb2dVertex
 10
2.807
 20
80.196
 30
0.0
 70
0
  0
VERTEX
  5
FDB
330
A35
100
AcDbEntity
  8
0
100
AcDbVertex
100
AcDb2dVertex
 10
2.75
 20
80.196
 30
0.0
 70
0
  0
VERTEX
  5
FDC
330
A35
100
AcDbEntity
  8
0
100
AcDbVertex
100
AcDb2dVertex
 10
2.693
 20
80.253
 30
0.0
 70
0
  0
SEQEND
  5
FD3
330
A35
100
AcDbEntity
  8
0
  0
POLYLINE
  5
FDD
330
A35
100
AcDbEntity
  8
0
100
AcDb2dPolyline
 66
1
 10
0.0
 20
0.0
 30
0.0
 70
0
  0
VERTEX
  5
FDF
330
A35
100
AcDbEntity
  8
0
100
AcDbVertex
100
AcDb2dVertex
 10
4.996
 20
80.757
 30
0.0
 70
0
  0
VERTEX
  5
FE0
330
A35
100
AcDbEntity
  8
0
100
AcDbVertex
100
AcDb2dVertex
 10
4.939
 20
80.757
 30
0.0
 70
0
  0
VERTEX
  5
FE1
330
A35
100
AcDbEntity
  8
0
100
AcDbVertex
100
AcDb2dVertex
 10
4.939
 20
80.814
 30
0.0
 70
0
  0
VERTEX
  5
FE2
330
A35
100
AcDbEntity
  8
0
100
AcDbVertex
100
AcDb2dVertex
 10
4.882
 20
80.814
 30
0.0
 70
0
  0
VERTEX
  5
FE3
330
A35
100
AcDbEntity
  8
0
100
AcDbVertex
100
AcDb2dVertex
 10
4.882
 20
80.982
 30
0.0
 70
0
  0
VERTEX
  5
FE4
330
A35
100
AcDbEntity
  8
0
100
AcDbVertex
100
AcDb2dVertex
 10
4.939
 20
80.982
 30
0.0
 70
0
  0
VERTEX
  5
FE5
330
A35
100
AcDbEntity
  8
0
100
AcDbVertex
100
AcDb2dVertex
 10
4.939
 20
81.039
 30
0.0
 70
0
  0
VERTEX
  5
FE6
330
A35
100
AcDbEntity
  8
0
100
AcDbVertex
100
AcDb2dVertex
 10
4.996
 20
81.039
 30
0.0
 70
0
  0
VERTEX
  5
FE7
330
A35
100
AcDbEntity
  8
0
100
AcDbVertex
100
AcDb2dVertex
 10
5.05
 20
81.039
 30
0.0
 70
0
  0
SEQEND
  5
FDE
330
A35
100
AcDbEntity
  8
0
  0
POLYLINE
  5
FE8
330
A35
100
AcDbEntity
  8
0
100
AcDb2dPolyline
 66
1
 10
0.0
 20
0.0
 30
0.0
 70
0
  0
VERTEX
  5
FEA
330
A35
100
AcDbEntity
  8
0
100
AcDbVertex
100
AcDb2dVertex
 10
3.817
 20
80.814
 30
0.0
 70
0
  0
VERTEX
  5
FEB
330
A35
100
AcDbEntity
  8
0
100
AcDbVertex
100
AcDb2dVertex
 10
3.817
 20
80.757
 30
0.0
 70
0
  0
VERTEX
  5
FEC
330
A35
100
AcDbEntity
  8
0
100
AcDbVertex
100
AcDb2dVertex
 10
3.76
 20
80.757
 30
0.0
 70
0
  0
VERTEX
  5
FED
330
A35
100
AcDbEntity
  8
0
100
AcDbVertex
100
AcDb2dVertex
 10
3.76
 20
80.703
 30
0.0
 70
0
  0
VERTEX
  5
FEE
330
A35
100
AcDbEntity
  8
0
100
AcDbVertex
100
AcDb2dVertex
 10
3.704
 20
80.703
 30
0.0
 70
0
  0
VERTEX
  5
FEF
330
A35
100
AcDbEntity
  8
0
100
AcDbVertex
100
AcDb2dVertex
 10
3.647
 20
80.646
 30
0.0
 70
0
  0
VERTEX
  5
FF0
330
A35
100
AcDbEntity
  8
0
100
AcDbVertex
100
AcDb2dVertex
 10
3.592
 20
80.646
 30
0.0
 70
0
  0
VERTEX
  5
FF1
330
A35
100
AcDbEntity
  8
0
100
AcDbVertex
100
AcDb2dVertex
 10
3.536
 20
80.59
 30
0.0
 70
0
  0
VERTEX
  5
FF2
330
A35
100
AcDbEntity
  8
0
100
AcDbVertex
100
AcDb2dVertex
 10
3.536
 20
80.534
 30
0.0
 70
0
  0
VERTEX
  5
FF3
330
A35
100
AcDbEntity
  8
0
100
AcDbVertex
100
AcDb2dVertex
 10
3.479
 20
80.478
 30
0.0
 70
0
  0
VERTEX
  5
FF4
330
A35
100
AcDbEntity
  8
0
100
AcDbVertex
100
AcDb2dVertex
 10
3.479
 20
80.421
 30
0.0
 70
0
  0
VERTEX
  5
FF5
330
A35
100
AcDbEntity
  8
0
100
AcDbVertex
100
AcDb2dVertex
 10
3.424
 20
80.365
 30
0.0
 70
0
  0
VERTEX
  5
FF6
330
A35
100
AcDbEntity
  8
0
100
AcDbVertex
100
AcDb2dVertex
 10
3.368
 20
80.31
 30
0.0
 70
0
  0
VERTEX
  5
FF7
330
A35
100
AcDbEntity
  8
0
100
AcDbVertex
100
AcDb2dVertex
 10
3.368
 20
80.142
 30
0.0
 70
0
  0
VERTEX
  5
FF8
330
A35
100
AcDbEntity
  8
0
100
AcDbVertex
100
AcDb2dVertex
 10
3.311
 20
80.085
 30
0.0
 70
0
  0
VERTEX
  5
FF9
330
A35
100
AcDbEntity
  8
0
100
AcDbVertex
100
AcDb2dVertex
 10
3.311
 20
79.86
 30
0.0
 70
0
  0
VERTEX
  5
FFA
330
A35
100
AcDbEntity
  8
0
100
AcDbVertex
100
AcDb2dVertex
 10
3.368
 20
79.86
 30
0.0
 70
0
  0
VERTEX
  5
FFB
330
A35
100
AcDbEntity
  8
0
100
AcDbVertex
100
AcDb2dVertex
 10
3.368
 20
79.692
 30
0.0
 70
0
  0
VERTEX
  5
FFC
330
A35
100
AcDbEntity
  8
0
100
AcDbVertex
100
AcDb2dVertex
 10
3.424
 20
79.692
 30
0.0
 70
0
  0
VERTEX
  5
FFD
330
A35
100
AcDbEntity
  8
0
100
AcDbVertex
100
AcDb2dVertex
 10
3.479
 20
79.636
 30
0.0
 70
0
  0
VERTEX
  5
FFE
330
A35
100
AcDbEntity
  8
0
100
AcDbVertex
100
AcDb2dVertex
 10
3.536
 20
79.579
 30
0.0
 70
0
  0
SEQEND
  5
FE9
330
A35
100
AcDbEntity
  8
0
  0
POLYLINE
  5
FFF
330
A35
100
AcDbEntity
  8
0
100
AcDb2dPolyline
 66
1
 10
0.0
 20
0.0
 30
0.0
 70
0
  0
VERTEX
  5
1001
330
A35
100
AcDbEntity
  8
0
100
AcDbVertex
100
AcDb2dVertex
 10
5.05
 20
81.039
 30
0.0
 70
0
  0
VERTEX
  5
1002
330
A35
100
AcDbEntity
  8
0
100
AcDbVertex
100
AcDb2dVertex
 10
4.996
 20
81.039
 30
0.0
 70
0
  0
VERTEX
  5
1003
330
A35
100
AcDbEntity
  8
0
100
AcDbVertex
100
AcDb2dVertex
 10
4.996
 20
80.982
 30
0.0
 70
0
  0
VERTEX
  5
1004
330
A35
100
AcDbEntity
  8
0
100
AcDbVertex
100
AcDb2dVertex
 10
4.939
 20
80.982
 30
0.0
 70
0
  0
VERTEX
  5
1005
330
A35
100
AcDbEntity
  8
0
100
AcDbVertex
100
AcDb2dVertex
 10
4.939
 20
80.757
 30
0.0
 70
0
  0
VERTEX
  5
1006
330
A35
100
AcDbEntity
  8
0
100
AcDbVertex
100
AcDb2dVertex
 10
4.996
 20
80.757
 30
0.0
 70
0
  0
SEQEND
  5
1000
330
A35
100
AcDbEntity
  8
0
  0
POLYLINE
  5
1007
330
A35
100
AcDbEntity
  8
0
100
AcDb2dPolyline
 66
1
 10
0.0
 20
0.0
 30
0.0
 70
0
  0
VERTEX
  5
1009
330
A35
100
AcDbEntity
  8
0
100
AcDbVertex
100
AcDb2dVertex
 10
5.5
 20
79.804
 30
0.0
 70
0
  0
VERTEX
  5
100A
330
A35
100
AcDbEntity
  8
0
100
AcDbVertex
100
AcDb2dVertex
 10
5.5
 20
79.86
 30
0.0
 70
0
  0
VERTEX
  5
100B
330
A35
100
AcDbEntity
  8
0
100
AcDbVertex
100
AcDb2dVertex
 10
5.557
 20
79.86
 30
0.0
 70
0
  0
VERTEX
  5
100C
330
A35
100
AcDbEntity
  8
0
100
AcDbVertex
100
AcDb2dVertex
 10
5.557
 20
79.804
 30
0.0
 70
0
  0
SEQEND
  5
1008
330
A35
100
AcDbEntity
  8
0
  0
POLYLINE
  5
100D
330
A35
100
AcDbEntity
  8
0
100
AcDb2dPolyline
 66
1
 10
0.0
 20
0.0
 30
0.0
 70
0
  0
VERTEX
  5
100F
330
A35
100
AcDbEntity
  8
0
100
AcDbVertex
100
AcDb2dVertex
 10
2.525
 20
79.971
 30
0.0
 70
0
  0
VERTEX
  5
1010
330
A35
100
AcDbEntity
  8
0
100
AcDbVertex
100
AcDb2dVertex
 10
2.582
 20
79.971
 30
0.0
 70
0
  0
VERTEX
  5
1011
330
A35
100
AcDbEntity
  8
0
100
AcDbVertex
100
AcDb2dVertex
 10
2.638
 20
79.971
 30
0.0
 70
0
  0
SEQEND
  5
100E
330
A35
100
AcDbEntity
  8
0
  0
POLYLINE
  5
1012
330
A35
100
AcDbEntity
  8
0
100
AcDb2dPolyline
 66
1
 10
0.0
 20
0.0
 30
0.0
 70
0
  0
VERTEX
  5
1014
330
A35
100
AcDbEntity
  8
0
100
AcDbVertex
100
AcDb2dVertex
 10
5.164
 20
81.039
 30
0.0
 70
0
  0
VERTEX
  5
1015
330
A35
100
AcDbEntity
  8
0
100
AcDbVertex
100
AcDb2dVertex
 10
5.107
 20
81.039
 30
0.0
 70
0
  0
VERTEX
  5
1016
330
A35
100
AcDbEntity
  8
0
100
AcDbVertex
100
AcDb2dVertex
 10
5.05
 20
81.039
 30
0.0
 70
0
  0
SEQEND
  5
1013
330
A35
100
AcDbEntity
  8
0
  0
POLYLINE
  5
1017
330
A35
100
AcDbEntity
  8
0
100
AcDb2dPolyline
 66
1
 10
0.0
 20
0.0
 30
0.0
 70
0
  0
VERTEX
  5
1019
330
A35
100
AcDbEntity
  8
0
100
AcDbVertex
100
AcDb2dVertex
 10
5.443
 20
81.488
 30
0.0
 70
0
  0
VERTEX
  5
101A
330
A35
100
AcDbEntity
  8
0
100
AcDbVertex
100
AcDb2dVertex
 10
5.5
 20
81.488
 30
0.0
 70
0
  0
VERTEX
  5
101B
330
A35
100
AcDbEntity
  8
0
100
AcDbVertex
100
AcDb2dVertex
 10
5.5
 20
81.543
 30
0.0
 70
0
  0
SEQEND
  5
1018
330
A35
100
AcDbEntity
  8
0
  0
POLYLINE
  5
101C
330
A35
100
AcDbEntity
  8
0
100
AcDb2dPolyline
 66
1
 10
0.0
 20
0.0
 30
0.0
 70
0
  0
VERTEX
  5
101E
330
A35
100
AcDbEntity
  8
0
100
AcDbVertex
100
AcDb2dVertex
 10
5.05
 20
81.039
 30
0.0
 70
0
  0
VERTEX
  5
101F
330
A35
100
AcDbEntity
  8
0
100
AcDbVertex
100
AcDb2dVertex
 10
4.996
 20
81.039
 30
0.0
 70
0
  0
VERTEX
  5
1020
330
A35
100
AcDbEntity
  8
0
100
AcDbVertex
100
AcDb2dVertex
 10
4.996
 20
80.982
 30
0.0
 70
0
  0
VERTEX
  5
1021
330
A35
100
AcDbEntity
  8
0
100
AcDbVertex
100
AcDb2dVertex
 10
4.939
 20
80.982
 30
0.0
 70
0
  0
VERTEX
  5
1022
330
A35
100
AcDbEntity
  8
0
100
AcDbVertex
100
AcDb2dVertex
 10
4.939
 20
80.927
 30
0.0
 70
0
  0
VERTEX
  5
1023
330
A35
100
AcDbEntity
  8
0
100
AcDbVertex
100
AcDb2dVertex
 10
4.882
 20
80.927
 30
0.0
 70
0
  0
VERTEX
  5
1024
330
A35
100
AcDbEntity
  8
0
100
AcDbVertex
100
AcDb2dVertex
 10
4.882
 20
80.814
 30
0.0
 70
0
  0
VERTEX
  5
1025
330
A35
100
AcDbEntity
  8
0
100
AcDbVertex
100
AcDb2dVertex
 10
4.939
 20
80.814
 30
0.0
 70
0
  0
VERTEX
  5
1026
330
A35
100
AcDbEntity
  8
0
100
AcDbVertex
100
AcDb2dVertex
 10
4.939
 20
80.757
 30
0.0
 70
0
  0
VERTEX
  5
1027
330
A35
100
AcDbEntity
  8
0
100
AcDbVertex
100
AcDb2dVertex
 10
4.996
 20
80.757
 30
0.0
 70
0
  0
SEQEND
  5
101D
330
A35
100
AcDbEntity
  8
0
  0
POLYLINE
  5
1028
330
A35
100
AcDbEntity
  8
0
100
AcDb2dPolyline
 66
1
 10
0.0
 20
0.0
 30
0.0
 70
0
  0
VERTEX
  5
102A
330
A35
100
AcDbEntity
  8
0
100
AcDbVertex
100
AcDb2dVertex
 10
5.05
 20
81.039
 30
0.0
 70
0
  0
VERTEX
  5
102B
330
A35
100
AcDbEntity
  8
0
100
AcDbVertex
100
AcDb2dVertex
 10
5.05
 20
81.096
 30
0.0
 70
0
  0
VERTEX
  5
102C
330
A35
100
AcDbEntity
  8
0
100
AcDbVertex
100
AcDb2dVertex
 10
5.107
 20
81.096
 30
0.0
 70
0
  0
VERTEX
  5
102D
330
A35
100
AcDbEntity
  8
0
100
AcDbVertex
100
AcDb2dVertex
 10
5.107
 20
81.039
 30
0.0
 70
0
  0
SEQEND
  5
1029
330
A35
100
AcDbEntity
  8
0
  0
POLYLINE
  5
102E
330
A35
100
AcDbEntity
  8
0
100
AcDb2dPolyline
 66
1
 10
0.0
 20
0.0
 30
0.0
 70
0
  0
VERTEX
  5
1030
330
A35
100
AcDbEntity
  8
0
100
AcDbVertex
100
AcDb2dVertex
 10
3.817
 20
80.814
 30
0.0
 70
0
  0
VERTEX
  5
1031
330
A35
100
AcDbEntity
  8
0
100
AcDbVertex
100
AcDb2dVertex
 10
3.872
 20
80.814
 30
0.0
 70
0
  0
VERTEX
  5
1032
330
A35
100
AcDbEntity
  8
0
100
AcDbVertex
100
AcDb2dVertex
 10
3.928
 20
80.814
 30
0.0
 70
0
  0
VERTEX
  5
1033
330
A35
100
AcDbEntity
  8
0
100
AcDbVertex
100
AcDb2dVertex
 10
3.985
 20
80.814
 30
0.0
 70
0
  0
VERTEX
  5
1034
330
A35
100
AcDbEntity
  8
0
100
AcDbVertex
100
AcDb2dVertex
 10
4.04
 20
80.814
 30
0.0
 70
0
  0
VERTEX
  5
1035
330
A35
100
AcDbEntity
  8
0
100
AcDbVertex
100
AcDb2dVertex
 10
4.097
 20
80.814
 30
0.0
 70
0
  0
VERTEX
  5
1036
330
A35
100
AcDbEntity
  8
0
100
AcDbVertex
100
AcDb2dVertex
 10
4.153
 20
80.814
 30
0.0
 70
0
  0
VERTEX
  5
1037
330
A35
100
AcDbEntity
  8
0
100
AcDbVertex
100
AcDb2dVertex
 10
4.153
 20
80.757
 30
0.0
 70
0
  0
SEQEND
  5
102F
330
A35
100
AcDbEntity
  8
0
  0
POLYLINE
  5
1038
330
A35
100
AcDbEntity
  8
0
100
AcDb2dPolyline
 66
1
 10
0.0
 20
0.0
 30
0.0
 70
0
  0
VERTEX
  5
103A
330
A35
100
AcDbEntity
  8
0
100
AcDbVertex
100
AcDb2dVertex
 10
3.536
 20
79.579
 30
0.0
 70
0
  0
VERTEX
  5
103B
330
A35
100
AcDbEntity
  8
0
100
AcDbVertex
100
AcDb2dVertex
 10
3.479
 20
79.579
 30
0.0
 70
0
  0
VERTEX
  5
103C
330
A35
100
AcDbEntity
  8
0
100
AcDbVertex
100
AcDb2dVertex
 10
3.479
 20
79.636
 30
0.0
 70
0
  0
VERTEX
  5
103D
330
A35
100
AcDbEntity
  8
0
100
AcDbVertex
100
AcDb2dVertex
 10
3.424
 20
79.636
 30
0.0
 70
0
  0
VERTEX
  5
103E
330
A35
100
AcDbEntity
  8
0
100
AcDbVertex
100
AcDb2dVertex
 10
3.424
 20
79.692
 30
0.0
 70
0
  0
VERTEX
  5
103F
330
A35
100
AcDbEntity
  8
0
100
AcDbVertex
100
AcDb2dVertex
 10
3.368
 20
79.692
 30
0.0
 70
0
  0
VERTEX
  5
1040
330
A35
100
AcDbEntity
  8
0
100
AcDbVertex
100
AcDb2dVertex
 10
3.368
 20
79.804
 30
0.0
 70
0
  0
VERTEX
  5
1041
330
A35
100
AcDbEntity
  8
0
100
AcDbVertex
100
AcDb2dVertex
 10
3.311
 20
79.86
 30
0.0
 70
0
  0
VERTEX
  5
1042
330
A35
100
AcDbEntity
  8
0
100
AcDbVertex
100
AcDb2dVertex
 10
3.311
 20
80.142
 30
0.0
 70
0
  0
VERTEX
  5
1043
330
A35
100
AcDbEntity
  8
0
100
AcDbVertex
100
AcDb2dVertex
 10
3.368
 20
80.196
 30
0.0
 70
0
  0
VERTEX
  5
1044
330
A35
100
AcDbEntity
  8
0
100
AcDbVertex
100
AcDb2dVertex
 10
3.368
 20
80.365
 30
0.0
 70
0
  0
VERTEX
  5
1045
330
A35
100
AcDbEntity
  8
0
100
AcDbVertex
100
AcDb2dVertex
 10
3.424
 20
80.365
 30
0.0
 70
0
  0
VERTEX
  5
1046
330
A35
100
AcDbEntity
  8
0
100
AcDbVertex
100
AcDb2dVertex
 10
3.424
 20
80.421
 30
0.0
 70
0
  0
VERTEX
  5
1047
330
A35
100
AcDbEntity
  8
0
100
AcDbVertex
100
AcDb2dVertex
 10
3.479
 20
80.421
 30
0.0
 70
0
  0
VERTEX
  5
1048
330
A35
100
AcDbEntity
  8
0
100
AcDbVertex
100
AcDb2dVertex
 10
3.479
 20
80.534
 30
0.0
 70
0
  0
VERTEX
  5
1049
330
A35
100
AcDbEntity
  8
0
100
AcDbVertex
100
AcDb2dVertex
 10
3.536
 20
80.534
 30
0.0
 70
0
  0
VERTEX
  5
104A
330
A35
100
AcDbEntity
  8
0
100
AcDbVertex
100
AcDb2dVertex
 10
3.536
 20
80.59
 30
0.0
 70
0
  0
VERTEX
  5
104B
330
A35
100
AcDbEntity
  8
0
100
AcDbVertex
100
AcDb2dVertex
 10
3.592
 20
80.646
 30
0.0
 70
0
  0
VERTEX
  5
104C
330
A35
100
AcDbEntity
  8
0
100
AcDbVertex
100
AcDb2dVertex
 10
3.647
 20
80.646
 30
0.0
 70
0
  0
VERTEX
  5
104D
330
A35
100
AcDbEntity
  8
0
100
AcDbVertex
100
AcDb2dVertex
 10
3.647
 20
80.703
 30
0.0
 70
0
  0
VERTEX
  5
104E
330
A35
100
AcDbEntity
  8
0
100
AcDbVertex
100
AcDb2dVertex
 10
3.704
 20
80.703
 30
0.0
 70
0
  0
VERTEX
  5
104F
330
A35
100
AcDbEntity
  8
0
100
AcDbVertex
100
AcDb2dVertex
 10
3.76
 20
80.757
 30
0.0
 70
0
  0
VERTEX
  5
1050
330
A35
100
AcDbEntity
  8
0
100
AcDbVertex
100
AcDb2dVertex
 10
3.817
 20
80.757
 30
0.0
 70
0
  0
VERTEX
  5
1051
330
A35
100
AcDbEntity
  8
0
100
AcDbVertex
100
AcDb2dVertex
 10
3.817
 20
80.814
 30
0.0
 70
0
  0
SEQEND
  5
1039
330
A35
100
AcDbEntity
  8
0
  0
POLYLINE
  5
1052
330
A35
100
AcDbEntity
  8
0
100
AcDb2dPolyline
 66
1
 10
0.0
 20
0.0
 30
0.0
 70
0
  0
VERTEX
  5
1054
330
A35
100
AcDbEntity
  8
0
100
AcDbVertex
100
AcDb2dVertex
 10
4.153
 20
80.757
 30
0.0
 70
0
  0
VERTEX
  5
1055
330
A35
100
AcDbEntity
  8
0
100
AcDbVertex
100
AcDb2dVertex
 10
4.153
 20
80.814
 30
0.0
 70
0
  0
VERTEX
  5
1056
330
A35
100
AcDbEntity
  8
0
100
AcDbVertex
100
AcDb2dVertex
 10
4.097
 20
80.814
 30
0.0
 70
0
  0
VERTEX
  5
1057
330
A35
100
AcDbEntity
  8
0
100
AcDbVertex
100
AcDb2dVertex
 10
4.04
 20
80.814
 30
0.0
 70
0
  0
VERTEX
  5
1058
330
A35
100
AcDbEntity
  8
0
100
AcDbVertex
100
AcDb2dVertex
 10
3.985
 20
80.814
 30
0.0
 70
0
  0
VERTEX
  5
1059
330
A35
100
AcDbEntity
  8
0
100
AcDbVertex
100
AcDb2dVertex
 10
3.928
 20
80.814
 30
0.0
 70
0
  0
VERTEX
  5
105A
330
A35
100
AcDbEntity
  8
0
100
AcDbVertex
100
AcDb2dVertex
 10
3.872
 20
80.814
 30
0.0
 70
0
  0
VERTEX
  5
105B
330
A35
100
AcDbEntity
  8
0
100
AcDbVertex
100
AcDb2dVertex
 10
3.817
 20
80.814
 30
0.0
 70
0
  0
SEQEND
  5
1053
330
A35
100
AcDbEntity
  8
0
  0
POLYLINE
  5
105C
330
A35
100
AcDbEntity
  8
0
100
AcDb2dPolyline
 66
1
 10
0.0
 20
0.0
 30
0.0
 70
0
  0
VERTEX
  5
105E
330
A35
100
AcDbEntity
  8
0
100
AcDbVertex
100
AcDb2dVertex
 10
59.887
 20
52.695
 30
0.0
 70
0
  0
VERTEX
  5
105F
330
A35
100
AcDbEntity
  8
0
100
AcDbVertex
100
AcDb2dVertex
 10
59.943
 20
52.695
 30
0.0
 70
0
  0
VERTEX
  5
1060
330
A35
100
AcDbEntity
  8
0
100
AcDbVertex
100
AcDb2dVertex
 10
59.943
 20
52.75
 30
0.0
 70
0
  0
VERTEX
  5
1061
330
A35
100
AcDbEntity
  8
0
100
AcDbVertex
100
AcDb2dVertex
 10
60.0
 20
52.75
 30
0.0
 70
0
  0
VERTEX
  5
1062
330
A35
100
AcDbEntity
  8
0
100
AcDbVertex
100
AcDb2dVertex
 10
60.0
 20
52.863
 30
0.0
 70
0
  0
VERTEX
  5
1063
330
A35
100
AcDbEntity
  8
0
100
AcDbVertex
100
AcDb2dVertex
 10
59.943
 20
52.863
 30
0.0
 70
0
  0
SEQEND
  5
105D
330
A35
100
AcDbEntity
  8
0
  0
POLYLINE
  5
1064
330
A35
100
AcDbEntity
  8
0
100
AcDb2dPolyline
 66
1
 10
0.0
 20
0.0
 30
0.0
 70
0
  0
VERTEX
  5
1066
330
A35
100
AcDbEntity
  8
0
100
AcDbVertex
100
AcDb2dVertex
 10
52.366
 20
50.057
 30
0.0
 70
0
  0
VERTEX
  5
1067
330
A35
100
AcDbEntity
  8
0
100
AcDbVertex
100
AcDb2dVertex
 10
52.366
 20
50.0
 30
0.0
 70
0
  0
VERTEX
  5
1068
330
A35
100
AcDbEntity
  8
0
100
AcDbVertex
100
AcDb2dVertex
 10
52.309
 20
50.0
 30
0.0
 70
0
  0
VERTEX
  5
1069
330
A35
100
AcDbEntity
  8
0
100
AcDbVertex
100
AcDb2dVertex
 10
52.309
 20
50.057
 30
0.0
 70
0
  0
SEQEND
  5
1065
330
A35
100
AcDbEntity
  8
0
  0
POLYLINE
  5
106A
330
A35
100
AcDbEntity
  8
0
100
AcDb2dPolyline
 66
1
 10
0.0
 20
0.0
 30
0.0
 70
0
  0
VERTEX
  5
106C
330
A35
100
AcDbEntity
  8
0
100
AcDbVertex
100
AcDb2dVertex
 10
5.5
 20
79.804
 30
0.0
 70
0
  0
VERTEX
  5
106D
330
A35
100
AcDbEntity
  8
0
100
AcDbVertex
100
AcDb2dVertex
 10
5.5
 20
79.749
 30
0.0
 70
0
  0
VERTEX
  5
106E
330
A35
100
AcDbEntity
  8
0
100
AcDbVertex
100
AcDb2dVertex
 10
5.557
 20
79.749
 30
0.0
 70
0
  0
SEQEND
  5
106B
330
A35
100
AcDbEntity
  8
0
  0
POLYLINE
  5
106F
330
A35
100
AcDbEntity
  8
0
100
AcDb2dPolyline
 66
1
 10
0.0
 20
0.0
 30
0.0
 70
0
  0
VERTEX
  5
1071
330
A35
100
AcDbEntity
  8
0
100
AcDbVertex
100
AcDb2dVertex
 10
0.0
 20
76.38
 30
0.0
 70
0
  0
VERTEX
  5
1072
330
A35
100
AcDbEntity
  8
0
100
AcDbVertex
100
AcDb2dVertex
 10
0.0
 20
76.493
 30
0.0
 70
0
  0
VERTEX
  5
1073
330
A35
100
AcDbEntity
  8
0
100
AcDbVertex
100
AcDb2dVertex
 10
0.057
 20
76.493
 30
0.0
 70
0
  0
SEQEND
  5
1070
330
A35
100
AcDbEntity
  8
0
  0
POLYLINE
  5
1074
330
A35
100
AcDbEntity
  8
0
100
AcDb2dPolyline
 66
1
 10
0.0
 20
0.0
 30
0.0
 70
0
  0
VERTEX
  5
1076
330
A35
100
AcDbEntity
  8
0
100
AcDbVertex
100
AcDb2dVertex
 10
2.132
 20
78.514
 30
0.0
 70
0
  0
VERTEX
  5
1077
330
A35
100
AcDbEntity
  8
0
100
AcDbVertex
100
AcDb2dVertex
 10
2.189
 20
78.514
 30
0.0
 70
0
  0
VERTEX
  5
1078
330
A35
100
AcDbEntity
  8
0
100
AcDbVertex
100
AcDb2dVertex
 10
2.189
 20
78.625
 30
0.0
 70
0
  0
SEQEND
  5
1075
330
A35
100
AcDbEntity
  8
0
  0
POLYLINE
  5
1079
330
A35
100
AcDbEntity
  8
0
100
AcDb2dPolyline
 66
1
 10
0.0
 20
0.0
 30
0.0
 70
0
  0
VERTEX
  5
107B
330
A35
100
AcDbEntity
  8
0
100
AcDbVertex
100
AcDb2dVertex
 10
7.577
 20
79.018
 30
0.0
 70
0
  0
VERTEX
  5
107C
330
A35
100
AcDbEntity
  8
0
100
AcDbVertex
100
AcDb2dVertex
 10
7.632
 20
79.018
 30
0.0
 70
0
  0
VERTEX
  5
107D
330
A35
100
AcDbEntity
  8
0
100
AcDbVertex
100
AcDb2dVertex
 10
7.689
 20
79.018
 30
0.0
 70
0
  0
VERTEX
  5
107E
330
A35
100
AcDbEntity
  8
0
100
AcDbVertex
100
AcDb2dVertex
 10
7.689
 20
79.186
 30
0.0
 70
0
  0
SEQEND
  5
107A
330
A35
100
AcDbEntity
  8
0
  0
POLYLINE
  5
107F
330
A35
100
AcDbEntity
  8
0
100
AcDb2dPolyline
 66
1
 10
0.0
 20
0.0
 30
0.0
 70
0
  0
VERTEX
  5
1081
330
A35
100
AcDbEntity
  8
0
100
AcDbVertex
100
AcDb2dVertex
 10
0.111
 20
76.38
 30
0.0
 70
0
  0
VERTEX
  5
1082
330
A35
100
AcDbEntity
  8
0
100
AcDbVertex
100
AcDb2dVertex
 10
0.11
 20
76.38
 30
0.0
 70
0
  0
VERTEX
  5
1083
330
A35
100
AcDbEntity
  8
0
100
AcDbVertex
100
AcDb2dVertex
 10
0.109
 20
76.38
 30
0.0
 70
0
  0
VERTEX
  5
1084
330
A35
100
AcDbEntity
  8
0
100
AcDbVertex
100
AcDb2dVertex
 10
0.108
 20
76.38
 30
0.0
 70
0
  0
VERTEX
  5
1085
330
A35
100
AcDbEntity
  8
0
100
AcDbVertex
100
AcDb2dVertex
 10
0.107
 20
76.38
 30
0.0
 70
0
  0
VERTEX
  5
1086
330
A35
100
AcDbEntity
  8
0
100
AcDbVertex
100
AcDb2dVertex
 10
0.106
 20
76.38
 30
0.0
 70
0
  0
VERTEX
  5
1087
330
A35
100
AcDbEntity
  8
0
100
AcDbVertex
100
AcDb2dVertex
 10
0.105
 20
76.38
 30
0.0
 70
0
  0
VERTEX
  5
1088
330
A35
100
AcDbEntity
  8
0
100
AcDbVertex
100
AcDb2dVertex
 10
0.104
 20
76.38
 30
0.0
 70
0
  0
VERTEX
  5
1089
330
A35
100
AcDbEntity
  8
0
100
AcDbVertex
100
AcDb2dVertex
 10
0.103
 20
76.38
 30
0.0
 70
0
  0
VERTEX
  5
108A
330
A35
100
AcDbEntity
  8
0
100
AcDbVertex
100
AcDb2dVertex
 10
0.102
 20
76.38
 30
0.0
 70
0
  0
VERTEX
  5
108B
330
A35
100
AcDbEntity
  8
0
100
AcDbVertex
100
AcDb2dVertex
 10
0.101
 20
76.38
 30
0.0
 70
0
  0
VERTEX
  5
108C
330
A35
100
AcDbEntity
  8
0
100
AcDbVertex
100
AcDb2dVertex
 10
0.1
 20
76.38
 30
0.0
 70
0
  0
VERTEX
  5
108D
330
A35
100
AcDbEntity
  8
0
100
AcDbVertex
100
AcDb2dVertex
 10
0.099
 20
76.38
 30
0.0
 70
0
  0
VERTEX
  5
108E
330
A35
100
AcDbEntity
  8
0
100
AcDbVertex
100
AcDb2dVertex
 10
0.098
 20
76.38
 30
0.0
 70
0
  0
VERTEX
  5
108F
330
A35
100
AcDbEntity
  8
0
100
AcDbVertex
100
AcDb2dVertex
 10
0.097
 20
76.38
 30
0.0
 70
0
  0
VERTEX
  5
1090
330
A35
100
AcDbEntity
  8
0
100
AcDbVertex
100
AcDb2dVertex
 10
0.096
 20
76.38
 30
0.0
 70
0
  0
VERTEX
  5
1091
330
A35
100
AcDbEntity
  8
0
100
AcDbVertex
100
AcDb2dVertex
 10
0.095
 20
76.38
 30
0.0
 70
0
  0
VERTEX
  5
1092
330
A35
100
AcDbEntity
  8
0
100
AcDbVertex
100
AcDb2dVertex
 10
0.094
 20
76.38
 30
0.0
 70
0
  0
VERTEX
  5
1093
330
A35
100
AcDbEntity
  8
0
100
AcDbVertex
100
AcDb2dVertex
 10
0.093
 20
76.38
 30
0.0
 70
0
  0
VERTEX
  5
1094
330
A35
100
AcDbEntity
  8
0
100
AcDbVertex
100
AcDb2dVertex
 10
0.092
 20
76.38
 30
0.0
 70
0
  0
VERTEX
  5
1095
330
A35
100
AcDbEntity
  8
0
100
AcDbVertex
100
AcDb2dVertex
 10
0.091
 20
76.38
 30
0.0
 70
0
  0
VERTEX
  5
1096
330
A35
100
AcDbEntity
  8
0
100
AcDbVertex
100
AcDb2dVertex
 10
0.09
 20
76.38
 30
0.0
 70
0
  0
VERTEX
  5
1097
330
A35
100
AcDbEntity
  8
0
100
AcDbVertex
100
AcDb2dVertex
 10
0.089
 20
76.38
 30
0.0
 70
0
  0
VERTEX
  5
1098
330
A35
100
AcDbEntity
  8
0
100
AcDbVertex
100
AcDb2dVertex
 10
0.088
 20
76.38
 30
0.0
 70
0
  0
VERTEX
  5
1099
330
A35
100
AcDbEntity
  8
0
100
AcDbVertex
100
AcDb2dVertex
 10
0.087
 20
76.38
 30
0.0
 70
0
  0
VERTEX
  5
109A
330
A35
100
AcDbEntity
  8
0
100
AcDbVertex
100
AcDb2dVertex
 10
0.086
 20
76.38
 30
0.0
 70
0
  0
VERTEX
  5
109B
330
A35
100
AcDbEntity
  8
0
100
AcDbVertex
100
AcDb2dVertex
 10
0.085
 20
76.38
 30
0.0
 70
0
  0
VERTEX
  5
109C
330
A35
100
AcDbEntity
  8
0
100
AcDbVertex
100
AcDb2dVertex
 10
0.084
 20
76.38
 30
0.0
 70
0
  0
VERTEX
  5
109D
330
A35
100
AcDbEntity
  8
0
100
AcDbVertex
100
AcDb2dVertex
 10
0.083
 20
76.38
 30
0.0
 70
0
  0
VERTEX
  5
109E
330
A35
100
AcDbEntity
  8
0
100
AcDbVertex
100
AcDb2dVertex
 10
0.082
 20
76.38
 30
0.0
 70
0
  0
VERTEX
  5
109F
330
A35
100
AcDbEntity
  8
0
100
AcDbVertex
100
AcDb2dVertex
 10
0.081
 20
76.38
 30
0.0
 70
0
  0
VERTEX
  5
10A0
330
A35
100
AcDbEntity
  8
0
100
AcDbVertex
100
AcDb2dVertex
 10
0.08
 20
76.38
 30
0.0
 70
0
  0
VERTEX
  5
10A1
330
A35
100
AcDbEntity
  8
0
100
AcDbVertex
100
AcDb2dVertex
 10
0.079
 20
76.38
 30
0.0
 70
0
  0
VERTEX
  5
10A2
330
A35
100
AcDbEntity
  8
0
100
AcDbVertex
100
AcDb2dVertex
 10
0.078
 20
76.38
 30
0.0
 70
0
  0
VERTEX
  5
10A3
330
A35
100
AcDbEntity
  8
0
100
AcDbVertex
100
AcDb2dVertex
 10
0.077
 20
76.38
 30
0.0
 70
0
  0
VERTEX
  5
10A4
330
A35
100
AcDbEntity
  8
0
100
AcDbVertex
100
AcDb2dVertex
 10
0.076
 20
76.38
 30
0.0
 70
0
  0
VERTEX
  5
10A5
330
A35
100
AcDbEntity
  8
0
100
AcDbVertex
100
AcDb2dVertex
 10
0.075
 20
76.38
 30
0.0
 70
0
  0
VERTEX
  5
10A6
330
A35
100
AcDbEntity
  8
0
100
AcDbVertex
100
AcDb2dVertex
 10
0.074
 20
76.38
 30
0.0
 70
0
  0
VERTEX
  5
10A7
330
A35
100
AcDbEntity
  8
0
100
AcDbVertex
100
AcDb2dVertex
 10
0.073
 20
76.38
 30
0.0
 70
0
  0
VERTEX
  5
10A8
330
A35
100
AcDbEntity
  8
0
100
AcDbVertex
100
AcDb2dVertex
 10
0.072
 20
76.38
 30
0.0
 70
0
  0
VERTEX
  5
10A9
330
A35
100
AcDbEntity
  8
0
100
AcDbVertex
100
AcDb2dVertex
 10
0.071
 20
76.38
 30
0.0
 70
0
  0
VERTEX
  5
10AA
330
A35
100
AcDbEntity
  8
0
100
AcDbVertex
100
AcDb2dVertex
 10
0.07
 20
76.38
 30
0.0
 70
0
  0
VERTEX
  5
10AB
330
A35
100
AcDbEntity
  8
0
100
AcDbVertex
100
AcDb2dVertex
 10
0.069
 20
76.38
 30
0.0
 70
0
  0
VERTEX
  5
10AC
330
A35
100
AcDbEntity
  8
0
100
AcDbVertex
100
AcDb2dVertex
 10
0.068
 20
76.38
 30
0.0
 70
0
  0
VERTEX
  5
10AD
330
A35
100
AcDbEntity
  8
0
100
AcDbVertex
100
AcDb2dVertex
 10
0.067
 20
76.38
 30
0.0
 70
0
  0
VERTEX
  5
10AE
330
A35
100
AcDbEntity
  8
0
100
AcDbVertex
100
AcDb2dVertex
 10
0.066
 20
76.38
 30
0.0
 70
0
  0
VERTEX
  5
10AF
330
A35
100
AcDbEntity
  8
0
100
AcDbVertex
100
AcDb2dVertex
 10
0.065
 20
76.38
 30
0.0
 70
0
  0
VERTEX
  5
10B0
330
A35
100
AcDbEntity
  8
0
100
AcDbVertex
100
AcDb2dVertex
 10
0.064
 20
76.38
 30
0.0
 70
0
  0
VERTEX
  5
10B1
330
A35
100
AcDbEntity
  8
0
100
AcDbVertex
100
AcDb2dVertex
 10
0.063
 20
76.38
 30
0.0
 70
0
  0
VERTEX
  5
10B2
330
A35
100
AcDbEntity
  8
0
100
AcDbVertex
100
AcDb2dVertex
 10
0.062
 20
76.38
 30
0.0
 70
0
  0
VERTEX
  5
10B3
330
A35
100
AcDbEntity
  8
0
100
AcDbVertex
100
AcDb2dVertex
 10
0.061
 20
76.38
 30
0.0
 70
0
  0
VERTEX
  5
10B4
330
A35
100
AcDbEntity
  8
0
100
AcDbVertex
100
AcDb2dVertex
 10
0.06
 20
76.38
 30
0.0
 70
0
  0
VERTEX
  5
10B5
330
A35
100
AcDbEntity
  8
0
100
AcDbVertex
100
AcDb2dVertex
 10
0.059
 20
76.38
 30
0.0
 70
0
  0
VERTEX
  5
10B6
330
A35
100
AcDbEntity
  8
0
100
AcDbVertex
100
AcDb2dVertex
 10
0.058
 20
76.38
 30
0.0
 70
0
  0
VERTEX
  5
10B7
330
A35
100
AcDbEntity
  8
0
100
AcDbVertex
100
AcDb2dVertex
 10
0.057
 20
76.38
 30
0.0
 70
0
  0
VERTEX
  5
10B8
330
A35
100
AcDbEntity
  8
0
100
AcDbVertex
100
AcDb2dVertex
 10
0.057
 20
76.379
 30
0.0
 70
0
  0
VERTEX
  5
10B9
330
A35
100
AcDbEntity
  8
0
100
AcDbVertex
100
AcDb2dVertex
 10
0.057
 20
76.378
 30
0.0
 70
0
  0
VERTEX
  5
10BA
330
A35
100
AcDbEntity
  8
0
100
AcDbVertex
100
AcDb2dVertex
 10
0.057
 20
76.377
 30
0.0
 70
0
  0
VERTEX
  5
10BB
330
A35
100
AcDbEntity
  8
0
100
AcDbVertex
100
AcDb2dVertex
 10
0.057
 20
76.376
 30
0.0
 70
0
  0
VERTEX
  5
10BC
330
A35
100
AcDbEntity
  8
0
100
AcDbVertex
100
AcDb2dVertex
 10
0.057
 20
76.375
 30
0.0
 70
0
  0
VERTEX
  5
10BD
330
A35
100
AcDbEntity
  8
0
100
AcDbVertex
100
AcDb2dVertex
 10
0.057
 20
76.374
 30
0.0
 70
0
  0
VERTEX
  5
10BE
330
A35
100
AcDbEntity
  8
0
100
AcDbVertex
100
AcDb2dVertex
 10
0.057
 20
76.373
 30
0.0
 70
0
  0
VERTEX
  5
10BF
330
A35
100
AcDbEntity
  8
0
100
AcDbVertex
100
AcDb2dVertex
 10
0.057
 20
76.372
 30
0.0
 70
0
  0
VERTEX
  5
10C0
330
A35
100
AcDbEntity
  8
0
100
AcDbVertex
100
AcDb2dVertex
 10
0.057
 20
76.371
 30
0.0
 70
0
  0
VERTEX
  5
10C1
330
A35
100
AcDbEntity
  8
0
100
AcDbVertex
100
AcDb2dVertex
 10
0.057
 20
76.37
 30
0.0
 70
0
  0
VERTEX
  5
10C2
330
A35
100
AcDbEntity
  8
0
100
AcDbVertex
100
AcDb2dVertex
 10
0.057
 20
76.369
 30
0.0
 70
0
  0
VERTEX
  5
10C3
330
A35
100
AcDbEntity
  8
0
100
AcDbVertex
100
AcDb2dVertex
 10
0.057
 20
76.368
 30
0.0
 70
0
  0
VERTEX
  5
10C4
330
A35
100
AcDbEntity
  8
0
100
AcDbVertex
100
AcDb2dVertex
 10
0.057
 20
76.367
 30
0.0
 70
0
  0
VERTEX
  5
10C5
330
A35
100
AcDbEntity
  8
0
100
AcDbVertex
100
AcDb2dVertex
 10
0.057
 20
76.366
 30
0.0
 70
0
  0
VERTEX
  5
10C6
330
A35
100
AcDbEntity
  8
0
100
AcDbVertex
100
AcDb2dVertex
 10
0.057
 20
76.365
 30
0.0
 70
0
  0
VERTEX
  5
10C7
330
A35
100
AcDbEntity
  8
0
100
AcDbVertex
100
AcDb2dVertex
 10
0.057
 20
76.364
 30
0.0
 70
0
  0
VERTEX
  5
10C8
330
A35
100
AcDbEntity
  8
0
100
AcDbVertex
100
AcDb2dVertex
 10
0.057
 20
76.363
 30
0.0
 70
0
  0
VERTEX
  5
10C9
330
A35
100
AcDbEntity
  8
0
100
AcDbVertex
100
AcDb2dVertex
 10
0.057
 20
76.362
 30
0.0
 70
0
  0
VERTEX
  5
10CA
330
A35
100
AcDbEntity
  8
0
100
AcDbVertex
100
AcDb2dVertex
 10
0.057
 20
76.361
 30
0.0
 70
0
  0
VERTEX
  5
10CB
330
A35
100
AcDbEntity
  8
0
100
AcDbVertex
100
AcDb2dVertex
 10
0.057
 20
76.36
 30
0.0
 70
0
  0
VERTEX
  5
10CC
330
A35
100
AcDbEntity
  8
0
100
AcDbVertex
100
AcDb2dVertex
 10
0.057
 20
76.359
 30
0.0
 70
0
  0
VERTEX
  5
10CD
330
A35
100
AcDbEntity
  8
0
100
AcDbVertex
100
AcDb2dVertex
 10
0.057
 20
76.358
 30
0.0
 70
0
  0
VERTEX
  5
10CE
330
A35
100
AcDbEntity
  8
0
100
AcDbVertex
100
AcDb2dVertex
 10
0.057
 20
76.357
 30
0.0
 70
0
  0
VERTEX
  5
10CF
330
A35
100
AcDbEntity
  8
0
100
AcDbVertex
100
AcDb2dVertex
 10
0.057
 20
76.356
 30
0.0
 70
0
  0
VERTEX
  5
10D0
330
A35
100
AcDbEntity
  8
0
100
AcDbVertex
100
AcDb2dVertex
 10
0.057
 20
76.355
 30
0.0
 70
0
  0
VERTEX
  5
10D1
330
A35
100
AcDbEntity
  8
0
100
AcDbVertex
100
AcDb2dVertex
 10
0.057
 20
76.354
 30
0.0
 70
0
  0
VERTEX
  5
10D2
330
A35
100
AcDbEntity
  8
0
100
AcDbVertex
100
AcDb2dVertex
 10
0.057
 20
76.353
 30
0.0
 70
0
  0
VERTEX
  5
10D3
330
A35
100
AcDbEntity
  8
0
100
AcDbVertex
100
AcDb2dVertex
 10
0.057
 20
76.352
 30
0.0
 70
0
  0
VERTEX
  5
10D4
330
A35
100
AcDbEntity
  8
0
100
AcDbVertex
100
AcDb2dVertex
 10
0.057
 20
76.351
 30
0.0
 70
0
  0
VERTEX
  5
10D5
330
A35
100
AcDbEntity
  8
0
100
AcDbVertex
100
AcDb2dVertex
 10
0.057
 20
76.35
 30
0.0
 70
0
  0
VERTEX
  5
10D6
330
A35
100
AcDbEntity
  8
0
100
AcDbVertex
100
AcDb2dVertex
 10
0.057
 20
76.349
 30
0.0
 70
0
  0
VERTEX
  5
10D7
330
A35
100
AcDbEntity
  8
0
100
AcDbVertex
100
AcDb2dVertex
 10
0.057
 20
76.348
 30
0.0
 70
0
  0
VERTEX
  5
10D8
330
A35
100
AcDbEntity
  8
0
100
AcDbVertex
100
AcDb2dVertex
 10
0.057
 20
76.347
 30
0.0
 70
0
  0
VERTEX
  5
10D9
330
A35
100
AcDbEntity
  8
0
100
AcDbVertex
100
AcDb2dVertex
 10
0.057
 20
76.346
 30
0.0
 70
0
  0
VERTEX
  5
10DA
330
A35
100
AcDbEntity
  8
0
100
AcDbVertex
100
AcDb2dVertex
 10
0.057
 20
76.345
 30
0.0
 70
0
  0
VERTEX
  5
10DB
330
A35
100
AcDbEntity
  8
0
100
AcDbVertex
100
AcDb2dVertex
 10
0.057
 20
76.344
 30
0.0
 70
0
  0
VERTEX
  5
10DC
330
A35
100
AcDbEntity
  8
0
100
AcDbVertex
100
AcDb2dVertex
 10
0.057
 20
76.343
 30
0.0
 70
0
  0
VERTEX
  5
10DD
330
A35
100
AcDbEntity
  8
0
100
AcDbVertex
100
AcDb2dVertex
 10
0.057
 20
76.342
 30
0.0
 70
0
  0
VERTEX
  5
10DE
330
A35
100
AcDbEntity
  8
0
100
AcDbVertex
100
AcDb2dVertex
 10
0.057
 20
76.341
 30
0.0
 70
0
  0
VERTEX
  5
10DF
330
A35
100
AcDbEntity
  8
0
100
AcDbVertex
100
AcDb2dVertex
 10
0.057
 20
76.34
 30
0.0
 70
0
  0
VERTEX
  5
10E0
330
A35
100
AcDbEntity
  8
0
100
AcDbVertex
100
AcDb2dVertex
 10
0.057
 20
76.339
 30
0.0
 70
0
  0
VERTEX
  5
10E1
330
A35
100
AcDbEntity
  8
0
100
AcDbVertex
100
AcDb2dVertex
 10
0.057
 20
76.338
 30
0.0
 70
0
  0
VERTEX
  5
10E2
330
A35
100
AcDbEntity
  8
0
100
AcDbVertex
100
AcDb2dVertex
 10
0.057
 20
76.337
 30
0.0
 70
0
  0
VERTEX
  5
10E3
330
A35
100
AcDbEntity
  8
0
100
AcDbVertex
100
AcDb2dVertex
 10
0.057
 20
76.336
 30
0.0
 70
0
  0
VERTEX
  5
10E4
330
A35
100
AcDbEntity
  8
0
100
AcDbVertex
100
AcDb2dVertex
 10
0.057
 20
76.335
 30
0.0
 70
0
  0
VERTEX
  5
10E5
330
A35
100
AcDbEntity
  8
0
100
AcDbVertex
100
AcDb2dVertex
 10
0.057
 20
76.334
 30
0.0
 70
0
  0
VERTEX
  5
10E6
330
A35
100
AcDbEntity
  8
0
100
AcDbVertex
100
AcDb2dVertex
 10
0.057
 20
76.333
 30
0.0
 70
0
  0
VERTEX
  5
10E7
330
A35
100
AcDbEntity
  8
0
100
AcDbVertex
100
AcDb2dVertex
 10
0.057
 20
76.332
 30
0.0
 70
0
  0
VERTEX
  5
10E8
330
A35
100
AcDbEntity
  8
0
100
AcDbVertex
100
AcDb2dVertex
 10
0.057
 20
76.331
 30
0.0
 70
0
  0
VERTEX
  5
10E9
330
A35
100
AcDbEntity
  8
0
100
AcDbVertex
100
AcDb2dVertex
 10
0.057
 20
76.33
 30
0.0
 70
0
  0
VERTEX
  5
10EA
330
A35
100
AcDbEntity
  8
0
100
AcDbVertex
100
AcDb2dVertex
 10
0.057
 20
76.329
 30
0.0
 70
0
  0
VERTEX
  5
10EB
330
A35
100
AcDbEntity
  8
0
100
AcDbVertex
100
AcDb2dVertex
 10
0.057
 20
76.328
 30
0.0
 70
0
  0
VERTEX
  5
10EC
330
A35
100
AcDbEntity
  8
0
100
AcDbVertex
100
AcDb2dVertex
 10
0.057
 20
76.327
 30
0.0
 70
0
  0
VERTEX
  5
10ED
330
A35
100
AcDbEntity
  8
0
100
AcDbVertex
100
AcDb2dVertex
 10
0.057
 20
76.326
 30
0.0
 70
0
  0
VERTEX
  5
10EE
330
A35
100
AcDbEntity
  8
0
100
AcDbVertex
100
AcDb2dVertex
 10
0.057
 20
76.325
 30
0.0
 70
0
  0
VERTEX
  5
10EF
330
A35
100
AcDbEntity
  8
0
100
AcDbVertex
100
AcDb2dVertex
 10
0.057
 20
76.324
 30
0.0
 70
0
  0
VERTEX
  5
10F0
330
A35
100
AcDbEntity
  8
0
100
AcDbVertex
100
AcDb2dVertex
 10
0.057
 20
76.325
 30
0.0
 70
0
  0
VERTEX
  5
10F1
330
A35
100
AcDbEntity
  8
0
100
AcDbVertex
100
AcDb2dVertex
 10
0.057
 20
76.326
 30
0.0
 70
0
  0
VERTEX
  5
10F2
330
A35
100
AcDbEntity
  8
0
100
AcDbVertex
100
AcDb2dVertex
 10
0.057
 20
76.327
 30
0.0
 70
0
  0
VERTEX
  5
10F3
330
A35
100
AcDbEntity
  8
0
100
AcDbVertex
100
AcDb2dVertex
 10
0.057
 20
76.328
 30
0.0
 70
0
  0
VERTEX
  5
10F4
330
A35
100
AcDbEntity
  8
0
100
AcDbVertex
100
AcDb2dVertex
 10
0.057
 20
76.329
 30
0.0
 70
0
  0
VERTEX
  5
10F5
330
A35
100
AcDbEntity
  8
0
100
AcDbVertex
100
AcDb2dVertex
 10
0.057
 20
76.33
 30
0.0
 70
0
  0
VERTEX
  5
10F6
330
A35
100
AcDbEntity
  8
0
100
AcDbVertex
100
AcDb2dVertex
 10
0.057
 20
76.331
 30
0.0
 70
0
  0
VERTEX
  5
10F7
330
A35
100
AcDbEntity
  8
0
100
AcDbVertex
100
AcDb2dVertex
 10
0.057
 20
76.332
 30
0.0
 70
0
  0
VERTEX
  5
10F8
330
A35
100
AcDbEntity
  8
0
100
AcDbVertex
100
AcDb2dVertex
 10
0.057
 20
76.333
 30
0.0
 70
0
  0
VERTEX
  5
10F9
330
A35
100
AcDbEntity
  8
0
100
AcDbVertex
100
AcDb2dVertex
 10
0.057
 20
76.334
 30
0.0
 70
0
  0
VERTEX
  5
10FA
330
A35
100
AcDbEntity
  8
0
100
AcDbVertex
100
AcDb2dVertex
 10
0.057
 20
76.335
 30
0.0
 70
0
  0
VERTEX
  5
10FB
330
A35
100
AcDbEntity
  8
0
100
AcDbVertex
100
AcDb2dVertex
 10
0.057
 20
76.336
 30
0.0
 70
0
  0
VERTEX
  5
10FC
330
A35
100
AcDbEntity
  8
0
100
AcDbVertex
100
AcDb2dVertex
 10
0.057
 20
76.337
 30
0.0
 70
0
  0
VERTEX
  5
10FD
330
A35
100
AcDbEntity
  8
0
100
AcDbVertex
100
AcDb2dVertex
 10
0.057
 20
76.338
 30
0.0
 70
0
  0
VERTEX
  5
10FE
330
A35
100
AcDbEntity
  8
0
100
AcDbVertex
100
AcDb2dVertex
 10
0.057
 20
76.339
 30
0.0
 70
0
  0
VERTEX
  5
10FF
330
A35
100
AcDbEntity
  8
0
100
AcDbVertex
100
AcDb2dVertex
 10
0.057
 20
76.34
 30
0.0
 70
0
  0
VERTEX
  5
1100
330
A35
100
AcDbEntity
  8
0
100
AcDbVertex
100
AcDb2dVertex
 10
0.057
 20
76.341
 30
0.0
 70
0
  0
VERTEX
  5
1101
330
A35
100
AcDbEntity
  8
0
100
AcDbVertex
100
AcDb2dVertex
 10
0.057
 20
76.342
 30
0.0
 70
0
  0
VERTEX
  5
1102
330
A35
100
AcDbEntity
  8
0
100
AcDbVertex
100
AcDb2dVertex
 10
0.057
 20
76.343
 30
0.0
 70
0
  0
VERTEX
  5
1103
330
A35
100
AcDbEntity
  8
0
100
AcDbVertex
100
AcDb2dVertex
 10
0.057
 20
76.344
 30
0.0
 70
0
  0
VERTEX
  5
1104
330
A35
100
AcDbEntity
  8
0
100
AcDbVertex
100
AcDb2dVertex
 10
0.057
 20
76.345
 30
0.0
 70
0
  0
VERTEX
  5
1105
330
A35
100
AcDbEntity
  8
0
100
AcDbVertex
100
AcDb2dVertex
 10
0.057
 20
76.346
 30
0.0
 70
0
  0
VERTEX
  5
1106
330
A35
100
AcDbEntity
  8
0
100
AcDbVertex
100
AcDb2dVertex
 10
0.057
 20
76.347
 30
0.0
 70
0
  0
VERTEX
  5
1107
330
A35
100
AcDbEntity
  8
0
100
AcDbVertex
100
AcDb2dVertex
 10
0.057
 20
76.348
 30
0.0
 70
0
  0
VERTEX
  5
1108
330
A35
100
AcDbEntity
  8
0
100
AcDbVertex
100
AcDb2dVertex
 10
0.057
 20
76.349
 30
0.0
 70
0
  0
VERTEX
  5
1109
330
A35
100
AcDbEntity
  8
0
100
AcDbVertex
100
AcDb2dVertex
 10
0.057
 20
76.35
 30
0.0
 70
0
  0
VERTEX
  5
110A
330
A35
100
AcDbEntity
  8
0
100
AcDbVertex
100
AcDb2dVertex
 10
0.057
 20
76.351
 30
0.0
 70
0
  0
VERTEX
  5
110B
330
A35
100
AcDbEntity
  8
0
100
AcDbVertex
100
AcDb2dVertex
 10
0.057
 20
76.352
 30
0.0
 70
0
  0
VERTEX
  5
110C
330
A35
100
AcDbEntity
  8
0
100
AcDbVertex
100
AcDb2dVertex
 10
0.057
 20
76.353
 30
0.0
 70
0
  0
VERTEX
  5
110D
330
A35
100
AcDbEntity
  8
0
100
AcDbVertex
100
AcDb2dVertex
 10
0.057
 20
76.354
 30
0.0
 70
0
  0
VERTEX
  5
110E
330
A35
100
AcDbEntity
  8
0
100
AcDbVertex
100
AcDb2dVertex
 10
0.057
 20
76.355
 30
0.0
 70
0
  0
VERTEX
  5
110F
330
A35
100
AcDbEntity
  8
0
100
AcDbVertex
100
AcDb2dVertex
 10
0.057
 20
76.356
 30
0.0
 70
0
  0
VERTEX
  5
1110
330
A35
100
AcDbEntity
  8
0
100
AcDbVertex
100
AcDb2dVertex
 10
0.057
 20
76.357
 30
0.0
 70
0
  0
VERTEX
  5
1111
330
A35
100
AcDbEntity
  8
0
100
AcDbVertex
100
AcDb2dVertex
 10
0.057
 20
76.358
 30
0.0
 70
0
  0
VERTEX
  5
1112
330
A35
100
AcDbEntity
  8
0
100
AcDbVertex
100
AcDb2dVertex
 10
0.057
 20
76.359
 30
0.0
 70
0
  0
VERTEX
  5
1113
330
A35
100
AcDbEntity
  8
0
100
AcDbVertex
100
AcDb2dVertex
 10
0.057
 20
76.36
 30
0.0
 70
0
  0
VERTEX
  5
1114
330
A35
100
AcDbEntity
  8
0
100
AcDbVertex
100
AcDb2dVertex
 10
0.057
 20
76.361
 30
0.0
 70
0
  0
VERTEX
  5
1115
330
A35
100
AcDbEntity
  8
0
100
AcDbVertex
100
AcDb2dVertex
 10
0.057
 20
76.362
 30
0.0
 70
0
  0
VERTEX
  5
1116
330
A35
100
AcDbEntity
  8
0
100
AcDbVertex
100
AcDb2dVertex
 10
0.057
 20
76.363
 30
0.0
 70
0
  0
VERTEX
  5
1117
330
A35
100
AcDbEntity
  8
0
100
AcDbVertex
100
AcDb2dVertex
 10
0.057
 20
76.364
 30
0.0
 70
0
  0
VERTEX
  5
1118
330
A35
100
AcDbEntity
  8
0
100
AcDbVertex
100
AcDb2dVertex
 10
0.057
 20
76.365
 30
0.0
 70
0
  0
VERTEX
  5
1119
330
A35
100
AcDbEntity
  8
0
100
AcDbVertex
100
AcDb2dVertex
 10
0.057
 20
76.366
 30
0.0
 70
0
  0
VERTEX
  5
111A
330
A35
100
AcDbEntity
  8
0
100
AcDbVertex
100
AcDb2dVertex
 10
0.057
 20
76.367
 30
0.0
 70
0
  0
VERTEX
  5
111B
330
A35
100
AcDbEntity
  8
0
100
AcDbVertex
100
AcDb2dVertex
 10
0.057
 20
76.368
 30
0.0
 70
0
  0
VERTEX
  5
111C
330
A35
100
AcDbEntity
  8
0
100
AcDbVertex
100
AcDb2dVertex
 10
0.057
 20
76.369
 30
0.0
 70
0
  0
VERTEX
  5
111D
330
A35
100
AcDbEntity
  8
0
100
AcDbVertex
100
AcDb2dVertex
 10
0.057
 20
76.37
 30
0.0
 70
0
  0
VERTEX
  5
111E
330
A35
100
AcDbEntity
  8
0
100
AcDbVertex
100
AcDb2dVertex
 10
0.057
 20
76.371
 30
0.0
 70
0
  0
VERTEX
  5
111F
330
A35
100
AcDbEntity
  8
0
100
AcDbVertex
100
AcDb2dVertex
 10
0.057
 20
76.372
 30
0.0
 70
0
  0
VERTEX
  5
1120
330
A35
100
AcDbEntity
  8
0
100
AcDbVertex
100
AcDb2dVertex
 10
0.057
 20
76.373
 30
0.0
 70
0
  0
VERTEX
  5
1121
330
A35
100
AcDbEntity
  8
0
100
AcDbVertex
100
AcDb2dVertex
 10
0.057
 20
76.374
 30
0.0
 70
0
  0
VERTEX
  5
1122
330
A35
100
AcDbEntity
  8
0
100
AcDbVertex
100
AcDb2dVertex
 10
0.057
 20
76.375
 30
0.0
 70
0
  0
VERTEX
  5
1123
330
A35
100
AcDbEntity
  8
0
100
AcDbVertex
100
AcDb2dVertex
 10
0.057
 20
76.376
 30
0.0
 70
0
  0
VERTEX
  5
1124
330
A35
100
AcDbEntity
  8
0
100
AcDbVertex
100
AcDb2dVertex
 10
0.057
 20
76.377
 30
0.0
 70
0
  0
VERTEX
  5
1125
330
A35
100
AcDbEntity
  8
0
100
AcDbVertex
100
AcDb2dVertex
 10
0.057
 20
76.378
 30
0.0
 70
0
  0
VERTEX
  5
1126
330
A35
100
AcDbEntity
  8
0
100
AcDbVertex
100
AcDb2dVertex
 10
0.057
 20
76.379
 30
0.0
 70
0
  0
VERTEX
  5
1127
330
A35
100
AcDbEntity
  8
0
100
AcDbVertex
100
AcDb2dVertex
 10
0.057
 20
76.38
 30
0.0
 70
0
  0
VERTEX
  5
1128
330
A35
100
AcDbEntity
  8
0
100
AcDbVertex
100
AcDb2dVertex
 10
0.056
 20
76.38
 30
0.0
 70
0
  0
VERTEX
  5
1129
330
A35
100
AcDbEntity
  8
0
100
AcDbVertex
100
AcDb2dVertex
 10
0.055
 20
76.38
 30
0.0
 70
0
  0
VERTEX
  5
112A
330
A35
100
AcDbEntity
  8
0
100
AcDbVertex
100
AcDb2dVertex
 10
0.054
 20
76.38
 30
0.0
 70
0
  0
VERTEX
  5
112B
330
A35
100
AcDbEntity
  8
0
100
AcDbVertex
100
AcDb2dVertex
 10
0.053
 20
76.38
 30
0.0
 70
0
  0
VERTEX
  5
112C
330
A35
100
AcDbEntity
  8
0
100
AcDbVertex
100
AcDb2dVertex
 10
0.052
 20
76.38
 30
0.0
 70
0
  0
VERTEX
  5
112D
330
A35
100
AcDbEntity
  8
0
100
AcDbVertex
100
AcDb2dVertex
 10
0.051
 20
76.38
 30
0.0
 70
0
  0
VERTEX
  5
112E
330
A35
100
AcDbEntity
  8
0
100
AcDbVertex
100
AcDb2dVertex
 10
0.05
 20
76.38
 30
0.0
 70
0
  0
VERTEX
  5
112F
330
A35
100
AcDbEntity
  8
0
100
AcDbVertex
100
AcDb2dVertex
 10
0.049
 20
76.38
 30
0.0
 70
0
  0
VERTEX
  5
1130
330
A35
100
AcDbEntity
  8
0
100
AcDbVertex
100
AcDb2dVertex
 10
0.048
 20
76.38
 30
0.0
 70
0
  0
VERTEX
  5
1131
330
A35
100
AcDbEntity
  8
0
100
AcDbVertex
100
AcDb2dVertex
 10
0.047
 20
76.38
 30
0.0
 70
0
  0
VERTEX
  5
1132
330
A35
100
AcDbEntity
  8
0
100
AcDbVertex
100
AcDb2dVertex
 10
0.046
 20
76.38
 30
0.0
 70
0
  0
VERTEX
  5
1133
330
A35
100
AcDbEntity
  8
0
100
AcDbVertex
100
AcDb2dVertex
 10
0.045
 20
76.38
 30
0.0
 70
0
  0
VERTEX
  5
1134
330
A35
100
AcDbEntity
  8
0
100
AcDbVertex
100
AcDb2dVertex
 10
0.044
 20
76.38
 30
0.0
 70
0
  0
VERTEX
  5
1135
330
A35
100
AcDbEntity
  8
0
100
AcDbVertex
100
AcDb2dVertex
 10
0.043
 20
76.38
 30
0.0
 70
0
  0
VERTEX
  5
1136
330
A35
100
AcDbEntity
  8
0
100
AcDbVertex
100
AcDb2dVertex
 10
0.042
 20
76.38
 30
0.0
 70
0
  0
VERTEX
  5
1137
330
A35
100
AcDbEntity
  8
0
100
AcDbVertex
100
AcDb2dVertex
 10
0.041
 20
76.38
 30
0.0
 70
0
  0
VERTEX
  5
1138
330
A35
100
AcDbEntity
  8
0
100
AcDbVertex
100
AcDb2dVertex
 10
0.04
 20
76.38
 30
0.0
 70
0
  0
VERTEX
  5
1139
330
A35
100
AcDbEntity
  8
0
100
AcDbVertex
100
AcDb2dVertex
 10
0.039
 20
76.38
 30
0.0
 70
0
  0
VERTEX
  5
113A
330
A35
100
AcDbEntity
  8
0
100
AcDbVertex
100
AcDb2dVertex
 10
0.038
 20
76.38
 30
0.0
 70
0
  0
VERTEX
  5
113B
330
A35
100
AcDbEntity
  8
0
100
AcDbVertex
100
AcDb2dVertex
 10
0.037
 20
76.38
 30
0.0
 70
0
  0
VERTEX
  5
113C
330
A35
100
AcDbEntity
  8
0
100
AcDbVertex
100
AcDb2dVertex
 10
0.036
 20
76.38
 30
0.0
 70
0
  0
VERTEX
  5
113D
330
A35
100
AcDbEntity
  8
0
100
AcDbVertex
100
AcDb2dVertex
 10
0.035
 20
76.38
 30
0.0
 70
0
  0
VERTEX
  5
113E
330
A35
100
AcDbEntity
  8
0
100
AcDbVertex
100
AcDb2dVertex
 10
0.034
 20
76.38
 30
0.0
 70
0
  0
VERTEX
  5
113F
330
A35
100
AcDbEntity
  8
0
100
AcDbVertex
100
AcDb2dVertex
 10
0.033
 20
76.38
 30
0.0
 70
0
  0
VERTEX
  5
1140
330
A35
100
AcDbEntity
  8
0
100
AcDbVertex
100
AcDb2dVertex
 10
0.032
 20
76.38
 30
0.0
 70
0
  0
VERTEX
  5
1141
330
A35
100
AcDbEntity
  8
0
100
AcDbVertex
100
AcDb2dVertex
 10
0.031
 20
76.38
 30
0.0
 70
0
  0
VERTEX
  5
1142
330
A35
100
AcDbEntity
  8
0
100
AcDbVertex
100
AcDb2dVertex
 10
0.03
 20
76.38
 30
0.0
 70
0
  0
VERTEX
  5
1143
330
A35
100
AcDbEntity
  8
0
100
AcDbVertex
100
AcDb2dVertex
 10
0.029
 20
76.38
 30
0.0
 70
0
  0
VERTEX
  5
1144
330
A35
100
AcDbEntity
  8
0
100
AcDbVertex
100
AcDb2dVertex
 10
0.028
 20
76.38
 30
0.0
 70
0
  0
VERTEX
  5
1145
330
A35
100
AcDbEntity
  8
0
100
AcDbVertex
100
AcDb2dVertex
 10
0.027
 20
76.38
 30
0.0
 70
0
  0
VERTEX
  5
1146
330
A35
100
AcDbEntity
  8
0
100
AcDbVertex
100
AcDb2dVertex
 10
0.026
 20
76.38
 30
0.0
 70
0
  0
VERTEX
  5
1147
330
A35
100
AcDbEntity
  8
0
100
AcDbVertex
100
AcDb2dVertex
 10
0.025
 20
76.38
 30
0.0
 70
0
  0
VERTEX
  5
1148
330
A35
100
AcDbEntity
  8
0
100
AcDbVertex
100
AcDb2dVertex
 10
0.024
 20
76.38
 30
0.0
 70
0
  0
VERTEX
  5
1149
330
A35
100
AcDbEntity
  8
0
100
AcDbVertex
100
AcDb2dVertex
 10
0.023
 20
76.38
 30
0.0
 70
0
  0
VERTEX
  5
114A
330
A35
100
AcDbEntity
  8
0
100
AcDbVertex
100
AcDb2dVertex
 10
0.022
 20
76.38
 30
0.0
 70
0
  0
VERTEX
  5
114B
330
A35
100
AcDbEntity
  8
0
100
AcDbVertex
100
AcDb2dVertex
 10
0.021
 20
76.38
 30
0.0
 70
0
  0
VERTEX
  5
114C
330
A35
100
AcDbEntity
  8
0
100
AcDbVertex
100
AcDb2dVertex
 10
0.02
 20
76.38
 30
0.0
 70
0
  0
VERTEX
  5
114D
330
A35
100
AcDbEntity
  8
0
100
AcDbVertex
100
AcDb2dVertex
 10
0.019
 20
76.38
 30
0.0
 70
0
  0
VERTEX
  5
114E
330
A35
100
AcDbEntity
  8
0
100
AcDbVertex
100
AcDb2dVertex
 10
0.018
 20
76.38
 30
0.0
 70
0
  0
VERTEX
  5
114F
330
A35
100
AcDbEntity
  8
0
100
AcDbVertex
100
AcDb2dVertex
 10
0.017
 20
76.38
 30
0.0
 70
0
  0
VERTEX
  5
1150
330
A35
100
AcDbEntity
  8
0
100
AcDbVertex
100
AcDb2dVertex
 10
0.016
 20
76.38
 30
0.0
 70
0
  0
VERTEX
  5
1151
330
A35
100
AcDbEntity
  8
0
100
AcDbVertex
100
AcDb2dVertex
 10
0.015
 20
76.38
 30
0.0
 70
0
  0
VERTEX
  5
1152
330
A35
100
AcDbEntity
  8
0
100
AcDbVertex
100
AcDb2dVertex
 10
0.014
 20
76.38
 30
0.0
 70
0
  0
VERTEX
  5
1153
330
A35
100
AcDbEntity
  8
0
100
AcDbVertex
100
AcDb2dVertex
 10
0.013
 20
76.38
 30
0.0
 70
0
  0
VERTEX
  5
1154
330
A35
100
AcDbEntity
  8
0
100
AcDbVertex
100
AcDb2dVertex
 10
0.012
 20
76.38
 30
0.0
 70
0
  0
VERTEX
  5
1155
330
A35
100
AcDbEntity
  8
0
100
AcDbVertex
100
AcDb2dVertex
 10
0.011
 20
76.38
 30
0.0
 70
0
  0
VERTEX
  5
1156
330
A35
100
AcDbEntity
  8
0
100
AcDbVertex
100
AcDb2dVertex
 10
0.01
 20
76.38
 30
0.0
 70
0
  0
VERTEX
  5
1157
330
A35
100
AcDbEntity
  8
0
100
AcDbVertex
100
AcDb2dVertex
 10
0.009
 20
76.38
 30
0.0
 70
0
  0
VERTEX
  5
1158
330
A35
100
AcDbEntity
  8
0
100
AcDbVertex
100
AcDb2dVertex
 10
0.008
 20
76.38
 30
0.0
 70
0
  0
VERTEX
  5
1159
330
A35
100
AcDbEntity
  8
0
100
AcDbVertex
100
AcDb2dVertex
 10
0.007
 20
76.38
 30
0.0
 70
0
  0
VERTEX
  5
115A
330
A35
100
AcDbEntity
  8
0
100
AcDbVertex
100
AcDb2dVertex
 10
0.006
 20
76.38
 30
0.0
 70
0
  0
VERTEX
  5
115B
330
A35
100
AcDbEntity
  8
0
100
AcDbVertex
100
AcDb2dVertex
 10
0.005
 20
76.38
 30
0.0
 70
0
  0
VERTEX
  5
115C
330
A35
100
AcDbEntity
  8
0
100
AcDbVertex
100
AcDb2dVertex
 10
0.004
 20
76.38
 30
0.0
 70
0
  0
VERTEX
  5
115D
330
A35
100
AcDbEntity
  8
0
100
AcDbVertex
100
AcDb2dVertex
 10
0.003
 20
76.38
 30
0.0
 70
0
  0
VERTEX
  5
115E
330
A35
100
AcDbEntity
  8
0
100
AcDbVertex
100
AcDb2dVertex
 10
0.002
 20
76.38
 30
0.0
 70
0
  0
VERTEX
  5
115F
330
A35
100
AcDbEntity
  8
0
100
AcDbVertex
100
AcDb2dVertex
 10
0.001
 20
76.38
 30
0.0
 70
0
  0
VERTEX
  5
1160
330
A35
100
AcDbEntity
  8
0
100
AcDbVertex
100
AcDb2dVertex
 10
0.0
 20
76.38
 30
0.0
 70
0
  0
SEQEND
  5
1080
330
A35
100
AcDbEntity
  8
0
  0
TEXT
  5
1161
330
A35
100
AcDbEntity
  8
0
100
AcDbText
 10
0.0
 20
95.0
 30
0.0
 40
3.0
  1
My40形2500固定 笠付
 11
0.0
 21
95.0
 31
0.0
100
AcDbText
  0
TEXT
  5
1162
330
A35
100
AcDbEntity
  8
0
100
AcDbText
 10
0.0
 20
10.0
 30
0.0
 40
3.0
  1
三菱 MY-H425330/D AHTN
 11
0.0
 21
10.0
 31
0.0
100
AcDbText
  0
TEXT
  5
1163
330
A35
100
AcDbEntity
  8
0
100
AcDbText
 10
50.0
 20
35.0
 30
0.0
 40
1.5
  1
Myシリーズ 昼光色（6500K)　Ra85
 11
50.0
 21
35.0
 31
0.0
100
AcDbText
  0
TEXT
  5
1164
330
A35
100
AcDbEntity
  8
0
100
AcDbText
 10
50.0
 20
32.0
 30
0.0
 40
1.5
  1
100V～242V共用タイプ
 11
50.0
 21
32.0
 31
0.0
100
AcDbText
  0
TEXT
  5
1165
330
A35
100
AcDbEntity
  8
0
100
AcDbText
 10
50.0
 20
29.0
 30
0.0
 40
1.5
  1
段調光機能付
 11
50.0
 21
29.0
 31
0.0
100
AcDbText
  0
TEXT
  5
1166
330
A35
100
AcDbEntity
  8
0
100
AcDbText
 10
50.0
 20
26.0
 30
0.0
 40
1.5
  1
ﾊｲﾌﾞﾘｯﾄﾞﾅﾉｺｰﾃｨﾝｸﾞ(ﾎｺﾘ,すす汚れ防止ｺｰﾃｨﾝｸﾞ)ﾗｲﾄﾕﾆｯﾄ
 11
50.0
 21
26.0
 31
0.0
100
AcDbText
  0
TEXT
  5
1167
330
A35
100
AcDbEntity
  8
0
100
AcDbText
 10
50.0
 20
23.0
 30
0.0
 40
1.5
  1
光源寿命：40,000時間
 11
50.0
 21
23.0
 31
0.0
100
AcDbText
  0
TEXT
  5
1168
330
A35
100
AcDbEntity
  8
0
100
AcDbText
 10
50.0
 20
20.0
 30
0.0
 40
1.5
  1
光束：2450lm 消費電力：16.7W 消費効率：146.7lm/W
 11
50.0
 21
20.0
 31
0.0
100
AcDbText
  0
VIEWPORT
  5
45B
102
{ACAD_XDICTIONARY
360
A5E
102
}
330
A31
100
AcDbEntity
 67
1
  8
0
100
AcDbViewport
 10
128.5
 20
97.5
 30
0.0
 40
314.226
 41
222.18
 68
1
 69
1
 12
0.0
 22
0.0
 13
0.0
 23
0.0
 14
10.0
 24
10.0
 15
10.0
 25
10.0
 16
0.0
 26
0.0
 36
0.0
 17
0.0
 27
0.0
 37
0.0
 42
50.0
 43
0.0
 44
0.0
 45
1.0
 50
0.0
 51
0.0
 72
100
 90
32768
  1

281
0
 71
0
 74
0
110
0.0
120
0.0
130
0.0
111
1.0
121
0.0
131
0.0
112
0.0
122
1.0
132
0.0
 79
0
146
0.0
  0
ENDSEC
  0
SECTION
  2
OBJECTS
  0
DICTIONARY
  5
9D2
330
0
100
AcDbDictionary
281
1
  3
ACAD_CIP_PREVIOUS_PRODUCT_INFO
350
A48
  3
ACAD_COLOR
350
A28
  3
ACAD_DETAILVIEWSTYLE
350
A2F
  3
ACAD_GROUP
350
9D3
  3
ACAD_LAYOUT
350
A27
  3
ACAD_MATERIAL
350
9D6
  3
ACAD_MLEADERSTYLE
350
A2B
  3
ACAD_MLINESTYLE
350
A24
  3
ACAD_PLOTSETTINGS
350
A26
  3
ACAD_PLOTSTYLENAME
350
9D4
  3
ACAD_SCALELIST
350
A08
  3
ACAD_SECTIONVIEWSTYLE
350
A2D
  3
ACAD_TABLESTYLE
350
A29
  3
ACAD_VISUALSTYLE
350
9EF
  3
ACDB_RECOMPOSE_DATA
350
A5C
  3
AcDbVariableDictionary
350
A4F
  3
DWGPROPS
350
A5D
  3
EZDXF_META
350
116B
  0
DICTIONARY
  5
A49
330
A1A
100
AcDbDictionary
280
1
281
1
  3
ADSK_XREC_LAYER_RECONCILED
360
A4A
  0
DICTIONARY
  5
A4B
330
A39
100
AcDbDictionary
280
1
281
1
  3
ADSK_XREC_LAYER_RECONCILED
360
A4C
  0
DICTIONARY
  5
A4D
330
A3D
100
AcDbDictionary
280
1
281
1
  3
ADSK_XREC_LAYER_RECONCILED
360
A4E
  0
DICTIONARY
  5
A5E
330
45B
100
AcDbDictionary
280
1
281
1
  3
ACAD_XREC_ROUNDTRIP
360
A5F
  0
XRECORD
  5
A48
102
{ACAD_REACTORS
330
9D2
102
}
330
9D2
100
AcDbXrecord
280
1
300
ACDLT
300
2019
300
87085ACDLT_2019_0F
  0
DICTIONARY
  5
A28
102
{ACAD_REACTORS
330
9D2
102
}
330
9D2
100
AcDbDictionary
281
1
  0
DICTIONARY
  5
A2F
102
{ACAD_REACTORS
330
9D2
102
}
330
9D2
100
AcDbDictionary
281
1
  3
Imperial24
350
A30
  0
DICTIONARY
  5
9D3
102
{ACAD_REACTORS
330
9D2
102
}
330
9D2
100
AcDbDictionary
281
1
  0
DICTIONARY
  5
A27
102
{ACAD_REACTORS
330
9D2
102
}
330
9D2
100
AcDbDictionary
281
1
  3
Model
350
A38
  3
レイアウト1
350
A34
  0
DICTIONARY
  5
9D6
102
{ACAD_REACTORS
330
9D2
102
}
330
9D2
100
AcDbDictionary
281
1
  3
ByBlock
350
9DF
  3
ByLayer
350
9D7
  3
Global
350
9E7
  0
DICTIONARY
  5
A2B
102
{ACAD_REACTORS
330
9D2
102
}
330
9D2
100
AcDbDictionary
281
1
  3
Standard
350
A2C
  0
DICTIONARY
  5
A24
102
{ACAD_REACTORS
330
9D2
102
}
330
9D2
100
AcDbDictionary
281
1
  3
Standard
350
A25
  0
DICTIONARY
  5
A26
102
{ACAD_REACTORS
330
9D2
102
}
330
9D2
100
AcDbDictionary
281
1
  0
ACDBDICTIONARYWDFLT
  5
9D4
102
{ACAD_REACTORS
330
9D2
102
}
330
9D2
100
AcDbDictionary
281
1
  3
Normal
350
9D5
100
AcDbDictionaryWithDefault
340
9D5
  0
DICTIONARY
  5
A08
102
{ACAD_REACTORS
330
9D2
102
}
330
9D2
100
AcDbDictionary
281
1
  3
A0
350
A09
  3
A1
350
A0A
  3
A2
350
A0B
  3
A3
350
A0C
  3
A4
350
A0D
  3
A5
350
A0E
  3
A6
350
A0F
  3
A7
350
A10
  3
A8
350
A11
  3
A9
350
A12
  3
B0
350
A13
  3
B1
350
A14
  3
B2
350
A15
  3
B3
350
A16
  3
B4
350
A17
  3
B5
350
A18
  3
B6
350
A19
  0
DICTIONARY
  5
A2D
102
{ACAD_REACTORS
330
9D2
102
}
330
9D2
100
AcDbDictionary
281
1
  3
Imperial24
350
A2E
  0
DICTIONARY
  5
A29
102
{ACAD_REACTORS
330
9D2
102
}
330
9D2
100
AcDbDictionary
281
1
  3
Standard
350
A2A
  0
DICTIONARY
  5
9EF
102
{ACAD_REACTORS
330
9D2
102
}
330
9D2
100
AcDbDictionary
281
1
  3
2dWireframe
350
9F5
  3
Basic
350
9F4
  3
Brighten
350
9FB
  3
ColorChange
350
9FF
  3
Conceptual
350
9F8
  3
Dim
350
9FA
  3
EdgeColorOff
350
A07
  3
Facepattern
350
9FE
  3
Flat
350
9F0
  3
FlatWithEdges
350
9F1
  3
Gouraud
350
9F2
  3
GouraudWithEdges
350
9F3
  3
Hidden
350
9F7
  3
JitterOff
350
A05
  3
Linepattern
350
9FD
  3
OverhangOff
350
A06
  3
Realistic
350
9F9
  3
Shaded
350
A04
  3
Shaded with edges
350
A03
  3
Shades of Gray
350
A00
  3
Sketchy
350
A01
  3
Thicken
350
9FC
  3
Wireframe
350
9F6
  3
X-Ray
350
A02
  0
XRECORD
  5
A5C
102
{ACAD_REACTORS
330
9D2
102
}
330
9D2
100
AcDbXrecord
280
1
 90
1
330
A2A
  0
DICTIONARY
  5
A4F
102
{ACAD_REACTORS
330
9D2
102
}
330
9D2
100
AcDbDictionary
281
1
  3
CANNOSCALE
350
A54
  3
CMLEADERSTYLE
350
A51
  3
CTABLESTYLE
350
A50
  3
CVIEWDETAILSTYLE
350
A52
  3
CVIEWSECTIONSTYLE
350
A53
  3
DIMASSOC
350
A57
  3
INDEXCTL
350
A56
  3
SORTENTS
350
A55
  3
XCLIPFRAME
350
A58
  0
XRECORD
  5
A5D
102
{ACAD_REACTORS
330
9D2
102
}
330
9D2
100
AcDbXrecord
280
1
  1
DWGPROPS COOKIE
  2

  3

  4

  6

  7

  8
1992517
  9

300
=
301
=
302
=
303
=
304
=
305
=
306
=
307
=
308
=
309
=
 40
0.0010069560185185
 41
2459044.788842593
 42
2459045.376064815
  1

 90
0
  0
XRECORD
  5
A4A
102
{ACAD_REACTORS
330
A49
102
}
330
A49
100
AcDbXrecord
280
1
290
1
  0
XRECORD
  5
A4C
102
{ACAD_REACTORS
330
A4B
102
}
330
A4B
100
AcDbXrecord
280
1
290
1
  0
XRECORD
  5
A4E
102
{ACAD_REACTORS
330
A4D
102
}
330
A4D
100
AcDbXrecord
280
1
290
1
  0
XRECORD
  5
A5F
102
{ACAD_REACTORS
330
A5E
102
}
330
A5E
100
AcDbXrecord
280
1
102
SHADEPLOT
 70
0
  0
ACDBDETAILVIEWSTYLE
  5
A30
102
{ACAD_XDICTIONARY
360
A97
102
}
102
{ACAD_REACTORS
330
A2F
102
}
330
A2F
100
AcDbModelDocViewStyle
 70
0
  3
Imperial24
290
0
100
AcDbDetailViewStyle
 70
0
 71
0
 90
3
 71
1
340
A1B
 40
0.24
340
0
 40
0.24
300

 40
0.36
280
3
 71
2
340
A22
 90
25
 71
3
340
A1B
 40
0.24
 90
1
 40
0.75
 90
1
300
%<\AcVar ViewType \f "%tc1">% %<\AcVar ViewDetailId>%\PSCALE %<\AcVar ViewScale \f "%sn">%
 71
4
340
A22
 90
25
340
A22
 90
25
280
0
  0
LAYOUT
  5
A38
102
{ACAD_XDICTIONARY
360
A9B
102
}
102
{ACAD_REACTORS
330
A27
102
}
330
A27
100
AcDbPlotSettings
  1

  2
LBP8720
  4

  6

 40
0.0
 41
0.0
 42
0.0
 43
0.0
 44
0.0
 45
0.0
 46
0.0
 47
0.0
 48
0.0
 49
0.0
140
0.0
141
0.0
142
1.0
143
1.0
 70
1712
 72
0
 73
0
 74
0
  7

 75
0
 76
0
 77
2
 78
300
147
1.0
148
0.0
149
0.0
100
AcDbLayout
  1
Model
 70
1
 71
0
 10
0.0
 20
0.0
 11
12.0
 21
9.0
 12
0.0
 22
0.0
 32
0.0
 14
0.0
 24
0.0
 34
0.0
 15
0.0
 25
0.0
 35
0.0
146
0.0
 13
0.0
 23
0.0
 33
0.0
 16
1.0
 26
0.0
 36
0.0
 17
0.0
 27
1.0
 37
0.0
 76
0
330
A35
331
A3A
  0
LAYOUT
  5
A34
102
{ACAD_XDICTIONARY
360
A99
102
}
102
{ACAD_REACTORS
330
A27
102
}
330
A27
100
AcDbPlotSettings
  1

  2
LBP8720
  4

  6

 40
0.0
 41
0.0
 42
0.0
 43
0.0
 44
0.0
 45
0.0
 46
0.0
 47
0.0
 48
0.0
 49
0.0
140
0.0
141
0.0
142
1.0
143
1.0
 70
688
 72
0
 73
0
 74
5
  7

 75
16
 76
0
 77
2
 78
300
147
1.0
148
0.0
149
0.0
100
AcDbLayout
  1
レイアウト1
 70
1
 71
1
 10
-20.0
 20
-7.5
 11
277.0
 21
202.5
 12
0.0
 22
0.0
 32
0.0
 14
1e+20
 24
1e+20
 34
1e+20
 15
-1e+20
 25
-1e+20
 35
-1e+20
146
0.0
 13
0.0
 23
0.0
 33
0.0
 16
1.0
 26
0.0
 36
0.0
 17
0.0
 27
1.0
 37
0.0
 76
0
330
A31
331
45B
  0
MATERIAL
  5
9DF
102
{ACAD_XDICTIONARY
360
9E0
102
}
102
{ACAD_REACTORS
330
9D6
102
}
330
9D6
100
AcDbMaterial
  1
ByBlock
  2

 70
0
 40
1.0
 71
0
 41
1.0
 91
-1023410177
 42
1.0
 72
0
  3

 73
1
 74
1
 75
1
 43
0.0208333333333333
 43
0.0
 43
0.0
 43
0.0
 43
0.0
 43
0.0208333333333333
 43
0.0
 43
0.0
 43
0.0
 43
0.0
 43
1.0
 43
0.0
 43
0.0
 43
0.0
 43
0.0
 43
1.0
 44
0.5
 73
0
 45
1.0
 46
1.0
 77
0
  4

 78
1
 79
1
170
1
 47
0.0208333333333333
 47
0.0
 47
0.0
 47
0.0
 47
0.0
 47
0.0208333333333333
 47
0.0
 47
0.0
 47
0.0
 47
0.0
 47
1.0
 47
0.0
 47
0.0
 47
0.0
 47
0.0
 47
1.0
 48
1.0
171
0
  6

172
1
173
1
174
1
 49
0.0208333333333333
 49
0.0
 49
0.0
 49
0.0
 49
0.0
 49
0.0208333333333333
 49
0.0
 49
0.0
 49
0.0
 49
0.0
 49
1.0
 49
0.0
 49
0.0
 49
0.0
 49
0.0
 49
1.0
140
1.0
141
1.0
175
0
  7

176
1
177
1
178
1
142
0.0208333333333333
142
0.0
142
0.0
142
0.0
142
0.0
142
0.0208333333333333
142
0.0
142
0.0
142
0.0
142
0.0
142
1.0
142
0.0
142
0.0
142
0.0
142
0.0
142
1.0
143
1.0
179
0
  8

270
1
271
1
272
1
144
0.0208333333333333
144
0.0
144
0.0
144
0.0
144
0.0
144
0.0208333333333333
144
0.0
144
0.0
144
0.0
144
0.0
144
1.0
144
0.0
144
0.0
144
0.0
144
0.0
144
1.0
145
1.0
146
1.0
273
1
  9

274
1
275
1
276
1
147
0.0208333333333333
147
0.0
147
0.0
147
0.0
147
0.0
147
0.0208333333333333
147
0.0
147
0.0
147
0.0
147
0.0
147
1.0
147
0.0
147
0.0
147
0.0
147
0.0
147
1.0
 42
1.0
 72
1
  3

 73
1
 74
1
 75
1
 94
63
  0
MATERIAL
  5
9D7
102
{ACAD_XDICTIONARY
360
9D8
102
}
102
{ACAD_REACTORS
330
9D6
102
}
330
9D6
100
AcDbMaterial
  1
ByLayer
  2

 70
0
 40
1.0
 71
0
 41
1.0
 91
-1023410177
 42
1.0
 72
0
  3

 73
1
 74
1
 75
1
 43
0.0208333333333333
 43
0.0
 43
0.0
 43
0.0
 43
0.0
 43
0.0208333333333333
 43
0.0
 43
0.0
 43
0.0
 43
0.0
 43
1.0
 43
0.0
 43
0.0
 43
0.0
 43
0.0
 43
1.0
 44
0.5
 73
0
 45
1.0
 46
1.0
 77
0
  4

 78
1
 79
1
170
1
 47
0.0208333333333333
 47
0.0
 47
0.0
 47
0.0
 47
0.0
 47
0.0208333333333333
 47
0.0
 47
0.0
 47
0.0
 47
0.0
 47
1.0
 47
0.0
 47
0.0
 47
0.0
 47
0.0
 47
1.0
 48
1.0
171
0
  6

172
1
173
1
174
1
 49
0.0208333333333333
 49
0.0
 49
0.0
 49
0.0
 49
0.0
 49
0.0208333333333333
 49
0.0
 49
0.0
 49
0.0
 49
0.0
 49
1.0
 49
0.0
 49
0.0
 49
0.0
 49
0.0
 49
1.0
140
1.0
141
1.0
175
0
  7

176
1
177
1
178
1
142
0.0208333333333333
142
0.0
142
0.0
142
0.0
142
0.0
142
0.0208333333333333
142
0.0
142
0.0
142
0.0
142
0.0
142
1.0
142
0.0
142
0.0
142
0.0
142
0.0
142
1.0
143
1.0
179
0
  8

270
1
271
1
272
1
144
0.0208333333333333
144
0.0
144
0.0
144
0.0
144
0.0
144
0.0208333333333333
144
0.0
144
0.0
144
0.0
144
0.0
144
1.0
144
0.0
144
0.0
144
0.0
144
0.0
144
1.0
145
1.0
146
1.0
273
1
  9

274
1
275
1
276
1
147
0.0208333333333333
147
0.0
147
0.0
147
0.0
147
0.0
147
0.0208333333333333
147
0.0
147
0.0
147
0.0
147
0.0
147
1.0
147
0.0
147
0.0
147
0.0
147
0.0
147
1.0
 42
1.0
 72
1
  3

 73
1
 74
1
 75
1
 94
63
  0
MATERIAL
  5
9E7
102
{ACAD_XDICTIONARY
360
9E8
102
}
102
{ACAD_REACTORS
330
9D6
102
}
330
9D6
100
AcDbMaterial
  1
Global
  2

 70
0
 40
1.0
 71
0
 41
1.0
 91
-1023410177
 42
1.0
 72
0
  3

 73
1
 74
1
 75
1
 43
0.0208333333333333
 43
0.0
 43
0.0
 43
0.0
 43
0.0
 43
0.0208333333333333
 43
0.0
 43
0.0
 43
0.0
 43
0.0
 43
1.0
 43
0.0
 43
0.0
 43
0.0
 43
0.0
 43
1.0
 44
0.5
 73
0
 45
1.0
 46
1.0
 77
0
  4

 78
1
 79
1
170
1
 47
0.0208333333333333
 47
0.0
 47
0.0
 47
0.0
 47
0.0
 47
0.0208333333333333
 47
0.0
 47
0.0
 47
0.0
 47
0.0
 47
1.0
 47
0.0
 47
0.0
 47
0.0
 47
0.0
 47
1.0
 48
1.0
171
0
  6

172
1
173
1
174
1
 49
0.0208333333333333
 49
0.0
 49
0.0
 49
0.0
 49
0.0
 49
0.0208333333333333
 49
0.0
 49
0.0
 49
0.0
 49
0.0
 49
1.0
 49
0.0
 49
0.0
 49
0.0
 49
0.0
 49
1.0
140
1.0
141
1.0
175
0
  7

176
1
177
1
178
1
142
0.0208333333333333
142
0.0
142
0.0
142
0.0
142
0.0
142
0.0208333333333333
142
0.0
142
0.0
142
0.0
142
0.0
142
1.0
142
0.0
142
0.0
142
0.0
142
0.0
142
1.0
143
1.0
179
0
  8

270
1
271
1
272
1
144
0.0208333333333333
144
0.0
144
0.0
144
0.0
144
0.0
144
0.0208333333333333
144
0.0
144
0.0
144
0.0
144
0.0
144
1.0
144
0.0
144
0.0
144
0.0
144
0.0
144
1.0
145
1.0
146
1.0
273
1
  9

274
1
275
1
276
1
147
0.0208333333333333
147
0.0
147
0.0
147
0.0
147
0.0
147
0.0208333333333333
147
0.0
147
0.0
147
0.0
147
0.0
147
1.0
147
0.0
147
0.0
147
0.0
147
0.0
147
1.0
 42
1.0
 72
1
  3

 73
1
 74
1
 75
1
 94
63
  0
MLEADERSTYLE
  5
A2C
102
{ACAD_REACTORS
330
A2B
102
}
330
A2B
100
AcDbMLeaderStyle
179
2
170
2
171
1
172
0
 90
2
 40
0.0
 41
0.0
173
1
 91
-1056964608
340
A20
 92
-2
290
1
 42
0.09
291
1
 43
0.36
  3
Standard
 44
0.18
300

342
A1B
174
1
175
1
176
0
178
6
 93
-1056964608
 45
0.18
292
0
297
0
 46
0.18
293
1
 94
-1056964608
 47
1.0
 49
1.0
140
1.0
294
1
141
0.0
177
0
142
1.0
295
0
296
0
143
0.125
271
0
272
9
273
9
1001
ACAD_MLEADERVER
1070
2
  0
MLINESTYLE
  5
A25
102
{ACAD_REACTORS
330
A24
102
}
330
A24
100
AcDbMlineStyle
  2
STANDARD
 70
0
  3

 62
256
 51
90.0
 52
90.0
 71
2
 49
0.5
 62
256
  6
BYLAYER
 49
-0.5
 62
256
  6
BYLAYER
  0
ACDBPLACEHOLDER
  5
9D5
102
{ACAD_REACTORS
330
9D4
102
}
330
9D4
  0
SCALE
  5
A09
102
{ACAD_REACTORS
330
A08
102
}
330
A08
100
AcDbScale
 70
0
300
1:1
140
1.0
141
1.0
290
1
  0
SCALE
  5
A0A
102
{ACAD_REACTORS
330
A08
102
}
330
A08
100
AcDbScale
 70
0
300
1/128" = 1'-0"
140
0.0078125
141
12.0
290
0
  0
SCALE
  5
A0B
102
{ACAD_REACTORS
330
A08
102
}
330
A08
100
AcDbScale
 70
0
300
1/64" = 1'-0"
140
0.015625
141
12.0
290
0
  0
SCALE
  5
A0C
102
{ACAD_REACTORS
330
A08
102
}
330
A08
100
AcDbScale
 70
0
300
1/32" = 1'-0"
140
0.03125
141
12.0
290
0
  0
SCALE
  5
A0D
102
{ACAD_REACTORS
330
A08
102
}
330
A08
100
AcDbScale
 70
0
300
1/16" = 1'-0"
140
0.0625
141
12.0
290
0
  0
SCALE
  5
A0E
102
{ACAD_REACTORS
330
A08
102
}
330
A08
100
AcDbScale
 70
0
300
3/32" = 1'-0"
140
0.09375
141
12.0
290
0
  0
SCALE
  5
A0F
102
{ACAD_REACTORS
330
A08
102
}
330
A08
100
AcDbScale
 70
0
300
1/8" = 1'-0"
140
0.125
141
12.0
290
0
  0
SCALE
  5
A10
102
{ACAD_REACTORS
330
A08
102
}
330
A08
100
AcDbScale
 70
0
300
3/16" = 1'-0"
140
0.1875
141
12.0
290
0
  0
SCALE
  5
A11
102
{ACAD_REACTORS
330
A08
102
}
330
A08
100
AcDbScale
 70
0
300
1/4" = 1'-0"
140
0.25
141
12.0
290
0
  0
SCALE
  5
A12
102
{ACAD_REACTORS
330
A08
102
}
330
A08
100
AcDbScale
 70
0
300
3/8" = 1'-0"
140
0.375
141
12.0
290
0
  0
SCALE
  5
A13
102
{ACAD_REACTORS
330
A08
102
}
330
A08
100
AcDbScale
 70
0
300
1/2" = 1'-0"
140
0.5
141
12.0
290
0
  0
SCALE
  5
A14
102
{ACAD_REACTORS
330
A08
102
}
330
A08
100
AcDbScale
 70
0
300
3/4" = 1'-0"
140
0.75
141
12.0
290
0
  0
SCALE
  5
A15
102
{ACAD_REACTORS
330
A08
102
}
330
A08
100
AcDbScale
 70
0
300
1" = 1'-0"
140
1.0
141
12.0
290
0
  0
SCALE
  5
A16
102
{ACAD_REACTORS
330
A08
102
}
330
A08
100
AcDbScale
 70
0
300
1-1/2" = 1'-0"
140
1.5
141
12.0
290
0
  0
SCALE
  5
A17
102
{ACAD_REACTORS
330
A08
102
}
330
A08
100
AcDbScale
 70
0
300
3" = 1'-0"
140
3.0
141
12.0
290
0
  0
SCALE
  5
A18
102
{ACAD_REACTORS
330
A08
102
}
330
A08
100
AcDbScale
 70
0
300
6" = 1'-0"
140
6.0
141
12.0
290
0
  0
SCALE
  5
A19
102
{ACAD_REACTORS
330
A08
102
}
330
A08
100
AcDbScale
 70
0
300
1'-0" = 1'-0"
140
12.0
141
12.0
290
0
  0
ACDBSECTIONVIEWSTYLE
  5
A2E
102
{ACAD_XDICTIONARY
360
A95
102
}
102
{ACAD_REACTORS
330
A2D
102
}
330
A2D
100
AcDbModelDocViewStyle
 70
0
  3
Imperial24
290
0
100
AcDbSectionViewStyle
 70
0
 71
0
 90
78
 71
1
340
A1B
 40
0.24
340
0
340
0
 40
0.24
300
I, O, Q, S, X, Z
 40
0.48
 90
3
 40
0.18
 90
1
 71
2
340
A22
 90
25
340
A22
 90
50
 40
0.24
 40
0.0
 40
0.24
 71
3
340
A1B
 40
0.24
 90
1
 40
0.75
 90
1
300
%<\AcVar ViewType \f "%tc1">% %<\AcVar ViewSectionStartId>%-%<\AcVar ViewSectionEndId>%\PSCALE %<\AcVar ViewScale \f "%sn">%
 71
4
300
ANSI31
 40
1.0
 90
0
290
0
290
0
 90
6
 40
0.0
 40
1.570796326794896
 40
0.2617993877991494
 40
1.308996938995747
 40
-0.2617993877991494
 40
1.832595714594046
  0
TABLESTYLE
  5
A2A
102
{ACAD_XDICTIONARY
360
A5A
102
}
102
{ACAD_REACTORS
330
A29
102
}
330
A29
100
AcDbTableStyle
  3
Standard
 70
0
 71
0
 40
0.06
 41
0.06
280
0
281
0
  7
STANDARD
140
0.18
170
2
 62
0
 63
7
283
0
274
-2
284
1
 64
0
275
-2
285
1
 65
0
276
-2
286
1
 66
0
277
-2
287
1
 67
0
278
-2
288
1
 68
0
279
-2
289
1
 69
0
  7
STANDARD
140
0.25
170
5
 62
0
 63
7
283
0
274
-2
284
1
 64
0
275
-2
285
1
 65
0
276
-2
286
1
 66
0
277
-2
287
1
 67
0
278
-2
288
1
 68
0
279
-2
289
1
 69
0
  7
STANDARD
140
0.18
170
5
 62
0
 63
7
283
0
274
-2
284
1
 64
0
275
-2
285
1
 65
0
276
-2
286
1
 66
0
277
-2
287
1
 67
0
278
-2
288
1
 68
0
279
-2
289
1
 69
0
  0
VISUALSTYLE
  5
9F5
102
{ACAD_XDICTIONARY
360
A6D
102
}
102
{ACAD_REACTORS
330
9EF
102
}
330
9EF
100
AcDbVisualStyle
  2
2dWireframe
 70
4
 71
0
 72
2
 73
0
 90
0
 40
-0.6
 41
-30.0
 62
5
 63
7
 74
1
 91
4
 64
7
 65
257
 75
1
175
1
 42
1.0
 92
0
 66
257
 43
1.0
 76
1
 77
6
 78
2
 67
7
 79
5
170
0
171
0
290
0
174
0
 93
1
 44
0.0
173
0
291
0
 45
0.0
1001
ACAD
1000
AcDbSavedByObjectVersion
1070
0
  0
VISUALSTYLE
  5
9F4
102
{ACAD_XDICTIONARY
360
A6B
102
}
102
{ACAD_REACTORS
330
9EF
102
}
330
9EF
100
AcDbVisualStyle
  2
Basic
 70
7
 71
1
 72
0
 73
1
 90
0
 40
-0.6
 41
-30.0
 62
5
 63
7
 74
0
 91
4
 64
7
 65
257
 75
1
175
1
 42
1.0
 92
8
 66
7
 43
1.0
 76
1
 77
6
 78
2
 67
7
 79
5
170
0
171
0
290
0
174
0
 93
1
 44
0.0
173
0
291
1
 45
0.0
1001
ACAD
1000
AcDbSavedByObjectVersion
1070
0
  0
VISUALSTYLE
  5
9FB
102
{ACAD_XDICTIONARY
360
A79
102
}
102
{ACAD_REACTORS
330
9EF
102
}
330
9EF
100
AcDbVisualStyle
  2
Brighten
 70
12
 71
2
 72
2
 73
0
 90
0
 40
-0.6
 41
-30.0
 62
5
 63
7
 74
1
 91
4
 64
7
 65
257
 75
1
175
1
 42
1.0
 92
8
 66
7
 43
1.0
 76
1
 77
6
 78
2
 67
7
 79
5
170
0
171
0
290
0
174
0
 93
1
 44
50.0
173
0
291
1
 45
0.0
1001
ACAD
1000
AcDbSavedByObjectVersion
1070
0
  0
VISUALSTYLE
  5
9FF
102
{ACAD_XDICTIONARY
360
A81
102
}
102
{ACAD_REACTORS
330
9EF
102
}
330
9EF
100
AcDbVisualStyle
  2
ColorChange
 70
16
 71
2
 72
2
 73
3
 90
0
 40
-0.6
 41
-30.0
 62
5
 63
8
 74
1
 91
4
 64
7
 65
257
 75
1
175
1
 42
1.0
 92
8
 66
8
 43
1.0
 76
1
 77
6
 78
2
 67
7
 79
5
170
0
171
0
290
0
174
0
 93
1
 44
0.0
173
0
291
1
 45
0.0
1001
ACAD
1000
AcDbSavedByObjectVersion
1070
0
  0
VISUALSTYLE
  5
9F8
102
{ACAD_XDICTIONARY
360
A73
102
}
102
{ACAD_REACTORS
330
9EF
102
}
330
9EF
100
AcDbVisualStyle
  2
Conceptual
 70
9
 71
3
 72
2
 73
0
 90
0
 40
-0.6
 41
-30.0
 62
5
 63
7
 74
2
 91
2
 64
7
 65
257
 75
1
175
1
 42
179.0
 92
8
 66
7
 43
1.0
 76
1
 77
6
 78
2
 67
7
 79
3
170
0
171
0
290
0
174
0
 93
1
 44
0.0
173
0
291
0
 45
0.0
1001
ACAD
1000
AcDbSavedByObjectVersion
1070
0
  0
VISUALSTYLE
  5
9FA
102
{ACAD_XDICTIONARY
360
A77
102
}
102
{ACAD_REACTORS
330
9EF
102
}
330
9EF
100
AcDbVisualStyle
  2
Dim
 70
11
 71
2
 72
2
 73
0
 90
0
 40
-0.6
 41
-30.0
 62
5
 63
7
 74
1
 91
4
 64
7
 65
257
 75
1
175
1
 42
1.0
 92
8
 66
7
 43
1.0
 76
1
 77
6
 78
2
 67
7
 79
5
170
0
171
0
290
0
174
0
 93
1
 44
-50.0
173
0
291
1
 45
0.0
1001
ACAD
1000
AcDbSavedByObjectVersion
1070
0
  0
VISUALSTYLE
  5
A07
102
{ACAD_XDICTIONARY
360
A91
102
}
102
{ACAD_REACTORS
330
9EF
102
}
330
9EF
100
AcDbVisualStyle
  2
EdgeColorOff
 70
22
 71
2
 72
2
 73
0
 90
0
 40
-0.6
 41
-30.0
 62
5
 63
7
 74
1
 91
4
 64
7
 65
257
 75
1
175
1
 42
1.0
 92
8
 66
7
 43
1.0
 76
1
 77
6
 78
2
 67
7
 79
5
170
0
171
0
290
0
174
0
 93
1
 44
0.0
173
0
291
1
 45
0.0
1001
ACAD
1000
AcDbSavedByObjectVersion
1070
0
  0
VISUALSTYLE
  5
9FE
102
{ACAD_XDICTIONARY
360
A7F
102
}
102
{ACAD_REACTORS
330
9EF
102
}
330
9EF
100
AcDbVisualStyle
  2
Facepattern
 70
15
 71
2
 72
2
 73
0
 90
0
 40
-0.6
 41
-30.0
 62
5
 63
7
 74
1
 91
4
 64
7
 65
257
 75
1
175
1
 42
1.0
 92
8
 66
7
 43
1.0
 76
1
 77
6
 78
2
 67
7
 79
5
170
0
171
0
290
0
174
0
 93
1
 44
0.0
173
0
291
1
 45
0.0
1001
ACAD
1000
AcDbSavedByObjectVersion
1070
0
  0
VISUALSTYLE
  5
9F0
102
{ACAD_XDICTIONARY
360
A63
102
}
102
{ACAD_REACTORS
330
9EF
102
}
330
9EF
100
AcDbVisualStyle
  2
Flat
 70
0
 71
2
 72
1
 73
1
 90
2
 40
-0.6
 41
30.0
 62
5
 63
7
 74
0
 91
0
 64
7
 65
257
 75
1
175
1
 42
1.0
 92
8
 66
7
 43
1.0
 76
1
 77
6
 78
2
 67
7
 79
5
170
0
171
0
290
0
174
0
 93
13
 44
0.0
173
0
291
1
 45
0.0
1001
ACAD
1000
AcDbSavedByObjectVersion
1070
0
  0
VISUALSTYLE
  5
9F1
102
{ACAD_XDICTIONARY
360
A65
102
}
102
{ACAD_REACTORS
330
9EF
102
}
330
9EF
100
AcDbVisualStyle
  2
FlatWithEdges
 70
1
 71
2
 72
1
 73
1
 90
2
 40
-0.6
 41
30.0
 62
5
 63
7
 74
1
 91
0
 64
7
 65
257
 75
1
175
1
 42
1.0
 92
0
 66
257
 43
1.0
 76
1
 77
6
 78
2
 67
7
 79
5
170
0
171
0
290
0
174
0
 93
13
 44
0.0
173
0
291
1
 45
0.0
1001
ACAD
1000
AcDbSavedByObjectVersion
1070
0
  0
VISUALSTYLE
  5
9F2
102
{ACAD_XDICTIONARY
360
A67
102
}
102
{ACAD_REACTORS
330
9EF
102
}
330
9EF
100
AcDbVisualStyle
  2
Gouraud
 70
2
 71
2
 72
2
 73
1
 90
2
 40
-0.6
 41
30.0
 62
5
 63
7
 74
0
 91
0
 64
7
 65
257
 75
1
175
1
 42
1.0
 92
0
 66
7
 43
1.0
 76
1
 77
6
 78
2
 67
7
 79
5
170
0
171
0
290
0
174
0
 93
13
 44
0.0
173
0
291
1
 45
0.0
1001
ACAD
1000
AcDbSavedByObjectVersion
1070
0
  0
VISUALSTYLE
  5
9F3
102
{ACAD_XDICTIONARY
360
A69
102
}
102
{ACAD_REACTORS
330
9EF
102
}
330
9EF
100
AcDbVisualStyle
  2
GouraudWithEdges
 70
3
 71
2
 72
2
 73
1
 90
2
 40
-0.6
 41
30.0
 62
5
 63
7
 74
1
 91
0
 64
7
 65
257
 75
1
175
1
 42
1.0
 92
0
 66
257
 43
1.0
 76
1
 77
6
 78
2
 67
7
 79
5
170
0
171
0
290
0
174
0
 93
13
 44
0.0
173
0
291
1
 45
0.0
1001
ACAD
1000
AcDbSavedByObjectVersion
1070
0
  0
VISUALSTYLE
  5
9F7
102
{ACAD_XDICTIONARY
360
A71
102
}
102
{ACAD_REACTORS
330
9EF
102
}
330
9EF
100
AcDbVisualStyle
  2
Hidden
 70
6
 71
1
 72
2
 73
2
 90
0
 40
-0.6
 41
-30.0
 62
5
 63
7
 74
2
 91
2
 64
7
 65
257
 75
2
175
1
 42
40.0
 92
0
 66
257
 43
1.0
 76
1
 77
6
 78
2
 67
7
 79
3
170
0
171
0
290
0
174
0
 93
1
 44
0.0
173
0
291
0
 45
0.0
1001
ACAD
1000
AcDbSavedByObjectVersion
1070
0
  0
VISUALSTYLE
  5
A05
102
{ACAD_XDICTIONARY
360
A8D
102
}
102
{ACAD_REACTORS
330
9EF
102
}
330
9EF
100
AcDbVisualStyle
  2
JitterOff
 70
20
 71
2
 72
2
 73
0
 90
0
 40
-0.6
 41
-30.0
 62
5
 63
7
 74
1
 91
4
 64
7
 65
257
 75
1
175
1
 42
1.0
 92
10
 66
7
 43
1.0
 76
1
 77
6
 78
2
 67
7
 79
5
170
0
171
0
290
0
174
0
 93
1
 44
0.0
173
0
291
1
 45
0.0
1001
ACAD
1000
AcDbSavedByObjectVersion
1070
0
  0
VISUALSTYLE
  5
9FD
102
{ACAD_XDICTIONARY
360
A7D
102
}
102
{ACAD_REACTORS
330
9EF
102
}
330
9EF
100
AcDbVisualStyle
  2
Linepattern
 70
14
 71
2
 72
2
 73
0
 90
0
 40
-0.6
 41
-30.0
 62
5
 63
7
 74
1
 91
4
 64
7
 65
257
 75
7
175
7
 42
1.0
 92
8
 66
7
 43
1.0
 76
1
 77
6
 78
2
 67
7
 79
5
170
0
171
0
290
0
174
0
 93
1
 44
0.0
173
0
291
1
 45
0.0
1001
ACAD
1000
AcDbSavedByObjectVersion
1070
0
  0
VISUALSTYLE
  5
A06
102
{ACAD_XDICTIONARY
360
A8F
102
}
102
{ACAD_REACTORS
330
9EF
102
}
330
9EF
100
AcDbVisualStyle
  2
OverhangOff
 70
21
 71
2
 72
2
 73
0
 90
0
 40
-0.6
 41
-30.0
 62
5
 63
7
 74
1
 91
4
 64
7
 65
257
 75
1
175
1
 42
1.0
 92
9
 66
7
 43
1.0
 76
1
 77
6
 78
2
 67
7
 79
5
170
0
171
0
290
0
174
0
 93
1
 44
0.0
173
0
291
1
 45
0.0
1001
ACAD
1000
AcDbSavedByObjectVersion
1070
0
  0
VISUALSTYLE
  5
9F9
102
{ACAD_XDICTIONARY
360
A75
102
}
102
{ACAD_REACTORS
330
9EF
102
}
330
9EF
100
AcDbVisualStyle
  2
Realistic
 70
8
 71
2
 72
3
 73
0
 90
2
 40
-0.6
 41
30.0
 62
5
 63
7
 74
0
 91
0
 64
7
 65
257
 75
1
175
1
 42
1.0
 92
8
 66
257
 43
1.0
 76
1
 77
6
 78
2
 67
7
 79
3
170
0
171
0
290
0
174
0
 93
13
 44
0.0
173
0
291
0
 45
0.0
1001
ACAD
1000
AcDbSavedByObjectVersion
1070
0
  0
VISUALSTYLE
  5
A04
102
{ACAD_XDICTIONARY
360
A8B
102
}
102
{ACAD_REACTORS
330
9EF
102
}
330
9EF
100
AcDbVisualStyle
  2
Shaded
 70
27
 71
2
 72
2
 73
1
 90
2
 40
-0.6
 41
30.0
 62
5
 63
7
 74
0
 91
4
 64
7
 65
257
 75
1
175
1
 42
1.0
 92
8
 66
257
 43
1.0
 76
1
 77
6
 78
2
 67
8
 79
3
170
0
171
0
290
0
174
0
 93
5
 44
0.0
173
0
291
0
 45
0.0
1001
ACAD
1000
AcDbSavedByObjectVersion
1070
0
  0
VISUALSTYLE
  5
A03
102
{ACAD_XDICTIONARY
360
A89
102
}
102
{ACAD_REACTORS
330
9EF
102
}
330
9EF
100
AcDbVisualStyle
  2
Shaded with edges
 70
26
 71
2
 72
2
 73
1
 90
2
 40
-0.6
 41
30.0
 62
5
 63
7
 74
1
 91
2
 64
7
 65
257
 75
2
175
1
 42
1.0
 92
8
 66
257
 43
1.0
 76
1
 77
6
 78
2
 67
7
 79
3
170
0
171
0
290
0
174
0
 93
5
 44
0.0
173
0
291
0
 45
0.0
1001
ACAD
1000
AcDbSavedByObjectVersion
1070
0
  0
VISUALSTYLE
  5
A00
102
{ACAD_XDICTIONARY
360
A83
102
}
102
{ACAD_REACTORS
330
9EF
102
}
330
9EF
100
AcDbVisualStyle
  2
Shades of Gray
 70
23
 71
2
 72
2
 73
3
 90
0
 40
-0.6
 41
-30.0
 62
5
 63
7
 74
2
 91
2
 64
7
 65
7
 75
1
175
1
 42
40.0
 92
8
 66
7
 43
1.0
 76
1
 77
6
 78
2
 67
7
 79
3
170
0
171
0
290
0
174
0
 93
1
 44
0.0
173
0
291
0
 45
0.0
1001
ACAD
1000
AcDbSavedByObjectVersion
1070
0
  0
VISUALSTYLE
  5
A01
102
{ACAD_XDICTIONARY
360
A85
102
}
102
{ACAD_REACTORS
330
9EF
102
}
330
9EF
100
AcDbVisualStyle
  2
Sketchy
 70
24
 71
1
 72
2
 73
2
 90
0
 40
-0.6
 41
-30.0
 62
5
 63
7
 74
2
 91
2
 64
7
 65
7
 75
1
175
1
 42
40.0
 92
11
 66
7
 43
1.0
 76
1
 77
6
 78
2
 67
7
 79
6
170
0
171
0
290
0
174
0
 93
1
 44
0.0
173
0
291
0
 45
0.0
1001
ACAD
1000
AcDbSavedByObjectVersion
1070
0
  0
VISUALSTYLE
  5
9FC
102
{ACAD_XDICTIONARY
360
A7B
102
}
102
{ACAD_REACTORS
330
9EF
102
}
330
9EF
100
AcDbVisualStyle
  2
Thicken
 70
13
 71
2
 72
2
 73
0
 90
0
 40
-0.6
 41
-30.0
 62
5
 63
7
 74
1
 91
4
 64
7
 65
257
 75
1
175
1
 42
1.0
 92
12
 66
7
 43
1.0
 76
1
 77
6
 78
2
 67
7
 79
5
170
0
171
0
290
0
174
0
 93
1
 44
0.0
173
0
291
1
 45
0.0
1001
ACAD
1000
AcDbSavedByObjectVersion
1070
0
  0
VISUALSTYLE
  5
9F6
102
{ACAD_XDICTIONARY
360
A6F
102
}
102
{ACAD_REACTORS
330
9EF
102
}
330
9EF
100
AcDbVisualStyle
  2
Wireframe
 70
5
 71
0
 72
2
 73
0
 90
0
 40
-0.6
 41
-30.0
 62
5
 63
7
 74
1
 91
4
 64
7
 65
257
 75
1
175
1
 42
1.0
 92
0
 66
257
 43
1.0
 76
1
 77
6
 78
2
 67
7
 79
3
170
0
171
0
290
0
174
0
 93
1
 44
0.0
173
0
291
0
 45
0.0
1001
ACAD
1000
AcDbSavedByObjectVersion
1070
0
  0
VISUALSTYLE
  5
A02
102
{ACAD_XDICTIONARY
360
A87
102
}
102
{ACAD_REACTORS
330
9EF
102
}
330
9EF
100
AcDbVisualStyle
  2
X-Ray
 70
25
 71
2
 72
2
 73
1
 90
1
 40
0.5
 41
-30.0
 62
5
 63
7
 74
1
 91
0
 64
7
 65
257
 75
1
175
1
 42
1.0
 92
8
 66
7
 43
1.0
 76
1
 77
6
 78
2
 67
7
 79
3
170
0
171
0
290
0
174
0
 93
13
 44
0.0
173
0
291
0
 45
0.0
1001
ACAD
1000
AcDbSavedByObjectVersion
1070
0
  0
DICTIONARYVAR
  5
A54
102
{ACAD_REACTORS
330
A4F
102
}
330
A4F
100
DictionaryVariables
280
0
  1
1:1
  0
DICTIONARYVAR
  5
A51
102
{ACAD_REACTORS
330
A4F
102
}
330
A4F
100
DictionaryVariables
280
0
  1
STANDARD
  0
DICTIONARYVAR
  5
A50
102
{ACAD_REACTORS
330
A4F
102
}
330
A4F
100
DictionaryVariables
280
0
  1
STANDARD
  0
DICTIONARYVAR
  5
A52
102
{ACAD_REACTORS
330
A4F
102
}
330
A4F
100
DictionaryVariables
280
0
  1
Imperial24
  0
DICTIONARYVAR
  5
A53
102
{ACAD_REACTORS
330
A4F
102
}
330
A4F
100
DictionaryVariables
280
0
  1
Imperial24
  0
DICTIONARYVAR
  5
A57
102
{ACAD_REACTORS
330
A4F
102
}
330
A4F
100
DictionaryVariables
280
0
  1
1
  0
DICTIONARYVAR
  5
A56
102
{ACAD_REACTORS
330
A4F
102
}
330
A4F
100
DictionaryVariables
280
0
  1
0
  0
DICTIONARYVAR
  5
A55
102
{ACAD_REACTORS
330
A4F
102
}
330
A4F
100
DictionaryVariables
280
0
  1
127
  0
DICTIONARYVAR
  5
A58
102
{ACAD_REACTORS
330
A4F
102
}
330
A4F
100
DictionaryVariables
280
0
  1
2
  0
DICTIONARY
  5
A97
330
A30
100
AcDbDictionary
280
1
281
1
  3
ACAD_XREC_ROUNDTRIP
360
A98
  0
DICTIONARY
  5
A9B
330
A38
100
AcDbDictionary
280
1
281
1
  3
ACAD_XREC_ROUNDTRIP
360
A9C
  0
DICTIONARY
  5
A99
330
A34
100
AcDbDictionary
280
1
281
1
  3
ACAD_XREC_ROUNDTRIP
360
A9A
  0
DICTIONARY
  5
9E0
330
9DF
100
AcDbDictionary
280
1
281
1
  3
ACAD_XREC_ROUNDTRIP
360
A61
  3
BUMPTILE
360
9E2
  3
DIFFUSETILE
360
9E1
  3
OPACITYTILE
360
9E5
  3
REFLECTIONTILE
360
9E4
  3
REFRACTIONTILE
360
9E6
  3
SPECULARTILE
360
9E3
  0
DICTIONARY
  5
9D8
330
9D7
100
AcDbDictionary
280
1
281
1
  3
ACAD_XREC_ROUNDTRIP
360
A60
  3
BUMPTILE
360
9DA
  3
DIFFUSETILE
360
9D9
  3
OPACITYTILE
360
9DD
  3
REFLECTIONTILE
360
9DC
  3
REFRACTIONTILE
360
9DE
  3
SPECULARTILE
360
9DB
  0
DICTIONARY
  5
9E8
330
9E7
100
AcDbDictionary
280
1
281
1
  3
ACAD_XREC_ROUNDTRIP
360
A62
  3
BUMPTILE
360
9EA
  3
DIFFUSETILE
360
9E9
  3
OPACITYTILE
360
9ED
  3
REFLECTIONTILE
360
9EC
  3
REFRACTIONTILE
360
9EE
  3
SPECULARTILE
360
9EB
  0
DICTIONARY
  5
A95
330
A2E
100
AcDbDictionary
280
1
281
1
  3
ACAD_XREC_ROUNDTRIP
360
A96
  0
DICTIONARY
  5
A5A
330
A2A
100
AcDbDictionary
280
1
281
1
  3
ACAD_ROUNDTRIP_2008_TABLESTYLE_CELLSTYLEMAP
360
A5B
  3
ACAD_XREC_ROUNDTRIP
360
A93
  0
DICTIONARY
  5
A6D
330
9F5
100
AcDbDictionary
280
1
281
1
  3
ACAD_XREC_ROUNDTRIP
360
A6E
  0
DICTIONARY
  5
A6B
330
9F4
100
AcDbDictionary
280
1
281
1
  3
ACAD_XREC_ROUNDTRIP
360
A6C
  0
DICTIONARY
  5
A79
330
9FB
100
AcDbDictionary
280
1
281
1
  3
ACAD_XREC_ROUNDTRIP
360
A7A
  0
DICTIONARY
  5
A81
330
9FF
100
AcDbDictionary
280
1
281
1
  3
ACAD_XREC_ROUNDTRIP
360
A82
  0
DICTIONARY
  5
A73
330
9F8
100
AcDbDictionary
280
1
281
1
  3
ACAD_XREC_ROUNDTRIP
360
A74
  0
DICTIONARY
  5
A77
330
9FA
100
AcDbDictionary
280
1
281
1
  3
ACAD_XREC_ROUNDTRIP
360
A78
  0
DICTIONARY
  5
A91
330
A07
100
AcDbDictionary
280
1
281
1
  3
ACAD_XREC_ROUNDTRIP
360
A92
  0
DICTIONARY
  5
A7F
330
9FE
100
AcDbDictionary
280
1
281
1
  3
ACAD_XREC_ROUNDTRIP
360
A80
  0
DICTIONARY
  5
A63
330
9F0
100
AcDbDictionary
280
1
281
1
  3
ACAD_XREC_ROUNDTRIP
360
A64
  0
DICTIONARY
  5
A65
330
9F1
100
AcDbDictionary
280
1
281
1
  3
ACAD_XREC_ROUNDTRIP
360
A66
  0
DICTIONARY
  5
A67
330
9F2
100
AcDbDictionary
280
1
281
1
  3
ACAD_XREC_ROUNDTRIP
360
A68
  0
DICTIONARY
  5
A69
330
9F3
100
AcDbDictionary
280
1
281
1
  3
ACAD_XREC_ROUNDTRIP
360
A6A
  0
DICTIONARY
  5
A71
330
9F7
100
AcDbDictionary
280
1
281
1
  3
ACAD_XREC_ROUNDTRIP
360
A72
  0
DICTIONARY
  5
A8D
330
A05
100
AcDbDictionary
280
1
281
1
  3
ACAD_XREC_ROUNDTRIP
360
A8E
  0
DICTIONARY
  5
A7D
330
9FD
100
AcDbDictionary
280
1
281
1
  3
ACAD_XREC_ROUNDTRIP
360
A7E
  0
DICTIONARY
  5
A8F
330
A06
100
AcDbDictionary
280
1
281
1
  3
ACAD_XREC_ROUNDTRIP
360
A90
  0
DICTIONARY
  5
A75
330
9F9
100
AcDbDictionary
280
1
281
1
  3
ACAD_XREC_ROUNDTRIP
360
A76
  0
DICTIONARY
  5
A8B
330
A04
100
AcDbDictionary
280
1
281
1
  3
ACAD_XREC_ROUNDTRIP
360
A8C
  0
DICTIONARY
  5
A89
330
A03
100
AcDbDictionary
280
1
281
1
  3
ACAD_XREC_ROUNDTRIP
360
A8A
  0
DICTIONARY
  5
A83
330
A00
100
AcDbDictionary
280
1
281
1
  3
ACAD_XREC_ROUNDTRIP
360
A84
  0
DICTIONARY
  5
A85
330
A01
100
AcDbDictionary
280
1
281
1
  3
ACAD_XREC_ROUNDTRIP
360
A86
  0
DICTIONARY
  5
A7B
330
9FC
100
AcDbDictionary
280
1
281
1
  3
ACAD_XREC_ROUNDTRIP
360
A7C
  0
DICTIONARY
  5
A6F
330
9F6
100
AcDbDictionary
280
1
281
1
  3
ACAD_XREC_ROUNDTRIP
360
A70
  0
DICTIONARY
  5
A87
330
A02
100
AcDbDictionary
280
1
281
1
  3
ACAD_XREC_ROUNDTRIP
360
A88
  0
XRECORD
  5
A98
102
{ACAD_REACTORS
330
A97
102
}
330
A97
100
AcDbXrecord
280
1
102
DISPLAYNAME
  1
Imperial24
102
FLAGS
 90
0
  0
XRECORD
  5
A9C
102
{ACAD_REACTORS
330
A9B
102
}
330
A9B
100
AcDbXrecord
280
1
102
SHADEPLOT
 70
0
102
SHADEPLOTRESLEVEL
 70
2
102
SHADEPLOTCUSTOMDPI
 70
300
  0
XRECORD
  5
A9A
102
{ACAD_REACTORS
330
A99
102
}
330
A99
100
AcDbXrecord
280
1
102
SHADEPLOT
 70
0
102
SHADEPLOTRESLEVEL
 70
2
102
SHADEPLOTCUSTOMDPI
 70
300
  0
XRECORD
  5
A61
102
{ACAD_REACTORS
330
9E0
102
}
330
9E0
100
AcDbXrecord
280
1
102
MATERIAL
148
0.0
149
0.0
149
0.0
 93
0
 94
127
282
0
 72
0
 77
0
171
0
175
0
179
0
273
0
  0
XRECORD
  5
9E2
102
{ACAD_REACTORS
330
9E0
102
}
330
9E0
100
AcDbXrecord
280
1
270
1
271
1
  0
XRECORD
  5
9E1
102
{ACAD_REACTORS
330
9E0
102
}
330
9E0
100
AcDbXrecord
280
1
270
1
271
1
  0
XRECORD
  5
9E5
102
{ACAD_REACTORS
330
9E0
102
}
330
9E0
100
AcDbXrecord
280
1
270
1
271
1
  0
XRECORD
  5
9E4
102
{ACAD_REACTORS
330
9E0
102
}
330
9E0
100
AcDbXrecord
280
1
270
1
271
1
  0
XRECORD
  5
9E6
102
{ACAD_REACTORS
330
9E0
102
}
330
9E0
100
AcDbXrecord
280
1
270
1
271
1
  0
XRECORD
  5
9E3
102
{ACAD_REACTORS
330
9E0
102
}
330
9E0
100
AcDbXrecord
280
1
270
1
271
1
  0
XRECORD
  5
A60
102
{ACAD_REACTORS
330
9D8
102
}
330
9D8
100
AcDbXrecord
280
1
102
MATERIAL
148
0.0
149
0.0
149
0.0
 93
0
 94
127
282
0
 72
0
 77
0
171
0
175
0
179
0
273
0
  0
XRECORD
  5
9DA
102
{ACAD_REACTORS
330
9D8
102
}
330
9D8
100
AcDbXrecord
280
1
270
1
271
1
  0
XRECORD
  5
9D9
102
{ACAD_REACTORS
330
9D8
102
}
330
9D8
100
AcDbXrecord
280
1
270
1
271
1
  0
XRECORD
  5
9DD
102
{ACAD_REACTORS
330
9D8
102
}
330
9D8
100
AcDbXrecord
280
1
270
1
271
1
  0
XRECORD
  5
9DC
102
{ACAD_REACTORS
330
9D8
102
}
330
9D8
100
AcDbXrecord
280
1
270
1
271
1
  0
XRECORD
  5
9DE
102
{ACAD_REACTORS
330
9D8
102
}
330
9D8
100
AcDbXrecord
280
1
270
1
271
1
  0
XRECORD
  5
9DB
102
{ACAD_REACTORS
330
9D8
102
}
330
9D8
100
AcDbXrecord
280
1
270
1
271
1
  0
XRECORD
  5
A62
102
{ACAD_REACTORS
330
9E8
102
}
330
9E8
100
AcDbXrecord
280
1
102
MATERIAL
148
0.0
149
0.0
149
0.0
 93
0
 94
127
282
0
 72
0
 77
0
171
0
175
0
179
0
273
0
  0
XRECORD
  5
9EA
102
{ACAD_REACTORS
330
9E8
102
}
330
9E8
100
AcDbXrecord
280
1
270
1
271
1
  0
XRECORD
  5
9E9
102
{ACAD_REACTORS
330
9E8
102
}
330
9E8
100
AcDbXrecord
280
1
270
1
271
1
  0
XRECORD
  5
9ED
102
{ACAD_REACTORS
330
9E8
102
}
330
9E8
100
AcDbXrecord
280
1
270
1
271
1
  0
XRECORD
  5
9EC
102
{ACAD_REACTORS
330
9E8
102
}
330
9E8
100
AcDbXrecord
280
1
270
1
271
1
  0
XRECORD
  5
9EE
102
{ACAD_REACTORS
330
9E8
102
}
330
9E8
100
AcDbXrecord
280
1
270
1
271
1
  0
XRECORD
  5
9EB
102
{ACAD_REACTORS
330
9E8
102
}
330
9E8
100
AcDbXrecord
280
1
270
1
271
1
  0
XRECORD
  5
A96
102
{ACAD_REACTORS
330
A95
102
}
330
A95
100
AcDbXrecord
280
1
102
DISPLAYNAME
  1
Imperial24
102
FLAGS
 90
0
  0
CELLSTYLEMAP
  5
A5B
102
{ACAD_REACTORS
330
A5A
102
}
330
A5A
100
AcDbCellStyleMap
 90
3
300
CELLSTYLE
  1
TABLEFORMAT_BEGIN
 90
5
170
1
 91
0
 92
32768
 62
257
 93
1
300
CONTENTFORMAT
  1
CONTENTFORMAT_BEGIN
 90
0
 91
0
 92
512
 93
0
300

 40
0.0
140
1.0
 94
5
 62
0
340
A1B
144
0.25
309
CONTENTFORMAT_END
171
0
 94
0
309
TABLEFORMAT_END
  1
CELLSTYLE_BEGIN
 90
1
 91
1
300
_TITLE
309
CELLSTYLE_END
300
CELLSTYLE
  1
TABLEFORMAT_BEGIN
 90
5
170
1
 91
0
 92
0
 62
257
 93
1
300
CONTENTFORMAT
  1
CONTENTFORMAT_BEGIN
 90
0
 91
0
 92
512
 93
0
300

 40
0.0
140
1.0
 94
5
 62
0
340
A1B
144
0.18
309
CONTENTFORMAT_END
171
0
 94
0
309
TABLEFORMAT_END
  1
CELLSTYLE_BEGIN
 90
2
 91
1
300
_HEADER
309
CELLSTYLE_END
300
CELLSTYLE
  1
TABLEFORMAT_BEGIN
 90
5
170
1
 91
0
 92
0
 62
257
 93
1
300
CONTENTFORMAT
  1
CONTENTFORMAT_BEGIN
 90
0
 91
0
 92
512
 93
0
300

 40
0.0
140
1.0
 94
2
 62
0
340
A1B
144
0.18
309
CONTENTFORMAT_END
171
0
 94
0
309
TABLEFORMAT_END
  1
CELLSTYLE_BEGIN
 90
3
 91
2
300
_DATA
309
CELLSTYLE_END
  0
XRECORD
  5
A93
102
{ACAD_REACTORS
330
A5A
102
}
330
A5A
100
AcDbXrecord
280
1
102
ACAD_ROUNDTRIP_PRE2007_TABLESTYLE
 90
512
 91
0
  1

 92
512
 93
0
  2

 94
512
 95
0
  3

  0
XRECORD
  5
A6E
102
{ACAD_REACTORS
330
A6D
102
}
330
A6D
100
AcDbXrecord
280
1
102
RTVSPost2010Prop28
280
1
102
RTVSPost2010PropOp28
 70
1
102
RTVSPost2010Prop29
280
1
102
RTVSPost2010PropOp29
 70
1
102
RTVSPost2010Prop30
280
0
102
RTVSPost2010PropOp30
 70
1
102
RTVSPost2010Prop31
280
0
102
RTVSPost2010PropOp31
 70
1
102
RTVSPost2010Prop32
280
0
102
RTVSPost2010PropOp32
 70
1
102
RTVSPost2010Prop33
280
0
102
RTVSPost2010PropOp33
 70
1
102
RTVSPost2010Prop34
280
0
102
RTVSPost2010PropOp34
 70
1
102
RTVSPost2010Prop35
280
0
102
RTVSPost2010PropOp35
 70
1
102
RTVSPost2010Prop36
280
0
102
RTVSPost2010PropOp36
 70
1
102
RTVSPost2010Prop37
 90
50
102
RTVSPost2010PropOp37
 70
1
102
RTVSPost2010Prop38
140
0.0
102
RTVSPost2010PropOp38
 70
1
102
RTVSPost2010Prop39
140
1.0
102
RTVSPost2010PropOp39
 70
1
102
RTVSPost2010Prop40
 90
0
102
RTVSPost2010PropOp40
 70
1
102
RTVSPost2010Prop41ColorIndex
 90
18
102
RTVSPost2010Prop41ColorRGB
 90
0
102
RTVSPost2010PropOp41
 70
1
102
RTVSPost2010Prop42
 90
50
102
RTVSPost2010PropOp42
 70
1
102
RTVSPost2010Prop43
 90
3
102
RTVSPost2010PropOp43
 70
1
102
RTVSPost2010Prop44ColorIndex
 90
5
102
RTVSPost2010Prop44ColorRGB
 90
255
102
RTVSPost2010PropOp44
 70
1
102
RTVSPost2010Prop45
280
0
102
RTVSPost2010PropOp45
 70
1
102
RTVSPost2010Prop46
 90
50
102
RTVSPost2010PropOp46
 70
1
102
RTVSPost2010Prop47
 90
50
102
RTVSPost2010PropOp47
 70
1
102
RTVSPost2010Prop48
 90
50
102
RTVSPost2010PropOp48
 70
1
102
RTVSPost2010Prop49
280
0
102
RTVSPost2010PropOp49
 70
1
102
RTVSPost2010Prop50
 90
50
102
RTVSPost2010PropOp50
 70
1
102
RTVSPost2010Prop51ColorIndex
 90
256
102
RTVSPost2010Prop51ColorRGB
 90
-16777216
102
RTVSPost2010PropOp51
 70
0
102
RTVSPost2010Prop52
140
1.0
102
RTVSPost2010PropOp52
 70
0
102
RTVSPost2010Prop53
 90
2
102
RTVSPost2010PropOp53
 70
1
102
RTVSPost2010Prop54
  1
strokes_ogs.tif
102
RTVSPost2010PropOp54
 70
1
102
RTVSPost2010Prop55
280
0
102
RTVSPost2010PropOp55
 70
1
102
RTVSPost2010Prop56
140
1.0
102
RTVSPost2010PropOp56
 70
1
102
RTVSPost2010Prop57
140
1.0
102
RTVSPost2010PropOp57
 70
1
102
RTVSPropertyOp0
 70
1
102
RTVSPropertyOp1
 70
1
102
RTVSPropertyOp2
 70
1
102
RTVSPropertyOp3
 70
1
102
RTVSPropertyOp4
 70
1
102
RTVSPropertyOp5
 70
1
102
RTVSPropertyOp6
 70
1
102
RTVSPropertyOp7
 70
1
102
RTVSPropertyOp8
 70
1
102
RTVSPropertyOp9
 70
1
102
RTVSPropertyOp10
 70
1
102
RTVSPropertyOp11
 70
1
102
RTVSPropertyOp12
 70
1
102
RTVSPropertyOp13
 70
1
102
RTVSPropertyOp14
 70
1
102
RTVSPropertyOp15
 70
1
102
RTVSPropertyOp16
 70
1
102
RTVSPropertyOp17
 70
1
102
RTVSPropertyOp18
 70
1
102
RTVSPropertyOp19
 70
1
102
RTVSPropertyOp20
 70
1
102
RTVSPropertyOp21
 70
1
102
RTVSPropertyOp22
 70
1
102
RTVSPropertyOp23
 70
1
102
RTVSPropertyOp24
 70
1
102
RTVSPropertyOp25
 70
1
102
RTVSPropertyOp26
 70
1
102
RTVSPropertyOp27
 70
1
102
RTVSPropertyOp28
 70
1
102
RTVSPropertyOp29
 70
1
102
RTVSPropertyOp30
 70
1
102
RTVSPropertyOp31
 70
1
102
RTVSPropertyOp32
 70
1
102
RTVSPropertyOp33
 70
1
102
RTVSPropertyOp34
 70
1
102
RTVSPropertyOp35
 70
1
102
RTVSPropertyOp36
 70
1
102
RTVSPropertyOp37
 70
1
102
RTVSPropertyOp38
 70
1
102
RTVSPropertyOp39
 70
1
102
RTVSPropertyOp40
 70
1
102
RTVSPropertyOp41
 70
1
102
RTVSPropertyOp42
 70
1
102
RTVSPropertyOp43
 70
1
102
RTVSPropertyOp44
 70
1
102
RTVSPropertyOp45
 70
1
102
RTVSPropertyOp46
 70
1
102
RTVSPropertyOp47
 70
1
102
RTVSPropertyOp48
 70
1
102
RTVSPropertyOp49
 70
1
102
RTVSPropertyOp50
 70
1
102
RTVSPropertyOp51
 70
0
102
RTVSPropertyOp52
 70
0
102
RTVSPropertyOp53
 70
1
102
RTVSPropertyOp54
 70
1
102
RTVSPropertyOp55
 70
1
102
RTVSPropertyOp56
 70
1
102
RTVSPropertyOp57
 70
1
102
RTVSPropertyOp58
 70
1
102
RTVSPropertyOp59
 70
1
102
RTVSPropertyOp60
 70
1
102
RTVSPropertyOp61
 70
1
102
RTVSPropertyOp62
 70
1
  0
XRECORD
  5
A6C
102
{ACAD_REACTORS
330
A6B
102
}
330
A6B
100
AcDbXrecord
280
1
102
RTVSPost2010Prop28
280
0
102
RTVSPost2010PropOp28
 70
1
102
RTVSPost2010Prop29
280
1
102
RTVSPost2010PropOp29
 70
1
102
RTVSPost2010Prop30
280
1
102
RTVSPost2010PropOp30
 70
1
102
RTVSPost2010Prop31
280
0
102
RTVSPost2010PropOp31
 70
1
102
RTVSPost2010Prop32
280
0
102
RTVSPost2010PropOp32
 70
1
102
RTVSPost2010Prop33
280
0
102
RTVSPost2010PropOp33
 70
1
102
RTVSPost2010Prop34
280
0
102
RTVSPost2010PropOp34
 70
1
102
RTVSPost2010Prop35
280
0
102
RTVSPost2010PropOp35
 70
1
102
RTVSPost2010Prop36
280
0
102
RTVSPost2010PropOp36
 70
1
102
RTVSPost2010Prop37
 90
50
102
RTVSPost2010PropOp37
 70
1
102
RTVSPost2010Prop38
140
0.0
102
RTVSPost2010PropOp38
 70
1
102
RTVSPost2010Prop39
140
1.0
102
RTVSPost2010PropOp39
 70
1
102
RTVSPost2010Prop40
 90
0
102
RTVSPost2010PropOp40
 70
1
102
RTVSPost2010Prop41ColorIndex
 90
18
102
RTVSPost2010Prop41ColorRGB
 90
0
102
RTVSPost2010PropOp41
 70
1
102
RTVSPost2010Prop42
 90
50
102
RTVSPost2010PropOp42
 70
1
102
RTVSPost2010Prop43
 90
3
102
RTVSPost2010PropOp43
 70
1
102
RTVSPost2010Prop44ColorIndex
 90
5
102
RTVSPost2010Prop44ColorRGB
 90
255
102
RTVSPost2010PropOp44
 70
1
102
RTVSPost2010Prop45
280
0
102
RTVSPost2010PropOp45
 70
1
102
RTVSPost2010Prop46
 90
50
102
RTVSPost2010PropOp46
 70
1
102
RTVSPost2010Prop47
 90
50
102
RTVSPost2010PropOp47
 70
1
102
RTVSPost2010Prop48
 90
50
102
RTVSPost2010PropOp48
 70
1
102
RTVSPost2010Prop49
280
0
102
RTVSPost2010PropOp49
 70
1
102
RTVSPost2010Prop50
 90
50
102
RTVSPost2010PropOp50
 70
1
102
RTVSPost2010Prop51ColorIndex
 90
256
102
RTVSPost2010Prop51ColorRGB
 90
-16777216
102
RTVSPost2010PropOp51
 70
0
102
RTVSPost2010Prop52
140
1.0
102
RTVSPost2010PropOp52
 70
0
102
RTVSPost2010Prop53
 90
2
102
RTVSPost2010PropOp53
 70
1
102
RTVSPost2010Prop54
  1
strokes_ogs.tif
102
RTVSPost2010PropOp54
 70
1
102
RTVSPost2010Prop55
280
0
102
RTVSPost2010PropOp55
 70
1
102
RTVSPost2010Prop56
140
1.0
102
RTVSPost2010PropOp56
 70
1
102
RTVSPost2010Prop57
140
1.0
102
RTVSPost2010PropOp57
 70
1
102
RTVSPropertyOp0
 70
1
102
RTVSPropertyOp1
 70
1
102
RTVSPropertyOp2
 70
1
102
RTVSPropertyOp3
 70
1
102
RTVSPropertyOp4
 70
1
102
RTVSPropertyOp5
 70
1
102
RTVSPropertyOp6
 70
1
102
RTVSPropertyOp7
 70
1
102
RTVSPropertyOp8
 70
1
102
RTVSPropertyOp9
 70
1
102
RTVSPropertyOp10
 70
1
102
RTVSPropertyOp11
 70
1
102
RTVSPropertyOp12
 70
1
102
RTVSPropertyOp13
 70
1
102
RTVSPropertyOp14
 70
1
102
RTVSPropertyOp15
 70
1
102
RTVSPropertyOp16
 70
1
102
RTVSPropertyOp17
 70
1
102
RTVSPropertyOp18
 70
1
102
RTVSPropertyOp19
 70
1
102
RTVSPropertyOp20
 70
1
102
RTVSPropertyOp21
 70
1
102
RTVSPropertyOp22
 70
1
102
RTVSPropertyOp23
 70
1
102
RTVSPropertyOp24
 70
1
102
RTVSPropertyOp25
 70
1
102
RTVSPropertyOp26
 70
1
102
RTVSPropertyOp27
 70
1
102
RTVSPropertyOp28
 70
1
102
RTVSPropertyOp29
 70
1
102
RTVSPropertyOp30
 70
1
102
RTVSPropertyOp31
 70
1
102
RTVSPropertyOp32
 70
1
102
RTVSPropertyOp33
 70
1
102
RTVSPropertyOp34
 70
1
102
RTVSPropertyOp35
 70
1
102
RTVSPropertyOp36
 70
1
102
RTVSPropertyOp37
 70
1
102
RTVSPropertyOp38
 70
1
102
RTVSPropertyOp39
 70
1
102
RTVSPropertyOp40
 70
1
102
RTVSPropertyOp41
 70
1
102
RTVSPropertyOp42
 70
1
102
RTVSPropertyOp43
 70
1
102
RTVSPropertyOp44
 70
1
102
RTVSPropertyOp45
 70
1
102
RTVSPropertyOp46
 70
1
102
RTVSPropertyOp47
 70
1
102
RTVSPropertyOp48
 70
1
102
RTVSPropertyOp49
 70
1
102
RTVSPropertyOp50
 70
1
102
RTVSPropertyOp51
 70
0
102
RTVSPropertyOp52
 70
0
102
RTVSPropertyOp53
 70
1
102
RTVSPropertyOp54
 70
1
102
RTVSPropertyOp55
 70
1
102
RTVSPropertyOp56
 70
1
102
RTVSPropertyOp57
 70
1
102
RTVSPropertyOp58
 70
1
102
RTVSPropertyOp59
 70
1
102
RTVSPropertyOp60
 70
1
102
RTVSPropertyOp61
 70
1
102
RTVSPropertyOp62
 70
1
  0
XRECORD
  5
A7A
102
{ACAD_REACTORS
330
A79
102
}
330
A79
100
AcDbXrecord
280
1
102
RTVSPost2010Prop28
280
0
102
RTVSPost2010PropOp28
 70
1
102
RTVSPost2010Prop29
280
1
102
RTVSPost2010PropOp29
 70
1
102
RTVSPost2010Prop30
280
1
102
RTVSPost2010PropOp30
 70
1
102
RTVSPost2010Prop31
280
0
102
RTVSPost2010PropOp31
 70
1
102
RTVSPost2010Prop32
280
0
102
RTVSPost2010PropOp32
 70
1
102
RTVSPost2010Prop33
280
0
102
RTVSPost2010PropOp33
 70
1
102
RTVSPost2010Prop34
280
0
102
RTVSPost2010PropOp34
 70
1
102
RTVSPost2010Prop35
280
0
102
RTVSPost2010PropOp35
 70
1
102
RTVSPost2010Prop36
280
0
102
RTVSPost2010PropOp36
 70
1
102
RTVSPost2010Prop37
 90
50
102
RTVSPost2010PropOp37
 70
1
102
RTVSPost2010Prop38
140
0.0
102
RTVSPost2010PropOp38
 70
1
102
RTVSPost2010Prop39
140
1.0
102
RTVSPost2010PropOp39
 70
1
102
RTVSPost2010Prop40
 90
0
102
RTVSPost2010PropOp40
 70
1
102
RTVSPost2010Prop41ColorIndex
 90
18
102
RTVSPost2010Prop41ColorRGB
 90
0
102
RTVSPost2010PropOp41
 70
1
102
RTVSPost2010Prop42
 90
50
102
RTVSPost2010PropOp42
 70
1
102
RTVSPost2010Prop43
 90
3
102
RTVSPost2010PropOp43
 70
1
102
RTVSPost2010Prop44ColorIndex
 90
5
102
RTVSPost2010Prop44ColorRGB
 90
255
102
RTVSPost2010PropOp44
 70
1
102
RTVSPost2010Prop45
280
0
102
RTVSPost2010PropOp45
 70
1
102
RTVSPost2010Prop46
 90
50
102
RTVSPost2010PropOp46
 70
1
102
RTVSPost2010Prop47
 90
50
102
RTVSPost2010PropOp47
 70
1
102
RTVSPost2010Prop48
 90
50
102
RTVSPost2010PropOp48
 70
1
102
RTVSPost2010Prop49
280
0
102
RTVSPost2010PropOp49
 70
1
102
RTVSPost2010Prop50
 90
50
102
RTVSPost2010PropOp50
 70
1
102
RTVSPost2010Prop51ColorIndex
 90
256
102
RTVSPost2010Prop51ColorRGB
 90
-16777216
102
RTVSPost2010PropOp51
 70
0
102
RTVSPost2010Prop52
140
1.0
102
RTVSPost2010PropOp52
 70
0
102
RTVSPost2010Prop53
 90
2
102
RTVSPost2010PropOp53
 70
1
102
RTVSPost2010Prop54
  1
strokes_ogs.tif
102
RTVSPost2010PropOp54
 70
1
102
RTVSPost2010Prop55
280
0
102
RTVSPost2010PropOp55
 70
1
102
RTVSPost2010Prop56
140
1.0
102
RTVSPost2010PropOp56
 70
1
102
RTVSPost2010Prop57
140
1.0
102
RTVSPost2010PropOp57
 70
1
102
RTVSPropertyOp0
 70
1
102
RTVSPropertyOp1
 70
1
102
RTVSPropertyOp2
 70
1
102
RTVSPropertyOp3
 70
1
102
RTVSPropertyOp4
 70
1
102
RTVSPropertyOp5
 70
1
102
RTVSPropertyOp6
 70
1
102
RTVSPropertyOp7
 70
1
102
RTVSPropertyOp8
 70
1
102
RTVSPropertyOp9
 70
1
102
RTVSPropertyOp10
 70
1
102
RTVSPropertyOp11
 70
1
102
RTVSPropertyOp12
 70
1
102
RTVSPropertyOp13
 70
1
102
RTVSPropertyOp14
 70
1
102
RTVSPropertyOp15
 70
1
102
RTVSPropertyOp16
 70
1
102
RTVSPropertyOp17
 70
1
102
RTVSPropertyOp18
 70
1
102
RTVSPropertyOp19
 70
1
102
RTVSPropertyOp20
 70
1
102
RTVSPropertyOp21
 70
1
102
RTVSPropertyOp22
 70
1
102
RTVSPropertyOp23
 70
1
102
RTVSPropertyOp24
 70
1
102
RTVSPropertyOp25
 70
1
102
RTVSPropertyOp26
 70
1
102
RTVSPropertyOp27
 70
1
102
RTVSPropertyOp28
 70
1
102
RTVSPropertyOp29
 70
1
102
RTVSPropertyOp30
 70
1
102
RTVSPropertyOp31
 70
1
102
RTVSPropertyOp32
 70
1
102
RTVSPropertyOp33
 70
1
102
RTVSPropertyOp34
 70
1
102
RTVSPropertyOp35
 70
1
102
RTVSPropertyOp36
 70
1
102
RTVSPropertyOp37
 70
1
102
RTVSPropertyOp38
 70
1
102
RTVSPropertyOp39
 70
1
102
RTVSPropertyOp40
 70
1
102
RTVSPropertyOp41
 70
1
102
RTVSPropertyOp42
 70
1
102
RTVSPropertyOp43
 70
1
102
RTVSPropertyOp44
 70
1
102
RTVSPropertyOp45
 70
1
102
RTVSPropertyOp46
 70
1
102
RTVSPropertyOp47
 70
1
102
RTVSPropertyOp48
 70
1
102
RTVSPropertyOp49
 70
1
102
RTVSPropertyOp50
 70
1
102
RTVSPropertyOp51
 70
0
102
RTVSPropertyOp52
 70
0
102
RTVSPropertyOp53
 70
1
102
RTVSPropertyOp54
 70
1
102
RTVSPropertyOp55
 70
1
102
RTVSPropertyOp56
 70
1
102
RTVSPropertyOp57
 70
1
102
RTVSPropertyOp58
 70
1
102
RTVSPropertyOp59
 70
1
102
RTVSPropertyOp60
 70
1
102
RTVSPropertyOp61
 70
1
102
RTVSPropertyOp62
 70
1
  0
XRECORD
  5
A82
102
{ACAD_REACTORS
330
A81
102
}
330
A81
100
AcDbXrecord
280
1
102
RTVSPost2010Prop28
280
0
102
RTVSPost2010PropOp28
 70
1
102
RTVSPost2010Prop29
280
1
102
RTVSPost2010PropOp29
 70
1
102
RTVSPost2010Prop30
280
1
102
RTVSPost2010PropOp30
 70
1
102
RTVSPost2010Prop31
280
0
102
RTVSPost2010PropOp31
 70
1
102
RTVSPost2010Prop32
280
0
102
RTVSPost2010PropOp32
 70
1
102
RTVSPost2010Prop33
280
0
102
RTVSPost2010PropOp33
 70
1
102
RTVSPost2010Prop34
280
0
102
RTVSPost2010PropOp34
 70
1
102
RTVSPost2010Prop35
280
0
102
RTVSPost2010PropOp35
 70
1
102
RTVSPost2010Prop36
280
0
102
RTVSPost2010PropOp36
 70
1
102
RTVSPost2010Prop37
 90
50
102
RTVSPost2010PropOp37
 70
1
102
RTVSPost2010Prop38
140
0.0
102
RTVSPost2010PropOp38
 70
1
102
RTVSPost2010Prop39
140
1.0
102
RTVSPost2010PropOp39
 70
1
102
RTVSPost2010Prop40
 90
0
102
RTVSPost2010PropOp40
 70
1
102
RTVSPost2010Prop41ColorIndex
 90
18
102
RTVSPost2010Prop41ColorRGB
 90
0
102
RTVSPost2010PropOp41
 70
1
102
RTVSPost2010Prop42
 90
50
102
RTVSPost2010PropOp42
 70
1
102
RTVSPost2010Prop43
 90
3
102
RTVSPost2010PropOp43
 70
1
102
RTVSPost2010Prop44ColorIndex
 90
5
102
RTVSPost2010Prop44ColorRGB
 90
255
102
RTVSPost2010PropOp44
 70
1
102
RTVSPost2010Prop45
280
0
102
RTVSPost2010PropOp45
 70
1
102
RTVSPost2010Prop46
 90
50
102
RTVSPost2010PropOp46
 70
1
102
RTVSPost2010Prop47
 90
50
102
RTVSPost2010PropOp47
 70
1
102
RTVSPost2010Prop48
 90
50
102
RTVSPost2010PropOp48
 70
1
102
RTVSPost2010Prop49
280
0
102
RTVSPost2010PropOp49
 70
1
102
RTVSPost2010Prop50
 90
50
102
RTVSPost2010PropOp50
 70
1
102
RTVSPost2010Prop51ColorIndex
 90
256
102
RTVSPost2010Prop51ColorRGB
 90
-16777216
102
RTVSPost2010PropOp51
 70
0
102
RTVSPost2010Prop52
140
1.0
102
RTVSPost2010PropOp52
 70
0
102
RTVSPost2010Prop53
 90
2
102
RTVSPost2010PropOp53
 70
1
102
RTVSPost2010Prop54
  1
strokes_ogs.tif
102
RTVSPost2010PropOp54
 70
1
102
RTVSPost2010Prop55
280
0
102
RTVSPost2010PropOp55
 70
1
102
RTVSPost2010Prop56
140
1.0
102
RTVSPost2010PropOp56
 70
1
102
RTVSPost2010Prop57
140
1.0
102
RTVSPost2010PropOp57
 70
1
102
RTVSPropertyOp0
 70
1
102
RTVSPropertyOp1
 70
1
102
RTVSPropertyOp2
 70
1
102
RTVSPropertyOp3
 70
1
102
RTVSPropertyOp4
 70
1
102
RTVSPropertyOp5
 70
1
102
RTVSPropertyOp6
 70
1
102
RTVSPropertyOp7
 70
1
102
RTVSPropertyOp8
 70
1
102
RTVSPropertyOp9
 70
1
102
RTVSPropertyOp10
 70
1
102
RTVSPropertyOp11
 70
1
102
RTVSPropertyOp12
 70
1
102
RTVSPropertyOp13
 70
1
102
RTVSPropertyOp14
 70
1
102
RTVSPropertyOp15
 70
1
102
RTVSPropertyOp16
 70
1
102
RTVSPropertyOp17
 70
1
102
RTVSPropertyOp18
 70
1
102
RTVSPropertyOp19
 70
1
102
RTVSPropertyOp20
 70
1
102
RTVSPropertyOp21
 70
1
102
RTVSPropertyOp22
 70
1
102
RTVSPropertyOp23
 70
1
102
RTVSPropertyOp24
 70
1
102
RTVSPropertyOp25
 70
1
102
RTVSPropertyOp26
 70
1
102
RTVSPropertyOp27
 70
1
102
RTVSPropertyOp28
 70
1
102
RTVSPropertyOp29
 70
1
102
RTVSPropertyOp30
 70
1
102
RTVSPropertyOp31
 70
1
102
RTVSPropertyOp32
 70
1
102
RTVSPropertyOp33
 70
1
102
RTVSPropertyOp34
 70
1
102
RTVSPropertyOp35
 70
1
102
RTVSPropertyOp36
 70
1
102
RTVSPropertyOp37
 70
1
102
RTVSPropertyOp38
 70
1
102
RTVSPropertyOp39
 70
1
102
RTVSPropertyOp40
 70
1
102
RTVSPropertyOp41
 70
1
102
RTVSPropertyOp42
 70
1
102
RTVSPropertyOp43
 70
1
102
RTVSPropertyOp44
 70
1
102
RTVSPropertyOp45
 70
1
102
RTVSPropertyOp46
 70
1
102
RTVSPropertyOp47
 70
1
102
RTVSPropertyOp48
 70
1
102
RTVSPropertyOp49
 70
1
102
RTVSPropertyOp50
 70
1
102
RTVSPropertyOp51
 70
0
102
RTVSPropertyOp52
 70
0
102
RTVSPropertyOp53
 70
1
102
RTVSPropertyOp54
 70
1
102
RTVSPropertyOp55
 70
1
102
RTVSPropertyOp56
 70
1
102
RTVSPropertyOp57
 70
1
102
RTVSPropertyOp58
 70
1
102
RTVSPropertyOp59
 70
1
102
RTVSPropertyOp60
 70
1
102
RTVSPropertyOp61
 70
1
102
RTVSPropertyOp62
 70
1
  0
XRECORD
  5
A74
102
{ACAD_REACTORS
330
A73
102
}
330
A73
100
AcDbXrecord
280
1
102
RTVSPost2010Prop28
280
0
102
RTVSPost2010PropOp28
 70
1
102
RTVSPost2010Prop29
280
1
102
RTVSPost2010PropOp29
 70
1
102
RTVSPost2010Prop30
280
1
102
RTVSPost2010PropOp30
 70
1
102
RTVSPost2010Prop31
280
0
102
RTVSPost2010PropOp31
 70
1
102
RTVSPost2010Prop32
280
0
102
RTVSPost2010PropOp32
 70
1
102
RTVSPost2010Prop33
280
0
102
RTVSPost2010PropOp33
 70
1
102
RTVSPost2010Prop34
280
0
102
RTVSPost2010PropOp34
 70
1
102
RTVSPost2010Prop35
280
0
102
RTVSPost2010PropOp35
 70
1
102
RTVSPost2010Prop36
280
0
102
RTVSPost2010PropOp36
 70
1
102
RTVSPost2010Prop37
 90
50
102
RTVSPost2010PropOp37
 70
1
102
RTVSPost2010Prop38
140
0.0
102
RTVSPost2010PropOp38
 70
1
102
RTVSPost2010Prop39
140
1.0
102
RTVSPost2010PropOp39
 70
1
102
RTVSPost2010Prop40
 90
0
102
RTVSPost2010PropOp40
 70
1
102
RTVSPost2010Prop41ColorIndex
 90
18
102
RTVSPost2010Prop41ColorRGB
 90
0
102
RTVSPost2010PropOp41
 70
1
102
RTVSPost2010Prop42
 90
50
102
RTVSPost2010PropOp42
 70
1
102
RTVSPost2010Prop43
 90
3
102
RTVSPost2010PropOp43
 70
1
102
RTVSPost2010Prop44ColorIndex
 90
5
102
RTVSPost2010Prop44ColorRGB
 90
255
102
RTVSPost2010PropOp44
 70
1
102
RTVSPost2010Prop45
280
0
102
RTVSPost2010PropOp45
 70
1
102
RTVSPost2010Prop46
 90
50
102
RTVSPost2010PropOp46
 70
1
102
RTVSPost2010Prop47
 90
50
102
RTVSPost2010PropOp47
 70
1
102
RTVSPost2010Prop48
 90
50
102
RTVSPost2010PropOp48
 70
1
102
RTVSPost2010Prop49
280
0
102
RTVSPost2010PropOp49
 70
1
102
RTVSPost2010Prop50
 90
50
102
RTVSPost2010PropOp50
 70
1
102
RTVSPost2010Prop51ColorIndex
 90
256
102
RTVSPost2010Prop51ColorRGB
 90
-16777216
102
RTVSPost2010PropOp51
 70
0
102
RTVSPost2010Prop52
140
1.0
102
RTVSPost2010PropOp52
 70
0
102
RTVSPost2010Prop53
 90
2
102
RTVSPost2010PropOp53
 70
1
102
RTVSPost2010Prop54
  1
strokes_ogs.tif
102
RTVSPost2010PropOp54
 70
1
102
RTVSPost2010Prop55
280
0
102
RTVSPost2010PropOp55
 70
1
102
RTVSPost2010Prop56
140
1.0
102
RTVSPost2010PropOp56
 70
1
102
RTVSPost2010Prop57
140
1.0
102
RTVSPost2010PropOp57
 70
1
102
RTVSPropertyOp0
 70
1
102
RTVSPropertyOp1
 70
1
102
RTVSPropertyOp2
 70
1
102
RTVSPropertyOp3
 70
1
102
RTVSPropertyOp4
 70
1
102
RTVSPropertyOp5
 70
1
102
RTVSPropertyOp6
 70
1
102
RTVSPropertyOp7
 70
1
102
RTVSPropertyOp8
 70
1
102
RTVSPropertyOp9
 70
1
102
RTVSPropertyOp10
 70
1
102
RTVSPropertyOp11
 70
1
102
RTVSPropertyOp12
 70
1
102
RTVSPropertyOp13
 70
1
102
RTVSPropertyOp14
 70
1
102
RTVSPropertyOp15
 70
1
102
RTVSPropertyOp16
 70
1
102
RTVSPropertyOp17
 70
1
102
RTVSPropertyOp18
 70
1
102
RTVSPropertyOp19
 70
1
102
RTVSPropertyOp20
 70
1
102
RTVSPropertyOp21
 70
1
102
RTVSPropertyOp22
 70
1
102
RTVSPropertyOp23
 70
1
102
RTVSPropertyOp24
 70
1
102
RTVSPropertyOp25
 70
1
102
RTVSPropertyOp26
 70
1
102
RTVSPropertyOp27
 70
1
102
RTVSPropertyOp28
 70
1
102
RTVSPropertyOp29
 70
1
102
RTVSPropertyOp30
 70
1
102
RTVSPropertyOp31
 70
1
102
RTVSPropertyOp32
 70
1
102
RTVSPropertyOp33
 70
1
102
RTVSPropertyOp34
 70
1
102
RTVSPropertyOp35
 70
1
102
RTVSPropertyOp36
 70
1
102
RTVSPropertyOp37
 70
1
102
RTVSPropertyOp38
 70
1
102
RTVSPropertyOp39
 70
1
102
RTVSPropertyOp40
 70
1
102
RTVSPropertyOp41
 70
1
102
RTVSPropertyOp42
 70
1
102
RTVSPropertyOp43
 70
1
102
RTVSPropertyOp44
 70
1
102
RTVSPropertyOp45
 70
1
102
RTVSPropertyOp46
 70
1
102
RTVSPropertyOp47
 70
1
102
RTVSPropertyOp48
 70
1
102
RTVSPropertyOp49
 70
1
102
RTVSPropertyOp50
 70
1
102
RTVSPropertyOp51
 70
0
102
RTVSPropertyOp52
 70
0
102
RTVSPropertyOp53
 70
1
102
RTVSPropertyOp54
 70
1
102
RTVSPropertyOp55
 70
1
102
RTVSPropertyOp56
 70
1
102
RTVSPropertyOp57
 70
1
102
RTVSPropertyOp58
 70
1
102
RTVSPropertyOp59
 70
1
102
RTVSPropertyOp60
 70
1
102
RTVSPropertyOp61
 70
1
102
RTVSPropertyOp62
 70
1
  0
XRECORD
  5
A78
102
{ACAD_REACTORS
330
A77
102
}
330
A77
100
AcDbXrecord
280
1
102
RTVSPost2010Prop28
280
0
102
RTVSPost2010PropOp28
 70
1
102
RTVSPost2010Prop29
280
1
102
RTVSPost2010PropOp29
 70
1
102
RTVSPost2010Prop30
280
1
102
RTVSPost2010PropOp30
 70
1
102
RTVSPost2010Prop31
280
0
102
RTVSPost2010PropOp31
 70
1
102
RTVSPost2010Prop32
280
0
102
RTVSPost2010PropOp32
 70
1
102
RTVSPost2010Prop33
280
0
102
RTVSPost2010PropOp33
 70
1
102
RTVSPost2010Prop34
280
0
102
RTVSPost2010PropOp34
 70
1
102
RTVSPost2010Prop35
280
0
102
RTVSPost2010PropOp35
 70
1
102
RTVSPost2010Prop36
280
0
102
RTVSPost2010PropOp36
 70
1
102
RTVSPost2010Prop37
 90
50
102
RTVSPost2010PropOp37
 70
1
102
RTVSPost2010Prop38
140
0.0
102
RTVSPost2010PropOp38
 70
1
102
RTVSPost2010Prop39
140
1.0
102
RTVSPost2010PropOp39
 70
1
102
RTVSPost2010Prop40
 90
0
102
RTVSPost2010PropOp40
 70
1
102
RTVSPost2010Prop41ColorIndex
 90
18
102
RTVSPost2010Prop41ColorRGB
 90
0
102
RTVSPost2010PropOp41
 70
1
102
RTVSPost2010Prop42
 90
50
102
RTVSPost2010PropOp42
 70
1
102
RTVSPost2010Prop43
 90
3
102
RTVSPost2010PropOp43
 70
1
102
RTVSPost2010Prop44ColorIndex
 90
5
102
RTVSPost2010Prop44ColorRGB
 90
255
102
RTVSPost2010PropOp44
 70
1
102
RTVSPost2010Prop45
280
0
102
RTVSPost2010PropOp45
 70
1
102
RTVSPost2010Prop46
 90
50
102
RTVSPost2010PropOp46
 70
1
102
RTVSPost2010Prop47
 90
50
102
RTVSPost2010PropOp47
 70
1
102
RTVSPost2010Prop48
 90
50
102
RTVSPost2010PropOp48
 70
1
102
RTVSPost2010Prop49
280
0
102
RTVSPost2010PropOp49
 70
1
102
RTVSPost2010Prop50
 90
50
102
RTVSPost2010PropOp50
 70
1
102
RTVSPost2010Prop51ColorIndex
 90
256
102
RTVSPost2010Prop51ColorRGB
 90
-16777216
102
RTVSPost2010PropOp51
 70
0
102
RTVSPost2010Prop52
140
1.0
102
RTVSPost2010PropOp52
 70
0
102
RTVSPost2010Prop53
 90
2
102
RTVSPost2010PropOp53
 70
1
102
RTVSPost2010Prop54
  1
strokes_ogs.tif
102
RTVSPost2010PropOp54
 70
1
102
RTVSPost2010Prop55
280
0
102
RTVSPost2010PropOp55
 70
1
102
RTVSPost2010Prop56
140
1.0
102
RTVSPost2010PropOp56
 70
1
102
RTVSPost2010Prop57
140
1.0
102
RTVSPost2010PropOp57
 70
1
102
RTVSPropertyOp0
 70
1
102
RTVSPropertyOp1
 70
1
102
RTVSPropertyOp2
 70
1
102
RTVSPropertyOp3
 70
1
102
RTVSPropertyOp4
 70
1
102
RTVSPropertyOp5
 70
1
102
RTVSPropertyOp6
 70
1
102
RTVSPropertyOp7
 70
1
102
RTVSPropertyOp8
 70
1
102
RTVSPropertyOp9
 70
1
102
RTVSPropertyOp10
 70
1
102
RTVSPropertyOp11
 70
1
102
RTVSPropertyOp12
 70
1
102
RTVSPropertyOp13
 70
1
102
RTVSPropertyOp14
 70
1
102
RTVSPropertyOp15
 70
1
102
RTVSPropertyOp16
 70
1
102
RTVSPropertyOp17
 70
1
102
RTVSPropertyOp18
 70
1
102
RTVSPropertyOp19
 70
1
102
RTVSPropertyOp20
 70
1
102
RTVSPropertyOp21
 70
1
102
RTVSPropertyOp22
 70
1
102
RTVSPropertyOp23
 70
1
102
RTVSPropertyOp24
 70
1
102
RTVSPropertyOp25
 70
1
102
RTVSPropertyOp26
 70
1
102
RTVSPropertyOp27
 70
1
102
RTVSPropertyOp28
 70
1
102
RTVSPropertyOp29
 70
1
102
RTVSPropertyOp30
 70
1
102
RTVSPropertyOp31
 70
1
102
RTVSPropertyOp32
 70
1
102
RTVSPropertyOp33
 70
1
102
RTVSPropertyOp34
 70
1
102
RTVSPropertyOp35
 70
1
102
RTVSPropertyOp36
 70
1
102
RTVSPropertyOp37
 70
1
102
RTVSPropertyOp38
 70
1
102
RTVSPropertyOp39
 70
1
102
RTVSPropertyOp40
 70
1
102
RTVSPropertyOp41
 70
1
102
RTVSPropertyOp42
 70
1
102
RTVSPropertyOp43
 70
1
102
RTVSPropertyOp44
 70
1
102
RTVSPropertyOp45
 70
1
102
RTVSPropertyOp46
 70
1
102
RTVSPropertyOp47
 70
1
102
RTVSPropertyOp48
 70
1
102
RTVSPropertyOp49
 70
1
102
RTVSPropertyOp50
 70
1
102
RTVSPropertyOp51
 70
0
102
RTVSPropertyOp52
 70
0
102
RTVSPropertyOp53
 70
1
102
RTVSPropertyOp54
 70
1
102
RTVSPropertyOp55
 70
1
102
RTVSPropertyOp56
 70
1
102
RTVSPropertyOp57
 70
1
102
RTVSPropertyOp58
 70
1
102
RTVSPropertyOp59
 70
1
102
RTVSPropertyOp60
 70
1
102
RTVSPropertyOp61
 70
1
102
RTVSPropertyOp62
 70
1
  0
XRECORD
  5
A92
102
{ACAD_REACTORS
330
A91
102
}
330
A91
100
AcDbXrecord
280
1
102
RTVSPost2010Prop28
280
0
102
RTVSPost2010PropOp28
 70
1
102
RTVSPost2010Prop29
280
1
102
RTVSPost2010PropOp29
 70
1
102
RTVSPost2010Prop30
280
1
102
RTVSPost2010PropOp30
 70
1
102
RTVSPost2010Prop31
280
0
102
RTVSPost2010PropOp31
 70
1
102
RTVSPost2010Prop32
280
0
102
RTVSPost2010PropOp32
 70
1
102
RTVSPost2010Prop33
280
0
102
RTVSPost2010PropOp33
 70
1
102
RTVSPost2010Prop34
280
0
102
RTVSPost2010PropOp34
 70
1
102
RTVSPost2010Prop35
280
0
102
RTVSPost2010PropOp35
 70
1
102
RTVSPost2010Prop36
280
0
102
RTVSPost2010PropOp36
 70
1
102
RTVSPost2010Prop37
 90
50
102
RTVSPost2010PropOp37
 70
0
102
RTVSPost2010Prop38
140
0.0
102
RTVSPost2010PropOp38
 70
0
102
RTVSPost2010Prop39
140
1.0
102
RTVSPost2010PropOp39
 70
0
102
RTVSPost2010Prop40
 90
0
102
RTVSPost2010PropOp40
 70
0
102
RTVSPost2010Prop41ColorIndex
 90
18
102
RTVSPost2010Prop41ColorRGB
 90
0
102
RTVSPost2010PropOp41
 70
0
102
RTVSPost2010Prop42
 90
50
102
RTVSPost2010PropOp42
 70
0
102
RTVSPost2010Prop43
 90
3
102
RTVSPost2010PropOp43
 70
0
102
RTVSPost2010Prop44ColorIndex
 90
5
102
RTVSPost2010Prop44ColorRGB
 90
255
102
RTVSPost2010PropOp44
 70
0
102
RTVSPost2010Prop45
280
0
102
RTVSPost2010PropOp45
 70
1
102
RTVSPost2010Prop46
 90
50
102
RTVSPost2010PropOp46
 70
0
102
RTVSPost2010Prop47
 90
50
102
RTVSPost2010PropOp47
 70
0
102
RTVSPost2010Prop48
 90
50
102
RTVSPost2010PropOp48
 70
0
102
RTVSPost2010Prop49
280
0
102
RTVSPost2010PropOp49
 70
1
102
RTVSPost2010Prop50
 90
50
102
RTVSPost2010PropOp50
 70
0
102
RTVSPost2010Prop51ColorIndex
 90
256
102
RTVSPost2010Prop51ColorRGB
 90
-16777216
102
RTVSPost2010PropOp51
 70
0
102
RTVSPost2010Prop52
140
1.0
102
RTVSPost2010PropOp52
 70
0
102
RTVSPost2010Prop53
 90
2
102
RTVSPost2010PropOp53
 70
0
102
RTVSPost2010Prop54
  1
strokes_ogs.tif
102
RTVSPost2010PropOp54
 70
0
102
RTVSPost2010Prop55
280
0
102
RTVSPost2010PropOp55
 70
1
102
RTVSPost2010Prop56
140
1.0
102
RTVSPost2010PropOp56
 70
0
102
RTVSPost2010Prop57
140
1.0
102
RTVSPost2010PropOp57
 70
0
102
RTVSPropertyOp0
 70
0
102
RTVSPropertyOp1
 70
0
102
RTVSPropertyOp2
 70
0
102
RTVSPropertyOp3
 70
0
102
RTVSPropertyOp4
 70
0
102
RTVSPropertyOp5
 70
0
102
RTVSPropertyOp6
 70
0
102
RTVSPropertyOp7
 70
0
102
RTVSPropertyOp8
 70
0
102
RTVSPropertyOp9
 70
0
102
RTVSPropertyOp10
 70
0
102
RTVSPropertyOp11
 70
0
102
RTVSPropertyOp12
 70
0
102
RTVSPropertyOp13
 70
0
102
RTVSPropertyOp14
 70
2
102
RTVSPropertyOp15
 70
0
102
RTVSPropertyOp16
 70
0
102
RTVSPropertyOp17
 70
0
102
RTVSPropertyOp18
 70
0
102
RTVSPropertyOp19
 70
0
102
RTVSPropertyOp20
 70
0
102
RTVSPropertyOp21
 70
0
102
RTVSPropertyOp22
 70
0
102
RTVSPropertyOp23
 70
0
102
RTVSPropertyOp24
 70
0
102
RTVSPropertyOp25
 70
0
102
RTVSPropertyOp26
 70
0
102
RTVSPropertyOp27
 70
0
102
RTVSPropertyOp28
 70
1
102
RTVSPropertyOp29
 70
1
102
RTVSPropertyOp30
 70
1
102
RTVSPropertyOp31
 70
1
102
RTVSPropertyOp32
 70
1
102
RTVSPropertyOp33
 70
1
102
RTVSPropertyOp34
 70
1
102
RTVSPropertyOp35
 70
1
102
RTVSPropertyOp36
 70
1
102
RTVSPropertyOp37
 70
0
102
RTVSPropertyOp38
 70
0
102
RTVSPropertyOp39
 70
0
102
RTVSPropertyOp40
 70
0
102
RTVSPropertyOp41
 70
0
102
RTVSPropertyOp42
 70
0
102
RTVSPropertyOp43
 70
0
102
RTVSPropertyOp44
 70
0
102
RTVSPropertyOp45
 70
1
102
RTVSPropertyOp46
 70
0
102
RTVSPropertyOp47
 70
0
102
RTVSPropertyOp48
 70
0
102
RTVSPropertyOp49
 70
1
102
RTVSPropertyOp50
 70
0
102
RTVSPropertyOp51
 70
0
102
RTVSPropertyOp52
 70
0
102
RTVSPropertyOp53
 70
0
102
RTVSPropertyOp54
 70
0
102
RTVSPropertyOp55
 70
1
102
RTVSPropertyOp56
 70
0
102
RTVSPropertyOp57
 70
0
102
RTVSPropertyOp58
 70
0
102
RTVSPropertyOp59
 70
0
102
RTVSPropertyOp60
 70
0
102
RTVSPropertyOp61
 70
0
102
RTVSPropertyOp62
 70
0
  0
XRECORD
  5
A80
102
{ACAD_REACTORS
330
A7F
102
}
330
A7F
100
AcDbXrecord
280
1
102
RTVSPost2010Prop28
280
0
102
RTVSPost2010PropOp28
 70
1
102
RTVSPost2010Prop29
280
1
102
RTVSPost2010PropOp29
 70
1
102
RTVSPost2010Prop30
280
1
102
RTVSPost2010PropOp30
 70
1
102
RTVSPost2010Prop31
280
0
102
RTVSPost2010PropOp31
 70
1
102
RTVSPost2010Prop32
280
0
102
RTVSPost2010PropOp32
 70
1
102
RTVSPost2010Prop33
280
0
102
RTVSPost2010PropOp33
 70
1
102
RTVSPost2010Prop34
280
0
102
RTVSPost2010PropOp34
 70
1
102
RTVSPost2010Prop35
280
0
102
RTVSPost2010PropOp35
 70
1
102
RTVSPost2010Prop36
280
0
102
RTVSPost2010PropOp36
 70
1
102
RTVSPost2010Prop37
 90
50
102
RTVSPost2010PropOp37
 70
1
102
RTVSPost2010Prop38
140
0.0
102
RTVSPost2010PropOp38
 70
1
102
RTVSPost2010Prop39
140
1.0
102
RTVSPost2010PropOp39
 70
1
102
RTVSPost2010Prop40
 90
0
102
RTVSPost2010PropOp40
 70
1
102
RTVSPost2010Prop41ColorIndex
 90
18
102
RTVSPost2010Prop41ColorRGB
 90
0
102
RTVSPost2010PropOp41
 70
1
102
RTVSPost2010Prop42
 90
50
102
RTVSPost2010PropOp42
 70
1
102
RTVSPost2010Prop43
 90
3
102
RTVSPost2010PropOp43
 70
1
102
RTVSPost2010Prop44ColorIndex
 90
5
102
RTVSPost2010Prop44ColorRGB
 90
255
102
RTVSPost2010PropOp44
 70
1
102
RTVSPost2010Prop45
280
0
102
RTVSPost2010PropOp45
 70
1
102
RTVSPost2010Prop46
 90
50
102
RTVSPost2010PropOp46
 70
1
102
RTVSPost2010Prop47
 90
50
102
RTVSPost2010PropOp47
 70
1
102
RTVSPost2010Prop48
 90
50
102
RTVSPost2010PropOp48
 70
1
102
RTVSPost2010Prop49
280
0
102
RTVSPost2010PropOp49
 70
1
102
RTVSPost2010Prop50
 90
50
102
RTVSPost2010PropOp50
 70
1
102
RTVSPost2010Prop51ColorIndex
 90
256
102
RTVSPost2010Prop51ColorRGB
 90
-16777216
102
RTVSPost2010PropOp51
 70
0
102
RTVSPost2010Prop52
140
1.0
102
RTVSPost2010PropOp52
 70
0
102
RTVSPost2010Prop53
 90
2
102
RTVSPost2010PropOp53
 70
1
102
RTVSPost2010Prop54
  1
strokes_ogs.tif
102
RTVSPost2010PropOp54
 70
1
102
RTVSPost2010Prop55
280
0
102
RTVSPost2010PropOp55
 70
1
102
RTVSPost2010Prop56
140
1.0
102
RTVSPost2010PropOp56
 70
1
102
RTVSPost2010Prop57
140
1.0
102
RTVSPost2010PropOp57
 70
1
102
RTVSPropertyOp0
 70
1
102
RTVSPropertyOp1
 70
1
102
RTVSPropertyOp2
 70
1
102
RTVSPropertyOp3
 70
1
102
RTVSPropertyOp4
 70
1
102
RTVSPropertyOp5
 70
1
102
RTVSPropertyOp6
 70
1
102
RTVSPropertyOp7
 70
1
102
RTVSPropertyOp8
 70
1
102
RTVSPropertyOp9
 70
1
102
RTVSPropertyOp10
 70
1
102
RTVSPropertyOp11
 70
1
102
RTVSPropertyOp12
 70
1
102
RTVSPropertyOp13
 70
1
102
RTVSPropertyOp14
 70
1
102
RTVSPropertyOp15
 70
1
102
RTVSPropertyOp16
 70
1
102
RTVSPropertyOp17
 70
1
102
RTVSPropertyOp18
 70
1
102
RTVSPropertyOp19
 70
1
102
RTVSPropertyOp20
 70
1
102
RTVSPropertyOp21
 70
1
102
RTVSPropertyOp22
 70
1
102
RTVSPropertyOp23
 70
1
102
RTVSPropertyOp24
 70
1
102
RTVSPropertyOp25
 70
1
102
RTVSPropertyOp26
 70
1
102
RTVSPropertyOp27
 70
1
102
RTVSPropertyOp28
 70
1
102
RTVSPropertyOp29
 70
1
102
RTVSPropertyOp30
 70
1
102
RTVSPropertyOp31
 70
1
102
RTVSPropertyOp32
 70
1
102
RTVSPropertyOp33
 70
1
102
RTVSPropertyOp34
 70
1
102
RTVSPropertyOp35
 70
1
102
RTVSPropertyOp36
 70
1
102
RTVSPropertyOp37
 70
1
102
RTVSPropertyOp38
 70
1
102
RTVSPropertyOp39
 70
1
102
RTVSPropertyOp40
 70
1
102
RTVSPropertyOp41
 70
1
102
RTVSPropertyOp42
 70
1
102
RTVSPropertyOp43
 70
1
102
RTVSPropertyOp44
 70
1
102
RTVSPropertyOp45
 70
1
102
RTVSPropertyOp46
 70
1
102
RTVSPropertyOp47
 70
1
102
RTVSPropertyOp48
 70
1
102
RTVSPropertyOp49
 70
1
102
RTVSPropertyOp50
 70
1
102
RTVSPropertyOp51
 70
0
102
RTVSPropertyOp52
 70
0
102
RTVSPropertyOp53
 70
1
102
RTVSPropertyOp54
 70
1
102
RTVSPropertyOp55
 70
1
102
RTVSPropertyOp56
 70
1
102
RTVSPropertyOp57
 70
1
102
RTVSPropertyOp58
 70
1
102
RTVSPropertyOp59
 70
1
102
RTVSPropertyOp60
 70
1
102
RTVSPropertyOp61
 70
1
102
RTVSPropertyOp62
 70
1
  0
XRECORD
  5
A64
102
{ACAD_REACTORS
330
A63
102
}
330
A63
100
AcDbXrecord
280
1
102
RTVSPost2010Prop28
280
0
102
RTVSPost2010PropOp28
 70
1
102
RTVSPost2010Prop29
280
1
102
RTVSPost2010PropOp29
 70
1
102
RTVSPost2010Prop30
280
1
102
RTVSPost2010PropOp30
 70
1
102
RTVSPost2010Prop31
280
0
102
RTVSPost2010PropOp31
 70
1
102
RTVSPost2010Prop32
280
0
102
RTVSPost2010PropOp32
 70
1
102
RTVSPost2010Prop33
280
0
102
RTVSPost2010PropOp33
 70
1
102
RTVSPost2010Prop34
280
0
102
RTVSPost2010PropOp34
 70
1
102
RTVSPost2010Prop35
280
0
102
RTVSPost2010PropOp35
 70
1
102
RTVSPost2010Prop36
280
0
102
RTVSPost2010PropOp36
 70
1
102
RTVSPost2010Prop37
 90
50
102
RTVSPost2010PropOp37
 70
1
102
RTVSPost2010Prop38
140
0.0
102
RTVSPost2010PropOp38
 70
1
102
RTVSPost2010Prop39
140
1.0
102
RTVSPost2010PropOp39
 70
1
102
RTVSPost2010Prop40
 90
0
102
RTVSPost2010PropOp40
 70
1
102
RTVSPost2010Prop41ColorIndex
 90
18
102
RTVSPost2010Prop41ColorRGB
 90
0
102
RTVSPost2010PropOp41
 70
1
102
RTVSPost2010Prop42
 90
50
102
RTVSPost2010PropOp42
 70
1
102
RTVSPost2010Prop43
 90
3
102
RTVSPost2010PropOp43
 70
1
102
RTVSPost2010Prop44ColorIndex
 90
5
102
RTVSPost2010Prop44ColorRGB
 90
255
102
RTVSPost2010PropOp44
 70
1
102
RTVSPost2010Prop45
280
0
102
RTVSPost2010PropOp45
 70
1
102
RTVSPost2010Prop46
 90
50
102
RTVSPost2010PropOp46
 70
1
102
RTVSPost2010Prop47
 90
50
102
RTVSPost2010PropOp47
 70
1
102
RTVSPost2010Prop48
 90
50
102
RTVSPost2010PropOp48
 70
1
102
RTVSPost2010Prop49
280
0
102
RTVSPost2010PropOp49
 70
1
102
RTVSPost2010Prop50
 90
50
102
RTVSPost2010PropOp50
 70
1
102
RTVSPost2010Prop51ColorIndex
 90
256
102
RTVSPost2010Prop51ColorRGB
 90
-16777216
102
RTVSPost2010PropOp51
 70
0
102
RTVSPost2010Prop52
140
1.0
102
RTVSPost2010PropOp52
 70
0
102
RTVSPost2010Prop53
 90
2
102
RTVSPost2010PropOp53
 70
1
102
RTVSPost2010Prop54
  1
strokes_ogs.tif
102
RTVSPost2010PropOp54
 70
1
102
RTVSPost2010Prop55
280
0
102
RTVSPost2010PropOp55
 70
1
102
RTVSPost2010Prop56
140
1.0
102
RTVSPost2010PropOp56
 70
1
102
RTVSPost2010Prop57
140
1.0
102
RTVSPost2010PropOp57
 70
1
102
RTVSPropertyOp0
 70
1
102
RTVSPropertyOp1
 70
1
102
RTVSPropertyOp2
 70
1
102
RTVSPropertyOp3
 70
1
102
RTVSPropertyOp4
 70
1
102
RTVSPropertyOp5
 70
1
102
RTVSPropertyOp6
 70
1
102
RTVSPropertyOp7
 70
1
102
RTVSPropertyOp8
 70
1
102
RTVSPropertyOp9
 70
1
102
RTVSPropertyOp10
 70
1
102
RTVSPropertyOp11
 70
1
102
RTVSPropertyOp12
 70
1
102
RTVSPropertyOp13
 70
1
102
RTVSPropertyOp14
 70
1
102
RTVSPropertyOp15
 70
1
102
RTVSPropertyOp16
 70
1
102
RTVSPropertyOp17
 70
1
102
RTVSPropertyOp18
 70
1
102
RTVSPropertyOp19
 70
1
102
RTVSPropertyOp20
 70
1
102
RTVSPropertyOp21
 70
1
102
RTVSPropertyOp22
 70
1
102
RTVSPropertyOp23
 70
1
102
RTVSPropertyOp24
 70
1
102
RTVSPropertyOp25
 70
1
102
RTVSPropertyOp26
 70
1
102
RTVSPropertyOp27
 70
1
102
RTVSPropertyOp28
 70
1
102
RTVSPropertyOp29
 70
1
102
RTVSPropertyOp30
 70
1
102
RTVSPropertyOp31
 70
1
102
RTVSPropertyOp32
 70
1
102
RTVSPropertyOp33
 70
1
102
RTVSPropertyOp34
 70
1
102
RTVSPropertyOp35
 70
1
102
RTVSPropertyOp36
 70
1
102
RTVSPropertyOp37
 70
1
102
RTVSPropertyOp38
 70
1
102
RTVSPropertyOp39
 70
1
102
RTVSPropertyOp40
 70
1
102
RTVSPropertyOp41
 70
1
102
RTVSPropertyOp42
 70
1
102
RTVSPropertyOp43
 70
1
102
RTVSPropertyOp44
 70
1
102
RTVSPropertyOp45
 70
1
102
RTVSPropertyOp46
 70
1
102
RTVSPropertyOp47
 70
1
102
RTVSPropertyOp48
 70
1
102
RTVSPropertyOp49
 70
1
102
RTVSPropertyOp50
 70
1
102
RTVSPropertyOp51
 70
0
102
RTVSPropertyOp52
 70
0
102
RTVSPropertyOp53
 70
1
102
RTVSPropertyOp54
 70
1
102
RTVSPropertyOp55
 70
1
102
RTVSPropertyOp56
 70
1
102
RTVSPropertyOp57
 70
1
102
RTVSPropertyOp58
 70
1
102
RTVSPropertyOp59
 70
1
102
RTVSPropertyOp60
 70
1
102
RTVSPropertyOp61
 70
1
102
RTVSPropertyOp62
 70
1
  0
XRECORD
  5
A66
102
{ACAD_REACTORS
330
A65
102
}
330
A65
100
AcDbXrecord
280
1
102
RTVSPost2010Prop28
280
0
102
RTVSPost2010PropOp28
 70
1
102
RTVSPost2010Prop29
280
1
102
RTVSPost2010PropOp29
 70
1
102
RTVSPost2010Prop30
280
1
102
RTVSPost2010PropOp30
 70
1
102
RTVSPost2010Prop31
280
0
102
RTVSPost2010PropOp31
 70
1
102
RTVSPost2010Prop32
280
0
102
RTVSPost2010PropOp32
 70
1
102
RTVSPost2010Prop33
280
0
102
RTVSPost2010PropOp33
 70
1
102
RTVSPost2010Prop34
280
0
102
RTVSPost2010PropOp34
 70
1
102
RTVSPost2010Prop35
280
0
102
RTVSPost2010PropOp35
 70
1
102
RTVSPost2010Prop36
280
0
102
RTVSPost2010PropOp36
 70
1
102
RTVSPost2010Prop37
 90
50
102
RTVSPost2010PropOp37
 70
1
102
RTVSPost2010Prop38
140
0.0
102
RTVSPost2010PropOp38
 70
1
102
RTVSPost2010Prop39
140
1.0
102
RTVSPost2010PropOp39
 70
1
102
RTVSPost2010Prop40
 90
0
102
RTVSPost2010PropOp40
 70
1
102
RTVSPost2010Prop41ColorIndex
 90
18
102
RTVSPost2010Prop41ColorRGB
 90
0
102
RTVSPost2010PropOp41
 70
1
102
RTVSPost2010Prop42
 90
50
102
RTVSPost2010PropOp42
 70
1
102
RTVSPost2010Prop43
 90
3
102
RTVSPost2010PropOp43
 70
1
102
RTVSPost2010Prop44ColorIndex
 90
5
102
RTVSPost2010Prop44ColorRGB
 90
255
102
RTVSPost2010PropOp44
 70
1
102
RTVSPost2010Prop45
280
0
102
RTVSPost2010PropOp45
 70
1
102
RTVSPost2010Prop46
 90
50
102
RTVSPost2010PropOp46
 70
1
102
RTVSPost2010Prop47
 90
50
102
RTVSPost2010PropOp47
 70
1
102
RTVSPost2010Prop48
 90
50
102
RTVSPost2010PropOp48
 70
1
102
RTVSPost2010Prop49
280
0
102
RTVSPost2010PropOp49
 70
1
102
RTVSPost2010Prop50
 90
50
102
RTVSPost2010PropOp50
 70
1
102
RTVSPost2010Prop51ColorIndex
 90
256
102
RTVSPost2010Prop51ColorRGB
 90
-16777216
102
RTVSPost2010PropOp51
 70
0
102
RTVSPost2010Prop52
140
1.0
102
RTVSPost2010PropOp52
 70
0
102
RTVSPost2010Prop53
 90
2
102
RTVSPost2010PropOp53
 70
1
102
RTVSPost2010Prop54
  1
strokes_ogs.tif
102
RTVSPost2010PropOp54
 70
1
102
RTVSPost2010Prop55
280
0
102
RTVSPost2010PropOp55
 70
1
102
RTVSPost2010Prop56
140
1.0
102
RTVSPost2010PropOp56
 70
1
102
RTVSPost2010Prop57
140
1.0
102
RTVSPost2010PropOp57
 70
1
102
RTVSPropertyOp0
 70
1
102
RTVSPropertyOp1
 70
1
102
RTVSPropertyOp2
 70
1
102
RTVSPropertyOp3
 70
1
102
RTVSPropertyOp4
 70
1
102
RTVSPropertyOp5
 70
1
102
RTVSPropertyOp6
 70
1
102
RTVSPropertyOp7
 70
1
102
RTVSPropertyOp8
 70
1
102
RTVSPropertyOp9
 70
1
102
RTVSPropertyOp10
 70
1
102
RTVSPropertyOp11
 70
1
102
RTVSPropertyOp12
 70
1
102
RTVSPropertyOp13
 70
1
102
RTVSPropertyOp14
 70
1
102
RTVSPropertyOp15
 70
1
102
RTVSPropertyOp16
 70
1
102
RTVSPropertyOp17
 70
1
102
RTVSPropertyOp18
 70
1
102
RTVSPropertyOp19
 70
1
102
RTVSPropertyOp20
 70
1
102
RTVSPropertyOp21
 70
1
102
RTVSPropertyOp22
 70
1
102
RTVSPropertyOp23
 70
1
102
RTVSPropertyOp24
 70
1
102
RTVSPropertyOp25
 70
1
102
RTVSPropertyOp26
 70
1
102
RTVSPropertyOp27
 70
1
102
RTVSPropertyOp28
 70
1
102
RTVSPropertyOp29
 70
1
102
RTVSPropertyOp30
 70
1
102
RTVSPropertyOp31
 70
1
102
RTVSPropertyOp32
 70
1
102
RTVSPropertyOp33
 70
1
102
RTVSPropertyOp34
 70
1
102
RTVSPropertyOp35
 70
1
102
RTVSPropertyOp36
 70
1
102
RTVSPropertyOp37
 70
1
102
RTVSPropertyOp38
 70
1
102
RTVSPropertyOp39
 70
1
102
RTVSPropertyOp40
 70
1
102
RTVSPropertyOp41
 70
1
102
RTVSPropertyOp42
 70
1
102
RTVSPropertyOp43
 70
1
102
RTVSPropertyOp44
 70
1
102
RTVSPropertyOp45
 70
1
102
RTVSPropertyOp46
 70
1
102
RTVSPropertyOp47
 70
1
102
RTVSPropertyOp48
 70
1
102
RTVSPropertyOp49
 70
1
102
RTVSPropertyOp50
 70
1
102
RTVSPropertyOp51
 70
0
102
RTVSPropertyOp52
 70
0
102
RTVSPropertyOp53
 70
1
102
RTVSPropertyOp54
 70
1
102
RTVSPropertyOp55
 70
1
102
RTVSPropertyOp56
 70
1
102
RTVSPropertyOp57
 70
1
102
RTVSPropertyOp58
 70
1
102
RTVSPropertyOp59
 70
1
102
RTVSPropertyOp60
 70
1
102
RTVSPropertyOp61
 70
1
102
RTVSPropertyOp62
 70
1
  0
XRECORD
  5
A68
102
{ACAD_REACTORS
330
A67
102
}
330
A67
100
AcDbXrecord
280
1
102
RTVSPost2010Prop28
280
0
102
RTVSPost2010PropOp28
 70
1
102
RTVSPost2010Prop29
280
1
102
RTVSPost2010PropOp29
 70
1
102
RTVSPost2010Prop30
280
1
102
RTVSPost2010PropOp30
 70
1
102
RTVSPost2010Prop31
280
0
102
RTVSPost2010PropOp31
 70
1
102
RTVSPost2010Prop32
280
0
102
RTVSPost2010PropOp32
 70
1
102
RTVSPost2010Prop33
280
0
102
RTVSPost2010PropOp33
 70
1
102
RTVSPost2010Prop34
280
0
102
RTVSPost2010PropOp34
 70
1
102
RTVSPost2010Prop35
280
0
102
RTVSPost2010PropOp35
 70
1
102
RTVSPost2010Prop36
280
0
102
RTVSPost2010PropOp36
 70
1
102
RTVSPost2010Prop37
 90
50
102
RTVSPost2010PropOp37
 70
1
102
RTVSPost2010Prop38
140
0.0
102
RTVSPost2010PropOp38
 70
1
102
RTVSPost2010Prop39
140
1.0
102
RTVSPost2010PropOp39
 70
1
102
RTVSPost2010Prop40
 90
0
102
RTVSPost2010PropOp40
 70
1
102
RTVSPost2010Prop41ColorIndex
 90
18
102
RTVSPost2010Prop41ColorRGB
 90
0
102
RTVSPost2010PropOp41
 70
1
102
RTVSPost2010Prop42
 90
50
102
RTVSPost2010PropOp42
 70
1
102
RTVSPost2010Prop43
 90
3
102
RTVSPost2010PropOp43
 70
1
102
RTVSPost2010Prop44ColorIndex
 90
5
102
RTVSPost2010Prop44ColorRGB
 90
255
102
RTVSPost2010PropOp44
 70
1
102
RTVSPost2010Prop45
280
0
102
RTVSPost2010PropOp45
 70
1
102
RTVSPost2010Prop46
 90
50
102
RTVSPost2010PropOp46
 70
1
102
RTVSPost2010Prop47
 90
50
102
RTVSPost2010PropOp47
 70
1
102
RTVSPost2010Prop48
 90
50
102
RTVSPost2010PropOp48
 70
1
102
RTVSPost2010Prop49
280
0
102
RTVSPost2010PropOp49
 70
1
102
RTVSPost2010Prop50
 90
50
102
RTVSPost2010PropOp50
 70
1
102
RTVSPost2010Prop51ColorIndex
 90
256
102
RTVSPost2010Prop51ColorRGB
 90
-16777216
102
RTVSPost2010PropOp51
 70
0
102
RTVSPost2010Prop52
140
1.0
102
RTVSPost2010PropOp52
 70
0
102
RTVSPost2010Prop53
 90
2
102
RTVSPost2010PropOp53
 70
1
102
RTVSPost2010Prop54
  1
strokes_ogs.tif
102
RTVSPost2010PropOp54
 70
1
102
RTVSPost2010Prop55
280
0
102
RTVSPost2010PropOp55
 70
1
102
RTVSPost2010Prop56
140
1.0
102
RTVSPost2010PropOp56
 70
1
102
RTVSPost2010Prop57
140
1.0
102
RTVSPost2010PropOp57
 70
1
102
RTVSPropertyOp0
 70
1
102
RTVSPropertyOp1
 70
1
102
RTVSPropertyOp2
 70
1
102
RTVSPropertyOp3
 70
1
102
RTVSPropertyOp4
 70
1
102
RTVSPropertyOp5
 70
1
102
RTVSPropertyOp6
 70
1
102
RTVSPropertyOp7
 70
1
102
RTVSPropertyOp8
 70
1
102
RTVSPropertyOp9
 70
1
102
RTVSPropertyOp10
 70
1
102
RTVSPropertyOp11
 70
1
102
RTVSPropertyOp12
 70
1
102
RTVSPropertyOp13
 70
1
102
RTVSPropertyOp14
 70
1
102
RTVSPropertyOp15
 70
1
102
RTVSPropertyOp16
 70
1
102
RTVSPropertyOp17
 70
1
102
RTVSPropertyOp18
 70
1
102
RTVSPropertyOp19
 70
1
102
RTVSPropertyOp20
 70
1
102
RTVSPropertyOp21
 70
1
102
RTVSPropertyOp22
 70
1
102
RTVSPropertyOp23
 70
1
102
RTVSPropertyOp24
 70
1
102
RTVSPropertyOp25
 70
1
102
RTVSPropertyOp26
 70
1
102
RTVSPropertyOp27
 70
1
102
RTVSPropertyOp28
 70
1
102
RTVSPropertyOp29
 70
1
102
RTVSPropertyOp30
 70
1
102
RTVSPropertyOp31
 70
1
102
RTVSPropertyOp32
 70
1
102
RTVSPropertyOp33
 70
1
102
RTVSPropertyOp34
 70
1
102
RTVSPropertyOp35
 70
1
102
RTVSPropertyOp36
 70
1
102
RTVSPropertyOp37
 70
1
102
RTVSPropertyOp38
 70
1
102
RTVSPropertyOp39
 70
1
102
RTVSPropertyOp40
 70
1
102
RTVSPropertyOp41
 70
1
102
RTVSPropertyOp42
 70
1
102
RTVSPropertyOp43
 70
1
102
RTVSPropertyOp44
 70
1
102
RTVSPropertyOp45
 70
1
102
RTVSPropertyOp46
 70
1
102
RTVSPropertyOp47
 70
1
102
RTVSPropertyOp48
 70
1
102
RTVSPropertyOp49
 70
1
102
RTVSPropertyOp50
 70
1
102
RTVSPropertyOp51
 70
0
102
RTVSPropertyOp52
 70
0
102
RTVSPropertyOp53
 70
1
102
RTVSPropertyOp54
 70
1
102
RTVSPropertyOp55
 70
1
102
RTVSPropertyOp56
 70
1
102
RTVSPropertyOp57
 70
1
102
RTVSPropertyOp58
 70
1
102
RTVSPropertyOp59
 70
1
102
RTVSPropertyOp60
 70
1
102
RTVSPropertyOp61
 70
1
102
RTVSPropertyOp62
 70
1
  0
XRECORD
  5
A6A
102
{ACAD_REACTORS
330
A69
102
}
330
A69
100
AcDbXrecord
280
1
102
RTVSPost2010Prop28
280
0
102
RTVSPost2010PropOp28
 70
1
102
RTVSPost2010Prop29
280
1
102
RTVSPost2010PropOp29
 70
1
102
RTVSPost2010Prop30
280
1
102
RTVSPost2010PropOp30
 70
1
102
RTVSPost2010Prop31
280
0
102
RTVSPost2010PropOp31
 70
1
102
RTVSPost2010Prop32
280
0
102
RTVSPost2010PropOp32
 70
1
102
RTVSPost2010Prop33
280
0
102
RTVSPost2010PropOp33
 70
1
102
RTVSPost2010Prop34
280
0
102
RTVSPost2010PropOp34
 70
1
102
RTVSPost2010Prop35
280
0
102
RTVSPost2010PropOp35
 70
1
102
RTVSPost2010Prop36
280
0
102
RTVSPost2010PropOp36
 70
1
102
RTVSPost2010Prop37
 90
50
102
RTVSPost2010PropOp37
 70
1
102
RTVSPost2010Prop38
140
0.0
102
RTVSPost2010PropOp38
 70
1
102
RTVSPost2010Prop39
140
1.0
102
RTVSPost2010PropOp39
 70
1
102
RTVSPost2010Prop40
 90
0
102
RTVSPost2010PropOp40
 70
1
102
RTVSPost2010Prop41ColorIndex
 90
18
102
RTVSPost2010Prop41ColorRGB
 90
0
102
RTVSPost2010PropOp41
 70
1
102
RTVSPost2010Prop42
 90
50
102
RTVSPost2010PropOp42
 70
1
102
RTVSPost2010Prop43
 90
3
102
RTVSPost2010PropOp43
 70
1
102
RTVSPost2010Prop44ColorIndex
 90
5
102
RTVSPost2010Prop44ColorRGB
 90
255
102
RTVSPost2010PropOp44
 70
1
102
RTVSPost2010Prop45
280
0
102
RTVSPost2010PropOp45
 70
1
102
RTVSPost2010Prop46
 90
50
102
RTVSPost2010PropOp46
 70
1
102
RTVSPost2010Prop47
 90
50
102
RTVSPost2010PropOp47
 70
1
102
RTVSPost2010Prop48
 90
50
102
RTVSPost2010PropOp48
 70
1
102
RTVSPost2010Prop49
280
0
102
RTVSPost2010PropOp49
 70
1
102
RTVSPost2010Prop50
 90
50
102
RTVSPost2010PropOp50
 70
1
102
RTVSPost2010Prop51ColorIndex
 90
256
102
RTVSPost2010Prop51ColorRGB
 90
-16777216
102
RTVSPost2010PropOp51
 70
0
102
RTVSPost2010Prop52
140
1.0
102
RTVSPost2010PropOp52
 70
0
102
RTVSPost2010Prop53
 90
2
102
RTVSPost2010PropOp53
 70
1
102
RTVSPost2010Prop54
  1
strokes_ogs.tif
102
RTVSPost2010PropOp54
 70
1
102
RTVSPost2010Prop55
280
0
102
RTVSPost2010PropOp55
 70
1
102
RTVSPost2010Prop56
140
1.0
102
RTVSPost2010PropOp56
 70
1
102
RTVSPost2010Prop57
140
1.0
102
RTVSPost2010PropOp57
 70
1
102
RTVSPropertyOp0
 70
1
102
RTVSPropertyOp1
 70
1
102
RTVSPropertyOp2
 70
1
102
RTVSPropertyOp3
 70
1
102
RTVSPropertyOp4
 70
1
102
RTVSPropertyOp5
 70
1
102
RTVSPropertyOp6
 70
1
102
RTVSPropertyOp7
 70
1
102
RTVSPropertyOp8
 70
1
102
RTVSPropertyOp9
 70
1
102
RTVSPropertyOp10
 70
1
102
RTVSPropertyOp11
 70
1
102
RTVSPropertyOp12
 70
1
102
RTVSPropertyOp13
 70
1
102
RTVSPropertyOp14
 70
1
102
RTVSPropertyOp15
 70
1
102
RTVSPropertyOp16
 70
1
102
RTVSPropertyOp17
 70
1
102
RTVSPropertyOp18
 70
1
102
RTVSPropertyOp19
 70
1
102
RTVSPropertyOp20
 70
1
102
RTVSPropertyOp21
 70
1
102
RTVSPropertyOp22
 70
1
102
RTVSPropertyOp23
 70
1
102
RTVSPropertyOp24
 70
1
102
RTVSPropertyOp25
 70
1
102
RTVSPropertyOp26
 70
1
102
RTVSPropertyOp27
 70
1
102
RTVSPropertyOp28
 70
1
102
RTVSPropertyOp29
 70
1
102
RTVSPropertyOp30
 70
1
102
RTVSPropertyOp31
 70
1
102
RTVSPropertyOp32
 70
1
102
RTVSPropertyOp33
 70
1
102
RTVSPropertyOp34
 70
1
102
RTVSPropertyOp35
 70
1
102
RTVSPropertyOp36
 70
1
102
RTVSPropertyOp37
 70
1
102
RTVSPropertyOp38
 70
1
102
RTVSPropertyOp39
 70
1
102
RTVSPropertyOp40
 70
1
102
RTVSPropertyOp41
 70
1
102
RTVSPropertyOp42
 70
1
102
RTVSPropertyOp43
 70
1
102
RTVSPropertyOp44
 70
1
102
RTVSPropertyOp45
 70
1
102
RTVSPropertyOp46
 70
1
102
RTVSPropertyOp47
 70
1
102
RTVSPropertyOp48
 70
1
102
RTVSPropertyOp49
 70
1
102
RTVSPropertyOp50
 70
1
102
RTVSPropertyOp51
 70
0
102
RTVSPropertyOp52
 70
0
102
RTVSPropertyOp53
 70
1
102
RTVSPropertyOp54
 70
1
102
RTVSPropertyOp55
 70
1
102
RTVSPropertyOp56
 70
1
102
RTVSPropertyOp57
 70
1
102
RTVSPropertyOp58
 70
1
102
RTVSPropertyOp59
 70
1
102
RTVSPropertyOp60
 70
1
102
RTVSPropertyOp61
 70
1
102
RTVSPropertyOp62
 70
1
  0
XRECORD
  5
A72
102
{ACAD_REACTORS
330
A71
102
}
330
A71
100
AcDbXrecord
280
1
102
RTVSPost2010Prop28
280
0
102
RTVSPost2010PropOp28
 70
1
102
RTVSPost2010Prop29
280
1
102
RTVSPost2010PropOp29
 70
1
102
RTVSPost2010Prop30
280
1
102
RTVSPost2010PropOp30
 70
1
102
RTVSPost2010Prop31
280
0
102
RTVSPost2010PropOp31
 70
1
102
RTVSPost2010Prop32
280
0
102
RTVSPost2010PropOp32
 70
1
102
RTVSPost2010Prop33
280
0
102
RTVSPost2010PropOp33
 70
1
102
RTVSPost2010Prop34
280
0
102
RTVSPost2010PropOp34
 70
1
102
RTVSPost2010Prop35
280
0
102
RTVSPost2010PropOp35
 70
1
102
RTVSPost2010Prop36
280
0
102
RTVSPost2010PropOp36
 70
1
102
RTVSPost2010Prop37
 90
50
102
RTVSPost2010PropOp37
 70
1
102
RTVSPost2010Prop38
140
0.0
102
RTVSPost2010PropOp38
 70
1
102
RTVSPost2010Prop39
140
1.0
102
RTVSPost2010PropOp39
 70
1
102
RTVSPost2010Prop40
 90
0
102
RTVSPost2010PropOp40
 70
1
102
RTVSPost2010Prop41ColorIndex
 90
18
102
RTVSPost2010Prop41ColorRGB
 90
0
102
RTVSPost2010PropOp41
 70
1
102
RTVSPost2010Prop42
 90
50
102
RTVSPost2010PropOp42
 70
1
102
RTVSPost2010Prop43
 90
3
102
RTVSPost2010PropOp43
 70
1
102
RTVSPost2010Prop44ColorIndex
 90
5
102
RTVSPost2010Prop44ColorRGB
 90
255
102
RTVSPost2010PropOp44
 70
1
102
RTVSPost2010Prop45
280
0
102
RTVSPost2010PropOp45
 70
1
102
RTVSPost2010Prop46
 90
50
102
RTVSPost2010PropOp46
 70
1
102
RTVSPost2010Prop47
 90
50
102
RTVSPost2010PropOp47
 70
1
102
RTVSPost2010Prop48
 90
50
102
RTVSPost2010PropOp48
 70
1
102
RTVSPost2010Prop49
280
0
102
RTVSPost2010PropOp49
 70
1
102
RTVSPost2010Prop50
 90
50
102
RTVSPost2010PropOp50
 70
1
102
RTVSPost2010Prop51ColorIndex
 90
256
102
RTVSPost2010Prop51ColorRGB
 90
-16777216
102
RTVSPost2010PropOp51
 70
0
102
RTVSPost2010Prop52
140
1.0
102
RTVSPost2010PropOp52
 70
0
102
RTVSPost2010Prop53
 90
2
102
RTVSPost2010PropOp53
 70
1
102
RTVSPost2010Prop54
  1
strokes_ogs.tif
102
RTVSPost2010PropOp54
 70
1
102
RTVSPost2010Prop55
280
0
102
RTVSPost2010PropOp55
 70
1
102
RTVSPost2010Prop56
140
1.0
102
RTVSPost2010PropOp56
 70
1
102
RTVSPost2010Prop57
140
1.0
102
RTVSPost2010PropOp57
 70
1
102
RTVSPropertyOp0
 70
1
102
RTVSPropertyOp1
 70
1
102
RTVSPropertyOp2
 70
1
102
RTVSPropertyOp3
 70
1
102
RTVSPropertyOp4
 70
1
102
RTVSPropertyOp5
 70
1
102
RTVSPropertyOp6
 70
1
102
RTVSPropertyOp7
 70
1
102
RTVSPropertyOp8
 70
1
102
RTVSPropertyOp9
 70
1
102
RTVSPropertyOp10
 70
1
102
RTVSPropertyOp11
 70
1
102
RTVSPropertyOp12
 70
1
102
RTVSPropertyOp13
 70
1
102
RTVSPropertyOp14
 70
1
102
RTVSPropertyOp15
 70
1
102
RTVSPropertyOp16
 70
1
102
RTVSPropertyOp17
 70
1
102
RTVSPropertyOp18
 70
1
102
RTVSPropertyOp19
 70
1
102
RTVSPropertyOp20
 70
1
102
RTVSPropertyOp21
 70
1
102
RTVSPropertyOp22
 70
1
102
RTVSPropertyOp23
 70
1
102
RTVSPropertyOp24
 70
1
102
RTVSPropertyOp25
 70
1
102
RTVSPropertyOp26
 70
1
102
RTVSPropertyOp27
 70
1
102
RTVSPropertyOp28
 70
1
102
RTVSPropertyOp29
 70
1
102
RTVSPropertyOp30
 70
1
102
RTVSPropertyOp31
 70
1
102
RTVSPropertyOp32
 70
1
102
RTVSPropertyOp33
 70
1
102
RTVSPropertyOp34
 70
1
102
RTVSPropertyOp35
 70
1
102
RTVSPropertyOp36
 70
1
102
RTVSPropertyOp37
 70
1
102
RTVSPropertyOp38
 70
1
102
RTVSPropertyOp39
 70
1
102
RTVSPropertyOp40
 70
1
102
RTVSPropertyOp41
 70
1
102
RTVSPropertyOp42
 70
1
102
RTVSPropertyOp43
 70
1
102
RTVSPropertyOp44
 70
1
102
RTVSPropertyOp45
 70
1
102
RTVSPropertyOp46
 70
1
102
RTVSPropertyOp47
 70
1
102
RTVSPropertyOp48
 70
1
102
RTVSPropertyOp49
 70
1
102
RTVSPropertyOp50
 70
1
102
RTVSPropertyOp51
 70
0
102
RTVSPropertyOp52
 70
0
102
RTVSPropertyOp53
 70
1
102
RTVSPropertyOp54
 70
1
102
RTVSPropertyOp55
 70
1
102
RTVSPropertyOp56
 70
1
102
RTVSPropertyOp57
 70
1
102
RTVSPropertyOp58
 70
1
102
RTVSPropertyOp59
 70
1
102
RTVSPropertyOp60
 70
1
102
RTVSPropertyOp61
 70
1
102
RTVSPropertyOp62
 70
1
  0
XRECORD
  5
A8E
102
{ACAD_REACTORS
330
A8D
102
}
330
A8D
100
AcDbXrecord
280
1
102
RTVSPost2010Prop28
280
0
102
RTVSPost2010PropOp28
 70
1
102
RTVSPost2010Prop29
280
1
102
RTVSPost2010PropOp29
 70
1
102
RTVSPost2010Prop30
280
1
102
RTVSPost2010PropOp30
 70
1
102
RTVSPost2010Prop31
280
0
102
RTVSPost2010PropOp31
 70
1
102
RTVSPost2010Prop32
280
0
102
RTVSPost2010PropOp32
 70
1
102
RTVSPost2010Prop33
280
0
102
RTVSPost2010PropOp33
 70
1
102
RTVSPost2010Prop34
280
0
102
RTVSPost2010PropOp34
 70
1
102
RTVSPost2010Prop35
280
0
102
RTVSPost2010PropOp35
 70
1
102
RTVSPost2010Prop36
280
0
102
RTVSPost2010PropOp36
 70
1
102
RTVSPost2010Prop37
 90
50
102
RTVSPost2010PropOp37
 70
0
102
RTVSPost2010Prop38
140
0.0
102
RTVSPost2010PropOp38
 70
0
102
RTVSPost2010Prop39
140
1.0
102
RTVSPost2010PropOp39
 70
0
102
RTVSPost2010Prop40
 90
0
102
RTVSPost2010PropOp40
 70
0
102
RTVSPost2010Prop41ColorIndex
 90
18
102
RTVSPost2010Prop41ColorRGB
 90
0
102
RTVSPost2010PropOp41
 70
0
102
RTVSPost2010Prop42
 90
50
102
RTVSPost2010PropOp42
 70
0
102
RTVSPost2010Prop43
 90
3
102
RTVSPost2010PropOp43
 70
0
102
RTVSPost2010Prop44ColorIndex
 90
5
102
RTVSPost2010Prop44ColorRGB
 90
255
102
RTVSPost2010PropOp44
 70
0
102
RTVSPost2010Prop45
280
0
102
RTVSPost2010PropOp45
 70
1
102
RTVSPost2010Prop46
 90
50
102
RTVSPost2010PropOp46
 70
0
102
RTVSPost2010Prop47
 90
50
102
RTVSPost2010PropOp47
 70
0
102
RTVSPost2010Prop48
 90
50
102
RTVSPost2010PropOp48
 70
0
102
RTVSPost2010Prop49
280
0
102
RTVSPost2010PropOp49
 70
1
102
RTVSPost2010Prop50
 90
50
102
RTVSPost2010PropOp50
 70
0
102
RTVSPost2010Prop51ColorIndex
 90
256
102
RTVSPost2010Prop51ColorRGB
 90
-16777216
102
RTVSPost2010PropOp51
 70
0
102
RTVSPost2010Prop52
140
1.0
102
RTVSPost2010PropOp52
 70
0
102
RTVSPost2010Prop53
 90
2
102
RTVSPost2010PropOp53
 70
0
102
RTVSPost2010Prop54
  1
strokes_ogs.tif
102
RTVSPost2010PropOp54
 70
0
102
RTVSPost2010Prop55
280
0
102
RTVSPost2010PropOp55
 70
1
102
RTVSPost2010Prop56
140
1.0
102
RTVSPost2010PropOp56
 70
0
102
RTVSPost2010Prop57
140
1.0
102
RTVSPost2010PropOp57
 70
0
102
RTVSPropertyOp0
 70
0
102
RTVSPropertyOp1
 70
0
102
RTVSPropertyOp2
 70
0
102
RTVSPropertyOp3
 70
0
102
RTVSPropertyOp4
 70
0
102
RTVSPropertyOp5
 70
0
102
RTVSPropertyOp6
 70
0
102
RTVSPropertyOp7
 70
0
102
RTVSPropertyOp8
 70
0
102
RTVSPropertyOp9
 70
0
102
RTVSPropertyOp10
 70
0
102
RTVSPropertyOp11
 70
0
102
RTVSPropertyOp12
 70
0
102
RTVSPropertyOp13
 70
0
102
RTVSPropertyOp14
 70
2
102
RTVSPropertyOp15
 70
0
102
RTVSPropertyOp16
 70
0
102
RTVSPropertyOp17
 70
0
102
RTVSPropertyOp18
 70
0
102
RTVSPropertyOp19
 70
0
102
RTVSPropertyOp20
 70
0
102
RTVSPropertyOp21
 70
0
102
RTVSPropertyOp22
 70
0
102
RTVSPropertyOp23
 70
0
102
RTVSPropertyOp24
 70
0
102
RTVSPropertyOp25
 70
0
102
RTVSPropertyOp26
 70
0
102
RTVSPropertyOp27
 70
0
102
RTVSPropertyOp28
 70
1
102
RTVSPropertyOp29
 70
1
102
RTVSPropertyOp30
 70
1
102
RTVSPropertyOp31
 70
1
102
RTVSPropertyOp32
 70
1
102
RTVSPropertyOp33
 70
1
102
RTVSPropertyOp34
 70
1
102
RTVSPropertyOp35
 70
1
102
RTVSPropertyOp36
 70
1
102
RTVSPropertyOp37
 70
0
102
RTVSPropertyOp38
 70
0
102
RTVSPropertyOp39
 70
0
102
RTVSPropertyOp40
 70
0
102
RTVSPropertyOp41
 70
0
102
RTVSPropertyOp42
 70
0
102
RTVSPropertyOp43
 70
0
102
RTVSPropertyOp44
 70
0
102
RTVSPropertyOp45
 70
1
102
RTVSPropertyOp46
 70
0
102
RTVSPropertyOp47
 70
0
102
RTVSPropertyOp48
 70
0
102
RTVSPropertyOp49
 70
1
102
RTVSPropertyOp50
 70
0
102
RTVSPropertyOp51
 70
0
102
RTVSPropertyOp52
 70
0
102
RTVSPropertyOp53
 70
0
102
RTVSPropertyOp54
 70
0
102
RTVSPropertyOp55
 70
1
102
RTVSPropertyOp56
 70
0
102
RTVSPropertyOp57
 70
0
102
RTVSPropertyOp58
 70
0
102
RTVSPropertyOp59
 70
0
102
RTVSPropertyOp60
 70
0
102
RTVSPropertyOp61
 70
0
102
RTVSPropertyOp62
 70
0
  0
XRECORD
  5
A7E
102
{ACAD_REACTORS
330
A7D
102
}
330
A7D
100
AcDbXrecord
280
1
102
RTVSPost2010Prop28
280
0
102
RTVSPost2010PropOp28
 70
1
102
RTVSPost2010Prop29
280
1
102
RTVSPost2010PropOp29
 70
1
102
RTVSPost2010Prop30
280
1
102
RTVSPost2010PropOp30
 70
1
102
RTVSPost2010Prop31
280
0
102
RTVSPost2010PropOp31
 70
1
102
RTVSPost2010Prop32
280
0
102
RTVSPost2010PropOp32
 70
1
102
RTVSPost2010Prop33
280
0
102
RTVSPost2010PropOp33
 70
1
102
RTVSPost2010Prop34
280
0
102
RTVSPost2010PropOp34
 70
1
102
RTVSPost2010Prop35
280
0
102
RTVSPost2010PropOp35
 70
1
102
RTVSPost2010Prop36
280
0
102
RTVSPost2010PropOp36
 70
1
102
RTVSPost2010Prop37
 90
50
102
RTVSPost2010PropOp37
 70
1
102
RTVSPost2010Prop38
140
0.0
102
RTVSPost2010PropOp38
 70
1
102
RTVSPost2010Prop39
140
1.0
102
RTVSPost2010PropOp39
 70
1
102
RTVSPost2010Prop40
 90
0
102
RTVSPost2010PropOp40
 70
1
102
RTVSPost2010Prop41ColorIndex
 90
18
102
RTVSPost2010Prop41ColorRGB
 90
0
102
RTVSPost2010PropOp41
 70
1
102
RTVSPost2010Prop42
 90
50
102
RTVSPost2010PropOp42
 70
1
102
RTVSPost2010Prop43
 90
3
102
RTVSPost2010PropOp43
 70
1
102
RTVSPost2010Prop44ColorIndex
 90
5
102
RTVSPost2010Prop44ColorRGB
 90
255
102
RTVSPost2010PropOp44
 70
1
102
RTVSPost2010Prop45
280
0
102
RTVSPost2010PropOp45
 70
1
102
RTVSPost2010Prop46
 90
50
102
RTVSPost2010PropOp46
 70
1
102
RTVSPost2010Prop47
 90
50
102
RTVSPost2010PropOp47
 70
1
102
RTVSPost2010Prop48
 90
50
102
RTVSPost2010PropOp48
 70
1
102
RTVSPost2010Prop49
280
0
102
RTVSPost2010PropOp49
 70
1
102
RTVSPost2010Prop50
 90
50
102
RTVSPost2010PropOp50
 70
1
102
RTVSPost2010Prop51ColorIndex
 90
256
102
RTVSPost2010Prop51ColorRGB
 90
-16777216
102
RTVSPost2010PropOp51
 70
0
102
RTVSPost2010Prop52
140
1.0
102
RTVSPost2010PropOp52
 70
0
102
RTVSPost2010Prop53
 90
2
102
RTVSPost2010PropOp53
 70
1
102
RTVSPost2010Prop54
  1
strokes_ogs.tif
102
RTVSPost2010PropOp54
 70
1
102
RTVSPost2010Prop55
280
0
102
RTVSPost2010PropOp55
 70
1
102
RTVSPost2010Prop56
140
1.0
102
RTVSPost2010PropOp56
 70
1
102
RTVSPost2010Prop57
140
1.0
102
RTVSPost2010PropOp57
 70
1
102
RTVSPropertyOp0
 70
1
102
RTVSPropertyOp1
 70
1
102
RTVSPropertyOp2
 70
1
102
RTVSPropertyOp3
 70
1
102
RTVSPropertyOp4
 70
1
102
RTVSPropertyOp5
 70
1
102
RTVSPropertyOp6
 70
1
102
RTVSPropertyOp7
 70
1
102
RTVSPropertyOp8
 70
1
102
RTVSPropertyOp9
 70
1
102
RTVSPropertyOp10
 70
1
102
RTVSPropertyOp11
 70
1
102
RTVSPropertyOp12
 70
1
102
RTVSPropertyOp13
 70
1
102
RTVSPropertyOp14
 70
1
102
RTVSPropertyOp15
 70
1
102
RTVSPropertyOp16
 70
1
102
RTVSPropertyOp17
 70
1
102
RTVSPropertyOp18
 70
1
102
RTVSPropertyOp19
 70
1
102
RTVSPropertyOp20
 70
1
102
RTVSPropertyOp21
 70
1
102
RTVSPropertyOp22
 70
1
102
RTVSPropertyOp23
 70
1
102
RTVSPropertyOp24
 70
1
102
RTVSPropertyOp25
 70
1
102
RTVSPropertyOp26
 70
1
102
RTVSPropertyOp27
 70
1
102
RTVSPropertyOp28
 70
1
102
RTVSPropertyOp29
 70
1
102
RTVSPropertyOp30
 70
1
102
RTVSPropertyOp31
 70
1
102
RTVSPropertyOp32
 70
1
102
RTVSPropertyOp33
 70
1
102
RTVSPropertyOp34
 70
1
102
RTVSPropertyOp35
 70
1
102
RTVSPropertyOp36
 70
1
102
RTVSPropertyOp37
 70
1
102
RTVSPropertyOp38
 70
1
102
RTVSPropertyOp39
 70
1
102
RTVSPropertyOp40
 70
1
102
RTVSPropertyOp41
 70
1
102
RTVSPropertyOp42
 70
1
102
RTVSPropertyOp43
 70
1
102
RTVSPropertyOp44
 70
1
102
RTVSPropertyOp45
 70
1
102
RTVSPropertyOp46
 70
1
102
RTVSPropertyOp47
 70
1
102
RTVSPropertyOp48
 70
1
102
RTVSPropertyOp49
 70
1
102
RTVSPropertyOp50
 70
1
102
RTVSPropertyOp51
 70
0
102
RTVSPropertyOp52
 70
0
102
RTVSPropertyOp53
 70
1
102
RTVSPropertyOp54
 70
1
102
RTVSPropertyOp55
 70
1
102
RTVSPropertyOp56
 70
1
102
RTVSPropertyOp57
 70
1
102
RTVSPropertyOp58
 70
1
102
RTVSPropertyOp59
 70
1
102
RTVSPropertyOp60
 70
1
102
RTVSPropertyOp61
 70
1
102
RTVSPropertyOp62
 70
1
  0
XRECORD
  5
A90
102
{ACAD_REACTORS
330
A8F
102
}
330
A8F
100
AcDbXrecord
280
1
102
RTVSPost2010Prop28
280
0
102
RTVSPost2010PropOp28
 70
1
102
RTVSPost2010Prop29
280
1
102
RTVSPost2010PropOp29
 70
1
102
RTVSPost2010Prop30
280
1
102
RTVSPost2010PropOp30
 70
1
102
RTVSPost2010Prop31
280
0
102
RTVSPost2010PropOp31
 70
1
102
RTVSPost2010Prop32
280
0
102
RTVSPost2010PropOp32
 70
1
102
RTVSPost2010Prop33
280
0
102
RTVSPost2010PropOp33
 70
1
102
RTVSPost2010Prop34
280
0
102
RTVSPost2010PropOp34
 70
1
102
RTVSPost2010Prop35
280
0
102
RTVSPost2010PropOp35
 70
1
102
RTVSPost2010Prop36
280
0
102
RTVSPost2010PropOp36
 70
1
102
RTVSPost2010Prop37
 90
50
102
RTVSPost2010PropOp37
 70
0
102
RTVSPost2010Prop38
140
0.0
102
RTVSPost2010PropOp38
 70
0
102
RTVSPost2010Prop39
140
1.0
102
RTVSPost2010PropOp39
 70
0
102
RTVSPost2010Prop40
 90
0
102
RTVSPost2010PropOp40
 70
0
102
RTVSPost2010Prop41ColorIndex
 90
18
102
RTVSPost2010Prop41ColorRGB
 90
0
102
RTVSPost2010PropOp41
 70
0
102
RTVSPost2010Prop42
 90
50
102
RTVSPost2010PropOp42
 70
0
102
RTVSPost2010Prop43
 90
3
102
RTVSPost2010PropOp43
 70
0
102
RTVSPost2010Prop44ColorIndex
 90
5
102
RTVSPost2010Prop44ColorRGB
 90
255
102
RTVSPost2010PropOp44
 70
0
102
RTVSPost2010Prop45
280
0
102
RTVSPost2010PropOp45
 70
1
102
RTVSPost2010Prop46
 90
50
102
RTVSPost2010PropOp46
 70
0
102
RTVSPost2010Prop47
 90
50
102
RTVSPost2010PropOp47
 70
0
102
RTVSPost2010Prop48
 90
50
102
RTVSPost2010PropOp48
 70
0
102
RTVSPost2010Prop49
280
0
102
RTVSPost2010PropOp49
 70
1
102
RTVSPost2010Prop50
 90
50
102
RTVSPost2010PropOp50
 70
0
102
RTVSPost2010Prop51ColorIndex
 90
256
102
RTVSPost2010Prop51ColorRGB
 90
-16777216
102
RTVSPost2010PropOp51
 70
0
102
RTVSPost2010Prop52
140
1.0
102
RTVSPost2010PropOp52
 70
0
102
RTVSPost2010Prop53
 90
2
102
RTVSPost2010PropOp53
 70
0
102
RTVSPost2010Prop54
  1
strokes_ogs.tif
102
RTVSPost2010PropOp54
 70
0
102
RTVSPost2010Prop55
280
0
102
RTVSPost2010PropOp55
 70
1
102
RTVSPost2010Prop56
140
1.0
102
RTVSPost2010PropOp56
 70
0
102
RTVSPost2010Prop57
140
1.0
102
RTVSPost2010PropOp57
 70
0
102
RTVSPropertyOp0
 70
0
102
RTVSPropertyOp1
 70
0
102
RTVSPropertyOp2
 70
0
102
RTVSPropertyOp3
 70
0
102
RTVSPropertyOp4
 70
0
102
RTVSPropertyOp5
 70
0
102
RTVSPropertyOp6
 70
0
102
RTVSPropertyOp7
 70
0
102
RTVSPropertyOp8
 70
0
102
RTVSPropertyOp9
 70
0
102
RTVSPropertyOp10
 70
0
102
RTVSPropertyOp11
 70
0
102
RTVSPropertyOp12
 70
0
102
RTVSPropertyOp13
 70
0
102
RTVSPropertyOp14
 70
2
102
RTVSPropertyOp15
 70
0
102
RTVSPropertyOp16
 70
0
102
RTVSPropertyOp17
 70
0
102
RTVSPropertyOp18
 70
0
102
RTVSPropertyOp19
 70
0
102
RTVSPropertyOp20
 70
0
102
RTVSPropertyOp21
 70
0
102
RTVSPropertyOp22
 70
0
102
RTVSPropertyOp23
 70
0
102
RTVSPropertyOp24
 70
0
102
RTVSPropertyOp25
 70
0
102
RTVSPropertyOp26
 70
0
102
RTVSPropertyOp27
 70
0
102
RTVSPropertyOp28
 70
1
102
RTVSPropertyOp29
 70
1
102
RTVSPropertyOp30
 70
1
102
RTVSPropertyOp31
 70
1
102
RTVSPropertyOp32
 70
1
102
RTVSPropertyOp33
 70
1
102
RTVSPropertyOp34
 70
1
102
RTVSPropertyOp35
 70
1
102
RTVSPropertyOp36
 70
1
102
RTVSPropertyOp37
 70
0
102
RTVSPropertyOp38
 70
0
102
RTVSPropertyOp39
 70
0
102
RTVSPropertyOp40
 70
0
102
RTVSPropertyOp41
 70
0
102
RTVSPropertyOp42
 70
0
102
RTVSPropertyOp43
 70
0
102
RTVSPropertyOp44
 70
0
102
RTVSPropertyOp45
 70
1
102
RTVSPropertyOp46
 70
0
102
RTVSPropertyOp47
 70
0
102
RTVSPropertyOp48
 70
0
102
RTVSPropertyOp49
 70
1
102
RTVSPropertyOp50
 70
0
102
RTVSPropertyOp51
 70
0
102
RTVSPropertyOp52
 70
0
102
RTVSPropertyOp53
 70
0
102
RTVSPropertyOp54
 70
0
102
RTVSPropertyOp55
 70
1
102
RTVSPropertyOp56
 70
0
102
RTVSPropertyOp57
 70
0
102
RTVSPropertyOp58
 70
0
102
RTVSPropertyOp59
 70
0
102
RTVSPropertyOp60
 70
0
102
RTVSPropertyOp61
 70
0
102
RTVSPropertyOp62
 70
0
  0
XRECORD
  5
A76
102
{ACAD_REACTORS
330
A75
102
}
330
A75
100
AcDbXrecord
280
1
102
RTVSPost2010Prop28
280
0
102
RTVSPost2010PropOp28
 70
1
102
RTVSPost2010Prop29
280
1
102
RTVSPost2010PropOp29
 70
1
102
RTVSPost2010Prop30
280
1
102
RTVSPost2010PropOp30
 70
1
102
RTVSPost2010Prop31
280
0
102
RTVSPost2010PropOp31
 70
1
102
RTVSPost2010Prop32
280
0
102
RTVSPost2010PropOp32
 70
1
102
RTVSPost2010Prop33
280
0
102
RTVSPost2010PropOp33
 70
1
102
RTVSPost2010Prop34
280
0
102
RTVSPost2010PropOp34
 70
1
102
RTVSPost2010Prop35
280
0
102
RTVSPost2010PropOp35
 70
1
102
RTVSPost2010Prop36
280
0
102
RTVSPost2010PropOp36
 70
1
102
RTVSPost2010Prop37
 90
50
102
RTVSPost2010PropOp37
 70
1
102
RTVSPost2010Prop38
140
0.0
102
RTVSPost2010PropOp38
 70
1
102
RTVSPost2010Prop39
140
1.0
102
RTVSPost2010PropOp39
 70
1
102
RTVSPost2010Prop40
 90
0
102
RTVSPost2010PropOp40
 70
1
102
RTVSPost2010Prop41ColorIndex
 90
18
102
RTVSPost2010Prop41ColorRGB
 90
0
102
RTVSPost2010PropOp41
 70
1
102
RTVSPost2010Prop42
 90
50
102
RTVSPost2010PropOp42
 70
1
102
RTVSPost2010Prop43
 90
3
102
RTVSPost2010PropOp43
 70
1
102
RTVSPost2010Prop44ColorIndex
 90
5
102
RTVSPost2010Prop44ColorRGB
 90
255
102
RTVSPost2010PropOp44
 70
1
102
RTVSPost2010Prop45
280
0
102
RTVSPost2010PropOp45
 70
1
102
RTVSPost2010Prop46
 90
50
102
RTVSPost2010PropOp46
 70
1
102
RTVSPost2010Prop47
 90
50
102
RTVSPost2010PropOp47
 70
1
102
RTVSPost2010Prop48
 90
50
102
RTVSPost2010PropOp48
 70
1
102
RTVSPost2010Prop49
280
0
102
RTVSPost2010PropOp49
 70
1
102
RTVSPost2010Prop50
 90
50
102
RTVSPost2010PropOp50
 70
1
102
RTVSPost2010Prop51ColorIndex
 90
256
102
RTVSPost2010Prop51ColorRGB
 90
-16777216
102
RTVSPost2010PropOp51
 70
0
102
RTVSPost2010Prop52
140
1.0
102
RTVSPost2010PropOp52
 70
0
102
RTVSPost2010Prop53
 90
2
102
RTVSPost2010PropOp53
 70
1
102
RTVSPost2010Prop54
  1
strokes_ogs.tif
102
RTVSPost2010PropOp54
 70
1
102
RTVSPost2010Prop55
280
0
102
RTVSPost2010PropOp55
 70
1
102
RTVSPost2010Prop56
140
1.0
102
RTVSPost2010PropOp56
 70
1
102
RTVSPost2010Prop57
140
1.0
102
RTVSPost2010PropOp57
 70
1
102
RTVSPropertyOp0
 70
1
102
RTVSPropertyOp1
 70
1
102
RTVSPropertyOp2
 70
1
102
RTVSPropertyOp3
 70
1
102
RTVSPropertyOp4
 70
1
102
RTVSPropertyOp5
 70
1
102
RTVSPropertyOp6
 70
1
102
RTVSPropertyOp7
 70
1
102
RTVSPropertyOp8
 70
1
102
RTVSPropertyOp9
 70
1
102
RTVSPropertyOp10
 70
1
102
RTVSPropertyOp11
 70
1
102
RTVSPropertyOp12
 70
1
102
RTVSPropertyOp13
 70
1
102
RTVSPropertyOp14
 70
1
102
RTVSPropertyOp15
 70
1
102
RTVSPropertyOp16
 70
1
102
RTVSPropertyOp17
 70
1
102
RTVSPropertyOp18
 70
1
102
RTVSPropertyOp19
 70
1
102
RTVSPropertyOp20
 70
1
102
RTVSPropertyOp21
 70
1
102
RTVSPropertyOp22
 70
1
102
RTVSPropertyOp23
 70
1
102
RTVSPropertyOp24
 70
1
102
RTVSPropertyOp25
 70
1
102
RTVSPropertyOp26
 70
1
102
RTVSPropertyOp27
 70
1
102
RTVSPropertyOp28
 70
1
102
RTVSPropertyOp29
 70
1
102
RTVSPropertyOp30
 70
1
102
RTVSPropertyOp31
 70
1
102
RTVSPropertyOp32
 70
1
102
RTVSPropertyOp33
 70
1
102
RTVSPropertyOp34
 70
1
102
RTVSPropertyOp35
 70
1
102
RTVSPropertyOp36
 70
1
102
RTVSPropertyOp37
 70
1
102
RTVSPropertyOp38
 70
1
102
RTVSPropertyOp39
 70
1
102
RTVSPropertyOp40
 70
1
102
RTVSPropertyOp41
 70
1
102
RTVSPropertyOp42
 70
1
102
RTVSPropertyOp43
 70
1
102
RTVSPropertyOp44
 70
1
102
RTVSPropertyOp45
 70
1
102
RTVSPropertyOp46
 70
1
102
RTVSPropertyOp47
 70
1
102
RTVSPropertyOp48
 70
1
102
RTVSPropertyOp49
 70
1
102
RTVSPropertyOp50
 70
1
102
RTVSPropertyOp51
 70
0
102
RTVSPropertyOp52
 70
0
102
RTVSPropertyOp53
 70
1
102
RTVSPropertyOp54
 70
1
102
RTVSPropertyOp55
 70
1
102
RTVSPropertyOp56
 70
1
102
RTVSPropertyOp57
 70
1
102
RTVSPropertyOp58
 70
1
102
RTVSPropertyOp59
 70
1
102
RTVSPropertyOp60
 70
1
102
RTVSPropertyOp61
 70
1
102
RTVSPropertyOp62
 70
1
  0
XRECORD
  5
A8C
102
{ACAD_REACTORS
330
A8B
102
}
330
A8B
100
AcDbXrecord
280
1
102
RTVSPost2010Prop28
280
0
102
RTVSPost2010PropOp28
 70
1
102
RTVSPost2010Prop29
280
1
102
RTVSPost2010PropOp29
 70
1
102
RTVSPost2010Prop30
280
1
102
RTVSPost2010PropOp30
 70
1
102
RTVSPost2010Prop31
280
0
102
RTVSPost2010PropOp31
 70
1
102
RTVSPost2010Prop32
280
0
102
RTVSPost2010PropOp32
 70
1
102
RTVSPost2010Prop33
280
0
102
RTVSPost2010PropOp33
 70
1
102
RTVSPost2010Prop34
280
0
102
RTVSPost2010PropOp34
 70
1
102
RTVSPost2010Prop35
280
0
102
RTVSPost2010PropOp35
 70
1
102
RTVSPost2010Prop36
280
0
102
RTVSPost2010PropOp36
 70
1
102
RTVSPost2010Prop37
 90
50
102
RTVSPost2010PropOp37
 70
1
102
RTVSPost2010Prop38
140
0.0
102
RTVSPost2010PropOp38
 70
1
102
RTVSPost2010Prop39
140
1.0
102
RTVSPost2010PropOp39
 70
1
102
RTVSPost2010Prop40
 90
0
102
RTVSPost2010PropOp40
 70
1
102
RTVSPost2010Prop41ColorIndex
 90
18
102
RTVSPost2010Prop41ColorRGB
 90
0
102
RTVSPost2010PropOp41
 70
1
102
RTVSPost2010Prop42
 90
50
102
RTVSPost2010PropOp42
 70
1
102
RTVSPost2010Prop43
 90
3
102
RTVSPost2010PropOp43
 70
1
102
RTVSPost2010Prop44ColorIndex
 90
5
102
RTVSPost2010Prop44ColorRGB
 90
255
102
RTVSPost2010PropOp44
 70
1
102
RTVSPost2010Prop45
280
0
102
RTVSPost2010PropOp45
 70
1
102
RTVSPost2010Prop46
 90
50
102
RTVSPost2010PropOp46
 70
1
102
RTVSPost2010Prop47
 90
50
102
RTVSPost2010PropOp47
 70
1
102
RTVSPost2010Prop48
 90
50
102
RTVSPost2010PropOp48
 70
1
102
RTVSPost2010Prop49
280
0
102
RTVSPost2010PropOp49
 70
1
102
RTVSPost2010Prop50
 90
50
102
RTVSPost2010PropOp50
 70
1
102
RTVSPost2010Prop51ColorIndex
 90
256
102
RTVSPost2010Prop51ColorRGB
 90
-16777216
102
RTVSPost2010PropOp51
 70
0
102
RTVSPost2010Prop52
140
1.0
102
RTVSPost2010PropOp52
 70
0
102
RTVSPost2010Prop53
 90
2
102
RTVSPost2010PropOp53
 70
1
102
RTVSPost2010Prop54
  1
strokes_ogs.tif
102
RTVSPost2010PropOp54
 70
1
102
RTVSPost2010Prop55
280
0
102
RTVSPost2010PropOp55
 70
1
102
RTVSPost2010Prop56
140
1.0
102
RTVSPost2010PropOp56
 70
1
102
RTVSPost2010Prop57
140
1.0
102
RTVSPost2010PropOp57
 70
1
102
RTVSPropertyOp0
 70
1
102
RTVSPropertyOp1
 70
1
102
RTVSPropertyOp2
 70
1
102
RTVSPropertyOp3
 70
1
102
RTVSPropertyOp4
 70
1
102
RTVSPropertyOp5
 70
1
102
RTVSPropertyOp6
 70
1
102
RTVSPropertyOp7
 70
1
102
RTVSPropertyOp8
 70
1
102
RTVSPropertyOp9
 70
1
102
RTVSPropertyOp10
 70
1
102
RTVSPropertyOp11
 70
1
102
RTVSPropertyOp12
 70
1
102
RTVSPropertyOp13
 70
1
102
RTVSPropertyOp14
 70
1
102
RTVSPropertyOp15
 70
1
102
RTVSPropertyOp16
 70
1
102
RTVSPropertyOp17
 70
1
102
RTVSPropertyOp18
 70
1
102
RTVSPropertyOp19
 70
1
102
RTVSPropertyOp20
 70
1
102
RTVSPropertyOp21
 70
1
102
RTVSPropertyOp22
 70
1
102
RTVSPropertyOp23
 70
1
102
RTVSPropertyOp24
 70
1
102
RTVSPropertyOp25
 70
1
102
RTVSPropertyOp26
 70
1
102
RTVSPropertyOp27
 70
1
102
RTVSPropertyOp28
 70
1
102
RTVSPropertyOp29
 70
1
102
RTVSPropertyOp30
 70
1
102
RTVSPropertyOp31
 70
1
102
RTVSPropertyOp32
 70
1
102
RTVSPropertyOp33
 70
1
102
RTVSPropertyOp34
 70
1
102
RTVSPropertyOp35
 70
1
102
RTVSPropertyOp36
 70
1
102
RTVSPropertyOp37
 70
1
102
RTVSPropertyOp38
 70
1
102
RTVSPropertyOp39
 70
1
102
RTVSPropertyOp40
 70
1
102
RTVSPropertyOp41
 70
1
102
RTVSPropertyOp42
 70
1
102
RTVSPropertyOp43
 70
1
102
RTVSPropertyOp44
 70
1
102
RTVSPropertyOp45
 70
1
102
RTVSPropertyOp46
 70
1
102
RTVSPropertyOp47
 70
1
102
RTVSPropertyOp48
 70
1
102
RTVSPropertyOp49
 70
1
102
RTVSPropertyOp50
 70
1
102
RTVSPropertyOp51
 70
0
102
RTVSPropertyOp52
 70
0
102
RTVSPropertyOp53
 70
1
102
RTVSPropertyOp54
 70
1
102
RTVSPropertyOp55
 70
1
102
RTVSPropertyOp56
 70
1
102
RTVSPropertyOp57
 70
1
102
RTVSPropertyOp58
 70
1
102
RTVSPropertyOp59
 70
1
102
RTVSPropertyOp60
 70
1
102
RTVSPropertyOp61
 70
1
102
RTVSPropertyOp62
 70
1
  0
XRECORD
  5
A8A
102
{ACAD_REACTORS
330
A89
102
}
330
A89
100
AcDbXrecord
280
1
102
RTVSPost2010Prop28
280
0
102
RTVSPost2010PropOp28
 70
1
102
RTVSPost2010Prop29
280
1
102
RTVSPost2010PropOp29
 70
1
102
RTVSPost2010Prop30
280
1
102
RTVSPost2010PropOp30
 70
1
102
RTVSPost2010Prop31
280
0
102
RTVSPost2010PropOp31
 70
1
102
RTVSPost2010Prop32
280
0
102
RTVSPost2010PropOp32
 70
1
102
RTVSPost2010Prop33
280
0
102
RTVSPost2010PropOp33
 70
1
102
RTVSPost2010Prop34
280
0
102
RTVSPost2010PropOp34
 70
1
102
RTVSPost2010Prop35
280
0
102
RTVSPost2010PropOp35
 70
1
102
RTVSPost2010Prop36
280
0
102
RTVSPost2010PropOp36
 70
1
102
RTVSPost2010Prop37
 90
50
102
RTVSPost2010PropOp37
 70
1
102
RTVSPost2010Prop38
140
0.0
102
RTVSPost2010PropOp38
 70
1
102
RTVSPost2010Prop39
140
1.0
102
RTVSPost2010PropOp39
 70
1
102
RTVSPost2010Prop40
 90
0
102
RTVSPost2010PropOp40
 70
1
102
RTVSPost2010Prop41ColorIndex
 90
18
102
RTVSPost2010Prop41ColorRGB
 90
0
102
RTVSPost2010PropOp41
 70
1
102
RTVSPost2010Prop42
 90
50
102
RTVSPost2010PropOp42
 70
1
102
RTVSPost2010Prop43
 90
3
102
RTVSPost2010PropOp43
 70
1
102
RTVSPost2010Prop44ColorIndex
 90
5
102
RTVSPost2010Prop44ColorRGB
 90
255
102
RTVSPost2010PropOp44
 70
1
102
RTVSPost2010Prop45
280
0
102
RTVSPost2010PropOp45
 70
1
102
RTVSPost2010Prop46
 90
50
102
RTVSPost2010PropOp46
 70
1
102
RTVSPost2010Prop47
 90
50
102
RTVSPost2010PropOp47
 70
1
102
RTVSPost2010Prop48
 90
50
102
RTVSPost2010PropOp48
 70
1
102
RTVSPost2010Prop49
280
0
102
RTVSPost2010PropOp49
 70
1
102
RTVSPost2010Prop50
 90
50
102
RTVSPost2010PropOp50
 70
1
102
RTVSPost2010Prop51ColorIndex
 90
256
102
RTVSPost2010Prop51ColorRGB
 90
-16777216
102
RTVSPost2010PropOp51
 70
0
102
RTVSPost2010Prop52
140
1.0
102
RTVSPost2010PropOp52
 70
0
102
RTVSPost2010Prop53
 90
2
102
RTVSPost2010PropOp53
 70
1
102
RTVSPost2010Prop54
  1
strokes_ogs.tif
102
RTVSPost2010PropOp54
 70
1
102
RTVSPost2010Prop55
280
0
102
RTVSPost2010PropOp55
 70
1
102
RTVSPost2010Prop56
140
1.0
102
RTVSPost2010PropOp56
 70
1
102
RTVSPost2010Prop57
140
1.0
102
RTVSPost2010PropOp57
 70
1
102
RTVSPropertyOp0
 70
1
102
RTVSPropertyOp1
 70
1
102
RTVSPropertyOp2
 70
1
102
RTVSPropertyOp3
 70
1
102
RTVSPropertyOp4
 70
1
102
RTVSPropertyOp5
 70
1
102
RTVSPropertyOp6
 70
1
102
RTVSPropertyOp7
 70
1
102
RTVSPropertyOp8
 70
1
102
RTVSPropertyOp9
 70
1
102
RTVSPropertyOp10
 70
1
102
RTVSPropertyOp11
 70
1
102
RTVSPropertyOp12
 70
1
102
RTVSPropertyOp13
 70
1
102
RTVSPropertyOp14
 70
1
102
RTVSPropertyOp15
 70
1
102
RTVSPropertyOp16
 70
1
102
RTVSPropertyOp17
 70
1
102
RTVSPropertyOp18
 70
1
102
RTVSPropertyOp19
 70
1
102
RTVSPropertyOp20
 70
1
102
RTVSPropertyOp21
 70
1
102
RTVSPropertyOp22
 70
1
102
RTVSPropertyOp23
 70
1
102
RTVSPropertyOp24
 70
1
102
RTVSPropertyOp25
 70
1
102
RTVSPropertyOp26
 70
1
102
RTVSPropertyOp27
 70
1
102
RTVSPropertyOp28
 70
1
102
RTVSPropertyOp29
 70
1
102
RTVSPropertyOp30
 70
1
102
RTVSPropertyOp31
 70
1
102
RTVSPropertyOp32
 70
1
102
RTVSPropertyOp33
 70
1
102
RTVSPropertyOp34
 70
1
102
RTVSPropertyOp35
 70
1
102
RTVSPropertyOp36
 70
1
102
RTVSPropertyOp37
 70
1
102
RTVSPropertyOp38
 70
1
102
RTVSPropertyOp39
 70
1
102
RTVSPropertyOp40
 70
1
102
RTVSPropertyOp41
 70
1
102
RTVSPropertyOp42
 70
1
102
RTVSPropertyOp43
 70
1
102
RTVSPropertyOp44
 70
1
102
RTVSPropertyOp45
 70
1
102
RTVSPropertyOp46
 70
1
102
RTVSPropertyOp47
 70
1
102
RTVSPropertyOp48
 70
1
102
RTVSPropertyOp49
 70
1
102
RTVSPropertyOp50
 70
1
102
RTVSPropertyOp51
 70
0
102
RTVSPropertyOp52
 70
0
102
RTVSPropertyOp53
 70
1
102
RTVSPropertyOp54
 70
1
102
RTVSPropertyOp55
 70
1
102
RTVSPropertyOp56
 70
1
102
RTVSPropertyOp57
 70
1
102
RTVSPropertyOp58
 70
1
102
RTVSPropertyOp59
 70
1
102
RTVSPropertyOp60
 70
1
102
RTVSPropertyOp61
 70
1
102
RTVSPropertyOp62
 70
1
  0
XRECORD
  5
A84
102
{ACAD_REACTORS
330
A83
102
}
330
A83
100
AcDbXrecord
280
1
102
RTVSPost2010Prop28
280
0
102
RTVSPost2010PropOp28
 70
1
102
RTVSPost2010Prop29
280
1
102
RTVSPost2010PropOp29
 70
1
102
RTVSPost2010Prop30
280
1
102
RTVSPost2010PropOp30
 70
1
102
RTVSPost2010Prop31
280
0
102
RTVSPost2010PropOp31
 70
1
102
RTVSPost2010Prop32
280
0
102
RTVSPost2010PropOp32
 70
1
102
RTVSPost2010Prop33
280
0
102
RTVSPost2010PropOp33
 70
1
102
RTVSPost2010Prop34
280
0
102
RTVSPost2010PropOp34
 70
1
102
RTVSPost2010Prop35
280
0
102
RTVSPost2010PropOp35
 70
1
102
RTVSPost2010Prop36
280
0
102
RTVSPost2010PropOp36
 70
1
102
RTVSPost2010Prop37
 90
50
102
RTVSPost2010PropOp37
 70
1
102
RTVSPost2010Prop38
140
0.0
102
RTVSPost2010PropOp38
 70
1
102
RTVSPost2010Prop39
140
1.0
102
RTVSPost2010PropOp39
 70
1
102
RTVSPost2010Prop40
 90
0
102
RTVSPost2010PropOp40
 70
1
102
RTVSPost2010Prop41ColorIndex
 90
18
102
RTVSPost2010Prop41ColorRGB
 90
0
102
RTVSPost2010PropOp41
 70
1
102
RTVSPost2010Prop42
 90
50
102
RTVSPost2010PropOp42
 70
1
102
RTVSPost2010Prop43
 90
3
102
RTVSPost2010PropOp43
 70
1
102
RTVSPost2010Prop44ColorIndex
 90
5
102
RTVSPost2010Prop44ColorRGB
 90
255
102
RTVSPost2010PropOp44
 70
1
102
RTVSPost2010Prop45
280
0
102
RTVSPost2010PropOp45
 70
1
102
RTVSPost2010Prop46
 90
50
102
RTVSPost2010PropOp46
 70
1
102
RTVSPost2010Prop47
 90
50
102
RTVSPost2010PropOp47
 70
1
102
RTVSPost2010Prop48
 90
50
102
RTVSPost2010PropOp48
 70
1
102
RTVSPost2010Prop49
280
0
102
RTVSPost2010PropOp49
 70
1
102
RTVSPost2010Prop50
 90
50
102
RTVSPost2010PropOp50
 70
1
102
RTVSPost2010Prop51ColorIndex
 90
256
102
RTVSPost2010Prop51ColorRGB
 90
-16777216
102
RTVSPost2010PropOp51
 70
0
102
RTVSPost2010Prop52
140
1.0
102
RTVSPost2010PropOp52
 70
0
102
RTVSPost2010Prop53
 90
2
102
RTVSPost2010PropOp53
 70
1
102
RTVSPost2010Prop54
  1
strokes_ogs.tif
102
RTVSPost2010PropOp54
 70
1
102
RTVSPost2010Prop55
280
0
102
RTVSPost2010PropOp55
 70
1
102
RTVSPost2010Prop56
140
1.0
102
RTVSPost2010PropOp56
 70
1
102
RTVSPost2010Prop57
140
1.0
102
RTVSPost2010PropOp57
 70
1
102
RTVSPropertyOp0
 70
1
102
RTVSPropertyOp1
 70
1
102
RTVSPropertyOp2
 70
1
102
RTVSPropertyOp3
 70
1
102
RTVSPropertyOp4
 70
1
102
RTVSPropertyOp5
 70
1
102
RTVSPropertyOp6
 70
1
102
RTVSPropertyOp7
 70
1
102
RTVSPropertyOp8
 70
1
102
RTVSPropertyOp9
 70
1
102
RTVSPropertyOp10
 70
1
102
RTVSPropertyOp11
 70
1
102
RTVSPropertyOp12
 70
1
102
RTVSPropertyOp13
 70
1
102
RTVSPropertyOp14
 70
1
102
RTVSPropertyOp15
 70
1
102
RTVSPropertyOp16
 70
1
102
RTVSPropertyOp17
 70
1
102
RTVSPropertyOp18
 70
1
102
RTVSPropertyOp19
 70
1
102
RTVSPropertyOp20
 70
1
102
RTVSPropertyOp21
 70
1
102
RTVSPropertyOp22
 70
1
102
RTVSPropertyOp23
 70
1
102
RTVSPropertyOp24
 70
1
102
RTVSPropertyOp25
 70
1
102
RTVSPropertyOp26
 70
1
102
RTVSPropertyOp27
 70
1
102
RTVSPropertyOp28
 70
1
102
RTVSPropertyOp29
 70
1
102
RTVSPropertyOp30
 70
1
102
RTVSPropertyOp31
 70
1
102
RTVSPropertyOp32
 70
1
102
RTVSPropertyOp33
 70
1
102
RTVSPropertyOp34
 70
1
102
RTVSPropertyOp35
 70
1
102
RTVSPropertyOp36
 70
1
102
RTVSPropertyOp37
 70
1
102
RTVSPropertyOp38
 70
1
102
RTVSPropertyOp39
 70
1
102
RTVSPropertyOp40
 70
1
102
RTVSPropertyOp41
 70
1
102
RTVSPropertyOp42
 70
1
102
RTVSPropertyOp43
 70
1
102
RTVSPropertyOp44
 70
1
102
RTVSPropertyOp45
 70
1
102
RTVSPropertyOp46
 70
1
102
RTVSPropertyOp47
 70
1
102
RTVSPropertyOp48
 70
1
102
RTVSPropertyOp49
 70
1
102
RTVSPropertyOp50
 70
1
102
RTVSPropertyOp51
 70
0
102
RTVSPropertyOp52
 70
0
102
RTVSPropertyOp53
 70
1
102
RTVSPropertyOp54
 70
1
102
RTVSPropertyOp55
 70
1
102
RTVSPropertyOp56
 70
1
102
RTVSPropertyOp57
 70
1
102
RTVSPropertyOp58
 70
1
102
RTVSPropertyOp59
 70
1
102
RTVSPropertyOp60
 70
1
102
RTVSPropertyOp61
 70
1
102
RTVSPropertyOp62
 70
1
  0
XRECORD
  5
A86
102
{ACAD_REACTORS
330
A85
102
}
330
A85
100
AcDbXrecord
280
1
102
RTVSPost2010Prop28
280
0
102
RTVSPost2010PropOp28
 70
1
102
RTVSPost2010Prop29
280
1
102
RTVSPost2010PropOp29
 70
1
102
RTVSPost2010Prop30
280
1
102
RTVSPost2010PropOp30
 70
1
102
RTVSPost2010Prop31
280
0
102
RTVSPost2010PropOp31
 70
1
102
RTVSPost2010Prop32
280
0
102
RTVSPost2010PropOp32
 70
1
102
RTVSPost2010Prop33
280
0
102
RTVSPost2010PropOp33
 70
1
102
RTVSPost2010Prop34
280
0
102
RTVSPost2010PropOp34
 70
1
102
RTVSPost2010Prop35
280
0
102
RTVSPost2010PropOp35
 70
1
102
RTVSPost2010Prop36
280
0
102
RTVSPost2010PropOp36
 70
1
102
RTVSPost2010Prop37
 90
50
102
RTVSPost2010PropOp37
 70
1
102
RTVSPost2010Prop38
140
0.0
102
RTVSPost2010PropOp38
 70
1
102
RTVSPost2010Prop39
140
1.0
102
RTVSPost2010PropOp39
 70
1
102
RTVSPost2010Prop40
 90
0
102
RTVSPost2010PropOp40
 70
1
102
RTVSPost2010Prop41ColorIndex
 90
18
102
RTVSPost2010Prop41ColorRGB
 90
0
102
RTVSPost2010PropOp41
 70
1
102
RTVSPost2010Prop42
 90
50
102
RTVSPost2010PropOp42
 70
1
102
RTVSPost2010Prop43
 90
3
102
RTVSPost2010PropOp43
 70
1
102
RTVSPost2010Prop44ColorIndex
 90
5
102
RTVSPost2010Prop44ColorRGB
 90
255
102
RTVSPost2010PropOp44
 70
1
102
RTVSPost2010Prop45
280
0
102
RTVSPost2010PropOp45
 70
1
102
RTVSPost2010Prop46
 90
50
102
RTVSPost2010PropOp46
 70
1
102
RTVSPost2010Prop47
 90
50
102
RTVSPost2010PropOp47
 70
1
102
RTVSPost2010Prop48
 90
50
102
RTVSPost2010PropOp48
 70
1
102
RTVSPost2010Prop49
280
0
102
RTVSPost2010PropOp49
 70
1
102
RTVSPost2010Prop50
 90
50
102
RTVSPost2010PropOp50
 70
1
102
RTVSPost2010Prop51ColorIndex
 90
256
102
RTVSPost2010Prop51ColorRGB
 90
-16777216
102
RTVSPost2010PropOp51
 70
0
102
RTVSPost2010Prop52
140
1.0
102
RTVSPost2010PropOp52
 70
0
102
RTVSPost2010Prop53
 90
2
102
RTVSPost2010PropOp53
 70
1
102
RTVSPost2010Prop54
  1
strokes_ogs.tif
102
RTVSPost2010PropOp54
 70
1
102
RTVSPost2010Prop55
280
0
102
RTVSPost2010PropOp55
 70
1
102
RTVSPost2010Prop56
140
1.0
102
RTVSPost2010PropOp56
 70
1
102
RTVSPost2010Prop57
140
1.0
102
RTVSPost2010PropOp57
 70
1
102
RTVSPropertyOp0
 70
1
102
RTVSPropertyOp1
 70
1
102
RTVSPropertyOp2
 70
1
102
RTVSPropertyOp3
 70
1
102
RTVSPropertyOp4
 70
1
102
RTVSPropertyOp5
 70
1
102
RTVSPropertyOp6
 70
1
102
RTVSPropertyOp7
 70
1
102
RTVSPropertyOp8
 70
1
102
RTVSPropertyOp9
 70
1
102
RTVSPropertyOp10
 70
1
102
RTVSPropertyOp11
 70
1
102
RTVSPropertyOp12
 70
1
102
RTVSPropertyOp13
 70
1
102
RTVSPropertyOp14
 70
1
102
RTVSPropertyOp15
 70
1
102
RTVSPropertyOp16
 70
1
102
RTVSPropertyOp17
 70
1
102
RTVSPropertyOp18
 70
1
102
RTVSPropertyOp19
 70
1
102
RTVSPropertyOp20
 70
1
102
RTVSPropertyOp21
 70
1
102
RTVSPropertyOp22
 70
1
102
RTVSPropertyOp23
 70
1
102
RTVSPropertyOp24
 70
1
102
RTVSPropertyOp25
 70
1
102
RTVSPropertyOp26
 70
1
102
RTVSPropertyOp27
 70
1
102
RTVSPropertyOp28
 70
1
102
RTVSPropertyOp29
 70
1
102
RTVSPropertyOp30
 70
1
102
RTVSPropertyOp31
 70
1
102
RTVSPropertyOp32
 70
1
102
RTVSPropertyOp33
 70
1
102
RTVSPropertyOp34
 70
1
102
RTVSPropertyOp35
 70
1
102
RTVSPropertyOp36
 70
1
102
RTVSPropertyOp37
 70
1
102
RTVSPropertyOp38
 70
1
102
RTVSPropertyOp39
 70
1
102
RTVSPropertyOp40
 70
1
102
RTVSPropertyOp41
 70
1
102
RTVSPropertyOp42
 70
1
102
RTVSPropertyOp43
 70
1
102
RTVSPropertyOp44
 70
1
102
RTVSPropertyOp45
 70
1
102
RTVSPropertyOp46
 70
1
102
RTVSPropertyOp47
 70
1
102
RTVSPropertyOp48
 70
1
102
RTVSPropertyOp49
 70
1
102
RTVSPropertyOp50
 70
1
102
RTVSPropertyOp51
 70
0
102
RTVSPropertyOp52
 70
0
102
RTVSPropertyOp53
 70
1
102
RTVSPropertyOp54
 70
1
102
RTVSPropertyOp55
 70
1
102
RTVSPropertyOp56
 70
1
102
RTVSPropertyOp57
 70
1
102
RTVSPropertyOp58
 70
1
102
RTVSPropertyOp59
 70
1
102
RTVSPropertyOp60
 70
1
102
RTVSPropertyOp61
 70
1
102
RTVSPropertyOp62
 70
1
  0
XRECORD
  5
A7C
102
{ACAD_REACTORS
330
A7B
102
}
330
A7B
100
AcDbXrecord
280
1
102
RTVSPost2010Prop28
280
0
102
RTVSPost2010PropOp28
 70
1
102
RTVSPost2010Prop29
280
1
102
RTVSPost2010PropOp29
 70
1
102
RTVSPost2010Prop30
280
1
102
RTVSPost2010PropOp30
 70
1
102
RTVSPost2010Prop31
280
0
102
RTVSPost2010PropOp31
 70
1
102
RTVSPost2010Prop32
280
0
102
RTVSPost2010PropOp32
 70
1
102
RTVSPost2010Prop33
280
0
102
RTVSPost2010PropOp33
 70
1
102
RTVSPost2010Prop34
280
0
102
RTVSPost2010PropOp34
 70
1
102
RTVSPost2010Prop35
280
0
102
RTVSPost2010PropOp35
 70
1
102
RTVSPost2010Prop36
280
0
102
RTVSPost2010PropOp36
 70
1
102
RTVSPost2010Prop37
 90
50
102
RTVSPost2010PropOp37
 70
1
102
RTVSPost2010Prop38
140
0.0
102
RTVSPost2010PropOp38
 70
1
102
RTVSPost2010Prop39
140
1.0
102
RTVSPost2010PropOp39
 70
1
102
RTVSPost2010Prop40
 90
0
102
RTVSPost2010PropOp40
 70
1
102
RTVSPost2010Prop41ColorIndex
 90
18
102
RTVSPost2010Prop41ColorRGB
 90
0
102
RTVSPost2010PropOp41
 70
1
102
RTVSPost2010Prop42
 90
50
102
RTVSPost2010PropOp42
 70
1
102
RTVSPost2010Prop43
 90
3
102
RTVSPost2010PropOp43
 70
1
102
RTVSPost2010Prop44ColorIndex
 90
5
102
RTVSPost2010Prop44ColorRGB
 90
255
102
RTVSPost2010PropOp44
 70
1
102
RTVSPost2010Prop45
280
0
102
RTVSPost2010PropOp45
 70
1
102
RTVSPost2010Prop46
 90
50
102
RTVSPost2010PropOp46
 70
1
102
RTVSPost2010Prop47
 90
50
102
RTVSPost2010PropOp47
 70
1
102
RTVSPost2010Prop48
 90
50
102
RTVSPost2010PropOp48
 70
1
102
RTVSPost2010Prop49
280
0
102
RTVSPost2010PropOp49
 70
1
102
RTVSPost2010Prop50
 90
50
102
RTVSPost2010PropOp50
 70
1
102
RTVSPost2010Prop51ColorIndex
 90
256
102
RTVSPost2010Prop51ColorRGB
 90
-16777216
102
RTVSPost2010PropOp51
 70
0
102
RTVSPost2010Prop52
140
1.0
102
RTVSPost2010PropOp52
 70
0
102
RTVSPost2010Prop53
 90
2
102
RTVSPost2010PropOp53
 70
1
102
RTVSPost2010Prop54
  1
strokes_ogs.tif
102
RTVSPost2010PropOp54
 70
1
102
RTVSPost2010Prop55
280
0
102
RTVSPost2010PropOp55
 70
1
102
RTVSPost2010Prop56
140
1.0
102
RTVSPost2010PropOp56
 70
1
102
RTVSPost2010Prop57
140
1.0
102
RTVSPost2010PropOp57
 70
1
102
RTVSPropertyOp0
 70
1
102
RTVSPropertyOp1
 70
1
102
RTVSPropertyOp2
 70
1
102
RTVSPropertyOp3
 70
1
102
RTVSPropertyOp4
 70
1
102
RTVSPropertyOp5
 70
1
102
RTVSPropertyOp6
 70
1
102
RTVSPropertyOp7
 70
1
102
RTVSPropertyOp8
 70
1
102
RTVSPropertyOp9
 70
1
102
RTVSPropertyOp10
 70
1
102
RTVSPropertyOp11
 70
1
102
RTVSPropertyOp12
 70
1
102
RTVSPropertyOp13
 70
1
102
RTVSPropertyOp14
 70
1
102
RTVSPropertyOp15
 70
1
102
RTVSPropertyOp16
 70
1
102
RTVSPropertyOp17
 70
1
102
RTVSPropertyOp18
 70
1
102
RTVSPropertyOp19
 70
1
102
RTVSPropertyOp20
 70
1
102
RTVSPropertyOp21
 70
1
102
RTVSPropertyOp22
 70
1
102
RTVSPropertyOp23
 70
1
102
RTVSPropertyOp24
 70
1
102
RTVSPropertyOp25
 70
1
102
RTVSPropertyOp26
 70
1
102
RTVSPropertyOp27
 70
1
102
RTVSPropertyOp28
 70
1
102
RTVSPropertyOp29
 70
1
102
RTVSPropertyOp30
 70
1
102
RTVSPropertyOp31
 70
1
102
RTVSPropertyOp32
 70
1
102
RTVSPropertyOp33
 70
1
102
RTVSPropertyOp34
 70
1
102
RTVSPropertyOp35
 70
1
102
RTVSPropertyOp36
 70
1
102
RTVSPropertyOp37
 70
1
102
RTVSPropertyOp38
 70
1
102
RTVSPropertyOp39
 70
1
102
RTVSPropertyOp40
 70
1
102
RTVSPropertyOp41
 70
1
102
RTVSPropertyOp42
 70
1
102
RTVSPropertyOp43
 70
1
102
RTVSPropertyOp44
 70
1
102
RTVSPropertyOp45
 70
1
102
RTVSPropertyOp46
 70
1
102
RTVSPropertyOp47
 70
1
102
RTVSPropertyOp48
 70
1
102
RTVSPropertyOp49
 70
1
102
RTVSPropertyOp50
 70
1
102
RTVSPropertyOp51
 70
0
102
RTVSPropertyOp52
 70
0
102
RTVSPropertyOp53
 70
1
102
RTVSPropertyOp54
 70
1
102
RTVSPropertyOp55
 70
1
102
RTVSPropertyOp56
 70
1
102
RTVSPropertyOp57
 70
1
102
RTVSPropertyOp58
 70
1
102
RTVSPropertyOp59
 70
1
102
RTVSPropertyOp60
 70
1
102
RTVSPropertyOp61
 70
1
102
RTVSPropertyOp62
 70
1
  0
XRECORD
  5
A70
102
{ACAD_REACTORS
330
A6F
102
}
330
A6F
100
AcDbXrecord
280
1
102
RTVSPost2010Prop28
280
0
102
RTVSPost2010PropOp28
 70
1
102
RTVSPost2010Prop29
280
1
102
RTVSPost2010PropOp29
 70
1
102
RTVSPost2010Prop30
280
1
102
RTVSPost2010PropOp30
 70
1
102
RTVSPost2010Prop31
280
0
102
RTVSPost2010PropOp31
 70
1
102
RTVSPost2010Prop32
280
0
102
RTVSPost2010PropOp32
 70
1
102
RTVSPost2010Prop33
280
0
102
RTVSPost2010PropOp33
 70
1
102
RTVSPost2010Prop34
280
0
102
RTVSPost2010PropOp34
 70
1
102
RTVSPost2010Prop35
280
0
102
RTVSPost2010PropOp35
 70
1
102
RTVSPost2010Prop36
280
0
102
RTVSPost2010PropOp36
 70
1
102
RTVSPost2010Prop37
 90
50
102
RTVSPost2010PropOp37
 70
1
102
RTVSPost2010Prop38
140
0.0
102
RTVSPost2010PropOp38
 70
1
102
RTVSPost2010Prop39
140
1.0
102
RTVSPost2010PropOp39
 70
1
102
RTVSPost2010Prop40
 90
0
102
RTVSPost2010PropOp40
 70
1
102
RTVSPost2010Prop41ColorIndex
 90
18
102
RTVSPost2010Prop41ColorRGB
 90
0
102
RTVSPost2010PropOp41
 70
1
102
RTVSPost2010Prop42
 90
50
102
RTVSPost2010PropOp42
 70
1
102
RTVSPost2010Prop43
 90
3
102
RTVSPost2010PropOp43
 70
1
102
RTVSPost2010Prop44ColorIndex
 90
5
102
RTVSPost2010Prop44ColorRGB
 90
255
102
RTVSPost2010PropOp44
 70
1
102
RTVSPost2010Prop45
280
0
102
RTVSPost2010PropOp45
 70
1
102
RTVSPost2010Prop46
 90
50
102
RTVSPost2010PropOp46
 70
1
102
RTVSPost2010Prop47
 90
50
102
RTVSPost2010PropOp47
 70
1
102
RTVSPost2010Prop48
 90
50
102
RTVSPost2010PropOp48
 70
1
102
RTVSPost2010Prop49
280
0
102
RTVSPost2010PropOp49
 70
1
102
RTVSPost2010Prop50
 90
50
102
RTVSPost2010PropOp50
 70
1
102
RTVSPost2010Prop51ColorIndex
 90
256
102
RTVSPost2010Prop51ColorRGB
 90
-16777216
102
RTVSPost2010PropOp51
 70
0
102
RTVSPost2010Prop52
140
1.0
102
RTVSPost2010PropOp52
 70
0
102
RTVSPost2010Prop53
 90
2
102
RTVSPost2010PropOp53
 70
1
102
RTVSPost2010Prop54
  1
strokes_ogs.tif
102
RTVSPost2010PropOp54
 70
1
102
RTVSPost2010Prop55
280
0
102
RTVSPost2010PropOp55
 70
1
102
RTVSPost2010Prop56
140
1.0
102
RTVSPost2010PropOp56
 70
1
102
RTVSPost2010Prop57
140
1.0
102
RTVSPost2010PropOp57
 70
1
102
RTVSPropertyOp0
 70
1
102
RTVSPropertyOp1
 70
1
102
RTVSPropertyOp2
 70
1
102
RTVSPropertyOp3
 70
1
102
RTVSPropertyOp4
 70
1
102
RTVSPropertyOp5
 70
1
102
RTVSPropertyOp6
 70
1
102
RTVSPropertyOp7
 70
1
102
RTVSPropertyOp8
 70
1
102
RTVSPropertyOp9
 70
1
102
RTVSPropertyOp10
 70
1
102
RTVSPropertyOp11
 70
1
102
RTVSPropertyOp12
 70
1
102
RTVSPropertyOp13
 70
1
102
RTVSPropertyOp14
 70
1
102
RTVSPropertyOp15
 70
1
102
RTVSPropertyOp16
 70
1
102
RTVSPropertyOp17
 70
1
102
RTVSPropertyOp18
 70
1
102
RTVSPropertyOp19
 70
1
102
RTVSPropertyOp20
 70
1
102
RTVSPropertyOp21
 70
1
102
RTVSPropertyOp22
 70
1
102
RTVSPropertyOp23
 70
1
102
RTVSPropertyOp24
 70
1
102
RTVSPropertyOp25
 70
1
102
RTVSPropertyOp26
 70
1
102
RTVSPropertyOp27
 70
1
102
RTVSPropertyOp28
 70
1
102
RTVSPropertyOp29
 70
1
102
RTVSPropertyOp30
 70
1
102
RTVSPropertyOp31
 70
1
102
RTVSPropertyOp32
 70
1
102
RTVSPropertyOp33
 70
1
102
RTVSPropertyOp34
 70
1
102
RTVSPropertyOp35
 70
1
102
RTVSPropertyOp36
 70
1
102
RTVSPropertyOp37
 70
1
102
RTVSPropertyOp38
 70
1
102
RTVSPropertyOp39
 70
1
102
RTVSPropertyOp40
 70
1
102
RTVSPropertyOp41
 70
1
102
RTVSPropertyOp42
 70
1
102
RTVSPropertyOp43
 70
1
102
RTVSPropertyOp44
 70
1
102
RTVSPropertyOp45
 70
1
102
RTVSPropertyOp46
 70
1
102
RTVSPropertyOp47
 70
1
102
RTVSPropertyOp48
 70
1
102
RTVSPropertyOp49
 70
1
102
RTVSPropertyOp50
 70
1
102
RTVSPropertyOp51
 70
0
102
RTVSPropertyOp52
 70
0
102
RTVSPropertyOp53
 70
1
102
RTVSPropertyOp54
 70
1
102
RTVSPropertyOp55
 70
1
102
RTVSPropertyOp56
 70
1
102
RTVSPropertyOp57
 70
1
102
RTVSPropertyOp58
 70
1
102
RTVSPropertyOp59
 70
1
102
RTVSPropertyOp60
 70
1
102
RTVSPropertyOp61
 70
1
102
RTVSPropertyOp62
 70
1
  0
XRECORD
  5
A88
102
{ACAD_REACTORS
330
A87
102
}
330
A87
100
AcDbXrecord
280
1
102
RTVSPost2010Prop28
280
0
102
RTVSPost2010PropOp28
 70
1
102
RTVSPost2010Prop29
280
1
102
RTVSPost2010PropOp29
 70
1
102
RTVSPost2010Prop30
280
1
102
RTVSPost2010PropOp30
 70
1
102
RTVSPost2010Prop31
280
0
102
RTVSPost2010PropOp31
 70
1
102
RTVSPost2010Prop32
280
0
102
RTVSPost2010PropOp32
 70
1
102
RTVSPost2010Prop33
280
0
102
RTVSPost2010PropOp33
 70
1
102
RTVSPost2010Prop34
280
0
102
RTVSPost2010PropOp34
 70
1
102
RTVSPost2010Prop35
280
0
102
RTVSPost2010PropOp35
 70
1
102
RTVSPost2010Prop36
280
0
102
RTVSPost2010PropOp36
 70
1
102
RTVSPost2010Prop37
 90
50
102
RTVSPost2010PropOp37
 70
1
102
RTVSPost2010Prop38
140
0.0
102
RTVSPost2010PropOp38
 70
1
102
RTVSPost2010Prop39
140
1.0
102
RTVSPost2010PropOp39
 70
1
102
RTVSPost2010Prop40
 90
0
102
RTVSPost2010PropOp40
 70
1
102
RTVSPost2010Prop41ColorIndex
 90
18
102
RTVSPost2010Prop41ColorRGB
 90
0
102
RTVSPost2010PropOp41
 70
1
102
RTVSPost2010Prop42
 90
50
102
RTVSPost2010PropOp42
 70
1
102
RTVSPost2010Prop43
 90
3
102
RTVSPost2010PropOp43
 70
1
102
RTVSPost2010Prop44ColorIndex
 90
5
102
RTVSPost2010Prop44ColorRGB
 90
255
102
RTVSPost2010PropOp44
 70
1
102
RTVSPost2010Prop45
280
0
102
RTVSPost2010PropOp45
 70
1
102
RTVSPost2010Prop46
 90
50
102
RTVSPost2010PropOp46
 70
1
102
RTVSPost2010Prop47
 90
50
102
RTVSPost2010PropOp47
 70
1
102
RTVSPost2010Prop48
 90
50
102
RTVSPost2010PropOp48
 70
1
102
RTVSPost2010Prop49
280
0
102
RTVSPost2010PropOp49
 70
1
102
RTVSPost2010Prop50
 90
50
102
RTVSPost2010PropOp50
 70
1
102
RTVSPost2010Prop51ColorIndex
 90
256
102
RTVSPost2010Prop51ColorRGB
 90
-16777216
102
RTVSPost2010PropOp51
 70
0
102
RTVSPost2010Prop52
140
1.0
102
RTVSPost2010PropOp52
 70
0
102
RTVSPost2010Prop53
 90
2
102
RTVSPost2010PropOp53
 70
1
102
RTVSPost2010Prop54
  1
strokes_ogs.tif
102
RTVSPost2010PropOp54
 70
1
102
RTVSPost2010Prop55
280
0
102
RTVSPost2010PropOp55
 70
1
102
RTVSPost2010Prop56
140
1.0
102
RTVSPost2010PropOp56
 70
1
102
RTVSPost2010Prop57
140
1.0
102
RTVSPost2010PropOp57
 70
1
102
RTVSPropertyOp0
 70
1
102
RTVSPropertyOp1
 70
1
102
RTVSPropertyOp2
 70
1
102
RTVSPropertyOp3
 70
1
102
RTVSPropertyOp4
 70
1
102
RTVSPropertyOp5
 70
1
102
RTVSPropertyOp6
 70
1
102
RTVSPropertyOp7
 70
1
102
RTVSPropertyOp8
 70
1
102
RTVSPropertyOp9
 70
1
102
RTVSPropertyOp10
 70
1
102
RTVSPropertyOp11
 70
1
102
RTVSPropertyOp12
 70
1
102
RTVSPropertyOp13
 70
1
102
RTVSPropertyOp14
 70
1
102
RTVSPropertyOp15
 70
1
102
RTVSPropertyOp16
 70
1
102
RTVSPropertyOp17
 70
1
102
RTVSPropertyOp18
 70
1
102
RTVSPropertyOp19
 70
1
102
RTVSPropertyOp20
 70
1
102
RTVSPropertyOp21
 70
1
102
RTVSPropertyOp22
 70
1
102
RTVSPropertyOp23
 70
1
102
RTVSPropertyOp24
 70
1
102
RTVSPropertyOp25
 70
1
102
RTVSPropertyOp26
 70
1
102
RTVSPropertyOp27
 70
1
102
RTVSPropertyOp28
 70
1
102
RTVSPropertyOp29
 70
1
102
RTVSPropertyOp30
 70
1
102
RTVSPropertyOp31
 70
1
102
RTVSPropertyOp32
 70
1
102
RTVSPropertyOp33
 70
1
102
RTVSPropertyOp34
 70
1
102
RTVSPropertyOp35
 70
1
102
RTVSPropertyOp36
 70
1
102
RTVSPropertyOp37
 70
1
102
RTVSPropertyOp38
 70
1
102
RTVSPropertyOp39
 70
1
102
RTVSPropertyOp40
 70
1
102
RTVSPropertyOp41
 70
1
102
RTVSPropertyOp42
 70
1
102
RTVSPropertyOp43
 70
1
102
RTVSPropertyOp44
 70
1
102
RTVSPropertyOp45
 70
1
102
RTVSPropertyOp46
 70
1
102
RTVSPropertyOp47
 70
1
102
RTVSPropertyOp48
 70
1
102
RTVSPropertyOp49
 70
1
102
RTVSPropertyOp50
 70
1
102
RTVSPropertyOp51
 70
0
102
RTVSPropertyOp52
 70
0
102
RTVSPropertyOp53
 70
1
102
RTVSPropertyOp54
 70
1
102
RTVSPropertyOp55
 70
1
102
RTVSPropertyOp56
 70
1
102
RTVSPropertyOp57
 70
1
102
RTVSPropertyOp58
 70
1
102
RTVSPropertyOp59
 70
1
102
RTVSPropertyOp60
 70
1
102
RTVSPropertyOp61
 70
1
102
RTVSPropertyOp62
 70
1
  0
DICTIONARY
  5
116B
330
9D2
100
AcDbDictionary
281
1
  3
WRITTEN_BY_EZDXF
350
116C
  0
DICTIONARYVAR
  5
116C
330
116B
100
DictionaryVariables
280
0
  1
0.16.4 @ 2022-09-06T03:35:41.289197+00:00
  0
ENDSEC
  0
EOF
