  0
SECTION
  2
HEADER
  9
$ACADVER
  1
AC1009
  9
$DWGCODEPAGE
  3
dos932
  9
$INSBASE
 10
0
 20
0
 30
0
  9
$EXTMIN
 10
-5.3453885553468128
 20
-7.7732925425234818
 30
0
  9
$EXTMAX
 10
121.93904331316287
 20
82.385501070771028
 30
0
  9
$LIMMIN
 10
0
 20
0
  9
$LIMMAX
 10
105
 20
74.25
  9
$SNAPMODE
 70
0
  9
$SNAPUNIT
 10
1
 20
1
  9
$SNAPBASE
 10
0
 20
0
  9
$SNAPANG
 50
0
  9
$SNAPSTYLE
 70
0
  9
$SNAPISOPAIR
 70
0
  9
$ORTHOMODE
 70
0
  9
$REGENMODE
 70
1
  9
$FILLMODE
 70
1
  9
$QTEXTMODE
 70
0
  9
$MIRRTEXT
 70
0
  9
$LTSCALE
 40
0.25
  9
$OSMODE
 70
37
  9
$ATTMODE
 70
1
  9
$TEXTSIZE
 40
0.2
  9
$TRACEWID
 40
0.05
  9
$TEXTSTYLE
  7
STANDARD
  9
$CLAYER
  8
0
  9
$CELTYPE
  6
CONTINUOUS
  9
$CECOLOR
 62
256
  9
$DIMSCALE
 40
1
  9
$DIMASZ
 40
0.18
  9
$DIMEXO
 40
0.0625
  9
$DIMDLI
 40
0.38
  9
$DIMRND
 40
0
  9
$DIMDLE
 40
0
  9
$DIMEXE
 40
0.18
  9
$DIMTP
 40
0
  9
$DIMTM
 40
0
  9
$DIMTXT
 40
0.18
  9
$DIMCEN
 40
0.09
  9
$DIMTSZ
 40
0
  9
$DIMTOL
 70
0
  9
$DIMLIM
 70
0
  9
$DIMTIH
 70
1
  9
$DIMTOH
 70
1
  9
$DIMSE1
 70
0
  9
$DIMSE2
 70
0
  9
$DIMTAD
 70
0
  9
$DIMZIN
 70
0
  9
$DIMBLK
  1

  9
$DIMASO
 70
1
  9
$DIMSHO
 70
1
  9
$DIMPOST
  1

  9
$DIMAPOST
  1

  9
$DIMALT
 70
0
  9
$DIMALTD
 70
2
  9
$DIMALTF
 40
25.4
  9
$DIMLFAC
 40
1
  9
$DIMTOFL
 70
0
  9
$DIMTVP
 40
0
  9
$DIMTIX
 70
0
  9
$DIMSOXD
 70
0
  9
$DIMSAH
 70
0
  9
$DIMBLK1
  1

  9
$DIMBLK2
  1

  9
$DIMSTYLE
  2
STANDARD
  9
$DIMCLRD
 70
0
  9
$DIMCLRE
 70
0
  9
$DIMCLRT
 70
0
  9
$DIMTFAC
 40
1
  9
$DIMGAP
 40
0.09
  9
$LUNITS
 70
2
  9
$LUPREC
 70
4
  9
$SKETCHINC
 40
0.1
  9
$FILLETRAD
 40
0
  9
$AUNITS
 70
0
  9
$AUPREC
 70
0
  9
$MENU
  1
.
  9
$ELEVATION
 40
0
  9
$PELEVATION
 40
0
  9
$THICKNESS
 40
0
  9
$LIMCHECK
 70
0
  9
$CHAMFERA
 40
0
  9
$CHAMFERB
 40
0
  9
$SKPOLY
 70
0
  9
$TDCREATE
 40
2456099.4260040624
  9
$TDUPDATE
 40
2458283.4255741206
  9
$TDINDWG
 40
0.19131170138888889
  9
$TDUSRTIMER
 40
0.19131005787037037
  9
$USRTIMER
 70
1
  9
$ANGBASE
 50
0
  9
$ANGDIR
 70
0
  9
$PDMODE
 70
0
  9
$PDSIZE
 40
0
  9
$PLINEWID
 40
0
  9
$SPLFRAME
 70
0
  9
$SPLINETYPE
 70
6
  9
$SPLINESEGS
 70
8
  9
$HANDLING
 70
1
  9
$HANDSEED
  5
3A3F5
  9
$SURFTAB1
 70
6
  9
$SURFTAB2
 70
6
  9
$SURFTYPE
 70
6
  9
$SURFU
 70
6
  9
$SURFV
 70
6
  9
$UCSORG
 10
0
 20
0
 30
0
  9
$UCSXDIR
 10
1
 20
0
 30
0
  9
$UCSYDIR
 10
0
 20
1
 30
0
  9
$PUCSORG
 10
0
 20
0
 30
0
  9
$PUCSXDIR
 10
1
 20
0
 30
0
  9
$PUCSYDIR
 10
0
 20
1
 30
0
  9
$USERI1
 70
0
  9
$USERI2
 70
0
  9
$USERI3
 70
0
  9
$USERI4
 70
0
  9
$USERI5
 70
0
  9
$USERR1
 40
0
  9
$USERR2
 40
0
  9
$USERR3
 40
0
  9
$USERR4
 40
0
  9
$USERR5
 40
0
  9
$WORLDVIEW
 70
1
  9
$SHADEDGE
 70
3
  9
$SHADEDIF
 70
70
  9
$TILEMODE
 70
1
  9
$MAXACTVP
 70
64
  9
$PINSBASE
 10
0
 20
0
 30
0
  9
$PLIMCHECK
 70
0
  9
$PEXTMIN
 10
1E+20
 20
1E+20
 30
1E+20
  9
$PEXTMAX
 10
-1E+20
 20
-1E+20
 30
-1E+20
  9
$PLIMMAX
 10
12
 20
9
  9
$PLIMMIN
 10
0
 20
0
  9
$UNITMODE
 70
0
  9
$VISRETAIN
 70
1
  9
$PLINEGEN
 70
0
  9
$PSLTSCALE
 70
1
  9
$TREEDEPTH
 70
3020
  9
$DRAGMODE
 70
     2
  9
$BLIPMODE
 70
     0
  9
$COORDS
 70
     1
  9
$ATTDIA
 70
     0
  9
$ATTREQ
 70
     1
  0
ENDSEC
  0
SECTION
  2
TABLES
  0
TABLE
  2
VPORT
  5
3A3E7
 70
1
  0
VPORT
  5
3A3BB
  2
*ACTIVE
 70
0
 10
0
 20
0
 11
1
 21
1
 12
99.333377977351859
 22
97.355140243818923
 13
0
 23
0
 14
1
 24
1
 15
0
 25
0
 16
0
 26
0
 36
1
 17
0
 27
0
 37
0
 40
452.69079935541862
 41
1.161073825503355
 42
50
 43
0
 44
0
 50
0
 51
0
 71
0
 72
100
 73
1
 74
1
 75
0
 76
0
 77
0
 78
0
  0
ENDTAB
  0
TABLE
  2
LTYPE
  5
3A3E8
 70
39
  0
LTYPE
  5
3A392
  2
CONTINUOUS
  3
実線
 70
0
 72
65
 73
0
 40
0
  0
LTYPE
  5
3A393
  2
DASHED1
  3
--  --  --  --  --  --  --  --  
 70
0
 72
65
 73
2
 40
2.5
 49
1.25
 49
-1.25
  0
LTYPE
  5
3A394
  2
DASHED2
  3
----    ----    ----    ----    
 70
0
 72
65
 73
2
 40
5
 49
2.5
 49
-2.5
  0
LTYPE
  5
3A395
  2
DASHED3
  3
------  ------  ------  ------  
 70
0
 72
65
 73
2
 40
5
 49
3.75
 49
-1.25
  0
LTYPE
  5
3A396
  2
CENTER1
  3
----- - ----- - ----- - ----- - 
 70
0
 72
65
 73
4
 40
10
 49
6.25
 49
-1.25
 49
1.25
 49
-1.25
  0
LTYPE
  5
3A397
  2
CENTER2
  3
----------  --  ----------  --  
 70
0
 72
65
 73
4
 40
20
 49
12.5
 49
-2.5
 49
2.5
 49
-2.5
  0
LTYPE
  5
3A398
  2
PHANTOM1
  3
--- - - --- - - --- - - --- - - 
 70
0
 72
65
 73
6
 40
9.5
 49
3.25
 49
-1.25
 49
1.25
 49
-1.25
 49
1.25
 49
-1.25
  0
LTYPE
  5
3A399
  2
PHANTOM2
  3
--------  -  -  --------  -  -  
 70
0
 72
65
 73
6
 40
20
 49
10
 49
-2.5
 49
1.25
 49
-2.5
 49
1.25
 49
-2.5
  0
LTYPE
  5
3A39A
  2
DOT
  3
-   -   -   -   -   -   -   -   
 70
0
 72
65
 73
2
 40
2.5
 49
0.625
 49
-1.875
  0
LTYPE
  5
3A39B
  2
DUMMY
  3
ダミー
 70
0
 72
65
 73
0
 40
0
  0
LTYPE
  5
3A39C
  2
RAND1
  3
ランダム線1
 70
0
 72
65
 73
4
 40
10
 49
1
 49
-2
 49
3
 49
-4
  0
LTYPE
  5
3A39D
  2
RAND2
  3
ランダム線2
 70
0
 72
65
 73
4
 40
14
 49
2
 49
-3
 49
4
 49
-5
  0
LTYPE
  5
3A39E
  2
RAND3
  3
ランダム線3
 70
0
 72
65
 73
4
 40
18
 49
3
 49
-4
 49
5
 49
-6
  0
LTYPE
  5
3A39F
  2
RAND4
  3
ランダム線4
 70
0
 72
65
 73
4
 40
22
 49
4
 49
-5
 49
6
 49
-7
  0
LTYPE
  5
3A3A0
  2
RAND5
  3
ランダム線5
 70
0
 72
65
 73
4
 40
26
 49
5
 49
-6
 49
7
 49
-8
  0
LTYPE
  5
3A3A1
  2
LONG1
  3
----------  --  ----------  --  
 70
0
 72
65
 73
4
 40
40
 49
32.5
 49
-2.5
 49
2.5
 49
-2.5
  0
LTYPE
  5
3A3A2
  2
LONG2
  3
--------  -  -  --------  -  -  
 70
0
 72
65
 73
6
 40
40
 49
30
 49
-2.5
 49
1.25
 49
-2.5
 49
1.25
 49
-2.5
  0
LTYPE
  5
3A3A3
  2
LONG3
  3
+++++++++++++++..+++++++++++++++
 70
0
 72
65
 73
2
 40
40
 49
37.5
 49
-2.5
  0
LTYPE
  5
3A3A4
  2
LONG4
  3
+++++++++++++++..+++++++++++++++
 70
0
 72
65
 73
2
 40
80
 49
75
 49
-5
  0
LTYPE
  5
3A3A5
  2
LONG5
  3
----------  --  ----------  --  
 70
0
 72
65
 73
4
 40
60
 49
37.5
 49
-7.5
 49
7.5
 49
-7.5
  0
LTYPE
  5
3A3A6
  2
DASHED
  3
-------   -------------   ------
 70
0
 72
65
 73
2
 40
7.5
 49
6
 49
-1.5
  0
LTYPE
  5
3A3A7
  2
DASHED_SPACED
  3
----        --------        ----
 70
0
 72
65
 73
2
 40
12
 49
6
 49
-6
  0
LTYPE
  5
3A3A8
  2
LONG_DASHED_DOTTED
  3
------------- --- --------------
 70
0
 72
65
 73
4
 40
15.25
 49
12
 49
-1.5
 49
0.25
 49
-1.5
  0
LTYPE
  5
3A3A9
  2
LONG_DASHED_DOUBLE-DOTTED
  3
----------- --- --- ------------
 70
0
 72
65
 73
6
 40
17
 49
12
 49
-1.5
 49
0.25
 49
-1.5
 49
0.25
 49
-1.5
  0
LTYPE
  5
3A3AA
  2
LONG_DASHED_TRIPLICATE-DOT
  3
--------- --- --- --- ----------
 70
0
 72
65
 73
8
 40
18.75
 49
12
 49
-1.5
 49
0.25
 49
-1.5
 49
0.25
 49
-1.5
 49
0.25
 49
-1.5
  0
LTYPE
  5
3A3AB
  2
DOTTED
  3
   -       -       -       -    
 70
0
 72
65
 73
2
 40
1.75
 49
0.25
 49
-1.5
  0
LTYPE
  5
3A3AC
  2
CHAIN
  3
-------------- -- --------------
 70
0
 72
65
 73
4
 40
18.5
 49
12
 49
-1.5
 49
3.5
 49
-1.5
  0
LTYPE
  5
3A3AD
  2
CHAIN_DOUBLE_DASH
  3
------------ -- -- -------------
 70
0
 72
65
 73
6
 40
23.5
 49
12
 49
-1.5
 49
3.5
 49
-1.5
 49
3.5
 49
-1.5
  0
LTYPE
  5
3A3AE
  2
DASHED_DOTTED
  3
-----------     -     ----------
 70
0
 72
65
 73
4
 40
9.25
 49
6
 49
-1.5
 49
0.25
 49
-1.5
  0
LTYPE
  5
3A3AF
  2
DOUBLE-DASHED_DOTTED
  3
------   -----------   -   -----
 70
0
 72
65
 73
6
 40
16.75
 49
6
 49
-1.5
 49
6
 49
-1.5
 49
0.25
 49
-1.5
  0
LTYPE
  5
3A3B0
  2
DASHED_DOUBLE-DOTTED
  3
---------    -    -    ---------
 70
0
 72
65
 73
6
 40
11
 49
6
 49
-1.5
 49
0.25
 49
-1.5
 49
0.25
 49
-1.5
  0
LTYPE
  5
3A3B1
  2
DOUBLE-DASHED_DOUBLE-DOTTE
  3
-----   ---------   -   -   ----
 70
0
 72
65
 73
8
 40
18.5
 49
6
 49
-1.5
 49
6
 49
-1.5
 49
0.25
 49
-1.5
 49
0.25
 49
-1.5
  0
LTYPE
  5
3A3B2
  2
DASHED_TRIPLICATE-DOTTED
  3
-------    -    -    -    ------
 70
0
 72
65
 73
8
 40
12.75
 49
6
 49
-1.5
 49
0.25
 49
-1.5
 49
0.25
 49
-1.5
 49
0.25
 49
-1.5
  0
LTYPE
  5
3A3B3
  2
DOUBLE-DASHED_TRIPLICATE-D
  3
-----  ---------  -  -  -  -----
 70
0
 72
65
 73
10
 40
20.25
 49
6
 49
-1.5
 49
6
 49
-1.5
 49
0.25
 49
-1.5
 49
0.25
 49
-1.5
 49
0.25
 49
-1.5
  0
LTYPE
  5
3A3B4
  2
UNDEFINED
  3
--------------------------------
 70
0
 72
65
 73
0
 40
0
  0
LTYPE
  5
3A3B5
  2
CENTER
  3
----------    ----    ----------
 70
0
 72
65
 73
4
 40
0.59999999999999964
 49
0.375
 49
-0.0749999999999999
 49
0.0749999999999999
 49
-0.0749999999999999
  0
LTYPE
  5
3A3B6
  2
PHANTOM
  3
---------  ----  ----  ---------
 70
0
 72
65
 73
6
 40
0.8
 49
0.45
 49
-0.05
 49
0.1
 49
-0.05
 49
0.1
 49
-0.05
  0
LTYPE
  5
3A3B7
  2
ByBlock
  3

 70
64
 72
65
 73
0
 40
0
  0
LTYPE
  5
3A3B8
  2
ByLayer
  3

 70
64
 72
65
 73
0
 40
0
  0
ENDTAB
  0
TABLE
  2
LAYER
  5
3A3E9
 70
3
  0
LAYER
  5
3A36E
 70
0
  2
0
 62
7
  6
CONTINUOUS
  0
LAYER
  5
3A36F
 70
0
  2
レイヤー_1
 62
7
  6
CONTINUOUS
  0
LAYER
  5
3A370
 70
0
  2
SPEC
 62
7
  6
CONTINUOUS
  0
ENDTAB
  0
TABLE
  2
STYLE
  5
3A3EA
 70
3
  0
STYLE
  5
3A38F
  2
STANDARD
 70
0
 40
0
 41
1
 50
0
 71
0
 42
0.2
  3
txt.shx
  4
extfont2.shx
  0
STYLE
  5
3A390
  2
ANNOTATIVE
 70
0
 40
0
 41
1
 50
0
 71
0
 42
0.2
  3
txt
  0
STYLE
  5
3A391
  2
TATEGAKI
 70
4
 40
0
 41
1
 50
0
 71
0
 42
1
  3
txt
  4
bigfont.shx
  0
ENDTAB
  0
TABLE
  2
APPID
  5
3A3ED
 70
4
  0
APPID
  5
3A3EE
  2
ACAD
 70
0
  0
APPID
  5
3A3F1
  2
ACADANNOTATIVE
 70
0
  0
APPID
  5
3A3F2
  2
ACAD_MLEADERVER
 70
0
  0
APPID
  5
3A3F3
  2
ACAD_EXEMPT_FROM_CAD_STANDARDS
 70
0
  0
ENDTAB
  0
TABLE
  2
DIMSTYLE
  5
3A3EF
 70
2
  0
DIMSTYLE
105
3A3B9
  2
STANDARD
 70
0
  3

  4

  5

  6

  7

 40
1
 41
0.18
 42
0.0625
 43
0.38
 44
0.18
 45
0
 46
0
 47
0
 48
0
140
0.18
141
0.09
142
0
143
25.4
144
1
145
0
146
1
147
0.09
 71
0
 72
0
 73
1
 74
1
 75
0
 76
0
 77
0
 78
0
170
0
171
2
172
0
173
0
174
0
175
0
176
0
177
0
178
0
  0
DIMSTYLE
105
3A3BA
  2
ANNOTATIVE
 70
0
  3

  4

  5

  6

  7

 40
1
 41
0.18
 42
0.0625
 43
0.38
 44
0.18
 45
0
 46
0
 47
0
 48
0
140
0.18
141
0.09
142
0
143
25.4
144
1
145
0
146
1
147
0.09
 71
0
 72
0
 73
1
 74
1
 75
0
 76
0
 77
0
 78
0
170
0
171
2
172
0
173
0
174
0
175
0
176
0
177
0
178
0
  0
ENDTAB
  0
ENDSEC
  0
SECTION
  2
BLOCKS
  0
BLOCK
  5
3A372
  8
0
  2
$MODEL_SPACE
 70
0
 10
0
 20
0
 30
0
  3
$MODEL_SPACE
  0
ENDBLK
  5
39B67
  8
0
  0
BLOCK
  5
3A374
  8
0
 67
1
  2
$PAPER_SPACE
 70
0
 10
0
 20
0
 30
0
  3
$PAPER_SPACE
  0
ENDBLK
  5
39B63
  8
0
  0
BLOCK
  5
3A376
  8
0
  2
BLOCK_10
 70
0
 10
0
 20
0
 30
0
  3
BLOCK_10
  0
POLYLINE
  5
357D1
  8
レイヤー_1
 62
7
 66
1
 70
0
 10
0
 20
0
 30
0
  0
VERTEX
  5
39BB2
  8
レイヤー_1
 62
7
 10
141.80013017288331
 20
275.87256666280268
 70
0
  0
VERTEX
  5
39BB3
  8
レイヤー_1
 62
7
 10
141.80013017288331
 20
275.9893553997527
 70
0
  0
SEQEND
  5
39BB4
  8
0
  0
POLYLINE
  5
357D5
  8
レイヤー_1
 62
7
 66
1
 70
0
 10
0
 20
0
 30
0
  0
VERTEX
  5
39BB5
  8
レイヤー_1
 62
7
 10
141.80013017288331
 20
276.047922023002
 70
0
  0
VERTEX
  5
39BB6
  8
レイヤー_1
 62
7
 10
139.34791120648251
 20
275.356319104338
 70
0
  0
SEQEND
  5
39BB7
  8
0
  0
POLYLINE
  5
357D9
  8
レイヤー_1
 66
1
 70
0
 10
0
 20
0
 30
0
  0
VERTEX
  5
39BB8
  8
レイヤー_1
 10
8.2733968078274867
 20
149.5586574604402
 70
0
  0
VERTEX
  5
39BB9
  8
レイヤー_1
 10
187.31156408077629
 20
149.5586574604402
 70
0
  0
VERTEX
  5
39BBA
  8
レイヤー_1
 10
187.31156408077629
 20
276.48458787575731
 70
0
  0
VERTEX
  5
39BBB
  8
レイヤー_1
 10
8.2733968078274867
 20
276.48458787575731
 70
0
  0
VERTEX
  5
39BBC
  8
レイヤー_1
 10
8.2733968078274867
 20
149.5586574604402
 70
0
  0
SEQEND
  5
39BBD
  8
0
  0
ENDBLK
  5
357E0
  8
0
  0
BLOCK
  5
3A378
  8
0
  2
BLOCK_13
 70
0
 10
0
 20
0
 30
0
  3
BLOCK_13
  0
POLYLINE
  5
357E3
  8
レイヤー_1
 62
7
 66
1
 70
0
 10
0
 20
0
 30
0
  0
VERTEX
  5
39BBE
  8
レイヤー_1
 62
7
 10
141.9093396997657
 20
275.9616223810965
 70
0
  0
VERTEX
  5
39BBF
  8
レイヤー_1
 62
7
 10
141.9093396997657
 20
273.4391234667965
 70
0
  0
SEQEND
  5
39BC0
  8
0
  0
POLYLINE
  5
357E7
  8
レイヤー_1
 62
7
 66
1
 70
0
 10
0
 20
0
 30
0
  0
VERTEX
  5
39BC1
  8
レイヤー_1
 62
7
 10
141.88935814595129
 20
273.4293049446635
 70
0
  0
VERTEX
  5
39BC2
  8
レイヤー_1
 62
7
 10
141.88935814595129
 20
275.95180385896327
 70
0
  0
SEQEND
  5
39BC3
  8
0
  0
POLYLINE
  5
357EB
  8
レイヤー_1
 66
1
 70
0
 10
0
 20
0
 30
0
  0
VERTEX
  5
39BC4
  8
レイヤー_1
 10
8.2733968078274867
 20
149.5586574604402
 70
0
  0
VERTEX
  5
39BC5
  8
レイヤー_1
 10
187.31156408077629
 20
149.5586574604402
 70
0
  0
VERTEX
  5
39BC6
  8
レイヤー_1
 10
187.31156408077629
 20
276.48458787575731
 70
0
  0
VERTEX
  5
39BC7
  8
レイヤー_1
 10
8.2733968078274867
 20
276.48458787575731
 70
0
  0
VERTEX
  5
39BC8
  8
レイヤー_1
 10
8.2733968078274867
 20
149.5586574604402
 70
0
  0
SEQEND
  5
39BC9
  8
0
  0
ENDBLK
  5
357F2
  8
0
  0
BLOCK
  5
3A37A
  8
0
  2
BLOCK_9
 70
0
 10
0
 20
0
 30
0
  3
BLOCK_9
  0
POLYLINE
  5
3582F
  8
レイヤー_1
 62
7
 66
1
 70
0
 10
0
 20
0
 30
0
  0
VERTEX
  5
39BCA
  8
レイヤー_1
 62
7
 10
142.08814015545019
 20
275.94060729863639
 70
0
  0
VERTEX
  5
39BCB
  8
レイヤー_1
 62
7
 10
142.1277587535304
 20
275.92114250914472
 70
0
  0
SEQEND
  5
39BCC
  8
0
  0
POLYLINE
  5
35833
  8
レイヤー_1
 62
7
 66
1
 70
0
 10
0
 20
0
 30
0
  0
VERTEX
  5
39BCD
  8
レイヤー_1
 62
7
 10
142.08814015545019
 20
275.94060729863639
 70
0
  0
VERTEX
  5
39BCE
  8
レイヤー_1
 62
7
 10
141.82011172669769
 20
276.04774976822767
 70
0
  0
SEQEND
  5
39BCF
  8
0
  0
POLYLINE
  5
35837
  8
レイヤー_1
 62
7
 66
1
 70
0
 10
0
 20
0
 30
0
  0
VERTEX
  5
39BD0
  8
レイヤー_1
 62
7
 10
141.77050235171009
 20
275.99900166711137
 70
0
  0
VERTEX
  5
39BD1
  8
レイヤー_1
 62
7
 10
141.77050235171009
 20
275.88221293016142
 70
0
  0
SEQEND
  5
39BD2
  8
0
  0
POLYLINE
  5
3583B
  8
レイヤー_1
 66
1
 70
0
 10
0
 20
0
 30
0
  0
VERTEX
  5
39BD3
  8
レイヤー_1
 10
8.2733968078274867
 20
149.5586574604402
 70
0
  0
VERTEX
  5
39BD4
  8
レイヤー_1
 10
187.31156408077629
 20
149.5586574604402
 70
0
  0
VERTEX
  5
39BD5
  8
レイヤー_1
 10
187.31156408077629
 20
276.48458787575731
 70
0
  0
VERTEX
  5
39BD6
  8
レイヤー_1
 10
8.2733968078274867
 20
276.48458787575731
 70
0
  0
VERTEX
  5
39BD7
  8
レイヤー_1
 10
8.2733968078274867
 20
149.5586574604402
 70
0
  0
SEQEND
  5
39BD8
  8
0
  0
ENDBLK
  5
35842
  8
0
  0
BLOCK
  5
3A37C
  8
0
  2
BLOCK_11
 70
0
 10
0
 20
0
 30
0
  3
BLOCK_11
  0
POLYLINE
  5
35845
  8
レイヤー_1
 62
7
 66
1
 70
0
 10
0
 20
0
 30
0
  0
VERTEX
  5
39BD9
  8
レイヤー_1
 62
7
 10
141.82011172669769
 20
276.047922023002
 70
0
  0
VERTEX
  5
39BDA
  8
レイヤー_1
 62
7
 10
141.8101209497905
 20
276.047922023002
 70
0
  0
VERTEX
  5
39BDB
  8
レイヤー_1
 62
7
 10
141.80013017288331
 20
276.047922023002
 70
0
  0
SEQEND
  5
39BDC
  8
0
  0
POLYLINE
  5
3584A
  8
レイヤー_1
 62
7
 66
1
 70
0
 10
0
 20
0
 30
0
  0
VERTEX
  5
39BDD
  8
レイヤー_1
 62
7
 10
141.80013017288331
 20
276.047922023002
 70
0
  0
VERTEX
  5
39BDE
  8
レイヤー_1
 62
7
 10
141.790139395976
 20
276.03827575564321
 70
0
  0
VERTEX
  5
39BDF
  8
レイヤー_1
 62
7
 10
141.7801486190688
 20
276.02845723351032
 70
0
  0
VERTEX
  5
39BE0
  8
レイヤー_1
 62
7
 10
141.77050235171009
 20
276.01881096615148
 70
0
  0
VERTEX
  5
39BE1
  8
レイヤー_1
 62
7
 10
141.77050235171009
 20
275.99934617665991
 70
0
  0
SEQEND
  5
39BE2
  8
0
  0
POLYLINE
  5
35851
  8
レイヤー_1
 66
1
 70
0
 10
0
 20
0
 30
0
  0
VERTEX
  5
39BE3
  8
レイヤー_1
 10
8.2733968078274867
 20
149.5586574604402
 70
0
  0
VERTEX
  5
39BE4
  8
レイヤー_1
 10
187.31156408077629
 20
149.5586574604402
 70
0
  0
VERTEX
  5
39BE5
  8
レイヤー_1
 10
187.31156408077629
 20
276.48458787575731
 70
0
  0
VERTEX
  5
39BE6
  8
レイヤー_1
 10
8.2733968078274867
 20
276.48458787575731
 70
0
  0
VERTEX
  5
39BE7
  8
レイヤー_1
 10
8.2733968078274867
 20
149.5586574604402
 70
0
  0
SEQEND
  5
39BE8
  8
0
  0
ENDBLK
  5
35858
  8
0
  0
BLOCK
  5
3A37E
  8
0
  2
BLOCK_12
 70
0
 10
0
 20
0
 30
0
  3
BLOCK_12
  0
POLYLINE
  5
3585B
  8
レイヤー_1
 62
7
 66
1
 70
0
 10
0
 20
0
 30
0
  0
VERTEX
  5
39BE9
  8
レイヤー_1
 62
7
 10
141.83974877096361
 20
276.00037970530548
 70
0
  0
VERTEX
  5
39BEA
  8
レイヤー_1
 62
7
 10
141.80013017288331
 20
275.9907334379468
 70
0
  0
SEQEND
  5
39BEB
  8
0
  0
POLYLINE
  5
3585F
  8
レイヤー_1
 66
1
 70
0
 10
0
 20
0
 30
0
  0
VERTEX
  5
39BEC
  8
レイヤー_1
 10
8.2733968078274867
 20
149.5586574604402
 70
0
  0
VERTEX
  5
39BED
  8
レイヤー_1
 10
187.31156408077629
 20
149.5586574604402
 70
0
  0
VERTEX
  5
39BEE
  8
レイヤー_1
 10
187.31156408077629
 20
276.48458787575731
 70
0
  0
VERTEX
  5
39BEF
  8
レイヤー_1
 10
8.2733968078274867
 20
276.48458787575731
 70
0
  0
VERTEX
  5
39BF0
  8
レイヤー_1
 10
8.2733968078274867
 20
149.5586574604402
 70
0
  0
SEQEND
  5
39BF1
  8
0
  0
ENDBLK
  5
35866
  8
0
  0
BLOCK
  5
3A380
  8
0
  2
SPECMY-WH450430NAHTN
 70
64
 10
0
 20
0
 30
0
  3
SPECMY-WH450430NAHTN
  0
TEXT
  5
3A381
  8
SPEC
 10
0
 20
0
 30
0
 40
1.5
  1
Myｼﾘｰｽﾞ 昼白色(5000K) Ra85
  7
STANDARD
  0
TEXT
  5
3A382
  8
SPEC
 10
0
 20
-3
 30
0
 40
1.5
  1
100V~242V共用ﾀｲﾌﾟ
  7
STANDARD
  0
TEXT
  5
3A383
  8
SPEC
 10
0
 20
-6
 30
0
 40
1.5
  1
本体:鋼板･白色仕上
  7
STANDARD
  0
TEXT
  5
3A384
  8
SPEC
 10
0
 20
-9
 30
0
 40
1.5
  1
光源寿命:40,000時間
  7
STANDARD
  0
TEXT
  5
3A385
  8
SPEC
 10
0
 20
-12
 30
0
 40
1.5
  1
光束:4990lm 消費電力:32.5W 消費効率:153.5lm/W
  7
STANDARD
  0
ENDBLK
  5
3A386
  8
0
  0
BLOCK
  5
3A388
  8
0
  2
*MODEL_SPACE
 70
64
 10
0
 20
0
 30
0
  3
*MODEL_SPACE
  0
ENDBLK
  5
3A38B
  8
0
  0
BLOCK
  5
3A38D
  8
0
 67
1
  2
*PAPER_SPACE
 70
64
 10
0
 20
0
 30
0
  3
*PAPER_SPACE
  0
ENDBLK
  5
3A38E
  8
0
  0
ENDSEC
  0
SECTION
  2
ENTITIES
  0
TEXT
  5
A2
  8
0
 62
7
 10
-5.7978860025500873
 20
76.874997361698718
 30
0
 40
4.5
  1
My40形 笠付WP
 41
0.96982639999999987
  7
STANDARD
  0
TEXT
  5
A3
  8
0
 62
7
 10
-5.7978860025500873
 20
-7.124997638301215
 30
0
 40
4.5
  1
三菱　MY-WH450430/N
 41
0.9893333
  7
STANDARD
  0
POLYLINE
  5
3887C
  8
0
 62
7
 66
1
 70
0
 10
0
 20
0
 30
0
  0
VERTEX
  5
39BF2
  8
0
 62
7
 10
31.088574460410541
 20
38.611502334448289
 70
0
  0
VERTEX
  5
39BF3
  8
0
 62
7
 10
72.99540496208661
 20
21.74672640550477
 70
0
  0
SEQEND
  5
39BF4
  8
0
  0
POLYLINE
  5
38880
  8
0
 62
7
 66
1
 70
0
 10
0
 20
0
 30
0
  0
VERTEX
  5
39BF5
  8
0
 62
7
 10
67.373009130158891
 20
20.15130268628559
 70
0
  0
VERTEX
  5
39BF6
  8
0
 62
7
 10
25.465834118934279
 20
37.016078615229112
 70
0
  0
SEQEND
  5
39BF7
  8
0
  0
POLYLINE
  5
38884
  8
0
 62
7
 66
1
 70
0
 10
0
 20
0
 30
0
  0
VERTEX
  5
39BF8
  8
0
 62
7
 10
29.610973006786882
 20
42.164601563160687
 70
0
  0
VERTEX
  5
39BF9
  8
0
 62
7
 10
71.518148018011459
 20
25.309471901575879
 70
0
  0
SEQEND
  5
39BFA
  8
0
  0
POLYLINE
  5
38888
  8
0
 62
7
 66
1
 70
0
 10
0
 20
0
 30
0
  0
VERTEX
  5
39BFB
  8
0
 62
7
 10
71.527794285370192
 20
25.280188589951251
 70
0
  0
VERTEX
  5
39BFC
  8
0
 62
7
 10
71.527794285370192
 20
22.686376199106661
 70
0
  0
SEQEND
  5
39BFD
  8
0
  0
POLYLINE
  5
3888C
  8
0
 62
7
 66
1
 70
0
 10
0
 20
0
 30
0
  0
VERTEX
  5
39BFE
  8
0
 62
7
 10
71.537785062277408
 20
22.686376199106661
 70
0
  0
VERTEX
  5
39BFF
  8
0
 62
7
 10
72.638493069814729
 20
21.991328184957531
 70
0
  0
SEQEND
  5
39C00
  8
0
  0
POLYLINE
  5
38890
  8
0
 62
7
 66
1
 70
0
 10
0
 20
0
 30
0
  0
VERTEX
  5
39C01
  8
0
 62
7
 10
29.600982229879659
 20
42.164601563160687
 70
0
  0
VERTEX
  5
39C02
  8
0
 62
7
 10
26.993044947545531
 20
41.43045171525398
 70
0
  0
SEQEND
  5
39C03
  8
0
  0
POLYLINE
  5
38894
  8
0
 62
7
 66
1
 70
0
 10
0
 20
0
 30
0
  0
VERTEX
  5
39C04
  8
0
 62
7
 10
29.620619274145579
 20
39.541333605917259
 70
0
  0
VERTEX
  5
39C05
  8
0
 62
7
 10
31.088574460410541
 20
38.631139378714252
 70
0
  0
SEQEND
  5
39C06
  8
0
  0
POLYLINE
  5
38898
  8
0
 62
7
 66
1
 70
0
 10
0
 20
0
 30
0
  0
VERTEX
  5
39C07
  8
0
 62
7
 10
29.620619274145579
 20
39.551152128050212
 70
0
  0
VERTEX
  5
39C08
  8
0
 62
7
 10
29.620619274145579
 20
42.1449645188948
 70
0
  0
SEQEND
  5
39C09
  8
0
  0
POLYLINE
  5
3889C
  8
0
 62
7
 66
1
 70
0
 10
0
 20
0
 30
0
  0
VERTEX
  5
39C0A
  8
0
 62
7
 10
29.600982229879659
 20
42.135145996761828
 70
0
  0
VERTEX
  5
39C0B
  8
0
 62
7
 10
29.600982229879659
 20
39.541333605917259
 70
0
  0
SEQEND
  5
39C0C
  8
0
  0
POLYLINE
  5
388A0
  8
0
 62
7
 66
1
 70
0
 10
0
 20
0
 30
0
  0
VERTEX
  5
39C0D
  8
0
 62
7
 10
29.600982229879659
 20
42.1449645188948
 70
0
  0
VERTEX
  5
39C0E
  8
0
 62
7
 10
26.993044947545531
 20
41.4109869257623
 70
0
  0
SEQEND
  5
39C0F
  8
0
  0
POLYLINE
  5
388A4
  8
0
 62
7
 66
1
 70
0
 10
0
 20
0
 30
0
  0
VERTEX
  5
39C10
  8
0
 62
7
 10
29.610973006786882
 20
39.5218688164256
 70
0
  0
VERTEX
  5
39C11
  8
0
 62
7
 10
31.088574460410541
 20
38.611502334448289
 70
0
  0
SEQEND
  5
39C12
  8
0
  0
POLYLINE
  5
388A8
  8
0
 62
7
 66
1
 70
0
 10
0
 20
0
 30
0
  0
VERTEX
  5
39C13
  8
0
 62
7
 10
67.412627728239244
 20
20.170767475777239
 70
0
  0
VERTEX
  5
39C14
  8
0
 62
7
 10
68.295261191560243
 20
21.208257981160241
 70
0
  0
SEQEND
  5
39C15
  8
0
  0
POLYLINE
  5
388AC
  8
0
 62
7
 66
1
 70
0
 10
0
 20
0
 30
0
  0
VERTEX
  5
39C16
  8
0
 62
7
 10
26.963072616823869
 20
38.797537490651791
 70
0
  0
VERTEX
  5
39C17
  8
0
 62
7
 10
26.963072616823869
 20
41.391349881496389
 70
0
  0
SEQEND
  5
39C18
  8
0
  0
POLYLINE
  5
388B0
  8
0
 62
7
 66
1
 70
0
 10
0
 20
0
 30
0
  0
VERTEX
  5
39C19
  8
0
 62
7
 10
26.9830541706383
 20
41.391349881496389
 70
0
  0
VERTEX
  5
39C1A
  8
0
 62
7
 10
26.9830541706383
 20
38.807183758010517
 70
0
  0
SEQEND
  5
39C1B
  8
0
  0
POLYLINE
  5
388B4
  8
0
 62
7
 66
1
 70
0
 10
0
 20
0
 30
0
  0
VERTEX
  5
39C1C
  8
0
 62
7
 10
30.949392602806459
 20
38.738798612628273
 70
0
  0
VERTEX
  5
39C1D
  8
0
 62
7
 10
30.959383379713682
 20
38.758263402119951
 70
0
  0
SEQEND
  5
39C1E
  8
0
  0
POLYLINE
  5
388B8
  8
0
 62
7
 66
1
 70
0
 10
0
 20
0
 30
0
  0
VERTEX
  5
39C1F
  8
0
 62
7
 10
25.634299288163
 20
37.25103412732313
 70
0
  0
VERTEX
  5
39C20
  8
0
 62
7
 10
25.465834118934279
 20
37.0942822827443
 70
0
  0
SEQEND
  5
39C21
  8
0
  0
POLYLINE
  5
388BC
  8
0
 62
7
 66
1
 70
0
 10
0
 20
0
 30
0
  0
VERTEX
  5
39C22
  8
0
 62
7
 10
25.4758248958415
 20
37.08463601538557
 70
0
  0
VERTEX
  5
39C23
  8
0
 62
7
 10
25.634299288163
 20
37.231397083057232
 70
0
  0
SEQEND
  5
39C24
  8
0
  0
POLYLINE
  5
388C0
  8
0
 62
7
 66
1
 70
0
 10
0
 20
0
 30
0
  0
VERTEX
  5
39C25
  8
0
 62
7
 10
25.634299288163
 20
37.231397083057232
 70
0
  0
VERTEX
  5
39C26
  8
0
 62
7
 10
25.634299288163
 20
37.25103412732313
 70
0
  0
SEQEND
  5
39C27
  8
0
  0
POLYLINE
  5
388C4
  8
0
 62
7
 66
1
 70
0
 10
0
 20
0
 30
0
  0
VERTEX
  5
39C28
  8
0
 62
7
 10
30.959383379713682
 20
38.758263402119951
 70
0
  0
VERTEX
  5
39C29
  8
0
 62
7
 10
31.118202281583681
 20
38.699524524096432
 70
0
  0
SEQEND
  5
39C2A
  8
0
  0
POLYLINE
  5
388C8
  8
0
 62
7
 66
1
 70
0
 10
0
 20
0
 30
0
  0
VERTEX
  5
39C2B
  8
0
 62
7
 10
31.108211504676461
 20
38.68005973460474
 70
0
  0
VERTEX
  5
39C2C
  8
0
 62
7
 10
30.949392602806459
 20
38.738798612628273
 70
0
  0
SEQEND
  5
39C2D
  8
0
  0
POLYLINE
  5
388CC
  8
0
 62
7
 66
1
 70
0
 10
0
 20
0
 30
0
  0
VERTEX
  5
39C2E
  8
0
 62
7
 10
26.973063393731081
 20
38.7680819242529
 70
0
  0
VERTEX
  5
39C2F
  8
0
 62
7
 10
25.505452717014659
 20
37.035715659495061
 70
0
  0
SEQEND
  5
39C30
  8
0
  0
POLYLINE
  5
388D0
  8
0
 62
7
 66
1
 70
0
 10
0
 20
0
 30
0
  0
VERTEX
  5
39C31
  8
0
 62
7
 10
25.495461940107411
 20
37.04536192685373
 70
0
  0
VERTEX
  5
39C32
  8
0
 62
7
 10
26.963072616823869
 20
38.787718968518853
 70
0
  0
SEQEND
  5
39C33
  8
0
  0
POLYLINE
  5
388D4
  8
0
 62
7
 66
1
 70
0
 10
0
 20
0
 30
0
  0
VERTEX
  5
39C34
  8
0
 62
7
 10
31.118202281583681
 20
38.6996967788707
 70
0
  0
VERTEX
  5
39C35
  8
0
 62
7
 10
73.0353680697155
 20
21.83474859515292
 70
0
  0
SEQEND
  5
39C36
  8
0
  0
POLYLINE
  5
388D8
  8
0
 62
7
 66
1
 70
0
 10
0
 20
0
 30
0
  0
VERTEX
  5
39C37
  8
0
 62
7
 10
27.022672768718682
 20
38.787718968518853
 70
0
  0
VERTEX
  5
39C38
  8
0
 62
7
 10
26.9830541706383
 20
38.807183758010517
 70
0
  0
SEQEND
  5
39C39
  8
0
  0
POLYLINE
  5
388DC
  8
0
 62
7
 66
1
 70
0
 10
0
 20
0
 30
0
  0
VERTEX
  5
39C3A
  8
0
 62
7
 10
27.022672768718682
 20
41.381531359363429
 70
0
  0
VERTEX
  5
39C3B
  8
0
 62
7
 10
26.9830541706383
 20
41.391349881496389
 70
0
  0
SEQEND
  5
39C3C
  8
0
  0
POLYLINE
  5
388E0
  8
0
 62
7
 66
1
 70
0
 10
0
 20
0
 30
0
  0
VERTEX
  5
39C3D
  8
0
 62
7
 10
26.993044947545531
 20
41.4109869257623
 70
0
  0
VERTEX
  5
39C3E
  8
0
 62
7
 10
27.022672768718682
 20
41.391349881496389
 70
0
  0
SEQEND
  5
39C3F
  8
0
  0
POLYLINE
  5
388E4
  8
0
 62
7
 66
1
 70
0
 10
0
 20
0
 30
0
  0
VERTEX
  5
39C40
  8
0
 62
7
 10
30.949392602806459
 20
38.738798612628273
 70
0
  0
VERTEX
  5
39C41
  8
0
 62
7
 10
31.118202281583681
 20
38.660422690338869
 70
0
  0
SEQEND
  5
39C42
  8
0
  0
POLYLINE
  5
388E8
  8
0
 62
7
 66
1
 70
0
 10
0
 20
0
 30
0
  0
VERTEX
  5
39C43
  8
0
 62
7
 10
25.65428084197745
 20
37.24121560519017
 70
0
  0
VERTEX
  5
39C44
  8
0
 62
7
 10
25.634299288163
 20
37.25103412732313
 70
0
  0
SEQEND
  5
39C45
  8
0
  0
POLYLINE
  5
388EC
  8
0
 62
7
 66
1
 70
0
 10
0
 20
0
 30
0
  0
VERTEX
  5
39C46
  8
0
 62
7
 10
25.505452717014659
 20
37.064998971119678
 70
0
  0
VERTEX
  5
39C47
  8
0
 62
7
 10
25.4758248958415
 20
37.08463601538557
 70
0
  0
SEQEND
  5
39C48
  8
0
  0
POLYLINE
  5
388F0
  8
0
 62
7
 66
1
 70
0
 10
0
 20
0
 30
0
  0
VERTEX
  5
39C49
  8
0
 62
7
 10
26.973063393731081
 20
38.7680819242529
 70
0
  0
VERTEX
  5
39C4A
  8
0
 62
7
 10
27.022672768718682
 20
38.748617134761282
 70
0
  0
SEQEND
  5
39C4B
  8
0
  0
POLYLINE
  5
388F4
  8
0
 62
7
 66
1
 70
0
 10
0
 20
0
 30
0
  0
VERTEX
  5
39C4C
  8
0
 62
7
 10
25.644290065070241
 20
37.231397083057232
 70
0
  0
VERTEX
  5
39C4D
  8
0
 62
7
 10
25.634299288163
 20
37.231397083057232
 70
0
  0
SEQEND
  5
39C4E
  8
0
  0
POLYLINE
  5
388F8
  8
0
 62
7
 66
1
 70
0
 10
0
 20
0
 30
0
  0
VERTEX
  5
39C4F
  8
0
 62
7
 10
29.620619274145579
 20
39.551152128050212
 70
0
  0
VERTEX
  5
39C50
  8
0
 62
7
 10
71.527794285370192
 20
22.686376199106661
 70
0
  0
SEQEND
  5
39C51
  8
0
  0
POLYLINE
  5
388FC
  8
0
 62
7
 66
1
 70
0
 10
0
 20
0
 30
0
  0
VERTEX
  5
39C52
  8
0
 62
7
 10
71.527794285370192
 20
22.686376199106661
 70
0
  0
VERTEX
  5
39C53
  8
0
 62
7
 10
71.527794285370192
 20
22.686376199106661
 70
0
  0
VERTEX
  5
39C54
  8
0
 62
7
 10
71.537785062277408
 20
22.686376199106661
 70
0
  0
SEQEND
  5
39C55
  8
0
  0
POLYLINE
  5
38901
  8
0
 62
7
 66
1
 70
0
 10
0
 20
0
 30
0
  0
VERTEX
  5
39C56
  8
0
 62
7
 10
71.527794285370192
 20
25.280188589951251
 70
0
  0
VERTEX
  5
39C57
  8
0
 62
7
 10
71.527794285370192
 20
25.29000711208425
 70
0
  0
VERTEX
  5
39C58
  8
0
 62
7
 10
71.527794285370192
 20
25.29965337944293
 70
0
  0
VERTEX
  5
39C59
  8
0
 62
7
 10
71.518148018011459
 20
25.309471901575879
 70
0
  0
SEQEND
  5
39C5A
  8
0
  0
POLYLINE
  5
38907
  8
0
 62
7
 66
1
 70
0
 10
0
 20
0
 30
0
  0
VERTEX
  5
39C5B
  8
0
 62
7
 10
26.993044947545531
 20
41.43045171525398
 70
0
  0
VERTEX
  5
39C5C
  8
0
 62
7
 10
26.9830541706383
 20
41.43045171525398
 70
0
  0
VERTEX
  5
39C5D
  8
0
 62
7
 10
26.973063393731081
 20
41.420633193121027
 70
0
  0
VERTEX
  5
39C5E
  8
0
 62
7
 10
26.973063393731081
 20
41.4109869257623
 70
0
  0
VERTEX
  5
39C5F
  8
0
 62
7
 10
26.963072616823869
 20
41.401168403629342
 70
0
  0
VERTEX
  5
39C60
  8
0
 62
7
 10
26.963072616823869
 20
41.391349881496389
 70
0
  0
SEQEND
  5
39C61
  8
0
  0
POLYLINE
  5
3890F
  8
0
 62
7
 66
1
 70
0
 10
0
 20
0
 30
0
  0
VERTEX
  5
39C62
  8
0
 62
7
 10
29.600982229879659
 20
39.541333605917259
 70
0
  0
VERTEX
  5
39C63
  8
0
 62
7
 10
29.600982229879659
 20
39.541333605917259
 70
0
  0
VERTEX
  5
39C64
  8
0
 62
7
 10
29.600982229879659
 20
39.531515083784257
 70
0
  0
VERTEX
  5
39C65
  8
0
 62
7
 10
29.610973006786882
 20
39.5218688164256
 70
0
  0
SEQEND
  5
39C66
  8
0
  0
POLYLINE
  5
38915
  8
0
 62
7
 66
1
 70
0
 10
0
 20
0
 30
0
  0
VERTEX
  5
39C67
  8
0
 62
7
 10
29.620619274145579
 20
39.551152128050212
 70
0
  0
VERTEX
  5
39C68
  8
0
 62
7
 10
29.620619274145579
 20
39.551152128050212
 70
0
  0
VERTEX
  5
39C69
  8
0
 62
7
 10
29.620619274145579
 20
39.541333605917259
 70
0
  0
SEQEND
  5
39C6A
  8
0
  0
POLYLINE
  5
3891A
  8
0
 62
7
 66
1
 70
0
 10
0
 20
0
 30
0
  0
VERTEX
  5
39C6B
  8
0
 62
7
 10
26.993044947545531
 20
41.4109869257623
 70
0
  0
VERTEX
  5
39C6C
  8
0
 62
7
 10
26.993044947545531
 20
41.4109869257623
 70
0
  0
VERTEX
  5
39C6D
  8
0
 62
7
 10
26.9830541706383
 20
41.401168403629342
 70
0
  0
VERTEX
  5
39C6E
  8
0
 62
7
 10
26.9830541706383
 20
41.391349881496389
 70
0
  0
SEQEND
  5
39C6F
  8
0
  0
POLYLINE
  5
38920
  8
0
 62
7
 66
1
 70
0
 10
0
 20
0
 30
0
  0
VERTEX
  5
39C70
  8
0
 62
7
 10
29.600982229879659
 20
42.135145996761828
 70
0
  0
VERTEX
  5
39C71
  8
0
 62
7
 10
29.600982229879659
 20
42.135145996761828
 70
0
  0
VERTEX
  5
39C72
  8
0
 62
7
 10
29.600982229879659
 20
42.1449645188948
 70
0
  0
SEQEND
  5
39C73
  8
0
  0
POLYLINE
  5
38925
  8
0
 62
7
 66
1
 70
0
 10
0
 20
0
 30
0
  0
VERTEX
  5
39C74
  8
0
 62
7
 10
29.610973006786882
 20
42.164601563160687
 70
0
  0
VERTEX
  5
39C75
  8
0
 62
7
 10
29.600982229879659
 20
42.164601563160687
 70
0
  0
SEQEND
  5
39C76
  8
0
  0
POLYLINE
  5
38929
  8
0
 62
7
 66
1
 70
0
 10
0
 20
0
 30
0
  0
VERTEX
  5
39C77
  8
0
 62
7
 10
29.620619274145579
 20
42.1449645188948
 70
0
  0
VERTEX
  5
39C78
  8
0
 62
7
 10
29.620619274145579
 20
42.1449645188948
 70
0
  0
VERTEX
  5
39C79
  8
0
 62
7
 10
29.620619274145579
 20
42.154783041027748
 70
0
  0
VERTEX
  5
39C7A
  8
0
 62
7
 10
29.610973006786882
 20
42.164601563160687
 70
0
  0
SEQEND
  5
39C7B
  8
0
  0
POLYLINE
  5
3892F
  8
0
 62
7
 66
1
 70
0
 10
0
 20
0
 30
0
  0
VERTEX
  5
39C7C
  8
0
 62
7
 10
72.99540496208661
 20
21.74672640550477
 70
0
  0
VERTEX
  5
39C7D
  8
0
 62
7
 10
73.005395738993812
 20
21.74672640550477
 70
0
  0
VERTEX
  5
39C7E
  8
0
 62
7
 10
73.015386515901056
 20
21.74672640550477
 70
0
  0
VERTEX
  5
39C7F
  8
0
 62
7
 10
73.0253772928083
 20
21.756544927637758
 70
0
  0
VERTEX
  5
39C80
  8
0
 62
7
 10
73.0353680697155
 20
21.766191194996448
 70
0
  0
VERTEX
  5
39C81
  8
0
 62
7
 10
73.0450143370742
 20
21.7760097171294
 70
0
  0
VERTEX
  5
39C82
  8
0
 62
7
 10
73.055005113981423
 20
21.795646761395322
 70
0
  0
VERTEX
  5
39C83
  8
0
 62
7
 10
73.055005113981423
 20
21.815283805661242
 70
0
  0
VERTEX
  5
39C84
  8
0
 62
7
 10
73.0450143370742
 20
21.824930073019939
 70
0
  0
VERTEX
  5
39C85
  8
0
 62
7
 10
73.0450143370742
 20
21.83474859515292
 70
0
  0
VERTEX
  5
39C86
  8
0
 62
7
 10
73.0353680697155
 20
21.83474859515292
 70
0
  0
SEQEND
  5
39C87
  8
0
  0
POLYLINE
  5
3893C
  8
0
 62
7
 66
1
 70
0
 10
0
 20
0
 30
0
  0
VERTEX
  5
39C88
  8
0
 62
7
 10
67.373009130158891
 20
20.15130268628559
 70
0
  0
VERTEX
  5
39C89
  8
0
 62
7
 10
67.3829999070661
 20
20.15130268628559
 70
0
  0
VERTEX
  5
39C8A
  8
0
 62
7
 10
67.392646174424812
 20
20.15130268628559
 70
0
  0
VERTEX
  5
39C8B
  8
0
 62
7
 10
67.402636951332028
 20
20.16094895364429
 70
0
  0
VERTEX
  5
39C8C
  8
0
 62
7
 10
67.412627728239244
 20
20.170767475777239
 70
0
  0
SEQEND
  5
39C8D
  8
0
  0
POLYLINE
  5
38943
  8
0
 62
7
 66
1
 70
0
 10
0
 20
0
 30
0
  0
VERTEX
  5
39C8E
  8
0
 62
7
 10
25.4758248958415
 20
37.08463601538557
 70
0
  0
VERTEX
  5
39C8F
  8
0
 62
7
 10
25.465834118934279
 20
37.074817493252638
 70
0
  0
VERTEX
  5
39C90
  8
0
 62
7
 10
25.465834118934279
 20
37.064998971119678
 70
0
  0
VERTEX
  5
39C91
  8
0
 62
7
 10
25.465834118934279
 20
37.055180448986661
 70
0
  0
VERTEX
  5
39C92
  8
0
 62
7
 10
25.465834118934279
 20
37.04536192685373
 70
0
  0
VERTEX
  5
39C93
  8
0
 62
7
 10
25.4758248958415
 20
37.035715659495061
 70
0
  0
VERTEX
  5
39C94
  8
0
 62
7
 10
25.4854711632002
 20
37.04536192685373
 70
0
  0
VERTEX
  5
39C95
  8
0
 62
7
 10
25.495461940107411
 20
37.04536192685373
 70
0
  0
SEQEND
  5
39C96
  8
0
  0
POLYLINE
  5
3894D
  8
0
 62
7
 66
1
 70
0
 10
0
 20
0
 30
0
  0
VERTEX
  5
39C97
  8
0
 62
7
 10
26.973063393731081
 20
38.7680819242529
 70
0
  0
VERTEX
  5
39C98
  8
0
 62
7
 10
26.973063393731081
 20
38.7779004463859
 70
0
  0
VERTEX
  5
39C99
  8
0
 62
7
 10
26.9830541706383
 20
38.787718968518853
 70
0
  0
VERTEX
  5
39C9A
  8
0
 62
7
 10
26.9830541706383
 20
38.797537490651791
 70
0
  0
VERTEX
  5
39C9B
  8
0
 62
7
 10
26.9830541706383
 20
38.807183758010517
 70
0
  0
SEQEND
  5
39C9C
  8
0
  0
POLYLINE
  5
38954
  8
0
 62
7
 66
1
 70
0
 10
0
 20
0
 30
0
  0
VERTEX
  5
39C9D
  8
0
 62
7
 10
25.465834118934279
 20
37.016078615229112
 70
0
  0
VERTEX
  5
39C9E
  8
0
 62
7
 10
25.4758248958415
 20
37.016078615229112
 70
0
  0
VERTEX
  5
39C9F
  8
0
 62
7
 10
25.4854711632002
 20
37.016078615229112
 70
0
  0
VERTEX
  5
39CA0
  8
0
 62
7
 10
25.495461940107411
 20
37.025897137362037
 70
0
  0
VERTEX
  5
39CA1
  8
0
 62
7
 10
25.505452717014659
 20
37.035715659495061
 70
0
  0
SEQEND
  5
39CA2
  8
0
  0
POLYLINE
  5
3895B
  8
0
 62
7
 66
1
 70
0
 10
0
 20
0
 30
0
  0
VERTEX
  5
39CA3
  8
0
 62
7
 10
25.465834118934279
 20
37.0942822827443
 70
0
  0
VERTEX
  5
39CA4
  8
0
 62
7
 10
25.45584334202707
 20
37.08463601538557
 70
0
  0
VERTEX
  5
39CA5
  8
0
 62
7
 10
25.445852565119829
 20
37.074817493252638
 70
0
  0
VERTEX
  5
39CA6
  8
0
 62
7
 10
25.445852565119829
 20
37.064998971119678
 70
0
  0
VERTEX
  5
39CA7
  8
0
 62
7
 10
25.445852565119829
 20
37.055180448986661
 70
0
  0
VERTEX
  5
39CA8
  8
0
 62
7
 10
25.445852565119829
 20
37.035715659495061
 70
0
  0
VERTEX
  5
39CA9
  8
0
 62
7
 10
25.445852565119829
 20
37.025897137362037
 70
0
  0
VERTEX
  5
39CAA
  8
0
 62
7
 10
25.45584334202707
 20
37.025897137362037
 70
0
  0
VERTEX
  5
39CAB
  8
0
 62
7
 10
25.465834118934279
 20
37.016078615229112
 70
0
  0
SEQEND
  5
39CAC
  8
0
  0
POLYLINE
  5
38966
  8
0
 62
7
 66
1
 70
0
 10
0
 20
0
 30
0
  0
VERTEX
  5
39CAD
  8
0
 62
7
 10
31.088574460410541
 20
38.611502334448289
 70
0
  0
VERTEX
  5
39CAE
  8
0
 62
7
 10
31.098220727769249
 20
38.611502334448289
 70
0
  0
VERTEX
  5
39CAF
  8
0
 62
7
 10
31.108211504676461
 20
38.611502334448289
 70
0
  0
VERTEX
  5
39CB0
  8
0
 62
7
 10
31.118202281583681
 20
38.621320856581278
 70
0
  0
VERTEX
  5
39CB1
  8
0
 62
7
 10
31.128193058490918
 20
38.631139378714252
 70
0
  0
VERTEX
  5
39CB2
  8
0
 62
7
 10
31.13783932584963
 20
38.64095790084717
 70
0
  0
VERTEX
  5
39CB3
  8
0
 62
7
 10
31.13783932584963
 20
38.660422690338869
 70
0
  0
VERTEX
  5
39CB4
  8
0
 62
7
 10
31.13783932584963
 20
38.670241212471829
 70
0
  0
VERTEX
  5
39CB5
  8
0
 62
7
 10
31.13783932584963
 20
38.68005973460474
 70
0
  0
VERTEX
  5
39CB6
  8
0
 62
7
 10
31.128193058490918
 20
38.689878256737757
 70
0
  0
VERTEX
  5
39CB7
  8
0
 62
7
 10
31.118202281583681
 20
38.6996967788707
 70
0
  0
SEQEND
  5
39CB8
  8
0
  0
POLYLINE
  5
38973
  8
0
 62
7
 66
1
 70
0
 10
0
 20
0
 30
0
  0
VERTEX
  5
39CB9
  8
0
 62
7
 10
31.088574460410541
 20
38.631139378714252
 70
0
  0
VERTEX
  5
39CBA
  8
0
 62
7
 10
31.098220727769249
 20
38.631139378714252
 70
0
  0
VERTEX
  5
39CBB
  8
0
 62
7
 10
31.108211504676461
 20
38.631139378714252
 70
0
  0
VERTEX
  5
39CBC
  8
0
 62
7
 10
31.108211504676461
 20
38.64095790084717
 70
0
  0
VERTEX
  5
39CBD
  8
0
 62
7
 10
31.118202281583681
 20
38.64095790084717
 70
0
  0
VERTEX
  5
39CBE
  8
0
 62
7
 10
31.118202281583681
 20
38.650604168205923
 70
0
  0
VERTEX
  5
39CBF
  8
0
 62
7
 10
31.118202281583681
 20
38.660422690338869
 70
0
  0
VERTEX
  5
39CC0
  8
0
 62
7
 10
31.118202281583681
 20
38.670241212471829
 70
0
  0
VERTEX
  5
39CC1
  8
0
 62
7
 10
31.108211504676461
 20
38.68005973460474
 70
0
  0
SEQEND
  5
39CC2
  8
0
  0
POLYLINE
  5
3897E
  8
0
 62
7
 66
1
 70
0
 10
0
 20
0
 30
0
  0
VERTEX
  5
39CC3
  8
0
 62
7
 10
26.963072616823869
 20
38.787718968518853
 70
0
  0
VERTEX
  5
39CC4
  8
0
 62
7
 10
26.963072616823869
 20
38.787718968518853
 70
0
  0
VERTEX
  5
39CC5
  8
0
 62
7
 10
26.963072616823869
 20
38.797537490651791
 70
0
  0
SEQEND
  5
39CC6
  8
0
  0
POLYLINE
  5
38983
  8
0
 62
7
 66
1
 70
0
 10
0
 20
0
 30
0
  0
VERTEX
  5
39CC7
  8
0
 62
7
 10
70.823961277733659
 20
23.459627880771
 70
0
  0
VERTEX
  5
39CC8
  8
0
 62
7
 10
70.863579875814011
 20
23.47909267026267
 70
0
  0
SEQEND
  5
39CC9
  8
0
  0
POLYLINE
  5
38987
  8
0
 62
7
 66
1
 70
0
 10
0
 20
0
 30
0
  0
VERTEX
  5
39CCA
  8
0
 62
7
 10
70.952807848881974
 20
23.185570534919378
 70
0
  0
VERTEX
  5
39CCB
  8
0
 62
7
 10
70.903198473894363
 20
23.165933490653469
 70
0
  0
SEQEND
  5
39CCC
  8
0
  0
POLYLINE
  5
3898B
  8
0
 62
7
 66
1
 70
0
 10
0
 20
0
 30
0
  0
VERTEX
  5
39CCD
  8
0
 62
7
 10
70.8735706527212
 20
23.36178716898991
 70
0
  0
VERTEX
  5
39CCE
  8
0
 62
7
 10
70.923180027708838
 20
23.38125195848156
 70
0
  0
SEQEND
  5
39CCF
  8
0
  0
POLYLINE
  5
3898F
  8
0
 62
7
 66
1
 70
0
 10
0
 20
0
 30
0
  0
VERTEX
  5
39CD0
  8
0
 62
7
 10
70.932826295067542
 20
23.293229768833442
 70
0
  0
VERTEX
  5
39CD1
  8
0
 62
7
 10
70.982435670055139
 20
23.303048290966391
 70
0
  0
SEQEND
  5
39CD2
  8
0
  0
POLYLINE
  5
38993
  8
0
 62
7
 66
1
 70
0
 10
0
 20
0
 30
0
  0
VERTEX
  5
39CD3
  8
0
 62
7
 10
70.972444893147923
 20
23.195389057052331
 70
0
  0
VERTEX
  5
39CD4
  8
0
 62
7
 10
70.952807848881974
 20
23.185570534919378
 70
0
  0
SEQEND
  5
39CD5
  8
0
  0
POLYLINE
  5
38997
  8
0
 62
7
 66
1
 70
0
 10
0
 20
0
 30
0
  0
VERTEX
  5
39CD6
  8
0
 62
7
 10
70.972444893147923
 20
23.195389057052331
 70
0
  0
VERTEX
  5
39CD7
  8
0
 62
7
 10
70.992426446962355
 20
23.214853846544
 70
0
  0
SEQEND
  5
39CD8
  8
0
  0
POLYLINE
  5
3899B
  8
0
 62
7
 66
1
 70
0
 10
0
 20
0
 30
0
  0
VERTEX
  5
39CD9
  8
0
 62
7
 10
70.992426446962355
 20
23.214853846544
 70
0
  0
VERTEX
  5
39CDA
  8
0
 62
7
 10
70.992426446962355
 20
23.224672368676949
 70
0
  0
SEQEND
  5
39CDB
  8
0
  0
POLYLINE
  5
3899F
  8
0
 62
7
 66
1
 70
0
 10
0
 20
0
 30
0
  0
VERTEX
  5
39CDC
  8
0
 62
7
 10
70.992426446962355
 20
23.224672368676949
 70
0
  0
VERTEX
  5
39CDD
  8
0
 62
7
 10
71.012408000776816
 20
23.253955680301569
 70
0
  0
SEQEND
  5
39CDE
  8
0
  0
POLYLINE
  5
389A3
  8
0
 62
7
 66
1
 70
0
 10
0
 20
0
 30
0
  0
VERTEX
  5
39CDF
  8
0
 62
7
 10
71.012408000776816
 20
23.253955680301569
 70
0
  0
VERTEX
  5
39CE0
  8
0
 62
7
 10
71.012408000776816
 20
23.263774202434551
 70
0
  0
SEQEND
  5
39CE1
  8
0
  0
POLYLINE
  5
389A7
  8
0
 62
7
 66
1
 70
0
 10
0
 20
0
 30
0
  0
VERTEX
  5
39CE2
  8
0
 62
7
 10
71.012408000776816
 20
23.263774202434551
 70
0
  0
VERTEX
  5
39CE3
  8
0
 62
7
 10
71.012408000776816
 20
23.273592724567521
 70
0
  0
SEQEND
  5
39CE4
  8
0
  0
POLYLINE
  5
389AB
  8
0
 62
7
 66
1
 70
0
 10
0
 20
0
 30
0
  0
VERTEX
  5
39CE5
  8
0
 62
7
 10
71.012408000776816
 20
23.273592724567521
 70
0
  0
VERTEX
  5
39CE6
  8
0
 62
7
 10
71.012408000776816
 20
23.283411246700471
 70
0
  0
SEQEND
  5
39CE7
  8
0
  0
POLYLINE
  5
389AF
  8
0
 62
7
 66
1
 70
0
 10
0
 20
0
 30
0
  0
VERTEX
  5
39CE8
  8
0
 62
7
 10
71.012408000776816
 20
23.283411246700471
 70
0
  0
VERTEX
  5
39CE9
  8
0
 62
7
 10
71.012408000776816
 20
23.303048290966391
 70
0
  0
SEQEND
  5
39CEA
  8
0
  0
POLYLINE
  5
389B3
  8
0
 62
7
 66
1
 70
0
 10
0
 20
0
 30
0
  0
VERTEX
  5
39CEB
  8
0
 62
7
 10
71.012408000776816
 20
23.303048290966391
 70
0
  0
VERTEX
  5
39CEC
  8
0
 62
7
 10
71.012408000776816
 20
23.322513080458059
 70
0
  0
SEQEND
  5
39CED
  8
0
  0
POLYLINE
  5
389B7
  8
0
 62
7
 66
1
 70
0
 10
0
 20
0
 30
0
  0
VERTEX
  5
39CEE
  8
0
 62
7
 10
71.012408000776816
 20
23.322513080458059
 70
0
  0
VERTEX
  5
39CEF
  8
0
 62
7
 10
71.002417223869557
 20
23.34215012472399
 70
0
  0
SEQEND
  5
39CF0
  8
0
  0
POLYLINE
  5
389BB
  8
0
 62
7
 66
1
 70
0
 10
0
 20
0
 30
0
  0
VERTEX
  5
39CF1
  8
0
 62
7
 10
71.002417223869557
 20
23.34215012472399
 70
0
  0
VERTEX
  5
39CF2
  8
0
 62
7
 10
71.002417223869557
 20
23.36178716898991
 70
0
  0
SEQEND
  5
39CF3
  8
0
  0
POLYLINE
  5
389BF
  8
0
 62
7
 66
1
 70
0
 10
0
 20
0
 30
0
  0
VERTEX
  5
39CF4
  8
0
 62
7
 10
71.002417223869557
 20
23.36178716898991
 70
0
  0
VERTEX
  5
39CF5
  8
0
 62
7
 10
70.992426446962355
 20
23.38125195848156
 70
0
  0
SEQEND
  5
39CF6
  8
0
  0
POLYLINE
  5
389C3
  8
0
 62
7
 66
1
 70
0
 10
0
 20
0
 30
0
  0
VERTEX
  5
39CF7
  8
0
 62
7
 10
70.992426446962355
 20
23.38125195848156
 70
0
  0
VERTEX
  5
39CF8
  8
0
 62
7
 10
70.982435670055139
 20
23.40088900274748
 70
0
  0
SEQEND
  5
39CF9
  8
0
  0
POLYLINE
  5
389C7
  8
0
 62
7
 66
1
 70
0
 10
0
 20
0
 30
0
  0
VERTEX
  5
39CFA
  8
0
 62
7
 10
70.982435670055139
 20
23.40088900274748
 70
0
  0
VERTEX
  5
39CFB
  8
0
 62
7
 10
70.982435670055139
 20
23.410707524880451
 70
0
  0
SEQEND
  5
39CFC
  8
0
  0
POLYLINE
  5
389CB
  8
0
 62
7
 66
1
 70
0
 10
0
 20
0
 30
0
  0
VERTEX
  5
39CFD
  8
0
 62
7
 10
70.982435670055139
 20
23.410707524880451
 70
0
  0
VERTEX
  5
39CFE
  8
0
 62
7
 10
70.972444893147923
 20
23.4301723143721
 70
0
  0
SEQEND
  5
39CFF
  8
0
  0
POLYLINE
  5
389CF
  8
0
 62
7
 66
1
 70
0
 10
0
 20
0
 30
0
  0
VERTEX
  5
39D00
  8
0
 62
7
 10
70.972444893147923
 20
23.4301723143721
 70
0
  0
VERTEX
  5
39D01
  8
0
 62
7
 10
70.962798625789219
 20
23.4301723143721
 70
0
  0
SEQEND
  5
39D02
  8
0
  0
POLYLINE
  5
389D3
  8
0
 62
7
 66
1
 70
0
 10
0
 20
0
 30
0
  0
VERTEX
  5
39D03
  8
0
 62
7
 10
70.962798625789219
 20
23.4301723143721
 70
0
  0
VERTEX
  5
39D04
  8
0
 62
7
 10
70.952807848881974
 20
23.449809358638049
 70
0
  0
SEQEND
  5
39D05
  8
0
  0
POLYLINE
  5
389D7
  8
0
 62
7
 66
1
 70
0
 10
0
 20
0
 30
0
  0
VERTEX
  5
39D06
  8
0
 62
7
 10
70.952807848881974
 20
23.449809358638049
 70
0
  0
VERTEX
  5
39D07
  8
0
 62
7
 10
70.942817071974758
 20
23.449809358638049
 70
0
  0
SEQEND
  5
39D08
  8
0
  0
POLYLINE
  5
389DB
  8
0
 62
7
 66
1
 70
0
 10
0
 20
0
 30
0
  0
VERTEX
  5
39D09
  8
0
 62
7
 10
70.942817071974758
 20
23.449809358638049
 70
0
  0
VERTEX
  5
39D0A
  8
0
 62
7
 10
70.923180027708838
 20
23.469446402903969
 70
0
  0
SEQEND
  5
39D0B
  8
0
  0
POLYLINE
  5
389DF
  8
0
 62
7
 66
1
 70
0
 10
0
 20
0
 30
0
  0
VERTEX
  5
39D0C
  8
0
 62
7
 10
70.923180027708838
 20
23.469446402903969
 70
0
  0
VERTEX
  5
39D0D
  8
0
 62
7
 10
70.913189250801622
 20
23.469446402903969
 70
0
  0
SEQEND
  5
39D0E
  8
0
  0
POLYLINE
  5
389E3
  8
0
 62
7
 66
1
 70
0
 10
0
 20
0
 30
0
  0
VERTEX
  5
39D0F
  8
0
 62
7
 10
70.913189250801622
 20
23.469446402903969
 70
0
  0
VERTEX
  5
39D10
  8
0
 62
7
 10
70.883216920079931
 20
23.479264925036919
 70
0
  0
SEQEND
  5
39D11
  8
0
  0
POLYLINE
  5
389E7
  8
0
 62
7
 66
1
 70
0
 10
0
 20
0
 30
0
  0
VERTEX
  5
39D12
  8
0
 62
7
 10
70.883216920079931
 20
23.47909267026267
 70
0
  0
VERTEX
  5
39D13
  8
0
 62
7
 10
70.8735706527212
 20
23.4692741481297
 70
0
  0
SEQEND
  5
39D14
  8
0
  0
POLYLINE
  5
389EB
  8
0
 62
7
 66
1
 70
0
 10
0
 20
0
 30
0
  0
VERTEX
  5
39D15
  8
0
 62
7
 10
70.8735706527212
 20
23.469446402903969
 70
0
  0
VERTEX
  5
39D16
  8
0
 62
7
 10
70.863579875814011
 20
23.479264925036919
 70
0
  0
SEQEND
  5
39D17
  8
0
  0
POLYLINE
  5
389EF
  8
0
 62
7
 66
1
 70
0
 10
0
 20
0
 30
0
  0
VERTEX
  5
39D18
  8
0
 62
7
 10
70.903198473894363
 20
23.36178716898991
 70
0
  0
VERTEX
  5
39D19
  8
0
 62
7
 10
70.962798625789219
 20
23.38125195848156
 70
0
  0
SEQEND
  5
39D1A
  8
0
  0
POLYLINE
  5
389F3
  8
0
 62
7
 66
1
 70
0
 10
0
 20
0
 30
0
  0
VERTEX
  5
39D1B
  8
0
 62
7
 10
70.972444893147923
 20
23.36178716898991
 70
0
  0
VERTEX
  5
39D1C
  8
0
 62
7
 10
70.972444893147923
 20
23.36178716898991
 70
0
  0
SEQEND
  5
39D1D
  8
0
  0
POLYLINE
  5
389F7
  8
0
 62
7
 66
1
 70
0
 10
0
 20
0
 30
0
  0
VERTEX
  5
39D1E
  8
0
 62
7
 10
70.903198473894363
 20
23.36178716898991
 70
0
  0
VERTEX
  5
39D1F
  8
0
 62
7
 10
70.903198473894363
 20
23.37143343634861
 70
0
  0
SEQEND
  5
39D20
  8
0
  0
POLYLINE
  5
389FB
  8
0
 62
7
 66
1
 70
0
 10
0
 20
0
 30
0
  0
VERTEX
  5
39D21
  8
0
 62
7
 10
70.923180027708838
 20
23.420353792239151
 70
0
  0
VERTEX
  5
39D22
  8
0
 62
7
 10
70.952807848881974
 20
23.420353792239151
 70
0
  0
SEQEND
  5
39D23
  8
0
  0
POLYLINE
  5
389FF
  8
0
 62
7
 66
1
 70
0
 10
0
 20
0
 30
0
  0
VERTEX
  5
39D24
  8
0
 62
7
 10
71.002417223869557
 20
23.332331602591012
 70
0
  0
VERTEX
  5
39D25
  8
0
 62
7
 10
70.952807848881974
 20
23.322513080458059
 70
0
  0
SEQEND
  5
39D26
  8
0
  0
POLYLINE
  5
38A03
  8
0
 62
7
 66
1
 70
0
 10
0
 20
0
 30
0
  0
VERTEX
  5
39D27
  8
0
 62
7
 10
70.952807848881974
 20
23.322513080458059
 70
0
  0
VERTEX
  5
39D28
  8
0
 62
7
 10
70.913189250801622
 20
23.332331602591012
 70
0
  0
SEQEND
  5
39D29
  8
0
  0
POLYLINE
  5
38A07
  8
0
 62
7
 66
1
 70
0
 10
0
 20
0
 30
0
  0
VERTEX
  5
39D2A
  8
0
 62
7
 10
70.913189250801622
 20
23.332331602591012
 70
0
  0
VERTEX
  5
39D2B
  8
0
 62
7
 10
70.982435670055139
 20
23.351968646856928
 70
0
  0
SEQEND
  5
39D2C
  8
0
  0
POLYLINE
  5
38A0B
  8
0
 62
7
 66
1
 70
0
 10
0
 20
0
 30
0
  0
VERTEX
  5
39D2D
  8
0
 62
7
 10
70.952807848881974
 20
23.322513080458059
 70
0
  0
VERTEX
  5
39D2E
  8
0
 62
7
 10
70.952807848881974
 20
23.303048290966391
 70
0
  0
SEQEND
  5
39D2F
  8
0
  0
POLYLINE
  5
38A0F
  8
0
 62
7
 66
1
 70
0
 10
0
 20
0
 30
0
  0
VERTEX
  5
39D30
  8
0
 62
7
 10
70.962798625789219
 20
23.293229768833442
 70
0
  0
VERTEX
  5
39D31
  8
0
 62
7
 10
70.923180027708838
 20
23.273592724567521
 70
0
  0
SEQEND
  5
39D32
  8
0
  0
POLYLINE
  5
38A13
  8
0
 62
7
 66
1
 70
0
 10
0
 20
0
 30
0
  0
VERTEX
  5
39D33
  8
0
 62
7
 10
70.913189250801622
 20
23.38125195848156
 70
0
  0
VERTEX
  5
39D34
  8
0
 62
7
 10
70.8735706527212
 20
23.36178716898991
 70
0
  0
SEQEND
  5
39D35
  8
0
  0
POLYLINE
  5
38A17
  8
0
 62
7
 66
1
 70
0
 10
0
 20
0
 30
0
  0
VERTEX
  5
39D36
  8
0
 62
7
 10
70.923180027708838
 20
23.322513080458059
 70
0
  0
VERTEX
  5
39D37
  8
0
 62
7
 10
70.932826295067542
 20
23.312694558325092
 70
0
  0
SEQEND
  5
39D38
  8
0
  0
POLYLINE
  5
38A1B
  8
0
 62
7
 66
1
 70
0
 10
0
 20
0
 30
0
  0
VERTEX
  5
39D39
  8
0
 62
7
 10
70.932826295067542
 20
23.39107048061453
 70
0
  0
VERTEX
  5
39D3A
  8
0
 62
7
 10
70.923180027708838
 20
23.410707524880451
 70
0
  0
VERTEX
  5
39D3B
  8
0
 62
7
 10
70.923180027708838
 20
23.439990836505078
 70
0
  0
SEQEND
  5
39D3C
  8
0
  0
POLYLINE
  5
38A20
  8
0
 62
7
 66
1
 70
0
 10
0
 20
0
 30
0
  0
VERTEX
  5
39D3D
  8
0
 62
7
 10
70.962798625789219
 20
23.38125195848156
 70
0
  0
VERTEX
  5
39D3E
  8
0
 62
7
 10
70.962798625789219
 20
23.40088900274748
 70
0
  0
VERTEX
  5
39D3F
  8
0
 62
7
 10
70.952807848881974
 20
23.420353792239151
 70
0
  0
SEQEND
  5
39D40
  8
0
  0
POLYLINE
  5
38A25
  8
0
 62
7
 66
1
 70
0
 10
0
 20
0
 30
0
  0
VERTEX
  5
39D41
  8
0
 62
7
 10
70.952807848881974
 20
23.420353792239151
 70
0
  0
VERTEX
  5
39D42
  8
0
 62
7
 10
70.932826295067542
 20
23.4301723143721
 70
0
  0
VERTEX
  5
39D43
  8
0
 62
7
 10
70.923180027708838
 20
23.439990836505078
 70
0
  0
SEQEND
  5
39D44
  8
0
  0
POLYLINE
  5
38A2A
  8
0
 62
7
 66
1
 70
0
 10
0
 20
0
 30
0
  0
VERTEX
  5
39D45
  8
0
 62
7
 10
71.002417223869557
 20
23.332331602591012
 70
0
  0
VERTEX
  5
39D46
  8
0
 62
7
 10
70.992426446962355
 20
23.34215012472399
 70
0
  0
VERTEX
  5
39D47
  8
0
 62
7
 10
70.982435670055139
 20
23.351968646856928
 70
0
  0
SEQEND
  5
39D48
  8
0
  0
POLYLINE
  5
38A2F
  8
0
 62
7
 66
1
 70
0
 10
0
 20
0
 30
0
  0
VERTEX
  5
39D49
  8
0
 62
7
 10
71.002417223869557
 20
23.293229768833442
 70
0
  0
VERTEX
  5
39D4A
  8
0
 62
7
 10
70.992426446962355
 20
23.303048290966391
 70
0
  0
VERTEX
  5
39D4B
  8
0
 62
7
 10
70.982435670055139
 20
23.303048290966391
 70
0
  0
SEQEND
  5
39D4C
  8
0
  0
POLYLINE
  5
38A34
  8
0
 62
7
 66
1
 70
0
 10
0
 20
0
 30
0
  0
VERTEX
  5
39D4D
  8
0
 62
7
 10
70.952807848881974
 20
23.234490890809919
 70
0
  0
VERTEX
  5
39D4E
  8
0
 62
7
 10
70.962798625789219
 20
23.263774202434551
 70
0
  0
VERTEX
  5
39D4F
  8
0
 62
7
 10
70.962798625789219
 20
23.293229768833442
 70
0
  0
SEQEND
  5
39D50
  8
0
  0
POLYLINE
  5
38A39
  8
0
 62
7
 66
1
 70
0
 10
0
 20
0
 30
0
  0
VERTEX
  5
39D51
  8
0
 62
7
 10
71.002417223869557
 20
23.293229768833442
 70
0
  0
VERTEX
  5
39D52
  8
0
 62
7
 10
71.002417223869557
 20
23.312694558325092
 70
0
  0
VERTEX
  5
39D53
  8
0
 62
7
 10
71.002417223869557
 20
23.332331602591012
 70
0
  0
SEQEND
  5
39D54
  8
0
  0
POLYLINE
  5
38A3E
  8
0
 62
7
 66
1
 70
0
 10
0
 20
0
 30
0
  0
VERTEX
  5
39D55
  8
0
 62
7
 10
70.952807848881974
 20
23.234490890809919
 70
0
  0
VERTEX
  5
39D56
  8
0
 62
7
 10
70.932826295067542
 20
23.2443094129429
 70
0
  0
VERTEX
  5
39D57
  8
0
 62
7
 10
70.923180027708838
 20
23.253955680301569
 70
0
  0
SEQEND
  5
39D58
  8
0
  0
POLYLINE
  5
38A43
  8
0
 62
7
 66
1
 70
0
 10
0
 20
0
 30
0
  0
VERTEX
  5
39D59
  8
0
 62
7
 10
70.913189250801622
 20
23.332331602591012
 70
0
  0
VERTEX
  5
39D5A
  8
0
 62
7
 10
70.893207696987147
 20
23.332331602591012
 70
0
  0
VERTEX
  5
39D5B
  8
0
 62
7
 10
70.8735706527212
 20
23.34215012472399
 70
0
  0
SEQEND
  5
39D5C
  8
0
  0
POLYLINE
  5
38A48
  8
0
 62
7
 66
1
 70
0
 10
0
 20
0
 30
0
  0
VERTEX
  5
39D5D
  8
0
 62
7
 10
70.903198473894363
 20
23.36178716898991
 70
0
  0
VERTEX
  5
39D5E
  8
0
 62
7
 10
70.903198473894363
 20
23.36178716898991
 70
0
  0
VERTEX
  5
39D5F
  8
0
 62
7
 10
70.903198473894363
 20
23.351968646856928
 70
0
  0
VERTEX
  5
39D60
  8
0
 62
7
 10
70.903198473894363
 20
23.34215012472399
 70
0
  0
VERTEX
  5
39D61
  8
0
 62
7
 10
70.913189250801622
 20
23.34215012472399
 70
0
  0
VERTEX
  5
39D62
  8
0
 62
7
 10
70.913189250801622
 20
23.332331602591012
 70
0
  0
SEQEND
  5
39D63
  8
0
  0
POLYLINE
  5
38A50
  8
0
 62
7
 66
1
 70
0
 10
0
 20
0
 30
0
  0
VERTEX
  5
39D64
  8
0
 62
7
 10
70.913189250801622
 20
23.38125195848156
 70
0
  0
VERTEX
  5
39D65
  8
0
 62
7
 10
70.893207696987147
 20
23.38125195848156
 70
0
  0
VERTEX
  5
39D66
  8
0
 62
7
 10
70.8735706527212
 20
23.39107048061453
 70
0
  0
SEQEND
  5
39D67
  8
0
  0
POLYLINE
  5
38A55
  8
0
 62
7
 66
1
 70
0
 10
0
 20
0
 30
0
  0
VERTEX
  5
39D68
  8
0
 62
7
 10
70.923180027708838
 20
23.253955680301569
 70
0
  0
VERTEX
  5
39D69
  8
0
 62
7
 10
70.923180027708838
 20
23.273592724567521
 70
0
  0
VERTEX
  5
39D6A
  8
0
 62
7
 10
70.932826295067542
 20
23.303048290966391
 70
0
  0
SEQEND
  5
39D6B
  8
0
  0
POLYLINE
  5
38A5A
  8
0
 62
7
 66
1
 70
0
 10
0
 20
0
 30
0
  0
VERTEX
  5
39D6C
  8
0
 62
7
 10
70.8735706527212
 20
23.34215012472399
 70
0
  0
VERTEX
  5
39D6D
  8
0
 62
7
 10
70.8735706527212
 20
23.36178716898991
 70
0
  0
VERTEX
  5
39D6E
  8
0
 62
7
 10
70.8735706527212
 20
23.39107048061453
 70
0
  0
SEQEND
  5
39D6F
  8
0
  0
POLYLINE
  5
38A5F
  8
0
 62
7
 66
1
 70
0
 10
0
 20
0
 30
0
  0
VERTEX
  5
39D70
  8
0
 62
7
 10
71.012408000776816
 20
23.273592724567521
 70
0
  0
VERTEX
  5
39D71
  8
0
 62
7
 10
71.012408000776816
 20
23.312694558325092
 70
0
  0
VERTEX
  5
39D72
  8
0
 62
7
 10
71.002417223869557
 20
23.34215012472399
 70
0
  0
VERTEX
  5
39D73
  8
0
 62
7
 10
70.992426446962355
 20
23.37143343634861
 70
0
  0
VERTEX
  5
39D74
  8
0
 62
7
 10
70.982435670055139
 20
23.410707524880451
 70
0
  0
VERTEX
  5
39D75
  8
0
 62
7
 10
70.962798625789219
 20
23.4301723143721
 70
0
  0
VERTEX
  5
39D76
  8
0
 62
7
 10
70.942817071974758
 20
23.449809358638049
 70
0
  0
SEQEND
  5
39D77
  8
0
  0
POLYLINE
  5
38A68
  8
0
 62
7
 66
1
 70
0
 10
0
 20
0
 30
0
  0
VERTEX
  5
39D78
  8
0
 62
7
 10
70.823961277733659
 20
23.459627880771
 70
0
  0
VERTEX
  5
39D79
  8
0
 62
7
 10
70.793988947011954
 20
23.449809358638049
 70
0
  0
VERTEX
  5
39D7A
  8
0
 62
7
 10
70.784342679653264
 20
23.4301723143721
 70
0
  0
VERTEX
  5
39D7B
  8
0
 62
7
 10
70.764361125838832
 20
23.40088900274748
 70
0
  0
VERTEX
  5
39D7C
  8
0
 62
7
 10
70.764361125838832
 20
23.37143343634861
 70
0
  0
VERTEX
  5
39D7D
  8
0
 62
7
 10
70.764361125838832
 20
23.332331602591012
 70
0
  0
VERTEX
  5
39D7E
  8
0
 62
7
 10
70.774351902746048
 20
23.293229768833442
 70
0
  0
VERTEX
  5
39D7F
  8
0
 62
7
 10
70.784342679653264
 20
23.253955680301569
 70
0
  0
VERTEX
  5
39D80
  8
0
 62
7
 10
70.8039797239192
 20
23.224672368676949
 70
0
  0
VERTEX
  5
39D81
  8
0
 62
7
 10
70.833952054640861
 20
23.195389057052331
 70
0
  0
VERTEX
  5
39D82
  8
0
 62
7
 10
70.853589098906781
 20
23.175752012786411
 70
0
  0
VERTEX
  5
39D83
  8
0
 62
7
 10
70.883216920079931
 20
23.165933490653469
 70
0
  0
VERTEX
  5
39D84
  8
0
 62
7
 10
70.903198473894363
 20
23.165933490653469
 70
0
  0
SEQEND
  5
39D85
  8
0
  0
POLYLINE
  5
38A77
  8
0
 62
7
 66
1
 70
0
 10
0
 20
0
 30
0
  0
VERTEX
  5
39D86
  8
0
 62
7
 10
70.863579875814011
 20
23.469446402903969
 70
0
  0
VERTEX
  5
39D87
  8
0
 62
7
 10
70.833952054640861
 20
23.459627880771
 70
0
  0
VERTEX
  5
39D88
  8
0
 62
7
 10
70.823961277733659
 20
23.4301723143721
 70
0
  0
VERTEX
  5
39D89
  8
0
 62
7
 10
70.813970500826414
 20
23.40088900274748
 70
0
  0
VERTEX
  5
39D8A
  8
0
 62
7
 10
70.8039797239192
 20
23.37143343634861
 70
0
  0
VERTEX
  5
39D8B
  8
0
 62
7
 10
70.813970500826414
 20
23.332331602591012
 70
0
  0
VERTEX
  5
39D8C
  8
0
 62
7
 10
70.823961277733659
 20
23.293229768833442
 70
0
  0
VERTEX
  5
39D8D
  8
0
 62
7
 10
70.833952054640861
 20
23.263774202434551
 70
0
  0
VERTEX
  5
39D8E
  8
0
 62
7
 10
70.853589098906781
 20
23.234490890809919
 70
0
  0
VERTEX
  5
39D8F
  8
0
 62
7
 10
70.8735706527212
 20
23.205035324411028
 70
0
  0
VERTEX
  5
39D90
  8
0
 62
7
 10
70.903198473894363
 20
23.185570534919378
 70
0
  0
VERTEX
  5
39D91
  8
0
 62
7
 10
70.923180027708838
 20
23.185570534919378
 70
0
  0
VERTEX
  5
39D92
  8
0
 62
7
 10
70.952807848881974
 20
23.185570534919378
 70
0
  0
SEQEND
  5
39D93
  8
0
  0
POLYLINE
  5
38A86
  8
0
 62
7
 66
1
 70
0
 10
0
 20
0
 30
0
  0
VERTEX
  5
39D94
  8
0
 62
7
 10
70.863579875814011
 20
23.47909267026267
 70
0
  0
VERTEX
  5
39D95
  8
0
 62
7
 10
70.863579875814011
 20
23.4692741481297
 70
0
  0
SEQEND
  5
39D96
  8
0
  0
POLYLINE
  5
38A8A
  8
0
 62
7
 66
1
 70
0
 10
0
 20
0
 30
0
  0
VERTEX
  5
39D97
  8
0
 62
7
 10
27.171500893681468
 20
38.670241212471829
 70
0
  0
VERTEX
  5
39D98
  8
0
 62
7
 10
27.052300589891839
 20
38.719161568362381
 70
0
  0
SEQEND
  5
39D99
  8
0
  0
POLYLINE
  5
38A8E
  8
0
 62
7
 66
1
 70
0
 10
0
 20
0
 30
0
  0
VERTEX
  5
39D9A
  8
0
 62
7
 10
26.993044947545531
 20
38.846457846542371
 70
0
  0
VERTEX
  5
39D9B
  8
0
 62
7
 10
26.993044947545531
 20
41.352248047738833
 70
0
  0
SEQEND
  5
39D9C
  8
0
  0
POLYLINE
  5
38A92
  8
0
 62
7
 66
1
 70
0
 10
0
 20
0
 30
0
  0
VERTEX
  5
39D9D
  8
0
 62
7
 10
27.0423098129846
 20
41.420633193121027
 70
0
  0
VERTEX
  5
39D9E
  8
0
 62
7
 10
29.531391301077608
 20
42.125499729403153
 70
0
  0
SEQEND
  5
39D9F
  8
0
  0
POLYLINE
  5
38A96
  8
0
 62
7
 66
1
 70
0
 10
0
 20
0
 30
0
  0
VERTEX
  5
39DA0
  8
0
 62
7
 10
29.551372854892069
 20
42.125499729403153
 70
0
  0
VERTEX
  5
39DA1
  8
0
 62
7
 10
29.600982229879659
 20
42.105862685137183
 70
0
  0
SEQEND
  5
39DA2
  8
0
  0
POLYLINE
  5
38A9A
  8
0
 62
7
 66
1
 70
0
 10
0
 20
0
 30
0
  0
VERTEX
  5
39DA3
  8
0
 62
7
 10
29.600982229879659
 20
42.066760851379627
 70
0
  0
VERTEX
  5
39DA4
  8
0
 62
7
 10
29.590991452972439
 20
42.076579373512558
 70
0
  0
SEQEND
  5
39DA5
  8
0
  0
POLYLINE
  5
38A9E
  8
0
 62
7
 66
1
 70
0
 10
0
 20
0
 30
0
  0
VERTEX
  5
39DA6
  8
0
 62
7
 10
28.787939695360709
 20
40.833416667660153
 70
0
  0
VERTEX
  5
39DA7
  8
0
 62
7
 10
28.747976587731809
 20
40.833416667660153
 70
0
  0
SEQEND
  5
39DA8
  8
0
  0
POLYLINE
  5
38AA2
  8
0
 62
7
 66
1
 70
0
 10
0
 20
0
 30
0
  0
VERTEX
  5
39DA9
  8
0
 62
7
 10
28.747976587731809
 20
40.823598145527221
 70
0
  0
VERTEX
  5
39DAA
  8
0
 62
7
 10
28.728339543465871
 20
40.813779623394282
 70
0
  0
SEQEND
  5
39DAB
  8
0
  0
POLYLINE
  5
38AA6
  8
0
 62
7
 66
1
 70
0
 10
0
 20
0
 30
0
  0
VERTEX
  5
39DAC
  8
0
 62
7
 10
28.747976587731809
 20
40.833416667660153
 70
0
  0
VERTEX
  5
39DAD
  8
0
 62
7
 10
28.757967364639029
 20
40.823598145527221
 70
0
  0
SEQEND
  5
39DAE
  8
0
  0
POLYLINE
  5
38AAA
  8
0
 62
7
 66
1
 70
0
 10
0
 20
0
 30
0
  0
VERTEX
  5
39DAF
  8
0
 62
7
 10
28.747976587731809
 20
40.823598145527221
 70
0
  0
VERTEX
  5
39DB0
  8
0
 62
7
 10
28.728339543465871
 20
40.813779623394282
 70
0
  0
SEQEND
  5
39DB1
  8
0
  0
POLYLINE
  5
38AAE
  8
0
 62
7
 66
1
 70
0
 10
0
 20
0
 30
0
  0
VERTEX
  5
39DB2
  8
0
 62
7
 10
28.747976587731809
 20
40.833416667660153
 70
0
  0
VERTEX
  5
39DB3
  8
0
 62
7
 10
28.787939695360709
 20
40.833416667660153
 70
0
  0
SEQEND
  5
39DB4
  8
0
  0
POLYLINE
  5
38AB2
  8
0
 62
7
 66
1
 70
0
 10
0
 20
0
 30
0
  0
VERTEX
  5
39DB5
  8
0
 62
7
 10
28.738330320373109
 20
40.715938911613172
 70
0
  0
VERTEX
  5
39DB6
  8
0
 62
7
 10
28.728339543465871
 20
40.715938911613172
 70
0
  0
SEQEND
  5
39DB7
  8
0
  0
POLYLINE
  5
38AB6
  8
0
 62
7
 66
1
 70
0
 10
0
 20
0
 30
0
  0
VERTEX
  5
39DB8
  8
0
 62
7
 10
28.747976587731809
 20
40.735575955879071
 70
0
  0
VERTEX
  5
39DB9
  8
0
 62
7
 10
28.757967364639029
 20
40.725757433746132
 70
0
  0
SEQEND
  5
39DBA
  8
0
  0
POLYLINE
  5
38ABA
  8
0
 62
7
 66
1
 70
0
 10
0
 20
0
 30
0
  0
VERTEX
  5
39DBB
  8
0
 62
7
 10
28.747976587731809
 20
40.735575955879071
 70
0
  0
VERTEX
  5
39DBC
  8
0
 62
7
 10
28.787939695360709
 20
40.745394478012017
 70
0
  0
SEQEND
  5
39DBD
  8
0
  0
POLYLINE
  5
38ABE
  8
0
 62
7
 66
1
 70
0
 10
0
 20
0
 30
0
  0
VERTEX
  5
39DBE
  8
0
 62
7
 10
28.747976587731809
 20
40.715938911613172
 70
0
  0
VERTEX
  5
39DBF
  8
0
 62
7
 10
28.728339543465871
 20
40.715938911613172
 70
0
  0
SEQEND
  5
39DC0
  8
0
  0
POLYLINE
  5
38AC2
  8
0
 62
7
 66
1
 70
0
 10
0
 20
0
 30
0
  0
VERTEX
  5
39DC1
  8
0
 62
7
 10
28.649102347305131
 20
40.4222445214956
 70
0
  0
VERTEX
  5
39DC2
  8
0
 62
7
 10
28.668739391571052
 20
40.412598254136917
 70
0
  0
SEQEND
  5
39DC3
  8
0
  0
POLYLINE
  5
38AC6
  8
0
 62
7
 66
1
 70
0
 10
0
 20
0
 30
0
  0
VERTEX
  5
39DC4
  8
0
 62
7
 10
28.599492972317549
 20
40.334222331847492
 70
0
  0
VERTEX
  5
39DC5
  8
0
 62
7
 10
28.629120793490671
 20
40.314585287581572
 70
0
  0
SEQEND
  5
39DC6
  8
0
  0
POLYLINE
  5
38ACA
  8
0
 62
7
 66
1
 70
0
 10
0
 20
0
 30
0
  0
VERTEX
  5
39DC7
  8
0
 62
7
 10
28.609139239676239
 20
40.314585287581572
 70
0
  0
VERTEX
  5
39DC8
  8
0
 62
7
 10
28.639111570397919
 20
40.295120498089879
 70
0
  0
SEQEND
  5
39DC9
  8
0
  0
POLYLINE
  5
38ACE
  8
0
 62
7
 66
1
 70
0
 10
0
 20
0
 30
0
  0
VERTEX
  5
39DCA
  8
0
 62
7
 10
28.619130016583451
 20
40.324403809714511
 70
0
  0
VERTEX
  5
39DCB
  8
0
 62
7
 10
28.599492972317549
 20
40.334222331847492
 70
0
  0
SEQEND
  5
39DCC
  8
0
  0
POLYLINE
  5
38AD2
  8
0
 62
7
 66
1
 70
0
 10
0
 20
0
 30
0
  0
VERTEX
  5
39DCD
  8
0
 62
7
 10
28.658748614663839
 20
40.402779732003978
 70
0
  0
VERTEX
  5
39DCE
  8
0
 62
7
 10
28.678730168478271
 20
40.402779732003978
 70
0
  0
SEQEND
  5
39DCF
  8
0
  0
POLYLINE
  5
38AD6
  8
0
 62
7
 66
1
 70
0
 10
0
 20
0
 30
0
  0
VERTEX
  5
39DD0
  8
0
 62
7
 10
28.629120793490671
 20
40.314585287581572
 70
0
  0
VERTEX
  5
39DD1
  8
0
 62
7
 10
28.609139239676239
 20
40.314585287581572
 70
0
  0
SEQEND
  5
39DD2
  8
0
  0
POLYLINE
  5
38ADA
  8
0
 62
7
 66
1
 70
0
 10
0
 20
0
 30
0
  0
VERTEX
  5
39DD3
  8
0
 62
7
 10
28.609139239676239
 20
40.314585287581572
 70
0
  0
VERTEX
  5
39DD4
  8
0
 62
7
 10
28.658748614663839
 20
40.402779732003978
 70
0
  0
SEQEND
  5
39DD5
  8
0
  0
POLYLINE
  5
38ADE
  8
0
 62
7
 66
1
 70
0
 10
0
 20
0
 30
0
  0
VERTEX
  5
39DD6
  8
0
 62
7
 10
28.728339543465871
 20
40.715938911613172
 70
0
  0
VERTEX
  5
39DD7
  8
0
 62
7
 10
28.747976587731809
 20
40.715938911613172
 70
0
  0
SEQEND
  5
39DD8
  8
0
  0
POLYLINE
  5
38AE2
  8
0
 62
7
 66
1
 70
0
 10
0
 20
0
 30
0
  0
VERTEX
  5
39DD9
  8
0
 62
7
 10
28.747976587731809
 20
40.735575955879071
 70
0
  0
VERTEX
  5
39DDA
  8
0
 62
7
 10
28.787939695360709
 20
40.745394478012017
 70
0
  0
SEQEND
  5
39DDB
  8
0
  0
POLYLINE
  5
38AE6
  8
0
 62
7
 66
1
 70
0
 10
0
 20
0
 30
0
  0
VERTEX
  5
39DDC
  8
0
 62
7
 10
28.649102347305131
 20
40.4222445214956
 70
0
  0
VERTEX
  5
39DDD
  8
0
 62
7
 10
28.678730168478271
 20
40.402779732003978
 70
0
  0
SEQEND
  5
39DDE
  8
0
  0
POLYLINE
  5
38AEA
  8
0
 62
7
 66
1
 70
0
 10
0
 20
0
 30
0
  0
VERTEX
  5
39DDF
  8
0
 62
7
 10
28.668739391571052
 20
40.412598254136917
 70
0
  0
VERTEX
  5
39DE0
  8
0
 62
7
 10
28.688720945385509
 20
40.383142687738022
 70
0
  0
SEQEND
  5
39DE1
  8
0
  0
POLYLINE
  5
38AEE
  8
0
 62
7
 66
1
 70
0
 10
0
 20
0
 30
0
  0
VERTEX
  5
39DE2
  8
0
 62
7
 10
28.688720945385509
 20
40.383142687738022
 70
0
  0
VERTEX
  5
39DE3
  8
0
 62
7
 10
28.658748614663839
 20
40.402779732003978
 70
0
  0
SEQEND
  5
39DE4
  8
0
  0
POLYLINE
  5
38AF2
  8
0
 62
7
 66
1
 70
0
 10
0
 20
0
 30
0
  0
VERTEX
  5
39DE5
  8
0
 62
7
 10
28.668739391571052
 20
40.412598254136917
 70
0
  0
VERTEX
  5
39DE6
  8
0
 62
7
 10
28.649102347305131
 20
40.4222445214956
 70
0
  0
SEQEND
  5
39DE7
  8
0
  0
POLYLINE
  5
38AF6
  8
0
 62
7
 66
1
 70
0
 10
0
 20
0
 30
0
  0
VERTEX
  5
39DE8
  8
0
 62
7
 10
28.609139239676239
 20
40.314585287581572
 70
0
  0
VERTEX
  5
39DE9
  8
0
 62
7
 10
28.639111570397919
 20
40.295120498089879
 70
0
  0
SEQEND
  5
39DEA
  8
0
  0
POLYLINE
  5
38AFA
  8
0
 62
7
 66
1
 70
0
 10
0
 20
0
 30
0
  0
VERTEX
  5
39DEB
  8
0
 62
7
 10
28.619130016583451
 20
40.324403809714511
 70
0
  0
VERTEX
  5
39DEC
  8
0
 62
7
 10
28.599492972317549
 20
40.334222331847492
 70
0
  0
SEQEND
  5
39DED
  8
0
  0
POLYLINE
  5
38AFE
  8
0
 62
7
 66
1
 70
0
 10
0
 20
0
 30
0
  0
VERTEX
  5
39DEE
  8
0
 62
7
 10
28.738330320373109
 20
40.813779623394282
 70
0
  0
VERTEX
  5
39DEF
  8
0
 62
7
 10
28.728339543465871
 20
40.813779623394282
 70
0
  0
SEQEND
  5
39DF0
  8
0
  0
POLYLINE
  5
38B02
  8
0
 62
7
 66
1
 70
0
 10
0
 20
0
 30
0
  0
VERTEX
  5
39DF1
  8
0
 62
7
 10
28.529902043515481
 20
41.215133247425847
 70
0
  0
VERTEX
  5
39DF2
  8
0
 62
7
 10
28.430683293540291
 20
41.244588813824727
 70
0
  0
SEQEND
  5
39DF3
  8
0
  0
POLYLINE
  5
38B06
  8
0
 62
7
 66
1
 70
0
 10
0
 20
0
 30
0
  0
VERTEX
  5
39DF4
  8
0
 62
7
 10
29.551372854892069
 20
39.433674372003189
 70
0
  0
VERTEX
  5
39DF5
  8
0
 62
7
 10
29.571009899157989
 20
39.423855849870229
 70
0
  0
SEQEND
  5
39DF6
  8
0
  0
POLYLINE
  5
38B0A
  8
0
 62
7
 66
1
 70
0
 10
0
 20
0
 30
0
  0
VERTEX
  5
39DF7
  8
0
 62
7
 10
29.590991452972439
 20
39.502231772159632
 70
0
  0
VERTEX
  5
39DF8
  8
0
 62
7
 10
29.620619274145579
 20
39.512050294292642
 70
0
  0
SEQEND
  5
39DF9
  8
0
  0
POLYLINE
  5
38B0E
  8
0
 62
7
 66
1
 70
0
 10
0
 20
0
 30
0
  0
VERTEX
  5
39DFA
  8
0
 62
7
 10
29.571009899157989
 20
39.4727762057608
 70
0
  0
VERTEX
  5
39DFB
  8
0
 62
7
 10
29.551372854892069
 20
39.482594727893741
 70
0
  0
SEQEND
  5
39DFC
  8
0
  0
POLYLINE
  5
38B12
  8
0
 62
7
 66
1
 70
0
 10
0
 20
0
 30
0
  0
VERTEX
  5
39DFD
  8
0
 62
7
 10
29.571009899157989
 20
39.551152128050212
 70
0
  0
VERTEX
  5
39DFE
  8
0
 62
7
 10
29.600982229879659
 20
39.560970650183151
 70
0
  0
SEQEND
  5
39DFF
  8
0
  0
POLYLINE
  5
38B16
  8
0
 62
7
 66
1
 70
0
 10
0
 20
0
 30
0
  0
VERTEX
  5
39E00
  8
0
 62
7
 10
29.571009899157989
 20
39.423855849870229
 70
0
  0
VERTEX
  5
39E01
  8
0
 62
7
 10
29.670228649133179
 20
39.384754016112652
 70
0
  0
SEQEND
  5
39E02
  8
0
  0
POLYLINE
  5
38B1A
  8
0
 62
7
 66
1
 70
0
 10
0
 20
0
 30
0
  0
VERTEX
  5
39E03
  8
0
 62
7
 10
29.590991452972439
 20
39.502231772159632
 70
0
  0
VERTEX
  5
39E04
  8
0
 62
7
 10
29.610973006786882
 20
39.5218688164256
 70
0
  0
SEQEND
  5
39E05
  8
0
  0
POLYLINE
  5
38B1E
  8
0
 62
7
 66
1
 70
0
 10
0
 20
0
 30
0
  0
VERTEX
  5
39E06
  8
0
 62
7
 10
29.620619274145579
 20
39.512050294292642
 70
0
  0
VERTEX
  5
39E07
  8
0
 62
7
 10
29.640600827960039
 20
39.502231772159632
 70
0
  0
SEQEND
  5
39E08
  8
0
  0
POLYLINE
  5
38B22
  8
0
 62
7
 66
1
 70
0
 10
0
 20
0
 30
0
  0
VERTEX
  5
39E09
  8
0
 62
7
 10
29.571009899157989
 20
39.4727762057608
 70
0
  0
VERTEX
  5
39E0A
  8
0
 62
7
 10
29.571009899157989
 20
39.423855849870229
 70
0
  0
SEQEND
  5
39E0B
  8
0
  0
POLYLINE
  5
38B26
  8
0
 62
7
 66
1
 70
0
 10
0
 20
0
 30
0
  0
VERTEX
  5
39E0C
  8
0
 62
7
 10
29.551372854892069
 20
39.433674372003189
 70
0
  0
VERTEX
  5
39E0D
  8
0
 62
7
 10
27.062291366799059
 20
38.728980090495327
 70
0
  0
SEQEND
  5
39E0E
  8
0
  0
POLYLINE
  5
38B2A
  8
0
 62
7
 66
1
 70
0
 10
0
 20
0
 30
0
  0
VERTEX
  5
39E0F
  8
0
 62
7
 10
29.501763479904469
 20
39.570789172316161
 70
0
  0
VERTEX
  5
39E10
  8
0
 62
7
 10
29.531391301077608
 20
39.551152128050212
 70
0
  0
SEQEND
  5
39E11
  8
0
  0
POLYLINE
  5
38B2E
  8
0
 62
7
 66
1
 70
0
 10
0
 20
0
 30
0
  0
VERTEX
  5
39E12
  8
0
 62
7
 10
29.531391301077608
 20
39.551152128050212
 70
0
  0
VERTEX
  5
39E13
  8
0
 62
7
 10
29.531391301077608
 20
39.512050294292642
 70
0
  0
SEQEND
  5
39E14
  8
0
  0
POLYLINE
  5
38B32
  8
0
 62
7
 66
1
 70
0
 10
0
 20
0
 30
0
  0
VERTEX
  5
39E15
  8
0
 62
7
 10
29.501763479904469
 20
39.5218688164256
 70
0
  0
VERTEX
  5
39E16
  8
0
 62
7
 10
29.501763479904469
 20
39.570789172316161
 70
0
  0
SEQEND
  5
39E17
  8
0
  0
POLYLINE
  5
38B36
  8
0
 62
7
 66
1
 70
0
 10
0
 20
0
 30
0
  0
VERTEX
  5
39E18
  8
0
 62
7
 10
29.590991452972439
 20
39.570789172316161
 70
0
  0
VERTEX
  5
39E19
  8
0
 62
7
 10
29.600982229879659
 20
39.560970650183151
 70
0
  0
SEQEND
  5
39E1A
  8
0
  0
POLYLINE
  5
38B3A
  8
0
 62
7
 66
1
 70
0
 10
0
 20
0
 30
0
  0
VERTEX
  5
39E1B
  8
0
 62
7
 10
27.012681991811451
 20
38.826820802276423
 70
0
  0
VERTEX
  5
39E1C
  8
0
 62
7
 10
27.00269121490425
 20
38.826820802276423
 70
0
  0
SEQEND
  5
39E1D
  8
0
  0
POLYLINE
  5
38B3E
  8
0
 62
7
 66
1
 70
0
 10
0
 20
0
 30
0
  0
VERTEX
  5
39E1E
  8
0
 62
7
 10
27.012681991811451
 20
38.81700228014347
 70
0
  0
VERTEX
  5
39E1F
  8
0
 62
7
 10
27.012681991811451
 20
38.866094890808249
 70
0
  0
SEQEND
  5
39E20
  8
0
  0
POLYLINE
  5
38B42
  8
0
 62
7
 66
1
 70
0
 10
0
 20
0
 30
0
  0
VERTEX
  5
39E21
  8
0
 62
7
 10
27.082272920613519
 20
38.719161568362381
 70
0
  0
VERTEX
  5
39E22
  8
0
 62
7
 10
27.181147161040169
 20
38.68005973460474
 70
0
  0
SEQEND
  5
39E23
  8
0
  0
POLYLINE
  5
38B46
  8
0
 62
7
 66
1
 70
0
 10
0
 20
0
 30
0
  0
VERTEX
  5
39E24
  8
0
 62
7
 10
27.082272920613519
 20
38.719161568362381
 70
0
  0
VERTEX
  5
39E25
  8
0
 62
7
 10
27.062291366799059
 20
38.728980090495327
 70
0
  0
SEQEND
  5
39E26
  8
0
  0
POLYLINE
  5
38B4A
  8
0
 62
7
 66
1
 70
0
 10
0
 20
0
 30
0
  0
VERTEX
  5
39E27
  8
0
 62
7
 10
27.012681991811451
 20
38.81700228014347
 70
0
  0
VERTEX
  5
39E28
  8
0
 62
7
 10
29.501763479904469
 20
39.5218688164256
 70
0
  0
SEQEND
  5
39E29
  8
0
  0
POLYLINE
  5
38B4E
  8
0
 62
7
 66
1
 70
0
 10
0
 20
0
 30
0
  0
VERTEX
  5
39E2A
  8
0
 62
7
 10
28.05378984745397
 20
40.040527941729913
 70
0
  0
VERTEX
  5
39E2B
  8
0
 62
7
 10
27.964561874385989
 20
40.07980203026181
 70
0
  0
SEQEND
  5
39E2C
  8
0
  0
POLYLINE
  5
38B52
  8
0
 62
7
 66
1
 70
0
 10
0
 20
0
 30
0
  0
VERTEX
  5
39E2D
  8
0
 62
7
 10
29.590991452972439
 20
42.076579373512558
 70
0
  0
VERTEX
  5
39E2E
  8
0
 62
7
 10
29.561363631799281
 20
42.076579373512558
 70
0
  0
VERTEX
  5
39E2F
  8
0
 62
7
 10
29.541382077984849
 20
42.076579373512558
 70
0
  0
VERTEX
  5
39E30
  8
0
 62
7
 10
29.521745033718929
 20
42.076579373512558
 70
0
  0
VERTEX
  5
39E31
  8
0
 62
7
 10
29.501763479904469
 20
42.076579373512558
 70
0
  0
SEQEND
  5
39E32
  8
0
  0
POLYLINE
  5
38B59
  8
0
 62
7
 66
1
 70
0
 10
0
 20
0
 30
0
  0
VERTEX
  5
39E33
  8
0
 62
7
 10
29.531391301077608
 20
42.125499729403153
 70
0
  0
VERTEX
  5
39E34
  8
0
 62
7
 10
29.521745033718929
 20
42.1156812072702
 70
0
  0
VERTEX
  5
39E35
  8
0
 62
7
 10
29.511754256811692
 20
42.105862685137183
 70
0
  0
VERTEX
  5
39E36
  8
0
 62
7
 10
29.501763479904469
 20
42.086225640871291
 70
0
  0
VERTEX
  5
39E37
  8
0
 62
7
 10
29.501763479904469
 20
42.076579373512558
 70
0
  0
SEQEND
  5
39E38
  8
0
  0
POLYLINE
  5
38B60
  8
0
 62
7
 66
1
 70
0
 10
0
 20
0
 30
0
  0
VERTEX
  5
39E39
  8
0
 62
7
 10
29.551372854892069
 20
42.125499729403153
 70
0
  0
VERTEX
  5
39E3A
  8
0
 62
7
 10
29.541382077984849
 20
42.125499729403153
 70
0
  0
VERTEX
  5
39E3B
  8
0
 62
7
 10
29.531391301077608
 20
42.125499729403153
 70
0
  0
SEQEND
  5
39E3C
  8
0
  0
POLYLINE
  5
38B65
  8
0
 62
7
 66
1
 70
0
 10
0
 20
0
 30
0
  0
VERTEX
  5
39E3D
  8
0
 62
7
 10
28.747976587731809
 20
40.735575955879071
 70
0
  0
VERTEX
  5
39E3E
  8
0
 62
7
 10
28.757967364639029
 20
40.784496311769637
 70
0
  0
VERTEX
  5
39E3F
  8
0
 62
7
 10
28.747976587731809
 20
40.833416667660153
 70
0
  0
SEQEND
  5
39E40
  8
0
  0
POLYLINE
  5
38B6A
  8
0
 62
7
 66
1
 70
0
 10
0
 20
0
 30
0
  0
VERTEX
  5
39E41
  8
0
 62
7
 10
28.668739391571052
 20
40.412598254136917
 70
0
  0
VERTEX
  5
39E42
  8
0
 62
7
 10
28.69836721274422
 20
40.490801921652093
 70
0
  0
VERTEX
  5
39E43
  8
0
 62
7
 10
28.728339543465871
 20
40.569177843941532
 70
0
  0
VERTEX
  5
39E44
  8
0
 62
7
 10
28.738330320373109
 20
40.647381511456729
 70
0
  0
VERTEX
  5
39E45
  8
0
 62
7
 10
28.747976587731809
 20
40.735575955879071
 70
0
  0
SEQEND
  5
39E46
  8
0
  0
POLYLINE
  5
38B71
  8
0
 62
7
 66
1
 70
0
 10
0
 20
0
 30
0
  0
VERTEX
  5
39E47
  8
0
 62
7
 10
27.012681991811451
 20
41.371712837230469
 70
0
  0
VERTEX
  5
39E48
  8
0
 62
7
 10
27.00269121490425
 20
41.361894315097508
 70
0
  0
VERTEX
  5
39E49
  8
0
 62
7
 10
26.993044947545531
 20
41.361894315097508
 70
0
  0
VERTEX
  5
39E4A
  8
0
 62
7
 10
26.993044947545531
 20
41.352248047738833
 70
0
  0
SEQEND
  5
39E4B
  8
0
  0
POLYLINE
  5
38B77
  8
0
 62
7
 66
1
 70
0
 10
0
 20
0
 30
0
  0
VERTEX
  5
39E4C
  8
0
 62
7
 10
27.0423098129846
 20
41.420633193121027
 70
0
  0
VERTEX
  5
39E4D
  8
0
 62
7
 10
27.032663545625919
 20
41.4109869257623
 70
0
  0
VERTEX
  5
39E4E
  8
0
 62
7
 10
27.022672768718682
 20
41.401168403629342
 70
0
  0
VERTEX
  5
39E4F
  8
0
 62
7
 10
27.022672768718682
 20
41.381531359363429
 70
0
  0
VERTEX
  5
39E50
  8
0
 62
7
 10
27.012681991811451
 20
41.371712837230469
 70
0
  0
SEQEND
  5
39E51
  8
0
  0
POLYLINE
  5
38B7E
  8
0
 62
7
 66
1
 70
0
 10
0
 20
0
 30
0
  0
VERTEX
  5
39E52
  8
0
 62
7
 10
29.571009899157989
 20
39.423855849870229
 70
0
  0
VERTEX
  5
39E53
  8
0
 62
7
 10
29.5810006760652
 20
39.433674372003189
 70
0
  0
VERTEX
  5
39E54
  8
0
 62
7
 10
29.600982229879659
 20
39.44349289413617
 70
0
  0
VERTEX
  5
39E55
  8
0
 62
7
 10
29.610973006786882
 20
39.453311416269123
 70
0
  0
VERTEX
  5
39E56
  8
0
 62
7
 10
29.620619274145579
 20
39.4727762057608
 70
0
  0
VERTEX
  5
39E57
  8
0
 62
7
 10
29.620619274145579
 20
39.492413250026686
 70
0
  0
VERTEX
  5
39E58
  8
0
 62
7
 10
29.620619274145579
 20
39.512050294292642
 70
0
  0
SEQEND
  5
39E59
  8
0
  0
POLYLINE
  5
38B87
  8
0
 62
7
 66
1
 70
0
 10
0
 20
0
 30
0
  0
VERTEX
  5
39E5A
  8
0
 62
7
 10
29.531391301077608
 20
39.512050294292642
 70
0
  0
VERTEX
  5
39E5B
  8
0
 62
7
 10
29.541382077984849
 20
39.502231772159632
 70
0
  0
VERTEX
  5
39E5C
  8
0
 62
7
 10
29.541382077984849
 20
39.492413250026686
 70
0
  0
VERTEX
  5
39E5D
  8
0
 62
7
 10
29.541382077984849
 20
39.482594727893741
 70
0
  0
VERTEX
  5
39E5E
  8
0
 62
7
 10
29.551372854892069
 20
39.482594727893741
 70
0
  0
SEQEND
  5
39E5F
  8
0
  0
POLYLINE
  5
38B8E
  8
0
 62
7
 66
1
 70
0
 10
0
 20
0
 30
0
  0
VERTEX
  5
39E60
  8
0
 62
7
 10
29.571009899157989
 20
39.4727762057608
 70
0
  0
VERTEX
  5
39E61
  8
0
 62
7
 10
29.571009899157989
 20
39.4727762057608
 70
0
  0
VERTEX
  5
39E62
  8
0
 62
7
 10
29.5810006760652
 20
39.482594727893741
 70
0
  0
VERTEX
  5
39E63
  8
0
 62
7
 10
29.5810006760652
 20
39.492413250026686
 70
0
  0
VERTEX
  5
39E64
  8
0
 62
7
 10
29.590991452972439
 20
39.492413250026686
 70
0
  0
VERTEX
  5
39E65
  8
0
 62
7
 10
29.590991452972439
 20
39.502231772159632
 70
0
  0
SEQEND
  5
39E66
  8
0
  0
POLYLINE
  5
38B96
  8
0
 62
7
 66
1
 70
0
 10
0
 20
0
 30
0
  0
VERTEX
  5
39E67
  8
0
 62
7
 10
29.501763479904469
 20
39.5218688164256
 70
0
  0
VERTEX
  5
39E68
  8
0
 62
7
 10
29.501763479904469
 20
39.502231772159632
 70
0
  0
VERTEX
  5
39E69
  8
0
 62
7
 10
29.511754256811692
 20
39.482594727893741
 70
0
  0
VERTEX
  5
39E6A
  8
0
 62
7
 10
29.521745033718929
 20
39.463129938402062
 70
0
  0
VERTEX
  5
39E6B
  8
0
 62
7
 10
29.531391301077608
 20
39.453311416269123
 70
0
  0
VERTEX
  5
39E6C
  8
0
 62
7
 10
29.541382077984849
 20
39.44349289413617
 70
0
  0
VERTEX
  5
39E6D
  8
0
 62
7
 10
29.551372854892069
 20
39.433674372003189
 70
0
  0
SEQEND
  5
39E6E
  8
0
  0
POLYLINE
  5
38B9F
  8
0
 62
7
 66
1
 70
0
 10
0
 20
0
 30
0
  0
VERTEX
  5
39E6F
  8
0
 62
7
 10
29.571009899157989
 20
39.551152128050212
 70
0
  0
VERTEX
  5
39E70
  8
0
 62
7
 10
29.571009899157989
 20
39.551152128050212
 70
0
  0
VERTEX
  5
39E71
  8
0
 62
7
 10
29.561363631799281
 20
39.551152128050212
 70
0
  0
VERTEX
  5
39E72
  8
0
 62
7
 10
29.551372854892069
 20
39.551152128050212
 70
0
  0
VERTEX
  5
39E73
  8
0
 62
7
 10
29.541382077984849
 20
39.551152128050212
 70
0
  0
VERTEX
  5
39E74
  8
0
 62
7
 10
29.531391301077608
 20
39.551152128050212
 70
0
  0
SEQEND
  5
39E75
  8
0
  0
POLYLINE
  5
38BA7
  8
0
 62
7
 66
1
 70
0
 10
0
 20
0
 30
0
  0
VERTEX
  5
39E76
  8
0
 62
7
 10
29.590991452972439
 20
39.570789172316161
 70
0
  0
VERTEX
  5
39E77
  8
0
 62
7
 10
29.561363631799281
 20
39.570789172316161
 70
0
  0
VERTEX
  5
39E78
  8
0
 62
7
 10
29.541382077984849
 20
39.570789172316161
 70
0
  0
VERTEX
  5
39E79
  8
0
 62
7
 10
29.521745033718929
 20
39.570789172316161
 70
0
  0
VERTEX
  5
39E7A
  8
0
 62
7
 10
29.501763479904469
 20
39.570789172316161
 70
0
  0
SEQEND
  5
39E7B
  8
0
  0
POLYLINE
  5
38BAE
  8
0
 62
7
 66
1
 70
0
 10
0
 20
0
 30
0
  0
VERTEX
  5
39E7C
  8
0
 62
7
 10
27.052300589891839
 20
38.719161568362381
 70
0
  0
VERTEX
  5
39E7D
  8
0
 62
7
 10
27.062291366799059
 20
38.719161568362381
 70
0
  0
VERTEX
  5
39E7E
  8
0
 62
7
 10
27.082272920613519
 20
38.719161568362381
 70
0
  0
SEQEND
  5
39E7F
  8
0
  0
POLYLINE
  5
38BB3
  8
0
 62
7
 66
1
 70
0
 10
0
 20
0
 30
0
  0
VERTEX
  5
39E80
  8
0
 62
7
 10
27.022672768718682
 20
38.7779004463859
 70
0
  0
VERTEX
  5
39E81
  8
0
 62
7
 10
27.022672768718682
 20
38.758263402119951
 70
0
  0
VERTEX
  5
39E82
  8
0
 62
7
 10
27.032663545625919
 20
38.738798612628273
 70
0
  0
VERTEX
  5
39E83
  8
0
 62
7
 10
27.0423098129846
 20
38.728980090495327
 70
0
  0
VERTEX
  5
39E84
  8
0
 62
7
 10
27.052300589891839
 20
38.719161568362381
 70
0
  0
SEQEND
  5
39E85
  8
0
  0
POLYLINE
  5
38BBA
  8
0
 62
7
 66
1
 70
0
 10
0
 20
0
 30
0
  0
VERTEX
  5
39E86
  8
0
 62
7
 10
27.012681991811451
 20
38.81700228014347
 70
0
  0
VERTEX
  5
39E87
  8
0
 62
7
 10
27.022672768718682
 20
38.797537490651791
 70
0
  0
VERTEX
  5
39E88
  8
0
 62
7
 10
27.022672768718682
 20
38.7779004463859
 70
0
  0
VERTEX
  5
39E89
  8
0
 62
7
 10
27.032663545625919
 20
38.758263402119951
 70
0
  0
VERTEX
  5
39E8A
  8
0
 62
7
 10
27.0423098129846
 20
38.748617134761282
 70
0
  0
VERTEX
  5
39E8B
  8
0
 62
7
 10
27.052300589891839
 20
38.738798612628273
 70
0
  0
VERTEX
  5
39E8C
  8
0
 62
7
 10
27.062291366799059
 20
38.728980090495327
 70
0
  0
SEQEND
  5
39E8D
  8
0
  0
POLYLINE
  5
38BC3
  8
0
 62
7
 66
1
 70
0
 10
0
 20
0
 30
0
  0
VERTEX
  5
39E8E
  8
0
 62
7
 10
26.993044947545531
 20
38.846457846542371
 70
0
  0
VERTEX
  5
39E8F
  8
0
 62
7
 10
26.993044947545531
 20
38.846457846542371
 70
0
  0
VERTEX
  5
39E90
  8
0
 62
7
 10
26.993044947545531
 20
38.836639324409362
 70
0
  0
VERTEX
  5
39E91
  8
0
 62
7
 10
27.00269121490425
 20
38.826820802276423
 70
0
  0
SEQEND
  5
39E92
  8
0
  0
POLYLINE
  5
38BC9
  8
0
 62
7
 66
1
 70
0
 10
0
 20
0
 30
0
  0
VERTEX
  5
39E93
  8
0
 62
7
 10
27.012681991811451
 20
38.866094890808249
 70
0
  0
VERTEX
  5
39E94
  8
0
 62
7
 10
27.00269121490425
 20
38.85627636867531
 70
0
  0
VERTEX
  5
39E95
  8
0
 62
7
 10
26.993044947545531
 20
38.85627636867531
 70
0
  0
VERTEX
  5
39E96
  8
0
 62
7
 10
26.993044947545531
 20
38.846457846542371
 70
0
  0
SEQEND
  5
39E97
  8
0
  0
POLYLINE
  5
38BCF
  8
0
 62
7
 66
1
 70
0
 10
0
 20
0
 30
0
  0
VERTEX
  5
39E98
  8
0
 62
7
 10
28.747976587731809
 20
40.833416667660153
 70
0
  0
VERTEX
  5
39E99
  8
0
 62
7
 10
28.728339543465871
 20
40.950894423707211
 70
0
  0
VERTEX
  5
39E9A
  8
0
 62
7
 10
28.688720945385509
 20
41.048735135488293
 70
0
  0
VERTEX
  5
39E9B
  8
0
 62
7
 10
28.639111570397919
 20
41.136757325136443
 70
0
  0
VERTEX
  5
39E9C
  8
0
 62
7
 10
28.559529864688638
 20
41.195496203159962
 70
0
  0
VERTEX
  5
39E9D
  8
0
 62
7
 10
28.470301891620672
 20
41.2347702916918
 70
0
  0
VERTEX
  5
39E9E
  8
0
 62
7
 10
28.37142765119399
 20
41.254235081183467
 70
0
  0
VERTEX
  5
39E9F
  8
0
 62
7
 10
28.272208901218789
 20
41.244588813824727
 70
0
  0
VERTEX
  5
39EA0
  8
0
 62
7
 10
28.1729901512436
 20
41.205314725292887
 70
0
  0
VERTEX
  5
39EA1
  8
0
 62
7
 10
28.0737714012684
 20
41.136757325136443
 70
0
  0
VERTEX
  5
39EA2
  8
0
 62
7
 10
27.984543428200428
 20
41.058553657621218
 70
0
  0
VERTEX
  5
39EA3
  8
0
 62
7
 10
27.905306232039688
 20
40.950894423707211
 70
0
  0
VERTEX
  5
39EA4
  8
0
 62
7
 10
27.845706080144879
 20
40.833416667660153
 70
0
  0
VERTEX
  5
39EA5
  8
0
 62
7
 10
27.796096705157279
 20
40.715938911613172
 70
0
  0
VERTEX
  5
39EA6
  8
0
 62
7
 10
27.776459660891359
 20
40.58864263343321
 70
0
  0
VERTEX
  5
39EA7
  8
0
 62
7
 10
27.766468883984121
 20
40.4615186100275
 70
0
  0
VERTEX
  5
39EA8
  8
0
 62
7
 10
27.786105928250041
 20
40.344040853980452
 70
0
  0
VERTEX
  5
39EA9
  8
0
 62
7
 10
27.825724526330418
 20
40.236381620066361
 70
0
  0
VERTEX
  5
39EAA
  8
0
 62
7
 10
27.885324678225231
 20
40.148187175644
 70
0
  0
VERTEX
  5
39EAB
  8
0
 62
7
 10
27.954915607027289
 20
40.07980203026181
 70
0
  0
VERTEX
  5
39EAC
  8
0
 62
7
 10
28.04414358009527
 20
40.040527941729913
 70
0
  0
VERTEX
  5
39EAD
  8
0
 62
7
 10
28.13337155316324
 20
40.020890897464021
 70
0
  0
VERTEX
  5
39EAE
  8
0
 62
7
 10
28.242236570497109
 20
40.040527941729913
 70
0
  0
VERTEX
  5
39EAF
  8
0
 62
7
 10
28.341455320472338
 20
40.069983508128807
 70
0
  0
VERTEX
  5
39EB0
  8
0
 62
7
 10
28.440674070447528
 20
40.128722386152333
 70
0
  0
VERTEX
  5
39EB1
  8
0
 62
7
 10
28.529902043515481
 20
40.216744575800462
 70
0
  0
VERTEX
  5
39EB2
  8
0
 62
7
 10
28.609139239676239
 20
40.314585287581572
 70
0
  0
SEQEND
  5
39EB3
  8
0
  0
POLYLINE
  5
38BEC
  8
0
 62
7
 66
1
 70
0
 10
0
 20
0
 30
0
  0
VERTEX
  5
39EB4
  8
0
 62
7
 10
28.430683293540291
 20
41.244588813824727
 70
0
  0
VERTEX
  5
39EB5
  8
0
 62
7
 10
28.33146454356509
 20
41.244588813824727
 70
0
  0
VERTEX
  5
39EB6
  8
0
 62
7
 10
28.232590303138441
 20
41.215133247425847
 70
0
  0
VERTEX
  5
39EB7
  8
0
 62
7
 10
28.143017820521919
 20
41.166212891535338
 70
0
  0
VERTEX
  5
39EB8
  8
0
 62
7
 10
28.05378984745397
 20
41.097655491378852
 70
0
  0
VERTEX
  5
39EB9
  8
0
 62
7
 10
27.964561874385989
 20
41.00963330173073
 70
0
  0
VERTEX
  5
39EBA
  8
0
 62
7
 10
27.895315455132479
 20
40.911792589949641
 70
0
  0
VERTEX
  5
39EBB
  8
0
 62
7
 10
27.845706080144879
 20
40.7943148339026
 70
0
  0
VERTEX
  5
39EBC
  8
0
 62
7
 10
27.8060874820645
 20
40.676837077855559
 70
0
  0
VERTEX
  5
39EBD
  8
0
 62
7
 10
27.786105928250041
 20
40.559359321808572
 70
0
  0
VERTEX
  5
39EBE
  8
0
 62
7
 10
27.786105928250041
 20
40.441881565761527
 70
0
  0
VERTEX
  5
39EBF
  8
0
 62
7
 10
27.8060874820645
 20
40.334222331847492
 70
0
  0
VERTEX
  5
39EC0
  8
0
 62
7
 10
27.835715303237642
 20
40.226563097933422
 70
0
  0
VERTEX
  5
39EC1
  8
0
 62
7
 10
27.895315455132479
 20
40.148187175644
 70
0
  0
VERTEX
  5
39EC2
  8
0
 62
7
 10
27.964561874385989
 20
40.07980203026181
 70
0
  0
SEQEND
  5
39EC3
  8
0
  0
POLYLINE
  5
38BFD
  8
0
 62
7
 66
1
 70
0
 10
0
 20
0
 30
0
  0
VERTEX
  5
39EC4
  8
0
 62
7
 10
30.245559595169912
 20
39.776289118011277
 70
0
  0
VERTEX
  5
39EC5
  8
0
 62
7
 10
30.295168970157508
 20
39.78610764014423
 70
0
  0
SEQEND
  5
39EC6
  8
0
  0
POLYLINE
  5
38C01
  8
0
 62
7
 66
1
 70
0
 10
0
 20
0
 30
0
  0
VERTEX
  5
39EC7
  8
0
 62
7
 10
30.374406166318241
 20
39.502231772159632
 70
0
  0
VERTEX
  5
39EC8
  8
0
 62
7
 10
30.334787568237889
 20
39.482594727893741
 70
0
  0
SEQEND
  5
39EC9
  8
0
  0
POLYLINE
  5
38C05
  8
0
 62
7
 66
1
 70
0
 10
0
 20
0
 30
0
  0
VERTEX
  5
39ECA
  8
0
 62
7
 10
30.305159747064721
 20
39.78610764014423
 70
0
  0
VERTEX
  5
39ECB
  8
0
 62
7
 10
30.295168970157508
 20
39.78610764014423
 70
0
  0
SEQEND
  5
39ECC
  8
0
  0
POLYLINE
  5
38C09
  8
0
 62
7
 66
1
 70
0
 10
0
 20
0
 30
0
  0
VERTEX
  5
39ECD
  8
0
 62
7
 10
30.305159747064721
 20
39.678448406230189
 70
0
  0
VERTEX
  5
39ECE
  8
0
 62
7
 10
30.354424612503809
 20
39.688266928363142
 70
0
  0
SEQEND
  5
39ECF
  8
0
  0
POLYLINE
  5
38C0D
  8
0
 62
7
 66
1
 70
0
 10
0
 20
0
 30
0
  0
VERTEX
  5
39ED0
  8
0
 62
7
 10
30.364415389411011
 20
39.609891006073731
 70
0
  0
VERTEX
  5
39ED1
  8
0
 62
7
 10
30.414024764398611
 20
39.61970952820667
 70
0
  0
SEQEND
  5
39ED2
  8
0
  0
POLYLINE
  5
38C11
  8
0
 62
7
 66
1
 70
0
 10
0
 20
0
 30
0
  0
VERTEX
  5
39ED3
  8
0
 62
7
 10
30.314806014423429
 20
39.78610764014423
 70
0
  0
VERTEX
  5
39ED4
  8
0
 62
7
 10
30.305159747064721
 20
39.78610764014423
 70
0
  0
SEQEND
  5
39ED5
  8
0
  0
POLYLINE
  5
38C15
  8
0
 62
7
 66
1
 70
0
 10
0
 20
0
 30
0
  0
VERTEX
  5
39ED6
  8
0
 62
7
 10
30.314806014423429
 20
39.78610764014423
 70
0
  0
VERTEX
  5
39ED7
  8
0
 62
7
 10
30.324796791330641
 20
39.78610764014423
 70
0
  0
SEQEND
  5
39ED8
  8
0
  0
POLYLINE
  5
38C19
  8
0
 62
7
 66
1
 70
0
 10
0
 20
0
 30
0
  0
VERTEX
  5
39ED9
  8
0
 62
7
 10
30.324796791330641
 20
39.78610764014423
 70
0
  0
VERTEX
  5
39EDA
  8
0
 62
7
 10
30.344778345145119
 20
39.78610764014423
 70
0
  0
SEQEND
  5
39EDB
  8
0
  0
POLYLINE
  5
38C1D
  8
0
 62
7
 66
1
 70
0
 10
0
 20
0
 30
0
  0
VERTEX
  5
39EDC
  8
0
 62
7
 10
30.344778345145119
 20
39.78610764014423
 70
0
  0
VERTEX
  5
39EDD
  8
0
 62
7
 10
30.354424612503809
 20
39.776289118011277
 70
0
  0
SEQEND
  5
39EDE
  8
0
  0
POLYLINE
  5
38C21
  8
0
 62
7
 66
1
 70
0
 10
0
 20
0
 30
0
  0
VERTEX
  5
39EDF
  8
0
 62
7
 10
30.354424612503809
 20
39.776289118011277
 70
0
  0
VERTEX
  5
39EE0
  8
0
 62
7
 10
30.374406166318241
 20
39.766470595878332
 70
0
  0
SEQEND
  5
39EE1
  8
0
  0
POLYLINE
  5
38C25
  8
0
 62
7
 66
1
 70
0
 10
0
 20
0
 30
0
  0
VERTEX
  5
39EE2
  8
0
 62
7
 10
30.374406166318241
 20
39.766470595878332
 70
0
  0
VERTEX
  5
39EE3
  8
0
 62
7
 10
30.374406166318241
 20
39.756652073745329
 70
0
  0
SEQEND
  5
39EE4
  8
0
  0
POLYLINE
  5
38C29
  8
0
 62
7
 66
1
 70
0
 10
0
 20
0
 30
0
  0
VERTEX
  5
39EE5
  8
0
 62
7
 10
30.374406166318241
 20
39.756652073745329
 70
0
  0
VERTEX
  5
39EE6
  8
0
 62
7
 10
30.3943877201327
 20
39.74700580638666
 70
0
  0
SEQEND
  5
39EE7
  8
0
  0
POLYLINE
  5
38C2D
  8
0
 62
7
 66
1
 70
0
 10
0
 20
0
 30
0
  0
VERTEX
  5
39EE8
  8
0
 62
7
 10
30.3943877201327
 20
39.74700580638666
 70
0
  0
VERTEX
  5
39EE9
  8
0
 62
7
 10
30.3943877201327
 20
39.7371872842537
 70
0
  0
SEQEND
  5
39EEA
  8
0
  0
POLYLINE
  5
38C31
  8
0
 62
7
 66
1
 70
0
 10
0
 20
0
 30
0
  0
VERTEX
  5
39EEB
  8
0
 62
7
 10
30.3943877201327
 20
39.7371872842537
 70
0
  0
VERTEX
  5
39EEC
  8
0
 62
7
 10
30.4040339874914
 20
39.717550239987759
 70
0
  0
SEQEND
  5
39EED
  8
0
  0
POLYLINE
  5
38C35
  8
0
 62
7
 66
1
 70
0
 10
0
 20
0
 30
0
  0
VERTEX
  5
39EEE
  8
0
 62
7
 10
30.4040339874914
 20
39.717550239987759
 70
0
  0
VERTEX
  5
39EEF
  8
0
 62
7
 10
30.414024764398611
 20
39.707731717854813
 70
0
  0
SEQEND
  5
39EF0
  8
0
  0
POLYLINE
  5
38C39
  8
0
 62
7
 66
1
 70
0
 10
0
 20
0
 30
0
  0
VERTEX
  5
39EF1
  8
0
 62
7
 10
30.414024764398611
 20
39.707731717854813
 70
0
  0
VERTEX
  5
39EF2
  8
0
 62
7
 10
30.424015541305831
 20
39.688266928363142
 70
0
  0
SEQEND
  5
39EF3
  8
0
  0
POLYLINE
  5
38C3D
  8
0
 62
7
 66
1
 70
0
 10
0
 20
0
 30
0
  0
VERTEX
  5
39EF4
  8
0
 62
7
 10
30.424015541305831
 20
39.688266928363142
 70
0
  0
VERTEX
  5
39EF5
  8
0
 62
7
 10
30.424015541305831
 20
39.678448406230189
 70
0
  0
SEQEND
  5
39EF6
  8
0
  0
POLYLINE
  5
38C41
  8
0
 62
7
 66
1
 70
0
 10
0
 20
0
 30
0
  0
VERTEX
  5
39EF7
  8
0
 62
7
 10
30.424015541305831
 20
39.678448406230189
 70
0
  0
VERTEX
  5
39EF8
  8
0
 62
7
 10
30.434006318213079
 20
39.65881136196424
 70
0
  0
SEQEND
  5
39EF9
  8
0
  0
POLYLINE
  5
38C45
  8
0
 62
7
 66
1
 70
0
 10
0
 20
0
 30
0
  0
VERTEX
  5
39EFA
  8
0
 62
7
 10
30.434006318213079
 20
39.65881136196424
 70
0
  0
VERTEX
  5
39EFB
  8
0
 62
7
 10
30.44365258557178
 20
39.629528050339623
 70
0
  0
SEQEND
  5
39EFC
  8
0
  0
POLYLINE
  5
38C49
  8
0
 62
7
 66
1
 70
0
 10
0
 20
0
 30
0
  0
VERTEX
  5
39EFD
  8
0
 62
7
 10
30.44365258557178
 20
39.629528050339623
 70
0
  0
VERTEX
  5
39EFE
  8
0
 62
7
 10
30.44365258557178
 20
39.61970952820667
 70
0
  0
SEQEND
  5
39EFF
  8
0
  0
POLYLINE
  5
38C4D
  8
0
 62
7
 66
1
 70
0
 10
0
 20
0
 30
0
  0
VERTEX
  5
39F00
  8
0
 62
7
 10
30.44365258557178
 20
39.61970952820667
 70
0
  0
VERTEX
  5
39F01
  8
0
 62
7
 10
30.44365258557178
 20
39.600072483940771
 70
0
  0
SEQEND
  5
39F02
  8
0
  0
POLYLINE
  5
38C51
  8
0
 62
7
 66
1
 70
0
 10
0
 20
0
 30
0
  0
VERTEX
  5
39F03
  8
0
 62
7
 10
30.44365258557178
 20
39.600072483940771
 70
0
  0
VERTEX
  5
39F04
  8
0
 62
7
 10
30.44365258557178
 20
39.590253961807768
 70
0
  0
SEQEND
  5
39F05
  8
0
  0
POLYLINE
  5
38C55
  8
0
 62
7
 66
1
 70
0
 10
0
 20
0
 30
0
  0
VERTEX
  5
39F06
  8
0
 62
7
 10
30.44365258557178
 20
39.590253961807768
 70
0
  0
VERTEX
  5
39F07
  8
0
 62
7
 10
30.434006318213079
 20
39.5806076944491
 70
0
  0
SEQEND
  5
39F08
  8
0
  0
POLYLINE
  5
38C59
  8
0
 62
7
 66
1
 70
0
 10
0
 20
0
 30
0
  0
VERTEX
  5
39F09
  8
0
 62
7
 10
30.434006318213079
 20
39.5806076944491
 70
0
  0
VERTEX
  5
39F0A
  8
0
 62
7
 10
30.434006318213079
 20
39.570789172316161
 70
0
  0
SEQEND
  5
39F0B
  8
0
  0
POLYLINE
  5
38C5D
  8
0
 62
7
 66
1
 70
0
 10
0
 20
0
 30
0
  0
VERTEX
  5
39F0C
  8
0
 62
7
 10
30.434006318213079
 20
39.570789172316161
 70
0
  0
VERTEX
  5
39F0D
  8
0
 62
7
 10
30.424015541305831
 20
39.541333605917259
 70
0
  0
SEQEND
  5
39F0E
  8
0
  0
POLYLINE
  5
38C61
  8
0
 62
7
 66
1
 70
0
 10
0
 20
0
 30
0
  0
VERTEX
  5
39F0F
  8
0
 62
7
 10
30.424015541305831
 20
39.541333605917259
 70
0
  0
VERTEX
  5
39F10
  8
0
 62
7
 10
30.414024764398611
 20
39.531515083784257
 70
0
  0
SEQEND
  5
39F11
  8
0
  0
POLYLINE
  5
38C65
  8
0
 62
7
 66
1
 70
0
 10
0
 20
0
 30
0
  0
VERTEX
  5
39F12
  8
0
 62
7
 10
30.414024764398611
 20
39.531687338558548
 70
0
  0
VERTEX
  5
39F13
  8
0
 62
7
 10
30.3943877201327
 20
39.502231772159632
 70
0
  0
SEQEND
  5
39F14
  8
0
  0
POLYLINE
  5
38C69
  8
0
 62
7
 66
1
 70
0
 10
0
 20
0
 30
0
  0
VERTEX
  5
39F15
  8
0
 62
7
 10
30.3943877201327
 20
39.502231772159632
 70
0
  0
VERTEX
  5
39F16
  8
0
 62
7
 10
30.374406166318241
 20
39.502231772159632
 70
0
  0
SEQEND
  5
39F17
  8
0
  0
POLYLINE
  5
38C6D
  8
0
 62
7
 66
1
 70
0
 10
0
 20
0
 30
0
  0
VERTEX
  5
39F18
  8
0
 62
7
 10
30.324796791330641
 20
39.678448406230189
 70
0
  0
VERTEX
  5
39F19
  8
0
 62
7
 10
30.3943877201327
 20
39.697913195721867
 70
0
  0
SEQEND
  5
39F1A
  8
0
  0
POLYLINE
  5
38C71
  8
0
 62
7
 66
1
 70
0
 10
0
 20
0
 30
0
  0
VERTEX
  5
39F1B
  8
0
 62
7
 10
30.3943877201327
 20
39.678448406230189
 70
0
  0
VERTEX
  5
39F1C
  8
0
 62
7
 10
30.4040339874914
 20
39.668629884097243
 70
0
  0
SEQEND
  5
39F1D
  8
0
  0
POLYLINE
  5
38C75
  8
0
 62
7
 66
1
 70
0
 10
0
 20
0
 30
0
  0
VERTEX
  5
39F1E
  8
0
 62
7
 10
30.324796791330641
 20
39.678448406230189
 70
0
  0
VERTEX
  5
39F1F
  8
0
 62
7
 10
30.324796791330641
 20
39.688266928363142
 70
0
  0
SEQEND
  5
39F20
  8
0
  0
POLYLINE
  5
38C79
  8
0
 62
7
 66
1
 70
0
 10
0
 20
0
 30
0
  0
VERTEX
  5
39F21
  8
0
 62
7
 10
30.354424612503809
 20
39.727368762120712
 70
0
  0
VERTEX
  5
39F22
  8
0
 62
7
 10
30.384396943225479
 20
39.7371872842537
 70
0
  0
SEQEND
  5
39F23
  8
0
  0
POLYLINE
  5
38C7D
  8
0
 62
7
 66
1
 70
0
 10
0
 20
0
 30
0
  0
VERTEX
  5
39F24
  8
0
 62
7
 10
30.434006318213079
 20
39.648992839831287
 70
0
  0
VERTEX
  5
39F25
  8
0
 62
7
 10
30.374406166318241
 20
39.629528050339623
 70
0
  0
SEQEND
  5
39F26
  8
0
  0
POLYLINE
  5
38C81
  8
0
 62
7
 66
1
 70
0
 10
0
 20
0
 30
0
  0
VERTEX
  5
39F27
  8
0
 62
7
 10
30.374406166318241
 20
39.629528050339623
 70
0
  0
VERTEX
  5
39F28
  8
0
 62
7
 10
30.344778345145119
 20
39.648992839831287
 70
0
  0
SEQEND
  5
39F29
  8
0
  0
POLYLINE
  5
38C85
  8
0
 62
7
 66
1
 70
0
 10
0
 20
0
 30
0
  0
VERTEX
  5
39F2A
  8
0
 62
7
 10
30.344778345145119
 20
39.648992839831287
 70
0
  0
VERTEX
  5
39F2B
  8
0
 62
7
 10
30.414024764398611
 20
39.668629884097243
 70
0
  0
SEQEND
  5
39F2C
  8
0
  0
POLYLINE
  5
38C89
  8
0
 62
7
 66
1
 70
0
 10
0
 20
0
 30
0
  0
VERTEX
  5
39F2D
  8
0
 62
7
 10
30.374406166318241
 20
39.629528050339623
 70
0
  0
VERTEX
  5
39F2E
  8
0
 62
7
 10
30.374406166318241
 20
39.609891006073731
 70
0
  0
SEQEND
  5
39F2F
  8
0
  0
POLYLINE
  5
38C8D
  8
0
 62
7
 66
1
 70
0
 10
0
 20
0
 30
0
  0
VERTEX
  5
39F30
  8
0
 62
7
 10
30.3943877201327
 20
39.600072483940771
 70
0
  0
VERTEX
  5
39F31
  8
0
 62
7
 10
30.354424612503809
 20
39.590253961807768
 70
0
  0
SEQEND
  5
39F32
  8
0
  0
POLYLINE
  5
38C91
  8
0
 62
7
 66
1
 70
0
 10
0
 20
0
 30
0
  0
VERTEX
  5
39F33
  8
0
 62
7
 10
30.344778345145119
 20
39.688266928363142
 70
0
  0
VERTEX
  5
39F34
  8
0
 62
7
 10
30.305159747064721
 20
39.678448406230189
 70
0
  0
SEQEND
  5
39F35
  8
0
  0
POLYLINE
  5
38C95
  8
0
 62
7
 66
1
 70
0
 10
0
 20
0
 30
0
  0
VERTEX
  5
39F36
  8
0
 62
7
 10
30.354424612503809
 20
39.639174317698348
 70
0
  0
VERTEX
  5
39F37
  8
0
 62
7
 10
30.364415389411011
 20
39.629528050339623
 70
0
  0
SEQEND
  5
39F38
  8
0
  0
POLYLINE
  5
38C99
  8
0
 62
7
 66
1
 70
0
 10
0
 20
0
 30
0
  0
VERTEX
  5
39F39
  8
0
 62
7
 10
30.364415389411011
 20
39.707731717854813
 70
0
  0
VERTEX
  5
39F3A
  8
0
 62
7
 10
30.354424612503809
 20
39.727368762120712
 70
0
  0
VERTEX
  5
39F3B
  8
0
 62
7
 10
30.344778345145119
 20
39.74700580638666
 70
0
  0
SEQEND
  5
39F3C
  8
0
  0
POLYLINE
  5
38C9E
  8
0
 62
7
 66
1
 70
0
 10
0
 20
0
 30
0
  0
VERTEX
  5
39F3D
  8
0
 62
7
 10
30.3943877201327
 20
39.69808545049608
 70
0
  0
VERTEX
  5
39F3E
  8
0
 62
7
 10
30.384396943225479
 20
39.717550239987759
 70
0
  0
VERTEX
  5
39F3F
  8
0
 62
7
 10
30.384396943225479
 20
39.7371872842537
 70
0
  0
SEQEND
  5
39F40
  8
0
  0
POLYLINE
  5
38CA3
  8
0
 62
7
 66
1
 70
0
 10
0
 20
0
 30
0
  0
VERTEX
  5
39F41
  8
0
 62
7
 10
30.384396943225479
 20
39.7371872842537
 70
0
  0
VERTEX
  5
39F42
  8
0
 62
7
 10
30.364415389411011
 20
39.74700580638666
 70
0
  0
VERTEX
  5
39F43
  8
0
 62
7
 10
30.344778345145119
 20
39.74700580638666
 70
0
  0
SEQEND
  5
39F44
  8
0
  0
POLYLINE
  5
38CA8
  8
0
 62
7
 66
1
 70
0
 10
0
 20
0
 30
0
  0
VERTEX
  5
39F45
  8
0
 62
7
 10
30.434006318213079
 20
39.648992839831287
 70
0
  0
VERTEX
  5
39F46
  8
0
 62
7
 10
30.414024764398611
 20
39.65881136196424
 70
0
  0
VERTEX
  5
39F47
  8
0
 62
7
 10
30.414024764398611
 20
39.668629884097243
 70
0
  0
SEQEND
  5
39F48
  8
0
  0
POLYLINE
  5
38CAD
  8
0
 62
7
 66
1
 70
0
 10
0
 20
0
 30
0
  0
VERTEX
  5
39F49
  8
0
 62
7
 10
30.434006318213079
 20
39.600072483940771
 70
0
  0
VERTEX
  5
39F4A
  8
0
 62
7
 10
30.414024764398611
 20
39.609891006073731
 70
0
  0
VERTEX
  5
39F4B
  8
0
 62
7
 10
30.414024764398611
 20
39.61970952820667
 70
0
  0
SEQEND
  5
39F4C
  8
0
  0
POLYLINE
  5
38CB2
  8
0
 62
7
 66
1
 70
0
 10
0
 20
0
 30
0
  0
VERTEX
  5
39F4D
  8
0
 62
7
 10
30.384396943225479
 20
39.551152128050212
 70
0
  0
VERTEX
  5
39F4E
  8
0
 62
7
 10
30.384396943225479
 20
39.5806076944491
 70
0
  0
VERTEX
  5
39F4F
  8
0
 62
7
 10
30.3943877201327
 20
39.600072483940771
 70
0
  0
SEQEND
  5
39F50
  8
0
  0
POLYLINE
  5
38CB7
  8
0
 62
7
 66
1
 70
0
 10
0
 20
0
 30
0
  0
VERTEX
  5
39F51
  8
0
 62
7
 10
30.434006318213079
 20
39.600072483940771
 70
0
  0
VERTEX
  5
39F52
  8
0
 62
7
 10
30.434006318213079
 20
39.629528050339623
 70
0
  0
VERTEX
  5
39F53
  8
0
 62
7
 10
30.434006318213079
 20
39.648992839831287
 70
0
  0
SEQEND
  5
39F54
  8
0
  0
POLYLINE
  5
38CBC
  8
0
 62
7
 66
1
 70
0
 10
0
 20
0
 30
0
  0
VERTEX
  5
39F55
  8
0
 62
7
 10
30.384396943225479
 20
39.551152128050212
 70
0
  0
VERTEX
  5
39F56
  8
0
 62
7
 10
30.364415389411011
 20
39.560970650183151
 70
0
  0
VERTEX
  5
39F57
  8
0
 62
7
 10
30.344778345145119
 20
39.560970650183151
 70
0
  0
SEQEND
  5
39F58
  8
0
  0
POLYLINE
  5
38CC1
  8
0
 62
7
 66
1
 70
0
 10
0
 20
0
 30
0
  0
VERTEX
  5
39F59
  8
0
 62
7
 10
30.344778345145119
 20
39.648992839831287
 70
0
  0
VERTEX
  5
39F5A
  8
0
 62
7
 10
30.324796791330641
 20
39.648992839831287
 70
0
  0
VERTEX
  5
39F5B
  8
0
 62
7
 10
30.305159747064721
 20
39.65881136196424
 70
0
  0
SEQEND
  5
39F5C
  8
0
  0
POLYLINE
  5
38CC6
  8
0
 62
7
 66
1
 70
0
 10
0
 20
0
 30
0
  0
VERTEX
  5
39F5D
  8
0
 62
7
 10
30.324796791330641
 20
39.678448406230189
 70
0
  0
VERTEX
  5
39F5E
  8
0
 62
7
 10
30.334787568237889
 20
39.668629884097243
 70
0
  0
VERTEX
  5
39F5F
  8
0
 62
7
 10
30.334787568237889
 20
39.65881136196424
 70
0
  0
VERTEX
  5
39F60
  8
0
 62
7
 10
30.334787568237889
 20
39.648992839831287
 70
0
  0
VERTEX
  5
39F61
  8
0
 62
7
 10
30.344778345145119
 20
39.648992839831287
 70
0
  0
SEQEND
  5
39F62
  8
0
  0
POLYLINE
  5
38CCD
  8
0
 62
7
 66
1
 70
0
 10
0
 20
0
 30
0
  0
VERTEX
  5
39F63
  8
0
 62
7
 10
30.344778345145119
 20
39.688266928363142
 70
0
  0
VERTEX
  5
39F64
  8
0
 62
7
 10
30.324796791330641
 20
39.69808545049608
 70
0
  0
VERTEX
  5
39F65
  8
0
 62
7
 10
30.305159747064721
 20
39.69808545049608
 70
0
  0
SEQEND
  5
39F66
  8
0
  0
POLYLINE
  5
38CD2
  8
0
 62
7
 66
1
 70
0
 10
0
 20
0
 30
0
  0
VERTEX
  5
39F67
  8
0
 62
7
 10
30.344778345145119
 20
39.560970650183151
 70
0
  0
VERTEX
  5
39F68
  8
0
 62
7
 10
30.354424612503809
 20
39.590253961807768
 70
0
  0
VERTEX
  5
39F69
  8
0
 62
7
 10
30.364415389411011
 20
39.61970952820667
 70
0
  0
SEQEND
  5
39F6A
  8
0
  0
POLYLINE
  5
38CD7
  8
0
 62
7
 66
1
 70
0
 10
0
 20
0
 30
0
  0
VERTEX
  5
39F6B
  8
0
 62
7
 10
30.305159747064721
 20
39.65881136196424
 70
0
  0
VERTEX
  5
39F6C
  8
0
 62
7
 10
30.305159747064721
 20
39.678448406230189
 70
0
  0
VERTEX
  5
39F6D
  8
0
 62
7
 10
30.305159747064721
 20
39.697913195721867
 70
0
  0
SEQEND
  5
39F6E
  8
0
  0
POLYLINE
  5
38CDC
  8
0
 62
7
 66
1
 70
0
 10
0
 20
0
 30
0
  0
VERTEX
  5
39F6F
  8
0
 62
7
 10
30.44365258557178
 20
39.590253961807768
 70
0
  0
VERTEX
  5
39F70
  8
0
 62
7
 10
30.44365258557178
 20
39.61970952820667
 70
0
  0
VERTEX
  5
39F71
  8
0
 62
7
 10
30.434006318213079
 20
39.65881136196424
 70
0
  0
VERTEX
  5
39F72
  8
0
 62
7
 10
30.424015541305831
 20
39.688266928363142
 70
0
  0
VERTEX
  5
39F73
  8
0
 62
7
 10
30.4040339874914
 20
39.717550239987759
 70
0
  0
VERTEX
  5
39F74
  8
0
 62
7
 10
30.3943877201327
 20
39.74700580638666
 70
0
  0
VERTEX
  5
39F75
  8
0
 62
7
 10
30.374406166318241
 20
39.766470595878332
 70
0
  0
SEQEND
  5
39F76
  8
0
  0
POLYLINE
  5
38CE5
  8
0
 62
7
 66
1
 70
0
 10
0
 20
0
 30
0
  0
VERTEX
  5
39F77
  8
0
 62
7
 10
30.245559595169912
 20
39.776289118011277
 70
0
  0
VERTEX
  5
39F78
  8
0
 62
7
 10
30.225578041355451
 20
39.766470595878332
 70
0
  0
VERTEX
  5
39F79
  8
0
 62
7
 10
30.205940997089531
 20
39.74700580638666
 70
0
  0
VERTEX
  5
39F7A
  8
0
 62
7
 10
30.195950220182311
 20
39.717550239987759
 70
0
  0
VERTEX
  5
39F7B
  8
0
 62
7
 10
30.195950220182311
 20
39.678448406230189
 70
0
  0
VERTEX
  5
39F7C
  8
0
 62
7
 10
30.195950220182311
 20
39.639174317698348
 70
0
  0
VERTEX
  5
39F7D
  8
0
 62
7
 10
30.205940997089531
 20
39.609891006073731
 70
0
  0
VERTEX
  5
39F7E
  8
0
 62
7
 10
30.215587264448232
 20
39.570789172316161
 70
0
  0
VERTEX
  5
39F7F
  8
0
 62
7
 10
30.235568818262688
 20
39.531515083784257
 70
0
  0
VERTEX
  5
39F80
  8
0
 62
7
 10
30.255550372077131
 20
39.512050294292642
 70
0
  0
VERTEX
  5
39F81
  8
0
 62
7
 10
30.285178193250289
 20
39.492413250026686
 70
0
  0
VERTEX
  5
39F82
  8
0
 62
7
 10
30.305159747064721
 20
39.482594727893741
 70
0
  0
VERTEX
  5
39F83
  8
0
 62
7
 10
30.334787568237889
 20
39.482594727893741
 70
0
  0
SEQEND
  5
39F84
  8
0
  0
POLYLINE
  5
38CF4
  8
0
 62
7
 66
1
 70
0
 10
0
 20
0
 30
0
  0
VERTEX
  5
39F85
  8
0
 62
7
 10
30.285178193250289
 20
39.78610764014423
 70
0
  0
VERTEX
  5
39F86
  8
0
 62
7
 10
30.265196639435828
 20
39.766470595878332
 70
0
  0
VERTEX
  5
39F87
  8
0
 62
7
 10
30.255550372077131
 20
39.74700580638666
 70
0
  0
VERTEX
  5
39F88
  8
0
 62
7
 10
30.245559595169912
 20
39.717550239987759
 70
0
  0
VERTEX
  5
39F89
  8
0
 62
7
 10
30.235568818262688
 20
39.688266928363142
 70
0
  0
VERTEX
  5
39F8A
  8
0
 62
7
 10
30.245559595169912
 20
39.648992839831287
 70
0
  0
VERTEX
  5
39F8B
  8
0
 62
7
 10
30.245559595169912
 20
39.609891006073731
 70
0
  0
VERTEX
  5
39F8C
  8
0
 62
7
 10
30.265196639435828
 20
39.570789172316161
 70
0
  0
VERTEX
  5
39F8D
  8
0
 62
7
 10
30.285178193250289
 20
39.541333605917259
 70
0
  0
VERTEX
  5
39F8E
  8
0
 62
7
 10
30.305159747064721
 20
39.5218688164256
 70
0
  0
VERTEX
  5
39F8F
  8
0
 62
7
 10
30.334787568237889
 20
39.502231772159632
 70
0
  0
VERTEX
  5
39F90
  8
0
 62
7
 10
30.354424612503809
 20
39.492413250026686
 70
0
  0
VERTEX
  5
39F91
  8
0
 62
7
 10
30.374406166318241
 20
39.502231772159632
 70
0
  0
SEQEND
  5
39F92
  8
0
  0
POLYLINE
  5
38D03
  8
0
 62
7
 66
1
 70
0
 10
0
 20
0
 30
0
  0
VERTEX
  5
39F93
  8
0
 62
7
 10
30.295168970157508
 20
39.78610764014423
 70
0
  0
VERTEX
  5
39F94
  8
0
 62
7
 10
30.295168970157508
 20
39.78610764014423
 70
0
  0
VERTEX
  5
39F95
  8
0
 62
7
 10
30.285178193250289
 20
39.78610764014423
 70
0
  0
SEQEND
  5
39F96
  8
0
  0
POLYLINE
  5
38D08
  8
0
 62
7
 66
1
 70
0
 10
0
 20
0
 30
0
  0
VERTEX
  5
39F97
  8
0
 62
7
 10
29.3133167568613
 20
37.544556262666468
 70
0
  0
VERTEX
  5
39F98
  8
0
 62
7
 10
29.3133167568613
 20
37.525091473174783
 70
0
  0
SEQEND
  5
39F99
  8
0
  0
POLYLINE
  5
38D0C
  8
0
 62
7
 66
1
 70
0
 10
0
 20
0
 30
0
  0
VERTEX
  5
39F9A
  8
0
 62
7
 10
28.519911266608261
 20
37.525091473174783
 70
0
  0
VERTEX
  5
39F9B
  8
0
 62
7
 10
28.519911266608261
 20
37.544556262666468
 70
0
  0
SEQEND
  5
39F9C
  8
0
  0
POLYLINE
  5
38D10
  8
0
 62
7
 66
1
 70
0
 10
0
 20
0
 30
0
  0
VERTEX
  5
39F9D
  8
0
 62
7
 10
29.293679712595381
 20
37.485817384642928
 70
0
  0
VERTEX
  5
39F9E
  8
0
 62
7
 10
29.3133167568613
 20
37.525091473174783
 70
0
  0
SEQEND
  5
39F9F
  8
0
  0
POLYLINE
  5
38D14
  8
0
 62
7
 66
1
 70
0
 10
0
 20
0
 30
0
  0
VERTEX
  5
39FA0
  8
0
 62
7
 10
29.293679712595381
 20
37.485817384642928
 70
0
  0
VERTEX
  5
39FA1
  8
0
 62
7
 10
29.283688935688161
 20
37.46635259515125
 70
0
  0
SEQEND
  5
39FA2
  8
0
  0
POLYLINE
  5
38D18
  8
0
 62
7
 66
1
 70
0
 10
0
 20
0
 30
0
  0
VERTEX
  5
39FA3
  8
0
 62
7
 10
29.283688935688161
 20
37.46635259515125
 70
0
  0
VERTEX
  5
39FA4
  8
0
 62
7
 10
29.2637073818737
 20
37.4565340730183
 70
0
  0
SEQEND
  5
39FA5
  8
0
  0
POLYLINE
  5
38D1C
  8
0
 62
7
 66
1
 70
0
 10
0
 20
0
 30
0
  0
VERTEX
  5
39FA6
  8
0
 62
7
 10
29.2637073818737
 20
37.4565340730183
 70
0
  0
VERTEX
  5
39FA7
  8
0
 62
7
 10
29.253716604966488
 20
37.446715550885358
 70
0
  0
SEQEND
  5
39FA8
  8
0
  0
POLYLINE
  5
38D20
  8
0
 62
7
 66
1
 70
0
 10
0
 20
0
 30
0
  0
VERTEX
  5
39FA9
  8
0
 62
7
 10
29.253716604966488
 20
37.446715550885358
 70
0
  0
VERTEX
  5
39FAA
  8
0
 62
7
 10
29.214098006886111
 20
37.4270785066194
 70
0
  0
SEQEND
  5
39FAB
  8
0
  0
POLYLINE
  5
38D24
  8
0
 62
7
 66
1
 70
0
 10
0
 20
0
 30
0
  0
VERTEX
  5
39FAC
  8
0
 62
7
 10
29.214098006886111
 20
37.4270785066194
 70
0
  0
VERTEX
  5
39FAD
  8
0
 62
7
 10
29.214098006886111
 20
37.4270785066194
 70
0
  0
SEQEND
  5
39FAE
  8
0
  0
POLYLINE
  5
38D28
  8
0
 62
7
 66
1
 70
0
 10
0
 20
0
 30
0
  0
VERTEX
  5
39FAF
  8
0
 62
7
 10
29.214098006886111
 20
37.4270785066194
 70
0
  0
VERTEX
  5
39FB0
  8
0
 62
7
 10
29.085251435737781
 20
37.387976672861853
 70
0
  0
SEQEND
  5
39FB1
  8
0
  0
POLYLINE
  5
38D2C
  8
0
 62
7
 66
1
 70
0
 10
0
 20
0
 30
0
  0
VERTEX
  5
39FB2
  8
0
 62
7
 10
29.085251435737781
 20
37.387976672861853
 70
0
  0
VERTEX
  5
39FB3
  8
0
 62
7
 10
29.05562361456461
 20
37.378158150728893
 70
0
  0
SEQEND
  5
39FB4
  8
0
  0
POLYLINE
  5
38D30
  8
0
 62
7
 66
1
 70
0
 10
0
 20
0
 30
0
  0
VERTEX
  5
39FB5
  8
0
 62
7
 10
29.05562361456461
 20
37.378158150728893
 70
0
  0
VERTEX
  5
39FB6
  8
0
 62
7
 10
29.016005016484229
 20
37.378158150728893
 70
0
  0
SEQEND
  5
39FB7
  8
0
  0
POLYLINE
  5
38D34
  8
0
 62
7
 66
1
 70
0
 10
0
 20
0
 30
0
  0
VERTEX
  5
39FB8
  8
0
 62
7
 10
29.016005016484229
 20
37.378158150728893
 70
0
  0
VERTEX
  5
39FB9
  8
0
 62
7
 10
29.006014239577009
 20
37.378158150728893
 70
0
  0
SEQEND
  5
39FBA
  8
0
  0
POLYLINE
  5
38D38
  8
0
 62
7
 66
1
 70
0
 10
0
 20
0
 30
0
  0
VERTEX
  5
39FBB
  8
0
 62
7
 10
29.006014239577009
 20
37.378158150728893
 70
0
  0
VERTEX
  5
39FBC
  8
0
 62
7
 10
28.97604190885534
 20
37.378158150728893
 70
0
  0
SEQEND
  5
39FBD
  8
0
  0
POLYLINE
  5
38D3C
  8
0
 62
7
 66
1
 70
0
 10
0
 20
0
 30
0
  0
VERTEX
  5
39FBE
  8
0
 62
7
 10
28.97604190885534
 20
37.378158150728893
 70
0
  0
VERTEX
  5
39FBF
  8
0
 62
7
 10
28.9464140876822
 20
37.368511883370147
 70
0
  0
SEQEND
  5
39FC0
  8
0
  0
POLYLINE
  5
38D40
  8
0
 62
7
 66
1
 70
0
 10
0
 20
0
 30
0
  0
VERTEX
  5
39FC1
  8
0
 62
7
 10
28.9464140876822
 20
37.368511883370147
 70
0
  0
VERTEX
  5
39FC2
  8
0
 62
7
 10
28.926432533867739
 20
37.378158150728893
 70
0
  0
SEQEND
  5
39FC3
  8
0
  0
POLYLINE
  5
38D44
  8
0
 62
7
 66
1
 70
0
 10
0
 20
0
 30
0
  0
VERTEX
  5
39FC4
  8
0
 62
7
 10
28.926432533867739
 20
37.378158150728893
 70
0
  0
VERTEX
  5
39FC5
  8
0
 62
7
 10
28.89680471269461
 20
37.378158150728893
 70
0
  0
SEQEND
  5
39FC6
  8
0
  0
POLYLINE
  5
38D48
  8
0
 62
7
 66
1
 70
0
 10
0
 20
0
 30
0
  0
VERTEX
  5
39FC7
  8
0
 62
7
 10
28.89680471269461
 20
37.378158150728893
 70
0
  0
VERTEX
  5
39FC8
  8
0
 62
7
 10
28.867176891521439
 20
37.378158150728893
 70
0
  0
SEQEND
  5
39FC9
  8
0
  0
POLYLINE
  5
38D4C
  8
0
 62
7
 66
1
 70
0
 10
0
 20
0
 30
0
  0
VERTEX
  5
39FCA
  8
0
 62
7
 10
28.867176891521439
 20
37.378158150728893
 70
0
  0
VERTEX
  5
39FCB
  8
0
 62
7
 10
28.837204560799758
 20
37.378158150728893
 70
0
  0
SEQEND
  5
39FCC
  8
0
  0
POLYLINE
  5
38D50
  8
0
 62
7
 66
1
 70
0
 10
0
 20
0
 30
0
  0
VERTEX
  5
39FCD
  8
0
 62
7
 10
28.837204560799758
 20
37.378158150728893
 70
0
  0
VERTEX
  5
39FCE
  8
0
 62
7
 10
28.807576739626612
 20
37.378158150728893
 70
0
  0
SEQEND
  5
39FCF
  8
0
  0
POLYLINE
  5
38D54
  8
0
 62
7
 66
1
 70
0
 10
0
 20
0
 30
0
  0
VERTEX
  5
39FD0
  8
0
 62
7
 10
28.807576739626612
 20
37.378158150728893
 70
0
  0
VERTEX
  5
39FD1
  8
0
 62
7
 10
28.787939695360709
 20
37.378158150728893
 70
0
  0
SEQEND
  5
39FD2
  8
0
  0
POLYLINE
  5
38D58
  8
0
 62
7
 66
1
 70
0
 10
0
 20
0
 30
0
  0
VERTEX
  5
39FD3
  8
0
 62
7
 10
28.787939695360709
 20
37.378158150728893
 70
0
  0
VERTEX
  5
39FD4
  8
0
 62
7
 10
28.757967364639029
 20
37.387976672861853
 70
0
  0
SEQEND
  5
39FD5
  8
0
  0
POLYLINE
  5
38D5C
  8
0
 62
7
 66
1
 70
0
 10
0
 20
0
 30
0
  0
VERTEX
  5
39FD6
  8
0
 62
7
 10
28.757967364639029
 20
37.387976672861853
 70
0
  0
VERTEX
  5
39FD7
  8
0
 62
7
 10
28.747976587731809
 20
37.387976672861853
 70
0
  0
SEQEND
  5
39FD8
  8
0
  0
POLYLINE
  5
38D60
  8
0
 62
7
 66
1
 70
0
 10
0
 20
0
 30
0
  0
VERTEX
  5
39FD9
  8
0
 62
7
 10
28.747976587731809
 20
37.387976672861853
 70
0
  0
VERTEX
  5
39FDA
  8
0
 62
7
 10
28.718348766558648
 20
37.387976672861853
 70
0
  0
SEQEND
  5
39FDB
  8
0
  0
POLYLINE
  5
38D64
  8
0
 62
7
 66
1
 70
0
 10
0
 20
0
 30
0
  0
VERTEX
  5
39FDC
  8
0
 62
7
 10
28.718348766558648
 20
37.387976672861853
 70
0
  0
VERTEX
  5
39FDD
  8
0
 62
7
 10
28.678730168478271
 20
37.397795194994771
 70
0
  0
SEQEND
  5
39FDE
  8
0
  0
POLYLINE
  5
38D68
  8
0
 62
7
 66
1
 70
0
 10
0
 20
0
 30
0
  0
VERTEX
  5
39FDF
  8
0
 62
7
 10
28.678730168478271
 20
37.397795194994771
 70
0
  0
VERTEX
  5
39FE0
  8
0
 62
7
 10
28.668739391571052
 20
37.407613717127731
 70
0
  0
SEQEND
  5
39FE1
  8
0
  0
POLYLINE
  5
38D6C
  8
0
 62
7
 66
1
 70
0
 10
0
 20
0
 30
0
  0
VERTEX
  5
39FE2
  8
0
 62
7
 10
28.668739391571052
 20
37.407613717127731
 70
0
  0
VERTEX
  5
39FE3
  8
0
 62
7
 10
28.619130016583451
 20
37.4270785066194
 70
0
  0
SEQEND
  5
39FE4
  8
0
  0
POLYLINE
  5
38D70
  8
0
 62
7
 66
1
 70
0
 10
0
 20
0
 30
0
  0
VERTEX
  5
39FE5
  8
0
 62
7
 10
28.619130016583451
 20
37.4270785066194
 70
0
  0
VERTEX
  5
39FE6
  8
0
 62
7
 10
28.569520641595869
 20
37.446715550885358
 70
0
  0
SEQEND
  5
39FE7
  8
0
  0
POLYLINE
  5
38D74
  8
0
 62
7
 66
1
 70
0
 10
0
 20
0
 30
0
  0
VERTEX
  5
39FE8
  8
0
 62
7
 10
28.569520641595869
 20
37.446715550885358
 70
0
  0
VERTEX
  5
39FE9
  8
0
 62
7
 10
28.539892820422718
 20
37.485817384642928
 70
0
  0
SEQEND
  5
39FEA
  8
0
  0
POLYLINE
  5
38D78
  8
0
 62
7
 66
1
 70
0
 10
0
 20
0
 30
0
  0
VERTEX
  5
39FEB
  8
0
 62
7
 10
28.539892820422718
 20
37.485817384642928
 70
0
  0
VERTEX
  5
39FEC
  8
0
 62
7
 10
28.519911266608261
 20
37.505454428908891
 70
0
  0
SEQEND
  5
39FED
  8
0
  0
POLYLINE
  5
38D7C
  8
0
 62
7
 66
1
 70
0
 10
0
 20
0
 30
0
  0
VERTEX
  5
39FEE
  8
0
 62
7
 10
28.519911266608261
 20
37.505454428908891
 70
0
  0
VERTEX
  5
39FEF
  8
0
 62
7
 10
28.519911266608261
 20
37.525091473174783
 70
0
  0
SEQEND
  5
39FF0
  8
0
  0
POLYLINE
  5
38D80
  8
0
 62
7
 66
1
 70
0
 10
0
 20
0
 30
0
  0
VERTEX
  5
39FF1
  8
0
 62
7
 10
28.539892820422718
 20
37.505454428908891
 70
0
  0
VERTEX
  5
39FF2
  8
0
 62
7
 10
28.549883597329941
 20
37.475998862509982
 70
0
  0
VERTEX
  5
39FF3
  8
0
 62
7
 10
28.569520641595869
 20
37.446715550885358
 70
0
  0
VERTEX
  5
39FF4
  8
0
 62
7
 10
28.619130016583451
 20
37.417432239260741
 70
0
  0
VERTEX
  5
39FF5
  8
0
 62
7
 10
28.678730168478271
 20
37.397795194994771
 70
0
  0
VERTEX
  5
39FF6
  8
0
 62
7
 10
28.747976587731809
 20
37.387976672861853
 70
0
  0
VERTEX
  5
39FF7
  8
0
 62
7
 10
28.82755829344109
 20
37.378158150728893
 70
0
  0
VERTEX
  5
39FF8
  8
0
 62
7
 10
28.916786266509039
 20
37.378158150728893
 70
0
  0
VERTEX
  5
39FF9
  8
0
 62
7
 10
28.9960234626698
 20
37.378158150728893
 70
0
  0
VERTEX
  5
39FFA
  8
0
 62
7
 10
29.07526065883054
 20
37.387976672861853
 70
0
  0
VERTEX
  5
39FFB
  8
0
 62
7
 10
29.144851587632591
 20
37.397795194994771
 70
0
  0
VERTEX
  5
39FFC
  8
0
 62
7
 10
29.214098006886111
 20
37.417432239260741
 70
0
  0
VERTEX
  5
39FFD
  8
0
 62
7
 10
29.253716604966488
 20
37.446715550885358
 70
0
  0
VERTEX
  5
39FFE
  8
0
 62
7
 10
29.283688935688161
 20
37.475998862509982
 70
0
  0
VERTEX
  5
39FFF
  8
0
 62
7
 10
29.293679712595381
 20
37.505454428908891
 70
0
  0
VERTEX
  5
3A000
  8
0
 62
7
 10
29.283688935688161
 20
37.534909995307721
 70
0
  0
VERTEX
  5
3A001
  8
0
 62
7
 10
29.253716604966488
 20
37.554374784799393
 70
0
  0
VERTEX
  5
3A002
  8
0
 62
7
 10
29.214098006886111
 20
37.583830351198287
 70
0
  0
VERTEX
  5
3A003
  8
0
 62
7
 10
29.144851587632591
 20
37.603295140689973
 70
0
  0
VERTEX
  5
3A004
  8
0
 62
7
 10
29.07526065883054
 20
37.613113662822911
 70
0
  0
VERTEX
  5
3A005
  8
0
 62
7
 10
28.9960234626698
 20
37.62293218495585
 70
0
  0
VERTEX
  5
3A006
  8
0
 62
7
 10
28.916786266509039
 20
37.63275070708881
 70
0
  0
VERTEX
  5
3A007
  8
0
 62
7
 10
28.82755829344109
 20
37.62293218495585
 70
0
  0
VERTEX
  5
3A008
  8
0
 62
7
 10
28.747976587731809
 20
37.613113662822911
 70
0
  0
VERTEX
  5
3A009
  8
0
 62
7
 10
28.678730168478271
 20
37.603295140689973
 70
0
  0
VERTEX
  5
3A00A
  8
0
 62
7
 10
28.619130016583451
 20
37.583830351198287
 70
0
  0
VERTEX
  5
3A00B
  8
0
 62
7
 10
28.569520641595869
 20
37.554374784799393
 70
0
  0
VERTEX
  5
3A00C
  8
0
 62
7
 10
28.549883597329941
 20
37.534909995307721
 70
0
  0
VERTEX
  5
3A00D
  8
0
 62
7
 10
28.539892820422718
 20
37.505454428908891
 70
0
  0
SEQEND
  5
3A00E
  8
0
  0
POLYLINE
  5
38D9F
  8
0
 62
7
 66
1
 70
0
 10
0
 20
0
 30
0
  0
VERTEX
  5
3A00F
  8
0
 62
7
 10
29.3133167568613
 20
37.544556262666468
 70
0
  0
VERTEX
  5
3A010
  8
0
 62
7
 10
29.303325979954082
 20
37.574011829065341
 70
0
  0
VERTEX
  5
3A011
  8
0
 62
7
 10
29.283688935688161
 20
37.593476618556963
 70
0
  0
VERTEX
  5
3A012
  8
0
 62
7
 10
29.2637073818737
 20
37.613113662822911
 70
0
  0
VERTEX
  5
3A013
  8
0
 62
7
 10
29.22408878379332
 20
37.63275070708881
 70
0
  0
VERTEX
  5
3A014
  8
0
 62
7
 10
29.174479408805741
 20
37.652215496580467
 70
0
  0
VERTEX
  5
3A015
  8
0
 62
7
 10
29.11487925691091
 20
37.662034018713442
 70
0
  0
VERTEX
  5
3A016
  8
0
 62
7
 10
29.05562361456461
 20
37.67185254084643
 70
0
  0
VERTEX
  5
3A017
  8
0
 62
7
 10
28.9960234626698
 20
37.681671062979383
 70
0
  0
SEQEND
  5
3A018
  8
0
  0
POLYLINE
  5
38DAA
  8
0
 62
7
 66
1
 70
0
 10
0
 20
0
 30
0
  0
VERTEX
  5
3A019
  8
0
 62
7
 10
28.9960234626698
 20
37.681671062979383
 70
0
  0
VERTEX
  5
3A01A
  8
0
 62
7
 10
28.906795489601819
 20
37.681671062979383
 70
0
  0
VERTEX
  5
3A01B
  8
0
 62
7
 10
28.817567516533838
 20
37.681671062979383
 70
0
  0
VERTEX
  5
3A01C
  8
0
 62
7
 10
28.738330320373109
 20
37.67185254084643
 70
0
  0
VERTEX
  5
3A01D
  8
0
 62
7
 10
28.658748614663839
 20
37.652215496580467
 70
0
  0
VERTEX
  5
3A01E
  8
0
 62
7
 10
28.599492972317549
 20
37.63275070708881
 70
0
  0
VERTEX
  5
3A01F
  8
0
 62
7
 10
28.559529864688638
 20
37.603295140689973
 70
0
  0
VERTEX
  5
3A020
  8
0
 62
7
 10
28.529902043515481
 20
37.574011829065341
 70
0
  0
VERTEX
  5
3A021
  8
0
 62
7
 10
28.519911266608261
 20
37.544556262666468
 70
0
  0
SEQEND
  5
3A022
  8
0
  0
POLYLINE
  5
38DB5
  8
0
 62
7
 66
1
 70
0
 10
0
 20
0
 30
0
  0
VERTEX
  5
3A023
  8
0
 62
7
 10
29.3133167568613
 20
37.525091473174783
 70
0
  0
VERTEX
  5
3A024
  8
0
 62
7
 10
29.303325979954082
 20
37.554374784799393
 70
0
  0
VERTEX
  5
3A025
  8
0
 62
7
 10
29.273698158780931
 20
37.574011829065341
 70
0
  0
VERTEX
  5
3A026
  8
0
 62
7
 10
29.234079560700561
 20
37.603295140689973
 70
0
  0
VERTEX
  5
3A027
  8
0
 62
7
 10
29.174479408805741
 20
37.62293218495585
 70
0
  0
VERTEX
  5
3A028
  8
0
 62
7
 10
29.11487925691091
 20
37.642569229221813
 70
0
  0
VERTEX
  5
3A029
  8
0
 62
7
 10
29.035642060750181
 20
37.652387751354752
 70
0
  0
VERTEX
  5
3A02A
  8
0
 62
7
 10
28.95640486458943
 20
37.662034018713442
 70
0
  0
VERTEX
  5
3A02B
  8
0
 62
7
 10
28.867176891521439
 20
37.652387751354752
 70
0
  0
VERTEX
  5
3A02C
  8
0
 62
7
 10
28.787939695360709
 20
37.652387751354752
 70
0
  0
VERTEX
  5
3A02D
  8
0
 62
7
 10
28.708357989651429
 20
37.642569229221813
 70
0
  0
VERTEX
  5
3A02E
  8
0
 62
7
 10
28.649102347305131
 20
37.62293218495585
 70
0
  0
VERTEX
  5
3A02F
  8
0
 62
7
 10
28.589502195410319
 20
37.603295140689973
 70
0
  0
VERTEX
  5
3A030
  8
0
 62
7
 10
28.549883597329941
 20
37.574011829065341
 70
0
  0
VERTEX
  5
3A031
  8
0
 62
7
 10
28.519911266608261
 20
37.554374784799393
 70
0
  0
SEQEND
  5
3A032
  8
0
  0
POLYLINE
  5
38DC6
  8
0
 62
7
 66
1
 70
0
 10
0
 20
0
 30
0
  0
VERTEX
  5
3A033
  8
0
 62
7
 10
28.519911266608261
 20
37.554374784799393
 70
0
  0
VERTEX
  5
3A034
  8
0
 62
7
 10
28.519911266608261
 20
37.534909995307721
 70
0
  0
VERTEX
  5
3A035
  8
0
 62
7
 10
28.519911266608261
 20
37.525091473174783
 70
0
  0
SEQEND
  5
3A036
  8
0
  0
POLYLINE
  5
38DCB
  8
0
 62
7
 66
1
 70
0
 10
0
 20
0
 30
0
  0
VERTEX
  5
3A037
  8
0
 62
7
 10
71.2701011430735
 20
21.697806049614218
 70
0
  0
VERTEX
  5
3A038
  8
0
 62
7
 10
71.250119589259043
 20
21.678169005348309
 70
0
  0
SEQEND
  5
3A039
  8
0
  0
POLYLINE
  5
38DCF
  8
0
 62
7
 66
1
 70
0
 10
0
 20
0
 30
0
  0
VERTEX
  5
3A03A
  8
0
 62
7
 10
71.2701011430735
 20
21.697806049614218
 70
0
  0
VERTEX
  5
3A03B
  8
0
 62
7
 10
71.388956937314632
 20
21.83474859515292
 70
0
  0
SEQEND
  5
3A03C
  8
0
  0
POLYLINE
  5
38DD3
  8
0
 62
7
 66
1
 70
0
 10
0
 20
0
 30
0
  0
VERTEX
  5
3A03D
  8
0
 62
7
 10
71.388956937314632
 20
21.83474859515292
 70
0
  0
VERTEX
  5
3A03E
  8
0
 62
7
 10
71.468538643023891
 20
22.00114670709047
 70
0
  0
SEQEND
  5
3A03F
  8
0
  0
POLYLINE
  5
38DD7
  8
0
 62
7
 66
1
 70
0
 10
0
 20
0
 30
0
  0
VERTEX
  5
3A040
  8
0
 62
7
 10
71.468538643023891
 20
22.00114670709047
 70
0
  0
VERTEX
  5
3A041
  8
0
 62
7
 10
71.4781849103826
 20
22.050067062981011
 70
0
  0
SEQEND
  5
3A042
  8
0
  0
POLYLINE
  5
38DDB
  8
0
 62
7
 66
1
 70
0
 10
0
 20
0
 30
0
  0
VERTEX
  5
3A043
  8
0
 62
7
 10
71.4781849103826
 20
22.050067062981011
 70
0
  0
VERTEX
  5
3A044
  8
0
 62
7
 10
71.488175687289811
 20
22.118624463137511
 70
0
  0
SEQEND
  5
3A045
  8
0
  0
POLYLINE
  5
38DDF
  8
0
 62
7
 66
1
 70
0
 10
0
 20
0
 30
0
  0
VERTEX
  5
3A046
  8
0
 62
7
 10
71.488175687289811
 20
22.118624463137511
 70
0
  0
VERTEX
  5
3A047
  8
0
 62
7
 10
71.498166464197041
 20
22.177363341161
 70
0
  0
SEQEND
  5
3A048
  8
0
  0
POLYLINE
  5
38DE3
  8
0
 62
7
 66
1
 70
0
 10
0
 20
0
 30
0
  0
VERTEX
  5
3A049
  8
0
 62
7
 10
71.498166464197041
 20
22.177363341161
 70
0
  0
VERTEX
  5
3A04A
  8
0
 62
7
 10
71.498166464197041
 20
22.226283697051571
 70
0
  0
SEQEND
  5
3A04B
  8
0
  0
POLYLINE
  5
38DE7
  8
0
 62
7
 66
1
 70
0
 10
0
 20
0
 30
0
  0
VERTEX
  5
3A04C
  8
0
 62
7
 10
71.488175687289811
 20
22.23610221918452
 70
0
  0
VERTEX
  5
3A04D
  8
0
 62
7
 10
71.498166464197041
 20
22.285022575075061
 70
0
  0
SEQEND
  5
3A04E
  8
0
  0
POLYLINE
  5
38DEB
  8
0
 62
7
 66
1
 70
0
 10
0
 20
0
 30
0
  0
VERTEX
  5
3A04F
  8
0
 62
7
 10
71.488175687289811
 20
22.314478141473948
 70
0
  0
VERTEX
  5
3A050
  8
0
 62
7
 10
71.488175687289811
 20
22.353579975231529
 70
0
  0
SEQEND
  5
3A051
  8
0
  0
POLYLINE
  5
38DEF
  8
0
 62
7
 66
1
 70
0
 10
0
 20
0
 30
0
  0
VERTEX
  5
3A052
  8
0
 62
7
 10
71.488175687289811
 20
22.314478141473948
 70
0
  0
VERTEX
  5
3A053
  8
0
 62
7
 10
71.488175687289811
 20
22.294841097208039
 70
0
  0
SEQEND
  5
3A054
  8
0
  0
POLYLINE
  5
38DF3
  8
0
 62
7
 66
1
 70
0
 10
0
 20
0
 30
0
  0
VERTEX
  5
3A055
  8
0
 62
7
 10
71.488175687289811
 20
22.294841097208039
 70
0
  0
VERTEX
  5
3A056
  8
0
 62
7
 10
71.498166464197041
 20
22.285022575075061
 70
0
  0
SEQEND
  5
3A057
  8
0
  0
POLYLINE
  5
38DF7
  8
0
 62
7
 66
1
 70
0
 10
0
 20
0
 30
0
  0
VERTEX
  5
3A058
  8
0
 62
7
 10
70.040546564387824
 20
21.012576557598042
 70
0
  0
VERTEX
  5
3A059
  8
0
 62
7
 10
69.990937189400228
 20
20.992939513332121
 70
0
  0
SEQEND
  5
3A05A
  8
0
  0
POLYLINE
  5
38DFB
  8
0
 62
7
 66
1
 70
0
 10
0
 20
0
 30
0
  0
VERTEX
  5
3A05B
  8
0
 62
7
 10
69.990937189400228
 20
20.992939513332121
 70
0
  0
VERTEX
  5
3A05C
  8
0
 62
7
 10
69.980946412493012
 20
20.992939513332121
 70
0
  0
SEQEND
  5
3A05D
  8
0
  0
POLYLINE
  5
38DFF
  8
0
 62
7
 66
1
 70
0
 10
0
 20
0
 30
0
  0
VERTEX
  5
3A05E
  8
0
 62
7
 10
69.980946412493012
 20
20.992939513332121
 70
0
  0
VERTEX
  5
3A05F
  8
0
 62
7
 10
69.960964858678551
 20
20.992939513332121
 70
0
  0
SEQEND
  5
3A060
  8
0
  0
POLYLINE
  5
38E03
  8
0
 62
7
 66
1
 70
0
 10
0
 20
0
 30
0
  0
VERTEX
  5
3A061
  8
0
 62
7
 10
69.960964858678551
 20
20.992939513332121
 70
0
  0
VERTEX
  5
3A062
  8
0
 62
7
 10
69.891718439425034
 20
20.973474723840472
 70
0
  0
SEQEND
  5
3A063
  8
0
  0
POLYLINE
  5
38E07
  8
0
 62
7
 66
1
 70
0
 10
0
 20
0
 30
0
  0
VERTEX
  5
3A064
  8
0
 62
7
 10
69.891718439425034
 20
20.973474723840472
 70
0
  0
VERTEX
  5
3A065
  8
0
 62
7
 10
69.544797324060369
 20
20.9342006353086
 70
0
  0
SEQEND
  5
3A066
  8
0
  0
POLYLINE
  5
38E0B
  8
0
 62
7
 66
1
 70
0
 10
0
 20
0
 30
0
  0
VERTEX
  5
3A067
  8
0
 62
7
 10
69.544797324060369
 20
20.9342006353086
 70
0
  0
VERTEX
  5
3A068
  8
0
 62
7
 10
69.445578574085175
 20
20.914735845816949
 70
0
  0
SEQEND
  5
3A069
  8
0
  0
POLYLINE
  5
38E0F
  8
0
 62
7
 66
1
 70
0
 10
0
 20
0
 30
0
  0
VERTEX
  5
3A06A
  8
0
 62
7
 10
69.445578574085175
 20
20.914735845816949
 70
0
  0
VERTEX
  5
3A06B
  8
0
 62
7
 10
69.395969199097578
 20
20.914735845816949
 70
0
  0
SEQEND
  5
3A06C
  8
0
  0
POLYLINE
  5
38E13
  8
0
 62
7
 66
1
 70
0
 10
0
 20
0
 30
0
  0
VERTEX
  5
3A06D
  8
0
 62
7
 10
69.395969199097578
 20
20.914735845816949
 70
0
  0
VERTEX
  5
3A06E
  8
0
 62
7
 10
69.375987645283132
 20
20.914735845816949
 70
0
  0
SEQEND
  5
3A06F
  8
0
  0
POLYLINE
  5
38E17
  8
0
 62
7
 66
1
 70
0
 10
0
 20
0
 30
0
  0
VERTEX
  5
3A070
  8
0
 62
7
 10
69.375987645283132
 20
20.914735845816949
 70
0
  0
VERTEX
  5
3A071
  8
0
 62
7
 10
69.207522476054407
 20
20.9342006353086
 70
0
  0
SEQEND
  5
3A072
  8
0
  0
POLYLINE
  5
38E1B
  8
0
 62
7
 66
1
 70
0
 10
0
 20
0
 30
0
  0
VERTEX
  5
3A073
  8
0
 62
7
 10
69.207522476054407
 20
20.9342006353086
 70
0
  0
VERTEX
  5
3A074
  8
0
 62
7
 10
69.187540922239975
 20
20.9342006353086
 70
0
  0
SEQEND
  5
3A075
  8
0
  0
POLYLINE
  5
38E1F
  8
0
 62
7
 66
1
 70
0
 10
0
 20
0
 30
0
  0
VERTEX
  5
3A076
  8
0
 62
7
 10
69.187540922239975
 20
20.9342006353086
 70
0
  0
VERTEX
  5
3A077
  8
0
 62
7
 10
68.820638253060849
 20
21.002758035465071
 70
0
  0
SEQEND
  5
3A078
  8
0
  0
POLYLINE
  5
38E23
  8
0
 62
7
 66
1
 70
0
 10
0
 20
0
 30
0
  0
VERTEX
  5
3A079
  8
0
 62
7
 10
68.820638253060849
 20
21.002758035465071
 70
0
  0
VERTEX
  5
3A07A
  8
0
 62
7
 10
68.810991985702174
 20
21.002758035465071
 70
0
  0
SEQEND
  5
3A07B
  8
0
  0
POLYLINE
  5
38E27
  8
0
 62
7
 66
1
 70
0
 10
0
 20
0
 30
0
  0
VERTEX
  5
3A07C
  8
0
 62
7
 10
70.040546564387824
 20
21.012576557598042
 70
0
  0
VERTEX
  5
3A07D
  8
0
 62
7
 10
70.09980220673414
 20
21.022395079731
 70
0
  0
SEQEND
  5
3A07E
  8
0
  0
POLYLINE
  5
38E2B
  8
0
 62
7
 66
1
 70
0
 10
0
 20
0
 30
0
  0
VERTEX
  5
3A07F
  8
0
 62
7
 10
70.09980220673414
 20
21.022395079731
 70
0
  0
VERTEX
  5
3A080
  8
0
 62
7
 10
70.149411581721722
 20
21.05167839135564
 70
0
  0
SEQEND
  5
3A081
  8
0
  0
POLYLINE
  5
38E2F
  8
0
 62
7
 66
1
 70
0
 10
0
 20
0
 30
0
  0
VERTEX
  5
3A082
  8
0
 62
7
 10
70.149411581721722
 20
21.05167839135564
 70
0
  0
VERTEX
  5
3A083
  8
0
 62
7
 10
70.685123929678056
 20
21.286633903449658
 70
0
  0
SEQEND
  5
3A084
  8
0
  0
POLYLINE
  5
38E33
  8
0
 62
7
 66
1
 70
0
 10
0
 20
0
 30
0
  0
VERTEX
  5
3A085
  8
0
 62
7
 10
70.685123929678056
 20
21.286633903449658
 70
0
  0
VERTEX
  5
3A086
  8
0
 62
7
 10
70.695114706585287
 20
21.286633903449658
 70
0
  0
SEQEND
  5
3A087
  8
0
  0
POLYLINE
  5
38E37
  8
0
 62
7
 66
1
 70
0
 10
0
 20
0
 30
0
  0
VERTEX
  5
3A088
  8
0
 62
7
 10
70.704760973943991
 20
21.296452425582629
 70
0
  0
VERTEX
  5
3A089
  8
0
 62
7
 10
70.714751750851235
 20
21.296452425582629
 70
0
  0
SEQEND
  5
3A08A
  8
0
  0
POLYLINE
  5
38E3B
  8
0
 62
7
 66
1
 70
0
 10
0
 20
0
 30
0
  0
VERTEX
  5
3A08B
  8
0
 62
7
 10
70.714751750851235
 20
21.296452425582629
 70
0
  0
VERTEX
  5
3A08C
  8
0
 62
7
 10
70.744379572024371
 20
21.316089469848539
 70
0
  0
SEQEND
  5
3A08D
  8
0
  0
POLYLINE
  5
38E3F
  8
0
 62
7
 66
1
 70
0
 10
0
 20
0
 30
0
  0
VERTEX
  5
3A08E
  8
0
 62
7
 10
70.744379572024371
 20
21.316089469848539
 70
0
  0
VERTEX
  5
3A08F
  8
0
 62
7
 10
71.250119589259043
 20
21.678169005348309
 70
0
  0
SEQEND
  5
3A090
  8
0
  0
POLYLINE
  5
38E43
  8
0
 62
7
 66
1
 70
0
 10
0
 20
0
 30
0
  0
VERTEX
  5
3A091
  8
0
 62
7
 10
68.810991985702174
 20
21.002758035465071
 70
0
  0
VERTEX
  5
3A092
  8
0
 62
7
 10
67.2837811570909
 20
21.61943012732479
 70
0
  0
SEQEND
  5
3A093
  8
0
  0
POLYLINE
  5
38E47
  8
0
 62
7
 66
1
 70
0
 10
0
 20
0
 30
0
  0
VERTEX
  5
3A094
  8
0
 62
7
 10
71.4781849103826
 20
22.294841097208039
 70
0
  0
VERTEX
  5
3A095
  8
0
 62
7
 10
71.4781849103826
 20
22.363398497364511
 70
0
  0
SEQEND
  5
3A096
  8
0
  0
POLYLINE
  5
38E4B
  8
0
 62
7
 66
1
 70
0
 10
0
 20
0
 30
0
  0
VERTEX
  5
3A097
  8
0
 62
7
 10
69.92134626059817
 20
22.89187614480181
 70
0
  0
VERTEX
  5
3A098
  8
0
 62
7
 10
69.9116999932395
 20
22.98971685658293
 70
0
  0
SEQEND
  5
3A099
  8
0
  0
POLYLINE
  5
38E4F
  8
0
 62
7
 66
1
 70
0
 10
0
 20
0
 30
0
  0
VERTEX
  5
3A09A
  8
0
 62
7
 10
71.488175687289811
 20
22.23610221918452
 70
0
  0
VERTEX
  5
3A09B
  8
0
 62
7
 10
71.488175687289811
 20
22.187181863293969
 70
0
  0
SEQEND
  5
3A09C
  8
0
  0
POLYLINE
  5
38E53
  8
0
 62
7
 66
1
 70
0
 10
0
 20
0
 30
0
  0
VERTEX
  5
3A09D
  8
0
 62
7
 10
71.488175687289811
 20
22.23610221918452
 70
0
  0
VERTEX
  5
3A09E
  8
0
 62
7
 10
71.4781849103826
 20
22.294841097208039
 70
0
  0
SEQEND
  5
3A09F
  8
0
  0
POLYLINE
  5
38E57
  8
0
 62
7
 66
1
 70
0
 10
0
 20
0
 30
0
  0
VERTEX
  5
3A0A0
  8
0
 62
7
 10
71.488175687289811
 20
22.187181863293969
 70
0
  0
VERTEX
  5
3A0A1
  8
0
 62
7
 10
71.468538643023891
 20
22.050067062981011
 70
0
  0
SEQEND
  5
3A0A2
  8
0
  0
POLYLINE
  5
38E5B
  8
0
 62
7
 66
1
 70
0
 10
0
 20
0
 30
0
  0
VERTEX
  5
3A0A3
  8
0
 62
7
 10
71.468538643023891
 20
22.050067062981011
 70
0
  0
VERTEX
  5
3A0A4
  8
0
 62
7
 10
71.458547866116689
 20
22.010965229223451
 70
0
  0
SEQEND
  5
3A0A5
  8
0
  0
POLYLINE
  5
38E5F
  8
0
 62
7
 66
1
 70
0
 10
0
 20
0
 30
0
  0
VERTEX
  5
3A0A6
  8
0
 62
7
 10
71.458547866116689
 20
22.010965229223451
 70
0
  0
VERTEX
  5
3A0A7
  8
0
 62
7
 10
71.408938491129078
 20
21.913124517442359
 70
0
  0
SEQEND
  5
3A0A8
  8
0
  0
POLYLINE
  5
38E63
  8
0
 62
7
 66
1
 70
0
 10
0
 20
0
 30
0
  0
VERTEX
  5
3A0A9
  8
0
 62
7
 10
71.408938491129078
 20
21.913124517442359
 70
0
  0
VERTEX
  5
3A0AA
  8
0
 62
7
 10
71.3793106699559
 20
21.844567117285859
 70
0
  0
SEQEND
  5
3A0AB
  8
0
  0
POLYLINE
  5
38E67
  8
0
 62
7
 66
1
 70
0
 10
0
 20
0
 30
0
  0
VERTEX
  5
3A0AC
  8
0
 62
7
 10
71.3793106699559
 20
21.844567117285859
 70
0
  0
VERTEX
  5
3A0AD
  8
0
 62
7
 10
71.339692071875533
 20
21.785828239262369
 70
0
  0
SEQEND
  5
3A0AE
  8
0
  0
POLYLINE
  5
38E6B
  8
0
 62
7
 66
1
 70
0
 10
0
 20
0
 30
0
  0
VERTEX
  5
3A0AF
  8
0
 62
7
 10
71.339692071875533
 20
21.785828239262369
 70
0
  0
VERTEX
  5
3A0B0
  8
0
 62
7
 10
71.260110366166273
 20
21.697806049614218
 70
0
  0
SEQEND
  5
3A0B1
  8
0
  0
POLYLINE
  5
38E6F
  8
0
 62
7
 66
1
 70
0
 10
0
 20
0
 30
0
  0
VERTEX
  5
3A0B2
  8
0
 62
7
 10
71.260110366166273
 20
21.697806049614218
 70
0
  0
VERTEX
  5
3A0B3
  8
0
 62
7
 10
71.240473321900339
 20
21.678169005348309
 70
0
  0
SEQEND
  5
3A0B4
  8
0
  0
POLYLINE
  5
38E73
  8
0
 62
7
 66
1
 70
0
 10
0
 20
0
 30
0
  0
VERTEX
  5
3A0B5
  8
0
 62
7
 10
71.498166464197041
 20
22.23610221918452
 70
0
  0
VERTEX
  5
3A0B6
  8
0
 62
7
 10
71.488175687289811
 20
22.23610221918452
 70
0
  0
SEQEND
  5
3A0B7
  8
0
  0
POLYLINE
  5
38E77
  8
0
 62
7
 66
1
 70
0
 10
0
 20
0
 30
0
  0
VERTEX
  5
3A0B8
  8
0
 62
7
 10
69.92134626059817
 20
22.8135002225124
 70
0
  0
VERTEX
  5
3A0B9
  8
0
 62
7
 10
69.92134626059817
 20
22.89187614480181
 70
0
  0
SEQEND
  5
3A0BA
  8
0
  0
POLYLINE
  5
38E7B
  8
0
 62
7
 66
1
 70
0
 10
0
 20
0
 30
0
  0
VERTEX
  5
3A0BB
  8
0
 62
7
 10
70.020565010573392
 20
21.012576557598042
 70
0
  0
VERTEX
  5
3A0BC
  8
0
 62
7
 10
70.040546564387824
 20
21.012576557598042
 70
0
  0
SEQEND
  5
3A0BD
  8
0
  0
POLYLINE
  5
38E7F
  8
0
 62
7
 66
1
 70
0
 10
0
 20
0
 30
0
  0
VERTEX
  5
3A0BE
  8
0
 62
7
 10
69.088322172264782
 20
20.9342006353086
 70
0
  0
VERTEX
  5
3A0BF
  8
0
 62
7
 10
68.820638253060849
 20
21.002758035465071
 70
0
  0
SEQEND
  5
3A0C0
  8
0
  0
POLYLINE
  5
38E83
  8
0
 62
7
 66
1
 70
0
 10
0
 20
0
 30
0
  0
VERTEX
  5
3A0C1
  8
0
 62
7
 10
69.088322172264782
 20
20.9342006353086
 70
0
  0
VERTEX
  5
3A0C2
  8
0
 62
7
 10
69.108303726079214
 20
20.9342006353086
 70
0
  0
SEQEND
  5
3A0C3
  8
0
  0
POLYLINE
  5
38E87
  8
0
 62
7
 66
1
 70
0
 10
0
 20
0
 30
0
  0
VERTEX
  5
3A0C4
  8
0
 62
7
 10
69.108303726079214
 20
20.9342006353086
 70
0
  0
VERTEX
  5
3A0C5
  8
0
 62
7
 10
69.375987645283132
 20
20.914735845816949
 70
0
  0
SEQEND
  5
3A0C6
  8
0
  0
POLYLINE
  5
38E8B
  8
0
 62
7
 66
1
 70
0
 10
0
 20
0
 30
0
  0
VERTEX
  5
3A0C7
  8
0
 62
7
 10
69.375987645283132
 20
20.914735845816949
 70
0
  0
VERTEX
  5
3A0C8
  8
0
 62
7
 10
69.4059599760048
 20
20.914735845816949
 70
0
  0
SEQEND
  5
3A0C9
  8
0
  0
POLYLINE
  5
38E8F
  8
0
 62
7
 66
1
 70
0
 10
0
 20
0
 30
0
  0
VERTEX
  5
3A0CA
  8
0
 62
7
 10
69.4059599760048
 20
20.914735845816949
 70
0
  0
VERTEX
  5
3A0CB
  8
0
 62
7
 10
69.495187949072772
 20
20.9245543679499
 70
0
  0
SEQEND
  5
3A0CC
  8
0
  0
POLYLINE
  5
38E93
  8
0
 62
7
 66
1
 70
0
 10
0
 20
0
 30
0
  0
VERTEX
  5
3A0CD
  8
0
 62
7
 10
69.495187949072772
 20
20.92438211317565
 70
0
  0
VERTEX
  5
3A0CE
  8
0
 62
7
 10
69.7132624932891
 20
20.94401915744157
 70
0
  0
SEQEND
  5
3A0CF
  8
0
  0
POLYLINE
  5
38E97
  8
0
 62
7
 66
1
 70
0
 10
0
 20
0
 30
0
  0
VERTEX
  5
3A0D0
  8
0
 62
7
 10
69.7132624932891
 20
20.94401915744157
 70
0
  0
VERTEX
  5
3A0D1
  8
0
 62
7
 10
69.92134626059817
 20
20.983293245973421
 70
0
  0
SEQEND
  5
3A0D2
  8
0
  0
POLYLINE
  5
38E9B
  8
0
 62
7
 66
1
 70
0
 10
0
 20
0
 30
0
  0
VERTEX
  5
3A0D3
  8
0
 62
7
 10
69.92134626059817
 20
20.983293245973421
 70
0
  0
VERTEX
  5
3A0D4
  8
0
 62
7
 10
69.960964858678551
 20
20.992939513332121
 70
0
  0
SEQEND
  5
3A0D5
  8
0
  0
POLYLINE
  5
38E9F
  8
0
 62
7
 66
1
 70
0
 10
0
 20
0
 30
0
  0
VERTEX
  5
3A0D6
  8
0
 62
7
 10
69.960964858678551
 20
20.992939513332121
 70
0
  0
VERTEX
  5
3A0D7
  8
0
 62
7
 10
70.020565010573392
 20
21.012576557598042
 70
0
  0
SEQEND
  5
3A0D8
  8
0
  0
POLYLINE
  5
38EA3
  8
0
 62
7
 66
1
 70
0
 10
0
 20
0
 30
0
  0
VERTEX
  5
3A0D9
  8
0
 62
7
 10
70.020565010573392
 20
21.012576557598042
 70
0
  0
VERTEX
  5
3A0DA
  8
0
 62
7
 10
70.080165162468219
 20
21.022395079731
 70
0
  0
SEQEND
  5
3A0DB
  8
0
  0
POLYLINE
  5
38EA7
  8
0
 62
7
 66
1
 70
0
 10
0
 20
0
 30
0
  0
VERTEX
  5
3A0DC
  8
0
 62
7
 10
70.080165162468219
 20
21.022395079731
 70
0
  0
VERTEX
  5
3A0DD
  8
0
 62
7
 10
70.3378583047649
 20
21.1202357915121
 70
0
  0
SEQEND
  5
3A0DE
  8
0
  0
POLYLINE
  5
38EAB
  8
0
 62
7
 66
1
 70
0
 10
0
 20
0
 30
0
  0
VERTEX
  5
3A0DF
  8
0
 62
7
 10
70.3378583047649
 20
21.1202357915121
 70
0
  0
VERTEX
  5
3A0E0
  8
0
 62
7
 10
70.3478490816721
 20
21.1202357915121
 70
0
  0
SEQEND
  5
3A0E1
  8
0
  0
POLYLINE
  5
38EAF
  8
0
 62
7
 66
1
 70
0
 10
0
 20
0
 30
0
  0
VERTEX
  5
3A0E2
  8
0
 62
7
 10
70.3478490816721
 20
21.1202357915121
 70
0
  0
VERTEX
  5
3A0E3
  8
0
 62
7
 10
70.64550533159769
 20
21.266996859183731
 70
0
  0
SEQEND
  5
3A0E4
  8
0
  0
POLYLINE
  5
38EB3
  8
0
 62
7
 66
1
 70
0
 10
0
 20
0
 30
0
  0
VERTEX
  5
3A0E5
  8
0
 62
7
 10
70.64550533159769
 20
21.266996859183731
 70
0
  0
VERTEX
  5
3A0E6
  8
0
 62
7
 10
70.685123929678056
 20
21.286633903449658
 70
0
  0
SEQEND
  5
3A0E7
  8
0
  0
POLYLINE
  5
38EB7
  8
0
 62
7
 66
1
 70
0
 10
0
 20
0
 30
0
  0
VERTEX
  5
3A0E8
  8
0
 62
7
 10
70.685123929678056
 20
21.286633903449658
 70
0
  0
VERTEX
  5
3A0E9
  8
0
 62
7
 10
70.764361125838832
 20
21.3355542593402
 70
0
  0
SEQEND
  5
3A0EA
  8
0
  0
POLYLINE
  5
38EBB
  8
0
 62
7
 66
1
 70
0
 10
0
 20
0
 30
0
  0
VERTEX
  5
3A0EB
  8
0
 62
7
 10
70.764361125838832
 20
21.3355542593402
 70
0
  0
VERTEX
  5
3A0EC
  8
0
 62
7
 10
70.952807848881974
 20
21.45303201538724
 70
0
  0
SEQEND
  5
3A0ED
  8
0
  0
POLYLINE
  5
38EBF
  8
0
 62
7
 66
1
 70
0
 10
0
 20
0
 30
0
  0
VERTEX
  5
3A0EE
  8
0
 62
7
 10
70.952807848881974
 20
21.45303201538724
 70
0
  0
VERTEX
  5
3A0EF
  8
0
 62
7
 10
71.17088239309831
 20
21.61943012732479
 70
0
  0
SEQEND
  5
3A0F0
  8
0
  0
POLYLINE
  5
38EC3
  8
0
 62
7
 66
1
 70
0
 10
0
 20
0
 30
0
  0
VERTEX
  5
3A0F1
  8
0
 62
7
 10
71.17088239309831
 20
21.61943012732479
 70
0
  0
VERTEX
  5
3A0F2
  8
0
 62
7
 10
71.240473321900339
 20
21.678169005348309
 70
0
  0
SEQEND
  5
3A0F3
  8
0
  0
POLYLINE
  5
38EC7
  8
0
 62
7
 66
1
 70
0
 10
0
 20
0
 30
0
  0
VERTEX
  5
3A0F4
  8
0
 62
7
 10
68.820638253060849
 20
21.002758035465071
 70
0
  0
VERTEX
  5
3A0F5
  8
0
 62
7
 10
67.303418201356834
 20
21.609611605191841
 70
0
  0
SEQEND
  5
3A0F6
  8
0
  0
POLYLINE
  5
38ECB
  8
0
 62
7
 66
1
 70
0
 10
0
 20
0
 30
0
  0
VERTEX
  5
3A0F7
  8
0
 62
7
 10
68.810991985702174
 20
21.002758035465071
 70
0
  0
VERTEX
  5
3A0F8
  8
0
 62
7
 10
68.820638253060849
 20
21.002758035465071
 70
0
  0
SEQEND
  5
3A0F9
  8
0
  0
POLYLINE
  5
38ECF
  8
0
 62
7
 66
1
 70
0
 10
0
 20
0
 30
0
  0
VERTEX
  5
3A0FA
  8
0
 62
7
 10
67.620711495548335
 20
21.629248649457772
 70
0
  0
VERTEX
  5
3A0FB
  8
0
 62
7
 10
67.601074451282429
 20
21.658531961082389
 70
0
  0
SEQEND
  5
3A0FC
  8
0
  0
POLYLINE
  5
38ED3
  8
0
 62
7
 66
1
 70
0
 10
0
 20
0
 30
0
  0
VERTEX
  5
3A0FD
  8
0
 62
7
 10
67.650683826270011
 20
21.63906717159071
 70
0
  0
VERTEX
  5
3A0FE
  8
0
 62
7
 10
67.650683826270011
 20
21.629248649457772
 70
0
  0
SEQEND
  5
3A0FF
  8
0
  0
POLYLINE
  5
38ED7
  8
0
 62
7
 66
1
 70
0
 10
0
 20
0
 30
0
  0
VERTEX
  5
3A100
  8
0
 62
7
 10
67.303418201356834
 20
21.609611605191841
 70
0
  0
VERTEX
  5
3A101
  8
0
 62
7
 10
67.2837811570909
 20
21.61943012732479
 70
0
  0
SEQEND
  5
3A102
  8
0
  0
POLYLINE
  5
38EDB
  8
0
 62
7
 66
1
 70
0
 10
0
 20
0
 30
0
  0
VERTEX
  5
3A103
  8
0
 62
7
 10
67.085343657140527
 20
21.85438563941884
 70
0
  0
VERTEX
  5
3A104
  8
0
 62
7
 10
67.085343657140527
 20
21.864204161551811
 70
0
  0
SEQEND
  5
3A105
  8
0
  0
POLYLINE
  5
38EDF
  8
0
 62
7
 66
1
 70
0
 10
0
 20
0
 30
0
  0
VERTEX
  5
3A106
  8
0
 62
7
 10
71.240473321900339
 20
21.678169005348309
 70
0
  0
VERTEX
  5
3A107
  8
0
 62
7
 10
71.250119589259043
 20
21.678169005348309
 70
0
  0
SEQEND
  5
3A108
  8
0
  0
POLYLINE
  5
38EE3
  8
0
 62
7
 66
1
 70
0
 10
0
 20
0
 30
0
  0
VERTEX
  5
3A109
  8
0
 62
7
 10
71.498166464197041
 20
22.285022575075061
 70
0
  0
VERTEX
  5
3A10A
  8
0
 62
7
 10
71.498166464197041
 20
22.285022575075061
 70
0
  0
VERTEX
  5
3A10B
  8
0
 62
7
 10
71.488175687289811
 20
22.285022575075061
 70
0
  0
VERTEX
  5
3A10C
  8
0
 62
7
 10
71.488175687289811
 20
22.294841097208039
 70
0
  0
VERTEX
  5
3A10D
  8
0
 62
7
 10
71.4781849103826
 20
22.294841097208039
 70
0
  0
SEQEND
  5
3A10E
  8
0
  0
POLYLINE
  5
38EEA
  8
0
 62
7
 66
1
 70
0
 10
0
 20
0
 30
0
  0
VERTEX
  5
3A10F
  8
0
 62
7
 10
71.498166464197041
 20
22.177363341161
 70
0
  0
VERTEX
  5
3A110
  8
0
 62
7
 10
71.498166464197041
 20
22.177363341161
 70
0
  0
VERTEX
  5
3A111
  8
0
 62
7
 10
71.488175687289811
 20
22.187181863293969
 70
0
  0
SEQEND
  5
3A112
  8
0
  0
POLYLINE
  5
38EEF
  8
0
 62
7
 66
1
 70
0
 10
0
 20
0
 30
0
  0
VERTEX
  5
3A113
  8
0
 62
7
 10
69.703271716381849
 20
22.3339429309656
 70
0
  0
VERTEX
  5
3A114
  8
0
 62
7
 10
69.7628718682767
 20
22.392681808989121
 70
0
  0
VERTEX
  5
3A115
  8
0
 62
7
 10
69.822472020171531
 20
22.47105773127856
 70
0
  0
VERTEX
  5
3A116
  8
0
 62
7
 10
69.862090618251884
 20
22.549261398793728
 70
0
  0
VERTEX
  5
3A117
  8
0
 62
7
 10
69.891718439425034
 20
22.63745584321612
 70
0
  0
VERTEX
  5
3A118
  8
0
 62
7
 10
69.9116999932395
 20
22.72547803286426
 70
0
  0
VERTEX
  5
3A119
  8
0
 62
7
 10
69.92134626059817
 20
22.813672477286651
 70
0
  0
SEQEND
  5
3A11A
  8
0
  0
POLYLINE
  5
38EF8
  8
0
 62
7
 66
1
 70
0
 10
0
 20
0
 30
0
  0
VERTEX
  5
3A11B
  8
0
 62
7
 10
67.3233997551713
 20
21.658531961082389
 70
0
  0
VERTEX
  5
3A11C
  8
0
 62
7
 10
67.700293201257608
 20
21.58032829356722
 70
0
  0
VERTEX
  5
3A11D
  8
0
 62
7
 10
68.1068144685171
 20
21.58032829356722
 70
0
  0
VERTEX
  5
3A11E
  8
0
 62
7
 10
68.513335735776565
 20
21.658531961082389
 70
0
  0
VERTEX
  5
3A11F
  8
0
 62
7
 10
68.919857003036043
 20
21.815111550887
 70
0
  0
VERTEX
  5
3A120
  8
0
 62
7
 10
69.32637827029555
 20
22.040248540848062
 70
0
  0
VERTEX
  5
3A121
  8
0
 62
7
 10
69.703271716381849
 20
22.3339429309656
 70
0
  0
SEQEND
  5
3A122
  8
0
  0
POLYLINE
  5
38F01
  8
0
 62
7
 66
1
 70
0
 10
0
 20
0
 30
0
  0
VERTEX
  5
3A123
  8
0
 62
7
 10
67.134953032128124
 20
21.844567117285859
 70
0
  0
VERTEX
  5
3A124
  8
0
 62
7
 10
67.16458085330126
 20
21.7760097171294
 70
0
  0
VERTEX
  5
3A125
  8
0
 62
7
 10
67.214190228288857
 20
21.72708936123886
 70
0
  0
VERTEX
  5
3A126
  8
0
 62
7
 10
67.263799603276453
 20
21.678169005348309
 70
0
  0
VERTEX
  5
3A127
  8
0
 62
7
 10
67.3233997551713
 20
21.658531961082389
 70
0
  0
SEQEND
  5
3A128
  8
0
  0
POLYLINE
  5
38F08
  8
0
 62
7
 66
1
 70
0
 10
0
 20
0
 30
0
  0
VERTEX
  5
3A129
  8
0
 62
7
 10
67.085343657140527
 20
21.85438563941884
 70
0
  0
VERTEX
  5
3A12A
  8
0
 62
7
 10
67.114971478313649
 20
21.7760097171294
 70
0
  0
VERTEX
  5
3A12B
  8
0
 62
7
 10
67.16458085330126
 20
21.70745231697293
 70
0
  0
VERTEX
  5
3A12C
  8
0
 62
7
 10
67.214190228288857
 20
21.658531961082389
 70
0
  0
VERTEX
  5
3A12D
  8
0
 62
7
 10
67.2837811570909
 20
21.61943012732479
 70
0
  0
SEQEND
  5
3A12E
  8
0
  0
POLYLINE
  5
38F0F
  8
0
 62
7
 66
1
 70
0
 10
0
 20
0
 30
0
  0
VERTEX
  5
3A12F
  8
0
 62
7
 10
69.742890314462244
 20
22.38286328685615
 70
0
  0
VERTEX
  5
3A130
  8
0
 62
7
 10
31.257039629639252
 20
37.867706219182892
 70
0
  0
SEQEND
  5
3A131
  8
0
  0
POLYLINE
  5
38F13
  8
0
 62
7
 66
1
 70
0
 10
0
 20
0
 30
0
  0
VERTEX
  5
3A132
  8
0
 62
7
 10
29.362926131848891
 20
37.035715659495061
 70
0
  0
VERTEX
  5
3A133
  8
0
 62
7
 10
67.670320870535932
 20
21.629248649457772
 70
0
  0
SEQEND
  5
3A134
  8
0
  0
POLYLINE
  5
38F17
  8
0
 62
7
 66
1
 70
0
 10
0
 20
0
 30
0
  0
VERTEX
  5
3A135
  8
0
 62
7
 10
28.519911266608261
 20
37.84806917491693
 70
0
  0
VERTEX
  5
3A136
  8
0
 62
7
 10
28.510264999249561
 20
38.034104331120432
 70
0
  0
SEQEND
  5
3A137
  8
0
  0
POLYLINE
  5
38F1B
  8
0
 62
7
 66
1
 70
0
 10
0
 20
0
 30
0
  0
VERTEX
  5
3A138
  8
0
 62
7
 10
28.747976587731809
 20
37.12373784914314
 70
0
  0
VERTEX
  5
3A139
  8
0
 62
7
 10
27.230756536027769
 20
37.730591418869942
 70
0
  0
SEQEND
  5
3A13A
  8
0
  0
POLYLINE
  5
38F1F
  8
0
 62
7
 66
1
 70
0
 10
0
 20
0
 30
0
  0
VERTEX
  5
3A13B
  8
0
 62
7
 10
27.022672768718682
 20
37.985011720455653
 70
0
  0
VERTEX
  5
3A13C
  8
0
 62
7
 10
26.993044947545531
 20
38.112307998635629
 70
0
  0
SEQEND
  5
3A13D
  8
0
  0
POLYLINE
  5
38F23
  8
0
 62
7
 66
1
 70
0
 10
0
 20
0
 30
0
  0
VERTEX
  5
3A13E
  8
0
 62
7
 10
27.022672768718682
 20
37.985011720455653
 70
0
  0
VERTEX
  5
3A13F
  8
0
 62
7
 10
27.022672768718682
 20
37.965546930963967
 70
0
  0
SEQEND
  5
3A140
  8
0
  0
POLYLINE
  5
38F27
  8
0
 62
7
 66
1
 70
0
 10
0
 20
0
 30
0
  0
VERTEX
  5
3A141
  8
0
 62
7
 10
27.022672768718682
 20
37.965546930963967
 70
0
  0
VERTEX
  5
3A142
  8
0
 62
7
 10
27.032663545625919
 20
37.945909886698018
 70
0
  0
SEQEND
  5
3A143
  8
0
  0
POLYLINE
  5
38F2B
  8
0
 62
7
 66
1
 70
0
 10
0
 20
0
 30
0
  0
VERTEX
  5
3A144
  8
0
 62
7
 10
27.032663545625919
 20
37.945909886698018
 70
0
  0
VERTEX
  5
3A145
  8
0
 62
7
 10
27.032663545625919
 20
37.936091364565073
 70
0
  0
SEQEND
  5
3A146
  8
0
  0
POLYLINE
  5
38F2F
  8
0
 62
7
 66
1
 70
0
 10
0
 20
0
 30
0
  0
VERTEX
  5
3A147
  8
0
 62
7
 10
27.032663545625919
 20
37.936091364565073
 70
0
  0
VERTEX
  5
3A148
  8
0
 62
7
 10
27.0919191879722
 20
37.838250652783977
 70
0
  0
SEQEND
  5
3A149
  8
0
  0
POLYLINE
  5
38F33
  8
0
 62
7
 66
1
 70
0
 10
0
 20
0
 30
0
  0
VERTEX
  5
3A14A
  8
0
 62
7
 10
27.0919191879722
 20
37.838250652783977
 70
0
  0
VERTEX
  5
3A14B
  8
0
 62
7
 10
27.111900741786659
 20
37.818613608518042
 70
0
  0
SEQEND
  5
3A14C
  8
0
  0
POLYLINE
  5
38F37
  8
0
 62
7
 66
1
 70
0
 10
0
 20
0
 30
0
  0
VERTEX
  5
3A14D
  8
0
 62
7
 10
27.111900741786659
 20
37.818613608518042
 70
0
  0
VERTEX
  5
3A14E
  8
0
 62
7
 10
27.141528562959792
 20
37.789330296893411
 70
0
  0
SEQEND
  5
3A14F
  8
0
  0
POLYLINE
  5
38F3B
  8
0
 62
7
 66
1
 70
0
 10
0
 20
0
 30
0
  0
VERTEX
  5
3A150
  8
0
 62
7
 10
27.141528562959792
 20
37.789330296893411
 70
0
  0
VERTEX
  5
3A151
  8
0
 62
7
 10
27.171500893681468
 20
37.75987473049458
 70
0
  0
SEQEND
  5
3A152
  8
0
  0
POLYLINE
  5
38F3F
  8
0
 62
7
 66
1
 70
0
 10
0
 20
0
 30
0
  0
VERTEX
  5
3A153
  8
0
 62
7
 10
27.171500893681468
 20
37.75987473049458
 70
0
  0
VERTEX
  5
3A154
  8
0
 62
7
 10
27.230756536027769
 20
37.730591418869942
 70
0
  0
SEQEND
  5
3A155
  8
0
  0
POLYLINE
  5
38F43
  8
0
 62
7
 66
1
 70
0
 10
0
 20
0
 30
0
  0
VERTEX
  5
3A156
  8
0
 62
7
 10
26.993044947545531
 20
38.112307998635629
 70
0
  0
VERTEX
  5
3A157
  8
0
 62
7
 10
26.993044947545531
 20
38.161228354526152
 70
0
  0
SEQEND
  5
3A158
  8
0
  0
POLYLINE
  5
38F47
  8
0
 62
7
 66
1
 70
0
 10
0
 20
0
 30
0
  0
VERTEX
  5
3A159
  8
0
 62
7
 10
27.00269121490425
 20
38.171046876659091
 70
0
  0
VERTEX
  5
3A15A
  8
0
 62
7
 10
27.00269121490425
 20
38.229785754682609
 70
0
  0
SEQEND
  5
3A15B
  8
0
  0
POLYLINE
  5
38F4B
  8
0
 62
7
 66
1
 70
0
 10
0
 20
0
 30
0
  0
VERTEX
  5
3A15C
  8
0
 62
7
 10
27.00269121490425
 20
38.229785754682609
 70
0
  0
VERTEX
  5
3A15D
  8
0
 62
7
 10
27.00269121490425
 20
38.239604276815612
 70
0
  0
SEQEND
  5
3A15E
  8
0
  0
POLYLINE
  5
38F4F
  8
0
 62
7
 66
1
 70
0
 10
0
 20
0
 30
0
  0
VERTEX
  5
3A15F
  8
0
 62
7
 10
27.00269121490425
 20
38.239604276815612
 70
0
  0
VERTEX
  5
3A160
  8
0
 62
7
 10
27.022672768718682
 20
38.357082032862593
 70
0
  0
SEQEND
  5
3A161
  8
0
  0
POLYLINE
  5
38F53
  8
0
 62
7
 66
1
 70
0
 10
0
 20
0
 30
0
  0
VERTEX
  5
3A162
  8
0
 62
7
 10
27.0423098129846
 20
38.464741266776677
 70
0
  0
VERTEX
  5
3A163
  8
0
 62
7
 10
27.072282143706278
 20
38.552763456424827
 70
0
  0
SEQEND
  5
3A164
  8
0
  0
POLYLINE
  5
38F57
  8
0
 62
7
 66
1
 70
0
 10
0
 20
0
 30
0
  0
VERTEX
  5
3A165
  8
0
 62
7
 10
27.072282143706278
 20
38.552763456424827
 70
0
  0
VERTEX
  5
3A166
  8
0
 62
7
 10
27.111900741786659
 20
38.650604168205923
 70
0
  0
SEQEND
  5
3A167
  8
0
  0
POLYLINE
  5
38F5B
  8
0
 62
7
 66
1
 70
0
 10
0
 20
0
 30
0
  0
VERTEX
  5
3A168
  8
0
 62
7
 10
27.0423098129846
 20
38.464741266776677
 70
0
  0
VERTEX
  5
3A169
  8
0
 62
7
 10
27.022672768718682
 20
38.357082032862593
 70
0
  0
SEQEND
  5
3A16A
  8
0
  0
POLYLINE
  5
38F5F
  8
0
 62
7
 66
1
 70
0
 10
0
 20
0
 30
0
  0
VERTEX
  5
3A16B
  8
0
 62
7
 10
31.41551402196075
 20
38.47438753413536
 70
0
  0
VERTEX
  5
3A16C
  8
0
 62
7
 10
31.425504798867959
 20
38.415820910886112
 70
0
  0
SEQEND
  5
3A16D
  8
0
  0
POLYLINE
  5
38F63
  8
0
 62
7
 66
1
 70
0
 10
0
 20
0
 30
0
  0
VERTEX
  5
3A16E
  8
0
 62
7
 10
29.819056774095969
 20
39.139979981885631
 70
0
  0
VERTEX
  5
3A16F
  8
0
 62
7
 10
29.78942895292283
 20
39.247811470573943
 70
0
  0
SEQEND
  5
3A170
  8
0
  0
POLYLINE
  5
38F67
  8
0
 62
7
 66
1
 70
0
 10
0
 20
0
 30
0
  0
VERTEX
  5
3A171
  8
0
 62
7
 10
29.75945662220116
 20
39.404391060378551
 70
0
  0
VERTEX
  5
3A172
  8
0
 62
7
 10
29.72982880102802
 20
39.3945725382456
 70
0
  0
SEQEND
  5
3A173
  8
0
  0
POLYLINE
  5
38F6B
  8
0
 62
7
 66
1
 70
0
 10
0
 20
0
 30
0
  0
VERTEX
  5
3A174
  8
0
 62
7
 10
29.75945662220116
 20
39.404391060378551
 70
0
  0
VERTEX
  5
3A175
  8
0
 62
7
 10
29.769447399108369
 20
39.404391060378551
 70
0
  0
SEQEND
  5
3A176
  8
0
  0
POLYLINE
  5
38F6F
  8
0
 62
7
 66
1
 70
0
 10
0
 20
0
 30
0
  0
VERTEX
  5
3A177
  8
0
 62
7
 10
29.769447399108369
 20
39.404391060378551
 70
0
  0
VERTEX
  5
3A178
  8
0
 62
7
 10
29.779438176015621
 20
39.404391060378551
 70
0
  0
SEQEND
  5
3A179
  8
0
  0
POLYLINE
  5
38F73
  8
0
 62
7
 66
1
 70
0
 10
0
 20
0
 30
0
  0
VERTEX
  5
3A17A
  8
0
 62
7
 10
29.779438176015621
 20
39.404391060378551
 70
0
  0
VERTEX
  5
3A17B
  8
0
 62
7
 10
29.78942895292283
 20
39.404391060378551
 70
0
  0
SEQEND
  5
3A17C
  8
0
  0
POLYLINE
  5
38F77
  8
0
 62
7
 66
1
 70
0
 10
0
 20
0
 30
0
  0
VERTEX
  5
3A17D
  8
0
 62
7
 10
29.78942895292283
 20
39.404391060378551
 70
0
  0
VERTEX
  5
3A17E
  8
0
 62
7
 10
29.799419729830049
 20
39.3945725382456
 70
0
  0
SEQEND
  5
3A17F
  8
0
  0
POLYLINE
  5
38F7B
  8
0
 62
7
 66
1
 70
0
 10
0
 20
0
 30
0
  0
VERTEX
  5
3A180
  8
0
 62
7
 10
29.72982880102802
 20
39.3945725382456
 70
0
  0
VERTEX
  5
3A181
  8
0
 62
7
 10
29.78942895292283
 20
39.247811470573943
 70
0
  0
SEQEND
  5
3A182
  8
0
  0
POLYLINE
  5
38F7F
  8
0
 62
7
 66
1
 70
0
 10
0
 20
0
 30
0
  0
VERTEX
  5
3A183
  8
0
 62
7
 10
29.85867537217635
 20
39.247811470573943
 70
0
  0
VERTEX
  5
3A184
  8
0
 62
7
 10
29.878656925990811
 20
39.149798504018577
 70
0
  0
SEQEND
  5
3A185
  8
0
  0
POLYLINE
  5
38F83
  8
0
 62
7
 66
1
 70
0
 10
0
 20
0
 30
0
  0
VERTEX
  5
3A186
  8
0
 62
7
 10
29.819056774095969
 20
39.365289226620973
 70
0
  0
VERTEX
  5
3A187
  8
0
 62
7
 10
29.799419729830049
 20
39.3945725382456
 70
0
  0
SEQEND
  5
3A188
  8
0
  0
POLYLINE
  5
38F87
  8
0
 62
7
 66
1
 70
0
 10
0
 20
0
 30
0
  0
VERTEX
  5
3A189
  8
0
 62
7
 10
29.819056774095969
 20
39.365289226620973
 70
0
  0
VERTEX
  5
3A18A
  8
0
 62
7
 10
29.83903832791043
 20
39.32601513808914
 70
0
  0
SEQEND
  5
3A18B
  8
0
  0
POLYLINE
  5
38F8B
  8
0
 62
7
 66
1
 70
0
 10
0
 20
0
 30
0
  0
VERTEX
  5
3A18C
  8
0
 62
7
 10
29.83903832791043
 20
39.32601513808914
 70
0
  0
VERTEX
  5
3A18D
  8
0
 62
7
 10
29.85867537217635
 20
39.247811470573943
 70
0
  0
SEQEND
  5
3A18E
  8
0
  0
POLYLINE
  5
38F8F
  8
0
 62
7
 66
1
 70
0
 10
0
 20
0
 30
0
  0
VERTEX
  5
3A18F
  8
0
 62
7
 10
29.819056774095969
 20
39.139979981885631
 70
0
  0
VERTEX
  5
3A190
  8
0
 62
7
 10
29.82904755100321
 20
39.032493002745873
 70
0
  0
SEQEND
  5
3A191
  8
0
  0
POLYLINE
  5
38F93
  8
0
 62
7
 66
1
 70
0
 10
0
 20
0
 30
0
  0
VERTEX
  5
3A192
  8
0
 62
7
 10
29.898293970256731
 20
39.091059625995037
 70
0
  0
VERTEX
  5
3A193
  8
0
 62
7
 10
29.878656925990811
 20
39.149798504018577
 70
0
  0
SEQEND
  5
3A194
  8
0
  0
POLYLINE
  5
38F97
  8
0
 62
7
 66
1
 70
0
 10
0
 20
0
 30
0
  0
VERTEX
  5
3A195
  8
0
 62
7
 10
29.898293970256731
 20
39.091059625995037
 70
0
  0
VERTEX
  5
3A196
  8
0
 62
7
 10
29.898293970256731
 20
39.022674480612849
 70
0
  0
SEQEND
  5
3A197
  8
0
  0
POLYLINE
  5
38F9B
  8
0
 62
7
 66
1
 70
0
 10
0
 20
0
 30
0
  0
VERTEX
  5
3A198
  8
0
 62
7
 10
31.425504798867959
 20
38.357082032862593
 70
0
  0
VERTEX
  5
3A199
  8
0
 62
7
 10
31.425504798867959
 20
38.307989422197807
 70
0
  0
SEQEND
  5
3A19A
  8
0
  0
POLYLINE
  5
38F9F
  8
0
 62
7
 66
1
 70
0
 10
0
 20
0
 30
0
  0
VERTEX
  5
3A19B
  8
0
 62
7
 10
31.425504798867959
 20
38.357082032862593
 70
0
  0
VERTEX
  5
3A19C
  8
0
 62
7
 10
31.425504798867959
 20
38.415820910886112
 70
0
  0
SEQEND
  5
3A19D
  8
0
  0
POLYLINE
  5
38FA3
  8
0
 62
7
 66
1
 70
0
 10
0
 20
0
 30
0
  0
VERTEX
  5
3A19E
  8
0
 62
7
 10
29.898293970256731
 20
38.973581869948077
 70
0
  0
VERTEX
  5
3A19F
  8
0
 62
7
 10
29.898293970256731
 20
39.022674480612849
 70
0
  0
SEQEND
  5
3A1A0
  8
0
  0
POLYLINE
  5
38FA7
  8
0
 62
7
 66
1
 70
0
 10
0
 20
0
 30
0
  0
VERTEX
  5
3A1A1
  8
0
 62
7
 10
29.82904755100321
 20
38.973581869948077
 70
0
  0
VERTEX
  5
3A1A2
  8
0
 62
7
 10
29.82904755100321
 20
38.924661514057512
 70
0
  0
SEQEND
  5
3A1A3
  8
0
  0
POLYLINE
  5
38FAB
  8
0
 62
7
 66
1
 70
0
 10
0
 20
0
 30
0
  0
VERTEX
  5
3A1A4
  8
0
 62
7
 10
29.898293970256731
 20
38.924661514057512
 70
0
  0
VERTEX
  5
3A1A5
  8
0
 62
7
 10
29.898293970256731
 20
38.973581869948077
 70
0
  0
SEQEND
  5
3A1A6
  8
0
  0
POLYLINE
  5
38FAF
  8
0
 62
7
 66
1
 70
0
 10
0
 20
0
 30
0
  0
VERTEX
  5
3A1A7
  8
0
 62
7
 10
29.82904755100321
 20
38.973581869948077
 70
0
  0
VERTEX
  5
3A1A8
  8
0
 62
7
 10
29.82904755100321
 20
39.032493002745873
 70
0
  0
SEQEND
  5
3A1A9
  8
0
  0
POLYLINE
  5
38FB3
  8
0
 62
7
 66
1
 70
0
 10
0
 20
0
 30
0
  0
VERTEX
  5
3A1AA
  8
0
 62
7
 10
29.898293970256731
 20
38.924661514057512
 70
0
  0
VERTEX
  5
3A1AB
  8
0
 62
7
 10
29.878656925990811
 20
38.7779004463859
 70
0
  0
SEQEND
  5
3A1AC
  8
0
  0
POLYLINE
  5
38FB7
  8
0
 62
7
 66
1
 70
0
 10
0
 20
0
 30
0
  0
VERTEX
  5
3A1AD
  8
0
 62
7
 10
29.878656925990811
 20
38.7779004463859
 70
0
  0
VERTEX
  5
3A1AE
  8
0
 62
7
 10
29.86866614908358
 20
38.738798612628273
 70
0
  0
SEQEND
  5
3A1AF
  8
0
  0
POLYLINE
  5
38FBB
  8
0
 62
7
 66
1
 70
0
 10
0
 20
0
 30
0
  0
VERTEX
  5
3A1B0
  8
0
 62
7
 10
29.86866614908358
 20
38.738798612628273
 70
0
  0
VERTEX
  5
3A1B1
  8
0
 62
7
 10
29.83903832791043
 20
38.631139378714252
 70
0
  0
SEQEND
  5
3A1B2
  8
0
  0
POLYLINE
  5
38FBF
  8
0
 62
7
 66
1
 70
0
 10
0
 20
0
 30
0
  0
VERTEX
  5
3A1B3
  8
0
 62
7
 10
29.83903832791043
 20
38.631139378714252
 70
0
  0
VERTEX
  5
3A1B4
  8
0
 62
7
 10
29.799419729830049
 20
38.572400500690719
 70
0
  0
SEQEND
  5
3A1B5
  8
0
  0
POLYLINE
  5
38FC3
  8
0
 62
7
 66
1
 70
0
 10
0
 20
0
 30
0
  0
VERTEX
  5
3A1B6
  8
0
 62
7
 10
29.799419729830049
 20
38.572400500690719
 70
0
  0
VERTEX
  5
3A1B7
  8
0
 62
7
 10
29.75945662220116
 20
38.503843100534262
 70
0
  0
SEQEND
  5
3A1B8
  8
0
  0
POLYLINE
  5
38FC7
  8
0
 62
7
 66
1
 70
0
 10
0
 20
0
 30
0
  0
VERTEX
  5
3A1B9
  8
0
 62
7
 10
29.75945662220116
 20
38.503843100534262
 70
0
  0
VERTEX
  5
3A1BA
  8
0
 62
7
 10
29.69021020294764
 20
38.425467178244851
 70
0
  0
SEQEND
  5
3A1BB
  8
0
  0
POLYLINE
  5
38FCB
  8
0
 62
7
 66
1
 70
0
 10
0
 20
0
 30
0
  0
VERTEX
  5
3A1BC
  8
0
 62
7
 10
29.69021020294764
 20
38.425467178244851
 70
0
  0
VERTEX
  5
3A1BD
  8
0
 62
7
 10
29.670228649133179
 20
38.406002388753173
 70
0
  0
SEQEND
  5
3A1BE
  8
0
  0
POLYLINE
  5
38FCF
  8
0
 62
7
 66
1
 70
0
 10
0
 20
0
 30
0
  0
VERTEX
  5
3A1BF
  8
0
 62
7
 10
29.72982880102802
 20
39.3945725382456
 70
0
  0
VERTEX
  5
3A1C0
  8
0
 62
7
 10
27.131537786052579
 20
38.660422690338869
 70
0
  0
SEQEND
  5
3A1C1
  8
0
  0
POLYLINE
  5
38FD3
  8
0
 62
7
 66
1
 70
0
 10
0
 20
0
 30
0
  0
VERTEX
  5
3A1C2
  8
0
 62
7
 10
28.539892820422718
 20
37.985011720455653
 70
0
  0
VERTEX
  5
3A1C3
  8
0
 62
7
 10
28.539892820422718
 20
37.926272842432127
 70
0
  0
SEQEND
  5
3A1C4
  8
0
  0
POLYLINE
  5
38FD7
  8
0
 62
7
 66
1
 70
0
 10
0
 20
0
 30
0
  0
VERTEX
  5
3A1C5
  8
0
 62
7
 10
28.46065562426196
 20
38.05356912061211
 70
0
  0
VERTEX
  5
3A1C6
  8
0
 62
7
 10
28.411046249274371
 20
38.043750598479171
 70
0
  0
SEQEND
  5
3A1C7
  8
0
  0
POLYLINE
  5
38FDB
  8
0
 62
7
 66
1
 70
0
 10
0
 20
0
 30
0
  0
VERTEX
  5
3A1C8
  8
0
 62
7
 10
28.470301891620672
 20
38.01446728685454
 70
0
  0
VERTEX
  5
3A1C9
  8
0
 62
7
 10
28.510264999249561
 20
38.034104331120432
 70
0
  0
SEQEND
  5
3A1CA
  8
0
  0
POLYLINE
  5
38FDF
  8
0
 62
7
 66
1
 70
0
 10
0
 20
0
 30
0
  0
VERTEX
  5
3A1CB
  8
0
 62
7
 10
28.470301891620672
 20
38.01446728685454
 70
0
  0
VERTEX
  5
3A1CC
  8
0
 62
7
 10
28.411046249274371
 20
38.043750598479171
 70
0
  0
SEQEND
  5
3A1CD
  8
0
  0
POLYLINE
  5
38FE3
  8
0
 62
7
 66
1
 70
0
 10
0
 20
0
 30
0
  0
VERTEX
  5
3A1CE
  8
0
 62
7
 10
28.440674070447528
 20
37.799148819026414
 70
0
  0
VERTEX
  5
3A1CF
  8
0
 62
7
 10
28.411046249274371
 20
37.799148819026414
 70
0
  0
SEQEND
  5
3A1D0
  8
0
  0
POLYLINE
  5
38FE7
  8
0
 62
7
 66
1
 70
0
 10
0
 20
0
 30
0
  0
VERTEX
  5
3A1D1
  8
0
 62
7
 10
28.411046249274371
 20
37.799148819026414
 70
0
  0
VERTEX
  5
3A1D2
  8
0
 62
7
 10
28.411046249274371
 20
37.799148819026414
 70
0
  0
SEQEND
  5
3A1D3
  8
0
  0
POLYLINE
  5
38FEB
  8
0
 62
7
 66
1
 70
0
 10
0
 20
0
 30
0
  0
VERTEX
  5
3A1D4
  8
0
 62
7
 10
28.411046249274371
 20
37.799148819026414
 70
0
  0
VERTEX
  5
3A1D5
  8
0
 62
7
 10
28.401055472367151
 20
37.818613608518042
 70
0
  0
SEQEND
  5
3A1D6
  8
0
  0
POLYLINE
  5
38FEF
  8
0
 62
7
 66
1
 70
0
 10
0
 20
0
 30
0
  0
VERTEX
  5
3A1D7
  8
0
 62
7
 10
28.401055472367151
 20
37.818613608518042
 70
0
  0
VERTEX
  5
3A1D8
  8
0
 62
7
 10
28.391064695459932
 20
37.828432130651038
 70
0
  0
SEQEND
  5
3A1D9
  8
0
  0
POLYLINE
  5
38FF3
  8
0
 62
7
 66
1
 70
0
 10
0
 20
0
 30
0
  0
VERTEX
  5
3A1DA
  8
0
 62
7
 10
28.391064695459932
 20
37.828432130651038
 70
0
  0
VERTEX
  5
3A1DB
  8
0
 62
7
 10
28.391064695459932
 20
37.84806917491693
 70
0
  0
SEQEND
  5
3A1DC
  8
0
  0
POLYLINE
  5
38FF7
  8
0
 62
7
 66
1
 70
0
 10
0
 20
0
 30
0
  0
VERTEX
  5
3A1DD
  8
0
 62
7
 10
28.391064695459932
 20
37.84806917491693
 70
0
  0
VERTEX
  5
3A1DE
  8
0
 62
7
 10
28.33146454356509
 20
37.867706219182892
 70
0
  0
SEQEND
  5
3A1DF
  8
0
  0
POLYLINE
  5
38FFB
  8
0
 62
7
 66
1
 70
0
 10
0
 20
0
 30
0
  0
VERTEX
  5
3A1E0
  8
0
 62
7
 10
28.529902043515481
 20
37.89698953080751
 70
0
  0
VERTEX
  5
3A1E1
  8
0
 62
7
 10
28.539892820422718
 20
37.926272842432127
 70
0
  0
SEQEND
  5
3A1E2
  8
0
  0
POLYLINE
  5
38FFF
  8
0
 62
7
 66
1
 70
0
 10
0
 20
0
 30
0
  0
VERTEX
  5
3A1E3
  8
0
 62
7
 10
28.529902043515481
 20
37.89698953080751
 70
0
  0
VERTEX
  5
3A1E4
  8
0
 62
7
 10
28.529902043515481
 20
37.887171008674571
 70
0
  0
SEQEND
  5
3A1E5
  8
0
  0
POLYLINE
  5
39003
  8
0
 62
7
 66
1
 70
0
 10
0
 20
0
 30
0
  0
VERTEX
  5
3A1E6
  8
0
 62
7
 10
28.529902043515481
 20
37.887171008674571
 70
0
  0
VERTEX
  5
3A1E7
  8
0
 62
7
 10
28.519911266608261
 20
37.867706219182892
 70
0
  0
SEQEND
  5
3A1E8
  8
0
  0
POLYLINE
  5
39007
  8
0
 62
7
 66
1
 70
0
 10
0
 20
0
 30
0
  0
VERTEX
  5
3A1E9
  8
0
 62
7
 10
28.519911266608261
 20
37.867706219182892
 70
0
  0
VERTEX
  5
3A1EA
  8
0
 62
7
 10
28.519911266608261
 20
37.84806917491693
 70
0
  0
SEQEND
  5
3A1EB
  8
0
  0
POLYLINE
  5
3900B
  8
0
 62
7
 66
1
 70
0
 10
0
 20
0
 30
0
  0
VERTEX
  5
3A1EC
  8
0
 62
7
 10
28.519911266608261
 20
37.84806917491693
 70
0
  0
VERTEX
  5
3A1ED
  8
0
 62
7
 10
28.500274222342341
 20
37.838250652783977
 70
0
  0
SEQEND
  5
3A1EE
  8
0
  0
POLYLINE
  5
3900F
  8
0
 62
7
 66
1
 70
0
 10
0
 20
0
 30
0
  0
VERTEX
  5
3A1EF
  8
0
 62
7
 10
28.500274222342341
 20
37.838250652783977
 70
0
  0
VERTEX
  5
3A1F0
  8
0
 62
7
 10
28.490283445435121
 20
37.828432130651038
 70
0
  0
SEQEND
  5
3A1F1
  8
0
  0
POLYLINE
  5
39013
  8
0
 62
7
 66
1
 70
0
 10
0
 20
0
 30
0
  0
VERTEX
  5
3A1F2
  8
0
 62
7
 10
28.490283445435121
 20
37.828432130651038
 70
0
  0
VERTEX
  5
3A1F3
  8
0
 62
7
 10
28.490283445435121
 20
37.818613608518042
 70
0
  0
SEQEND
  5
3A1F4
  8
0
  0
POLYLINE
  5
39017
  8
0
 62
7
 66
1
 70
0
 10
0
 20
0
 30
0
  0
VERTEX
  5
3A1F5
  8
0
 62
7
 10
28.490283445435121
 20
37.818613608518042
 70
0
  0
VERTEX
  5
3A1F6
  8
0
 62
7
 10
28.46065562426196
 20
37.808795086385089
 70
0
  0
SEQEND
  5
3A1F7
  8
0
  0
POLYLINE
  5
3901B
  8
0
 62
7
 66
1
 70
0
 10
0
 20
0
 30
0
  0
VERTEX
  5
3A1F8
  8
0
 62
7
 10
28.510264999249561
 20
38.034104331120432
 70
0
  0
VERTEX
  5
3A1F9
  8
0
 62
7
 10
28.519911266608261
 20
38.034104331120432
 70
0
  0
SEQEND
  5
3A1FA
  8
0
  0
POLYLINE
  5
3901F
  8
0
 62
7
 66
1
 70
0
 10
0
 20
0
 30
0
  0
VERTEX
  5
3A1FB
  8
0
 62
7
 10
28.33146454356509
 20
37.867706219182892
 70
0
  0
VERTEX
  5
3A1FC
  8
0
 62
7
 10
28.341455320472338
 20
37.838250652783977
 70
0
  0
SEQEND
  5
3A1FD
  8
0
  0
POLYLINE
  5
39023
  8
0
 62
7
 66
1
 70
0
 10
0
 20
0
 30
0
  0
VERTEX
  5
3A1FE
  8
0
 62
7
 10
28.341455320472338
 20
37.838250652783977
 70
0
  0
VERTEX
  5
3A1FF
  8
0
 62
7
 10
28.341455320472338
 20
37.828432130651038
 70
0
  0
SEQEND
  5
3A200
  8
0
  0
POLYLINE
  5
39027
  8
0
 62
7
 66
1
 70
0
 10
0
 20
0
 30
0
  0
VERTEX
  5
3A201
  8
0
 62
7
 10
28.341455320472338
 20
37.828432130651038
 70
0
  0
VERTEX
  5
3A202
  8
0
 62
7
 10
28.351446097379551
 20
37.818613608518042
 70
0
  0
SEQEND
  5
3A203
  8
0
  0
POLYLINE
  5
3902B
  8
0
 62
7
 66
1
 70
0
 10
0
 20
0
 30
0
  0
VERTEX
  5
3A204
  8
0
 62
7
 10
28.351446097379551
 20
37.818613608518042
 70
0
  0
VERTEX
  5
3A205
  8
0
 62
7
 10
28.36143687428677
 20
37.808795086385089
 70
0
  0
SEQEND
  5
3A206
  8
0
  0
POLYLINE
  5
3902F
  8
0
 62
7
 66
1
 70
0
 10
0
 20
0
 30
0
  0
VERTEX
  5
3A207
  8
0
 62
7
 10
28.36143687428677
 20
37.808967341159359
 70
0
  0
VERTEX
  5
3A208
  8
0
 62
7
 10
28.37142765119399
 20
37.799148819026414
 70
0
  0
SEQEND
  5
3A209
  8
0
  0
POLYLINE
  5
39033
  8
0
 62
7
 66
1
 70
0
 10
0
 20
0
 30
0
  0
VERTEX
  5
3A20A
  8
0
 62
7
 10
28.37142765119399
 20
37.799148819026414
 70
0
  0
VERTEX
  5
3A20B
  8
0
 62
7
 10
28.391064695459932
 20
37.789330296893411
 70
0
  0
SEQEND
  5
3A20C
  8
0
  0
POLYLINE
  5
39037
  8
0
 62
7
 66
1
 70
0
 10
0
 20
0
 30
0
  0
VERTEX
  5
3A20D
  8
0
 62
7
 10
28.391064695459932
 20
37.789330296893411
 70
0
  0
VERTEX
  5
3A20E
  8
0
 62
7
 10
28.411046249274371
 20
37.799148819026414
 70
0
  0
SEQEND
  5
3A20F
  8
0
  0
POLYLINE
  5
3903B
  8
0
 62
7
 66
1
 70
0
 10
0
 20
0
 30
0
  0
VERTEX
  5
3A210
  8
0
 62
7
 10
28.440674070447528
 20
37.799148819026414
 70
0
  0
VERTEX
  5
3A211
  8
0
 62
7
 10
28.46065562426196
 20
37.808967341159359
 70
0
  0
SEQEND
  5
3A212
  8
0
  0
POLYLINE
  5
3903F
  8
0
 62
7
 66
1
 70
0
 10
0
 20
0
 30
0
  0
VERTEX
  5
3A213
  8
0
 62
7
 10
28.510264999249561
 20
38.034104331120432
 70
0
  0
VERTEX
  5
3A214
  8
0
 62
7
 10
28.46065562426196
 20
38.05356912061211
 70
0
  0
SEQEND
  5
3A215
  8
0
  0
POLYLINE
  5
39043
  8
0
 62
7
 66
1
 70
0
 10
0
 20
0
 30
0
  0
VERTEX
  5
3A216
  8
0
 62
7
 10
28.470301891620672
 20
38.01446728685454
 70
0
  0
VERTEX
  5
3A217
  8
0
 62
7
 10
28.440674070447528
 20
38.00464876472153
 70
0
  0
SEQEND
  5
3A218
  8
0
  0
POLYLINE
  5
39047
  8
0
 62
7
 66
1
 70
0
 10
0
 20
0
 30
0
  0
VERTEX
  5
3A219
  8
0
 62
7
 10
28.440674070447528
 20
38.00464876472153
 70
0
  0
VERTEX
  5
3A21A
  8
0
 62
7
 10
28.440674070447528
 20
38.00464876472153
 70
0
  0
SEQEND
  5
3A21B
  8
0
  0
POLYLINE
  5
3904B
  8
0
 62
7
 66
1
 70
0
 10
0
 20
0
 30
0
  0
VERTEX
  5
3A21C
  8
0
 62
7
 10
28.440674070447528
 20
38.00464876472153
 70
0
  0
VERTEX
  5
3A21D
  8
0
 62
7
 10
28.420692516633071
 20
37.994830242588591
 70
0
  0
SEQEND
  5
3A21E
  8
0
  0
POLYLINE
  5
3904F
  8
0
 62
7
 66
1
 70
0
 10
0
 20
0
 30
0
  0
VERTEX
  5
3A21F
  8
0
 62
7
 10
28.420692516633071
 20
37.994830242588591
 70
0
  0
VERTEX
  5
3A220
  8
0
 62
7
 10
28.401055472367151
 20
37.955728408831021
 70
0
  0
SEQEND
  5
3A221
  8
0
  0
POLYLINE
  5
39053
  8
0
 62
7
 66
1
 70
0
 10
0
 20
0
 30
0
  0
VERTEX
  5
3A222
  8
0
 62
7
 10
28.401055472367151
 20
37.955728408831021
 70
0
  0
VERTEX
  5
3A223
  8
0
 62
7
 10
28.401055472367151
 20
37.936091364565073
 70
0
  0
SEQEND
  5
3A224
  8
0
  0
POLYLINE
  5
39057
  8
0
 62
7
 66
1
 70
0
 10
0
 20
0
 30
0
  0
VERTEX
  5
3A225
  8
0
 62
7
 10
28.401055472367151
 20
37.936091364565073
 70
0
  0
VERTEX
  5
3A226
  8
0
 62
7
 10
28.391064695459932
 20
37.936091364565073
 70
0
  0
SEQEND
  5
3A227
  8
0
  0
POLYLINE
  5
3905B
  8
0
 62
7
 66
1
 70
0
 10
0
 20
0
 30
0
  0
VERTEX
  5
3A228
  8
0
 62
7
 10
28.391064695459932
 20
37.936091364565073
 70
0
  0
VERTEX
  5
3A229
  8
0
 62
7
 10
28.391064695459932
 20
37.90680805294047
 70
0
  0
SEQEND
  5
3A22A
  8
0
  0
POLYLINE
  5
3905F
  8
0
 62
7
 66
1
 70
0
 10
0
 20
0
 30
0
  0
VERTEX
  5
3A22B
  8
0
 62
7
 10
28.391064695459932
 20
38.034104331120432
 70
0
  0
VERTEX
  5
3A22C
  8
0
 62
7
 10
28.411046249274371
 20
38.043750598479171
 70
0
  0
SEQEND
  5
3A22D
  8
0
  0
POLYLINE
  5
39063
  8
0
 62
7
 66
1
 70
0
 10
0
 20
0
 30
0
  0
VERTEX
  5
3A22E
  8
0
 62
7
 10
28.391064695459932
 20
38.034104331120432
 70
0
  0
VERTEX
  5
3A22F
  8
0
 62
7
 10
28.381073918552691
 20
38.024285808987472
 70
0
  0
SEQEND
  5
3A230
  8
0
  0
POLYLINE
  5
39067
  8
0
 62
7
 66
1
 70
0
 10
0
 20
0
 30
0
  0
VERTEX
  5
3A231
  8
0
 62
7
 10
28.381073918552691
 20
38.024285808987472
 70
0
  0
VERTEX
  5
3A232
  8
0
 62
7
 10
28.37142765119399
 20
38.01446728685454
 70
0
  0
SEQEND
  5
3A233
  8
0
  0
POLYLINE
  5
3906B
  8
0
 62
7
 66
1
 70
0
 10
0
 20
0
 30
0
  0
VERTEX
  5
3A234
  8
0
 62
7
 10
28.37142765119399
 20
38.01446728685454
 70
0
  0
VERTEX
  5
3A235
  8
0
 62
7
 10
28.351446097379551
 20
38.00464876472153
 70
0
  0
SEQEND
  5
3A236
  8
0
  0
POLYLINE
  5
3906F
  8
0
 62
7
 66
1
 70
0
 10
0
 20
0
 30
0
  0
VERTEX
  5
3A237
  8
0
 62
7
 10
28.351446097379551
 20
38.00464876472153
 70
0
  0
VERTEX
  5
3A238
  8
0
 62
7
 10
28.341455320472338
 20
37.985011720455653
 70
0
  0
SEQEND
  5
3A239
  8
0
  0
POLYLINE
  5
39073
  8
0
 62
7
 66
1
 70
0
 10
0
 20
0
 30
0
  0
VERTEX
  5
3A23A
  8
0
 62
7
 10
28.341455320472338
 20
37.985011720455653
 70
0
  0
VERTEX
  5
3A23B
  8
0
 62
7
 10
28.341455320472338
 20
37.965546930963967
 70
0
  0
SEQEND
  5
3A23C
  8
0
  0
POLYLINE
  5
39077
  8
0
 62
7
 66
1
 70
0
 10
0
 20
0
 30
0
  0
VERTEX
  5
3A23D
  8
0
 62
7
 10
28.341455320472338
 20
37.965546930963967
 70
0
  0
VERTEX
  5
3A23E
  8
0
 62
7
 10
28.341455320472338
 20
37.955728408831021
 70
0
  0
SEQEND
  5
3A23F
  8
0
  0
POLYLINE
  5
3907B
  8
0
 62
7
 66
1
 70
0
 10
0
 20
0
 30
0
  0
VERTEX
  5
3A240
  8
0
 62
7
 10
28.341455320472338
 20
37.955728408831021
 70
0
  0
VERTEX
  5
3A241
  8
0
 62
7
 10
28.33146454356509
 20
37.926272842432127
 70
0
  0
SEQEND
  5
3A242
  8
0
  0
POLYLINE
  5
3907F
  8
0
 62
7
 66
1
 70
0
 10
0
 20
0
 30
0
  0
VERTEX
  5
3A243
  8
0
 62
7
 10
28.33146454356509
 20
37.926272842432127
 70
0
  0
VERTEX
  5
3A244
  8
0
 62
7
 10
28.33146454356509
 20
37.867706219182892
 70
0
  0
SEQEND
  5
3A245
  8
0
  0
POLYLINE
  5
39083
  8
0
 62
7
 66
1
 70
0
 10
0
 20
0
 30
0
  0
VERTEX
  5
3A246
  8
0
 62
7
 10
28.33146454356509
 20
37.926272842432127
 70
0
  0
VERTEX
  5
3A247
  8
0
 62
7
 10
28.391064695459932
 20
37.90680805294047
 70
0
  0
SEQEND
  5
3A248
  8
0
  0
POLYLINE
  5
39087
  8
0
 62
7
 66
1
 70
0
 10
0
 20
0
 30
0
  0
VERTEX
  5
3A249
  8
0
 62
7
 10
28.391064695459932
 20
37.90680805294047
 70
0
  0
VERTEX
  5
3A24A
  8
0
 62
7
 10
28.391064695459932
 20
37.84806917491693
 70
0
  0
SEQEND
  5
3A24B
  8
0
  0
POLYLINE
  5
3908B
  8
0
 62
7
 66
1
 70
0
 10
0
 20
0
 30
0
  0
VERTEX
  5
3A24C
  8
0
 62
7
 10
28.46065562426196
 20
38.05356912061211
 70
0
  0
VERTEX
  5
3A24D
  8
0
 62
7
 10
28.480292668527881
 20
38.063387642745063
 70
0
  0
SEQEND
  5
3A24E
  8
0
  0
POLYLINE
  5
3908F
  8
0
 62
7
 66
1
 70
0
 10
0
 20
0
 30
0
  0
VERTEX
  5
3A24F
  8
0
 62
7
 10
28.480292668527881
 20
38.063387642745063
 70
0
  0
VERTEX
  5
3A250
  8
0
 62
7
 10
28.490283445435121
 20
38.063387642745063
 70
0
  0
SEQEND
  5
3A251
  8
0
  0
POLYLINE
  5
39093
  8
0
 62
7
 66
1
 70
0
 10
0
 20
0
 30
0
  0
VERTEX
  5
3A252
  8
0
 62
7
 10
28.490283445435121
 20
38.063387642745063
 70
0
  0
VERTEX
  5
3A253
  8
0
 62
7
 10
28.500274222342341
 20
38.05356912061211
 70
0
  0
SEQEND
  5
3A254
  8
0
  0
POLYLINE
  5
39097
  8
0
 62
7
 66
1
 70
0
 10
0
 20
0
 30
0
  0
VERTEX
  5
3A255
  8
0
 62
7
 10
28.500274222342341
 20
38.05356912061211
 70
0
  0
VERTEX
  5
3A256
  8
0
 62
7
 10
28.519911266608261
 20
38.034104331120432
 70
0
  0
SEQEND
  5
3A257
  8
0
  0
POLYLINE
  5
3909B
  8
0
 62
7
 66
1
 70
0
 10
0
 20
0
 30
0
  0
VERTEX
  5
3A258
  8
0
 62
7
 10
28.519911266608261
 20
38.034104331120432
 70
0
  0
VERTEX
  5
3A259
  8
0
 62
7
 10
28.529902043515481
 20
38.024285808987472
 70
0
  0
SEQEND
  5
3A25A
  8
0
  0
POLYLINE
  5
3909F
  8
0
 62
7
 66
1
 70
0
 10
0
 20
0
 30
0
  0
VERTEX
  5
3A25B
  8
0
 62
7
 10
28.529902043515481
 20
38.024285808987472
 70
0
  0
VERTEX
  5
3A25C
  8
0
 62
7
 10
28.529902043515481
 20
38.01446728685454
 70
0
  0
SEQEND
  5
3A25D
  8
0
  0
POLYLINE
  5
390A3
  8
0
 62
7
 66
1
 70
0
 10
0
 20
0
 30
0
  0
VERTEX
  5
3A25E
  8
0
 62
7
 10
28.529902043515481
 20
38.01446728685454
 70
0
  0
VERTEX
  5
3A25F
  8
0
 62
7
 10
28.539892820422718
 20
37.985011720455653
 70
0
  0
SEQEND
  5
3A260
  8
0
  0
POLYLINE
  5
390A7
  8
0
 62
7
 66
1
 70
0
 10
0
 20
0
 30
0
  0
VERTEX
  5
3A261
  8
0
 62
7
 10
28.519911266608261
 20
38.034104331120432
 70
0
  0
VERTEX
  5
3A262
  8
0
 62
7
 10
28.519911266608261
 20
37.867706219182892
 70
0
  0
SEQEND
  5
3A263
  8
0
  0
POLYLINE
  5
390AB
  8
0
 62
7
 66
1
 70
0
 10
0
 20
0
 30
0
  0
VERTEX
  5
3A264
  8
0
 62
7
 10
29.402544729929279
 20
38.190683920925039
 70
0
  0
VERTEX
  5
3A265
  8
0
 62
7
 10
29.670228649133179
 20
38.406002388753173
 70
0
  0
SEQEND
  5
3A266
  8
0
  0
POLYLINE
  5
390AF
  8
0
 62
7
 66
1
 70
0
 10
0
 20
0
 30
0
  0
VERTEX
  5
3A267
  8
0
 62
7
 10
29.402544729929279
 20
38.190683920925039
 70
0
  0
VERTEX
  5
3A268
  8
0
 62
7
 10
29.382907685663358
 20
38.180865398792093
 70
0
  0
SEQEND
  5
3A269
  8
0
  0
POLYLINE
  5
390B3
  8
0
 62
7
 66
1
 70
0
 10
0
 20
0
 30
0
  0
VERTEX
  5
3A26A
  8
0
 62
7
 10
29.382907685663358
 20
38.180865398792093
 70
0
  0
VERTEX
  5
3A26B
  8
0
 62
7
 10
29.12487003381813
 20
38.00464876472153
 70
0
  0
SEQEND
  5
3A26C
  8
0
  0
POLYLINE
  5
390B7
  8
0
 62
7
 66
1
 70
0
 10
0
 20
0
 30
0
  0
VERTEX
  5
3A26D
  8
0
 62
7
 10
29.12487003381813
 20
38.00464876472153
 70
0
  0
VERTEX
  5
3A26E
  8
0
 62
7
 10
29.085251435737781
 20
37.985011720455653
 70
0
  0
SEQEND
  5
3A26F
  8
0
  0
POLYLINE
  5
390BB
  8
0
 62
7
 66
1
 70
0
 10
0
 20
0
 30
0
  0
VERTEX
  5
3A270
  8
0
 62
7
 10
29.085251435737781
 20
37.985011720455653
 70
0
  0
VERTEX
  5
3A271
  8
0
 62
7
 10
28.9960234626698
 20
37.936091364565073
 70
0
  0
SEQEND
  5
3A272
  8
0
  0
POLYLINE
  5
390BF
  8
0
 62
7
 66
1
 70
0
 10
0
 20
0
 30
0
  0
VERTEX
  5
3A273
  8
0
 62
7
 10
28.9960234626698
 20
37.936091364565073
 70
0
  0
VERTEX
  5
3A274
  8
0
 62
7
 10
28.77794891845349
 20
37.838250652783977
 70
0
  0
SEQEND
  5
3A275
  8
0
  0
POLYLINE
  5
390C3
  8
0
 62
7
 66
1
 70
0
 10
0
 20
0
 30
0
  0
VERTEX
  5
3A276
  8
0
 62
7
 10
28.77794891845349
 20
37.838250652783977
 70
0
  0
VERTEX
  5
3A277
  8
0
 62
7
 10
28.579511418503071
 20
37.75987473049458
 70
0
  0
SEQEND
  5
3A278
  8
0
  0
POLYLINE
  5
390C7
  8
0
 62
7
 66
1
 70
0
 10
0
 20
0
 30
0
  0
VERTEX
  5
3A279
  8
0
 62
7
 10
28.579511418503071
 20
37.75987473049458
 70
0
  0
VERTEX
  5
3A27A
  8
0
 62
7
 10
28.529902043515481
 20
37.740409941002888
 70
0
  0
SEQEND
  5
3A27B
  8
0
  0
POLYLINE
  5
390CB
  8
0
 62
7
 66
1
 70
0
 10
0
 20
0
 30
0
  0
VERTEX
  5
3A27C
  8
0
 62
7
 10
28.529902043515481
 20
37.740409941002888
 70
0
  0
VERTEX
  5
3A27D
  8
0
 62
7
 10
28.470301891620672
 20
37.730591418869942
 70
0
  0
SEQEND
  5
3A27E
  8
0
  0
POLYLINE
  5
390CF
  8
0
 62
7
 66
1
 70
0
 10
0
 20
0
 30
0
  0
VERTEX
  5
3A27F
  8
0
 62
7
 10
28.450664847354741
 20
37.808967341159359
 70
0
  0
VERTEX
  5
3A280
  8
0
 62
7
 10
28.450664847354741
 20
38.01446728685454
 70
0
  0
SEQEND
  5
3A281
  8
0
  0
POLYLINE
  5
390D3
  8
0
 62
7
 66
1
 70
0
 10
0
 20
0
 30
0
  0
VERTEX
  5
3A282
  8
0
 62
7
 10
27.131537786052579
 20
38.660422690338869
 70
0
  0
VERTEX
  5
3A283
  8
0
 62
7
 10
27.111900741786659
 20
38.650604168205923
 70
0
  0
SEQEND
  5
3A284
  8
0
  0
POLYLINE
  5
390D7
  8
0
 62
7
 66
1
 70
0
 10
0
 20
0
 30
0
  0
VERTEX
  5
3A285
  8
0
 62
7
 10
27.062291366799059
 20
38.47438753413536
 70
0
  0
VERTEX
  5
3A286
  8
0
 62
7
 10
27.032663545625919
 20
38.357082032862593
 70
0
  0
SEQEND
  5
3A287
  8
0
  0
POLYLINE
  5
390DB
  8
0
 62
7
 66
1
 70
0
 10
0
 20
0
 30
0
  0
VERTEX
  5
3A288
  8
0
 62
7
 10
27.032663545625919
 20
38.357082032862593
 70
0
  0
VERTEX
  5
3A289
  8
0
 62
7
 10
27.022672768718682
 20
38.229785754682609
 70
0
  0
SEQEND
  5
3A28A
  8
0
  0
POLYLINE
  5
390DF
  8
0
 62
7
 66
1
 70
0
 10
0
 20
0
 30
0
  0
VERTEX
  5
3A28B
  8
0
 62
7
 10
27.062291366799059
 20
38.47438753413536
 70
0
  0
VERTEX
  5
3A28C
  8
0
 62
7
 10
27.131537786052579
 20
38.660422690338869
 70
0
  0
SEQEND
  5
3A28D
  8
0
  0
POLYLINE
  5
390E3
  8
0
 62
7
 66
1
 70
0
 10
0
 20
0
 30
0
  0
VERTEX
  5
3A28E
  8
0
 62
7
 10
28.747976587731809
 20
37.12373784914314
 70
0
  0
VERTEX
  5
3A28F
  8
0
 62
7
 10
28.77794891845349
 20
37.113919327010187
 70
0
  0
SEQEND
  5
3A290
  8
0
  0
POLYLINE
  5
390E7
  8
0
 62
7
 66
1
 70
0
 10
0
 20
0
 30
0
  0
VERTEX
  5
3A291
  8
0
 62
7
 10
28.77794891845349
 20
37.113919327010187
 70
0
  0
VERTEX
  5
3A292
  8
0
 62
7
 10
27.25073808984223
 20
37.72077289673696
 70
0
  0
SEQEND
  5
3A293
  8
0
  0
POLYLINE
  5
390EB
  8
0
 62
7
 66
1
 70
0
 10
0
 20
0
 30
0
  0
VERTEX
  5
3A294
  8
0
 62
7
 10
28.411046249274371
 20
37.710954374604
 70
0
  0
VERTEX
  5
3A295
  8
0
 62
7
 10
28.470301891620672
 20
37.730591418869942
 70
0
  0
SEQEND
  5
3A296
  8
0
  0
POLYLINE
  5
390EF
  8
0
 62
7
 66
1
 70
0
 10
0
 20
0
 30
0
  0
VERTEX
  5
3A297
  8
0
 62
7
 10
28.411046249274371
 20
37.710954374604
 70
0
  0
VERTEX
  5
3A298
  8
0
 62
7
 10
28.16299937433638
 20
37.662034018713442
 70
0
  0
SEQEND
  5
3A299
  8
0
  0
POLYLINE
  5
390F3
  8
0
 62
7
 66
1
 70
0
 10
0
 20
0
 30
0
  0
VERTEX
  5
3A29A
  8
0
 62
7
 10
28.16299937433638
 20
37.662034018713442
 70
0
  0
VERTEX
  5
3A29B
  8
0
 62
7
 10
28.153008597429171
 20
37.662034018713442
 70
0
  0
SEQEND
  5
3A29C
  8
0
  0
POLYLINE
  5
390F7
  8
0
 62
7
 66
1
 70
0
 10
0
 20
0
 30
0
  0
VERTEX
  5
3A29D
  8
0
 62
7
 10
28.153008597429171
 20
37.662034018713442
 70
0
  0
VERTEX
  5
3A29E
  8
0
 62
7
 10
27.845706080144879
 20
37.63275070708881
 70
0
  0
SEQEND
  5
3A29F
  8
0
  0
POLYLINE
  5
390FB
  8
0
 62
7
 66
1
 70
0
 10
0
 20
0
 30
0
  0
VERTEX
  5
3A2A0
  8
0
 62
7
 10
27.845706080144879
 20
37.63275070708881
 70
0
  0
VERTEX
  5
3A2A1
  8
0
 62
7
 10
27.816078258971721
 20
37.63275070708881
 70
0
  0
SEQEND
  5
3A2A2
  8
0
  0
POLYLINE
  5
390FF
  8
0
 62
7
 66
1
 70
0
 10
0
 20
0
 30
0
  0
VERTEX
  5
3A2A3
  8
0
 62
7
 10
27.816078258971721
 20
37.63275070708881
 70
0
  0
VERTEX
  5
3A2A4
  8
0
 62
7
 10
27.736496553262452
 20
37.642569229221813
 70
0
  0
SEQEND
  5
3A2A5
  8
0
  0
POLYLINE
  5
39103
  8
0
 62
7
 66
1
 70
0
 10
0
 20
0
 30
0
  0
VERTEX
  5
3A2A6
  8
0
 62
7
 10
27.736496553262452
 20
37.642569229221813
 70
0
  0
VERTEX
  5
3A2A7
  8
0
 62
7
 10
27.54804983021927
 20
37.662034018713442
 70
0
  0
SEQEND
  5
3A2A8
  8
0
  0
POLYLINE
  5
39107
  8
0
 62
7
 66
1
 70
0
 10
0
 20
0
 30
0
  0
VERTEX
  5
3A2A9
  8
0
 62
7
 10
27.54804983021927
 20
37.662034018713442
 70
0
  0
VERTEX
  5
3A2AA
  8
0
 62
7
 10
27.329975286002959
 20
37.701308107245332
 70
0
  0
SEQEND
  5
3A2AB
  8
0
  0
POLYLINE
  5
3910B
  8
0
 62
7
 66
1
 70
0
 10
0
 20
0
 30
0
  0
VERTEX
  5
3A2AC
  8
0
 62
7
 10
27.329975286002959
 20
37.701308107245332
 70
0
  0
VERTEX
  5
3A2AD
  8
0
 62
7
 10
27.25073808984223
 20
37.72077289673696
 70
0
  0
SEQEND
  5
3A2AE
  8
0
  0
POLYLINE
  5
3910F
  8
0
 62
7
 66
1
 70
0
 10
0
 20
0
 30
0
  0
VERTEX
  5
3A2AF
  8
0
 62
7
 10
27.012681991811451
 20
38.171046876659091
 70
0
  0
VERTEX
  5
3A2B0
  8
0
 62
7
 10
27.022672768718682
 20
38.229785754682609
 70
0
  0
SEQEND
  5
3A2B1
  8
0
  0
POLYLINE
  5
39113
  8
0
 62
7
 66
1
 70
0
 10
0
 20
0
 30
0
  0
VERTEX
  5
3A2B2
  8
0
 62
7
 10
27.012681991811451
 20
38.171046876659091
 70
0
  0
VERTEX
  5
3A2B3
  8
0
 62
7
 10
27.012681991811451
 20
38.122126520768568
 70
0
  0
SEQEND
  5
3A2B4
  8
0
  0
POLYLINE
  5
39117
  8
0
 62
7
 66
1
 70
0
 10
0
 20
0
 30
0
  0
VERTEX
  5
3A2B5
  8
0
 62
7
 10
27.230756536027769
 20
37.730591418869942
 70
0
  0
VERTEX
  5
3A2B6
  8
0
 62
7
 10
27.240747312934982
 20
37.730591418869942
 70
0
  0
SEQEND
  5
3A2B7
  8
0
  0
POLYLINE
  5
3911B
  8
0
 62
7
 66
1
 70
0
 10
0
 20
0
 30
0
  0
VERTEX
  5
3A2B8
  8
0
 62
7
 10
27.240747312934982
 20
37.730591418869942
 70
0
  0
VERTEX
  5
3A2B9
  8
0
 62
7
 10
27.25073808984223
 20
37.72077289673696
 70
0
  0
SEQEND
  5
3A2BA
  8
0
  0
POLYLINE
  5
3911F
  8
0
 62
7
 66
1
 70
0
 10
0
 20
0
 30
0
  0
VERTEX
  5
3A2BB
  8
0
 62
7
 10
27.012681991811451
 20
38.171046876659091
 70
0
  0
VERTEX
  5
3A2BC
  8
0
 62
7
 10
27.00269121490425
 20
38.171046876659091
 70
0
  0
SEQEND
  5
3A2BD
  8
0
  0
POLYLINE
  5
39123
  8
0
 62
7
 66
1
 70
0
 10
0
 20
0
 30
0
  0
VERTEX
  5
3A2BE
  8
0
 62
7
 10
31.187448700837219
 20
37.799148819026414
 70
0
  0
VERTEX
  5
3A2BF
  8
0
 62
7
 10
31.316639781534089
 20
37.936091364565073
 70
0
  0
VERTEX
  5
3A2C0
  8
0
 62
7
 10
31.395876977694829
 20
38.112307998635629
 70
0
  0
VERTEX
  5
3A2C1
  8
0
 62
7
 10
31.425504798867959
 20
38.307989422197807
 70
0
  0
SEQEND
  5
3A2C2
  8
0
  0
POLYLINE
  5
39129
  8
0
 62
7
 66
1
 70
0
 10
0
 20
0
 30
0
  0
VERTEX
  5
3A2C3
  8
0
 62
7
 10
29.620619274145579
 20
38.454922744643682
 70
0
  0
VERTEX
  5
3A2C4
  8
0
 62
7
 10
29.72982880102802
 20
38.582219022823658
 70
0
  0
VERTEX
  5
3A2C5
  8
0
 62
7
 10
29.799419729830049
 20
38.748617134761282
 70
0
  0
VERTEX
  5
3A2C6
  8
0
 62
7
 10
29.82904755100321
 20
38.924661514057512
 70
0
  0
SEQEND
  5
3A2C7
  8
0
  0
POLYLINE
  5
3912F
  8
0
 62
7
 66
1
 70
0
 10
0
 20
0
 30
0
  0
VERTEX
  5
3A2C8
  8
0
 62
7
 10
28.77794891845349
 20
37.113919327010187
 70
0
  0
VERTEX
  5
3A2C9
  8
0
 62
7
 10
29.10523298955221
 20
37.04536192685373
 70
0
  0
VERTEX
  5
3A2CA
  8
0
 62
7
 10
29.452154104916868
 20
37.025897137362037
 70
0
  0
VERTEX
  5
3A2CB
  8
0
 62
7
 10
29.80906599718876
 20
37.074817493252638
 70
0
  0
VERTEX
  5
3A2CC
  8
0
 62
7
 10
30.156331622101931
 20
37.172658205033713
 70
0
  0
VERTEX
  5
3A2CD
  8
0
 62
7
 10
30.513243514373819
 20
37.32923779483832
 70
0
  0
VERTEX
  5
3A2CE
  8
0
 62
7
 10
30.85051836237977
 20
37.534909995307721
 70
0
  0
VERTEX
  5
3A2CF
  8
0
 62
7
 10
31.187448700837219
 20
37.799148819026414
 70
0
  0
SEQEND
  5
3A2D0
  8
0
  0
POLYLINE
  5
39139
  8
0
 62
7
 66
1
 70
0
 10
0
 20
0
 30
0
  0
VERTEX
  5
3A2D1
  8
0
 62
7
 10
28.440674070447528
 20
37.779511774760472
 70
0
  0
VERTEX
  5
3A2D2
  8
0
 62
7
 10
28.450664847354741
 20
37.750228463135841
 70
0
  0
VERTEX
  5
3A2D3
  8
0
 62
7
 10
28.470301891620672
 20
37.730591418869942
 70
0
  0
SEQEND
  5
3A2D4
  8
0
  0
POLYLINE
  5
3913E
  8
0
 62
7
 66
1
 70
0
 10
0
 20
0
 30
0
  0
VERTEX
  5
3A2D5
  8
0
 62
7
 10
28.440674070447528
 20
37.779511774760472
 70
0
  0
VERTEX
  5
3A2D6
  8
0
 62
7
 10
28.84719533770701
 20
37.936091364565073
 70
0
  0
VERTEX
  5
3A2D7
  8
0
 62
7
 10
29.244070337607781
 20
38.161228354526152
 70
0
  0
VERTEX
  5
3A2D8
  8
0
 62
7
 10
29.620619274145579
 20
38.454922744643682
 70
0
  0
SEQEND
  5
3A2D9
  8
0
  0
POLYLINE
  5
39144
  8
0
 62
7
 66
1
 70
0
 10
0
 20
0
 30
0
  0
VERTEX
  5
3A2DA
  8
0
 62
7
 10
27.032663545625919
 20
38.357082032862593
 70
0
  0
VERTEX
  5
3A2DB
  8
0
 62
7
 10
27.022672768718682
 20
38.357082032862593
 70
0
  0
SEQEND
  5
3A2DC
  8
0
  0
POLYLINE
  5
39148
  8
0
 62
7
 66
1
 70
0
 10
0
 20
0
 30
0
  0
VERTEX
  5
3A2DD
  8
0
 62
7
 10
27.062291366799059
 20
38.47438753413536
 70
0
  0
VERTEX
  5
3A2DE
  8
0
 62
7
 10
27.052300589891839
 20
38.47438753413536
 70
0
  0
VERTEX
  5
3A2DF
  8
0
 62
7
 10
27.0423098129846
 20
38.464741266776677
 70
0
  0
SEQEND
  5
3A2E0
  8
0
  0
POLYLINE
  5
3914D
  8
0
 62
7
 66
1
 70
0
 10
0
 20
0
 30
0
  0
VERTEX
  5
3A2E1
  8
0
 62
7
 10
27.240747312934982
 20
37.779511774760472
 70
0
  0
VERTEX
  5
3A2E2
  8
0
 62
7
 10
27.62763153592854
 20
37.701308107245332
 70
0
  0
VERTEX
  5
3A2E3
  8
0
 62
7
 10
28.0241620262808
 20
37.701308107245332
 70
0
  0
VERTEX
  5
3A2E4
  8
0
 62
7
 10
28.440674070447528
 20
37.779511774760472
 70
0
  0
SEQEND
  5
3A2E5
  8
0
  0
POLYLINE
  5
39153
  8
0
 62
7
 66
1
 70
0
 10
0
 20
0
 30
0
  0
VERTEX
  5
3A2E6
  8
0
 62
7
 10
27.240747312934982
 20
37.779511774760472
 70
0
  0
VERTEX
  5
3A2E7
  8
0
 62
7
 10
27.240747312934982
 20
37.740409941002888
 70
0
  0
VERTEX
  5
3A2E8
  8
0
 62
7
 10
27.25073808984223
 20
37.72077289673696
 70
0
  0
SEQEND
  5
3A2E9
  8
0
  0
POLYLINE
  5
39158
  8
0
 62
7
 66
1
 70
0
 10
0
 20
0
 30
0
  0
VERTEX
  5
3A2EA
  8
0
 62
7
 10
27.012681991811451
 20
38.122126520768568
 70
0
  0
VERTEX
  5
3A2EB
  8
0
 62
7
 10
27.0423098129846
 20
37.965546930963967
 70
0
  0
VERTEX
  5
3A2EC
  8
0
 62
7
 10
27.121891518693872
 20
37.84806917491693
 70
0
  0
VERTEX
  5
3A2ED
  8
0
 62
7
 10
27.240747312934982
 20
37.779511774760472
 70
0
  0
SEQEND
  5
3A2EE
  8
0
  0
POLYLINE
  5
3915E
  8
0
 62
7
 66
1
 70
0
 10
0
 20
0
 30
0
  0
VERTEX
  5
3A2EF
  8
0
 62
7
 10
27.022672768718682
 20
38.229785754682609
 70
0
  0
VERTEX
  5
3A2F0
  8
0
 62
7
 10
27.00269121490425
 20
38.229785754682609
 70
0
  0
SEQEND
  5
3A2F1
  8
0
  0
POLYLINE
  5
39162
  8
0
 62
7
 66
1
 70
0
 10
0
 20
0
 30
0
  0
VERTEX
  5
3A2F2
  8
0
 62
7
 10
27.012681991811451
 20
38.122126520768568
 70
0
  0
VERTEX
  5
3A2F3
  8
0
 62
7
 10
27.00269121490425
 20
38.122126520768568
 70
0
  0
VERTEX
  5
3A2F4
  8
0
 62
7
 10
26.993044947545531
 20
38.112307998635629
 70
0
  0
SEQEND
  5
3A2F5
  8
0
  0
POLYLINE
  5
39167
  8
0
 62
7
 66
1
 70
0
 10
0
 20
0
 30
0
  0
VERTEX
  5
3A2F6
  8
0
 62
7
 10
69.980946412493012
 20
21.188793191668569
 70
0
  0
VERTEX
  5
3A2F7
  8
0
 62
7
 10
69.980946412493012
 20
21.159337625269671
 70
0
  0
SEQEND
  5
3A2F8
  8
0
  0
POLYLINE
  5
3916B
  8
0
 62
7
 66
1
 70
0
 10
0
 20
0
 30
0
  0
VERTEX
  5
3A2F9
  8
0
 62
7
 10
69.187540922239975
 20
21.159337625269671
 70
0
  0
VERTEX
  5
3A2FA
  8
0
 62
7
 10
69.187540922239975
 20
21.188793191668569
 70
0
  0
SEQEND
  5
3A2FB
  8
0
  0
POLYLINE
  5
3916F
  8
0
 62
7
 66
1
 70
0
 10
0
 20
0
 30
0
  0
VERTEX
  5
3A2FC
  8
0
 62
7
 10
69.960964858678551
 20
21.1202357915121
 70
0
  0
VERTEX
  5
3A2FD
  8
0
 62
7
 10
69.980946412493012
 20
21.159337625269671
 70
0
  0
SEQEND
  5
3A2FE
  8
0
  0
POLYLINE
  5
39173
  8
0
 62
7
 66
1
 70
0
 10
0
 20
0
 30
0
  0
VERTEX
  5
3A2FF
  8
0
 62
7
 10
69.960964858678551
 20
21.1202357915121
 70
0
  0
VERTEX
  5
3A300
  8
0
 62
7
 10
69.951318591319847
 20
21.110417269379131
 70
0
  0
SEQEND
  5
3A301
  8
0
  0
POLYLINE
  5
39177
  8
0
 62
7
 66
1
 70
0
 10
0
 20
0
 30
0
  0
VERTEX
  5
3A302
  8
0
 62
7
 10
69.951318591319847
 20
21.110417269379131
 70
0
  0
VERTEX
  5
3A303
  8
0
 62
7
 10
69.931337037505429
 20
21.090952479887481
 70
0
  0
SEQEND
  5
3A304
  8
0
  0
POLYLINE
  5
3917B
  8
0
 62
7
 66
1
 70
0
 10
0
 20
0
 30
0
  0
VERTEX
  5
3A305
  8
0
 62
7
 10
69.931337037505429
 20
21.09078022511321
 70
0
  0
VERTEX
  5
3A306
  8
0
 62
7
 10
69.92134626059817
 20
21.0811339577545
 70
0
  0
SEQEND
  5
3A307
  8
0
  0
POLYLINE
  5
3917F
  8
0
 62
7
 66
1
 70
0
 10
0
 20
0
 30
0
  0
VERTEX
  5
3A308
  8
0
 62
7
 10
69.92134626059817
 20
21.0811339577545
 70
0
  0
VERTEX
  5
3A309
  8
0
 62
7
 10
69.881727662517818
 20
21.061496913488568
 70
0
  0
SEQEND
  5
3A30A
  8
0
  0
POLYLINE
  5
39183
  8
0
 62
7
 66
1
 70
0
 10
0
 20
0
 30
0
  0
VERTEX
  5
3A30B
  8
0
 62
7
 10
69.881727662517818
 20
21.061496913488568
 70
0
  0
VERTEX
  5
3A30C
  8
0
 62
7
 10
69.881727662517818
 20
21.061496913488568
 70
0
  0
SEQEND
  5
3A30D
  8
0
  0
POLYLINE
  5
39187
  8
0
 62
7
 66
1
 70
0
 10
0
 20
0
 30
0
  0
VERTEX
  5
3A30E
  8
0
 62
7
 10
69.881727662517818
 20
21.061496913488568
 70
0
  0
VERTEX
  5
3A30F
  8
0
 62
7
 10
69.75288109136946
 20
21.032213601863958
 70
0
  0
SEQEND
  5
3A310
  8
0
  0
POLYLINE
  5
3918B
  8
0
 62
7
 66
1
 70
0
 10
0
 20
0
 30
0
  0
VERTEX
  5
3A311
  8
0
 62
7
 10
69.75288109136946
 20
21.032213601863958
 70
0
  0
VERTEX
  5
3A312
  8
0
 62
7
 10
69.723253270196324
 20
21.022395079731
 70
0
  0
SEQEND
  5
3A313
  8
0
  0
POLYLINE
  5
3918F
  8
0
 62
7
 66
1
 70
0
 10
0
 20
0
 30
0
  0
VERTEX
  5
3A314
  8
0
 62
7
 10
69.723253270196324
 20
21.022395079731
 70
0
  0
VERTEX
  5
3A315
  8
0
 62
7
 10
69.683634672115943
 20
21.022395079731
 70
0
  0
SEQEND
  5
3A316
  8
0
  0
POLYLINE
  5
39193
  8
0
 62
7
 66
1
 70
0
 10
0
 20
0
 30
0
  0
VERTEX
  5
3A317
  8
0
 62
7
 10
69.683290162567431
 20
21.022395079731
 70
0
  0
VERTEX
  5
3A318
  8
0
 62
7
 10
69.673643895208727
 20
21.012576557598042
 70
0
  0
SEQEND
  5
3A319
  8
0
  0
POLYLINE
  5
39197
  8
0
 62
7
 66
1
 70
0
 10
0
 20
0
 30
0
  0
VERTEX
  5
3A31A
  8
0
 62
7
 10
69.673643895208727
 20
21.012576557598042
 70
0
  0
VERTEX
  5
3A31B
  8
0
 62
7
 10
69.64367156448705
 20
21.012576557598042
 70
0
  0
SEQEND
  5
3A31C
  8
0
  0
POLYLINE
  5
3919B
  8
0
 62
7
 66
1
 70
0
 10
0
 20
0
 30
0
  0
VERTEX
  5
3A31D
  8
0
 62
7
 10
69.64367156448705
 20
21.012576557598042
 70
0
  0
VERTEX
  5
3A31E
  8
0
 62
7
 10
69.6140437433139
 20
21.012576557598042
 70
0
  0
SEQEND
  5
3A31F
  8
0
  0
POLYLINE
  5
3919F
  8
0
 62
7
 66
1
 70
0
 10
0
 20
0
 30
0
  0
VERTEX
  5
3A320
  8
0
 62
7
 10
69.6140437433139
 20
21.012576557598042
 70
0
  0
VERTEX
  5
3A321
  8
0
 62
7
 10
69.594062189499468
 20
21.012576557598042
 70
0
  0
SEQEND
  5
3A322
  8
0
  0
POLYLINE
  5
391A3
  8
0
 62
7
 66
1
 70
0
 10
0
 20
0
 30
0
  0
VERTEX
  5
3A323
  8
0
 62
7
 10
69.594062189499468
 20
21.012576557598042
 70
0
  0
VERTEX
  5
3A324
  8
0
 62
7
 10
69.564434368326275
 20
21.012576557598042
 70
0
  0
SEQEND
  5
3A325
  8
0
  0
POLYLINE
  5
391A7
  8
0
 62
7
 66
1
 70
0
 10
0
 20
0
 30
0
  0
VERTEX
  5
3A326
  8
0
 62
7
 10
69.564434368326275
 20
21.012576557598042
 70
0
  0
VERTEX
  5
3A327
  8
0
 62
7
 10
69.534806547153153
 20
21.012576557598042
 70
0
  0
SEQEND
  5
3A328
  8
0
  0
POLYLINE
  5
391AB
  8
0
 62
7
 66
1
 70
0
 10
0
 20
0
 30
0
  0
VERTEX
  5
3A329
  8
0
 62
7
 10
69.534806547153153
 20
21.012576557598042
 70
0
  0
VERTEX
  5
3A32A
  8
0
 62
7
 10
69.504834216431476
 20
21.012576557598042
 70
0
  0
SEQEND
  5
3A32B
  8
0
  0
POLYLINE
  5
391AF
  8
0
 62
7
 66
1
 70
0
 10
0
 20
0
 30
0
  0
VERTEX
  5
3A32C
  8
0
 62
7
 10
69.504834216431476
 20
21.012576557598042
 70
0
  0
VERTEX
  5
3A32D
  8
0
 62
7
 10
69.475206395258326
 20
21.022395079731
 70
0
  0
SEQEND
  5
3A32E
  8
0
  0
POLYLINE
  5
391B3
  8
0
 62
7
 66
1
 70
0
 10
0
 20
0
 30
0
  0
VERTEX
  5
3A32F
  8
0
 62
7
 10
69.475206395258326
 20
21.022395079731
 70
0
  0
VERTEX
  5
3A330
  8
0
 62
7
 10
69.455224841443879
 20
21.022395079731
 70
0
  0
SEQEND
  5
3A331
  8
0
  0
POLYLINE
  5
391B7
  8
0
 62
7
 66
1
 70
0
 10
0
 20
0
 30
0
  0
VERTEX
  5
3A332
  8
0
 62
7
 10
69.455224841443879
 20
21.022395079731
 70
0
  0
VERTEX
  5
3A333
  8
0
 62
7
 10
69.425597020270743
 20
21.022395079731
 70
0
  0
SEQEND
  5
3A334
  8
0
  0
POLYLINE
  5
391BB
  8
0
 62
7
 66
1
 70
0
 10
0
 20
0
 30
0
  0
VERTEX
  5
3A335
  8
0
 62
7
 10
69.425597020270743
 20
21.022395079731
 70
0
  0
VERTEX
  5
3A336
  8
0
 62
7
 10
69.4156062433635
 20
21.022395079731
 70
0
  0
SEQEND
  5
3A337
  8
0
  0
POLYLINE
  5
391BF
  8
0
 62
7
 66
1
 70
0
 10
0
 20
0
 30
0
  0
VERTEX
  5
3A338
  8
0
 62
7
 10
69.4156062433635
 20
21.022395079731
 70
0
  0
VERTEX
  5
3A339
  8
0
 62
7
 10
69.385978422190362
 20
21.032213601863958
 70
0
  0
SEQEND
  5
3A33A
  8
0
  0
POLYLINE
  5
391C3
  8
0
 62
7
 66
1
 70
0
 10
0
 20
0
 30
0
  0
VERTEX
  5
3A33B
  8
0
 62
7
 10
69.385978422190362
 20
21.032213601863958
 70
0
  0
VERTEX
  5
3A33C
  8
0
 62
7
 10
69.346359824109967
 20
21.041859869222652
 70
0
  0
SEQEND
  5
3A33D
  8
0
  0
POLYLINE
  5
391C7
  8
0
 62
7
 66
1
 70
0
 10
0
 20
0
 30
0
  0
VERTEX
  5
3A33E
  8
0
 62
7
 10
69.346359824109967
 20
21.041859869222652
 70
0
  0
VERTEX
  5
3A33F
  8
0
 62
7
 10
69.33636904720278
 20
21.041859869222652
 70
0
  0
SEQEND
  5
3A340
  8
0
  0
POLYLINE
  5
391CB
  8
0
 62
7
 66
1
 70
0
 10
0
 20
0
 30
0
  0
VERTEX
  5
3A341
  8
0
 62
7
 10
69.33636904720278
 20
21.041859869222652
 70
0
  0
VERTEX
  5
3A342
  8
0
 62
7
 10
69.286759672215169
 20
21.061496913488568
 70
0
  0
SEQEND
  5
3A343
  8
0
  0
POLYLINE
  5
391CF
  8
0
 62
7
 66
1
 70
0
 10
0
 20
0
 30
0
  0
VERTEX
  5
3A344
  8
0
 62
7
 10
69.286759672215169
 20
21.061496913488568
 70
0
  0
VERTEX
  5
3A345
  8
0
 62
7
 10
69.237150297227572
 20
21.0811339577545
 70
0
  0
SEQEND
  5
3A346
  8
0
  0
POLYLINE
  5
391D3
  8
0
 62
7
 66
1
 70
0
 10
0
 20
0
 30
0
  0
VERTEX
  5
3A347
  8
0
 62
7
 10
69.237150297227572
 20
21.0811339577545
 70
0
  0
VERTEX
  5
3A348
  8
0
 62
7
 10
69.197531699147191
 20
21.1202357915121
 70
0
  0
SEQEND
  5
3A349
  8
0
  0
POLYLINE
  5
391D7
  8
0
 62
7
 66
1
 70
0
 10
0
 20
0
 30
0
  0
VERTEX
  5
3A34A
  8
0
 62
7
 10
69.197531699147191
 20
21.1202357915121
 70
0
  0
VERTEX
  5
3A34B
  8
0
 62
7
 10
69.197531699147191
 20
21.1202357915121
 70
0
  0
SEQEND
  5
3A34C
  8
0
  0
POLYLINE
  5
391DB
  8
0
 62
7
 66
1
 70
0
 10
0
 20
0
 30
0
  0
VERTEX
  5
3A34D
  8
0
 62
7
 10
69.197531699147191
 20
21.1202357915121
 70
0
  0
VERTEX
  5
3A34E
  8
0
 62
7
 10
69.187540922239975
 20
21.139872835778021
 70
0
  0
SEQEND
  5
3A34F
  8
0
  0
POLYLINE
  5
391DF
  8
0
 62
7
 66
1
 70
0
 10
0
 20
0
 30
0
  0
VERTEX
  5
3A350
  8
0
 62
7
 10
69.187540922239975
 20
21.139872835778021
 70
0
  0
VERTEX
  5
3A351
  8
0
 62
7
 10
69.187540922239975
 20
21.159337625269671
 70
0
  0
SEQEND
  5
3A352
  8
0
  0
POLYLINE
  5
391E3
  8
0
 62
7
 66
1
 70
0
 10
0
 20
0
 30
0
  0
VERTEX
  5
3A353
  8
0
 62
7
 10
69.980946412493012
 20
21.188793191668569
 70
0
  0
VERTEX
  5
3A354
  8
0
 62
7
 10
69.951318591319847
 20
21.23771354755911
 70
0
  0
VERTEX
  5
3A355
  8
0
 62
7
 10
69.891718439425034
 20
21.276815381316709
 70
0
  0
VERTEX
  5
3A356
  8
0
 62
7
 10
69.792499689449841
 20
21.306270947715578
 70
0
  0
VERTEX
  5
3A357
  8
0
 62
7
 10
69.663653118301482
 20
21.316089469848539
 70
0
  0
SEQEND
  5
3A358
  8
0
  0
POLYLINE
  5
391EA
  8
0
 62
7
 66
1
 70
0
 10
0
 20
0
 30
0
  0
VERTEX
  5
3A359
  8
0
 62
7
 10
69.663653118301482
 20
21.316089469848539
 70
0
  0
VERTEX
  5
3A35A
  8
0
 62
7
 10
69.48519717216557
 20
21.316089469848539
 70
0
  0
VERTEX
  5
3A35B
  8
0
 62
7
 10
69.32637827029555
 20
21.286633903449658
 70
0
  0
VERTEX
  5
3A35C
  8
0
 62
7
 10
69.247141074134774
 20
21.257178337050789
 70
0
  0
VERTEX
  5
3A35D
  8
0
 62
7
 10
69.197531699147191
 20
21.227895025426161
 70
0
  0
VERTEX
  5
3A35E
  8
0
 62
7
 10
69.187540922239975
 20
21.188793191668569
 70
0
  0
SEQEND
  5
3A35F
  8
0
  0
POLYLINE
  5
391F2
  8
0
 62
7
 66
1
 70
0
 10
0
 20
0
 30
0
  0
VERTEX
  5
3A360
  8
0
 62
7
 10
69.980946412493012
 20
21.159337625269671
 70
0
  0
VERTEX
  5
3A361
  8
0
 62
7
 10
69.951318591319847
 20
21.208257981160241
 70
0
  0
VERTEX
  5
3A362
  8
0
 62
7
 10
69.871736885610574
 20
21.257178337050789
 70
0
  0
VERTEX
  5
3A363
  8
0
 62
7
 10
69.7628718682767
 20
21.286633903449658
 70
0
  0
VERTEX
  5
3A364
  8
0
 62
7
 10
69.62403452022113
 20
21.296452425582629
 70
0
  0
VERTEX
  5
3A365
  8
0
 62
7
 10
69.475206395258326
 20
21.296452425582629
 70
0
  0
VERTEX
  5
3A366
  8
0
 62
7
 10
69.346359824109967
 20
21.266996859183731
 70
0
  0
VERTEX
  5
3A367
  8
0
 62
7
 10
69.247141074134774
 20
21.23771354755911
 70
0
  0
VERTEX
  5
3A368
  8
0
 62
7
 10
69.187540922239975
 20
21.188793191668569
 70
0
  0
SEQEND
  5
3A369
  8
0
  0
POLYLINE
  5
391FD
  8
0
 62
7
 66
1
 70
0
 10
0
 20
0
 30
0
  0
VERTEX
  5
3A36A
  8
0
 62
7
 10
69.187540922239975
 20
21.188793191668569
 70
0
  0
VERTEX
  5
3A36B
  8
0
 62
7
 10
69.187540922239975
 20
21.17897466953562
 70
0
  0
VERTEX
  5
3A36C
  8
0
 62
7
 10
69.187540922239975
 20
21.159337625269671
 70
0
  0
SEQEND
  5
3A36D
  8
0
  0
INSERT
  5
3A389
  8
0
  2
SPECMY-WH450430NAHTN
 10
73.055005113981423
 20
7.8750023616987868
 30
0
 41
1
 42
1
 43
1
 50
0
  0
ENDSEC
999
Created By CadLib version 4.0.36.7
999
CadLib website: www.woutware.com
  0
EOF
