  0
SECTION
  2
HEADER
  9
$ACADVER
  1
AC1009
  9
$DWGCODEPAGE
  3
dos932
  9
$INSBASE
 10
0
 20
0
 30
0
  9
$EXTMIN
 10
54.680088684332752
 20
39.128550095777733
 30
0
  9
$EXTMAX
 10
108.5755324066546
 20
129.20630700737553
 30
0
  9
$LIMMIN
 10
0
 20
0
  9
$LIMMAX
 10
210.25
 20
148.5
  9
$SNAPMODE
 70
0
  9
$SNAPUNIT
 10
1
 20
1
  9
$SNAPBASE
 10
0
 20
0
  9
$SNAPANG
 50
0
  9
$SNAPSTYLE
 70
0
  9
$SNAPISOPAIR
 70
0
  9
$ORTHOMODE
 70
0
  9
$REGENMODE
 70
1
  9
$FILLMODE
 70
1
  9
$QTEXTMODE
 70
0
  9
$MIRRTEXT
 70
1
  9
$LTSCALE
 40
0.25
  9
$OSMODE
 70
0
  9
$ATTMODE
 70
1
  9
$TEXTSIZE
 40
0.2
  9
$TRACEWID
 40
0.05
  9
$TEXTSTYLE
  7
STANDARD
  9
$CLAYER
  8
0
  9
$CELTYPE
  6
CONTINUOUS
  9
$CECOLOR
 62
256
  9
$DIMSCALE
 40
1
  9
$DIMASZ
 40
0.18
  9
$DIMEXO
 40
0.0625
  9
$DIMDLI
 40
0.38
  9
$DIMRND
 40
0
  9
$DIMDLE
 40
0
  9
$DIMEXE
 40
0.18
  9
$DIMTP
 40
0
  9
$DIMTM
 40
0
  9
$DIMTXT
 40
0.18
  9
$DIMCEN
 40
0.09
  9
$DIMTSZ
 40
0
  9
$DIMTOL
 70
0
  9
$DIMLIM
 70
0
  9
$DIMTIH
 70
1
  9
$DIMTOH
 70
1
  9
$DIMSE1
 70
0
  9
$DIMSE2
 70
0
  9
$DIMTAD
 70
0
  9
$DIMZIN
 70
0
  9
$DIMBLK
  1

  9
$DIMASO
 70
1
  9
$DIMSHO
 70
1
  9
$DIMPOST
  1

  9
$DIMAPOST
  1

  9
$DIMALT
 70
0
  9
$DIMALTD
 70
2
  9
$DIMALTF
 40
25.4
  9
$DIMLFAC
 40
1
  9
$DIMTOFL
 70
0
  9
$DIMTVP
 40
0
  9
$DIMTIX
 70
0
  9
$DIMSOXD
 70
0
  9
$DIMSAH
 70
0
  9
$DIMBLK1
  1

  9
$DIMBLK2
  1

  9
$DIMSTYLE
  2
STANDARD
  9
$DIMCLRD
 70
0
  9
$DIMCLRE
 70
0
  9
$DIMCLRT
 70
0
  9
$DIMTFAC
 40
1
  9
$DIMGAP
 40
0.09
  9
$LUNITS
 70
2
  9
$LUPREC
 70
4
  9
$SKETCHINC
 40
0.1
  9
$FILLETRAD
 40
0
  9
$AUNITS
 70
0
  9
$AUPREC
 70
0
  9
$MENU
  1
acad
  9
$ELEVATION
 40
0
  9
$PELEVATION
 40
0
  9
$THICKNESS
 40
0
  9
$LIMCHECK
 70
0
  9
$CHAMFERA
 40
0
  9
$CHAMFERB
 40
0
  9
$SKPOLY
 70
0
  9
$TDCREATE
 40
0
  9
$TDUPDATE
 40
0
  9
$TDINDWG
 40
0
  9
$TDUSRTIMER
 40
0
  9
$USRTIMER
 70
1
  9
$ANGBASE
 50
0
  9
$ANGDIR
 70
0
  9
$PDMODE
 70
0
  9
$PDSIZE
 40
0
  9
$PLINEWID
 40
0
  9
$SPLFRAME
 70
0
  9
$SPLINETYPE
 70
6
  9
$SPLINESEGS
 70
8
  9
$HANDLING
 70
1
  9
$HANDSEED
  5
1AA
  9
$SURFTAB1
 70
6
  9
$SURFTAB2
 70
6
  9
$SURFTYPE
 70
6
  9
$SURFU
 70
6
  9
$SURFV
 70
6
  9
$UCSORG
 10
0
 20
0
 30
0
  9
$UCSXDIR
 10
1
 20
0
 30
0
  9
$UCSYDIR
 10
0
 20
1
 30
0
  9
$PUCSORG
 10
0
 20
0
 30
0
  9
$PUCSXDIR
 10
1
 20
0
 30
0
  9
$PUCSYDIR
 10
0
 20
1
 30
0
  9
$USERI1
 70
0
  9
$USERI2
 70
0
  9
$USERI3
 70
0
  9
$USERI4
 70
0
  9
$USERI5
 70
0
  9
$USERR1
 40
0
  9
$USERR2
 40
0
  9
$USERR3
 40
0
  9
$USERR4
 40
0
  9
$USERR5
 40
0
  9
$WORLDVIEW
 70
1
  9
$SHADEDGE
 70
3
  9
$SHADEDIF
 70
70
  9
$TILEMODE
 70
1
  9
$MAXACTVP
 70
48
  9
$PINSBASE
 10
0
 20
0
 30
0
  9
$PLIMCHECK
 70
0
  9
$PEXTMIN
 10
1E+20
 20
1E+20
 30
1E+20
  9
$PEXTMAX
 10
-1E+20
 20
-1E+20
 30
-1E+20
  9
$PLIMMAX
 10
12
 20
9
  9
$PLIMMIN
 10
0
 20
0
  9
$UNITMODE
 70
0
  9
$VISRETAIN
 70
1
  9
$PLINEGEN
 70
0
  9
$PSLTSCALE
 70
1
  9
$TREEDEPTH
 70
3020
  9
$DRAGMODE
 70
     2
  9
$BLIPMODE
 70
     0
  9
$COORDS
 70
     1
  9
$ATTDIA
 70
     0
  9
$ATTREQ
 70
     1
  0
ENDSEC
  0
SECTION
  2
TABLES
  0
TABLE
  2
VPORT
  5
19E
 70
1
  0
VPORT
  5
172
  2
*ACTIVE
 70
0
 10
0
 20
0
 11
1
 21
1
 12
81.360552
 22
83.880204
 13
0
 23
0
 14
1
 24
1
 15
0
 25
0
 16
0
 26
0
 36
1
 17
0
 27
0
 37
0
 40
90.194969
 41
3.327068
 42
50
 43
0
 44
0
 50
0
 51
0
 71
0
 72
100
 73
1
 74
1
 75
0
 76
0
 77
0
 78
0
  0
ENDTAB
  0
TABLE
  2
LTYPE
  5
19F
 70
22
  0
LTYPE
  5
15B
  2
CONTINUOUS
  3
実線
 70
0
 72
65
 73
0
 40
0
  0
LTYPE
  5
15C
  2
DASHED1
  3
--  --  --  --  --  --  --  --  
 70
0
 72
65
 73
2
 40
2.5
 49
1.25
 49
-1.25
  0
LTYPE
  5
15D
  2
DASHED2
  3
----    ----    ----    ----    
 70
0
 72
65
 73
2
 40
5
 49
2.5
 49
-2.5
  0
LTYPE
  5
15E
  2
DASHED3
  3
------  ------  ------  ------  
 70
0
 72
65
 73
2
 40
5
 49
3.75
 49
-1.25
  0
LTYPE
  5
15F
  2
CENTER1
  3
----- - ----- - ----- - ----- - 
 70
0
 72
65
 73
4
 40
10
 49
6.25
 49
-1.25
 49
1.25
 49
-1.25
  0
LTYPE
  5
160
  2
CENTER2
  3
----------  --  ----------  --  
 70
0
 72
65
 73
4
 40
20
 49
12.5
 49
-2.5
 49
2.5
 49
-2.5
  0
LTYPE
  5
161
  2
PHANTOM1
  3
--- - - --- - - --- - - --- - - 
 70
0
 72
65
 73
6
 40
9.5
 49
3.25
 49
-1.25
 49
1.25
 49
-1.25
 49
1.25
 49
-1.25
  0
LTYPE
  5
162
  2
PHANTOM2
  3
--------  -  -  --------  -  -  
 70
0
 72
65
 73
6
 40
20
 49
10
 49
-2.5
 49
1.25
 49
-2.5
 49
1.25
 49
-2.5
  0
LTYPE
  5
163
  2
DOT
  3
-   -   -   -   -   -   -   -   
 70
0
 72
65
 73
2
 40
2.5
 49
0.625
 49
-1.875
  0
LTYPE
  5
164
  2
DUMMY
  3
ダミー
 70
0
 72
65
 73
0
 40
0
  0
LTYPE
  5
165
  2
RAND1
  3
----- - ----- - ----- - ----- - 
 70
0
 72
65
 73
4
 40
10
 49
6.25
 49
-1.25
 49
1.25
 49
-1.25
  0
LTYPE
  5
166
  2
RAND2
  3
----------  --  ----------  --  
 70
0
 72
65
 73
4
 40
20
 49
12.5
 49
-2.5
 49
2.5
 49
-2.5
  0
LTYPE
  5
167
  2
RAND3
  3
--- - - --- - - --- - - --- - - 
 70
0
 72
65
 73
6
 40
9.5
 49
3.25
 49
-1.25
 49
1.25
 49
-1.25
 49
1.25
 49
-1.25
  0
LTYPE
  5
168
  2
RAND4
  3
--------  -  -  --------  -  -  
 70
0
 72
65
 73
6
 40
20
 49
10
 49
-2.5
 49
1.25
 49
-2.5
 49
1.25
 49
-2.5
  0
LTYPE
  5
169
  2
RAND5
  3
----- - ----- - ----- - ----- - 
 70
0
 72
65
 73
4
 40
10
 49
6.25
 49
-1.25
 49
1.25
 49
-1.25
  0
LTYPE
  5
16A
  2
LONG1
  3
----------  --  ----------  --  
 70
0
 72
65
 73
4
 40
20
 49
12.5
 49
-2.5
 49
2.5
 49
-2.5
  0
LTYPE
  5
16B
  2
LONG2
  3
--- - - --- - - --- - - --- - - 
 70
0
 72
65
 73
6
 40
9.5
 49
3.25
 49
-1.25
 49
1.25
 49
-1.25
 49
1.25
 49
-1.25
  0
LTYPE
  5
16C
  2
LONG3
  3
--------  -  -  --------  -  -  
 70
0
 72
65
 73
6
 40
20
 49
10
 49
-2.5
 49
1.25
 49
-2.5
 49
1.25
 49
-2.5
  0
LTYPE
  5
16D
  2
LONG4
  3
----- - ----- - ----- - ----- - 
 70
0
 72
65
 73
4
 40
10
 49
6.25
 49
-1.25
 49
1.25
 49
-1.25
  0
LTYPE
  5
16E
  2
LONG5
  3
----------  --  ----------  --  
 70
0
 72
65
 73
4
 40
20
 49
12.5
 49
-2.5
 49
2.5
 49
-2.5
  0
LTYPE
  5
16F
  2
ByBlock
  3

 70
64
 72
65
 73
0
 40
0
  0
LTYPE
  5
170
  2
ByLayer
  3

 70
64
 72
65
 73
0
 40
0
  0
ENDTAB
  0
TABLE
  2
LAYER
  5
1A0
 70
5
  0
LAYER
  5
145
 70
0
  2
0
 62
7
  6
CONTINUOUS
  0
LAYER
  5
146
 70
0
  2
_0-0_0
 62
7
  6
CONTINUOUS
  0
LAYER
  5
147
 70
0
  2
_0-4_LAY-4
 62
7
  6
CONTINUOUS
  0
LAYER
  5
148
 70
0
  2
ADD_LINE
 62
7
  6
CONTINUOUS
  0
LAYER
  5
149
 70
0
  2
SPEC
 62
7
  6
CONTINUOUS
  0
ENDTAB
  0
TABLE
  2
STYLE
  5
1A1
 70
2
  0
STYLE
  5
159
  2
STANDARD
 70
0
 40
0
 41
1
 50
0
 71
0
 42
0.2
  3
txt.shx
  4
extfont2.shx
  0
STYLE
  5
15A
  2
TATEGAKI
 70
4
 40
0
 41
1
 50
0
 71
0
 42
1
  3
txt
  4
bigfont.shx
  0
ENDTAB
  0
TABLE
  2
APPID
  5
1A4
 70
2
  0
APPID
  5
1A5
  2
ACAD
 70
0
  0
APPID
  5
1A8
  2
ACAD_MLEADERVER
 70
64
  0
ENDTAB
  0
TABLE
  2
DIMSTYLE
  5
1A6
 70
1
  0
DIMSTYLE
105
171
  2
STANDARD
 70
0
  3

  4

  5

  6

  7

 40
1
 41
0.18
 42
0.0625
 43
0.38
 44
0.18
 45
0
 46
0
 47
0
 48
0
140
0.18
141
0.09
142
0
143
25.4
144
1
145
0
146
1
147
0.09
 71
0
 72
0
 73
1
 74
1
 75
0
 76
0
 77
0
 78
0
170
0
171
2
172
0
173
0
174
0
175
0
176
0
177
0
178
0
  0
ENDTAB
  0
ENDSEC
  0
SECTION
  2
BLOCKS
  0
BLOCK
  5
14B
  8
0
  2
$MODEL_SPACE
 70
0
 10
0
 20
0
 30
0
  3
$MODEL_SPACE
  0
ENDBLK
  5
1A
  8
0
  0
BLOCK
  5
14D
  8
0
 67
1
  2
$PAPER_SPACE
 70
0
 10
0
 20
0
 30
0
  3
$PAPER_SPACE
  0
ENDBLK
  5
17
  8
0
  0
BLOCK
  5
14F
  8
0
  2
SPECR04
 70
64
 10
0
 20
0
 30
0
  3
SPECR04
  0
ENDBLK
  5
150
  8
0
  0
BLOCK
  5
152
  8
0
  2
*MODEL_SPACE
 70
64
 10
0
 20
0
 30
0
  3
*MODEL_SPACE
  0
ENDBLK
  5
155
  8
0
  0
BLOCK
  5
157
  8
0
 67
1
  2
*PAPER_SPACE
 70
64
 10
0
 20
0
 30
0
  3
*PAPER_SPACE
  0
ENDBLK
  5
158
  8
0
  0
ENDSEC
  0
SECTION
  2
ENTITIES
  0
LINE
  5
37
  8
_0-0_0
  6
CONTINUOUS
 62
7
 10
94.010958
 20
95.439213
 30
0
 11
93.573423
 21
101.64111
 31
0
  0
LINE
  5
38
  8
_0-0_0
  6
CONTINUOUS
 62
7
 10
93.573423
 20
101.64111
 30
0
 11
92.217186
 21
101.00207
 31
0
  0
LINE
  5
39
  8
_0-0_0
  6
CONTINUOUS
 62
7
 10
106.57713
 20
94.829148
 30
0
 11
107.25788
 21
101.59451
 31
0
  0
LINE
  5
3A
  8
_0-0_0
  6
CONTINUOUS
 62
7
 10
107.25788
 20
101.59451
 30
0
 11
108.44739
 21
101.01195
 31
0
  0
ARC
  5
3B
  8
_0-0_0
  6
CONTINUOUS
 62
7
 10
100.34434
 20
80.677095
 30
0
 40
22.030329
 50
71.710442
 51
107.89932
  0
LINE
  5
3C
  8
_0-0_0
  6
CONTINUOUS
 62
7
 10
108.44739
 20
101.01195
 30
0
 11
105.05903
 21
67.185059
 31
0
  0
LINE
  5
3D
  8
_0-0_0
  6
CONTINUOUS
 62
7
 10
94.749462
 20
67.097286
 30
0
 11
92.217186
 21
101.00207
 31
0
  0
ARC
  5
3E
  8
_0-0_0
  6
CONTINUOUS
 62
7
 10
99.895796
 20
67.602639
 30
0
 40
5.166581
 50
220.73934
 51
270.04875
  0
ARC
  5
3F
  8
_0-0_0
  6
CONTINUOUS
 62
7
 10
99.914618
 20
67.618851
 30
0
 40
5.191422
 50
185.76604
 51
220.73934
  0
ARC
  5
40
  8
_0-0_0
  6
CONTINUOUS
 62
7
 10
99.904589
 20
67.602639
 30
0
 40
5.166581
 50
269.95124
 51
319.26065
  0
ARC
  5
41
  8
_0-0_0
  6
CONTINUOUS
 62
7
 10
99.885768
 20
67.618851
 30
0
 40
5.191422
 50
319.26065
 51
355.20681000000008
  0
ARC
  5
42
  8
_0-0_0
  6
CONTINUOUS
 62
7
 10
99.900153
 20
67.612095
 30
0
 40
2.843919
 50
180
 51
202.50013
  0
ARC
  5
43
  8
_0-0_0
  6
CONTINUOUS
 62
7
 10
99.900163
 20
67.612097
 30
0
 40
2.843929
 50
202.50011
 51
225.00024000000002
  0
ARC
  5
44
  8
_0-0_0
  6
CONTINUOUS
 62
7
 10
99.900185
 20
67.612119
 30
0
 40
2.84396
 50
225.00023
 51
247.50013999999996
  0
ARC
  5
45
  8
_0-0_0
  6
CONTINUOUS
 62
7
 10
99.900191
 20
67.612127
 30
0
 40
2.843969
 50
247.50009000000003
 51
270
  0
ARC
  5
46
  8
_0-0_0
  6
CONTINUOUS
 62
7
 10
99.900192
 20
67.612128
 30
0
 40
2.843971
 50
269.99998
 51
292.49989
  0
ARC
  5
47
  8
_0-0_0
  6
CONTINUOUS
 62
7
 10
99.900198
 20
67.612119
 30
0
 40
2.84396
 50
292.49985
 51
314.99976
  0
ARC
  5
48
  8
_0-0_0
  6
CONTINUOUS
 62
7
 10
99.90022
 20
67.612097
 30
0
 40
2.843929
 50
314.99975
 51
337.49988
  0
ARC
  5
49
  8
_0-0_0
  6
CONTINUOUS
 62
7
 10
99.90023
 20
67.612095
 30
0
 40
2.843919
 50
337.49986
 51
359.99999
  0
ARC
  5
4A
  8
_0-0_0
  6
CONTINUOUS
 62
7
 10
99.90023
 20
67.612095
 30
0
 40
2.843919
 50
0
 51
22.500135
  0
ARC
  5
4B
  8
_0-0_0
  6
CONTINUOUS
 62
7
 10
99.90022
 20
67.612092
 30
0
 40
2.843929
 50
22.500112
 51
45.000247
  0
ARC
  5
4C
  8
_0-0_0
  6
CONTINUOUS
 62
7
 10
99.900198
 20
67.61207
 30
0
 40
2.84396
 50
45.000235
 51
67.500143
  0
ARC
  5
4D
  8
_0-0_0
  6
CONTINUOUS
 62
7
 10
99.900192
 20
67.612061
 30
0
 40
2.843971
 50
67.500105
 51
90.000013
  0
ARC
  5
4E
  8
_0-0_0
  6
CONTINUOUS
 62
7
 10
99.900191
 20
67.612062
 30
0
 40
2.843969
 50
89.999992
 51
112.4999
  0
ARC
  5
4F
  8
_0-0_0
  6
CONTINUOUS
 62
7
 10
99.900185
 20
67.61207
 30
0
 40
2.84396
 50
112.49985
 51
134.99976
  0
ARC
  5
50
  8
_0-0_0
  6
CONTINUOUS
 62
7
 10
99.900163
 20
67.612092
 30
0
 40
2.843929
 50
134.99975
 51
157.49988
  0
ARC
  5
51
  8
_0-0_0
  6
CONTINUOUS
 62
7
 10
99.900153
 20
67.612095
 30
0
 40
2.843919
 50
157.49986
 51
179.99999
  0
ARC
  5
52
  8
_0-0_0
  6
CONTINUOUS
 62
7
 10
99.900169
 20
67.612094
 30
0
 40
1.975631
 50
179.99998
 51
202.50012
  0
ARC
  5
53
  8
_0-0_0
  6
CONTINUOUS
 62
7
 10
99.900176
 20
67.612095
 30
0
 40
1.975638
 50
202.50007
 51
225.00021
  0
ARC
  5
54
  8
_0-0_0
  6
CONTINUOUS
 62
7
 10
99.900191
 20
67.612109
 30
0
 40
1.975658
 50
225.00018
 51
247.50009000000003
  0
ARC
  5
55
  8
_0-0_0
  6
CONTINUOUS
 62
7
 10
99.900193
 20
67.612116
 30
0
 40
1.975665
 50
247.50011
 51
270.00002
  0
ARC
  5
56
  8
_0-0_0
  6
CONTINUOUS
 62
7
 10
99.900195
 20
67.612116
 30
0
 40
1.975665
 50
269.99997
 51
292.49988
  0
ARC
  5
57
  8
_0-0_0
  6
CONTINUOUS
 62
7
 10
99.900197
 20
67.612109
 30
0
 40
1.975658
 50
292.4999
 51
314.99981
  0
ARC
  5
58
  8
_0-0_0
  6
CONTINUOUS
 62
7
 10
99.900212
 20
67.612095
 30
0
 40
1.975638
 50
314.99978
 51
337.49992
  0
ARC
  5
59
  8
_0-0_0
  6
CONTINUOUS
 62
7
 10
99.900219
 20
67.612094
 30
0
 40
1.975631
 50
337.49987
 51
1.1E-05
  0
ARC
  5
5A
  8
_0-0_0
  6
CONTINUOUS
 62
7
 10
99.900219
 20
67.612095
 30
0
 40
1.975631
 50
359.99998
 51
22.500124
  0
ARC
  5
5B
  8
_0-0_0
  6
CONTINUOUS
 62
7
 10
99.900212
 20
67.612094
 30
0
 40
1.975638
 50
22.500074
 51
45.00021
  0
ARC
  5
5C
  8
_0-0_0
  6
CONTINUOUS
 62
7
 10
99.900197
 20
67.61208
 30
0
 40
1.975658
 50
45.000187
 51
67.500096
  0
ARC
  5
5D
  8
_0-0_0
  6
CONTINUOUS
 62
7
 10
99.900195
 20
67.612073
 30
0
 40
1.975665
 50
67.500119
 51
90.000028
  0
ARC
  5
5E
  8
_0-0_0
  6
CONTINUOUS
 62
7
 10
99.900193
 20
67.612073
 30
0
 40
1.975665
 50
89.999971
 51
112.49988
  0
ARC
  5
5F
  8
_0-0_0
  6
CONTINUOUS
 62
7
 10
99.900191
 20
67.61208
 30
0
 40
1.975658
 50
112.4999
 51
134.99981000000003
  0
ARC
  5
60
  8
_0-0_0
  6
CONTINUOUS
 62
7
 10
99.900176
 20
67.612094
 30
0
 40
1.975638
 50
134.99978
 51
157.49992
  0
ARC
  5
61
  8
_0-0_0
  6
CONTINUOUS
 62
7
 10
99.900169
 20
67.612095
 30
0
 40
1.975631
 50
157.49987
 51
180.00001
  0
LINE
  5
62
  8
_0-0_0
  6
CONTINUOUS
 62
7
 10
94.502655
 20
88.469136
 30
0
 11
96.003774
 21
67.19103
 31
0
  0
LINE
  5
63
  8
_0-0_0
  6
CONTINUOUS
 62
7
 10
105.95883
 20
88.684461
 30
0
 11
103.80542
 21
67.283667
 31
0
  0
ARC
  5
64
  8
_0-0_0
  6
CONTINUOUS
 62
7
 10
99.90213
 20
67.610218
 30
0
 40
3.91693
 50
269.97166
 51
355.21775
  0
ARC
  5
65
  8
_0-0_0
  6
CONTINUOUS
 62
7
 10
99.900426
 20
67.612687
 30
0
 40
3.9194
 50
186.17596
 51
269.99658
  0
ARC
  5
66
  8
_0-0_0
  6
CONTINUOUS
 62
7
 10
100.15632
 20
92.37035
 30
0
 40
6.869024
 50
153.46346
 51
214.60691
  0
ARC
  5
67
  8
_0-0_0
  6
CONTINUOUS
 62
7
 10
93.249926
 20
93.756646
 30
0
 40
1.846673
 50
65.662567
 51
91.485967
  0
ARC
  5
68
  8
_0-0_0
  6
CONTINUOUS
 62
7
 10
93.281241
 20
89.817264
 30
0
 40
1.819148
 50
273.52554
 51
312.17682
  0
ARC
  5
69
  8
_0-0_0
  6
CONTINUOUS
 62
7
 10
100.16525
 20
92.370883
 30
0
 40
6.866974
 50
327.53165000000007
 51
20.97642
  0
ARC
  5
6A
  8
_0-0_0
  6
CONTINUOUS
 62
7
 10
107.30312
 20
90.185879
 30
0
 40
2.015286
 50
228.16038
 51
259.17722
  0
ARC
  5
6B
  8
_0-0_0
  6
CONTINUOUS
 62
7
 10
107.35691
 20
93.102393
 30
0
 40
1.894661
 50
82.32296
 51
114.3033
  0
ARC
  5
6C
  8
_0-0_0
  6
CONTINUOUS
 62
7
 10
97.279172
 20
82.283085
 30
0
 40
1.892537
 50
179.99994
 51
202.50007
  0
ARC
  5
6D
  8
_0-0_0
  6
CONTINUOUS
 62
7
 10
97.279192
 20
82.283093
 30
0
 40
1.892558
 50
202.50007
 51
224.99998
  0
ARC
  5
6E
  8
_0-0_0
  6
CONTINUOUS
 62
7
 10
97.27919
 20
82.283097
 30
0
 40
1.892559
 50
225.0001
 51
247.50001
  0
ARC
  5
6F
  8
_0-0_0
  6
CONTINUOUS
 62
7
 10
97.279189
 20
82.283098
 30
0
 40
1.89256
 50
247.50006000000002
 51
269.99996
  0
ARC
  5
70
  8
_0-0_0
  6
CONTINUOUS
 62
7
 10
97.279187
 20
82.2831
 30
0
 40
1.892562
 50
270.00002
 51
292.49992
  0
ARC
  5
71
  8
_0-0_0
  6
CONTINUOUS
 62
7
 10
97.279186
 20
82.283095
 30
0
 40
1.892558
 50
292.50001
 51
314.99991
  0
ARC
  5
72
  8
_0-0_0
  6
CONTINUOUS
 62
7
 10
97.279184
 20
82.283094
 30
0
 40
1.892558
 50
314.99997
 51
337.49988
  0
ARC
  5
73
  8
_0-0_0
  6
CONTINUOUS
 62
7
 10
97.279204
 20
82.283085
 30
0
 40
1.892537
 50
337.49992
 51
5.6000000000000006E-05
  0
ARC
  5
74
  8
_0-0_0
  6
CONTINUOUS
 62
7
 10
97.279202
 20
82.283089
 30
0
 40
1.892538
 50
359.99993
 51
22.50007
  0
ARC
  5
75
  8
_0-0_0
  6
CONTINUOUS
 62
7
 10
97.279184
 20
82.28308
 30
0
 40
1.892558
 50
22.500114
 51
45.000023
  0
ARC
  5
76
  8
_0-0_0
  6
CONTINUOUS
 62
7
 10
97.279186
 20
82.283079
 30
0
 40
1.892558
 50
45.00008
 51
67.499988
  0
ARC
  5
77
  8
_0-0_0
  6
CONTINUOUS
 62
7
 10
97.279189
 20
82.283074
 30
0
 40
1.892562
 50
67.50011600000002
 51
90.000024
  0
ARC
  5
78
  8
_0-0_0
  6
CONTINUOUS
 62
7
 10
97.279187
 20
82.283076
 30
0
 40
1.89256
 50
89.999984
 51
112.49989
  0
ARC
  5
79
  8
_0-0_0
  6
CONTINUOUS
 62
7
 10
97.27919
 20
82.283078
 30
0
 40
1.892559
 50
112.49998
 51
134.99989
  0
ARC
  5
7A
  8
_0-0_0
  6
CONTINUOUS
 62
7
 10
97.279192
 20
82.283082
 30
0
 40
1.892558
 50
135.00001
 51
157.49992
  0
ARC
  5
7B
  8
_0-0_0
  6
CONTINUOUS
 62
7
 10
97.279174
 20
82.283089
 30
0
 40
1.892538
 50
157.49992
 51
180.00006
  0
ARC
  5
7C
  8
_0-0_0
  6
CONTINUOUS
 62
7
 10
97.279198
 20
82.283095
 30
0
 40
1.323591
 50
179.99997
 51
202.49988
  0
ARC
  5
7D
  8
_0-0_0
  6
CONTINUOUS
 62
7
 10
97.279196
 20
82.283097
 30
0
 40
1.32359
 50
202.50002
 51
224.99993
  0
ARC
  5
7E
  8
_0-0_0
  6
CONTINUOUS
 62
7
 10
97.279195
 20
82.283098
 30
0
 40
1.32359
 50
224.99997
 51
247.49988000000002
  0
ARC
  5
7F
  8
_0-0_0
  6
CONTINUOUS
 62
7
 10
97.279189
 20
82.283085
 30
0
 40
1.323576
 50
247.4999
 51
270.00004
  0
ARC
  5
80
  8
_0-0_0
  6
CONTINUOUS
 62
7
 10
97.27919
 20
82.283083
 30
0
 40
1.323574
 50
269.99996
 51
292.5001
  0
ARC
  5
81
  8
_0-0_0
  6
CONTINUOUS
 62
7
 10
97.279184
 20
82.283098
 30
0
 40
1.32359
 50
292.50011
 51
315.00002
  0
ARC
  5
82
  8
_0-0_0
  6
CONTINUOUS
 62
7
 10
97.279183
 20
82.283097
 30
0
 40
1.32359
 50
315.00006
 51
337.49997
  0
ARC
  5
83
  8
_0-0_0
  6
CONTINUOUS
 62
7
 10
97.279181
 20
82.283096
 30
0
 40
1.323592
 50
337.50004
 51
359.99995
  0
ARC
  5
84
  8
_0-0_0
  6
CONTINUOUS
 62
7
 10
97.279181
 20
82.283094
 30
0
 40
1.323592
 50
4.4E-05
 51
22.499952
  0
ARC
  5
85
  8
_0-0_0
  6
CONTINUOUS
 62
7
 10
97.279183
 20
82.283093
 30
0
 40
1.32359
 50
22.500023
 51
44.999931000000004
  0
ARC
  5
86
  8
_0-0_0
  6
CONTINUOUS
 62
7
 10
97.279184
 20
82.283093
 30
0
 40
1.32359
 50
44.999975000000006
 51
67.499884
  0
ARC
  5
87
  8
_0-0_0
  6
CONTINUOUS
 62
7
 10
97.279192
 20
82.283107
 30
0
 40
1.323574
 50
67.49996
 51
90.000096
  0
ARC
  5
88
  8
_0-0_0
  6
CONTINUOUS
 62
7
 10
97.279187
 20
82.283106
 30
0
 40
1.323575
 50
89.99989
 51
112.50002
  0
ARC
  5
89
  8
_0-0_0
  6
CONTINUOUS
 62
7
 10
97.279195
 20
82.283093
 30
0
 40
1.32359
 50
112.50011000000002
 51
135.00002
  0
ARC
  5
8A
  8
_0-0_0
  6
CONTINUOUS
 62
7
 10
97.279196
 20
82.283093
 30
0
 40
1.32359
 50
135.00006
 51
157.49997
  0
ARC
  5
8B
  8
_0-0_0
  6
CONTINUOUS
 62
7
 10
97.279198
 20
82.283096
 30
0
 40
1.323591
 50
157.50011
 51
180.00002
  0
ARC
  5
8C
  8
_0-0_0
  6
CONTINUOUS
 62
7
 10
97.27918
 20
82.283093
 30
0
 40
1.225537
 50
179.99988
 51
202.50002
  0
ARC
  5
8D
  8
_0-0_0
  6
CONTINUOUS
 62
7
 10
97.279191
 20
82.283099
 30
0
 40
1.225549
 50
202.50011
 51
225.00001
  0
ARC
  5
8E
  8
_0-0_0
  6
CONTINUOUS
 62
7
 10
97.27919
 20
82.283101
 30
0
 40
1.225549
 50
225.00008
 51
247.49998
  0
ARC
  5
8F
  8
_0-0_0
  6
CONTINUOUS
 62
7
 10
97.279189
 20
82.283101
 30
0
 40
1.225549
 50
247.50002
 51
269.99992
  0
ARC
  5
90
  8
_0-0_0
  6
CONTINUOUS
 62
7
 10
97.279187
 20
82.283102
 30
0
 40
1.225551
 50
270.00005
 51
292.49996
  0
ARC
  5
91
  8
_0-0_0
  6
CONTINUOUS
 62
7
 10
97.279186
 20
82.283101
 30
0
 40
1.225549
 50
292.50001
 51
314.99991
  0
ARC
  5
92
  8
_0-0_0
  6
CONTINUOUS
 62
7
 10
97.279185
 20
82.283098
 30
0
 40
1.225548
 50
315.00004
 51
337.49994
  0
ARC
  5
93
  8
_0-0_0
  6
CONTINUOUS
 62
7
 10
97.279196
 20
82.283094
 30
0
 40
1.225537
 50
337.4999
 51
4.2E-05
  0
ARC
  5
94
  8
_0-0_0
  6
CONTINUOUS
 62
7
 10
97.279196
 20
82.283096
 30
0
 40
1.225537
 50
359.99995
 51
22.500092
  0
ARC
  5
95
  8
_0-0_0
  6
CONTINUOUS
 62
7
 10
97.279185
 20
82.283093
 30
0
 40
1.225548
 50
22.500050000000005
 51
44.999959
  0
ARC
  5
96
  8
_0-0_0
  6
CONTINUOUS
 62
7
 10
97.279186
 20
82.28309
 30
0
 40
1.225549
 50
45.00008
 51
67.499989
  0
ARC
  5
97
  8
_0-0_0
  6
CONTINUOUS
 62
7
 10
97.279188
 20
82.283088
 30
0
 40
1.22555
 50
67.500105
 51
90.000013
  0
ARC
  5
98
  8
_0-0_0
  6
CONTINUOUS
 62
7
 10
97.279188
 20
82.28309
 30
0
 40
1.225549
 50
90
 51
112.4999
  0
ARC
  5
99
  8
_0-0_0
  6
CONTINUOUS
 62
7
 10
97.27919
 20
82.28309
 30
0
 40
1.225549
 50
112.50001
 51
134.99991
  0
ARC
  5
9A
  8
_0-0_0
  6
CONTINUOUS
 62
7
 10
97.279191
 20
82.283091
 30
0
 40
1.225549
 50
134.99998
 51
157.49988
  0
ARC
  5
9B
  8
_0-0_0
  6
CONTINUOUS
 62
7
 10
97.27918
 20
82.283098
 30
0
 40
1.225537
 50
157.49997
 51
180.00011
  0
ARC
  5
9C
  8
_0-0_0
  6
CONTINUOUS
 62
7
 10
102.85767
 20
82.283085
 30
0
 40
1.892537
 50
179.99994
 51
202.50007
  0
ARC
  5
9D
  8
_0-0_0
  6
CONTINUOUS
 62
7
 10
102.85769
 20
82.283094
 30
0
 40
1.892558
 50
202.50011
 51
225.00002
  0
ARC
  5
9E
  8
_0-0_0
  6
CONTINUOUS
 62
7
 10
102.85768
 20
82.283095
 30
0
 40
1.892558
 50
225.00008
 51
247.49998
  0
ARC
  5
9F
  8
_0-0_0
  6
CONTINUOUS
 62
7
 10
102.85768
 20
82.2831
 30
0
 40
1.892562
 50
247.50007
 51
269.99997
  0
ARC
  5
A0
  8
_0-0_0
  6
CONTINUOUS
 62
7
 10
102.85768
 20
82.283098
 30
0
 40
1.89256
 50
270.00003
 51
292.49993
  0
ARC
  5
A1
  8
_0-0_0
  6
CONTINUOUS
 62
7
 10
102.85768
 20
82.283095
 30
0
 40
1.892558
 50
292.50001
 51
314.99991
  0
ARC
  5
A2
  8
_0-0_0
  6
CONTINUOUS
 62
7
 10
102.85768
 20
82.283094
 30
0
 40
1.892558
 50
314.99997
 51
337.49988
  0
ARC
  5
A3
  8
_0-0_0
  6
CONTINUOUS
 62
7
 10
102.8577
 20
82.283085
 30
0
 40
1.892537
 50
337.49992
 51
5.6000000000000006E-05
  0
ARC
  5
A4
  8
_0-0_0
  6
CONTINUOUS
 62
7
 10
102.8577
 20
82.283089
 30
0
 40
1.892538
 50
359.99993
 51
22.50007
  0
ARC
  5
A5
  8
_0-0_0
  6
CONTINUOUS
 62
7
 10
102.85768
 20
82.28308
 30
0
 40
1.892558
 50
22.500114
 51
45.000023
  0
ARC
  5
A6
  8
_0-0_0
  6
CONTINUOUS
 62
7
 10
102.85768
 20
82.283079
 30
0
 40
1.892558
 50
45.00008
 51
67.499988
  0
ARC
  5
A7
  8
_0-0_0
  6
CONTINUOUS
 62
7
 10
102.85768
 20
82.283076
 30
0
 40
1.89256
 50
67.500106
 51
90.000015
  0
ARC
  5
A8
  8
_0-0_0
  6
CONTINUOUS
 62
7
 10
102.85768
 20
82.283074
 30
0
 40
1.892562
 50
89.999975
 51
112.49988
  0
ARC
  5
A9
  8
_0-0_0
  6
CONTINUOUS
 62
7
 10
102.85768
 20
82.283079
 30
0
 40
1.892558
 50
112.50001
 51
134.99991
  0
ARC
  5
AA
  8
_0-0_0
  6
CONTINUOUS
 62
7
 10
102.85769
 20
82.28308
 30
0
 40
1.892558
 50
134.99997
 51
157.49988
  0
ARC
  5
AB
  8
_0-0_0
  6
CONTINUOUS
 62
7
 10
102.85767
 20
82.283089
 30
0
 40
1.892538
 50
157.49992
 51
180.00006
  0
ARC
  5
AC
  8
_0-0_0
  6
CONTINUOUS
 62
7
 10
102.85767
 20
82.283094
 30
0
 40
1.225537
 50
179.99995
 51
202.50009
  0
ARC
  5
AD
  8
_0-0_0
  6
CONTINUOUS
 62
7
 10
102.85768
 20
82.283098
 30
0
 40
1.225548
 50
202.50005
 51
224.99995
  0
ARC
  5
AE
  8
_0-0_0
  6
CONTINUOUS
 62
7
 10
102.85768
 20
82.283101
 30
0
 40
1.225549
 50
225.00008
 51
247.49998
  0
ARC
  5
AF
  8
_0-0_0
  6
CONTINUOUS
 62
7
 10
102.85768
 20
82.283102
 30
0
 40
1.225551
 50
247.50002999999998
 51
269.99994
  0
ARC
  5
B0
  8
_0-0_0
  6
CONTINUOUS
 62
7
 10
102.85768
 20
82.283101
 30
0
 40
1.225549
 50
270.00007
 51
292.49997
  0
ARC
  5
B1
  8
_0-0_0
  6
CONTINUOUS
 62
7
 10
102.85768
 20
82.283101
 30
0
 40
1.225549
 50
292.50001
 51
314.99991
  0
ARC
  5
B2
  8
_0-0_0
  6
CONTINUOUS
 62
7
 10
102.85768
 20
82.283099
 30
0
 40
1.225549
 50
314.99998
 51
337.49988
  0
ARC
  5
B3
  8
_0-0_0
  6
CONTINUOUS
 62
7
 10
102.85769
 20
82.283093
 30
0
 40
1.225537
 50
337.49997
 51
0.000113
  0
ARC
  5
B4
  8
_0-0_0
  6
CONTINUOUS
 62
7
 10
102.85769
 20
82.283098
 30
0
 40
1.225537
 50
359.99988
 51
22.500022
  0
ARC
  5
B5
  8
_0-0_0
  6
CONTINUOUS
 62
7
 10
102.85768
 20
82.283091
 30
0
 40
1.225549
 50
22.50011
 51
45.000018000000004
  0
ARC
  5
B6
  8
_0-0_0
  6
CONTINUOUS
 62
7
 10
102.85768
 20
82.28309
 30
0
 40
1.225549
 50
45.00008
 51
67.499989
  0
ARC
  5
B7
  8
_0-0_0
  6
CONTINUOUS
 62
7
 10
102.85768
 20
82.28309
 30
0
 40
1.225549
 50
67.500091
 51
89.999999
  0
ARC
  5
B8
  8
_0-0_0
  6
CONTINUOUS
 62
7
 10
102.85768
 20
82.283088
 30
0
 40
1.22555
 50
89.999986
 51
112.49989
  0
ARC
  5
B9
  8
_0-0_0
  6
CONTINUOUS
 62
7
 10
102.85768
 20
82.28309
 30
0
 40
1.225549
 50
112.50001
 51
134.99991
  0
ARC
  5
BA
  8
_0-0_0
  6
CONTINUOUS
 62
7
 10
102.85768
 20
82.283093
 30
0
 40
1.225548
 50
135.00004
 51
157.49994
  0
ARC
  5
BB
  8
_0-0_0
  6
CONTINUOUS
 62
7
 10
102.85767
 20
82.283096
 30
0
 40
1.225537
 50
157.49990000000003
 51
180.00004
  0
ARC
  5
BC
  8
_0-0_0
  6
CONTINUOUS
 62
7
 10
102.85769
 20
82.283096
 30
0
 40
1.323592
 50
180.00004
 51
202.49995
  0
ARC
  5
BD
  8
_0-0_0
  6
CONTINUOUS
 62
7
 10
102.85769
 20
82.283096
 30
0
 40
1.323589
 50
202.49996
 51
224.99987
  0
ARC
  5
BE
  8
_0-0_0
  6
CONTINUOUS
 62
7
 10
102.85769
 20
82.283098
 30
0
 40
1.32359
 50
224.99997
 51
247.49988000000002
  0
ARC
  5
BF
  8
_0-0_0
  6
CONTINUOUS
 62
7
 10
102.85768
 20
82.283085
 30
0
 40
1.323576
 50
247.4999
 51
270.00004
  0
ARC
  5
C0
  8
_0-0_0
  6
CONTINUOUS
 62
7
 10
102.85768
 20
82.283085
 30
0
 40
1.323576
 50
269.99995
 51
292.50009
  0
ARC
  5
C1
  8
_0-0_0
  6
CONTINUOUS
 62
7
 10
102.85768
 20
82.283098
 30
0
 40
1.32359
 50
292.50011
 51
315.00002
  0
ARC
  5
C2
  8
_0-0_0
  6
CONTINUOUS
 62
7
 10
102.85768
 20
82.283096
 30
0
 40
1.323589
 50
315.00012
 51
337.50003
  0
ARC
  5
C3
  8
_0-0_0
  6
CONTINUOUS
 62
7
 10
102.85767
 20
82.283096
 30
0
 40
1.323592
 50
337.50004
 51
359.99995
  0
ARC
  5
C4
  8
_0-0_0
  6
CONTINUOUS
 62
7
 10
102.85767
 20
82.283094
 30
0
 40
1.323592
 50
4.4E-05
 51
22.499952
  0
ARC
  5
C5
  8
_0-0_0
  6
CONTINUOUS
 62
7
 10
102.85768
 20
82.283095
 30
0
 40
1.323589
 50
22.499967
 51
44.999876
  0
ARC
  5
C6
  8
_0-0_0
  6
CONTINUOUS
 62
7
 10
102.85768
 20
82.283093
 30
0
 40
1.32359
 50
44.999975000000006
 51
67.499884
  0
ARC
  5
C7
  8
_0-0_0
  6
CONTINUOUS
 62
7
 10
102.85769
 20
82.283106
 30
0
 40
1.323575
 50
67.499973
 51
90.000109
  0
ARC
  5
C8
  8
_0-0_0
  6
CONTINUOUS
 62
7
 10
102.85768
 20
82.283106
 30
0
 40
1.323575
 50
89.99989
 51
112.50002
  0
ARC
  5
C9
  8
_0-0_0
  6
CONTINUOUS
 62
7
 10
102.85769
 20
82.283093
 30
0
 40
1.32359
 50
112.50011000000002
 51
135.00002
  0
ARC
  5
CA
  8
_0-0_0
  6
CONTINUOUS
 62
7
 10
102.85769
 20
82.283095
 30
0
 40
1.323589
 50
135.00012
 51
157.50003
  0
ARC
  5
CB
  8
_0-0_0
  6
CONTINUOUS
 62
7
 10
102.85769
 20
82.283094
 30
0
 40
1.323592
 50
157.50004
 51
179.99995
  0
CIRCLE
  5
CC
  8
_0-0_0
  6
CONTINUOUS
 62
7
 10
100.15969
 20
85.767583
 30
0
 40
0.109445
  0
CIRCLE
  5
CD
  8
_0-0_0
  6
CONTINUOUS
 62
7
 10
100.90462
 20
85.767583
 30
0
 40
0.109445
  0
CIRCLE
  5
CE
  8
_0-0_0
  6
CONTINUOUS
 62
7
 10
100.90462
 20
85.279423
 30
0
 40
0.109445
  0
CIRCLE
  5
CF
  8
_0-0_0
  6
CONTINUOUS
 62
7
 10
100.15969
 20
85.279423
 30
0
 40
0.109445
  0
CIRCLE
  5
D0
  8
_0-0_0
  6
CONTINUOUS
 62
7
 10
99.4148
 20
85.279423
 30
0
 40
0.109445
  0
CIRCLE
  5
D1
  8
_0-0_0
  6
CONTINUOUS
 62
7
 10
99.4148
 20
85.767583
 30
0
 40
0.109445
  0
CIRCLE
  5
D2
  8
_0-0_0
  6
CONTINUOUS
 62
7
 10
100.15969
 20
92.370096
 30
0
 40
4.166397
  0
CIRCLE
  5
D3
  8
_0-0_0
  6
CONTINUOUS
 62
7
 10
100.15969
 20
92.370096
 30
0
 40
3.763287
  0
CIRCLE
  5
D4
  8
_0-0_0
  6
CONTINUOUS
 62
7
 10
100.15969
 20
92.370096
 30
0
 40
3.550338
  0
CIRCLE
  5
D5
  8
_0-0_0
  6
CONTINUOUS
 62
7
 10
100.15969
 20
92.370096
 30
0
 40
2.560027
  0
ARC
  5
D6
  8
_0-0_0
  6
CONTINUOUS
 62
7
 10
100.15969
 20
92.370096
 30
0
 40
4.409397
 50
135.16172
 51
225.16132
  0
ARC
  5
D7
  8
_0-0_0
  6
CONTINUOUS
 62
7
 10
100.15969
 20
92.370096
 30
0
 40
4.598397
 50
135.50192
 51
225.16132
  0
ARC
  5
D8
  8
_0-0_0
  6
CONTINUOUS
 62
7
 10
100.15969
 20
92.370096
 30
0
 40
4.976397
 50
143.87732
 51
220.2679
  0
ARC
  5
D9
  8
_0-0_0
  6
CONTINUOUS
 62
7
 10
100.15969
 20
92.370096
 30
0
 40
5.381397
 50
143.76706
 51
220.5876
  0
ARC
  5
DA
  8
_0-0_0
  6
CONTINUOUS
 62
7
 10
100.15969
 20
92.370096
 30
0
 40
5.678397
 50
135.71614
 51
227.93196
  0
ARC
  5
DB
  8
_0-0_0
  6
CONTINUOUS
 62
7
 10
100.15969
 20
92.370096
 30
0
 40
5.867397
 50
135.44627
 51
228.28225
  0
LINE
  5
DC
  8
_0-0_0
  6
CONTINUOUS
 62
7
 10
97.027002
 20
95.827701
 30
0
 11
96.318111
 21
96.49321
 31
0
  0
ARC
  5
DD
  8
_0-0_0
  6
CONTINUOUS
 62
7
 10
96.860681
 20
95.650539
 30
0
 40
0.243
 50
315.16172
 51
46.807899
  0
ARC
  5
DE
  8
_0-0_0
  6
CONTINUOUS
 62
7
 10
96.15179
 20
96.316048
 30
0
 40
0.243
 50
46.807899
 51
135.44627
  0
LINE
  5
DF
  8
_0-0_0
  6
CONTINUOUS
 62
7
 10
96.877443
 20
95.70887
 30
0
 11
96.208018
 21
96.337329
 31
0
  0
ARC
  5
E0
  8
_0-0_0
  6
CONTINUOUS
 62
7
 10
96.152577
 20
96.278275
 30
0
 40
0.081
 50
46.807899
 51
135.71614
  0
ARC
  5
E1
  8
_0-0_0
  6
CONTINUOUS
 62
7
 10
96.822003
 20
95.649816
 30
0
 40
0.081
 50
315.50192
 51
46.807899
  0
LINE
  5
E2
  8
_0-0_0
  6
CONTINUOUS
 62
7
 10
96.120001
 20
95.517372
 30
0
 11
96.060502
 21
95.57323
 31
0
  0
ARC
  5
E3
  8
_0-0_0
  6
CONTINUOUS
 62
7
 10
95.949621
 20
95.455122
 30
0
 40
0.162
 50
46.807899
 51
143.76706
  0
ARC
  5
E4
  8
_0-0_0
  6
CONTINUOUS
 62
7
 10
96.009121
 20
95.399263
 30
0
 40
0.162
 50
323.87732
 51
46.807899
  0
ARC
  5
E5
  8
_0-0_0
  6
CONTINUOUS
 62
7
 10
100.15969
 20
92.370096
 30
0
 40
4.409397
 50
241.40206999999998
 51
298.59765
  0
ARC
  5
E6
  8
_0-0_0
  6
CONTINUOUS
 62
7
 10
100.15969
 20
92.370096
 30
0
 40
4.598397
 50
242.0191
 51
297.98087
  0
LINE
  5
E7
  8
_0-0_0
  6
CONTINUOUS
 62
7
 10
97.097909
 20
88.923934
 30
0
 11
96.630821
 21
88.056643
 31
0
  0
ARC
  5
E8
  8
_0-0_0
  6
CONTINUOUS
 62
7
 10
96.860191
 20
89.051959
 30
0
 40
0.27
 50
331.69489
 51
45.161321
  0
ARC
  5
E9
  8
_0-0_0
  6
CONTINUOUS
 62
7
 10
96.416875
 20
88.171865
 30
0
 40
0.243
 50
228.28225
 51
331.69489
  0
LINE
  5
EA
  8
_0-0_0
  6
CONTINUOUS
 62
7
 10
96.931506
 20
89.013552
 30
0
 11
96.480684
 21
88.176462
 31
0
  0
ARC
  5
EB
  8
_0-0_0
  6
CONTINUOUS
 62
7
 10
96.860191
 20
89.051959
 30
0
 40
0.081
 50
331.69489
 51
45.161321
  0
ARC
  5
EC
  8
_0-0_0
  6
CONTINUOUS
 62
7
 10
96.409368
 20
88.214869
 30
0
 40
0.081
 50
227.93196
 51
331.69489
  0
LINE
  5
ED
  8
_0-0_0
  6
CONTINUOUS
 62
7
 10
96.387912
 20
88.911505
 30
0
 11
96.382929
 21
88.902253
 31
0
  0
ARC
  5
EE
  8
_0-0_0
  6
CONTINUOUS
 62
7
 10
96.197738
 20
89.013925
 30
0
 40
0.216
 50
331.69489
 51
40.267902
  0
ARC
  5
EF
  8
_0-0_0
  6
CONTINUOUS
 62
7
 10
96.216526
 20
88.991871
 30
0
 40
0.189
 50
220.5876
 51
331.69489
  0
ARC
  5
F0
  8
_0-0_0
  6
CONTINUOUS
 62
7
 10
100.15969
 20
92.370096
 30
0
 40
5.867397
 50
311.71774
 51
44.55373
  0
LINE
  5
F1
  8
_0-0_0
  6
CONTINUOUS
 62
7
 10
103.29238
 20
95.827701
 30
0
 11
104.00127
 21
96.49321
 31
0
  0
ARC
  5
F2
  8
_0-0_0
  6
CONTINUOUS
 62
7
 10
100.15969
 20
92.370096
 30
0
 40
5.381397
 50
319.41239
 51
36.232933
  0
ARC
  5
F3
  8
_0-0_0
  6
CONTINUOUS
 62
7
 10
100.15969
 20
92.370096
 30
0
 40
4.976397
 50
319.73209
 51
36.122675
  0
ARC
  5
F4
  8
_0-0_0
  6
CONTINUOUS
 62
7
 10
100.15969
 20
92.370096
 30
0
 40
5.678397
 50
312.06803
 51
44.28386
  0
ARC
  5
F5
  8
_0-0_0
  6
CONTINUOUS
 62
7
 10
100.15969
 20
92.370096
 30
0
 40
4.598397
 50
314.83867
 51
44.498074
  0
ARC
  5
F6
  8
_0-0_0
  6
CONTINUOUS
 62
7
 10
100.15969
 20
92.370096
 30
0
 40
4.409397
 50
314.83867
 51
44.83828
  0
ARC
  5
F7
  8
_0-0_0
  6
CONTINUOUS
 62
7
 10
104.36976
 20
95.455122
 30
0
 40
0.162
 50
36.232933
 51
133.1921
  0
LINE
  5
F8
  8
_0-0_0
  6
CONTINUOUS
 62
7
 10
103.44194
 20
95.70887
 30
0
 11
104.11137
 21
96.337329
 31
0
  0
ARC
  5
F9
  8
_0-0_0
  6
CONTINUOUS
 62
7
 10
104.31026
 20
95.399263
 30
0
 40
0.162
 50
133.1921
 51
216.12267000000003
  0
LINE
  5
FA
  8
_0-0_0
  6
CONTINUOUS
 62
7
 10
104.19938
 20
95.517372
 30
0
 11
104.25888
 21
95.57323
 31
0
  0
ARC
  5
FB
  8
_0-0_0
  6
CONTINUOUS
 62
7
 10
104.16681
 20
96.278275
 30
0
 40
0.081
 50
44.28386
 51
133.1921
  0
ARC
  5
FC
  8
_0-0_0
  6
CONTINUOUS
 62
7
 10
103.49738
 20
95.649816
 30
0
 40
0.081
 50
133.1921
 51
224.49807
  0
ARC
  5
FD
  8
_0-0_0
  6
CONTINUOUS
 62
7
 10
104.1676
 20
96.316048
 30
0
 40
0.243
 50
44.55373
 51
133.1921
  0
ARC
  5
FE
  8
_0-0_0
  6
CONTINUOUS
 62
7
 10
103.4587
 20
95.650539
 30
0
 40
0.243
 50
133.1921
 51
224.83828
  0
LINE
  5
FF
  8
_0-0_0
  6
CONTINUOUS
 62
7
 10
103.38788
 20
89.013552
 30
0
 11
103.8387
 21
88.176462
 31
0
  0
LINE
  5
100
  8
_0-0_0
  6
CONTINUOUS
 62
7
 10
103.22148
 20
88.923934
 30
0
 11
103.68857
 21
88.056643
 31
0
  0
ARC
  5
101
  8
_0-0_0
  6
CONTINUOUS
 62
7
 10
103.91002
 20
88.214869
 30
0
 40
0.081
 50
208.3051
 51
312.06803
  0
ARC
  5
102
  8
_0-0_0
  6
CONTINUOUS
 62
7
 10
103.90251
 20
88.171865
 30
0
 40
0.243
 50
208.3051
 51
311.71774
  0
ARC
  5
103
  8
_0-0_0
  6
CONTINUOUS
 62
7
 10
104.10286
 20
88.991871
 30
0
 40
0.189
 50
208.3051
 51
319.41239
  0
LINE
  5
104
  8
_0-0_0
  6
CONTINUOUS
 62
7
 10
103.93147
 20
88.911505
 30
0
 11
103.93646
 21
88.902253
 31
0
  0
ARC
  5
105
  8
_0-0_0
  6
CONTINUOUS
 62
7
 10
104.12165
 20
89.013925
 30
0
 40
0.216
 50
139.73209
 51
208.3051
  0
ARC
  5
106
  8
_0-0_0
  6
CONTINUOUS
 62
7
 10
103.45919
 20
89.051959
 30
0
 40
0.081
 50
134.83867
 51
208.3051
  0
ARC
  5
107
  8
_0-0_0
  6
CONTINUOUS
 62
7
 10
103.45919
 20
89.051959
 30
0
 40
0.27
 50
134.83867
 51
208.3051
  0
ARC
  5
108
  8
_0-0_0
  6
CONTINUOUS
 62
7
 10
100.15968
 20
86.740839
 30
0
 40
2.977304
 50
145.8252
 51
34.174521
  0
ARC
  5
109
  8
_0-0_0
  6
CONTINUOUS
 62
7
 10
100.15969
 20
86.740839
 30
0
 40
2.786804
 50
146.87369
 51
33.126277000000009
  0
ARC
  5
10A
  8
_0-0_0
  6
CONTINUOUS
 62
7
 10
97.919855
 20
88.261584
 30
0
 40
0.27
 50
61.40207
 51
145.8252
  0
ARC
  5
10B
  8
_0-0_0
  6
CONTINUOUS
 62
7
 10
97.938893
 20
88.190013
 30
0
 40
0.135
 50
62.019102
 51
146.87369
  0
ARC
  5
10C
  8
_0-0_0
  6
CONTINUOUS
 62
7
 10
102.38049
 20
88.190013
 30
0
 40
0.135
 50
33.126277000000009
 51
117.98087
  0
ARC
  5
10D
  8
_0-0_0
  6
CONTINUOUS
 62
7
 10
102.39951
 20
88.261573
 30
0
 40
0.27
 50
34.174521
 51
118.59765
  0
ARC
  5
10E
  8
_0-0_0
  6
CONTINUOUS
 62
7
 10
100.34434
 20
82.19951
 30
0
 40
18.470412
 50
87.553223
 51
92.446777
  0
ARC
  5
10F
  8
_0-0_0
  6
CONTINUOUS
 62
7
 10
100.34434
 20
82.19951
 30
0
 40
18.578412
 50
87.55273600000001
 51
92.447264
  0
ARC
  5
110
  8
_0-0_0
  6
CONTINUOUS
 62
7
 10
100.34435
 20
81.121343
 30
0
 40
20.239266
 50
86.754859
 51
93.245141000000018
  0
ARC
  5
111
  8
_0-0_0
  6
CONTINUOUS
 62
7
 10
100.34435
 20
81.121343
 30
0
 40
20.347266
 50
86.754454
 51
93.245546
  0
ARC
  5
112
  8
_0-0_0
  6
CONTINUOUS
 62
7
 10
100.34434
 20
80.729655
 30
0
 40
21.409743
 50
85.860375
 51
94.139625
  0
ARC
  5
113
  8
_0-0_0
  6
CONTINUOUS
 62
7
 10
100.34434
 20
80.729655
 30
0
 40
21.517743
 50
85.860738
 51
94.139262
  0
ARC
  5
114
  8
_0-0_0
  6
CONTINUOUS
 62
7
 10
98.795006
 20
102.1374
 30
0
 40
0.054
 50
94.067368
 51
274.21151
  0
ARC
  5
115
  8
_0-0_0
  6
CONTINUOUS
 62
7
 10
99.553437
 20
100.70703
 30
0
 40
0.054
 50
92.36351
 51
272.53053
  0
ARC
  5
116
  8
_0-0_0
  6
CONTINUOUS
 62
7
 10
99.195516
 20
101.38206
 30
0
 40
0.054
 50
93.169113
 51
273.32157
  0
ARC
  5
117
  8
_0-0_0
  6
CONTINUOUS
 62
7
 10
101.89368
 20
102.1374
 30
0
 40
0.054
 50
265.78848
 51
85.932632
  0
ARC
  5
118
  8
_0-0_0
  6
CONTINUOUS
 62
7
 10
101.13525
 20
100.70703
 30
0
 40
0.054
 50
267.46946000000008
 51
87.63649
  0
ARC
  5
119
  8
_0-0_0
  6
CONTINUOUS
 62
7
 10
101.49318
 20
101.38206
 30
0
 40
0.054
 50
266.67842
 51
86.830887
  0
LINE
  5
11A
  8
_0-0_0
  6
CONTINUOUS
 62
7
 10
108.0468
 20
94.625776
 30
0
 11
108.44719
 21
98.522988
 31
0
  0
ARC
  5
11B
  8
_0-0_0
  6
CONTINUOUS
 62
7
 10
108.17803
 20
95.842192
 30
0
 40
0.108
 50
303.58384
 51
44.15357
  0
ARC
  5
11C
  8
_0-0_0
  6
CONTINUOUS
 62
7
 10
107.91251
 20
94.639573
 30
0
 40
0.135
 50
269.78916
 51
354.13414
  0
LINE
  5
11D
  8
_0-0_0
  6
CONTINUOUS
 62
7
 10
107.79561
 20
94.505003
 30
0
 11
107.91201
 21
94.504575
 31
0
  0
ARC
  5
11E
  8
_0-0_0
  6
CONTINUOUS
 62
7
 10
108.02709
 20
94.495242
 30
0
 40
0.1161
 50
269.78916
 51
43.733056
  0
LINE
  5
11F
  8
_0-0_0
  6
CONTINUOUS
 62
7
 10
107.78309
 20
94.380039
 30
0
 11
108.02667
 21
94.379143
 31
0
  0
ARC
  5
120
  8
_0-0_0
  6
CONTINUOUS
 62
7
 10
108.06268
 20
94.76837
 30
0
 40
0.108
 50
303.58384
 51
44.15357
  0
ARC
  5
121
  8
_0-0_0
  6
CONTINUOUS
 62
7
 10
108.15976
 20
94.622165
 30
0
 40
0.0675
 50
123.58384
 51
223.73305
  0
ARC
  5
122
  8
_0-0_0
  6
CONTINUOUS
 62
7
 10
108.18859
 20
94.890621
 30
0
 40
0.0675
 50
123.58384
 51
224.15357
  0
ARC
  5
123
  8
_0-0_0
  6
CONTINUOUS
 62
7
 10
108.09152
 20
95.036826
 30
0
 40
0.108
 50
303.58384
 51
44.15357
  0
ARC
  5
124
  8
_0-0_0
  6
CONTINUOUS
 62
7
 10
108.12035
 20
95.305281
 30
0
 40
0.108
 50
303.58384
 51
44.15357
  0
ARC
  5
125
  8
_0-0_0
  6
CONTINUOUS
 62
7
 10
108.21743
 20
95.159076
 30
0
 40
0.0675
 50
123.58384
 51
224.15357
  0
ARC
  5
126
  8
_0-0_0
  6
CONTINUOUS
 62
7
 10
108.14919
 20
95.573736
 30
0
 40
0.108
 50
303.58384
 51
44.15357
  0
ARC
  5
127
  8
_0-0_0
  6
CONTINUOUS
 62
7
 10
108.24627
 20
95.427531
 30
0
 40
0.0675
 50
123.58384
 51
224.15357
  0
ARC
  5
128
  8
_0-0_0
  6
CONTINUOUS
 62
7
 10
108.27511
 20
95.695987
 30
0
 40
0.0675
 50
123.58384
 51
224.15357
  0
ARC
  5
129
  8
_0-0_0
  6
CONTINUOUS
 62
7
 10
108.35106
 20
97.452925
 30
0
 40
0.108
 50
303.58384
 51
44.15357
  0
ARC
  5
12A
  8
_0-0_0
  6
CONTINUOUS
 62
7
 10
108.32222
 20
97.18447
 30
0
 40
0.108
 50
303.58384
 51
44.15357
  0
ARC
  5
12B
  8
_0-0_0
  6
CONTINUOUS
 62
7
 10
108.20687
 20
96.110647
 30
0
 40
0.108
 50
303.58384
 51
44.15357
  0
ARC
  5
12C
  8
_0-0_0
  6
CONTINUOUS
 62
7
 10
108.30395
 20
95.964442
 30
0
 40
0.0675
 50
123.58384
 51
224.15357
  0
ARC
  5
12D
  8
_0-0_0
  6
CONTINUOUS
 62
7
 10
108.2357
 20
96.379103
 30
0
 40
0.108
 50
303.58384
 51
44.15357
  0
ARC
  5
12E
  8
_0-0_0
  6
CONTINUOUS
 62
7
 10
108.33278
 20
96.232898
 30
0
 40
0.0675
 50
123.58384
 51
224.15357
  0
ARC
  5
12F
  8
_0-0_0
  6
CONTINUOUS
 62
7
 10
108.26454
 20
96.647559
 30
0
 40
0.108
 50
303.58384
 51
44.15357
  0
ARC
  5
130
  8
_0-0_0
  6
CONTINUOUS
 62
7
 10
108.36162
 20
96.501354
 30
0
 40
0.0675
 50
123.58384
 51
224.15357
  0
ARC
  5
131
  8
_0-0_0
  6
CONTINUOUS
 62
7
 10
108.29338
 20
96.916014
 30
0
 40
0.108
 50
303.58384
 51
44.15357
  0
ARC
  5
132
  8
_0-0_0
  6
CONTINUOUS
 62
7
 10
108.39046
 20
96.769809
 30
0
 40
0.0675
 50
123.58384
 51
224.15357
  0
ARC
  5
133
  8
_0-0_0
  6
CONTINUOUS
 62
7
 10
108.4193
 20
97.038265
 30
0
 40
0.0675
 50
123.58384
 51
224.15357
  0
ARC
  5
134
  8
_0-0_0
  6
CONTINUOUS
 62
7
 10
108.44814
 20
97.30672
 30
0
 40
0.0675
 50
123.58384
 51
224.15357
  0
ARC
  5
135
  8
_0-0_0
  6
CONTINUOUS
 62
7
 10
108.29217
 20
98.538914
 30
0
 40
0.155833
 50
354.13414
 51
48.749664
  0
ARC
  5
136
  8
_0-0_0
  6
CONTINUOUS
 62
7
 10
108.37512
 20
98.513699
 30
0
 40
0.200429
 50
359.21546
 51
86.212327000000016
  0
ARC
  5
137
  8
_0-0_0
  6
CONTINUOUS
 62
7
 10
108.47697
 20
97.575176
 30
0
 40
0.0675
 50
123.58384
 51
224.15357
  0
LINE
  5
138
  8
_0-0_0
  6
CONTINUOUS
 62
7
 10
108.21831
 20
98.724948
 30
0
 11
108.38836
 21
98.71369
 31
0
  0
ARC
  5
139
  8
_0-0_0
  6
CONTINUOUS
 62
7
 10
108.49454
 20
98.512063
 30
0
 40
0.081
 50
297.66653
 51
359.21546
  0
ARC
  5
13A
  8
_0-0_0
  6
CONTINUOUS
 62
7
 10
108.50581
 20
97.843631
 30
0
 40
0.0675
 50
123.58384
 51
224.15357
  0
ARC
  5
13B
  8
_0-0_0
  6
CONTINUOUS
 62
7
 10
108.37989
 20
97.721381
 30
0
 40
0.108
 50
303.58384
 51
44.15357
  0
ARC
  5
13C
  8
_0-0_0
  6
CONTINUOUS
 62
7
 10
108.40873
 20
97.989836
 30
0
 40
0.108
 50
303.58384
 51
44.15357
  0
ARC
  5
13D
  8
_0-0_0
  6
CONTINUOUS
 62
7
 10
108.43757
 20
98.258292
 30
0
 40
0.108
 50
303.58384
 51
44.15357
  0
ARC
  5
13E
  8
_0-0_0
  6
CONTINUOUS
 62
7
 10
108.53465
 20
98.112087
 30
0
 40
0.0675
 50
123.58384
 51
224.15357
  0
ARC
  5
13F
  8
_0-0_0
  6
CONTINUOUS
 62
7
 10
108.56349
 20
98.380542
 30
0
 40
0.0675
 50
117.66653000000001
 51
224.15357
  0
CIRCLE
  5
140
  8
_0-0_0
  6
CONTINUOUS
 62
7
 10
98.361741
 20
77.423087
 30
0
 40
0.81
  0
LINE
  5
141
  8
_0-0_0
  6
CONTINUOUS
 62
7
 10
98.361741
 20
77.423087
 30
0
 11
97.900452
 21
77.423087
 31
0
  0
LINE
  5
142
  8
_0-0_0
  6
CONTINUOUS
 62
7
 10
98.361741
 20
77.423087
 30
0
 11
98.361741
 21
78.157144
 31
0
  0
TEXT
  5
143
  8
_0-4_LAY-4
 62
7
 10
54.145606
 20
123.77684
 30
0
 40
4.5
  1
ワイヤレスリモコン
 41
0.969826
  7
STANDARD
  0
TEXT
  5
144
  8
_0-4_LAY-4
 62
7
 10
54.145606
 20
39.776845
 30
0
 40
4.5
  1
三菱　ＲＺ０４
 41
0.989333
  7
STANDARD
  0
INSERT
  5
153
  8
0
  2
SPECR04
 10
108.589814
 20
39.773873
 30
0
 41
1
 42
1
 43
1
 50
0
  0
ENDSEC
999
Created By CadLib version 4.0.36.7
999
CadLib website: www.woutware.com
  0
EOF
