  0
SECTION
  2
HEADER
  9
$ACADVER
  1
AC1009
  9
$DWGCODEPAGE
  3
dos932
  9
$INSBASE
 10
0
 20
0
 30
0
  9
$EXTMIN
 10
3.2031803330326705
 20
6.3517050957777332
 30
0
  9
$EXTMAX
 10
58.165195170308884
 20
96.2944056158339
 30
0
  9
$LIMMIN
 10
0
 20
0
  9
$LIMMAX
 10
297
 20
210
  9
$SNAPMODE
 70
0
  9
$SNAPUNIT
 10
1
 20
1
  9
$SNAPBASE
 10
0
 20
0
  9
$SNAPANG
 50
0
  9
$SNAPSTYLE
 70
0
  9
$SNAPISOPAIR
 70
0
  9
$ORTHOMODE
 70
0
  9
$REGENMODE
 70
1
  9
$FILLMODE
 70
1
  9
$QTEXTMODE
 70
0
  9
$MIRRTEXT
 70
1
  9
$LTSCALE
 40
1
  9
$OSMODE
 70
39
  9
$ATTMODE
 70
1
  9
$TEXTSIZE
 40
0.2
  9
$TRACEWID
 40
0.05
  9
$TEXTSTYLE
  7
STANDARD
  9
$CLAYER
  8
4
  9
$CELTYPE
  6
CONTINUOUS
  9
$CECOLOR
 62
1
  9
$DIMSCALE
 40
1
  9
$DIMASZ
 40
0.18
  9
$DIMEXO
 40
0.0625
  9
$DIMDLI
 40
0.38
  9
$DIMRND
 40
0
  9
$DIMDLE
 40
0
  9
$DIMEXE
 40
0.18
  9
$DIMTP
 40
0
  9
$DIMTM
 40
0
  9
$DIMTXT
 40
0.18
  9
$DIMCEN
 40
0.09
  9
$DIMTSZ
 40
0
  9
$DIMTOL
 70
0
  9
$DIMLIM
 70
0
  9
$DIMTIH
 70
1
  9
$DIMTOH
 70
1
  9
$DIMSE1
 70
0
  9
$DIMSE2
 70
0
  9
$DIMTAD
 70
0
  9
$DIMZIN
 70
0
  9
$DIMBLK
  1

  9
$DIMASO
 70
1
  9
$DIMSHO
 70
1
  9
$DIMPOST
  1

  9
$DIMAPOST
  1

  9
$DIMALT
 70
0
  9
$DIMALTD
 70
2
  9
$DIMALTF
 40
25.4
  9
$DIMLFAC
 40
1
  9
$DIMTOFL
 70
0
  9
$DIMTVP
 40
0
  9
$DIMTIX
 70
0
  9
$DIMSOXD
 70
0
  9
$DIMSAH
 70
0
  9
$DIMBLK1
  1

  9
$DIMBLK2
  1

  9
$DIMSTYLE
  2
STANDARD
  9
$DIMCLRD
 70
0
  9
$DIMCLRE
 70
0
  9
$DIMCLRT
 70
0
  9
$DIMTFAC
 40
1
  9
$DIMGAP
 40
0.09
  9
$LUNITS
 70
2
  9
$LUPREC
 70
4
  9
$SKETCHINC
 40
0.1
  9
$FILLETRAD
 40
0
  9
$AUNITS
 70
0
  9
$AUPREC
 70
0
  9
$MENU
  1
.
  9
$ELEVATION
 40
0
  9
$PELEVATION
 40
0
  9
$THICKNESS
 40
0
  9
$LIMCHECK
 70
0
  9
$CHAMFERA
 40
0
  9
$CHAMFERB
 40
0
  9
$SKPOLY
 70
0
  9
$TDCREATE
 40
2451253.733057199
  9
$TDUPDATE
 40
2454875.5597090162
  9
$TDINDWG
 40
0.043421087962962963
  9
$TDUSRTIMER
 40
0.043420289351851854
  9
$USRTIMER
 70
1
  9
$ANGBASE
 50
0
  9
$ANGDIR
 70
0
  9
$PDMODE
 70
0
  9
$PDSIZE
 40
0
  9
$PLINEWID
 40
0
  9
$SPLFRAME
 70
0
  9
$SPLINETYPE
 70
6
  9
$SPLINESEGS
 70
8
  9
$HANDLING
 70
1
  9
$HANDSEED
  5
9413
  9
$SURFTAB1
 70
6
  9
$SURFTAB2
 70
6
  9
$SURFTYPE
 70
6
  9
$SURFU
 70
6
  9
$SURFV
 70
6
  9
$UCSORG
 10
0
 20
0
 30
0
  9
$UCSXDIR
 10
1
 20
0
 30
0
  9
$UCSYDIR
 10
0
 20
1
 30
0
  9
$PUCSORG
 10
0
 20
0
 30
0
  9
$PUCSXDIR
 10
1
 20
0
 30
0
  9
$PUCSYDIR
 10
0
 20
1
 30
0
  9
$USERI1
 70
0
  9
$USERI2
 70
0
  9
$USERI3
 70
0
  9
$USERI4
 70
0
  9
$USERI5
 70
0
  9
$USERR1
 40
0
  9
$USERR2
 40
0
  9
$USERR3
 40
0
  9
$USERR4
 40
0
  9
$USERR5
 40
0
  9
$WORLDVIEW
 70
1
  9
$SHADEDGE
 70
3
  9
$SHADEDIF
 70
70
  9
$TILEMODE
 70
1
  9
$MAXACTVP
 70
64
  9
$PINSBASE
 10
0
 20
0
 30
0
  9
$PLIMCHECK
 70
0
  9
$PEXTMIN
 10
1E+20
 20
1E+20
 30
1E+20
  9
$PEXTMAX
 10
-1E+20
 20
-1E+20
 30
-1E+20
  9
$PLIMMAX
 10
12
 20
9
  9
$PLIMMIN
 10
0
 20
0
  9
$UNITMODE
 70
0
  9
$VISRETAIN
 70
1
  9
$PLINEGEN
 70
0
  9
$PSLTSCALE
 70
1
  9
$TREEDEPTH
 70
3020
  9
$DRAGMODE
 70
     2
  9
$BLIPMODE
 70
     0
  9
$COORDS
 70
     1
  9
$ATTDIA
 70
     0
  9
$ATTREQ
 70
     1
  0
ENDSEC
  0
SECTION
  2
TABLES
  0
TABLE
  2
VPORT
  5
9406
 70
1
  0
VPORT
  5
93DA
  2
*ACTIVE
 70
0
 10
0
 20
0
 11
1
 21
1
 12
148.5
 22
105
 13
0
 23
0
 14
1
 24
1
 15
0
 25
0
 16
0
 26
0
 36
1
 17
0
 27
0
 37
0
 40
211.58690176322421
 41
1.489281210592686
 42
50
 43
0
 44
0
 50
0
 51
0
 71
0
 72
100
 73
1
 74
1
 75
0
 76
0
 77
0
 78
0
  0
ENDTAB
  0
TABLE
  2
LTYPE
  5
9407
 70
7
  0
LTYPE
  5
93D2
  2
CONTINUOUS
  3
実線
 70
0
 72
65
 73
0
 40
0
  0
LTYPE
  5
93D3
  2
DASHED
  3
破線
 70
0
 72
65
 73
2
 40
3.8
 49
3
 49
-0.8
  0
LTYPE
  5
93D4
  2
DOT
  3
点線
 70
0
 72
65
 73
2
 40
2
 49
1
 49
-1
  0
LTYPE
  5
93D5
  2
DASHDOT
  3
一点鎖線
 70
0
 72
65
 73
4
 40
25.6
 49
20
 49
-2
 49
1.6
 49
-2
  0
LTYPE
  5
93D6
  2
DIVIDE
  3
二点鎖線
 70
0
 72
65
 73
6
 40
31.199999999999996
 49
20
 49
-2.399999999999999
 49
2
 49
-2.399999999999999
 49
2
 49
-2.399999999999999
  0
LTYPE
  5
93D7
  2
ByBlock
  3

 70
64
 72
65
 73
0
 40
0
  0
LTYPE
  5
93D8
  2
ByLayer
  3

 70
64
 72
65
 73
0
 40
0
  0
ENDTAB
  0
TABLE
  2
LAYER
  5
9408
 70
10
  0
LAYER
  5
93B5
 70
0
  2
0
 62
7
  6
CONTINUOUS
  0
LAYER
  5
93B6
 70
0
  2
4
 62
7
  6
CONTINUOUS
  0
LAYER
  5
93B7
 70
0
  2
LAY-4
 62
7
  6
CONTINUOUS
  0
LAYER
  5
93B8
 70
0
  2
LAY-1
 62
7
  6
CONTINUOUS
  0
LAYER
  5
93B9
 70
0
  2
LAY-2
 62
7
  6
CONTINUOUS
  0
LAYER
  5
93BA
 70
0
  2
LAY-3
 62
7
  6
CONTINUOUS
  0
LAYER
  5
93BB
 70
0
  2
2
 62
3
  6
CONTINUOUS
  0
LAYER
  5
93BC
 70
0
  2
3
 62
6
  6
CONTINUOUS
  0
LAYER
  5
93BD
 70
0
  2
20
 62
2
  6
CONTINUOUS
  0
LAYER
  5
93BE
 70
0
  2
SPEC
 62
7
  6
CONTINUOUS
  0
ENDTAB
  0
TABLE
  2
STYLE
  5
9409
 70
4
  0
STYLE
  5
93CE
  2
STANDARD
 70
0
 40
0
 41
1
 50
0
 71
0
 42
0.2
  3
txt.shx
  4
extfont2.shx
  0
STYLE
  5
93CF
  2
EXCADSTD
 70
0
 40
0
 41
1
 50
0
 71
0
 42
0.2
  3
monotxt
  4
bigfont
  0
STYLE
  5
93D0
  2
EXCADVERT
 70
4
 40
0
 41
1
 50
0
 71
0
 42
0.286885
  3
monotxt
  4
bigfont
  0
STYLE
  5
93D1
  2
STANDARD1
 70
0
 40
0
 41
1
 50
0
 71
0
 42
4
  3
MONOTXT
  4
BIGFONT
  0
ENDTAB
  0
TABLE
  2
APPID
  5
940C
 70
3
  0
APPID
  5
940D
  2
ACAD
 70
0
  0
APPID
  5
9410
  2
ACAD_EXEMPT_FROM_CAD_STANDARDS
 70
0
  0
APPID
  5
9411
  2
ACAD_MLEADERVER
 70
64
  0
ENDTAB
  0
TABLE
  2
DIMSTYLE
  5
940E
 70
1
  0
DIMSTYLE
105
93D9
  2
STANDARD
 70
0
  3

  4

  5

  6

  7

 40
1
 41
0.18
 42
0.0625
 43
0.38
 44
0.18
 45
0
 46
0
 47
0
 48
0
140
0.18
141
0.09
142
0
143
25.4
144
1
145
0
146
1
147
0.09
 71
0
 72
0
 73
1
 74
1
 75
0
 76
0
 77
0
 78
0
170
0
171
2
172
0
173
0
174
0
175
0
176
0
177
0
178
0
  0
ENDTAB
  0
ENDSEC
  0
SECTION
  2
BLOCKS
  0
BLOCK
  5
93C0
  8
0
  2
$MODEL_SPACE
 70
0
 10
0
 20
0
 30
0
  3
$MODEL_SPACE
  0
ENDBLK
  5
8C95
  8
0
  0
BLOCK
  5
93C2
  8
0
 67
1
  2
$PAPER_SPACE
 70
0
 10
0
 20
0
 30
0
  3
$PAPER_SPACE
  0
ENDBLK
  5
8C91
  8
0
  0
BLOCK
  5
93C4
  8
0
  2
SPECR09
 70
64
 10
0
 20
0
 30
0
  3
SPECR09
  0
ENDBLK
  5
93C5
  8
0
  0
BLOCK
  5
93C7
  8
0
  2
*MODEL_SPACE
 70
64
 10
0
 20
0
 30
0
  3
*MODEL_SPACE
  0
ENDBLK
  5
93CA
  8
0
  0
BLOCK
  5
93CC
  8
0
 67
1
  2
*PAPER_SPACE
 70
64
 10
0
 20
0
 30
0
  3
*PAPER_SPACE
  0
ENDBLK
  5
93CD
  8
0
  0
ENDSEC
  0
SECTION
  2
ENTITIES
  0
TEXT
  5
1477
  8
LAY-4
  6
CONTINUOUS
 62
7
 10
2.392812108684423
 20
91
 30
0
 40
4.5
  1
リモコン
 41
1.5
  7
EXCADSTD
  0
TEXT
  5
1478
  8
LAY-4
  6
CONTINUOUS
 62
7
 10
2.9999999999999929
 20
7
 30
0
 40
4.5
  1
三菱　ＲＺ０９
 41
1.4094875790688988
 72
5
 11
56.0000019073486
 21
7
 31
0
  7
EXCADSTD
  0
LINE
  5
1F10
  8
4
  6
CONTINUOUS
 10
57.939717259660732
 20
37.726951942299742
 30
0
 11
57.939717259660732
 21
51.987647405865182
 31
0
  0
LINE
  5
1F12
  8
4
  6
CONTINUOUS
 10
57.774360049354733
 20
72.476326588191142
 30
0
 11
57.7743421537851
 21
37.944204417369129
 31
0
  0
LINE
  5
1F13
  8
4
  6
CONTINUOUS
 10
57.770403882515062
 20
72.476326588191142
 30
0
 11
57.770403882515062
 21
37.945278129471092
 31
0
  0
LINE
  5
1F14
  8
4
  6
CONTINUOUS
 10
57.19723553609284
 20
37.9460337385766
 30
0
 11
57.19723553609284
 21
72.476326588191142
 31
0
  0
LINE
  5
1F15
  8
4
  6
CONTINUOUS
 10
56.484763974754777
 20
51.4439303755981
 30
0
 11
56.484763974754777
 21
37.945278129471092
 31
0
  0
LINE
  5
1F16
  8
4
  6
CONTINUOUS
 10
56.635858780007347
 20
72.476326588191142
 30
0
 11
56.635858780007347
 21
37.945278129471092
 31
0
  0
LINE
  5
1F17
  8
4
  6
CONTINUOUS
 10
44.694670544321518
 20
37.945278129471092
 30
0
 11
44.694670544321518
 21
51.44393037542946
 31
0
  0
LINE
  5
1F18
  8
4
  6
CONTINUOUS
 10
44.543575739069027
 20
37.945278129471092
 30
0
 11
44.543575739069027
 21
72.476326588191142
 31
0
  0
LINE
  5
1F19
  8
4
  6
CONTINUOUS
 10
43.982198982983313
 20
72.476326588191142
 30
0
 11
43.982198982983313
 21
37.94603186862912
 31
0
  0
LINE
  5
1F1B
  8
4
  6
CONTINUOUS
 10
43.405074469720752
 20
37.94196602636719
 30
0
 11
43.405074469720752
 21
72.476326588191142
 31
0
  0
LINE
  5
1F1D
  8
4
  6
CONTINUOUS
 10
43.239717259414682
 20
51.987655856444583
 30
0
 11
43.239717259414682
 21
37.726951946109658
 31
0
  0
ARC
  5
1F1E
  8
4
  6
CONTINUOUS
 10
50.589717259158277
 20
125.1925102536559
 30
0
 40
89.999999999639925
 50
266.75705731379782
 51
273.24294268620213
  0
ARC
  5
1F1F
  8
4
  6
CONTINUOUS
 10
50.589717320117529
 20
125.1925102567044
 30
0
 40
89.257518295884012
 50
266.90041506970152
 51
273.0995874646992
  0
ARC
  5
1F20
  8
4
  6
CONTINUOUS
 10
50.589717320117529
 20
125.1925102567044
 30
0
 40
89.8346427984779
 50
266.90180071550623
 51
273.1033975455066
  0
ARC
  5
1F23
  8
4
  6
CONTINUOUS
 10
50.589717259158277
 20
125.1925102536559
 30
0
 40
88.696141520747986
 50
266.90003495699767
 51
273.09996504030153
  0
ARC
  5
1F24
  8
4
  6
CONTINUOUS
 10
50.589717259158277
 20
125.1925102536559
 30
0
 40
88.545046715495928
 50
266.90003495680207
 51
273.09996504019722
  0
LINE
  5
1F36
  8
4
  6
CONTINUOUS
 10
50.205959513390049
 20
40.746852340158647
 30
0
 11
50.334558263390178
 21
40.746852340158647
 31
0
  0
LINE
  5
1F37
  8
4
  6
CONTINUOUS
 10
50.205959513390049
 20
40.73444891133974
 30
0
 11
50.334558263390178
 21
40.73444891133974
 31
0
  0
LINE
  5
1F38
  8
4
  6
CONTINUOUS
 10
50.205959513390049
 20
40.722045482520109
 30
0
 11
50.334558263390178
 21
40.722045482520109
 31
0
  0
LINE
  5
1F39
  8
4
  6
CONTINUOUS
 10
50.205959513390049
 20
40.709642053700527
 30
0
 11
50.334558263390178
 21
40.709642053700527
 31
0
  0
LINE
  5
1F3A
  8
4
  6
CONTINUOUS
 10
50.205959513390049
 20
40.697238624880917
 30
0
 11
50.334558263390178
 21
40.697238624880917
 31
0
  0
LINE
  5
1F3B
  8
4
  6
CONTINUOUS
 10
50.205959513390049
 20
40.684835196061989
 30
0
 11
50.334558263390178
 21
40.684835196061989
 31
0
  0
LINE
  5
1F3C
  8
4
  6
CONTINUOUS
 10
50.205959513390049
 20
40.6724317672424
 30
0
 11
50.334558263390178
 21
40.6724317672424
 31
0
  0
LINE
  5
1F3D
  8
4
  6
CONTINUOUS
 10
50.205959513390049
 20
40.660028338422777
 30
0
 11
50.334558263390178
 21
40.660028338422777
 31
0
  0
LINE
  5
1F3E
  8
4
  6
CONTINUOUS
 10
50.205959513390049
 20
40.647624909603181
 30
0
 11
50.334558263390178
 21
40.647624909603181
 31
0
  0
LINE
  5
1F3F
  8
4
  6
CONTINUOUS
 10
50.205959513390049
 20
40.635221480784111
 30
0
 11
50.334558263390178
 21
40.635221480784111
 31
0
  0
LINE
  5
1F40
  8
4
  6
CONTINUOUS
 10
50.205959513390049
 20
40.622818051964508
 30
0
 11
50.334558263390178
 21
40.622818051964508
 31
0
  0
LINE
  5
1F41
  8
4
  6
CONTINUOUS
 10
50.205959513390049
 20
40.610414623144912
 30
0
 11
50.334558263390178
 21
40.610414623144912
 31
0
  0
LINE
  5
1F42
  8
4
  6
CONTINUOUS
 10
50.205959513390049
 20
40.598011194325977
 30
0
 11
50.334558263390178
 21
40.598011194325977
 31
0
  0
LINE
  5
1F43
  8
4
  6
CONTINUOUS
 10
50.205959513390049
 20
40.585607765506367
 30
0
 11
50.334558263390178
 21
40.585607765506367
 31
0
  0
LINE
  5
1F44
  8
4
  6
CONTINUOUS
 10
50.205959513390049
 20
40.57320433668675
 30
0
 11
50.334558263390178
 21
40.57320433668675
 31
0
  0
LINE
  5
1F45
  8
4
  6
CONTINUOUS
 10
50.205959513390049
 20
40.56080090786714
 30
0
 11
50.334558263390178
 21
40.56080090786714
 31
0
  0
LINE
  5
1F46
  8
4
  6
CONTINUOUS
 10
50.205959513390049
 20
40.548397479048091
 30
0
 11
50.334558263390178
 21
40.548397479048091
 31
0
  0
LINE
  5
1F47
  8
4
  6
CONTINUOUS
 10
50.205959513390049
 20
40.535994050228489
 30
0
 11
50.334558263390178
 21
40.535994050228489
 31
0
  0
LINE
  5
1F48
  8
4
  6
CONTINUOUS
 10
50.205959513390049
 20
40.523590621408879
 30
0
 11
50.334558263390178
 21
40.523590621408879
 31
0
  0
LINE
  5
1F49
  8
4
  6
CONTINUOUS
 10
50.205959513390049
 20
40.511187192589269
 30
0
 11
50.334558263390178
 21
40.511187192589269
 31
0
  0
LINE
  5
1F4A
  8
4
  6
CONTINUOUS
 10
50.205959513390049
 20
40.498783763770327
 30
0
 11
50.334558263390178
 21
40.498783763770327
 31
0
  0
LINE
  5
1F4B
  8
4
  6
CONTINUOUS
 10
50.205959513390049
 20
40.486380334950717
 30
0
 11
50.334558263390178
 21
40.486380334950717
 31
0
  0
LINE
  5
1F4C
  8
4
  6
CONTINUOUS
 10
50.205959513390049
 20
40.473976906131128
 30
0
 11
50.334558263390178
 21
40.473976906131128
 31
0
  0
LINE
  5
1F4D
  8
4
  6
CONTINUOUS
 10
50.205959513390049
 20
40.461573477312072
 30
0
 11
50.3345582633901
 21
40.461573477312072
 31
0
  0
LINE
  5
1F4E
  8
4
  6
CONTINUOUS
 10
50.205959513390049
 20
40.4491700484926
 30
0
 11
50.3345582633901
 21
40.4491700484926
 31
0
  0
LINE
  5
1F4F
  8
4
  6
CONTINUOUS
 10
50.205959513390049
 20
40.436766619672987
 30
0
 11
50.3345582633901
 21
40.436766619672987
 31
0
  0
LINE
  5
1F50
  8
4
  6
CONTINUOUS
 10
50.205959513390049
 20
40.424363190853377
 30
0
 11
50.3345582633901
 21
40.424363190853377
 31
0
  0
LINE
  5
1F51
  8
4
  6
CONTINUOUS
 10
50.205959513390049
 20
40.411959762033767
 30
0
 11
50.3345582633901
 21
40.411959762033767
 31
0
  0
LINE
  5
1F52
  8
4
  6
CONTINUOUS
 10
50.205959513390049
 20
40.399556333214711
 30
0
 11
50.334558263390178
 21
40.399556333214711
 31
0
  0
LINE
  5
1F53
  8
4
  6
CONTINUOUS
 10
50.205959513390049
 20
40.387152904395109
 30
0
 11
50.3345582633901
 21
40.387152904395109
 31
0
  0
LINE
  5
1F54
  8
4
  6
CONTINUOUS
 10
50.205959513390049
 20
40.374749475575513
 30
0
 11
50.3345582633901
 21
40.374749475575513
 31
0
  0
LINE
  5
1F55
  8
4
  6
CONTINUOUS
 10
50.205959513390049
 20
40.3623460467559
 30
0
 11
50.3345582633901
 21
40.3623460467559
 31
0
  0
LINE
  5
1F56
  8
4
  6
CONTINUOUS
 10
50.205959513390049
 20
40.349942617936982
 30
0
 11
50.334558263390178
 21
40.349942617936982
 31
0
  0
LINE
  5
1F57
  8
4
  6
CONTINUOUS
 10
50.205959513390049
 20
40.337539189117351
 30
0
 11
50.3345582633901
 21
40.337539189117351
 31
0
  0
LINE
  5
1F58
  8
4
  6
CONTINUOUS
 10
50.205959513390049
 20
40.325135760297748
 30
0
 11
50.334558263390178
 21
40.325135760297748
 31
0
  0
LINE
  5
1F59
  8
4
  6
CONTINUOUS
 10
50.205959513390049
 20
40.312732331478131
 30
0
 11
50.3345582633901
 21
40.312732331478131
 31
0
  0
LINE
  5
1F5A
  8
4
  6
CONTINUOUS
 10
50.205959513390049
 20
40.300328902659089
 30
0
 11
50.3345582633901
 21
40.300328902659089
 31
0
  0
LINE
  5
1F5B
  8
4
  6
CONTINUOUS
 10
50.319432907546613
 20
40.101874041547973
 30
0
 11
50.654047870958962
 21
40.101874041547973
 31
0
  0
LINE
  5
1F5C
  8
4
  6
CONTINUOUS
 10
50.300869864498537
 20
40.114277470367583
 30
0
 11
50.669879678129021
 21
40.114277470367583
 31
0
  0
LINE
  5
1F5D
  8
4
  6
CONTINUOUS
 10
50.282306821450533
 20
40.126680899186489
 30
0
 11
50.685711485299059
 21
40.126680899186489
 31
0
  0
LINE
  5
1F5E
  8
4
  6
CONTINUOUS
 10
50.26650698388697
 20
40.139084328006113
 30
0
 11
50.701543292469111
 21
40.139084328006113
 31
0
  0
LINE
  5
1F5F
  8
4
  6
CONTINUOUS
 10
50.25821927771279
 20
40.151487756825688
 30
0
 11
50.713134338041748
 21
40.151487756825688
 31
0
  0
LINE
  5
1F60
  8
4
  6
CONTINUOUS
 10
50.249931571538717
 20
40.163891185645312
 30
0
 11
50.720632472157739
 21
40.163891185645312
 31
0
  0
LINE
  5
1F61
  8
4
  6
CONTINUOUS
 10
50.24164386536458
 20
40.176294614464382
 30
0
 11
50.728130606273908
 21
40.176294614464382
 31
0
  0
LINE
  5
1F62
  8
4
  6
CONTINUOUS
 10
50.233356159190521
 20
40.188698043283992
 30
0
 11
50.73562874038997
 21
40.188698043283992
 31
0
  0
LINE
  5
1F63
  8
4
  6
CONTINUOUS
 10
50.225068453016462
 20
40.2011014721036
 30
0
 11
50.743126874506068
 21
40.2011014721036
 31
0
  0
LINE
  5
1F64
  8
4
  6
CONTINUOUS
 10
50.22063905182506
 20
40.2135049009232
 30
0
 11
50.379389492210322
 21
40.2135049009232
 31
0
  0
LINE
  5
1F65
  8
4
  6
CONTINUOUS
 10
50.218171856435
 20
40.225908329742133
 30
0
 11
50.360826449162339
 21
40.225908329742133
 31
0
  0
LINE
  5
1F66
  8
4
  6
CONTINUOUS
 10
50.215704661044917
 20
40.238311758561721
 30
0
 11
50.35189790294406
 21
40.238311758561721
 31
0
  0
LINE
  5
1F67
  8
4
  6
CONTINUOUS
 10
50.213237465654771
 20
40.250715187381317
 30
0
 11
50.343610196769852
 21
40.250715187381317
 31
0
  0
LINE
  5
1F68
  8
4
  6
CONTINUOUS
 10
50.2107702702647
 20
40.263118616200387
 30
0
 11
50.339369020264712
 21
40.263118616200387
 31
0
  0
LINE
  5
1F69
  8
4
  6
CONTINUOUS
 10
50.208303074874571
 20
40.275522045019848
 30
0
 11
50.33690182487458
 21
40.275522045019848
 31
0
  0
LINE
  5
1F6A
  8
4
  6
CONTINUOUS
 10
50.205959513390049
 20
40.287925473839479
 30
0
 11
50.3345582633901
 21
40.287925473839479
 31
0
  0
TEXT
  5
1F6B
  8
4
  6
CONTINUOUS
 10
49.752986899749139
 20
39.030428243130267
 30
0
 40
0.59343727827072135
  1
RZ09
 41
0.682363638529116
 50
2.5044780655E-06
  7
STANDARD1
  0
ARC
  5
1F6C
  8
4
  6
CONTINUOUS
 10
50.420290763390021
 20
40.287303924223338
 30
0
 40
0.0857325000000174
 50
180
 51
270
  0
LINE
  5
1F6D
  8
4
  6
CONTINUOUS
 10
50.205959513390049
 20
40.758832674223363
 30
0
 11
50.334558263390178
 21
40.758832674223363
 31
0
  0
ARC
  5
1F6E
  8
4
  6
CONTINUOUS
 10
50.420290763390021
 20
40.287303924223338
 30
0
 40
0.214331250000009
 50
180
 51
270
  0
LINE
  5
1F6F
  8
4
  6
CONTINUOUS
 10
48.491309513390028
 20
40.072972674223372
 30
0
 11
48.61990826339013
 21
40.072972674223372
 31
0
  0
LINE
  5
1F70
  8
4
  6
CONTINUOUS
 10
48.555608888390019
 20
40.2658707992233
 30
0
 11
48.705640763389972
 21
40.758832674223363
 31
0
  0
LINE
  5
1F71
  8
4
  6
CONTINUOUS
 10
48.490889029877131
 20
40.0743542629087
 30
0
 11
48.620328746902928
 21
40.0743542629087
 31
0
  0
LINE
  5
1F72
  8
4
  6
CONTINUOUS
 10
48.487114073279862
 20
40.086757691728273
 30
0
 11
48.624103703500253
 21
40.086757691728273
 31
0
  0
LINE
  5
1F73
  8
4
  6
CONTINUOUS
 10
48.483339116682551
 20
40.09916112054789
 30
0
 11
48.6278786600975
 21
40.09916112054789
 31
0
  0
LINE
  5
1F74
  8
4
  6
CONTINUOUS
 10
48.479564160085353
 20
40.111564549367507
 30
0
 11
48.631653616694649
 21
40.111564549367507
 31
0
  0
LINE
  5
1F75
  8
4
  6
CONTINUOUS
 10
48.475789203488233
 20
40.123967978186577
 30
0
 11
48.635428573291932
 21
40.123967978186577
 31
0
  0
LINE
  5
1F76
  8
4
  6
CONTINUOUS
 10
48.472014246890957
 20
40.136371407006187
 30
0
 11
48.639203529889123
 21
40.136371407006187
 31
0
  0
LINE
  5
1F77
  8
4
  6
CONTINUOUS
 10
48.468239290293752
 20
40.14877483582579
 30
0
 11
48.642978486486321
 21
40.14877483582579
 31
0
  0
LINE
  5
1F78
  8
4
  6
CONTINUOUS
 10
48.464464333696469
 20
40.161178264645393
 30
0
 11
48.646753443083639
 21
40.161178264645393
 31
0
  0
LINE
  5
1F79
  8
4
  6
CONTINUOUS
 10
48.460689377099222
 20
40.173581693464861
 30
0
 11
48.650528399680788
 21
40.173581693464861
 31
0
  0
LINE
  5
1F7A
  8
4
  6
CONTINUOUS
 10
48.456914420502073
 20
40.185985122283917
 30
0
 11
48.654303356278007
 21
40.185985122283917
 31
0
  0
LINE
  5
1F7B
  8
4
  6
CONTINUOUS
 10
48.453139463904819
 20
40.198388551103527
 30
0
 11
48.658078312875219
 21
40.198388551103527
 31
0
  0
LINE
  5
1F7C
  8
4
  6
CONTINUOUS
 10
48.449364507307521
 20
40.210791979923151
 30
0
 11
48.661853269472431
 21
40.210791979923151
 31
0
  0
LINE
  5
1F7D
  8
4
  6
CONTINUOUS
 10
48.44558955071048
 20
40.223195408742072
 30
0
 11
48.665628226069693
 21
40.223195408742072
 31
0
  0
LINE
  5
1F7E
  8
4
  6
CONTINUOUS
 10
48.441814594113161
 20
40.235598837561668
 30
0
 11
48.66940318266689
 21
40.235598837561668
 31
0
  0
LINE
  5
1F7F
  8
4
  6
CONTINUOUS
 10
48.438039637515928
 20
40.248002266381278
 30
0
 11
48.673178139264081
 21
40.248002266381278
 31
0
  0
LINE
  5
1F80
  8
4
  6
CONTINUOUS
 10
48.434264680918723
 20
40.260405695200319
 30
0
 11
48.67695309586135
 21
40.260405695200319
 31
0
  0
LINE
  5
1F81
  8
4
  6
CONTINUOUS
 10
48.557720552458612
 20
40.27280912401995
 30
0
 11
48.680728052458562
 21
40.27280912401995
 31
0
  0
LINE
  5
1F82
  8
4
  6
CONTINUOUS
 10
48.56149550905581
 20
40.285212552839567
 30
0
 11
48.684503009055753
 21
40.285212552839567
 31
0
  0
LINE
  5
1F83
  8
4
  6
CONTINUOUS
 10
48.565270465652979
 20
40.297615981659142
 30
0
 11
48.688277965653029
 21
40.297615981659142
 31
0
  0
LINE
  5
1F84
  8
4
  6
CONTINUOUS
 10
48.56904542225034
 20
40.310019410478773
 30
0
 11
48.692052922250248
 21
40.310019410478773
 31
0
  0
LINE
  5
1F85
  8
4
  6
CONTINUOUS
 10
48.57282037884741
 20
40.32242283929768
 30
0
 11
48.695827878847439
 21
40.32242283929768
 31
0
  0
LINE
  5
1F86
  8
4
  6
CONTINUOUS
 10
48.576595335444743
 20
40.334826268117311
 30
0
 11
48.699602835444651
 21
40.334826268117311
 31
0
  0
LINE
  5
1F87
  8
4
  6
CONTINUOUS
 10
48.58037029204187
 20
40.347229696936907
 30
0
 11
48.703377792041913
 21
40.347229696936907
 31
0
  0
LINE
  5
1F88
  8
4
  6
CONTINUOUS
 10
48.5841452486391
 20
40.359633125755977
 30
0
 11
48.707152748639153
 21
40.359633125755977
 31
0
  0
LINE
  5
1F89
  8
4
  6
CONTINUOUS
 10
48.587920205236358
 20
40.372036554575587
 30
0
 11
48.71092770523633
 21
40.372036554575587
 31
0
  0
LINE
  5
1F8A
  8
4
  6
CONTINUOUS
 10
48.59169516183362
 20
40.384439983395183
 30
0
 11
48.714702661833513
 21
40.384439983395183
 31
0
  0
LINE
  5
1F8B
  8
4
  6
CONTINUOUS
 10
48.21267888839003
 20
40.758832674223363
 30
0
 11
48.405577013390037
 21
40.758832674223363
 31
0
  0
LINE
  5
1F8C
  8
4
  6
CONTINUOUS
 10
48.21267888839003
 20
40.072972674223372
 30
0
 11
48.341277638390032
 21
40.072972674223372
 31
0
  0
LINE
  5
1F8D
  8
4
  6
CONTINUOUS
 10
48.21267888839003
 20
40.758832674223363
 30
0
 11
48.21267888839003
 21
40.072972674223372
 31
0
  0
LINE
  5
1F8E
  8
4
  6
CONTINUOUS
 10
48.341277638390032
 20
40.565934549223329
 30
0
 11
48.341277638390032
 21
40.072972674223372
 31
0
  0
LINE
  5
1F8F
  8
4
  6
CONTINUOUS
 10
48.555608888390019
 20
40.2658707992233
 30
0
 11
48.405577013390037
 21
40.758832674223363
 31
0
  0
LINE
  5
1F90
  8
4
  6
CONTINUOUS
 10
48.491309513390028
 20
40.072972674223372
 30
0
 11
48.341277638390032
 21
40.565934549223329
 31
0
  0
LINE
  5
1F91
  8
4
  6
CONTINUOUS
 10
48.21267888839003
 20
40.756542847978359
 30
0
 11
48.406273917029822
 21
40.756542847978359
 31
0
  0
LINE
  5
1F92
  8
4
  6
CONTINUOUS
 10
48.21267888839003
 20
40.744139419158742
 30
0
 11
48.410048873627062
 21
40.744139419158742
 31
0
  0
LINE
  5
1F93
  8
4
  6
CONTINUOUS
 10
48.21267888839003
 20
40.731735990339672
 30
0
 11
48.413823830224231
 21
40.731735990339672
 31
0
  0
LINE
  5
1F94
  8
4
  6
CONTINUOUS
 10
48.21267888839003
 20
40.7193325615201
 30
0
 11
48.417598786821472
 21
40.7193325615201
 31
0
  0
LINE
  5
1F95
  8
4
  6
CONTINUOUS
 10
48.21267888839003
 20
40.706929132700459
 30
0
 11
48.421373743418677
 21
40.706929132700459
 31
0
  0
LINE
  5
1F96
  8
4
  6
CONTINUOUS
 10
48.21267888839003
 20
40.694525703881531
 30
0
 11
48.425148700015882
 21
40.694525703881531
 31
0
  0
LINE
  5
1F97
  8
4
  6
CONTINUOUS
 10
48.21267888839003
 20
40.682122275061928
 30
0
 11
48.428923656613172
 21
40.682122275061928
 31
0
  0
LINE
  5
1F98
  8
4
  6
CONTINUOUS
 10
48.21267888839003
 20
40.669718846242333
 30
0
 11
48.432698613210363
 21
40.669718846242333
 31
0
  0
LINE
  5
1F99
  8
4
  6
CONTINUOUS
 10
48.21267888839003
 20
40.657315417422708
 30
0
 11
48.436473569807639
 21
40.657315417422708
 31
0
  0
LINE
  5
1F9A
  8
4
  6
CONTINUOUS
 10
48.21267888839003
 20
40.0743542629087
 30
0
 11
48.341277638390032
 21
40.0743542629087
 31
0
  0
LINE
  5
1F9B
  8
4
  6
CONTINUOUS
 10
48.21267888839003
 20
40.086757691728273
 30
0
 11
48.341277638390032
 21
40.086757691728273
 31
0
  0
LINE
  5
1F9C
  8
4
  6
CONTINUOUS
 10
48.21267888839003
 20
40.09916112054789
 30
0
 11
48.341277638390032
 21
40.09916112054789
 31
0
  0
LINE
  5
1F9D
  8
4
  6
CONTINUOUS
 10
48.21267888839003
 20
40.111564549367507
 30
0
 11
48.341277638390032
 21
40.111564549367507
 31
0
  0
LINE
  5
1F9E
  8
4
  6
CONTINUOUS
 10
48.21267888839003
 20
40.123967978186577
 30
0
 11
48.341277638390032
 21
40.123967978186577
 31
0
  0
LINE
  5
1F9F
  8
4
  6
CONTINUOUS
 10
48.21267888839003
 20
40.136371407006187
 30
0
 11
48.341277638390032
 21
40.136371407006187
 31
0
  0
LINE
  5
1FA0
  8
4
  6
CONTINUOUS
 10
48.21267888839003
 20
40.14877483582579
 30
0
 11
48.341277638390032
 21
40.14877483582579
 31
0
  0
LINE
  5
1FA1
  8
4
  6
CONTINUOUS
 10
48.21267888839003
 20
40.161178264645393
 30
0
 11
48.341277638390032
 21
40.161178264645393
 31
0
  0
LINE
  5
1FA2
  8
4
  6
CONTINUOUS
 10
48.21267888839003
 20
40.173581693464861
 30
0
 11
48.341277638390032
 21
40.173581693464861
 31
0
  0
LINE
  5
1FA3
  8
4
  6
CONTINUOUS
 10
48.21267888839003
 20
40.185985122283917
 30
0
 11
48.341277638390032
 21
40.185985122283917
 31
0
  0
LINE
  5
1FA4
  8
4
  6
CONTINUOUS
 10
48.21267888839003
 20
40.198388551103527
 30
0
 11
48.341277638390032
 21
40.198388551103527
 31
0
  0
LINE
  5
1FA5
  8
4
  6
CONTINUOUS
 10
48.21267888839003
 20
40.210791979923151
 30
0
 11
48.341277638390032
 21
40.210791979923151
 31
0
  0
LINE
  5
1FA6
  8
4
  6
CONTINUOUS
 10
48.21267888839003
 20
40.223195408742072
 30
0
 11
48.341277638390032
 21
40.223195408742072
 31
0
  0
LINE
  5
1FA7
  8
4
  6
CONTINUOUS
 10
48.21267888839003
 20
40.235598837561668
 30
0
 11
48.341277638390032
 21
40.235598837561668
 31
0
  0
LINE
  5
1FA8
  8
4
  6
CONTINUOUS
 10
48.21267888839003
 20
40.248002266381278
 30
0
 11
48.341277638390032
 21
40.248002266381278
 31
0
  0
LINE
  5
1FA9
  8
4
  6
CONTINUOUS
 10
48.21267888839003
 20
40.260405695200319
 30
0
 11
48.341277638390032
 21
40.260405695200319
 31
0
  0
LINE
  5
1FAA
  8
4
  6
CONTINUOUS
 10
48.430489724321433
 20
40.27280912401995
 30
0
 11
48.553497224321482
 21
40.27280912401995
 31
0
  0
LINE
  5
1FAB
  8
4
  6
CONTINUOUS
 10
48.21267888839003
 20
40.27280912401995
 30
0
 11
48.341277638390032
 21
40.27280912401995
 31
0
  0
LINE
  5
1FAC
  8
4
  6
CONTINUOUS
 10
48.42671476772432
 20
40.285212552839567
 30
0
 11
48.549722267724221
 21
40.285212552839567
 31
0
  0
LINE
  5
1FAD
  8
4
  6
CONTINUOUS
 10
48.21267888839003
 20
40.285212552839567
 30
0
 11
48.341277638390032
 21
40.285212552839567
 31
0
  0
LINE
  5
1FAE
  8
4
  6
CONTINUOUS
 10
48.422939811127037
 20
40.297615981659142
 30
0
 11
48.545947311127151
 21
40.297615981659142
 31
0
  0
LINE
  5
1FAF
  8
4
  6
CONTINUOUS
 10
48.21267888839003
 20
40.297615981659142
 30
0
 11
48.341277638390032
 21
40.297615981659142
 31
0
  0
LINE
  5
1FB0
  8
4
  6
CONTINUOUS
 10
48.4191648545298
 20
40.310019410478773
 30
0
 11
48.542172354529882
 21
40.310019410478773
 31
0
  0
LINE
  5
1FB1
  8
4
  6
CONTINUOUS
 10
48.21267888839003
 20
40.310019410478773
 30
0
 11
48.341277638390032
 21
40.310019410478773
 31
0
  0
LINE
  5
1FB2
  8
4
  6
CONTINUOUS
 10
48.41538989793257
 20
40.32242283929768
 30
0
 11
48.538397397932613
 21
40.32242283929768
 31
0
  0
LINE
  5
1FB3
  8
4
  6
CONTINUOUS
 10
48.21267888839003
 20
40.32242283929768
 30
0
 11
48.341277638390032
 21
40.32242283929768
 31
0
  0
LINE
  5
1FB4
  8
4
  6
CONTINUOUS
 10
48.411614941335458
 20
40.334826268117311
 30
0
 11
48.534622441335351
 21
40.334826268117311
 31
0
  0
LINE
  5
1FB5
  8
4
  6
CONTINUOUS
 10
48.21267888839003
 20
40.334826268117311
 30
0
 11
48.341277638390032
 21
40.334826268117311
 31
0
  0
LINE
  5
1FB6
  8
4
  6
CONTINUOUS
 10
48.407839984738132
 20
40.347229696936907
 30
0
 11
48.53084748473816
 21
40.347229696936907
 31
0
  0
LINE
  5
1FB7
  8
4
  6
CONTINUOUS
 10
48.21267888839003
 20
40.347229696936907
 30
0
 11
48.341277638390032
 21
40.347229696936907
 31
0
  0
LINE
  5
1FB8
  8
4
  6
CONTINUOUS
 10
48.404065028140963
 20
40.359633125755977
 30
0
 11
48.527072528141019
 21
40.359633125755977
 31
0
  0
LINE
  5
1FB9
  8
4
  6
CONTINUOUS
 10
48.21267888839003
 20
40.359633125755977
 30
0
 11
48.341277638390032
 21
40.359633125755977
 31
0
  0
LINE
  5
1FBA
  8
4
  6
CONTINUOUS
 10
48.400290071543687
 20
40.372036554575587
 30
0
 11
48.5232975715437
 21
40.372036554575587
 31
0
  0
LINE
  5
1FBB
  8
4
  6
CONTINUOUS
 10
48.21267888839003
 20
40.372036554575587
 30
0
 11
48.341277638390032
 21
40.372036554575587
 31
0
  0
LINE
  5
1FBC
  8
4
  6
CONTINUOUS
 10
48.396515114946538
 20
40.384439983395183
 30
0
 11
48.519522614946439
 21
40.384439983395183
 31
0
  0
LINE
  5
1FBD
  8
4
  6
CONTINUOUS
 10
48.21267888839003
 20
40.384439983395183
 30
0
 11
48.341277638390032
 21
40.384439983395183
 31
0
  0
LINE
  5
1FBE
  8
4
  6
CONTINUOUS
 10
48.392740158349277
 20
40.396843412214793
 30
0
 11
48.515747658349248
 21
40.396843412214793
 31
0
  0
LINE
  5
1FBF
  8
4
  6
CONTINUOUS
 10
48.21267888839003
 20
40.396843412214793
 30
0
 11
48.341277638390032
 21
40.396843412214793
 31
0
  0
LINE
  5
1FC0
  8
4
  6
CONTINUOUS
 10
48.388965201752
 20
40.40924684103372
 30
0
 11
48.5119727017521
 21
40.40924684103372
 31
0
  0
LINE
  5
1FC1
  8
4
  6
CONTINUOUS
 10
48.21267888839003
 20
40.40924684103372
 30
0
 11
48.341277638390032
 21
40.40924684103372
 31
0
  0
LINE
  5
1FC2
  8
4
  6
CONTINUOUS
 10
48.385190245154789
 20
40.421650269853323
 30
0
 11
48.508197745154852
 21
40.421650269853323
 31
0
  0
LINE
  5
1FC3
  8
4
  6
CONTINUOUS
 10
48.21267888839003
 20
40.421650269853323
 30
0
 11
48.341277638390032
 21
40.421650269853323
 31
0
  0
LINE
  5
1FC4
  8
4
  6
CONTINUOUS
 10
48.381415288557683
 20
40.43405369867294
 30
0
 11
48.504422788557576
 21
40.43405369867294
 31
0
  0
LINE
  5
1FC5
  8
4
  6
CONTINUOUS
 10
48.21267888839003
 20
40.43405369867294
 30
0
 11
48.341277638390032
 21
40.43405369867294
 31
0
  0
LINE
  5
1FC6
  8
4
  6
CONTINUOUS
 10
48.3776403319604
 20
40.446457127492529
 30
0
 11
48.500647831960393
 21
40.446457127492529
 31
0
  0
LINE
  5
1FC7
  8
4
  6
CONTINUOUS
 10
48.21267888839003
 20
40.446457127492529
 30
0
 11
48.341277638390032
 21
40.446457127492529
 31
0
  0
LINE
  5
1FC8
  8
4
  6
CONTINUOUS
 10
48.373865375363117
 20
40.458860556312132
 30
0
 11
48.496872875363181
 21
40.458860556312132
 31
0
  0
LINE
  5
1FC9
  8
4
  6
CONTINUOUS
 10
48.21267888839003
 20
40.458860556312132
 30
0
 11
48.341277638390032
 21
40.458860556312132
 31
0
  0
LINE
  5
1FCA
  8
4
  6
CONTINUOUS
 10
48.370090418765912
 20
40.47126398513106
 30
0
 11
48.493097918765962
 21
40.47126398513106
 31
0
  0
LINE
  5
1FCB
  8
4
  6
CONTINUOUS
 10
48.21267888839003
 20
40.47126398513106
 30
0
 11
48.341277638390032
 21
40.47126398513106
 31
0
  0
LINE
  5
1FCC
  8
4
  6
CONTINUOUS
 10
48.366315462168679
 20
40.483667413950677
 30
0
 11
48.489322962168671
 21
40.483667413950677
 31
0
  0
LINE
  5
1FCD
  8
4
  6
CONTINUOUS
 10
48.21267888839003
 20
40.483667413950677
 30
0
 11
48.341277638390032
 21
40.483667413950677
 31
0
  0
LINE
  5
1FCE
  8
4
  6
CONTINUOUS
 10
48.362540505571559
 20
40.496070842770273
 30
0
 11
48.485548005571452
 21
40.496070842770273
 31
0
  0
LINE
  5
1FCF
  8
4
  6
CONTINUOUS
 10
48.21267888839003
 20
40.496070842770273
 30
0
 11
48.341277638390032
 21
40.496070842770273
 31
0
  0
LINE
  5
1FD0
  8
4
  6
CONTINUOUS
 10
48.35876554897424
 20
40.508474271589343
 30
0
 11
48.481773048974361
 21
40.508474271589343
 31
0
  0
LINE
  5
1FD1
  8
4
  6
CONTINUOUS
 10
48.21267888839003
 20
40.508474271589343
 30
0
 11
48.341277638390032
 21
40.508474271589343
 31
0
  0
LINE
  5
1FD2
  8
4
  6
CONTINUOUS
 10
48.354990592377042
 20
40.52087770040896
 30
0
 11
48.477998092377021
 21
40.52087770040896
 31
0
  0
LINE
  5
1FD3
  8
4
  6
CONTINUOUS
 10
48.21267888839003
 20
40.52087770040896
 30
0
 11
48.341277638390032
 21
40.52087770040896
 31
0
  0
LINE
  5
1FD4
  8
4
  6
CONTINUOUS
 10
48.351215635779909
 20
40.533281129228563
 30
0
 11
48.474223135779809
 21
40.533281129228563
 31
0
  0
LINE
  5
1FD5
  8
4
  6
CONTINUOUS
 10
48.21267888839003
 20
40.533281129228563
 30
0
 11
48.341277638390032
 21
40.533281129228563
 31
0
  0
LINE
  5
1FD6
  8
4
  6
CONTINUOUS
 10
48.347440679182647
 20
40.54568455804818
 30
0
 11
48.4704481791826
 21
40.54568455804818
 31
0
  0
LINE
  5
1FD7
  8
4
  6
CONTINUOUS
 10
48.21267888839003
 20
40.54568455804818
 30
0
 11
48.341277638390032
 21
40.54568455804818
 31
0
  0
LINE
  5
1FD8
  8
4
  6
CONTINUOUS
 10
48.343665722585378
 20
40.5580879868671
 30
0
 11
48.46667322258547
 21
40.5580879868671
 31
0
  0
LINE
  5
1FD9
  8
4
  6
CONTINUOUS
 10
48.21267888839003
 20
40.5580879868671
 30
0
 11
48.341277638390032
 21
40.5580879868671
 31
0
  0
LINE
  5
1FDA
  8
4
  6
CONTINUOUS
 10
48.21267888839003
 20
40.57049141568671
 30
0
 11
48.46289826598813
 21
40.57049141568671
 31
0
  0
LINE
  5
1FDB
  8
4
  6
CONTINUOUS
 10
48.21267888839003
 20
40.582894844506313
 30
0
 11
48.459123309390932
 21
40.582894844506313
 31
0
  0
LINE
  5
1FDC
  8
4
  6
CONTINUOUS
 10
48.21267888839003
 20
40.595298273325923
 30
0
 11
48.455348352793663
 21
40.595298273325923
 31
0
  0
LINE
  5
1FDD
  8
4
  6
CONTINUOUS
 10
48.21267888839003
 20
40.607701702144979
 30
0
 11
48.4515733961966
 21
40.607701702144979
 31
0
  0
LINE
  5
1FDE
  8
4
  6
CONTINUOUS
 10
48.21267888839003
 20
40.620105130964582
 30
0
 11
48.447798439599246
 21
40.620105130964582
 31
0
  0
LINE
  5
1FDF
  8
4
  6
CONTINUOUS
 10
48.21267888839003
 20
40.632508559784171
 30
0
 11
48.444023483002042
 21
40.632508559784171
 31
0
  0
LINE
  5
1FE0
  8
4
  6
CONTINUOUS
 10
48.21267888839003
 20
40.644911988603113
 30
0
 11
48.440248526404851
 21
40.644911988603113
 31
0
  0
LINE
  5
1FE1
  8
4
  6
CONTINUOUS
 10
49.606229990781721
 20
40.264676149747928
 30
0
 11
49.735039811018019
 21
40.264676149747928
 31
0
  0
LINE
  5
1FE2
  8
4
  6
CONTINUOUS
 10
49.609555175939029
 20
40.25227272092831
 30
0
 11
49.738938897703058
 21
40.25227272092831
 31
0
  0
LINE
  5
1FE3
  8
4
  6
CONTINUOUS
 10
49.612880361096529
 20
40.239869292108679
 30
0
 11
49.74283798438811
 21
40.239869292108679
 31
0
  0
LINE
  5
1FE4
  8
4
  6
CONTINUOUS
 10
49.616205546253923
 20
40.227465863289773
 30
0
 11
49.753819705723707
 21
40.227465863289773
 31
0
  0
LINE
  5
1FE5
  8
4
  6
CONTINUOUS
 10
49.619530731411452
 20
40.215062434470148
 30
0
 11
49.770177447543659
 21
40.215062434470148
 31
0
  0
LINE
  5
1FE6
  8
4
  6
CONTINUOUS
 10
49.622855916568973
 20
40.20265900565056
 30
0
 11
49.799070468802348
 21
40.20265900565056
 31
0
  0
LINE
  5
1FE7
  8
4
  6
CONTINUOUS
 10
49.626181101726381
 20
40.190255576830957
 30
0
 11
49.827963490061158
 21
40.190255576830957
 31
0
  0
LINE
  5
1FE8
  8
4
  6
CONTINUOUS
 10
49.804352665904219
 20
40.066221288636783
 30
0
 11
49.977595435414308
 21
40.066221288636783
 31
0
  0
LINE
  5
1FE9
  8
4
  6
CONTINUOUS
 10
49.763756056156332
 20
40.07862471745625
 30
0
 11
50.004834899207587
 21
40.07862471745625
 31
0
  0
LINE
  5
1FEA
  8
4
  6
CONTINUOUS
 10
49.72499261100711
 20
40.09102814627532
 30
0
 11
50.03207436300093
 21
40.09102814627532
 31
0
  0
ARC
  5
1FEB
  8
4
  6
CONTINUOUS
 10
49.948762013390073
 20
40.565934549223329
 30
0
 40
0.0642993749999958
 50
0
 51
53.130102354131942
  0
LINE
  5
1FEC
  8
4
  6
CONTINUOUS
 10
49.605832013390092
 20
40.758832674223363
 30
0
 11
49.605832013390092
 21
40.651667049223292
 31
0
  0
LINE
  5
1FED
  8
4
  6
CONTINUOUS
 10
49.43436701339003
 20
40.651667049223292
 30
0
 11
49.605832013390092
 21
40.651667049223292
 31
0
  0
ARC
  5
1FEE
  8
4
  6
CONTINUOUS
 10
49.820163263390072
 20
40.565934549223329
 30
0
 40
0.0642993749999826
 50
126.86989764586798
 51
258.06599892288671
  0
ARC
  5
1FEF
  8
4
  6
CONTINUOUS
 10
49.88446263839009
 20
40.480202049223372
 30
0
 40
0.17146500000004861
 50
53.130102354164492
 51
126.86989764583539
  0
LINE
  5
1FF0
  8
4
  6
CONTINUOUS
 10
50.0100835436752
 20
40.46007453069857
 30
0
 11
49.806867128295082
 21
40.503024912307367
 31
0
  0
ARC
  5
1FF1
  8
4
  6
CONTINUOUS
 10
49.970195138390032
 20
40.271345619949919
 30
0
 40
0.0642993749999664
 50
304.84990457910692
 51
78.065998922946676
  0
ARC
  5
1FF2
  8
4
  6
CONTINUOUS
 10
49.798730138390127
 20
40.271345619949919
 30
0
 40
0.19289812500000661
 50
181.62638309912961
 51
235.15009542094879
  0
ARC
  5
1FF3
  8
4
  6
CONTINUOUS
 10
49.798730138390127
 20
40.271345619949919
 30
0
 40
0.0642993749999886
 50
184.88440809697511
 51
235.1500954210122
  0
LINE
  5
1FF4
  8
4
  6
CONTINUOUS
 10
49.605909722026723
 20
40.2658707992233
 30
0
 11
49.73466426632541
 21
40.2658707992233
 31
0
  0
ARC
  5
1FF5
  8
4
  6
CONTINUOUS
 10
49.88446263839009
 20
40.3944695492233
 30
0
 40
0.21433124999999581
 50
235.1500954209566
 51
304.8499045790432
  0
LINE
  5
1FF6
  8
4
  6
CONTINUOUS
 10
49.9834912734851
 20
40.334255256866
 30
0
 11
49.780274858104889
 21
40.37720563847467
 31
0
  0
LINE
  5
1FF7
  8
4
  6
CONTINUOUS
 10
49.43436701339003
 20
40.651667049223292
 30
0
 11
49.43436701339003
 21
40.072972674223372
 31
0
  0
ARC
  5
1FF8
  8
4
  6
CONTINUOUS
 10
49.820163263390072
 20
40.565934549223329
 30
0
 40
0.192898125000015
 50
126.86989764582729
 51
258.06599892291831
  0
LINE
  5
1FF9
  8
4
  6
CONTINUOUS
 10
49.13430326339
 20
40.758832674223363
 30
0
 11
49.13430326339
 21
40.651667049223292
 31
0
  0
LINE
  5
1FFA
  8
4
  6
CONTINUOUS
 10
48.962838263390111
 20
40.758832674223363
 30
0
 11
49.091437013390042
 21
40.758832674223363
 31
0
  0
LINE
  5
1FFB
  8
4
  6
CONTINUOUS
 10
49.13430326339
 20
40.651667049223292
 30
0
 11
49.305768263390121
 21
40.651667049223292
 31
0
  0
LINE
  5
1FFC
  8
4
  6
CONTINUOUS
 10
48.705640763389972
 20
40.758832674223363
 30
0
 11
48.898538888390021
 21
40.758832674223363
 31
0
  0
LINE
  5
1FFD
  8
4
  6
CONTINUOUS
 10
48.962838263390111
 20
40.072972674223372
 30
0
 11
49.091437013390042
 21
40.072972674223372
 31
0
  0
LINE
  5
1FFE
  8
4
  6
CONTINUOUS
 10
48.898538888390021
 20
40.072972674223372
 30
0
 11
48.769940138390133
 21
40.072972674223372
 31
0
  0
LINE
  5
1FFF
  8
4
  6
CONTINUOUS
 10
48.898538888390021
 20
40.758832674223363
 30
0
 11
48.898538888390021
 21
40.072972674223372
 31
0
  0
LINE
  5
2000
  8
4
  6
CONTINUOUS
 10
48.769940138390133
 20
40.072972674223372
 30
0
 11
48.769940138390133
 21
40.565934549223329
 31
0
  0
LINE
  5
2001
  8
4
  6
CONTINUOUS
 10
48.61990826339013
 20
40.072972674223372
 30
0
 11
48.769940138390133
 21
40.565934549223329
 31
0
  0
LINE
  5
2002
  8
4
  6
CONTINUOUS
 10
48.962838263390111
 20
40.758832674223363
 30
0
 11
48.962838263390111
 21
40.072972674223372
 31
0
  0
LINE
  5
2003
  8
4
  6
CONTINUOUS
 10
49.091437013390042
 20
40.758832674223363
 30
0
 11
49.091437013390042
 21
40.072972674223372
 31
0
  0
LINE
  5
2004
  8
4
  6
CONTINUOUS
 10
49.305768263390121
 20
40.651667049223292
 30
0
 11
49.305768263390121
 21
40.072972674223372
 31
0
  0
LINE
  5
2005
  8
4
  6
CONTINUOUS
 10
49.13430326339
 20
40.758832674223363
 30
0
 11
49.605832013390092
 21
40.758832674223363
 31
0
  0
LINE
  5
2006
  8
4
  6
CONTINUOUS
 10
49.43436701339003
 20
40.072972674223372
 30
0
 11
49.305768263390121
 21
40.072972674223372
 31
0
  0
LINE
  5
2007
  8
4
  6
CONTINUOUS
 10
49.711100631478672
 20
40.7236030160671
 30
0
 11
50.058852331322463
 21
40.7236030160671
 31
0
  0
LINE
  5
2008
  8
4
  6
CONTINUOUS
 10
49.693660436159959
 20
40.711199587248188
 30
0
 11
50.072914210034682
 21
40.711199587248188
 31
0
  0
LINE
  5
2009
  8
4
  6
CONTINUOUS
 10
49.68236291237622
 20
40.698796158428557
 30
0
 11
50.084440633455422
 21
40.698796158428557
 31
0
  0
LINE
  5
200A
  8
4
  6
CONTINUOUS
 10
49.6732397005482
 20
40.686392729608961
 30
0
 11
50.095967056876063
 21
40.686392729608961
 31
0
  0
LINE
  5
200B
  8
4
  6
CONTINUOUS
 10
49.664116488720111
 20
40.673989300789358
 30
0
 11
50.1074934802968
 21
40.673989300789358
 31
0
  0
LINE
  5
200C
  8
4
  6
CONTINUOUS
 10
49.654993276892021
 20
40.66158587197031
 30
0
 11
50.114641655416918
 21
40.66158587197031
 31
0
  0
LINE
  5
200D
  8
4
  6
CONTINUOUS
 10
49.646381910804891
 20
40.649182443150693
 30
0
 11
50.119764901831239
 21
40.649182443150693
 31
0
  0
LINE
  5
200E
  8
4
  6
CONTINUOUS
 10
49.9449182668321
 20
40.636779014331061
 30
0
 11
50.124888148245681
 21
40.636779014331061
 31
0
  0
LINE
  5
200F
  8
4
  6
CONTINUOUS
 10
49.972034794302182
 20
40.624375585511473
 30
0
 11
50.13001139466013
 21
40.624375585511473
 31
0
  0
LINE
  5
2010
  8
4
  6
CONTINUOUS
 10
49.991849930160292
 20
40.611972156692531
 30
0
 11
50.135134641074572
 21
40.611972156692531
 31
0
  0
LINE
  5
2011
  8
4
  6
CONTINUOUS
 10
50.002201538554147
 20
40.599568727872949
 30
0
 11
50.138061491002468
 21
40.599568727872949
 31
0
  0
LINE
  5
2012
  8
4
  6
CONTINUOUS
 10
50.008049488216933
 20
40.587165299053332
 30
0
 11
50.139388580543873
 21
40.587165299053332
 31
0
  0
LINE
  5
2013
  8
4
  6
CONTINUOUS
 10
50.010977540572377
 20
40.574761870233743
 30
0
 11
50.140715670085243
 21
40.574761870233743
 31
0
  0
LINE
  5
2014
  8
4
  6
CONTINUOUS
 10
49.678868372198167
 20
40.438324153219959
 30
0
 11
50.063268781900618
 21
40.438324153219959
 31
0
  0
LINE
  5
2015
  8
4
  6
CONTINUOUS
 10
49.692106963024322
 20
40.425920724400363
 30
0
 11
50.08262796443784
 21
40.425920724400363
 31
0
  0
LINE
  5
2016
  8
4
  6
CONTINUOUS
 10
49.705345553850393
 20
40.4135172955813
 30
0
 11
50.095994775499292
 21
40.4135172955813
 31
0
  0
LINE
  5
2017
  8
4
  6
CONTINUOUS
 10
49.722079479590562
 20
40.401113866761669
 30
0
 11
50.109361586560809
 21
40.401113866761669
 31
0
  0
LINE
  5
2018
  8
4
  6
CONTINUOUS
 10
49.752270852467049
 20
40.38871043794208
 30
0
 11
50.122728397622382
 21
40.38871043794208
 31
0
  0
LINE
  5
2019
  8
4
  6
CONTINUOUS
 10
49.784526653522022
 20
40.376307009123138
 30
0
 11
50.129917964481137
 21
40.376307009123138
 31
0
  0
LINE
  5
201A
  8
4
  6
CONTINUOUS
 10
49.843212519600357
 20
40.363903580303521
 30
0
 11
50.136108629055933
 21
40.363903580303521
 31
0
  0
LINE
  5
201B
  8
4
  6
CONTINUOUS
 10
49.901898385678642
 20
40.351500151483947
 30
0
 11
50.142299293630678
 21
40.351500151483947
 31
0
  0
LINE
  5
201C
  8
4
  6
CONTINUOUS
 10
49.960584251756963
 20
40.339096722664337
 30
0
 11
50.148489958205431
 21
40.339096722664337
 31
0
  0
LINE
  5
201D
  8
4
  6
CONTINUOUS
 10
50.001275633534817
 20
40.326693293845267
 30
0
 11
50.154680622780091
 21
40.326693293845267
 31
0
  0
LINE
  5
201E
  8
4
  6
CONTINUOUS
 10
50.016469352761959
 20
40.314289865025671
 30
0
 11
50.1565494123555
 21
40.314289865025671
 31
0
  0
LINE
  5
201F
  8
4
  6
CONTINUOUS
 10
50.0258318492532
 20
40.3018864362062
 30
0
 11
50.157832819390052
 21
40.3018864362062
 31
0
  0
LINE
  5
2020
  8
4
  6
CONTINUOUS
 10
50.0309845621924
 20
40.289483007386593
 30
0
 11
50.15911622642458
 21
40.289483007386593
 31
0
  0
LINE
  5
2021
  8
4
  6
CONTINUOUS
 10
50.033256886952692
 20
40.27707957856753
 30
0
 11
50.160399633459207
 21
40.27707957856753
 31
0
  0
LINE
  5
2022
  8
4
  6
CONTINUOUS
 10
50.03333408724211
 20
40.264676149747928
 30
0
 11
50.161683040493621
 21
40.264676149747928
 31
0
  0
LINE
  5
2023
  8
4
  6
CONTINUOUS
 10
50.030526647002517
 20
40.25227272092831
 30
0
 11
50.1614033062696
 21
40.25227272092831
 31
0
  0
LINE
  5
2024
  8
4
  6
CONTINUOUS
 10
50.02555405647356
 20
40.239869292108679
 30
0
 11
50.158147190700817
 21
40.239869292108679
 31
0
  0
LINE
  5
2025
  8
4
  6
CONTINUOUS
 10
50.015534961449049
 20
40.227465863289773
 30
0
 11
50.15489107513207
 21
40.227465863289773
 31
0
  0
LINE
  5
2026
  8
4
  6
CONTINUOUS
 10
49.998747829236542
 20
40.215062434470148
 30
0
 11
50.151634959563339
 21
40.215062434470148
 31
0
  0
LINE
  5
2027
  8
4
  6
CONTINUOUS
 10
49.969854807977782
 20
40.20265900565056
 30
0
 11
50.148378843994607
 21
40.20265900565056
 31
0
  0
LINE
  5
2028
  8
4
  6
CONTINUOUS
 10
49.940961786719022
 20
40.190255576830957
 30
0
 11
50.145122728425832
 21
40.190255576830957
 31
0
  0
LINE
  5
2029
  8
4
  6
CONTINUOUS
 10
49.630619678196652
 20
40.177852148011887
 30
0
 11
50.136548987197742
 21
40.177852148011887
 31
0
  0
LINE
  5
202A
  8
4
  6
CONTINUOUS
 10
49.6416976187135
 20
40.165448719192277
 30
0
 11
50.12775843216491
 21
40.165448719192277
 31
0
  0
LINE
  5
202B
  8
4
  6
CONTINUOUS
 10
49.704434126140342
 20
40.103431575094938
 30
0
 11
50.059313826794281
 21
40.103431575094938
 31
0
  0
LINE
  5
202C
  8
4
  6
CONTINUOUS
 10
49.686009380780888
 20
40.11583500391454
 30
0
 11
50.083796142765962
 21
40.11583500391454
 31
0
  0
LINE
  5
202D
  8
4
  6
CONTINUOUS
 10
49.674931440264032
 20
40.128238432734143
 30
0
 11
50.0987851598137
 21
40.128238432734143
 31
0
  0
LINE
  5
202E
  8
4
  6
CONTINUOUS
 10
49.663853499747141
 20
40.140641861553078
 30
0
 11
50.110177322099318
 21
40.140641861553078
 31
0
  0
LINE
  5
202F
  8
4
  6
CONTINUOUS
 10
49.652775559230463
 20
40.153045290372681
 30
0
 11
50.1189678771321
 21
40.153045290372681
 31
0
  0
LINE
  5
2030
  8
4
  6
CONTINUOUS
 10
50.013061388390092
 20
40.565934549223329
 30
0
 11
50.141660138390122
 21
40.565934549223329
 31
0
  0
ARC
  5
2031
  8
4
  6
CONTINUOUS
 10
49.88446263839009
 20
40.480202049223372
 30
0
 40
0.30006375000001317
 50
53.130102354150289
 51
126.86989764584972
  0
ARC
  5
2032
  8
4
  6
CONTINUOUS
 10
49.88446263839009
 20
40.3944695492233
 30
0
 40
0.34293000000000062
 50
235.15009542095467
 51
304.84990457904524
  0
ARC
  5
2033
  8
4
  6
CONTINUOUS
 10
49.970195138390032
 20
40.271345619949919
 30
0
 40
0.19289812499997119
 50
304.84990457906707
 51
78.065998922918425
  0
ARC
  5
2034
  8
4
  6
CONTINUOUS
 10
49.948762013390073
 20
40.565934549223329
 30
0
 40
0.192898124999988
 50
0
 51
53.130102354172671
  0
LINE
  5
2035
  8
4
  6
CONTINUOUS
 10
50.205959513390049
 20
40.758832674223363
 30
0
 11
50.205959513390049
 21
40.287303924223338
 31
0
  0
LINE
  5
2036
  8
4
  6
CONTINUOUS
 10
49.13430326339
 20
40.748624868337288
 30
0
 11
49.605832013390092
 21
40.748624868337288
 31
0
  0
LINE
  5
2037
  8
4
  6
CONTINUOUS
 10
49.13430326339
 20
40.736221439517692
 30
0
 11
49.605832013390092
 21
40.736221439517692
 31
0
  0
LINE
  5
2038
  8
4
  6
CONTINUOUS
 10
49.13430326339
 20
40.723818010698082
 30
0
 11
49.605832013390092
 21
40.723818010698082
 31
0
  0
LINE
  5
2039
  8
4
  6
CONTINUOUS
 10
49.13430326339
 20
40.711414581878593
 30
0
 11
49.605832013390092
 21
40.711414581878593
 31
0
  0
LINE
  5
203A
  8
4
  6
CONTINUOUS
 10
49.305768263390121
 20
40.078839712087373
 30
0
 11
49.43436701339003
 21
40.078839712087373
 31
0
  0
LINE
  5
203B
  8
4
  6
CONTINUOUS
 10
49.305768263390121
 20
40.091243140906293
 30
0
 11
49.43436701339003
 21
40.091243140906293
 31
0
  0
LINE
  5
203C
  8
4
  6
CONTINUOUS
 10
49.305768263390121
 20
40.1036465697259
 30
0
 11
49.43436701339003
 21
40.1036465697259
 31
0
  0
LINE
  5
203D
  8
4
  6
CONTINUOUS
 10
49.305768263390121
 20
40.116049998544959
 30
0
 11
49.43436701339003
 21
40.116049998544959
 31
0
  0
LINE
  5
203E
  8
4
  6
CONTINUOUS
 10
49.305768263390121
 20
40.128453427364569
 30
0
 11
49.43436701339003
 21
40.128453427364569
 31
0
  0
LINE
  5
203F
  8
4
  6
CONTINUOUS
 10
49.305768263390121
 20
40.140856856184172
 30
0
 11
49.43436701339003
 21
40.140856856184172
 31
0
  0
LINE
  5
2040
  8
4
  6
CONTINUOUS
 10
49.305768263390121
 20
40.153260285003782
 30
0
 11
49.43436701339003
 21
40.153260285003782
 31
0
  0
LINE
  5
2041
  8
4
  6
CONTINUOUS
 10
49.305768263390121
 20
40.165663713823392
 30
0
 11
49.43436701339003
 21
40.165663713823392
 31
0
  0
LINE
  5
2042
  8
4
  6
CONTINUOUS
 10
49.305768263390121
 20
40.178067142642313
 30
0
 11
49.43436701339003
 21
40.178067142642313
 31
0
  0
LINE
  5
2043
  8
4
  6
CONTINUOUS
 10
49.305768263390121
 20
40.19047057146193
 30
0
 11
49.43436701339003
 21
40.19047057146193
 31
0
  0
LINE
  5
2044
  8
4
  6
CONTINUOUS
 10
49.305768263390121
 20
40.202874000281533
 30
0
 11
49.43436701339003
 21
40.202874000281533
 31
0
  0
LINE
  5
2045
  8
4
  6
CONTINUOUS
 10
49.305768263390121
 20
40.215277429101128
 30
0
 11
49.43436701339003
 21
40.215277429101128
 31
0
  0
LINE
  5
2046
  8
4
  6
CONTINUOUS
 10
49.305768263390121
 20
40.227680857920731
 30
0
 11
49.43436701339003
 21
40.227680857920731
 31
0
  0
LINE
  5
2047
  8
4
  6
CONTINUOUS
 10
49.305768263390121
 20
40.240084286739652
 30
0
 11
49.43436701339003
 21
40.240084286739652
 31
0
  0
LINE
  5
2048
  8
4
  6
CONTINUOUS
 10
49.305768263390121
 20
40.252487715559269
 30
0
 11
49.43436701339003
 21
40.252487715559269
 31
0
  0
LINE
  5
2049
  8
4
  6
CONTINUOUS
 10
49.305768263390121
 20
40.264891144378893
 30
0
 11
49.43436701339003
 21
40.264891144378893
 31
0
  0
LINE
  5
204A
  8
4
  6
CONTINUOUS
 10
49.305768263390121
 20
40.277294573197949
 30
0
 11
49.43436701339003
 21
40.277294573197949
 31
0
  0
LINE
  5
204B
  8
4
  6
CONTINUOUS
 10
49.305768263390121
 20
40.289698002017559
 30
0
 11
49.43436701339003
 21
40.289698002017559
 31
0
  0
LINE
  5
204C
  8
4
  6
CONTINUOUS
 10
49.305768263390121
 20
40.302101430837141
 30
0
 11
49.43436701339003
 21
40.302101430837141
 31
0
  0
LINE
  5
204D
  8
4
  6
CONTINUOUS
 10
49.305768263390121
 20
40.314504859656772
 30
0
 11
49.43436701339003
 21
40.314504859656772
 31
0
  0
LINE
  5
204E
  8
4
  6
CONTINUOUS
 10
49.305768263390121
 20
40.326908288475678
 30
0
 11
49.43436701339003
 21
40.326908288475678
 31
0
  0
LINE
  5
204F
  8
4
  6
CONTINUOUS
 10
49.305768263390121
 20
40.3393117172953
 30
0
 11
49.43436701339003
 21
40.3393117172953
 31
0
  0
LINE
  5
2050
  8
4
  6
CONTINUOUS
 10
49.305768263390121
 20
40.3517151461149
 30
0
 11
49.43436701339003
 21
40.3517151461149
 31
0
  0
LINE
  5
2051
  8
4
  6
CONTINUOUS
 10
49.305768263390121
 20
40.364118574934487
 30
0
 11
49.43436701339003
 21
40.364118574934487
 31
0
  0
LINE
  5
2052
  8
4
  6
CONTINUOUS
 10
49.305768263390121
 20
40.376522003753571
 30
0
 11
49.43436701339003
 21
40.376522003753571
 31
0
  0
LINE
  5
2053
  8
4
  6
CONTINUOUS
 10
49.305768263390121
 20
40.388925432573181
 30
0
 11
49.43436701339003
 21
40.388925432573181
 31
0
  0
LINE
  5
2054
  8
4
  6
CONTINUOUS
 10
49.305768263390121
 20
40.401328861392791
 30
0
 11
49.43436701339003
 21
40.401328861392791
 31
0
  0
LINE
  5
2055
  8
4
  6
CONTINUOUS
 10
49.305768263390121
 20
40.413732290211712
 30
0
 11
49.43436701339003
 21
40.413732290211712
 31
0
  0
LINE
  5
2056
  8
4
  6
CONTINUOUS
 10
49.305768263390121
 20
40.426135719031322
 30
0
 11
49.43436701339003
 21
40.426135719031322
 31
0
  0
LINE
  5
2057
  8
4
  6
CONTINUOUS
 10
49.305768263390121
 20
40.438539147850918
 30
0
 11
49.43436701339003
 21
40.438539147850918
 31
0
  0
LINE
  5
2058
  8
4
  6
CONTINUOUS
 10
49.305768263390121
 20
40.450942576670549
 30
0
 11
49.43436701339003
 21
40.450942576670549
 31
0
  0
LINE
  5
2059
  8
4
  6
CONTINUOUS
 10
49.305768263390121
 20
40.463346005490131
 30
0
 11
49.43436701339003
 21
40.463346005490131
 31
0
  0
LINE
  5
205A
  8
4
  6
CONTINUOUS
 10
49.305768263390121
 20
40.4757494343092
 30
0
 11
49.43436701339003
 21
40.4757494343092
 31
0
  0
LINE
  5
205B
  8
4
  6
CONTINUOUS
 10
49.305768263390121
 20
40.488152863128647
 30
0
 11
49.43436701339003
 21
40.488152863128647
 31
0
  0
LINE
  5
205C
  8
4
  6
CONTINUOUS
 10
49.305768263390121
 20
40.500556291948293
 30
0
 11
49.43436701339003
 21
40.500556291948293
 31
0
  0
LINE
  5
205D
  8
4
  6
CONTINUOUS
 10
49.305768263390121
 20
40.512959720767348
 30
0
 11
49.43436701339003
 21
40.512959720767348
 31
0
  0
LINE
  5
205E
  8
4
  6
CONTINUOUS
 10
49.305768263390121
 20
40.525363149586951
 30
0
 11
49.43436701339003
 21
40.525363149586951
 31
0
  0
LINE
  5
205F
  8
4
  6
CONTINUOUS
 10
49.305768263390121
 20
40.537766578406561
 30
0
 11
49.43436701339003
 21
40.537766578406561
 31
0
  0
LINE
  5
2060
  8
4
  6
CONTINUOUS
 10
49.305768263390121
 20
40.550170007226157
 30
0
 11
49.43436701339003
 21
40.550170007226157
 31
0
  0
LINE
  5
2061
  8
4
  6
CONTINUOUS
 10
49.305768263390121
 20
40.562573436045092
 30
0
 11
49.43436701339003
 21
40.562573436045092
 31
0
  0
LINE
  5
2062
  8
4
  6
CONTINUOUS
 10
49.305768263390121
 20
40.5749768648647
 30
0
 11
49.43436701339003
 21
40.5749768648647
 31
0
  0
LINE
  5
2063
  8
4
  6
CONTINUOUS
 10
49.305768263390121
 20
40.5873802936843
 30
0
 11
49.43436701339003
 21
40.5873802936843
 31
0
  0
LINE
  5
2064
  8
4
  6
CONTINUOUS
 10
49.305768263390121
 20
40.5997837225039
 30
0
 11
49.43436701339003
 21
40.5997837225039
 31
0
  0
LINE
  5
2065
  8
4
  6
CONTINUOUS
 10
49.305768263390121
 20
40.612187151323518
 30
0
 11
49.43436701339003
 21
40.612187151323518
 31
0
  0
LINE
  5
2066
  8
4
  6
CONTINUOUS
 10
49.305768263390121
 20
40.624590580142574
 30
0
 11
49.43436701339003
 21
40.624590580142574
 31
0
  0
LINE
  5
2067
  8
4
  6
CONTINUOUS
 10
49.305768263390121
 20
40.636994008962191
 30
0
 11
49.43436701339003
 21
40.636994008962191
 31
0
  0
LINE
  5
2068
  8
4
  6
CONTINUOUS
 10
49.305768263390121
 20
40.649397437781772
 30
0
 11
49.43436701339003
 21
40.649397437781772
 31
0
  0
LINE
  5
2069
  8
4
  6
CONTINUOUS
 10
49.13430326339
 20
40.661800866600721
 30
0
 11
49.605832013390092
 21
40.661800866600721
 31
0
  0
LINE
  5
206A
  8
4
  6
CONTINUOUS
 10
49.13430326339
 20
40.674204295420317
 30
0
 11
49.605832013390092
 21
40.674204295420317
 31
0
  0
LINE
  5
206B
  8
4
  6
CONTINUOUS
 10
49.13430326339
 20
40.686607724239927
 30
0
 11
49.605832013390092
 21
40.686607724239927
 31
0
  0
LINE
  5
206C
  8
4
  6
CONTINUOUS
 10
49.13430326339
 20
40.699011153059523
 30
0
 11
49.605832013390092
 21
40.699011153059523
 31
0
  0
LINE
  5
206D
  8
4
  6
CONTINUOUS
 10
48.704943859750273
 20
40.756542847978359
 30
0
 11
48.898538888390021
 21
40.756542847978359
 31
0
  0
LINE
  5
206E
  8
4
  6
CONTINUOUS
 10
48.701168903153
 20
40.744139419158742
 30
0
 11
48.898538888390021
 21
40.744139419158742
 31
0
  0
LINE
  5
206F
  8
4
  6
CONTINUOUS
 10
48.697393946555721
 20
40.731735990339672
 30
0
 11
48.898538888390021
 21
40.731735990339672
 31
0
  0
LINE
  5
2070
  8
4
  6
CONTINUOUS
 10
48.693618989958551
 20
40.7193325615201
 30
0
 11
48.898538888390021
 21
40.7193325615201
 31
0
  0
LINE
  5
2071
  8
4
  6
CONTINUOUS
 10
48.689844033361389
 20
40.706929132700459
 30
0
 11
48.898538888390021
 21
40.706929132700459
 31
0
  0
LINE
  5
2072
  8
4
  6
CONTINUOUS
 10
48.68606907676412
 20
40.694525703881531
 30
0
 11
48.898538888390021
 21
40.694525703881531
 31
0
  0
LINE
  5
2073
  8
4
  6
CONTINUOUS
 10
48.6822941201669
 20
40.682122275061928
 30
0
 11
48.898538888390021
 21
40.682122275061928
 31
0
  0
LINE
  5
2074
  8
4
  6
CONTINUOUS
 10
48.678519163569653
 20
40.669718846242333
 30
0
 11
48.898538888390021
 21
40.669718846242333
 31
0
  0
LINE
  5
2075
  8
4
  6
CONTINUOUS
 10
48.674744206972527
 20
40.657315417422708
 30
0
 11
48.898538888390021
 21
40.657315417422708
 31
0
  0
LINE
  5
2076
  8
4
  6
CONTINUOUS
 10
48.769940138390133
 20
40.0743542629087
 30
0
 11
48.898538888390021
 21
40.0743542629087
 31
0
  0
LINE
  5
2077
  8
4
  6
CONTINUOUS
 10
48.769940138390133
 20
40.086757691728273
 30
0
 11
48.898538888390021
 21
40.086757691728273
 31
0
  0
LINE
  5
2078
  8
4
  6
CONTINUOUS
 10
48.769940138390133
 20
40.09916112054789
 30
0
 11
48.898538888390021
 21
40.09916112054789
 31
0
  0
LINE
  5
2079
  8
4
  6
CONTINUOUS
 10
48.769940138390133
 20
40.111564549367507
 30
0
 11
48.898538888390021
 21
40.111564549367507
 31
0
  0
LINE
  5
207A
  8
4
  6
CONTINUOUS
 10
48.769940138390133
 20
40.123967978186577
 30
0
 11
48.898538888390021
 21
40.123967978186577
 31
0
  0
LINE
  5
207B
  8
4
  6
CONTINUOUS
 10
48.769940138390133
 20
40.136371407006187
 30
0
 11
48.898538888390021
 21
40.136371407006187
 31
0
  0
LINE
  5
207C
  8
4
  6
CONTINUOUS
 10
48.769940138390133
 20
40.14877483582579
 30
0
 11
48.898538888390021
 21
40.14877483582579
 31
0
  0
LINE
  5
207D
  8
4
  6
CONTINUOUS
 10
48.769940138390133
 20
40.161178264645393
 30
0
 11
48.898538888390021
 21
40.161178264645393
 31
0
  0
LINE
  5
207E
  8
4
  6
CONTINUOUS
 10
48.769940138390133
 20
40.173581693464861
 30
0
 11
48.898538888390021
 21
40.173581693464861
 31
0
  0
LINE
  5
207F
  8
4
  6
CONTINUOUS
 10
48.769940138390133
 20
40.185985122283917
 30
0
 11
48.898538888390021
 21
40.185985122283917
 31
0
  0
LINE
  5
2080
  8
4
  6
CONTINUOUS
 10
48.769940138390133
 20
40.198388551103527
 30
0
 11
48.898538888390021
 21
40.198388551103527
 31
0
  0
LINE
  5
2081
  8
4
  6
CONTINUOUS
 10
48.769940138390133
 20
40.210791979923151
 30
0
 11
48.898538888390021
 21
40.210791979923151
 31
0
  0
LINE
  5
2082
  8
4
  6
CONTINUOUS
 10
48.769940138390133
 20
40.223195408742072
 30
0
 11
48.898538888390021
 21
40.223195408742072
 31
0
  0
LINE
  5
2083
  8
4
  6
CONTINUOUS
 10
48.769940138390133
 20
40.235598837561668
 30
0
 11
48.898538888390021
 21
40.235598837561668
 31
0
  0
LINE
  5
2084
  8
4
  6
CONTINUOUS
 10
48.769940138390133
 20
40.248002266381278
 30
0
 11
48.898538888390021
 21
40.248002266381278
 31
0
  0
LINE
  5
2085
  8
4
  6
CONTINUOUS
 10
48.769940138390133
 20
40.260405695200319
 30
0
 11
48.898538888390021
 21
40.260405695200319
 31
0
  0
LINE
  5
2086
  8
4
  6
CONTINUOUS
 10
48.769940138390133
 20
40.27280912401995
 30
0
 11
48.898538888390021
 21
40.27280912401995
 31
0
  0
LINE
  5
2087
  8
4
  6
CONTINUOUS
 10
48.769940138390133
 20
40.285212552839567
 30
0
 11
48.898538888390021
 21
40.285212552839567
 31
0
  0
LINE
  5
2088
  8
4
  6
CONTINUOUS
 10
48.769940138390133
 20
40.297615981659142
 30
0
 11
48.898538888390021
 21
40.297615981659142
 31
0
  0
LINE
  5
2089
  8
4
  6
CONTINUOUS
 10
48.769940138390133
 20
40.310019410478773
 30
0
 11
48.898538888390021
 21
40.310019410478773
 31
0
  0
LINE
  5
208A
  8
4
  6
CONTINUOUS
 10
48.769940138390133
 20
40.32242283929768
 30
0
 11
48.898538888390021
 21
40.32242283929768
 31
0
  0
LINE
  5
208B
  8
4
  6
CONTINUOUS
 10
48.769940138390133
 20
40.334826268117311
 30
0
 11
48.898538888390021
 21
40.334826268117311
 31
0
  0
LINE
  5
208C
  8
4
  6
CONTINUOUS
 10
48.769940138390133
 20
40.347229696936907
 30
0
 11
48.898538888390021
 21
40.347229696936907
 31
0
  0
LINE
  5
208D
  8
4
  6
CONTINUOUS
 10
48.769940138390133
 20
40.359633125755977
 30
0
 11
48.898538888390021
 21
40.359633125755977
 31
0
  0
LINE
  5
208E
  8
4
  6
CONTINUOUS
 10
48.769940138390133
 20
40.372036554575587
 30
0
 11
48.898538888390021
 21
40.372036554575587
 31
0
  0
LINE
  5
208F
  8
4
  6
CONTINUOUS
 10
48.769940138390133
 20
40.384439983395183
 30
0
 11
48.898538888390021
 21
40.384439983395183
 31
0
  0
LINE
  5
2090
  8
4
  6
CONTINUOUS
 10
48.769940138390133
 20
40.396843412214793
 30
0
 11
48.898538888390021
 21
40.396843412214793
 31
0
  0
LINE
  5
2091
  8
4
  6
CONTINUOUS
 10
48.595470118430761
 20
40.396843412214793
 30
0
 11
48.718477618430789
 21
40.396843412214793
 31
0
  0
LINE
  5
2092
  8
4
  6
CONTINUOUS
 10
48.769940138390133
 20
40.40924684103372
 30
0
 11
48.898538888390021
 21
40.40924684103372
 31
0
  0
LINE
  5
2093
  8
4
  6
CONTINUOUS
 10
48.5992450750281
 20
40.40924684103372
 30
0
 11
48.722252575028008
 21
40.40924684103372
 31
0
  0
LINE
  5
2094
  8
4
  6
CONTINUOUS
 10
48.769940138390133
 20
40.421650269853323
 30
0
 11
48.898538888390021
 21
40.421650269853323
 31
0
  0
LINE
  5
2095
  8
4
  6
CONTINUOUS
 10
48.603020031625221
 20
40.421650269853323
 30
0
 11
48.72602753162522
 21
40.421650269853323
 31
0
  0
LINE
  5
2096
  8
4
  6
CONTINUOUS
 10
48.769940138390133
 20
40.43405369867294
 30
0
 11
48.898538888390021
 21
40.43405369867294
 31
0
  0
LINE
  5
2097
  8
4
  6
CONTINUOUS
 10
48.6067949882225
 20
40.43405369867294
 30
0
 11
48.7298024882225
 21
40.43405369867294
 31
0
  0
LINE
  5
2098
  8
4
  6
CONTINUOUS
 10
48.769940138390133
 20
40.446457127492529
 30
0
 11
48.898538888390021
 21
40.446457127492529
 31
0
  0
LINE
  5
2099
  8
4
  6
CONTINUOUS
 10
48.610569944819709
 20
40.446457127492529
 30
0
 11
48.7335774448196
 21
40.446457127492529
 31
0
  0
LINE
  5
209A
  8
4
  6
CONTINUOUS
 10
48.769940138390133
 20
40.458860556312132
 30
0
 11
48.898538888390021
 21
40.458860556312132
 31
0
  0
LINE
  5
209B
  8
4
  6
CONTINUOUS
 10
48.614344901416857
 20
40.458860556312132
 30
0
 11
48.737352401416857
 21
40.458860556312132
 31
0
  0
LINE
  5
209C
  8
4
  6
CONTINUOUS
 10
48.769940138390133
 20
40.47126398513106
 30
0
 11
48.898538888390021
 21
40.47126398513106
 31
0
  0
LINE
  5
209D
  8
4
  6
CONTINUOUS
 10
48.61811985801409
 20
40.47126398513106
 30
0
 11
48.7411273580141
 21
40.47126398513106
 31
0
  0
LINE
  5
209E
  8
4
  6
CONTINUOUS
 10
48.769940138390133
 20
40.483667413950677
 30
0
 11
48.898538888390021
 21
40.483667413950677
 31
0
  0
LINE
  5
209F
  8
4
  6
CONTINUOUS
 10
48.621894814611331
 20
40.483667413950677
 30
0
 11
48.744902314611373
 21
40.483667413950677
 31
0
  0
LINE
  5
20A0
  8
4
  6
CONTINUOUS
 10
48.769940138390133
 20
40.496070842770273
 30
0
 11
48.898538888390021
 21
40.496070842770273
 31
0
  0
LINE
  5
20A1
  8
4
  6
CONTINUOUS
 10
48.625669771208543
 20
40.496070842770273
 30
0
 11
48.748677271208606
 21
40.496070842770273
 31
0
  0
LINE
  5
20A2
  8
4
  6
CONTINUOUS
 10
48.769940138390133
 20
40.508474271589343
 30
0
 11
48.898538888390021
 21
40.508474271589343
 31
0
  0
LINE
  5
20A3
  8
4
  6
CONTINUOUS
 10
48.629444727805847
 20
40.508474271589343
 30
0
 11
48.752452227805769
 21
40.508474271589343
 31
0
  0
LINE
  5
20A4
  8
4
  6
CONTINUOUS
 10
48.769940138390133
 20
40.52087770040896
 30
0
 11
48.898538888390021
 21
40.52087770040896
 31
0
  0
LINE
  5
20A5
  8
4
  6
CONTINUOUS
 10
48.633219684402981
 20
40.52087770040896
 30
0
 11
48.756227184402967
 21
40.52087770040896
 31
0
  0
LINE
  5
20A6
  8
4
  6
CONTINUOUS
 10
48.769940138390133
 20
40.533281129228563
 30
0
 11
48.898538888390021
 21
40.533281129228563
 31
0
  0
LINE
  5
20A7
  8
4
  6
CONTINUOUS
 10
48.636994641000221
 20
40.533281129228563
 30
0
 11
48.760002141000243
 21
40.533281129228563
 31
0
  0
LINE
  5
20A8
  8
4
  6
CONTINUOUS
 10
48.769940138390133
 20
40.54568455804818
 30
0
 11
48.898538888390021
 21
40.54568455804818
 31
0
  0
LINE
  5
20A9
  8
4
  6
CONTINUOUS
 10
48.640769597597469
 20
40.54568455804818
 30
0
 11
48.763777097597512
 21
40.54568455804818
 31
0
  0
LINE
  5
20AA
  8
4
  6
CONTINUOUS
 10
48.769940138390133
 20
40.5580879868671
 30
0
 11
48.898538888390021
 21
40.5580879868671
 31
0
  0
LINE
  5
20AB
  8
4
  6
CONTINUOUS
 10
48.644544554194681
 20
40.5580879868671
 30
0
 11
48.767552054194653
 21
40.5580879868671
 31
0
  0
LINE
  5
20AC
  8
4
  6
CONTINUOUS
 10
48.648319510791893
 20
40.57049141568671
 30
0
 11
48.898538888390021
 21
40.57049141568671
 31
0
  0
LINE
  5
20AD
  8
4
  6
CONTINUOUS
 10
48.652094467389091
 20
40.582894844506313
 30
0
 11
48.898538888390021
 21
40.582894844506313
 31
0
  0
LINE
  5
20AE
  8
4
  6
CONTINUOUS
 10
48.655869423986353
 20
40.595298273325923
 30
0
 11
48.898538888390021
 21
40.595298273325923
 31
0
  0
LINE
  5
20AF
  8
4
  6
CONTINUOUS
 10
48.659644380583622
 20
40.607701702144979
 30
0
 11
48.898538888390021
 21
40.607701702144979
 31
0
  0
LINE
  5
20B0
  8
4
  6
CONTINUOUS
 10
48.663419337180777
 20
40.620105130964582
 30
0
 11
48.898538888390021
 21
40.620105130964582
 31
0
  0
LINE
  5
20B1
  8
4
  6
CONTINUOUS
 10
48.667194293777982
 20
40.632508559784171
 30
0
 11
48.898538888390021
 21
40.632508559784171
 31
0
  0
LINE
  5
20B2
  8
4
  6
CONTINUOUS
 10
48.670969250375251
 20
40.644911988603113
 30
0
 11
48.898538888390021
 21
40.644911988603113
 31
0
  0
LINE
  5
20B3
  8
4
  6
CONTINUOUS
 10
48.962838263390111
 20
40.755568871322708
 30
0
 11
49.091437013390042
 21
40.755568871322708
 31
0
  0
LINE
  5
20B4
  8
4
  6
CONTINUOUS
 10
48.962838263390111
 20
40.743165442503113
 30
0
 11
49.091437013390042
 21
40.743165442503113
 31
0
  0
LINE
  5
20B5
  8
4
  6
CONTINUOUS
 10
48.962838263390111
 20
40.7307620136835
 30
0
 11
49.091437013390042
 21
40.7307620136835
 31
0
  0
LINE
  5
20B6
  8
4
  6
CONTINUOUS
 10
48.962838263390111
 20
40.7183585848639
 30
0
 11
49.091437013390042
 21
40.7183585848639
 31
0
  0
LINE
  5
20B7
  8
4
  6
CONTINUOUS
 10
48.962838263390111
 20
40.705955156044972
 30
0
 11
49.091437013390042
 21
40.705955156044972
 31
0
  0
LINE
  5
20B8
  8
4
  6
CONTINUOUS
 10
48.962838263390111
 20
40.693551727225369
 30
0
 11
49.091437013390042
 21
40.693551727225369
 31
0
  0
LINE
  5
20B9
  8
4
  6
CONTINUOUS
 10
48.962838263390111
 20
40.681148298405773
 30
0
 11
49.091437013390042
 21
40.681148298405773
 31
0
  0
LINE
  5
20BA
  8
4
  6
CONTINUOUS
 10
48.962838263390111
 20
40.668744869586149
 30
0
 11
49.091437013390042
 21
40.668744869586149
 31
0
  0
LINE
  5
20BB
  8
4
  6
CONTINUOUS
 10
48.962838263390111
 20
40.656341440767093
 30
0
 11
49.091437013390042
 21
40.656341440767093
 31
0
  0
LINE
  5
20BC
  8
4
  6
CONTINUOUS
 10
48.962838263390111
 20
40.64393801194749
 30
0
 11
49.091437013390042
 21
40.64393801194749
 31
0
  0
LINE
  5
20BD
  8
4
  6
CONTINUOUS
 10
48.962838263390111
 20
40.631534583127888
 30
0
 11
49.091437013390042
 21
40.631534583127888
 31
0
  0
LINE
  5
20BE
  8
4
  6
CONTINUOUS
 10
48.962838263390111
 20
40.61913115430896
 30
0
 11
49.091437013390042
 21
40.61913115430896
 31
0
  0
LINE
  5
20BF
  8
4
  6
CONTINUOUS
 10
48.962838263390111
 20
40.60672772548935
 30
0
 11
49.091437013390042
 21
40.60672772548935
 31
0
  0
LINE
  5
20C0
  8
4
  6
CONTINUOUS
 10
48.962838263390111
 20
40.59432429666974
 30
0
 11
49.091437013390042
 21
40.59432429666974
 31
0
  0
LINE
  5
20C1
  8
4
  6
CONTINUOUS
 10
48.962838263390111
 20
40.581920867850123
 30
0
 11
49.091437013390042
 21
40.581920867850123
 31
0
  0
LINE
  5
20C2
  8
4
  6
CONTINUOUS
 10
48.962838263390111
 20
40.569517439030527
 30
0
 11
49.091437013390042
 21
40.569517439030527
 31
0
  0
LINE
  5
20C3
  8
4
  6
CONTINUOUS
 10
48.962838263390111
 20
40.557114010211592
 30
0
 11
49.091437013390042
 21
40.557114010211592
 31
0
  0
LINE
  5
20C4
  8
4
  6
CONTINUOUS
 10
48.962838263390111
 20
40.544710581391982
 30
0
 11
49.091437013390042
 21
40.544710581391982
 31
0
  0
LINE
  5
20C5
  8
4
  6
CONTINUOUS
 10
48.962838263390111
 20
40.532307152572358
 30
0
 11
49.091437013390042
 21
40.532307152572358
 31
0
  0
LINE
  5
20C6
  8
4
  6
CONTINUOUS
 10
48.962838263390111
 20
40.51990372375333
 30
0
 11
49.091437013390042
 21
40.51990372375333
 31
0
  0
LINE
  5
20C7
  8
4
  6
CONTINUOUS
 10
48.962838263390111
 20
40.50750029493372
 30
0
 11
49.091437013390042
 21
40.50750029493372
 31
0
  0
LINE
  5
20C8
  8
4
  6
CONTINUOUS
 10
48.962838263390111
 20
40.495096866114089
 30
0
 11
49.091437013390042
 21
40.495096866114089
 31
0
  0
LINE
  5
20C9
  8
4
  6
CONTINUOUS
 10
48.962838263390111
 20
40.4826934372945
 30
0
 11
49.091437013390042
 21
40.4826934372945
 31
0
  0
LINE
  5
20CA
  8
4
  6
CONTINUOUS
 10
48.962838263390111
 20
40.470290008475573
 30
0
 11
49.091437013390042
 21
40.470290008475573
 31
0
  0
LINE
  5
20CB
  8
4
  6
CONTINUOUS
 10
48.962838263390111
 20
40.45788657965597
 30
0
 11
49.091437013390042
 21
40.45788657965597
 31
0
  0
LINE
  5
20CC
  8
4
  6
CONTINUOUS
 10
48.962838263390111
 20
40.445483150836367
 30
0
 11
49.091437013390042
 21
40.445483150836367
 31
0
  0
LINE
  5
20CD
  8
4
  6
CONTINUOUS
 10
48.962838263390111
 20
40.433079722016757
 30
0
 11
49.091437013390042
 21
40.433079722016757
 31
0
  0
LINE
  5
20CE
  8
4
  6
CONTINUOUS
 10
48.962838263390111
 20
40.420676293197687
 30
0
 11
49.091437013390042
 21
40.420676293197687
 31
0
  0
LINE
  5
20CF
  8
4
  6
CONTINUOUS
 10
48.962838263390111
 20
40.408272864378091
 30
0
 11
49.091437013390042
 21
40.408272864378091
 31
0
  0
LINE
  5
20D0
  8
4
  6
CONTINUOUS
 10
48.962838263390111
 20
40.39586943555846
 30
0
 11
49.091437013390042
 21
40.39586943555846
 31
0
  0
LINE
  5
20D1
  8
4
  6
CONTINUOUS
 10
48.962838263390111
 20
40.38346600673956
 30
0
 11
49.091437013390042
 21
40.38346600673956
 31
0
  0
LINE
  5
20D2
  8
4
  6
CONTINUOUS
 10
48.962838263390111
 20
40.371062577919957
 30
0
 11
49.091437013390042
 21
40.371062577919957
 31
0
  0
LINE
  5
20D3
  8
4
  6
CONTINUOUS
 10
48.962838263390111
 20
40.35865914910034
 30
0
 11
49.091437013390042
 21
40.35865914910034
 31
0
  0
LINE
  5
20D4
  8
4
  6
CONTINUOUS
 10
48.962838263390111
 20
40.34625572028073
 30
0
 11
49.091437013390042
 21
40.34625572028073
 31
0
  0
LINE
  5
20D5
  8
4
  6
CONTINUOUS
 10
48.962838263390111
 20
40.333852291461668
 30
0
 11
49.091437013390042
 21
40.333852291461668
 31
0
  0
LINE
  5
20D6
  8
4
  6
CONTINUOUS
 10
48.962838263390111
 20
40.321448862642193
 30
0
 11
49.091437013390042
 21
40.321448862642193
 31
0
  0
LINE
  5
20D7
  8
4
  6
CONTINUOUS
 10
48.962838263390111
 20
40.3090454338226
 30
0
 11
49.091437013390042
 21
40.3090454338226
 31
0
  0
LINE
  5
20D8
  8
4
  6
CONTINUOUS
 10
48.962838263390111
 20
40.296642005002973
 30
0
 11
49.091437013390042
 21
40.296642005002973
 31
0
  0
LINE
  5
20D9
  8
4
  6
CONTINUOUS
 10
48.962838263390111
 20
40.284238576183377
 30
0
 11
49.091437013390042
 21
40.284238576183377
 31
0
  0
LINE
  5
20DA
  8
4
  6
CONTINUOUS
 10
48.962838263390111
 20
40.271835147364321
 30
0
 11
49.091437013390042
 21
40.271835147364321
 31
0
  0
LINE
  5
20DB
  8
4
  6
CONTINUOUS
 10
48.962838263390111
 20
40.25943171854469
 30
0
 11
49.091437013390042
 21
40.25943171854469
 31
0
  0
LINE
  5
20DC
  8
4
  6
CONTINUOUS
 10
48.962838263390111
 20
40.2470282897251
 30
0
 11
49.091437013390042
 21
40.2470282897251
 31
0
  0
LINE
  5
20DD
  8
4
  6
CONTINUOUS
 10
48.962838263390111
 20
40.234624860906173
 30
0
 11
49.091437013390042
 21
40.234624860906173
 31
0
  0
LINE
  5
20DE
  8
4
  6
CONTINUOUS
 10
48.962838263390111
 20
40.22222143208657
 30
0
 11
49.091437013390042
 21
40.22222143208657
 31
0
  0
LINE
  5
20DF
  8
4
  6
CONTINUOUS
 10
48.962838263390111
 20
40.209818003266967
 30
0
 11
49.091437013390042
 21
40.209818003266967
 31
0
  0
LINE
  5
20E0
  8
4
  6
CONTINUOUS
 10
48.962838263390111
 20
40.197414574447357
 30
0
 11
49.091437013390042
 21
40.197414574447357
 31
0
  0
LINE
  5
20E1
  8
4
  6
CONTINUOUS
 10
48.962838263390111
 20
40.185011145627747
 30
0
 11
49.091437013390042
 21
40.185011145627747
 31
0
  0
LINE
  5
20E2
  8
4
  6
CONTINUOUS
 10
48.962838263390111
 20
40.172607716808677
 30
0
 11
49.091437013390042
 21
40.172607716808677
 31
0
  0
LINE
  5
20E3
  8
4
  6
CONTINUOUS
 10
48.962838263390111
 20
40.160204287989089
 30
0
 11
49.091437013390042
 21
40.160204287989089
 31
0
  0
LINE
  5
20E4
  8
4
  6
CONTINUOUS
 10
48.962838263390111
 20
40.147800859169479
 30
0
 11
49.091437013390042
 21
40.147800859169479
 31
0
  0
LINE
  5
20E5
  8
4
  6
CONTINUOUS
 10
48.962838263390111
 20
40.135397430349848
 30
0
 11
49.091437013390042
 21
40.135397430349848
 31
0
  0
LINE
  5
20E6
  8
4
  6
CONTINUOUS
 10
48.962838263390111
 20
40.122994001530962
 30
0
 11
49.091437013390042
 21
40.122994001530962
 31
0
  0
LINE
  5
20E7
  8
4
  6
CONTINUOUS
 10
48.962838263390111
 20
40.110590572711331
 30
0
 11
49.091437013390042
 21
40.110590572711331
 31
0
  0
LINE
  5
20E8
  8
4
  6
CONTINUOUS
 10
48.962838263390111
 20
40.098187143891707
 30
0
 11
49.091437013390042
 21
40.098187143891707
 31
0
  0
LINE
  5
20E9
  8
4
  6
CONTINUOUS
 10
48.962838263390111
 20
40.085783715072637
 30
0
 11
49.091437013390042
 21
40.085783715072637
 31
0
  0
LINE
  5
20EA
  8
4
  6
CONTINUOUS
 10
48.962838263390111
 20
40.0733802862532
 30
0
 11
49.091437013390042
 21
40.0733802862532
 31
0
  0
LINE
  5
20EB
  8
4
  6
CONTINUOUS
 10
49.84743668042946
 20
40.773216731344966
 30
0
 11
49.9303676892763
 21
40.773216731344966
 31
0
  0
LINE
  5
20EC
  8
4
  6
CONTINUOUS
 10
49.785258057320291
 20
40.760813302525392
 30
0
 11
49.979213467751961
 21
40.760813302525392
 31
0
  0
LINE
  5
20ED
  8
4
  6
CONTINUOUS
 10
49.760538915373083
 20
40.748409873706329
 30
0
 11
50.017024170754482
 21
40.748409873706329
 31
0
  0
LINE
  5
20EE
  8
4
  6
CONTINUOUS
 10
49.735819773425781
 20
40.736006444886712
 30
0
 11
50.037938251038469
 21
40.736006444886712
 31
0
  0
LINE
  5
20EF
  8
4
  6
CONTINUOUS
 10
49.642933835635361
 20
40.636779014331061
 30
0
 11
49.824007009948062
 21
40.636779014331061
 31
0
  0
LINE
  5
20F0
  8
4
  6
CONTINUOUS
 10
49.63948576046586
 20
40.624375585511473
 30
0
 11
49.796890482477977
 21
40.624375585511473
 31
0
  0
LINE
  5
20F1
  8
4
  6
CONTINUOUS
 10
49.636037685296337
 20
40.611972156692531
 30
0
 11
49.77668600058162
 21
40.611972156692531
 31
0
  0
LINE
  5
20F2
  8
4
  6
CONTINUOUS
 10
49.632589610126857
 20
40.599568727872949
 30
0
 11
49.7654404044151
 21
40.599568727872949
 31
0
  0
LINE
  5
20F3
  8
4
  6
CONTINUOUS
 10
49.629141534957412
 20
40.587165299053332
 30
0
 11
49.760703120206259
 21
40.587165299053332
 31
0
  0
LINE
  5
20F4
  8
4
  6
CONTINUOUS
 10
49.628817072869673
 20
40.574761870233743
 30
0
 11
49.7567717472047
 21
40.574761870233743
 31
0
  0
LINE
  5
20F5
  8
4
  6
CONTINUOUS
 10
49.62996000983506
 20
40.562358441414673
 30
0
 11
49.757104111528243
 21
40.562358441414673
 31
0
  0
LINE
  5
20F6
  8
4
  6
CONTINUOUS
 10
49.631102946800389
 20
40.5499550125952
 30
0
 11
49.758288072661
 21
40.5499550125952
 31
0
  0
LINE
  5
20F7
  8
4
  6
CONTINUOUS
 10
49.632245883765819
 20
40.537551583775581
 30
0
 11
49.763655761505959
 21
40.537551583775581
 31
0
  0
LINE
  5
20F8
  8
4
  6
CONTINUOUS
 10
49.6333888207312
 20
40.525148154955993
 30
0
 11
49.771630013193651
 21
40.525148154955993
 31
0
  0
LINE
  5
20F9
  8
4
  6
CONTINUOUS
 10
49.634970499338309
 20
40.51274472613693
 30
0
 11
49.784149573224859
 21
40.51274472613693
 31
0
  0
LINE
  5
20FA
  8
4
  6
CONTINUOUS
 10
49.641037514263267
 20
40.500341297317327
 30
0
 11
49.8195644454806
 21
40.500341297317327
 31
0
  0
LINE
  5
20FB
  8
4
  6
CONTINUOUS
 10
49.6471045291884
 20
40.4879378684977
 30
0
 11
49.878250311558851
 21
40.4879378684977
 31
0
  0
LINE
  5
20FC
  8
4
  6
CONTINUOUS
 10
49.653171544113512
 20
40.475534439678093
 30
0
 11
49.936936177637143
 21
40.475534439678093
 31
0
  0
LINE
  5
20FD
  8
4
  6
CONTINUOUS
 10
49.659238559038563
 20
40.463131010859172
 30
0
 11
49.995622043715493
 21
40.463131010859172
 31
0
  0
LINE
  5
20FE
  8
4
  6
CONTINUOUS
 10
49.665629781371969
 20
40.450727582039562
 30
0
 11
50.032939224759339
 21
40.450727582039562
 31
0
  0
LINE
  5
20FF
  8
4
  6
CONTINUOUS
 10
51.67143565562781
 20
40.124542129517508
 30
0
 11
52.084748649100739
 21
40.124542129517508
 31
0
  0
LINE
  5
2100
  8
4
  6
CONTINUOUS
 10
51.660357715111111
 20
40.136945558337111
 30
0
 11
52.096746914715112
 21
40.136945558337111
 31
0
  0
LINE
  5
2101
  8
4
  6
CONTINUOUS
 10
51.649279774594127
 20
40.149348987156174
 30
0
 11
52.10874518032962
 21
40.149348987156174
 31
0
  0
LINE
  5
2102
  8
4
  6
CONTINUOUS
 10
51.6382018340773
 20
40.161752415975769
 30
0
 11
52.120743445944072
 21
40.161752415975769
 31
0
  0
LINE
  5
2103
  8
4
  6
CONTINUOUS
 10
51.627123893560558
 20
40.174155844795358
 30
0
 11
52.128367995192832
 21
40.174155844795358
 31
0
  0
LINE
  5
2104
  8
4
  6
CONTINUOUS
 10
51.92917807745939
 20
40.186559273614982
 30
0
 11
52.133340585721847
 21
40.186559273614982
 31
0
  0
LINE
  5
2105
  8
4
  6
CONTINUOUS
 10
51.957062448342057
 20
40.198962702434592
 30
0
 11
52.138313176250861
 21
40.198962702434592
 31
0
  0
LINE
  5
2106
  8
4
  6
CONTINUOUS
 10
51.984301912135422
 20
40.211366131253513
 30
0
 11
52.143285766779883
 21
40.211366131253513
 31
0
  0
LINE
  5
2107
  8
4
  6
CONTINUOUS
 10
52.00641406675242
 20
40.223769560073109
 30
0
 11
52.14825835730889
 21
40.223769560073109
 31
0
  0
LINE
  5
2108
  8
4
  6
CONTINUOUS
 10
52.016008689399442
 20
40.236172988892733
 30
0
 11
52.1529092850664
 21
40.236172988892733
 31
0
  0
LINE
  5
2109
  8
4
  6
CONTINUOUS
 10
52.022825788647083
 20
40.248576417711767
 30
0
 11
52.15283208477706
 21
40.248576417711767
 31
0
  0
LINE
  5
210A
  8
4
  6
CONTINUOUS
 10
52.026081904215822
 20
40.2609798465314
 30
0
 11
52.152754884487528
 21
40.2609798465314
 31
0
  0
LINE
  5
210B
  8
4
  6
CONTINUOUS
 10
52.026786480891182
 20
40.273383275350881
 30
0
 11
52.152677684198167
 21
40.273383275350881
 31
0
  0
LINE
  5
210C
  8
4
  6
CONTINUOUS
 10
52.02550307385664
 20
40.285786704170491
 30
0
 11
52.15260048390877
 21
40.285786704170491
 31
0
  0
LINE
  5
210D
  8
4
  6
CONTINUOUS
 10
52.0207030511181
 20
40.298190132989532
 30
0
 11
52.152523283619452
 21
40.298190132989532
 31
0
  0
LINE
  5
210E
  8
4
  6
CONTINUOUS
 10
52.014106326048633
 20
40.310593561809142
 30
0
 11
52.152065945085717
 21
40.310593561809142
 31
0
  0
LINE
  5
210F
  8
4
  6
CONTINUOUS
 10
52.000739514987167
 20
40.322996990628731
 30
0
 11
52.146913232146638
 21
40.322996990628731
 31
0
  0
LINE
  5
2110
  8
4
  6
CONTINUOUS
 10
51.971275941483142
 20
40.335400419448362
 30
0
 11
52.141760519207423
 21
40.335400419448362
 31
0
  0
LINE
  5
2111
  8
4
  6
CONTINUOUS
 10
51.912590075404779
 20
40.34780384826729
 30
0
 11
52.13660780626833
 21
40.34780384826729
 31
0
  0
LINE
  5
2112
  8
4
  6
CONTINUOUS
 10
51.853904209326537
 20
40.360207277086893
 30
0
 11
52.131455093329279
 21
40.360207277086893
 31
0
  0
LINE
  5
2113
  8
4
  6
CONTINUOUS
 10
51.795218343248209
 20
40.372610705906482
 30
0
 11
52.126302380390072
 21
40.372610705906482
 31
0
  0
LINE
  5
2114
  8
4
  6
CONTINUOUS
 10
51.754962741135692
 20
40.385014134725537
 30
0
 11
52.117259444985621
 21
40.385014134725537
 31
0
  0
LINE
  5
2115
  8
4
  6
CONTINUOUS
 10
51.725552482021691
 20
40.397417563545169
 30
0
 11
52.104958645878241
 21
40.397417563545169
 31
0
  0
LINE
  5
2116
  8
4
  6
CONTINUOUS
 10
51.701836839731392
 20
40.409820992364793
 30
0
 11
52.092657846770891
 21
40.409820992364793
 31
0
  0
LINE
  5
2117
  8
4
  6
CONTINUOUS
 10
51.68931727970029
 20
40.422224421184382
 30
0
 11
52.080357047663561
 21
40.422224421184382
 31
0
  0
LINE
  5
2118
  8
4
  6
CONTINUOUS
 10
52.005715317844221
 20
40.57106556701774
 30
0
 11
52.133651785760279
 21
40.57106556701774
 31
0
  0
LINE
  5
2119
  8
4
  6
CONTINUOUS
 10
52.003185145273591
 20
40.583468995837372
 30
0
 11
52.130723733404857
 21
40.583468995837372
 31
0
  0
LINE
  5
211A
  8
4
  6
CONTINUOUS
 10
51.998061898859191
 20
40.595872424656292
 30
0
 11
52.127795681049378
 21
40.595872424656292
 31
0
  0
LINE
  5
211B
  8
4
  6
CONTINUOUS
 10
51.988999447193109
 20
40.6082758534759
 30
0
 11
52.124867628693849
 21
40.6082758534759
 31
0
  0
LINE
  5
211C
  8
4
  6
CONTINUOUS
 10
51.9749714256754
 20
40.620679282295491
 30
0
 11
52.121939576338463
 21
40.620679282295491
 31
0
  0
LINE
  5
211D
  8
4
  6
CONTINUOUS
 10
51.954057345391362
 20
40.633082711114561
 30
0
 11
52.119011523982941
 21
40.633082711114561
 31
0
  0
LINE
  5
211E
  8
4
  6
CONTINUOUS
 10
51.9123752031627
 20
40.645486139934171
 30
0
 11
52.116083471627462
 21
40.645486139934171
 31
0
  0
LINE
  5
211F
  8
4
  6
CONTINUOUS
 10
51.645457897044473
 20
40.657889568753767
 30
0
 11
52.109750890869933
 21
40.657889568753767
 31
0
  0
LINE
  5
2120
  8
4
  6
CONTINUOUS
 10
51.6523309134493
 20
40.670292997573362
 30
0
 11
52.099399282475957
 21
40.670292997573362
 31
0
  0
LINE
  5
2121
  8
4
  6
CONTINUOUS
 10
51.663576509615787
 20
40.682696426392319
 30
0
 11
52.089047674082117
 21
40.682696426392319
 31
0
  0
LINE
  5
2122
  8
4
  6
CONTINUOUS
 10
51.674822105782368
 20
40.695099855211922
 30
0
 11
52.078696065688128
 21
40.695099855211922
 31
0
  0
LINE
  5
2123
  8
4
  6
CONTINUOUS
 10
52.006264304753437
 20
40.565934549223329
 30
0
 11
52.13486305475346
 21
40.565934549223329
 31
0
  0
ARC
  5
2124
  8
4
  6
CONTINUOUS
 10
51.941964929753453
 20
40.565934549223329
 30
0
 40
0.192898124999988
 50
0
 51
53.130102354172671
  0
ARC
  5
2125
  8
4
  6
CONTINUOUS
 10
51.963398054753462
 20
40.271345619949919
 30
0
 40
0.1928981249999322
 50
304.8499045790511
 51
78.065998922918425
  0
LINE
  5
2126
  8
4
  6
CONTINUOUS
 10
50.827520138390113
 20
40.4326927778569
 30
0
 11
51.311576062641777
 21
40.4326927778569
 31
0
  0
LINE
  5
2127
  8
4
  6
CONTINUOUS
 10
50.827520138390113
 20
40.420289349037311
 30
0
 11
51.322141191357531
 21
40.420289349037311
 31
0
  0
LINE
  5
2128
  8
4
  6
CONTINUOUS
 10
50.827520138390113
 20
40.40788592021768
 30
0
 11
51.332706320073221
 21
40.40788592021768
 31
0
  0
LINE
  5
2129
  8
4
  6
CONTINUOUS
 10
50.827520138390113
 20
40.395482491398781
 30
0
 11
51.343271448788911
 21
40.395482491398781
 31
0
  0
LINE
  5
212A
  8
4
  6
CONTINUOUS
 10
50.827520138390113
 20
40.383079062579149
 30
0
 11
51.353836577504609
 21
40.383079062579149
 31
0
  0
LINE
  5
212B
  8
4
  6
CONTINUOUS
 10
51.194555408927577
 20
40.370675633759561
 30
0
 11
51.360113085375822
 21
40.370675633759561
 31
0
  0
LINE
  5
212C
  8
4
  6
CONTINUOUS
 10
50.827520138390113
 20
40.370675633759561
 30
0
 11
50.956118888390122
 21
40.370675633759561
 31
0
  0
LINE
  5
212D
  8
4
  6
CONTINUOUS
 10
51.22965197127197
 20
40.358272204939936
 30
0
 11
51.3647157337341
 21
40.358272204939936
 31
0
  0
LINE
  5
212E
  8
4
  6
CONTINUOUS
 10
50.827520138390113
 20
40.358272204939936
 30
0
 11
50.956118888390122
 21
40.358272204939936
 31
0
  0
LINE
  5
212F
  8
4
  6
CONTINUOUS
 10
51.247025216303683
 20
40.345868776120888
 30
0
 11
51.36931838209226
 21
40.345868776120888
 31
0
  0
LINE
  5
2130
  8
4
  6
CONTINUOUS
 10
50.827520138390113
 20
40.345868776120888
 30
0
 11
50.956118888390122
 21
40.345868776120888
 31
0
  0
LINE
  5
2131
  8
4
  6
CONTINUOUS
 10
51.257432928851387
 20
40.333465347301278
 30
0
 11
51.373921030450532
 21
40.333465347301278
 31
0
  0
LINE
  5
2132
  8
4
  6
CONTINUOUS
 10
50.827520138390113
 20
40.333465347301278
 30
0
 11
50.956118888390122
 21
40.333465347301278
 31
0
  0
LINE
  5
2133
  8
4
  6
CONTINUOUS
 10
51.266058918280478
 20
40.321061918481668
 30
0
 11
51.378523678808719
 21
40.321061918481668
 31
0
  0
LINE
  5
2134
  8
4
  6
CONTINUOUS
 10
50.827520138390113
 20
40.321061918481668
 30
0
 11
50.956118888390122
 21
40.321061918481668
 31
0
  0
LINE
  5
2135
  8
4
  6
CONTINUOUS
 10
51.270573397173671
 20
40.30865848966274
 30
0
 11
51.381506162702848
 21
40.30865848966274
 31
0
  0
LINE
  5
2136
  8
4
  6
CONTINUOUS
 10
50.827520138390113
 20
40.30865848966274
 30
0
 11
50.956118888390122
 21
40.30865848966274
 31
0
  0
LINE
  5
2137
  8
4
  6
CONTINUOUS
 10
51.275087876066777
 20
40.296255060843151
 30
0
 11
51.381569717263382
 21
40.296255060843151
 31
0
  0
LINE
  5
2138
  8
4
  6
CONTINUOUS
 10
50.827520138390113
 20
40.296255060843151
 30
0
 11
50.956118888390122
 21
40.296255060843151
 31
0
  0
LINE
  5
2139
  8
4
  6
CONTINUOUS
 10
51.2761504854109
 20
40.283851632023527
 30
0
 11
51.381633271823858
 21
40.283851632023527
 31
0
  0
LINE
  5
213A
  8
4
  6
CONTINUOUS
 10
50.827520138390113
 20
40.283851632023527
 30
0
 11
50.956118888390122
 21
40.283851632023527
 31
0
  0
LINE
  5
213B
  8
4
  6
CONTINUOUS
 10
51.2761504854109
 20
40.271448203203931
 30
0
 11
51.38169682638442
 21
40.271448203203931
 31
0
  0
LINE
  5
213C
  8
4
  6
CONTINUOUS
 10
50.827520138390113
 20
40.271448203203931
 30
0
 11
50.956118888390122
 21
40.271448203203931
 31
0
  0
LINE
  5
213D
  8
4
  6
CONTINUOUS
 10
51.275861353499423
 20
40.259044774384321
 30
0
 11
51.381760380945032
 21
40.259044774384321
 31
0
  0
LINE
  5
213E
  8
4
  6
CONTINUOUS
 10
50.827520138390113
 20
40.259044774384321
 30
0
 11
50.956118888390122
 21
40.259044774384321
 31
0
  0
LINE
  5
213F
  8
4
  6
CONTINUOUS
 10
51.271346874606252
 20
40.2466413455654
 30
0
 11
51.381823935505587
 21
40.2466413455654
 31
0
  0
LINE
  5
2140
  8
4
  6
CONTINUOUS
 10
50.827520138390113
 20
40.2466413455654
 30
0
 11
50.956118888390122
 21
40.2466413455654
 31
0
  0
LINE
  5
2141
  8
4
  6
CONTINUOUS
 10
51.266832395713173
 20
40.234237916745748
 30
0
 11
51.379005141492833
 21
40.234237916745748
 31
0
  0
LINE
  5
2142
  8
4
  6
CONTINUOUS
 10
50.827520138390113
 20
40.234237916745748
 30
0
 11
50.956118888390122
 21
40.234237916745748
 31
0
  0
LINE
  5
2143
  8
4
  6
CONTINUOUS
 10
51.259216109362768
 20
40.221834487926174
 30
0
 11
51.374546561030712
 21
40.221834487926174
 31
0
  0
LINE
  5
2144
  8
4
  6
CONTINUOUS
 10
50.827520138390113
 20
40.221834487926174
 30
0
 11
50.956118888390122
 21
40.221834487926174
 31
0
  0
LINE
  5
2145
  8
4
  6
CONTINUOUS
 10
51.248808396815093
 20
40.209431059107132
 30
0
 11
51.370087980568677
 21
40.209431059107132
 31
0
  0
LINE
  5
2146
  8
4
  6
CONTINUOUS
 10
50.827520138390113
 20
40.209431059107132
 30
0
 11
50.956118888390122
 21
40.209431059107132
 31
0
  0
LINE
  5
2147
  8
4
  6
CONTINUOUS
 10
51.23333277284793
 20
40.197027630287522
 30
0
 11
51.36562940010662
 21
40.197027630287522
 31
0
  0
LINE
  5
2148
  8
4
  6
CONTINUOUS
 10
50.827520138390113
 20
40.197027630287522
 30
0
 11
50.956118888390122
 21
40.197027630287522
 31
0
  0
LINE
  5
2149
  8
4
  6
CONTINUOUS
 10
51.206607516733918
 20
40.184624201467891
 30
0
 11
51.36117081964457
 21
40.184624201467891
 31
0
  0
LINE
  5
214A
  8
4
  6
CONTINUOUS
 10
50.827520138390113
 20
40.184624201467891
 30
0
 11
50.956118888390122
 21
40.184624201467891
 31
0
  0
LINE
  5
214B
  8
4
  6
CONTINUOUS
 10
50.827520138390113
 20
40.172220772648309
 30
0
 11
51.3552108420527
 21
40.172220772648309
 31
0
  0
LINE
  5
214C
  8
4
  6
CONTINUOUS
 10
50.827520138390113
 20
40.159817343829353
 30
0
 11
51.34486315386453
 21
40.159817343829353
 31
0
  0
LINE
  5
214D
  8
4
  6
CONTINUOUS
 10
50.827520138390113
 20
40.147413915009778
 30
0
 11
51.334515465676482
 21
40.147413915009778
 31
0
  0
LINE
  5
214E
  8
4
  6
CONTINUOUS
 10
50.827520138390113
 20
40.072993342093348
 30
0
 11
51.1812835252346
 21
40.072993342093348
 31
0
  0
LINE
  5
214F
  8
4
  6
CONTINUOUS
 10
50.827520138390113
 20
40.085396770912268
 30
0
 11
51.25113734417571
 21
40.085396770912268
 31
0
  0
LINE
  5
2150
  8
4
  6
CONTINUOUS
 10
50.827520138390113
 20
40.097800199731878
 30
0
 11
51.27253622426668
 21
40.097800199731878
 31
0
  0
LINE
  5
2151
  8
4
  6
CONTINUOUS
 10
50.827520138390113
 20
40.110203628551488
 30
0
 11
51.293935104357651
 21
40.110203628551488
 31
0
  0
LINE
  5
2152
  8
4
  6
CONTINUOUS
 10
50.827520138390113
 20
40.12260705737053
 30
0
 11
51.313820089300421
 21
40.12260705737053
 31
0
  0
LINE
  5
2153
  8
4
  6
CONTINUOUS
 10
50.827520138390113
 20
40.135010486190168
 30
0
 11
51.324167777488519
 21
40.135010486190168
 31
0
  0
LINE
  5
2154
  8
4
  6
CONTINUOUS
 10
50.827520138390113
 20
40.749432453678772
 30
0
 11
51.218320892462252
 21
40.749432453678772
 31
0
  0
LINE
  5
2155
  8
4
  6
CONTINUOUS
 10
50.827520138390113
 20
40.737029024859183
 30
0
 11
51.254769218463217
 21
40.737029024859183
 31
0
  0
LINE
  5
2156
  8
4
  6
CONTINUOUS
 10
50.827520138390113
 20
40.724625596040113
 30
0
 11
51.273630911271511
 21
40.724625596040113
 31
0
  0
LINE
  5
2157
  8
4
  6
CONTINUOUS
 10
50.827520138390113
 20
40.71222216722051
 30
0
 11
51.292492604079818
 21
40.71222216722051
 31
0
  0
LINE
  5
2158
  8
4
  6
CONTINUOUS
 10
50.827520138390113
 20
40.6998187384009
 30
0
 11
51.308144671699651
 21
40.6998187384009
 31
0
  0
LINE
  5
2159
  8
4
  6
CONTINUOUS
 10
50.827520138390113
 20
40.6874153095813
 30
0
 11
51.3166539809428
 21
40.6874153095813
 31
0
  0
LINE
  5
215A
  8
4
  6
CONTINUOUS
 10
50.827520138390113
 20
40.67501188076168
 30
0
 11
51.3251632901859
 21
40.67501188076168
 31
0
  0
LINE
  5
215B
  8
4
  6
CONTINUOUS
 10
50.827520138390113
 20
40.662608451942759
 30
0
 11
51.333672599428951
 21
40.662608451942759
 31
0
  0
LINE
  5
215C
  8
4
  6
CONTINUOUS
 10
51.178741700432468
 20
40.650205023123128
 30
0
 11
51.342181908672067
 21
40.650205023123128
 31
0
  0
LINE
  5
215D
  8
4
  6
CONTINUOUS
 10
50.827520138390113
 20
40.650205023123128
 30
0
 11
50.956118888390122
 21
40.650205023123128
 31
0
  0
LINE
  5
215E
  8
4
  6
CONTINUOUS
 10
51.214832826291563
 20
40.637801594303532
 30
0
 11
51.348549810790949
 21
40.637801594303532
 31
0
  0
LINE
  5
215F
  8
4
  6
CONTINUOUS
 10
50.827520138390113
 20
40.637801594303532
 30
0
 11
50.956118888390122
 21
40.637801594303532
 31
0
  0
LINE
  5
2160
  8
4
  6
CONTINUOUS
 10
51.2307698174121
 20
40.625398165484491
 30
0
 11
51.35123891990883
 21
40.625398165484491
 31
0
  0
LINE
  5
2161
  8
4
  6
CONTINUOUS
 10
50.827520138390113
 20
40.625398165484491
 30
0
 11
50.956118888390122
 21
40.625398165484491
 31
0
  0
LINE
  5
2162
  8
4
  6
CONTINUOUS
 10
51.24117752995982
 20
40.612994736664888
 30
0
 11
51.353928029026889
 21
40.612994736664888
 31
0
  0
LINE
  5
2163
  8
4
  6
CONTINUOUS
 10
50.827520138390113
 20
40.612994736664888
 30
0
 11
50.956118888390122
 21
40.612994736664888
 31
0
  0
LINE
  5
2164
  8
4
  6
CONTINUOUS
 10
51.247684671820153
 20
40.600591307845271
 30
0
 11
51.356617138144919
 21
40.600591307845271
 31
0
  0
LINE
  5
2165
  8
4
  6
CONTINUOUS
 10
50.827520138390113
 20
40.600591307845271
 30
0
 11
50.956118888390122
 21
40.600591307845271
 31
0
  0
LINE
  5
2166
  8
4
  6
CONTINUOUS
 10
51.25219915071326
 20
40.5881878790258
 30
0
 11
51.3593062472629
 21
40.5881878790258
 31
0
  0
LINE
  5
2167
  8
4
  6
CONTINUOUS
 10
50.827520138390113
 20
40.5881878790258
 30
0
 11
50.956118888390122
 21
40.5881878790258
 31
0
  0
LINE
  5
2168
  8
4
  6
CONTINUOUS
 10
51.254880169075278
 20
40.575784450206733
 30
0
 11
51.361995356380959
 21
40.575784450206733
 31
0
  0
LINE
  5
2169
  8
4
  6
CONTINUOUS
 10
50.827520138390113
 20
40.575784450206733
 30
0
 11
50.956118888390122
 21
40.575784450206733
 31
0
  0
LINE
  5
216A
  8
4
  6
CONTINUOUS
 10
51.254880169075278
 20
40.56338102138713
 30
0
 11
51.3621958669416
 21
40.56338102138713
 31
0
  0
LINE
  5
216B
  8
4
  6
CONTINUOUS
 10
50.827520138390113
 20
40.56338102138713
 30
0
 11
50.956118888390122
 21
40.56338102138713
 31
0
  0
LINE
  5
216C
  8
4
  6
CONTINUOUS
 10
51.254854813356737
 20
40.55097759256752
 30
0
 11
51.360011792028672
 21
40.55097759256752
 31
0
  0
LINE
  5
216D
  8
4
  6
CONTINUOUS
 10
50.827520138390113
 20
40.55097759256752
 30
0
 11
50.956118888390122
 21
40.55097759256752
 31
0
  0
LINE
  5
216E
  8
4
  6
CONTINUOUS
 10
51.250340334463651
 20
40.538574163747917
 30
0
 11
51.357827717115619
 21
40.538574163747917
 31
0
  0
LINE
  5
216F
  8
4
  6
CONTINUOUS
 10
50.827520138390113
 20
40.538574163747917
 30
0
 11
50.956118888390122
 21
40.538574163747917
 31
0
  0
LINE
  5
2170
  8
4
  6
CONTINUOUS
 10
51.245825855570573
 20
40.526170734928968
 30
0
 11
51.355643642202693
 21
40.526170734928968
 31
0
  0
LINE
  5
2171
  8
4
  6
CONTINUOUS
 10
50.827520138390113
 20
40.526170734928968
 30
0
 11
50.956118888390122
 21
40.526170734928968
 31
0
  0
LINE
  5
2172
  8
4
  6
CONTINUOUS
 10
50.827520138390113
 20
40.439346733192281
 30
0
 11
51.314417869193349
 21
40.439346733192281
 31
0
  0
LINE
  5
2173
  8
4
  6
CONTINUOUS
 10
50.827520138390113
 20
40.451750162011912
 30
0
 11
51.3222305032819
 21
40.451750162011912
 31
0
  0
LINE
  5
2174
  8
4
  6
CONTINUOUS
 10
50.827520138390113
 20
40.464153590831508
 30
0
 11
51.3300431373705
 21
40.464153590831508
 31
0
  0
LINE
  5
2175
  8
4
  6
CONTINUOUS
 10
50.827520138390113
 20
40.476557019651111
 30
0
 11
51.337855771459061
 21
40.476557019651111
 31
0
  0
LINE
  5
2176
  8
4
  6
CONTINUOUS
 10
51.205987146389063
 20
40.488960448470714
 30
0
 11
51.34566840554762
 21
40.488960448470714
 31
0
  0
LINE
  5
2177
  8
4
  6
CONTINUOUS
 10
50.827520138390113
 20
40.488960448470714
 30
0
 11
50.956118888390122
 21
40.488960448470714
 31
0
  0
LINE
  5
2178
  8
4
  6
CONTINUOUS
 10
51.2264844888806
 20
40.501363877289769
 30
0
 11
51.351275492376722
 21
40.501363877289769
 31
0
  0
LINE
  5
2179
  8
4
  6
CONTINUOUS
 10
50.827520138390113
 20
40.501363877289769
 30
0
 11
50.956118888390122
 21
40.501363877289769
 31
0
  0
LINE
  5
217A
  8
4
  6
CONTINUOUS
 10
51.236892201428319
 20
40.513767306109393
 30
0
 11
51.353459567289718
 21
40.513767306109393
 31
0
  0
LINE
  5
217B
  8
4
  6
CONTINUOUS
 10
50.827520138390113
 20
40.513767306109393
 30
0
 11
50.956118888390122
 21
40.513767306109393
 31
0
  0
LINE
  5
217C
  8
4
  6
CONTINUOUS
 10
50.634622013390072
 20
40.746852340158647
 30
0
 11
50.763220763390073
 21
40.746852340158647
 31
0
  0
LINE
  5
217D
  8
4
  6
CONTINUOUS
 10
50.634622013390072
 20
40.73444891133974
 30
0
 11
50.763220763390073
 21
40.73444891133974
 31
0
  0
LINE
  5
217E
  8
4
  6
CONTINUOUS
 10
50.634622013390072
 20
40.722045482520109
 30
0
 11
50.763220763390073
 21
40.722045482520109
 31
0
  0
LINE
  5
217F
  8
4
  6
CONTINUOUS
 10
50.634622013390072
 20
40.709642053700527
 30
0
 11
50.763220763390073
 21
40.709642053700527
 31
0
  0
LINE
  5
2180
  8
4
  6
CONTINUOUS
 10
50.634622013390072
 20
40.697238624880917
 30
0
 11
50.763220763390073
 21
40.697238624880917
 31
0
  0
LINE
  5
2181
  8
4
  6
CONTINUOUS
 10
50.634622013390072
 20
40.684835196061989
 30
0
 11
50.763220763390073
 21
40.684835196061989
 31
0
  0
LINE
  5
2182
  8
4
  6
CONTINUOUS
 10
50.634622013390072
 20
40.6724317672424
 30
0
 11
50.763220763390073
 21
40.6724317672424
 31
0
  0
LINE
  5
2183
  8
4
  6
CONTINUOUS
 10
50.634622013390072
 20
40.660028338422777
 30
0
 11
50.763220763390073
 21
40.660028338422777
 31
0
  0
LINE
  5
2184
  8
4
  6
CONTINUOUS
 10
50.634622013390072
 20
40.647624909603181
 30
0
 11
50.763220763390073
 21
40.647624909603181
 31
0
  0
LINE
  5
2185
  8
4
  6
CONTINUOUS
 10
50.634622013390072
 20
40.635221480784111
 30
0
 11
50.763220763390073
 21
40.635221480784111
 31
0
  0
LINE
  5
2186
  8
4
  6
CONTINUOUS
 10
50.634622013390072
 20
40.622818051964508
 30
0
 11
50.763220763390073
 21
40.622818051964508
 31
0
  0
LINE
  5
2187
  8
4
  6
CONTINUOUS
 10
50.634622013390072
 20
40.610414623144912
 30
0
 11
50.763220763390073
 21
40.610414623144912
 31
0
  0
LINE
  5
2188
  8
4
  6
CONTINUOUS
 10
50.634622013390072
 20
40.598011194325977
 30
0
 11
50.763220763390073
 21
40.598011194325977
 31
0
  0
LINE
  5
2189
  8
4
  6
CONTINUOUS
 10
50.634622013390072
 20
40.585607765506367
 30
0
 11
50.763220763390073
 21
40.585607765506367
 31
0
  0
LINE
  5
218A
  8
4
  6
CONTINUOUS
 10
50.634622013390072
 20
40.57320433668675
 30
0
 11
50.763220763390073
 21
40.57320433668675
 31
0
  0
LINE
  5
218B
  8
4
  6
CONTINUOUS
 10
50.634622013390072
 20
40.56080090786714
 30
0
 11
50.763220763390073
 21
40.56080090786714
 31
0
  0
LINE
  5
218C
  8
4
  6
CONTINUOUS
 10
50.634622013390072
 20
40.548397479048091
 30
0
 11
50.763220763390073
 21
40.548397479048091
 31
0
  0
LINE
  5
218D
  8
4
  6
CONTINUOUS
 10
50.634622013390072
 20
40.535994050228489
 30
0
 11
50.763220763390073
 21
40.535994050228489
 31
0
  0
LINE
  5
218E
  8
4
  6
CONTINUOUS
 10
50.634622013390072
 20
40.523590621408879
 30
0
 11
50.763220763390073
 21
40.523590621408879
 31
0
  0
LINE
  5
218F
  8
4
  6
CONTINUOUS
 10
50.634622013390072
 20
40.511187192589269
 30
0
 11
50.763220763390073
 21
40.511187192589269
 31
0
  0
LINE
  5
2190
  8
4
  6
CONTINUOUS
 10
50.634622013390072
 20
40.498783763770327
 30
0
 11
50.763220763390073
 21
40.498783763770327
 31
0
  0
LINE
  5
2191
  8
4
  6
CONTINUOUS
 10
50.634622013390072
 20
40.486380334950717
 30
0
 11
50.763220763390073
 21
40.486380334950717
 31
0
  0
LINE
  5
2192
  8
4
  6
CONTINUOUS
 10
50.634622013390072
 20
40.473976906131128
 30
0
 11
50.763220763390073
 21
40.473976906131128
 31
0
  0
LINE
  5
2193
  8
4
  6
CONTINUOUS
 10
50.634622013390072
 20
40.461573477312072
 30
0
 11
50.763220763390073
 21
40.461573477312072
 31
0
  0
LINE
  5
2194
  8
4
  6
CONTINUOUS
 10
50.634622013390072
 20
40.4491700484926
 30
0
 11
50.763220763390073
 21
40.4491700484926
 31
0
  0
LINE
  5
2195
  8
4
  6
CONTINUOUS
 10
50.634622013390072
 20
40.436766619672987
 30
0
 11
50.763220763390073
 21
40.436766619672987
 31
0
  0
LINE
  5
2196
  8
4
  6
CONTINUOUS
 10
50.634622013390072
 20
40.424363190853377
 30
0
 11
50.763220763390073
 21
40.424363190853377
 31
0
  0
LINE
  5
2197
  8
4
  6
CONTINUOUS
 10
50.634622013390072
 20
40.411959762033767
 30
0
 11
50.763220763390073
 21
40.411959762033767
 31
0
  0
LINE
  5
2198
  8
4
  6
CONTINUOUS
 10
50.634622013390072
 20
40.399556333214711
 30
0
 11
50.763220763390073
 21
40.399556333214711
 31
0
  0
LINE
  5
2199
  8
4
  6
CONTINUOUS
 10
50.634622013390072
 20
40.387152904395109
 30
0
 11
50.763220763390073
 21
40.387152904395109
 31
0
  0
LINE
  5
219A
  8
4
  6
CONTINUOUS
 10
50.634622013390072
 20
40.374749475575513
 30
0
 11
50.763220763390073
 21
40.374749475575513
 31
0
  0
LINE
  5
219B
  8
4
  6
CONTINUOUS
 10
50.634622013390072
 20
40.3623460467559
 30
0
 11
50.763220763390073
 21
40.3623460467559
 31
0
  0
LINE
  5
219C
  8
4
  6
CONTINUOUS
 10
50.634622013390072
 20
40.349942617936982
 30
0
 11
50.763220763390073
 21
40.349942617936982
 31
0
  0
LINE
  5
219D
  8
4
  6
CONTINUOUS
 10
50.634622013390072
 20
40.337539189117351
 30
0
 11
50.763220763390073
 21
40.337539189117351
 31
0
  0
LINE
  5
219E
  8
4
  6
CONTINUOUS
 10
50.634622013390072
 20
40.325135760297748
 30
0
 11
50.763220763390073
 21
40.325135760297748
 31
0
  0
LINE
  5
219F
  8
4
  6
CONTINUOUS
 10
50.634622013390072
 20
40.312732331478131
 30
0
 11
50.763220763390073
 21
40.312732331478131
 31
0
  0
LINE
  5
21A0
  8
4
  6
CONTINUOUS
 10
50.634622013390072
 20
40.300328902659089
 30
0
 11
50.763220763390073
 21
40.300328902659089
 31
0
  0
LINE
  5
21A1
  8
4
  6
CONTINUOUS
 10
50.39970627314716
 20
40.0770671839093
 30
0
 11
50.582849101921887
 21
40.0770671839093
 31
0
  0
LINE
  5
21A2
  8
4
  6
CONTINUOUS
 10
50.337995950594561
 20
40.089470612728327
 30
0
 11
50.622653104458152
 21
40.089470612728327
 31
0
  0
LINE
  5
21A3
  8
4
  6
CONTINUOUS
 10
50.5897907845698
 20
40.2135049009232
 30
0
 11
50.7496965904431
 21
40.2135049009232
 31
0
  0
LINE
  5
21A4
  8
4
  6
CONTINUOUS
 10
50.608353827617762
 20
40.225908329742133
 30
0
 11
50.75196960313334
 21
40.225908329742133
 31
0
  0
LINE
  5
21A5
  8
4
  6
CONTINUOUS
 10
50.617282373836133
 20
40.238311758561721
 30
0
 11
50.754242615823571
 21
40.238311758561721
 31
0
  0
LINE
  5
21A6
  8
4
  6
CONTINUOUS
 10
50.625570080010249
 20
40.250715187381317
 30
0
 11
50.756515628513881
 21
40.250715187381317
 31
0
  0
LINE
  5
21A7
  8
4
  6
CONTINUOUS
 10
50.629811256515517
 20
40.263118616200387
 30
0
 11
50.75878864120412
 21
40.263118616200387
 31
0
  0
LINE
  5
21A8
  8
4
  6
CONTINUOUS
 10
50.632278451905613
 20
40.275522045019848
 30
0
 11
50.761061653894288
 21
40.275522045019848
 31
0
  0
LINE
  5
21A9
  8
4
  6
CONTINUOUS
 10
50.634622013390072
 20
40.287925473839479
 30
0
 11
50.763220763390073
 21
40.287925473839479
 31
0
  0
LINE
  5
21AA
  8
4
  6
CONTINUOUS
 10
51.805336249829253
 20
40.769520428128331
 30
0
 11
51.949994859677751
 21
40.769520428128331
 31
0
  0
LINE
  5
21AB
  8
4
  6
CONTINUOUS
 10
51.778219722359069
 20
40.757116999309268
 30
0
 11
51.977111387147779
 21
40.757116999309268
 31
0
  0
LINE
  5
21AC
  8
4
  6
CONTINUOUS
 10
51.7511031948889
 20
40.744713570489651
 30
0
 11
52.004227914618028
 21
40.744713570489651
 31
0
  0
LINE
  5
21AD
  8
4
  6
CONTINUOUS
 10
51.723986667418757
 20
40.732310141670752
 30
0
 11
52.031344442088169
 21
40.732310141670752
 31
0
  0
LINE
  5
21AE
  8
4
  6
CONTINUOUS
 10
51.697313298115361
 20
40.719906712851127
 30
0
 11
52.057992848900419
 21
40.719906712851127
 31
0
  0
LINE
  5
21AF
  8
4
  6
CONTINUOUS
 10
51.686067701948872
 20
40.707503284031517
 30
0
 11
52.06834445729433
 21
40.707503284031517
 31
0
  0
LINE
  5
21B0
  8
4
  6
CONTINUOUS
 10
51.799385139558808
 20
40.062524985420673
 30
0
 11
51.955945969948161
 21
40.062524985420673
 31
0
  0
LINE
  5
21B1
  8
4
  6
CONTINUOUS
 10
51.770492118300069
 20
40.074928414239743
 30
0
 11
51.984838991206942
 21
40.074928414239743
 31
0
  0
LINE
  5
21B2
  8
4
  6
CONTINUOUS
 10
51.7415990970413
 20
40.08733184305936
 30
0
 11
52.0137320124656
 21
40.08733184305936
 31
0
  0
LINE
  5
21B3
  8
4
  6
CONTINUOUS
 10
51.712706075782563
 20
40.09973527187897
 30
0
 11
52.042625033724462
 21
40.09973527187897
 31
0
  0
LINE
  5
21B4
  8
4
  6
CONTINUOUS
 10
51.68381305452381
 20
40.1121387006979
 30
0
 11
52.07151805498313
 21
40.1121387006979
 31
0
  0
LINE
  5
21B5
  8
4
  6
CONTINUOUS
 10
51.620374945096529
 20
40.186559273614982
 30
0
 11
51.836614347541072
 21
40.186559273614982
 31
0
  0
LINE
  5
21B6
  8
4
  6
CONTINUOUS
 10
51.617049759939022
 20
40.198962702434592
 30
0
 11
51.796017737793157
 21
40.198962702434592
 31
0
  0
LINE
  5
21B7
  8
4
  6
CONTINUOUS
 10
51.613724574781621
 20
40.211366131253513
 30
0
 11
51.767144479289009
 21
40.211366131253513
 31
0
  0
LINE
  5
21B8
  8
4
  6
CONTINUOUS
 10
51.6103993896241
 20
40.223769560073109
 30
0
 11
51.750030720615783
 21
40.223769560073109
 31
0
  0
LINE
  5
21B9
  8
4
  6
CONTINUOUS
 10
51.607074204466663
 20
40.236172988892733
 30
0
 11
51.738382722576858
 21
40.236172988892733
 31
0
  0
LINE
  5
21BA
  8
4
  6
CONTINUOUS
 10
51.603749019309213
 20
40.248576417711767
 30
0
 11
51.732814471625957
 21
40.248576417711767
 31
0
  0
LINE
  5
21BB
  8
4
  6
CONTINUOUS
 10
51.600423834151663
 20
40.2609798465314
 30
0
 11
51.72867409452202
 21
40.2609798465314
 31
0
  0
LINE
  5
21BC
  8
4
  6
CONTINUOUS
 10
51.676797719669061
 20
40.434627850003992
 30
0
 11
52.063132419386619
 21
40.434627850003992
 31
0
  0
LINE
  5
21BD
  8
4
  6
CONTINUOUS
 10
51.664278159637917
 20
40.447031278823587
 30
0
 11
52.033961813372947
 21
40.447031278823587
 31
0
  0
LINE
  5
21BE
  8
4
  6
CONTINUOUS
 10
51.653083476437388
 20
40.459434707642522
 30
0
 11
52.004791207359219
 21
40.459434707642522
 31
0
  0
LINE
  5
21BF
  8
4
  6
CONTINUOUS
 10
51.647715787592389
 20
40.471838136462132
 30
0
 11
51.947627867363252
 21
40.471838136462132
 31
0
  0
LINE
  5
21C0
  8
4
  6
CONTINUOUS
 10
51.642348098747412
 20
40.484241565281742
 30
0
 11
51.888942001284981
 21
40.484241565281742
 31
0
  0
LINE
  5
21C1
  8
4
  6
CONTINUOUS
 10
51.6369804099025
 20
40.4966449941008
 30
0
 11
51.830256135206689
 21
40.4966449941008
 31
0
  0
LINE
  5
21C2
  8
4
  6
CONTINUOUS
 10
51.631612721057351
 20
40.509048422920259
 30
0
 11
51.7854081267653
 21
40.509048422920259
 31
0
  0
LINE
  5
21C3
  8
4
  6
CONTINUOUS
 10
51.626245032212381
 20
40.52145185173984
 30
0
 11
51.768344805013761
 21
40.52145185173984
 31
0
  0
LINE
  5
21C4
  8
4
  6
CONTINUOUS
 10
51.624760847616812
 20
40.533855280558932
 30
0
 11
51.758654090549612
 21
40.533855280558932
 31
0
  0
LINE
  5
21C5
  8
4
  6
CONTINUOUS
 10
51.624428483293279
 20
40.546258709378542
 30
0
 11
51.752587075624483
 21
40.546258709378542
 31
0
  0
LINE
  5
21C6
  8
4
  6
CONTINUOUS
 10
51.624096118969682
 20
40.558662138198159
 30
0
 11
51.750525382680962
 21
40.558662138198159
 31
0
  0
LINE
  5
21C7
  8
4
  6
CONTINUOUS
 10
51.623763754645978
 20
40.57106556701774
 30
0
 11
51.749382445715561
 21
40.57106556701774
 31
0
  0
LINE
  5
21C8
  8
4
  6
CONTINUOUS
 10
51.623431390322438
 20
40.583468995837372
 30
0
 11
51.752599397818187
 21
40.583468995837372
 31
0
  0
LINE
  5
21C9
  8
4
  6
CONTINUOUS
 10
51.623099025998812
 20
40.595872424656292
 30
0
 11
51.756878232145887
 21
40.595872424656292
 31
0
  0
LINE
  5
21CA
  8
4
  6
CONTINUOUS
 10
51.62707462778085
 20
40.6082758534759
 30
0
 11
51.76600144397397
 21
40.6082758534759
 31
0
  0
LINE
  5
21CB
  8
4
  6
CONTINUOUS
 10
51.631670445096759
 20
40.620679282295491
 30
0
 11
51.781373646650422
 21
40.620679282295491
 31
0
  0
LINE
  5
21CC
  8
4
  6
CONTINUOUS
 10
51.63626626241274
 20
40.633082711114561
 30
0
 11
51.806092788597653
 21
40.633082711114561
 31
0
  0
LINE
  5
21CD
  8
4
  6
CONTINUOUS
 10
51.640862079728549
 20
40.645486139934171
 30
0
 11
51.836687652947852
 21
40.645486139934171
 31
0
  0
LINE
  5
21CE
  8
4
  6
CONTINUOUS
 10
51.427647638390113
 20
40.751948681099492
 30
0
 11
51.556246388390178
 21
40.751948681099492
 31
0
  0
LINE
  5
21CF
  8
4
  6
CONTINUOUS
 10
51.427647638390113
 20
40.739545252279882
 30
0
 11
51.556246388390178
 21
40.739545252279882
 31
0
  0
LINE
  5
21D0
  8
4
  6
CONTINUOUS
 10
51.427647638390113
 20
40.727141823460947
 30
0
 11
51.556246388390178
 21
40.727141823460947
 31
0
  0
LINE
  5
21D1
  8
4
  6
CONTINUOUS
 10
51.427647638390113
 20
40.714738394641351
 30
0
 11
51.556246388390178
 21
40.714738394641351
 31
0
  0
LINE
  5
21D2
  8
4
  6
CONTINUOUS
 10
51.427647638390113
 20
40.702334965821748
 30
0
 11
51.556246388390178
 21
40.702334965821748
 31
0
  0
LINE
  5
21D3
  8
4
  6
CONTINUOUS
 10
51.427647638390113
 20
40.689931537002131
 30
0
 11
51.556246388390178
 21
40.689931537002131
 31
0
  0
LINE
  5
21D4
  8
4
  6
CONTINUOUS
 10
51.427647638390113
 20
40.677528108183083
 30
0
 11
51.556246388390178
 21
40.677528108183083
 31
0
  0
LINE
  5
21D5
  8
4
  6
CONTINUOUS
 10
51.427647638390113
 20
40.082163524849562
 30
0
 11
51.556246388390178
 21
40.082163524849562
 31
0
  0
LINE
  5
21D6
  8
4
  6
CONTINUOUS
 10
51.427647638390113
 20
40.094566953669172
 30
0
 11
51.556246388390178
 21
40.094566953669172
 31
0
  0
LINE
  5
21D7
  8
4
  6
CONTINUOUS
 10
51.427647638390113
 20
40.106970382488093
 30
0
 11
51.556246388390178
 21
40.106970382488093
 31
0
  0
LINE
  5
21D8
  8
4
  6
CONTINUOUS
 10
51.427647638390113
 20
40.11937381130771
 30
0
 11
51.556246388390178
 21
40.11937381130771
 31
0
  0
LINE
  5
21D9
  8
4
  6
CONTINUOUS
 10
51.427647638390113
 20
40.131777240127327
 30
0
 11
51.556246388390178
 21
40.131777240127327
 31
0
  0
LINE
  5
21DA
  8
4
  6
CONTINUOUS
 10
51.427647638390113
 20
40.144180668946383
 30
0
 11
51.556246388390178
 21
40.144180668946383
 31
0
  0
LINE
  5
21DB
  8
4
  6
CONTINUOUS
 10
51.427647638390113
 20
40.156584097766
 30
0
 11
51.556246388390178
 21
40.156584097766
 31
0
  0
LINE
  5
21DC
  8
4
  6
CONTINUOUS
 10
51.427647638390113
 20
40.1689875265856
 30
0
 11
51.556246388390178
 21
40.1689875265856
 31
0
  0
LINE
  5
21DD
  8
4
  6
CONTINUOUS
 10
51.427647638390113
 20
40.181390955405043
 30
0
 11
51.556246388390178
 21
40.181390955405043
 31
0
  0
LINE
  5
21DE
  8
4
  6
CONTINUOUS
 10
51.427647638390113
 20
40.19379438422466
 30
0
 11
51.556246388390178
 21
40.19379438422466
 31
0
  0
LINE
  5
21DF
  8
4
  6
CONTINUOUS
 10
51.427647638390113
 20
40.20619781304373
 30
0
 11
51.556246388390178
 21
40.20619781304373
 31
0
  0
LINE
  5
21E0
  8
4
  6
CONTINUOUS
 10
51.427647638390113
 20
40.218601241863347
 30
0
 11
51.556246388390178
 21
40.218601241863347
 31
0
  0
LINE
  5
21E1
  8
4
  6
CONTINUOUS
 10
51.427647638390113
 20
40.23100467068295
 30
0
 11
51.556246388390178
 21
40.23100467068295
 31
0
  0
LINE
  5
21E2
  8
4
  6
CONTINUOUS
 10
51.427647638390113
 20
40.243408099501877
 30
0
 11
51.556246388390178
 21
40.243408099501877
 31
0
  0
LINE
  5
21E3
  8
4
  6
CONTINUOUS
 10
51.427647638390113
 20
40.255811528321459
 30
0
 11
51.556246388390178
 21
40.255811528321459
 31
0
  0
LINE
  5
21E4
  8
4
  6
CONTINUOUS
 10
51.427647638390113
 20
40.26821495714109
 30
0
 11
51.556246388390178
 21
40.26821495714109
 31
0
  0
LINE
  5
21E5
  8
4
  6
CONTINUOUS
 10
51.427647638390113
 20
40.280618385960693
 30
0
 11
51.556246388390178
 21
40.280618385960693
 31
0
  0
LINE
  5
21E6
  8
4
  6
CONTINUOUS
 10
51.427647638390113
 20
40.29302181478031
 30
0
 11
51.556246388390178
 21
40.29302181478031
 31
0
  0
LINE
  5
21E7
  8
4
  6
CONTINUOUS
 10
51.427647638390113
 20
40.305425243599359
 30
0
 11
51.556246388390178
 21
40.305425243599359
 31
0
  0
LINE
  5
21E8
  8
4
  6
CONTINUOUS
 10
51.427647638390113
 20
40.317828672418962
 30
0
 11
51.556246388390178
 21
40.317828672418962
 31
0
  0
LINE
  5
21E9
  8
4
  6
CONTINUOUS
 10
51.427647638390113
 20
40.330232101238572
 30
0
 11
51.556246388390178
 21
40.330232101238572
 31
0
  0
LINE
  5
21EA
  8
4
  6
CONTINUOUS
 10
51.427647638390113
 20
40.342635530058189
 30
0
 11
51.556246388390178
 21
40.342635530058189
 31
0
  0
LINE
  5
21EB
  8
4
  6
CONTINUOUS
 10
51.427647638390113
 20
40.3550389588771
 30
0
 11
51.556246388390178
 21
40.3550389588771
 31
0
  0
LINE
  5
21EC
  8
4
  6
CONTINUOUS
 10
51.427647638390113
 20
40.367442387696727
 30
0
 11
51.556246388390178
 21
40.367442387696727
 31
0
  0
LINE
  5
21ED
  8
4
  6
CONTINUOUS
 10
51.427647638390113
 20
40.379845816516337
 30
0
 11
51.556246388390178
 21
40.379845816516337
 31
0
  0
LINE
  5
21EE
  8
4
  6
CONTINUOUS
 10
51.427647638390113
 20
40.392249245335393
 30
0
 11
51.556246388390178
 21
40.392249245335393
 31
0
  0
LINE
  5
21EF
  8
4
  6
CONTINUOUS
 10
51.427647638390113
 20
40.404652674155
 30
0
 11
51.556246388390178
 21
40.404652674155
 31
0
  0
LINE
  5
21F0
  8
4
  6
CONTINUOUS
 10
51.427647638390113
 20
40.41705610297447
 30
0
 11
51.556246388390178
 21
40.41705610297447
 31
0
  0
LINE
  5
21F1
  8
4
  6
CONTINUOUS
 10
51.427647638390113
 20
40.429459531794073
 30
0
 11
51.556246388390178
 21
40.429459531794073
 31
0
  0
LINE
  5
21F2
  8
4
  6
CONTINUOUS
 10
51.427647638390113
 20
40.441862960613129
 30
0
 11
51.556246388390178
 21
40.441862960613129
 31
0
  0
LINE
  5
21F3
  8
4
  6
CONTINUOUS
 10
51.427647638390113
 20
40.454266389432753
 30
0
 11
51.556246388390178
 21
40.454266389432753
 31
0
  0
LINE
  5
21F4
  8
4
  6
CONTINUOUS
 10
51.427647638390113
 20
40.466669818252328
 30
0
 11
51.556246388390178
 21
40.466669818252328
 31
0
  0
LINE
  5
21F5
  8
4
  6
CONTINUOUS
 10
51.427647638390113
 20
40.479073247071277
 30
0
 11
51.556246388390178
 21
40.479073247071277
 31
0
  0
LINE
  5
21F6
  8
4
  6
CONTINUOUS
 10
51.427647638390113
 20
40.49147667589088
 30
0
 11
51.556246388390178
 21
40.49147667589088
 31
0
  0
LINE
  5
21F7
  8
4
  6
CONTINUOUS
 10
51.427647638390113
 20
40.503880104710468
 30
0
 11
51.556246388390178
 21
40.503880104710468
 31
0
  0
LINE
  5
21F8
  8
4
  6
CONTINUOUS
 10
51.427647638390113
 20
40.516283533530093
 30
0
 11
51.556246388390178
 21
40.516283533530093
 31
0
  0
LINE
  5
21F9
  8
4
  6
CONTINUOUS
 10
51.427647638390113
 20
40.528686962349163
 30
0
 11
51.556246388390178
 21
40.528686962349163
 31
0
  0
LINE
  5
21FA
  8
4
  6
CONTINUOUS
 10
51.427647638390113
 20
40.541090391168758
 30
0
 11
51.556246388390178
 21
40.541090391168758
 31
0
  0
LINE
  5
21FB
  8
4
  6
CONTINUOUS
 10
51.427647638390113
 20
40.553493819988361
 30
0
 11
51.556246388390178
 21
40.553493819988361
 31
0
  0
LINE
  5
21FC
  8
4
  6
CONTINUOUS
 10
51.427647638390113
 20
40.565897248807957
 30
0
 11
51.556246388390178
 21
40.565897248807957
 31
0
  0
LINE
  5
21FD
  8
4
  6
CONTINUOUS
 10
51.427647638390113
 20
40.578300677627588
 30
0
 11
51.556246388390178
 21
40.578300677627588
 31
0
  0
LINE
  5
21FE
  8
4
  6
CONTINUOUS
 10
51.427647638390113
 20
40.590704106446488
 30
0
 11
51.556246388390178
 21
40.590704106446488
 31
0
  0
LINE
  5
21FF
  8
4
  6
CONTINUOUS
 10
51.427647638390113
 20
40.603107535266119
 30
0
 11
51.556246388390178
 21
40.603107535266119
 31
0
  0
LINE
  5
2200
  8
4
  6
CONTINUOUS
 10
51.427647638390113
 20
40.615510964085729
 30
0
 11
51.556246388390178
 21
40.615510964085729
 31
0
  0
LINE
  5
2201
  8
4
  6
CONTINUOUS
 10
51.427647638390113
 20
40.627914392904771
 30
0
 11
51.556246388390178
 21
40.627914392904771
 31
0
  0
LINE
  5
2202
  8
4
  6
CONTINUOUS
 10
51.427647638390113
 20
40.640317821724373
 30
0
 11
51.556246388390178
 21
40.640317821724373
 31
0
  0
LINE
  5
2203
  8
4
  6
CONTINUOUS
 10
51.427647638390113
 20
40.652721250543991
 30
0
 11
51.556246388390178
 21
40.652721250543991
 31
0
  0
LINE
  5
2204
  8
4
  6
CONTINUOUS
 10
51.427647638390113
 20
40.665124679363473
 30
0
 11
51.556246388390178
 21
40.665124679363473
 31
0
  0
LINE
  5
2205
  8
4
  6
CONTINUOUS
 10
52.003286460038566
 20
40.46007453069857
 30
0
 11
51.800070044658348
 21
40.503024912307367
 31
0
  0
ARC
  5
2206
  8
4
  6
CONTINUOUS
 10
51.81336617975343
 20
40.565934549223329
 30
0
 40
0.0642993749999826
 50
126.86989764586798
 51
258.06599892294662
  0
ARC
  5
2207
  8
4
  6
CONTINUOUS
 10
51.877665554753449
 20
40.480202049223372
 30
0
 40
0.17146500000004861
 50
53.130102354164492
 51
126.86989764583539
  0
ARC
  5
2208
  8
4
  6
CONTINUOUS
 10
51.941964929753453
 20
40.565934549223329
 30
0
 40
0.0642993749999958
 50
0
 51
53.130102354131942
  0
LINE
  5
2209
  8
4
  6
CONTINUOUS
 10
51.556246388390178
 20
40.758832674223363
 30
0
 11
51.427647638390113
 21
40.758832674223363
 31
0
  0
ARC
  5
220A
  8
4
  6
CONTINUOUS
 10
51.877665554753449
 20
40.480202049223372
 30
0
 40
0.30006375000001317
 50
53.130102354150289
 51
126.86989764584972
  0
ARC
  5
220B
  8
4
  6
CONTINUOUS
 10
51.877665554753449
 20
40.3944695492233
 30
0
 40
0.21433124999999581
 50
235.1500954209566
 51
304.8499045790432
  0
ARC
  5
220C
  8
4
  6
CONTINUOUS
 10
51.963398054753462
 20
40.271345619949919
 30
0
 40
0.064299375000039
 50
304.84990457898772
 51
78.065998922946676
  0
LINE
  5
220D
  8
4
  6
CONTINUOUS
 10
51.9766941898485
 20
40.334255256866
 30
0
 11
51.77347777446829
 21
40.37720563847467
 31
0
  0
LINE
  5
220E
  8
4
  6
CONTINUOUS
 10
51.556246388390178
 20
40.072972674223372
 30
0
 11
51.427647638390113
 21
40.072972674223372
 31
0
  0
ARC
  5
220F
  8
4
  6
CONTINUOUS
 10
51.791933054753457
 20
40.271345619949919
 30
0
 40
0.19289812500000661
 50
181.62638309912961
 51
235.15009542094879
  0
ARC
  5
2210
  8
4
  6
CONTINUOUS
 10
51.877665554753449
 20
40.3944695492233
 30
0
 40
0.34293000000000062
 50
235.15009542095467
 51
304.84990457904524
  0
ARC
  5
2211
  8
4
  6
CONTINUOUS
 10
51.791933054753457
 20
40.271345619949919
 30
0
 40
0.0642993749999886
 50
184.88440809697511
 51
235.15009542096246
  0
LINE
  5
2212
  8
4
  6
CONTINUOUS
 10
51.5991126383902
 20
40.2658707992233
 30
0
 11
51.7278671826888
 21
40.2658707992233
 31
0
  0
LINE
  5
2213
  8
4
  6
CONTINUOUS
 10
51.427647638390113
 20
40.072972674223372
 30
0
 11
51.427647638390113
 21
40.758832674223363
 31
0
  0
LINE
  5
2214
  8
4
  6
CONTINUOUS
 10
51.556246388390178
 20
40.758832674223363
 30
0
 11
51.556246388390178
 21
40.072972674223372
 31
0
  0
ARC
  5
2215
  8
4
  6
CONTINUOUS
 10
51.81336617975343
 20
40.565934549223329
 30
0
 40
0.192898125000015
 50
126.86989764582729
 51
258.06599892291831
  0
LINE
  5
2216
  8
4
  6
CONTINUOUS
 10
50.956118888390122
 20
40.651667049223292
 30
0
 11
50.956118888390122
 21
40.480202049223372
 31
0
  0
LINE
  5
2217
  8
4
  6
CONTINUOUS
 10
50.827520138390113
 20
40.758832674223363
 30
0
 11
51.1704501383901
 21
40.758832674223363
 31
0
  0
LINE
  5
2218
  8
4
  6
CONTINUOUS
 10
50.956118888390122
 20
40.651667049223292
 30
0
 11
51.1704501383901
 21
40.651667049223292
 31
0
  0
LINE
  5
2219
  8
4
  6
CONTINUOUS
 10
50.956118888390122
 20
40.480202049223372
 30
0
 11
51.1704501383901
 21
40.480202049223372
 31
0
  0
LINE
  5
221A
  8
4
  6
CONTINUOUS
 10
50.634622013390072
 20
40.758832674223363
 30
0
 11
50.763220763390073
 21
40.758832674223363
 31
0
  0
LINE
  5
221B
  8
4
  6
CONTINUOUS
 10
50.827520138390113
 20
40.072972674223372
 30
0
 11
51.181166700890117
 21
40.072972674223372
 31
0
  0
LINE
  5
221C
  8
4
  6
CONTINUOUS
 10
50.956118888390122
 20
40.180138299223358
 30
0
 11
51.181166700890117
 21
40.180138299223358
 31
0
  0
LINE
  5
221D
  8
4
  6
CONTINUOUS
 10
50.956118888390122
 20
40.37303642422328
 30
0
 11
51.181166700890117
 21
40.37303642422328
 31
0
  0
LINE
  5
221E
  8
4
  6
CONTINUOUS
 10
50.956118888390122
 20
40.37303642422328
 30
0
 11
50.956118888390122
 21
40.180138299223358
 31
0
  0
LINE
  5
221F
  8
4
  6
CONTINUOUS
 10
50.548889513390037
 20
40.072972674223372
 30
0
 11
50.420290763390021
 21
40.072972674223372
 31
0
  0
LINE
  5
2220
  8
4
  6
CONTINUOUS
 10
50.420290763390021
 20
40.201571424223367
 30
0
 11
50.548889513390037
 21
40.201571424223367
 31
0
  0
ARC
  5
2221
  8
4
  6
CONTINUOUS
 10
50.548889513390037
 20
40.287303924223338
 30
0
 40
0.085732499999949
 50
270
 51
0
  0
ARC
  5
2222
  8
4
  6
CONTINUOUS
 10
50.548889513390037
 20
40.287303924223338
 30
0
 40
0.21433124999994119
 50
270
 51
0
  0
LINE
  5
2223
  8
4
  6
CONTINUOUS
 10
50.763220763390073
 20
40.758832674223363
 30
0
 11
50.763220763390073
 21
40.287303924223338
 31
0
  0
LINE
  5
2224
  8
4
  6
CONTINUOUS
 10
50.334558263390178
 20
40.758832674223363
 30
0
 11
50.334558263390178
 21
40.287303924223338
 31
0
  0
LINE
  5
2225
  8
4
  6
CONTINUOUS
 10
50.634622013390072
 20
40.287303924223338
 30
0
 11
50.634622013390072
 21
40.758832674223363
 31
0
  0
LINE
  5
2226
  8
4
  6
CONTINUOUS
 10
50.827520138390113
 20
40.758832674223363
 30
0
 11
50.827520138390113
 21
40.072972674223372
 31
0
  0
LINE
  5
2227
  8
4
  6
CONTINUOUS
 10
51.310800329908332
 20
40.433603485714933
 30
0
 11
50.827520138390113
 21
40.433603485714933
 31
0
  0
ARC
  5
2228
  8
4
  6
CONTINUOUS
 10
51.181166700890117
 20
40.276587361723287
 30
0
 40
0.20361468750006659
 50
270
 51
50.456677189347218
  0
ARC
  5
2229
  8
4
  6
CONTINUOUS
 10
51.1704501383901
 20
40.565934549223329
 30
0
 40
0.192898124999982
 50
316.68449350429609
 51
90
  0
ARC
  5
222A
  8
4
  6
CONTINUOUS
 10
51.1704501383901
 20
40.565934549223329
 30
0
 40
0.085732499999949
 50
270
 51
90
  0
ARC
  5
222B
  8
4
  6
CONTINUOUS
 10
51.181166700890117
 20
40.276587361723287
 30
0
 40
0.0964490624999598
 50
270
 51
90
  0
LINE
  5
222C
  8
4
  6
CONTINUOUS
 10
52.820723054753458
 20
40.750557610515152
 30
0
 11
52.949321804753559
 21
40.750557610515152
 31
0
  0
LINE
  5
222D
  8
4
  6
CONTINUOUS
 10
52.820723054753458
 20
40.738154181695528
 30
0
 11
52.949321804753559
 21
40.738154181695528
 31
0
  0
LINE
  5
222E
  8
4
  6
CONTINUOUS
 10
52.820723054753458
 20
40.725750752875918
 30
0
 11
52.949321804753559
 21
40.725750752875918
 31
0
  0
LINE
  5
222F
  8
4
  6
CONTINUOUS
 10
52.820723054753458
 20
40.713347324056869
 30
0
 11
52.949321804753559
 21
40.713347324056869
 31
0
  0
LINE
  5
2230
  8
4
  6
CONTINUOUS
 10
52.820723054753458
 20
40.7009438952374
 30
0
 11
52.949321804753559
 21
40.7009438952374
 31
0
  0
LINE
  5
2231
  8
4
  6
CONTINUOUS
 10
52.820723054753458
 20
40.688540466417791
 30
0
 11
52.949321804753559
 21
40.688540466417791
 31
0
  0
LINE
  5
2232
  8
4
  6
CONTINUOUS
 10
52.820723054753458
 20
40.676137037598167
 30
0
 11
52.949321804753559
 21
40.676137037598167
 31
0
  0
LINE
  5
2233
  8
4
  6
CONTINUOUS
 10
52.820723054753458
 20
40.663733608779118
 30
0
 11
52.949321804753559
 21
40.663733608779118
 31
0
  0
LINE
  5
2234
  8
4
  6
CONTINUOUS
 10
52.820723054753458
 20
40.6513301799595
 30
0
 11
52.949321804753559
 21
40.6513301799595
 31
0
  0
LINE
  5
2235
  8
4
  6
CONTINUOUS
 10
52.820723054753458
 20
40.63892675113992
 30
0
 11
52.949321804753559
 21
40.63892675113992
 31
0
  0
LINE
  5
2236
  8
4
  6
CONTINUOUS
 10
52.820723054753458
 20
40.626523322320317
 30
0
 11
52.949321804753559
 21
40.626523322320317
 31
0
  0
LINE
  5
2237
  8
4
  6
CONTINUOUS
 10
52.820723054753458
 20
40.614119893501361
 30
0
 11
52.949321804753559
 21
40.614119893501361
 31
0
  0
LINE
  5
2238
  8
4
  6
CONTINUOUS
 10
52.820723054753458
 20
40.601716464681772
 30
0
 11
52.949321804753559
 21
40.601716464681772
 31
0
  0
LINE
  5
2239
  8
4
  6
CONTINUOUS
 10
52.820723054753458
 20
40.589313035862162
 30
0
 11
52.949321804753559
 21
40.589313035862162
 31
0
  0
LINE
  5
223A
  8
4
  6
CONTINUOUS
 10
52.820723054753458
 20
40.576909607042531
 30
0
 11
52.949321804753559
 21
40.576909607042531
 31
0
  0
LINE
  5
223B
  8
4
  6
CONTINUOUS
 10
52.820723054753458
 20
40.564506178223468
 30
0
 11
52.949321804753559
 21
40.564506178223468
 31
0
  0
LINE
  5
223C
  8
4
  6
CONTINUOUS
 10
52.820723054753458
 20
40.552102749403879
 30
0
 11
52.949321804753559
 21
40.552102749403879
 31
0
  0
LINE
  5
223D
  8
4
  6
CONTINUOUS
 10
52.820723054753458
 20
40.53969932058429
 30
0
 11
52.949321804753559
 21
40.53969932058429
 31
0
  0
LINE
  5
223E
  8
4
  6
CONTINUOUS
 10
52.820723054753458
 20
40.527295891764673
 30
0
 11
52.949321804753559
 21
40.527295891764673
 31
0
  0
LINE
  5
223F
  8
4
  6
CONTINUOUS
 10
52.820723054753458
 20
40.514892462945753
 30
0
 11
52.949321804753559
 21
40.514892462945753
 31
0
  0
LINE
  5
2240
  8
4
  6
CONTINUOUS
 10
52.820723054753458
 20
40.502489034126143
 30
0
 11
52.949321804753559
 21
40.502489034126143
 31
0
  0
LINE
  5
2241
  8
4
  6
CONTINUOUS
 10
52.820723054753458
 20
40.490085605306533
 30
0
 11
52.949321804753559
 21
40.490085605306533
 31
0
  0
LINE
  5
2242
  8
4
  6
CONTINUOUS
 10
52.820723054753458
 20
40.47768217648747
 30
0
 11
52.949321804753559
 21
40.47768217648747
 31
0
  0
LINE
  5
2243
  8
4
  6
CONTINUOUS
 10
52.820723054753458
 20
40.465278747668009
 30
0
 11
52.949321804753559
 21
40.465278747668009
 31
0
  0
LINE
  5
2244
  8
4
  6
CONTINUOUS
 10
52.820723054753458
 20
40.4528753188484
 30
0
 11
52.949321804753559
 21
40.4528753188484
 31
0
  0
LINE
  5
2245
  8
4
  6
CONTINUOUS
 10
52.820723054753458
 20
40.440471890028789
 30
0
 11
52.949321804753559
 21
40.440471890028789
 31
0
  0
LINE
  5
2246
  8
4
  6
CONTINUOUS
 10
52.820723054753458
 20
40.428068461209719
 30
0
 11
52.949321804753559
 21
40.428068461209719
 31
0
  0
LINE
  5
2247
  8
4
  6
CONTINUOUS
 10
52.820723054753458
 20
40.4156650323901
 30
0
 11
52.949321804753559
 21
40.4156650323901
 31
0
  0
LINE
  5
2248
  8
4
  6
CONTINUOUS
 10
52.820723054753458
 20
40.403261603570492
 30
0
 11
52.949321804753559
 21
40.403261603570492
 31
0
  0
LINE
  5
2249
  8
4
  6
CONTINUOUS
 10
52.820723054753458
 20
40.3908581747509
 30
0
 11
52.949321804753559
 21
40.3908581747509
 31
0
  0
LINE
  5
224A
  8
4
  6
CONTINUOUS
 10
52.820723054753458
 20
40.378454745931293
 30
0
 11
52.949321804753559
 21
40.378454745931293
 31
0
  0
LINE
  5
224B
  8
4
  6
CONTINUOUS
 10
52.820723054753458
 20
40.366051317112387
 30
0
 11
52.949321804753559
 21
40.366051317112387
 31
0
  0
LINE
  5
224C
  8
4
  6
CONTINUOUS
 10
52.820723054753458
 20
40.353647888292763
 30
0
 11
52.949321804753559
 21
40.353647888292763
 31
0
  0
LINE
  5
224D
  8
4
  6
CONTINUOUS
 10
52.820723054753458
 20
40.3412444594737
 30
0
 11
52.949321804753559
 21
40.3412444594737
 31
0
  0
LINE
  5
224E
  8
4
  6
CONTINUOUS
 10
52.820723054753458
 20
40.328841030654068
 30
0
 11
52.949321804753559
 21
40.328841030654068
 31
0
  0
LINE
  5
224F
  8
4
  6
CONTINUOUS
 10
52.820723054753458
 20
40.31643760183448
 30
0
 11
52.949321804753559
 21
40.31643760183448
 31
0
  0
LINE
  5
2250
  8
4
  6
CONTINUOUS
 10
52.820723054753458
 20
40.304034173014877
 30
0
 11
52.949321804753559
 21
40.304034173014877
 31
0
  0
LINE
  5
2251
  8
4
  6
CONTINUOUS
 10
52.820723054753458
 20
40.080772454265087
 30
0
 11
52.949321804753559
 21
40.080772454265087
 31
0
  0
LINE
  5
2252
  8
4
  6
CONTINUOUS
 10
52.820723054753458
 20
40.093175883084669
 30
0
 11
52.949321804753559
 21
40.093175883084669
 31
0
  0
LINE
  5
2253
  8
4
  6
CONTINUOUS
 10
52.820723054753458
 20
40.105579311903732
 30
0
 11
52.949321804753559
 21
40.105579311903732
 31
0
  0
LINE
  5
2254
  8
4
  6
CONTINUOUS
 10
52.820723054753458
 20
40.11798274072337
 30
0
 11
52.949321804753559
 21
40.11798274072337
 31
0
  0
LINE
  5
2255
  8
4
  6
CONTINUOUS
 10
52.820723054753458
 20
40.130386169542973
 30
0
 11
52.949321804753559
 21
40.130386169542973
 31
0
  0
LINE
  5
2256
  8
4
  6
CONTINUOUS
 10
52.820723054753458
 20
40.1427895983619
 30
0
 11
52.949321804753559
 21
40.1427895983619
 31
0
  0
LINE
  5
2257
  8
4
  6
CONTINUOUS
 10
52.820723054753458
 20
40.15519302718149
 30
0
 11
52.949321804753559
 21
40.15519302718149
 31
0
  0
LINE
  5
2258
  8
4
  6
CONTINUOUS
 10
52.820723054753458
 20
40.167596456001093
 30
0
 11
52.949321804753559
 21
40.167596456001093
 31
0
  0
LINE
  5
2259
  8
4
  6
CONTINUOUS
 10
52.820723054753458
 20
40.1799998848207
 30
0
 11
52.949321804753559
 21
40.1799998848207
 31
0
  0
LINE
  5
225A
  8
4
  6
CONTINUOUS
 10
52.820723054753458
 20
40.192403313639772
 30
0
 11
52.949321804753559
 21
40.192403313639772
 31
0
  0
LINE
  5
225B
  8
4
  6
CONTINUOUS
 10
52.820723054753458
 20
40.2048067424594
 30
0
 11
52.949321804753559
 21
40.2048067424594
 31
0
  0
LINE
  5
225C
  8
4
  6
CONTINUOUS
 10
52.820723054753458
 20
40.217210171279
 30
0
 11
52.949321804753559
 21
40.217210171279
 31
0
  0
LINE
  5
225D
  8
4
  6
CONTINUOUS
 10
52.820723054753458
 20
40.22961360009792
 30
0
 11
52.949321804753559
 21
40.22961360009792
 31
0
  0
LINE
  5
225E
  8
4
  6
CONTINUOUS
 10
52.820723054753458
 20
40.24201702891753
 30
0
 11
52.949321804753559
 21
40.24201702891753
 31
0
  0
LINE
  5
225F
  8
4
  6
CONTINUOUS
 10
52.820723054753458
 20
40.25442045773714
 30
0
 11
52.949321804753559
 21
40.25442045773714
 31
0
  0
LINE
  5
2260
  8
4
  6
CONTINUOUS
 10
52.820723054753458
 20
40.266823886556729
 30
0
 11
52.949321804753559
 21
40.266823886556729
 31
0
  0
LINE
  5
2261
  8
4
  6
CONTINUOUS
 10
52.820723054753458
 20
40.279227315376353
 30
0
 11
52.949321804753559
 21
40.279227315376353
 31
0
  0
LINE
  5
2262
  8
4
  6
CONTINUOUS
 10
52.820723054753458
 20
40.291630744195267
 30
0
 11
52.949321804753559
 21
40.291630744195267
 31
0
  0
LINE
  5
2263
  8
4
  6
CONTINUOUS
 10
52.62782492975343
 20
40.755485683802483
 30
0
 11
52.756423679753468
 21
40.755485683802483
 31
0
  0
LINE
  5
2264
  8
4
  6
CONTINUOUS
 10
52.62782492975343
 20
40.743082254983008
 30
0
 11
52.756423679753468
 21
40.743082254983008
 31
0
  0
LINE
  5
2265
  8
4
  6
CONTINUOUS
 10
52.62782492975343
 20
40.730678826163953
 30
0
 11
52.756423679753468
 21
40.730678826163953
 31
0
  0
LINE
  5
2266
  8
4
  6
CONTINUOUS
 10
52.62782492975343
 20
40.718275397344328
 30
0
 11
52.756423679753468
 21
40.718275397344328
 31
0
  0
LINE
  5
2267
  8
4
  6
CONTINUOUS
 10
52.62782492975343
 20
40.705871968524711
 30
0
 11
52.756423679753468
 21
40.705871968524711
 31
0
  0
LINE
  5
2268
  8
4
  6
CONTINUOUS
 10
52.62782492975343
 20
40.693468539705123
 30
0
 11
52.756423679753468
 21
40.693468539705123
 31
0
  0
LINE
  5
2269
  8
4
  6
CONTINUOUS
 10
52.62782492975343
 20
40.681065110886173
 30
0
 11
52.756423679753468
 21
40.681065110886173
 31
0
  0
LINE
  5
226A
  8
4
  6
CONTINUOUS
 10
52.62782492975343
 20
40.668661682066571
 30
0
 11
52.756423679753468
 21
40.668661682066571
 31
0
  0
LINE
  5
226B
  8
4
  6
CONTINUOUS
 10
52.62782492975343
 20
40.656258253246968
 30
0
 11
52.756423679753468
 21
40.656258253246968
 31
0
  0
LINE
  5
226C
  8
4
  6
CONTINUOUS
 10
52.62782492975343
 20
40.643854824427372
 30
0
 11
52.756423679753468
 21
40.643854824427372
 31
0
  0
LINE
  5
226D
  8
4
  6
CONTINUOUS
 10
52.62782492975343
 20
40.6314513956083
 30
0
 11
52.756423679753468
 21
40.6314513956083
 31
0
  0
LINE
  5
226E
  8
4
  6
CONTINUOUS
 10
52.62782492975343
 20
40.619047966788713
 30
0
 11
52.756423679753468
 21
40.619047966788713
 31
0
  0
LINE
  5
226F
  8
4
  6
CONTINUOUS
 10
52.62782492975343
 20
40.6066445379691
 30
0
 11
52.756423679753468
 21
40.6066445379691
 31
0
  0
LINE
  5
2270
  8
4
  6
CONTINUOUS
 10
52.62782492975343
 20
40.594241109150147
 30
0
 11
52.756423679753468
 21
40.594241109150147
 31
0
  0
LINE
  5
2271
  8
4
  6
CONTINUOUS
 10
52.62782492975343
 20
40.581837680330558
 30
0
 11
52.756423679753468
 21
40.581837680330558
 31
0
  0
LINE
  5
2272
  8
4
  6
CONTINUOUS
 10
52.62782492975343
 20
40.569434251510962
 30
0
 11
52.756423679753468
 21
40.569434251510962
 31
0
  0
LINE
  5
2273
  8
4
  6
CONTINUOUS
 10
52.62782492975343
 20
40.557030822691353
 30
0
 11
52.756423679753468
 21
40.557030822691353
 31
0
  0
LINE
  5
2274
  8
4
  6
CONTINUOUS
 10
52.62782492975343
 20
40.54462739387175
 30
0
 11
52.756423679753468
 21
40.54462739387175
 31
0
  0
LINE
  5
2275
  8
4
  6
CONTINUOUS
 10
52.62782492975343
 20
40.53222396505268
 30
0
 11
52.756423679753468
 21
40.53222396505268
 31
0
  0
LINE
  5
2276
  8
4
  6
CONTINUOUS
 10
52.62782492975343
 20
40.519820536233077
 30
0
 11
52.756423679753468
 21
40.519820536233077
 31
0
  0
LINE
  5
2277
  8
4
  6
CONTINUOUS
 10
52.62782492975343
 20
40.507417107413467
 30
0
 11
52.756423679753468
 21
40.507417107413467
 31
0
  0
LINE
  5
2278
  8
4
  6
CONTINUOUS
 10
52.62782492975343
 20
40.495013678594
 30
0
 11
52.756423679753468
 21
40.495013678594
 31
0
  0
LINE
  5
2279
  8
4
  6
CONTINUOUS
 10
52.62782492975343
 20
40.482610249774929
 30
0
 11
52.756423679753468
 21
40.482610249774929
 31
0
  0
LINE
  5
227A
  8
4
  6
CONTINUOUS
 10
52.62782492975343
 20
40.073297098733477
 30
0
 11
52.756423679753468
 21
40.073297098733477
 31
0
  0
LINE
  5
227B
  8
4
  6
CONTINUOUS
 10
52.62782492975343
 20
40.085700527552547
 30
0
 11
52.756423679753468
 21
40.085700527552547
 31
0
  0
LINE
  5
227C
  8
4
  6
CONTINUOUS
 10
52.62782492975343
 20
40.098103956372171
 30
0
 11
52.756423679753468
 21
40.098103956372171
 31
0
  0
LINE
  5
227D
  8
4
  6
CONTINUOUS
 10
52.62782492975343
 20
40.110507385191767
 30
0
 11
52.756423679753468
 21
40.110507385191767
 31
0
  0
LINE
  5
227E
  8
4
  6
CONTINUOUS
 10
52.62782492975343
 20
40.1229108140107
 30
0
 11
52.756423679753468
 21
40.1229108140107
 31
0
  0
LINE
  5
227F
  8
4
  6
CONTINUOUS
 10
52.62782492975343
 20
40.13531424283029
 30
0
 11
52.756423679753468
 21
40.13531424283029
 31
0
  0
LINE
  5
2280
  8
4
  6
CONTINUOUS
 10
52.62782492975343
 20
40.147717671649893
 30
0
 11
52.756423679753468
 21
40.147717671649893
 31
0
  0
LINE
  5
2281
  8
4
  6
CONTINUOUS
 10
52.62782492975343
 20
40.160121100469517
 30
0
 11
52.756423679753468
 21
40.160121100469517
 31
0
  0
LINE
  5
2282
  8
4
  6
CONTINUOUS
 10
52.62782492975343
 20
40.17252452928858
 30
0
 11
52.756423679753468
 21
40.17252452928858
 31
0
  0
LINE
  5
2283
  8
4
  6
CONTINUOUS
 10
52.62782492975343
 20
40.184927958108169
 30
0
 11
52.756423679753468
 21
40.184927958108169
 31
0
  0
LINE
  5
2284
  8
4
  6
CONTINUOUS
 10
52.62782492975343
 20
40.197331386927793
 30
0
 11
52.756423679753468
 21
40.197331386927793
 31
0
  0
LINE
  5
2285
  8
4
  6
CONTINUOUS
 10
52.62782492975343
 20
40.209734815746721
 30
0
 11
52.756423679753468
 21
40.209734815746721
 31
0
  0
LINE
  5
2286
  8
4
  6
CONTINUOUS
 10
52.62782492975343
 20
40.222138244566317
 30
0
 11
52.756423679753468
 21
40.222138244566317
 31
0
  0
LINE
  5
2287
  8
4
  6
CONTINUOUS
 10
52.62782492975343
 20
40.234541673385912
 30
0
 11
52.756423679753468
 21
40.234541673385912
 31
0
  0
LINE
  5
2288
  8
4
  6
CONTINUOUS
 10
52.62782492975343
 20
40.24694510220553
 30
0
 11
52.756423679753468
 21
40.24694510220553
 31
0
  0
LINE
  5
2289
  8
4
  6
CONTINUOUS
 10
52.62782492975343
 20
40.259348531024607
 30
0
 11
52.756423679753468
 21
40.259348531024607
 31
0
  0
LINE
  5
228A
  8
4
  6
CONTINUOUS
 10
52.62782492975343
 20
40.271751959844067
 30
0
 11
52.756423679753468
 21
40.271751959844067
 31
0
  0
LINE
  5
228B
  8
4
  6
CONTINUOUS
 10
52.62782492975343
 20
40.284155388663677
 30
0
 11
52.756423679753468
 21
40.284155388663677
 31
0
  0
LINE
  5
228C
  8
4
  6
CONTINUOUS
 10
52.62782492975343
 20
40.29655881748328
 30
0
 11
52.756423679753468
 21
40.29655881748328
 31
0
  0
LINE
  5
228D
  8
4
  6
CONTINUOUS
 10
52.62782492975343
 20
40.308962246302883
 30
0
 11
52.756423679753468
 21
40.308962246302883
 31
0
  0
LINE
  5
228E
  8
4
  6
CONTINUOUS
 10
52.62782492975343
 20
40.321365675121953
 30
0
 11
52.756423679753468
 21
40.321365675121953
 31
0
  0
LINE
  5
228F
  8
4
  6
CONTINUOUS
 10
52.62782492975343
 20
40.333769103941563
 30
0
 11
52.756423679753468
 21
40.333769103941563
 31
0
  0
LINE
  5
2290
  8
4
  6
CONTINUOUS
 10
52.62782492975343
 20
40.346172532761152
 30
0
 11
52.756423679753468
 21
40.346172532761152
 31
0
  0
LINE
  5
2291
  8
4
  6
CONTINUOUS
 10
52.62782492975343
 20
40.358575961580087
 30
0
 11
52.756423679753468
 21
40.358575961580087
 31
0
  0
LINE
  5
2292
  8
4
  6
CONTINUOUS
 10
52.62782492975343
 20
40.37097939039969
 30
0
 11
52.756423679753468
 21
40.37097939039969
 31
0
  0
LINE
  5
2293
  8
4
  6
CONTINUOUS
 10
52.949321804753559
 20
40.758832674223363
 30
0
 11
52.820723054753458
 21
40.758832674223363
 31
0
  0
LINE
  5
2294
  8
4
  6
CONTINUOUS
 10
52.62782492975343
 20
40.758832674223363
 30
0
 11
52.62782492975343
 21
40.480202049223372
 31
0
  0
LINE
  5
2295
  8
4
  6
CONTINUOUS
 10
52.756423679753468
 20
40.758832674223363
 30
0
 11
52.62782492975343
 21
40.758832674223363
 31
0
  0
LINE
  5
2296
  8
4
  6
CONTINUOUS
 10
52.820723054753458
 20
40.072972674223372
 30
0
 11
52.949321804753559
 21
40.072972674223372
 31
0
  0
LINE
  5
2297
  8
4
  6
CONTINUOUS
 10
52.62782492975343
 20
40.072972674223372
 30
0
 11
52.62782492975343
 21
40.37303642422328
 31
0
  0
LINE
  5
2298
  8
4
  6
CONTINUOUS
 10
52.62782492975343
 20
40.072972674223372
 30
0
 11
52.756423679753468
 21
40.072972674223372
 31
0
  0
LINE
  5
2299
  8
4
  6
CONTINUOUS
 10
52.756423679753468
 20
40.072972674223372
 30
0
 11
52.756423679753468
 21
40.758832674223363
 31
0
  0
LINE
  5
229A
  8
4
  6
CONTINUOUS
 10
52.820723054753458
 20
40.072972674223372
 30
0
 11
52.820723054753458
 21
40.758832674223363
 31
0
  0
LINE
  5
229B
  8
4
  6
CONTINUOUS
 10
52.949321804753559
 20
40.072972674223372
 30
0
 11
52.949321804753559
 21
40.758832674223363
 31
0
  0
LINE
  5
229C
  8
4
  6
CONTINUOUS
 10
52.199162429753457
 20
40.470206820955312
 30
0
 11
52.756423679753468
 21
40.470206820955312
 31
0
  0
LINE
  5
229D
  8
4
  6
CONTINUOUS
 10
52.199162429753457
 20
40.457803392135723
 30
0
 11
52.756423679753468
 21
40.457803392135723
 31
0
  0
LINE
  5
229E
  8
4
  6
CONTINUOUS
 10
52.199162429753457
 20
40.445399963316781
 30
0
 11
52.756423679753468
 21
40.445399963316781
 31
0
  0
LINE
  5
229F
  8
4
  6
CONTINUOUS
 10
52.199162429753457
 20
40.432996534497192
 30
0
 11
52.756423679753468
 21
40.432996534497192
 31
0
  0
LINE
  5
22A0
  8
4
  6
CONTINUOUS
 10
52.199162429753457
 20
40.420593105677582
 30
0
 11
52.756423679753468
 21
40.420593105677582
 31
0
  0
LINE
  5
22A1
  8
4
  6
CONTINUOUS
 10
52.199162429753457
 20
40.383382819219278
 30
0
 11
52.756423679753468
 21
40.383382819219278
 31
0
  0
LINE
  5
22A2
  8
4
  6
CONTINUOUS
 10
52.199162429753457
 20
40.3957862480389
 30
0
 11
52.756423679753468
 21
40.3957862480389
 31
0
  0
LINE
  5
22A3
  8
4
  6
CONTINUOUS
 10
52.199162429753457
 20
40.408189676857972
 30
0
 11
52.756423679753468
 21
40.408189676857972
 31
0
  0
LINE
  5
22A4
  8
4
  6
CONTINUOUS
 10
52.62782492975343
 20
40.480202049223372
 30
0
 11
52.327761179753551
 21
40.480202049223372
 31
0
  0
LINE
  5
22A5
  8
4
  6
CONTINUOUS
 10
52.62782492975343
 20
40.37303642422328
 30
0
 11
52.327761179753551
 21
40.37303642422328
 31
0
  0
LINE
  5
22A6
  8
4
  6
CONTINUOUS
 10
52.199162429753457
 20
40.755485683802483
 30
0
 11
52.327761179753551
 21
40.755485683802483
 31
0
  0
LINE
  5
22A7
  8
4
  6
CONTINUOUS
 10
52.199162429753457
 20
40.743082254983008
 30
0
 11
52.327761179753551
 21
40.743082254983008
 31
0
  0
LINE
  5
22A8
  8
4
  6
CONTINUOUS
 10
52.199162429753457
 20
40.730678826163953
 30
0
 11
52.327761179753551
 21
40.730678826163953
 31
0
  0
LINE
  5
22A9
  8
4
  6
CONTINUOUS
 10
52.199162429753457
 20
40.718275397344328
 30
0
 11
52.327761179753551
 21
40.718275397344328
 31
0
  0
LINE
  5
22AA
  8
4
  6
CONTINUOUS
 10
52.199162429753457
 20
40.705871968524711
 30
0
 11
52.327761179753551
 21
40.705871968524711
 31
0
  0
LINE
  5
22AB
  8
4
  6
CONTINUOUS
 10
52.199162429753457
 20
40.693468539705123
 30
0
 11
52.327761179753551
 21
40.693468539705123
 31
0
  0
LINE
  5
22AC
  8
4
  6
CONTINUOUS
 10
52.199162429753457
 20
40.681065110886173
 30
0
 11
52.327761179753551
 21
40.681065110886173
 31
0
  0
LINE
  5
22AD
  8
4
  6
CONTINUOUS
 10
52.199162429753457
 20
40.668661682066571
 30
0
 11
52.327761179753551
 21
40.668661682066571
 31
0
  0
LINE
  5
22AE
  8
4
  6
CONTINUOUS
 10
52.199162429753457
 20
40.656258253246968
 30
0
 11
52.327761179753551
 21
40.656258253246968
 31
0
  0
LINE
  5
22AF
  8
4
  6
CONTINUOUS
 10
52.199162429753457
 20
40.643854824427372
 30
0
 11
52.327761179753551
 21
40.643854824427372
 31
0
  0
LINE
  5
22B0
  8
4
  6
CONTINUOUS
 10
52.199162429753457
 20
40.6314513956083
 30
0
 11
52.327761179753551
 21
40.6314513956083
 31
0
  0
LINE
  5
22B1
  8
4
  6
CONTINUOUS
 10
52.199162429753457
 20
40.619047966788713
 30
0
 11
52.327761179753551
 21
40.619047966788713
 31
0
  0
LINE
  5
22B2
  8
4
  6
CONTINUOUS
 10
52.199162429753457
 20
40.6066445379691
 30
0
 11
52.327761179753551
 21
40.6066445379691
 31
0
  0
LINE
  5
22B3
  8
4
  6
CONTINUOUS
 10
52.199162429753457
 20
40.594241109150147
 30
0
 11
52.327761179753551
 21
40.594241109150147
 31
0
  0
LINE
  5
22B4
  8
4
  6
CONTINUOUS
 10
52.199162429753457
 20
40.581837680330558
 30
0
 11
52.327761179753551
 21
40.581837680330558
 31
0
  0
LINE
  5
22B5
  8
4
  6
CONTINUOUS
 10
52.199162429753457
 20
40.569434251510962
 30
0
 11
52.327761179753551
 21
40.569434251510962
 31
0
  0
LINE
  5
22B6
  8
4
  6
CONTINUOUS
 10
52.199162429753457
 20
40.557030822691353
 30
0
 11
52.327761179753551
 21
40.557030822691353
 31
0
  0
LINE
  5
22B7
  8
4
  6
CONTINUOUS
 10
52.199162429753457
 20
40.54462739387175
 30
0
 11
52.327761179753551
 21
40.54462739387175
 31
0
  0
LINE
  5
22B8
  8
4
  6
CONTINUOUS
 10
52.199162429753457
 20
40.53222396505268
 30
0
 11
52.327761179753551
 21
40.53222396505268
 31
0
  0
LINE
  5
22B9
  8
4
  6
CONTINUOUS
 10
52.199162429753457
 20
40.519820536233077
 30
0
 11
52.327761179753551
 21
40.519820536233077
 31
0
  0
LINE
  5
22BA
  8
4
  6
CONTINUOUS
 10
52.199162429753457
 20
40.507417107413467
 30
0
 11
52.327761179753551
 21
40.507417107413467
 31
0
  0
LINE
  5
22BB
  8
4
  6
CONTINUOUS
 10
52.199162429753457
 20
40.495013678594
 30
0
 11
52.327761179753551
 21
40.495013678594
 31
0
  0
LINE
  5
22BC
  8
4
  6
CONTINUOUS
 10
52.199162429753457
 20
40.482610249774929
 30
0
 11
52.327761179753551
 21
40.482610249774929
 31
0
  0
LINE
  5
22BD
  8
4
  6
CONTINUOUS
 10
52.199162429753457
 20
40.073297098733477
 30
0
 11
52.327761179753551
 21
40.073297098733477
 31
0
  0
LINE
  5
22BE
  8
4
  6
CONTINUOUS
 10
52.199162429753457
 20
40.085700527552547
 30
0
 11
52.327761179753551
 21
40.085700527552547
 31
0
  0
LINE
  5
22BF
  8
4
  6
CONTINUOUS
 10
52.199162429753457
 20
40.098103956372171
 30
0
 11
52.327761179753551
 21
40.098103956372171
 31
0
  0
LINE
  5
22C0
  8
4
  6
CONTINUOUS
 10
52.199162429753457
 20
40.110507385191767
 30
0
 11
52.327761179753551
 21
40.110507385191767
 31
0
  0
LINE
  5
22C1
  8
4
  6
CONTINUOUS
 10
52.199162429753457
 20
40.1229108140107
 30
0
 11
52.327761179753551
 21
40.1229108140107
 31
0
  0
LINE
  5
22C2
  8
4
  6
CONTINUOUS
 10
52.199162429753457
 20
40.13531424283029
 30
0
 11
52.327761179753551
 21
40.13531424283029
 31
0
  0
LINE
  5
22C3
  8
4
  6
CONTINUOUS
 10
52.199162429753457
 20
40.147717671649893
 30
0
 11
52.327761179753551
 21
40.147717671649893
 31
0
  0
LINE
  5
22C4
  8
4
  6
CONTINUOUS
 10
52.199162429753457
 20
40.160121100469517
 30
0
 11
52.327761179753551
 21
40.160121100469517
 31
0
  0
LINE
  5
22C5
  8
4
  6
CONTINUOUS
 10
52.199162429753457
 20
40.17252452928858
 30
0
 11
52.327761179753551
 21
40.17252452928858
 31
0
  0
LINE
  5
22C6
  8
4
  6
CONTINUOUS
 10
52.199162429753457
 20
40.184927958108169
 30
0
 11
52.327761179753551
 21
40.184927958108169
 31
0
  0
LINE
  5
22C7
  8
4
  6
CONTINUOUS
 10
52.199162429753457
 20
40.197331386927793
 30
0
 11
52.327761179753551
 21
40.197331386927793
 31
0
  0
LINE
  5
22C8
  8
4
  6
CONTINUOUS
 10
52.199162429753457
 20
40.209734815746721
 30
0
 11
52.327761179753551
 21
40.209734815746721
 31
0
  0
LINE
  5
22C9
  8
4
  6
CONTINUOUS
 10
52.199162429753457
 20
40.222138244566317
 30
0
 11
52.327761179753551
 21
40.222138244566317
 31
0
  0
LINE
  5
22CA
  8
4
  6
CONTINUOUS
 10
52.199162429753457
 20
40.234541673385912
 30
0
 11
52.327761179753551
 21
40.234541673385912
 31
0
  0
LINE
  5
22CB
  8
4
  6
CONTINUOUS
 10
52.199162429753457
 20
40.24694510220553
 30
0
 11
52.327761179753551
 21
40.24694510220553
 31
0
  0
LINE
  5
22CC
  8
4
  6
CONTINUOUS
 10
52.199162429753457
 20
40.259348531024607
 30
0
 11
52.327761179753551
 21
40.259348531024607
 31
0
  0
LINE
  5
22CD
  8
4
  6
CONTINUOUS
 10
52.199162429753457
 20
40.271751959844067
 30
0
 11
52.327761179753551
 21
40.271751959844067
 31
0
  0
LINE
  5
22CE
  8
4
  6
CONTINUOUS
 10
52.199162429753457
 20
40.284155388663677
 30
0
 11
52.327761179753551
 21
40.284155388663677
 31
0
  0
LINE
  5
22CF
  8
4
  6
CONTINUOUS
 10
52.199162429753457
 20
40.29655881748328
 30
0
 11
52.327761179753551
 21
40.29655881748328
 31
0
  0
LINE
  5
22D0
  8
4
  6
CONTINUOUS
 10
52.199162429753457
 20
40.308962246302883
 30
0
 11
52.327761179753551
 21
40.308962246302883
 31
0
  0
LINE
  5
22D1
  8
4
  6
CONTINUOUS
 10
52.199162429753457
 20
40.321365675121953
 30
0
 11
52.327761179753551
 21
40.321365675121953
 31
0
  0
LINE
  5
22D2
  8
4
  6
CONTINUOUS
 10
52.199162429753457
 20
40.333769103941563
 30
0
 11
52.327761179753551
 21
40.333769103941563
 31
0
  0
LINE
  5
22D3
  8
4
  6
CONTINUOUS
 10
52.199162429753457
 20
40.346172532761152
 30
0
 11
52.327761179753551
 21
40.346172532761152
 31
0
  0
LINE
  5
22D4
  8
4
  6
CONTINUOUS
 10
52.199162429753457
 20
40.358575961580087
 30
0
 11
52.327761179753551
 21
40.358575961580087
 31
0
  0
LINE
  5
22D5
  8
4
  6
CONTINUOUS
 10
52.199162429753457
 20
40.37097939039969
 30
0
 11
52.327761179753551
 21
40.37097939039969
 31
0
  0
LINE
  5
22D6
  8
4
  6
CONTINUOUS
 10
52.327761179753551
 20
40.758832674223363
 30
0
 11
52.327761179753551
 21
40.480202049223372
 31
0
  0
LINE
  5
22D7
  8
4
  6
CONTINUOUS
 10
52.199162429753457
 20
40.758832674223363
 30
0
 11
52.327761179753551
 21
40.758832674223363
 31
0
  0
LINE
  5
22D8
  8
4
  6
CONTINUOUS
 10
52.199162429753457
 20
40.072972674223372
 30
0
 11
52.327761179753551
 21
40.072972674223372
 31
0
  0
LINE
  5
22D9
  8
4
  6
CONTINUOUS
 10
52.327761179753551
 20
40.37303642422328
 30
0
 11
52.327761179753551
 21
40.072972674223372
 31
0
  0
LINE
  5
22DA
  8
4
  6
CONTINUOUS
 10
52.199162429753457
 20
40.072972674223372
 30
0
 11
52.199162429753457
 21
40.758832674223363
 31
0
  0
LINE
  5
22EC
  8
4
  6
CONTINUOUS
 10
58.165128353669111
 20
53.247110253710566
 30
0
 11
58.165128353669111
 21
68.697110253573072
 31
0
  0
LINE
  5
22ED
  8
4
  6
CONTINUOUS
 10
57.84171182346536
 20
68.697110253573072
 30
0
 11
57.84171182346536
 21
53.247110253710566
 31
0
  0
ARC
  5
22EE
  8
4
  6
CONTINUOUS
 10
54.84971725966075
 20
63.152510253452469
 30
0
 40
0.779999999999973
 50
0
 51
90
  0
ARC
  5
22EF
  8
4
  6
CONTINUOUS
 10
54.84971725966075
 20
63.152510253452469
 30
0
 40
0.9
 50
0
 51
90
  0
LINE
  5
22F0
  8
4
  6
CONTINUOUS
 10
56.484763974754777
 20
72.476326588191142
 30
0
 11
56.484763974754777
 21
51.5939159035742
 31
0
  0
ARC
  5
22F1
  8
4
  6
CONTINUOUS
 10
49.029717259660792
 20
63.152510253452469
 30
0
 40
0.779999999999973
 50
0
 51
90
  0
ARC
  5
22F2
  8
4
  6
CONTINUOUS
 10
49.02971725966065
 20
63.152510253452469
 30
0
 40
0.9
 50
0
 51
90
  0
LINE
  5
22F3
  8
4
  6
CONTINUOUS
 10
44.694670544321518
 20
51.593915903404351
 30
0
 11
44.694670544321518
 21
72.476326833555092
 31
0
  0
LINE
  5
22F4
  8
4
  6
CONTINUOUS
 10
43.33772269561085
 20
53.247110253710566
 30
0
 11
43.33772269561085
 21
68.697110253573072
 31
0
  0
ARC
  5
22F5
  8
4
  6
CONTINUOUS
 10
46.329717259660768
 20
63.152510253452469
 30
0
 40
0.9
 50
90
 51
180
  0
ARC
  5
22F6
  8
4
  6
CONTINUOUS
 10
46.329717259660768
 20
63.152510253452469
 30
0
 40
0.779999999999973
 50
90
 51
180
  0
LINE
  5
22F7
  8
4
  6
CONTINUOUS
 10
43.014306165407262
 20
53.247110253710566
 30
0
 11
43.014306165407262
 21
68.697110253573072
 31
0
  0
ARC
  5
22F8
  8
4
  6
CONTINUOUS
 10
52.149717259660818
 20
63.152510253452469
 30
0
 40
0.779999999999973
 50
90
 51
180
  0
ARC
  5
22F9
  8
4
  6
CONTINUOUS
 10
52.149717259660818
 20
63.152510253452469
 30
0
 40
0.9
 50
90
 51
179.99999999998263
  0
CIRCLE
  5
22FA
  8
4
  6
CONTINUOUS
 10
53.499717259660812
 20
56.567510253452539
 30
0
 40
1.425
  0
CIRCLE
  5
22FB
  8
4
  6
CONTINUOUS
 10
53.499717259660812
 20
56.567510253452539
 30
0
 40
1.274999999999999
  0
LINE
  5
22FC
  8
4
  6
CONTINUOUS
 10
54.699717259660673
 20
62.687510253452558
 30
0
 11
52.299717259660888
 21
62.687510253452558
 31
0
  0
LINE
  5
22FD
  8
4
  6
CONTINUOUS
 10
54.699717259660673
 20
62.327510253452481
 30
0
 11
52.299717259660888
 21
62.327510253452481
 31
0
  0
LINE
  5
22FE
  8
4
  6
CONTINUOUS
 10
54.84971725966075
 20
61.082510253453137
 30
0
 11
52.14971725966074
 21
61.082510253453137
 31
0
  0
LINE
  5
22FF
  8
4
  6
CONTINUOUS
 10
54.84971725966075
 20
60.962510253452571
 30
0
 11
52.14971725966074
 21
60.962510253452571
 31
0
  0
ARC
  5
2300
  8
4
  6
CONTINUOUS
 10
50.589717259158277
 20
77.942510253465059
 30
0
 40
26.999999999891951
 50
257.38873793375637
 51
282.6112620679005
  0
ARC
  5
2301
  8
4
  6
CONTINUOUS
 10
50.589717259158277
 20
77.94621186658452
 30
0
 40
27.150000000120041
 50
257.45955108604591
 51
282.540448915604
  0
ARC
  5
2302
  8
4
  6
CONTINUOUS
 10
46.929714777412819
 20
52.637510253104
 30
0
 40
0.6299975177520083
 50
90
 51
270
  0
ARC
  5
2303
  8
4
  6
CONTINUOUS
 10
46.932672104747539
 20
52.637510253104
 30
0
 40
0.44999999992196521
 50
90
 51
270
  0
POLYLINE
  5
2308
  8
4
  6
CONTINUOUS
 66
1
 70
0
 10
0
 20
0
 30
0
  0
VERTEX
  5
8CB6
  8
4
  6
CONTINUOUS
 10
43.253761324036986
 20
51.97119664653917
 70
0
  0
VERTEX
  5
8CB7
  8
4
  6
CONTINUOUS
 10
43.254539582754717
 20
51.971665759723287
 70
0
  0
VERTEX
  5
8CB8
  8
4
  6
CONTINUOUS
 10
43.255317841472561
 20
51.972134872907532
 70
0
  0
VERTEX
  5
8CB9
  8
4
  6
CONTINUOUS
 10
43.255317841472561
 20
51.972134872907532
 70
0
  0
VERTEX
  5
8CBA
  8
4
  6
CONTINUOUS
 10
43.256096100190312
 20
51.972603986091741
 70
0
  0
VERTEX
  5
8CBB
  8
4
  6
CONTINUOUS
 10
43.256874358908043
 20
51.973073099275886
 70
0
  0
VERTEX
  5
8CBC
  8
4
  6
CONTINUOUS
 10
43.256874358908043
 20
51.973073099275886
 70
0
  0
VERTEX
  5
8CBD
  8
4
  6
CONTINUOUS
 10
43.257652617625837
 20
51.973542212460288
 70
0
  0
VERTEX
  5
8CBE
  8
4
  6
CONTINUOUS
 10
43.258430876343667
 20
51.9740113256444
 70
0
  0
VERTEX
  5
8CBF
  8
4
  6
CONTINUOUS
 10
43.258430876343667
 20
51.9740113256444
 70
0
  0
VERTEX
  5
8CC0
  8
4
  6
CONTINUOUS
 10
43.259209135061582
 20
51.974480438828678
 70
0
  0
VERTEX
  5
8CC1
  8
4
  6
CONTINUOUS
 10
43.259987393779348
 20
51.974949552012887
 70
0
  0
VERTEX
  5
8CC2
  8
4
  6
CONTINUOUS
 10
43.259987393779348
 20
51.974949552012887
 70
0
  0
VERTEX
  5
8CC3
  8
4
  6
CONTINUOUS
 10
43.260765652497149
 20
51.97541866519699
 70
0
  0
VERTEX
  5
8CC4
  8
4
  6
CONTINUOUS
 10
43.261543911214829
 20
51.975887778381122
 70
0
  0
SEQEND
  5
8CC5
  8
0
  0
POLYLINE
  5
2309
  8
4
  6
CONTINUOUS
 66
1
 70
0
 10
0
 20
0
 30
0
  0
VERTEX
  5
8CC6
  8
4
  6
CONTINUOUS
 10
43.246010668468621
 20
51.976273735953171
 70
0
  0
VERTEX
  5
8CC7
  8
4
  6
CONTINUOUS
 10
43.24678573402548
 20
51.975766027011566
 70
0
  0
VERTEX
  5
8CC8
  8
4
  6
CONTINUOUS
 10
43.247560799582367
 20
51.975258318070168
 70
0
  0
VERTEX
  5
8CC9
  8
4
  6
CONTINUOUS
 10
43.247560799582367
 20
51.975258318070168
 70
0
  0
VERTEX
  5
8CCA
  8
4
  6
CONTINUOUS
 10
43.24833586513909
 20
51.974750609128982
 70
0
  0
VERTEX
  5
8CCB
  8
4
  6
CONTINUOUS
 10
43.249110930695963
 20
51.974242900187591
 70
0
  0
VERTEX
  5
8CCC
  8
4
  6
CONTINUOUS
 10
43.249110930695963
 20
51.974242900187591
 70
0
  0
VERTEX
  5
8CCD
  8
4
  6
CONTINUOUS
 10
43.249885996252772
 20
51.973735191246313
 70
0
  0
VERTEX
  5
8CCE
  8
4
  6
CONTINUOUS
 10
43.25066106180968
 20
51.973227482304722
 70
0
  0
VERTEX
  5
8CCF
  8
4
  6
CONTINUOUS
 10
43.25066106180968
 20
51.973227482304722
 70
0
  0
VERTEX
  5
8CD0
  8
4
  6
CONTINUOUS
 10
43.251436127366532
 20
51.972719773363167
 70
0
  0
VERTEX
  5
8CD1
  8
4
  6
CONTINUOUS
 10
43.252211192923347
 20
51.972212064421882
 70
0
  0
VERTEX
  5
8CD2
  8
4
  6
CONTINUOUS
 10
43.252211192923347
 20
51.972212064421882
 70
0
  0
VERTEX
  5
8CD3
  8
4
  6
CONTINUOUS
 10
43.2529862584802
 20
51.971704355480469
 70
0
  0
VERTEX
  5
8CD4
  8
4
  6
CONTINUOUS
 10
43.253761324036986
 20
51.97119664653917
 70
0
  0
SEQEND
  5
8CD5
  8
0
  0
LINE
  5
231F
  8
4
  6
CONTINUOUS
 10
46.776757450612713
 20
52.215383944196518
 30
0
 11
46.776757450612713
 21
53.0596365620126
 31
0
  0
LINE
  5
2320
  8
4
  6
CONTINUOUS
 10
46.62380012381243
 20
52.310251793577137
 30
0
 11
46.62380012381243
 21
52.964768712632512
 31
0
  0
ARC
  5
2321
  8
4
  6
CONTINUOUS
 10
48.42971477740636
 20
52.637510253104
 30
0
 40
0.6299975177520083
 50
270
 51
90
  0
ARC
  5
2322
  8
4
  6
CONTINUOUS
 10
47.832672104591317
 20
52.637510253104
 30
0
 40
0.44999999992196521
 50
270
 51
90
  0
LINE
  5
2323
  8
4
  6
CONTINUOUS
 10
48.14154408552465
 20
52.310251793577137
 30
0
 11
48.14154408552465
 21
52.964768712632512
 31
0
  0
LINE
  5
2324
  8
4
  6
CONTINUOUS
 10
47.988586758724573
 20
52.215383944196518
 30
0
 11
47.988586758724573
 21
53.0596365620126
 31
0
  0
LINE
  5
2325
  8
4
  6
CONTINUOUS
 10
47.835629431924453
 20
52.187519970968488
 30
0
 11
47.835629431924453
 21
53.087500535239933
 31
0
  0
LINE
  5
2326
  8
4
  6
CONTINUOUS
 10
47.685629431696583
 20
52.18751025318258
 30
0
 11
47.685629431696583
 21
53.087510253026522
 31
0
  0
LINE
  5
2327
  8
4
  6
CONTINUOUS
 10
47.535629431468948
 20
52.18751025318258
 30
0
 11
47.535629431468948
 21
53.087510253026522
 31
0
  0
LINE
  5
2328
  8
4
  6
CONTINUOUS
 10
47.382672104668544
 20
52.18751025318258
 30
0
 11
47.382672104668544
 21
53.087510253026522
 31
0
  0
LINE
  5
2329
  8
4
  6
CONTINUOUS
 10
47.229714777868338
 20
52.18751025318258
 30
0
 11
47.229714777868338
 21
53.087510253026522
 31
0
  0
LINE
  5
232A
  8
4
  6
CONTINUOUS
 10
47.079714777640639
 20
52.18751025318258
 30
0
 11
47.079714777640639
 21
53.087510253026522
 31
0
  0
LINE
  5
232B
  8
4
  6
CONTINUOUS
 10
46.929714777412819
 20
52.187519970968488
 30
0
 11
46.929714777412819
 21
53.087500535239933
 31
0
  0
LINE
  5
232C
  8
4
  6
CONTINUOUS
 10
48.429714777405472
 20
52.007510253519172
 30
0
 11
46.929714777411959
 21
52.007510253519172
 31
0
  0
LINE
  5
232D
  8
4
  6
CONTINUOUS
 10
46.932672104746707
 20
52.18751025318258
 30
0
 11
47.8326721045905
 21
52.18751025318258
 31
0
  0
LINE
  5
232E
  8
4
  6
CONTINUOUS
 10
46.932672104746707
 20
53.087510253026522
 30
0
 11
47.8326721045905
 21
53.087510253026522
 31
0
  0
LINE
  5
232F
  8
4
  6
CONTINUOUS
 10
46.929714777411959
 20
53.267510253452542
 30
0
 11
48.429714777405472
 21
53.267510253452542
 31
0
  0
CIRCLE
  5
2330
  8
4
  6
CONTINUOUS
 10
47.679717259660791
 20
56.567510253452539
 30
0
 40
1.425
  0
CIRCLE
  5
2331
  8
4
  6
CONTINUOUS
 10
47.679717259660791
 20
56.567510253452539
 30
0
 40
1.274999999999999
  0
LINE
  5
2332
  8
4
  6
CONTINUOUS
 10
46.329717259660768
 20
61.082510253453137
 30
0
 11
49.029717259660792
 21
61.082510253453137
 31
0
  0
LINE
  5
2333
  8
4
  6
CONTINUOUS
 10
46.329717259660768
 20
60.962510253452571
 30
0
 11
49.029717259660792
 21
60.962510253452571
 31
0
  0
ARC
  5
2334
  8
4
  6
CONTINUOUS
 10
46.329717259660768
 20
61.862510253452562
 30
0
 40
0.9
 50
180
 51
270
  0
ARC
  5
2335
  8
4
  6
CONTINUOUS
 10
46.329717259660768
 20
61.862510253452562
 30
0
 40
0.779999999999973
 50
180
 51
270
  0
LINE
  5
2336
  8
4
  6
CONTINUOUS
 10
45.5497172596609
 20
63.152510253452469
 30
0
 11
45.5497172596609
 21
61.862510253452562
 31
0
  0
LINE
  5
2337
  8
4
  6
CONTINUOUS
 10
45.429717259660777
 20
63.152510253452469
 30
0
 11
45.429717259660777
 21
61.862510253452562
 31
0
  0
ARC
  5
2338
  8
4
  6
CONTINUOUS
 10
49.029717259660792
 20
61.862510253452562
 30
0
 40
0.779999999999973
 50
270
 51
0
  0
ARC
  5
2339
  8
4
  6
CONTINUOUS
 10
49.029717259660792
 20
61.862510253452562
 30
0
 40
0.9
 50
270
 51
0
  0
LINE
  5
233A
  8
4
  6
CONTINUOUS
 10
49.929717259660642
 20
63.152510253453158
 30
0
 11
49.929717259660791
 21
61.86251025345311
 31
0
  0
LINE
  5
233B
  8
4
  6
CONTINUOUS
 10
49.809717259660843
 20
63.152510253452469
 30
0
 11
49.809717259660843
 21
61.862510253452562
 31
0
  0
ARC
  5
233C
  8
4
  6
CONTINUOUS
 10
52.14971725966074
 20
61.862510253452562
 30
0
 40
0.779999999999973
 50
180
 51
270
  0
ARC
  5
233D
  8
4
  6
CONTINUOUS
 10
52.14971725966074
 20
61.862510253452562
 30
0
 40
0.9
 50
179.99999999998263
 51
270
  0
LINE
  5
233E
  8
4
  6
CONTINUOUS
 10
51.249717259660912
 20
63.152510253453158
 30
0
 11
51.249717259660677
 21
61.86251025345311
 31
0
  0
LINE
  5
233F
  8
4
  6
CONTINUOUS
 10
51.369717259660838
 20
63.152510253452469
 30
0
 11
51.3697172596607
 21
61.862510253452562
 31
0
  0
ARC
  5
2340
  8
4
  6
CONTINUOUS
 10
52.299717259660888
 20
62.507510253453127
 30
0
 40
0.179999999999973
 50
180
 51
270
  0
ARC
  5
2341
  8
4
  6
CONTINUOUS
 10
52.299717259660888
 20
62.507510253453127
 30
0
 40
0.179999999999973
 50
90
 51
180
  0
POLYLINE
  5
2342
  8
4
  6
CONTINUOUS
 66
1
 70
0
 10
0
 20
0
 30
0
  0
VERTEX
  5
8CD6
  8
4
  6
CONTINUOUS
 10
57.956181164248562
 20
52.087069009154511
 70
0
  0
VERTEX
  5
8CD7
  8
4
  6
CONTINUOUS
 10
57.956652423377058
 20
52.088363257239109
 70
0
  0
VERTEX
  5
8CD8
  8
4
  6
CONTINUOUS
 10
57.95712368250571
 20
52.0896575053239
 70
0
  0
VERTEX
  5
8CD9
  8
4
  6
CONTINUOUS
 10
57.95712368250571
 20
52.0896575053239
 70
0
  0
VERTEX
  5
8CDA
  8
4
  6
CONTINUOUS
 10
57.957594941634341
 20
52.09095175340866
 70
0
  0
VERTEX
  5
8CDB
  8
4
  6
CONTINUOUS
 10
57.958066200762971
 20
52.092246001493443
 70
0
  0
VERTEX
  5
8CDC
  8
4
  6
CONTINUOUS
 10
57.958066200762971
 20
52.092246001493443
 70
0
  0
VERTEX
  5
8CDD
  8
4
  6
CONTINUOUS
 10
57.9585374598916
 20
52.093540249578112
 70
0
  0
VERTEX
  5
8CDE
  8
4
  6
CONTINUOUS
 10
57.959008719020119
 20
52.094834497662561
 70
0
  0
VERTEX
  5
8CDF
  8
4
  6
CONTINUOUS
 10
57.959008719020119
 20
52.094834497662561
 70
0
  0
VERTEX
  5
8CE0
  8
4
  6
CONTINUOUS
 10
57.959479978148693
 20
52.09612874574713
 70
0
  0
VERTEX
  5
8CE1
  8
4
  6
CONTINUOUS
 10
57.9599512372772
 20
52.097422993831813
 70
0
  0
VERTEX
  5
8CE2
  8
4
  6
CONTINUOUS
 10
57.9599512372772
 20
52.097422993831813
 70
0
  0
VERTEX
  5
8CE3
  8
4
  6
CONTINUOUS
 10
57.960422496405862
 20
52.0987172419165
 70
0
  0
VERTEX
  5
8CE4
  8
4
  6
CONTINUOUS
 10
57.960893755534492
 20
52.1000114900012
 70
0
  0
SEQEND
  5
8CE5
  8
0
  0
POLYLINE
  5
2343
  8
4
  6
CONTINUOUS
 66
1
 70
0
 10
0
 20
0
 30
0
  0
VERTEX
  5
8CE6
  8
4
  6
CONTINUOUS
 10
57.945030578219061
 20
52.044571064433143
 70
0
  0
VERTEX
  5
8CE7
  8
4
  6
CONTINUOUS
 10
57.946145636821882
 20
52.048820858905231
 70
0
  0
VERTEX
  5
8CE8
  8
4
  6
CONTINUOUS
 10
57.94726069542488
 20
52.053070653377532
 70
0
  0
VERTEX
  5
8CE9
  8
4
  6
CONTINUOUS
 10
57.94726069542488
 20
52.053070653377532
 70
0
  0
VERTEX
  5
8CEA
  8
4
  6
CONTINUOUS
 10
57.948375754027843
 20
52.057320447849747
 70
0
  0
VERTEX
  5
8CEB
  8
4
  6
CONTINUOUS
 10
57.949490812630863
 20
52.061570242321942
 70
0
  0
VERTEX
  5
8CEC
  8
4
  6
CONTINUOUS
 10
57.949490812630863
 20
52.061570242321942
 70
0
  0
VERTEX
  5
8CED
  8
4
  6
CONTINUOUS
 10
57.950605871233861
 20
52.06582003679425
 70
0
  0
VERTEX
  5
8CEE
  8
4
  6
CONTINUOUS
 10
57.95172092983676
 20
52.070069831266238
 70
0
  0
VERTEX
  5
8CEF
  8
4
  6
CONTINUOUS
 10
57.95172092983676
 20
52.070069831266238
 70
0
  0
VERTEX
  5
8CF0
  8
4
  6
CONTINUOUS
 10
57.952835988439681
 20
52.074319625738241
 70
0
  0
VERTEX
  5
8CF1
  8
4
  6
CONTINUOUS
 10
57.953951047042608
 20
52.078569420210243
 70
0
  0
VERTEX
  5
8CF2
  8
4
  6
CONTINUOUS
 10
57.953951047042608
 20
52.078569420210243
 70
0
  0
VERTEX
  5
8CF3
  8
4
  6
CONTINUOUS
 10
57.955066105645621
 20
52.082819214682239
 70
0
  0
VERTEX
  5
8CF4
  8
4
  6
CONTINUOUS
 10
57.956181164248562
 20
52.087069009154511
 70
0
  0
SEQEND
  5
8CF5
  8
0
  0
POLYLINE
  5
2344
  8
4
  6
CONTINUOUS
 66
1
 70
0
 10
0
 20
0
 30
0
  0
VERTEX
  5
8CF6
  8
4
  6
CONTINUOUS
 10
57.939717259660569
 20
51.987606799647132
 70
0
  0
VERTEX
  5
8CF7
  8
4
  6
CONTINUOUS
 10
57.940248591516308
 20
51.9933032261256
 70
0
  0
VERTEX
  5
8CF8
  8
4
  6
CONTINUOUS
 10
57.940779923372183
 20
51.998999652604169
 70
0
  0
VERTEX
  5
8CF9
  8
4
  6
CONTINUOUS
 10
57.940779923372183
 20
51.998999652604169
 70
0
  0
VERTEX
  5
8CFA
  8
4
  6
CONTINUOUS
 10
57.941311255228037
 20
52.00469607908289
 70
0
  0
VERTEX
  5
8CFB
  8
4
  6
CONTINUOUS
 10
57.941842587084032
 20
52.010392505561477
 70
0
  0
VERTEX
  5
8CFC
  8
4
  6
CONTINUOUS
 10
57.941842587084032
 20
52.010392505561477
 70
0
  0
VERTEX
  5
8CFD
  8
4
  6
CONTINUOUS
 10
57.942373918939857
 20
52.016088932040063
 70
0
  0
VERTEX
  5
8CFE
  8
4
  6
CONTINUOUS
 10
57.942905250795633
 20
52.021785358518649
 70
0
  0
VERTEX
  5
8CFF
  8
4
  6
CONTINUOUS
 10
57.942905250795633
 20
52.021785358518649
 70
0
  0
VERTEX
  5
8D00
  8
4
  6
CONTINUOUS
 10
57.943436582651437
 20
52.027481784997171
 70
0
  0
VERTEX
  5
8D01
  8
4
  6
CONTINUOUS
 10
57.94396791450734
 20
52.033178211475828
 70
0
  0
VERTEX
  5
8D02
  8
4
  6
CONTINUOUS
 10
57.94396791450734
 20
52.033178211475828
 70
0
  0
VERTEX
  5
8D03
  8
4
  6
CONTINUOUS
 10
57.944499246363222
 20
52.038874637954471
 70
0
  0
VERTEX
  5
8D04
  8
4
  6
CONTINUOUS
 10
57.945030578219061
 20
52.044571064433143
 70
0
  0
SEQEND
  5
8D05
  8
0
  0
POLYLINE
  5
2345
  8
4
  6
CONTINUOUS
 66
1
 70
0
 10
0
 20
0
 30
0
  0
VERTEX
  5
8D06
  8
4
  6
CONTINUOUS
 10
57.84171182346536
 20
53.247110253711121
 70
0
  0
VERTEX
  5
8D07
  8
4
  6
CONTINUOUS
 10
57.841767473147137
 20
53.22793816068905
 70
0
  0
VERTEX
  5
8D08
  8
4
  6
CONTINUOUS
 10
57.841825619320453
 20
53.208766699543489
 70
0
  0
VERTEX
  5
8D09
  8
4
  6
CONTINUOUS
 10
57.841825619320453
 20
53.208766699543489
 70
0
  0
VERTEX
  5
8D0A
  8
4
  6
CONTINUOUS
 10
57.841888765117162
 20
53.189595890707452
 70
0
  0
VERTEX
  5
8D0B
  8
4
  6
CONTINUOUS
 10
57.841959440232131
 20
53.1704233088423
 70
0
  0
VERTEX
  5
8D0C
  8
4
  6
CONTINUOUS
 10
57.841959440232131
 20
53.1704233088423
 70
0
  0
VERTEX
  5
8D0D
  8
4
  6
CONTINUOUS
 10
57.842040154438052
 20
53.151248362938532
 70
0
  0
VERTEX
  5
8D0E
  8
4
  6
CONTINUOUS
 10
57.842133311257058
 20
53.132080245074349
 70
0
  0
VERTEX
  5
8D0F
  8
4
  6
CONTINUOUS
 10
57.842133311257058
 20
53.132080245074349
 70
0
  0
VERTEX
  5
8D10
  8
4
  6
CONTINUOUS
 10
57.842241387258639
 20
53.112921421455319
 70
0
  0
VERTEX
  5
8D11
  8
4
  6
CONTINUOUS
 10
57.842367257451713
 20
53.0937376717059
 70
0
  0
VERTEX
  5
8D12
  8
4
  6
CONTINUOUS
 10
57.842367257451713
 20
53.0937376717059
 70
0
  0
VERTEX
  5
8D13
  8
4
  6
CONTINUOUS
 10
57.842513524578067
 20
53.074519844613832
 70
0
  0
VERTEX
  5
8D14
  8
4
  6
CONTINUOUS
 10
57.842681303872922
 20
53.055395752203353
 70
0
  0
VERTEX
  5
8D15
  8
4
  6
CONTINUOUS
 10
57.842681303872922
 20
53.055395752203353
 70
0
  0
VERTEX
  5
8D16
  8
4
  6
CONTINUOUS
 10
57.842871345141923
 20
53.03647372882071
 70
0
  0
VERTEX
  5
8D17
  8
4
  6
CONTINUOUS
 10
57.84308442397996
 20
53.017647234862253
 70
0
  0
VERTEX
  5
8D18
  8
4
  6
CONTINUOUS
 10
57.84308442397996
 20
53.017647234862253
 70
0
  0
VERTEX
  5
8D19
  8
4
  6
CONTINUOUS
 10
57.8433210924874
 20
52.9987884964211
 70
0
  0
VERTEX
  5
8D1A
  8
4
  6
CONTINUOUS
 10
57.843580982997672
 20
52.979899676326241
 70
0
  0
VERTEX
  5
8D1B
  8
4
  6
CONTINUOUS
 10
57.843580982997672
 20
52.979899676326241
 70
0
  0
VERTEX
  5
8D1C
  8
4
  6
CONTINUOUS
 10
57.84386341366023
 20
52.961013279579518
 70
0
  0
VERTEX
  5
8D1D
  8
4
  6
CONTINUOUS
 10
57.844167365656382
 20
52.942153243137753
 70
0
  0
VERTEX
  5
8D1E
  8
4
  6
CONTINUOUS
 10
57.844167365656382
 20
52.942153243137753
 70
0
  0
VERTEX
  5
8D1F
  8
4
  6
CONTINUOUS
 10
57.844492302835313
 20
52.92331744580715
 70
0
  0
VERTEX
  5
8D20
  8
4
  6
CONTINUOUS
 10
57.844839956686691
 20
52.904408101839522
 70
0
  0
VERTEX
  5
8D21
  8
4
  6
CONTINUOUS
 10
57.844839956686691
 20
52.904408101839522
 70
0
  0
VERTEX
  5
8D22
  8
4
  6
CONTINUOUS
 10
57.845210442212107
 20
52.885401315913462
 70
0
  0
VERTEX
  5
8D23
  8
4
  6
CONTINUOUS
 10
57.8455951408189
 20
52.866664418973492
 70
0
  0
VERTEX
  5
8D24
  8
4
  6
CONTINUOUS
 10
57.8455951408189
 20
52.866664418973492
 70
0
  0
VERTEX
  5
8D25
  8
4
  6
CONTINUOUS
 10
57.845986669404653
 20
52.848507865823251
 70
0
  0
VERTEX
  5
8D26
  8
4
  6
CONTINUOUS
 10
57.846391320419542
 20
52.830623380442859
 70
0
  0
VERTEX
  5
8D27
  8
4
  6
CONTINUOUS
 10
57.846391320419542
 20
52.830623380442859
 70
0
  0
VERTEX
  5
8D28
  8
4
  6
CONTINUOUS
 10
57.846816943588877
 20
52.812643680176279
 70
0
  0
VERTEX
  5
8D29
  8
4
  6
CONTINUOUS
 10
57.847263942183332
 20
52.794584186651541
 70
0
  0
VERTEX
  5
8D2A
  8
4
  6
CONTINUOUS
 10
57.847263942183332
 20
52.794584186651541
 70
0
  0
VERTEX
  5
8D2B
  8
4
  6
CONTINUOUS
 10
57.847731007452737
 20
52.77654062130668
 70
0
  0
VERTEX
  5
8D2C
  8
4
  6
CONTINUOUS
 10
57.848217429018042
 20
52.758547200536832
 70
0
  0
VERTEX
  5
8D2D
  8
4
  6
CONTINUOUS
 10
57.848217429018042
 20
52.758547200536832
 70
0
  0
VERTEX
  5
8D2E
  8
4
  6
CONTINUOUS
 10
57.848723909335462
 20
52.740588593448713
 70
0
  0
VERTEX
  5
8D2F
  8
4
  6
CONTINUOUS
 10
57.849256203832091
 20
52.72251278503682
 70
0
  0
VERTEX
  5
8D30
  8
4
  6
CONTINUOUS
 10
57.849256203832091
 20
52.72251278503682
 70
0
  0
VERTEX
  5
8D31
  8
4
  6
CONTINUOUS
 10
57.84981612861376
 20
52.70428564964029
 70
0
  0
VERTEX
  5
8D32
  8
4
  6
CONTINUOUS
 10
57.850384689532817
 20
52.686481303089032
 70
0
  0
VERTEX
  5
8D33
  8
4
  6
CONTINUOUS
 10
57.850384689532817
 20
52.686481303089032
 70
0
  0
VERTEX
  5
8D34
  8
4
  6
CONTINUOUS
 10
57.850945542999312
 20
52.669584151942033
 70
0
  0
VERTEX
  5
8D35
  8
4
  6
CONTINUOUS
 10
57.851513757910823
 20
52.6531115241887
 70
0
  0
VERTEX
  5
8D36
  8
4
  6
CONTINUOUS
 10
57.851513757910823
 20
52.6531115241887
 70
0
  0
VERTEX
  5
8D37
  8
4
  6
CONTINUOUS
 10
57.852107633979472
 20
52.636489302445533
 70
0
  0
VERTEX
  5
8D38
  8
4
  6
CONTINUOUS
 10
57.852726981690751
 20
52.619744666409041
 70
0
  0
VERTEX
  5
8D39
  8
4
  6
CONTINUOUS
 10
57.852726981690751
 20
52.619744666409041
 70
0
  0
VERTEX
  5
8D3A
  8
4
  6
CONTINUOUS
 10
57.853367603926451
 20
52.603027951997063
 70
0
  0
VERTEX
  5
8D3B
  8
4
  6
CONTINUOUS
 10
57.854027762382792
 20
52.5863808229343
 70
0
  0
VERTEX
  5
8D3C
  8
4
  6
CONTINUOUS
 10
57.854027762382792
 20
52.5863808229343
 70
0
  0
VERTEX
  5
8D3D
  8
4
  6
CONTINUOUS
 10
57.854708496951972
 20
52.56977612282035
 70
0
  0
VERTEX
  5
8D3E
  8
4
  6
CONTINUOUS
 10
57.855419501497487
 20
52.553020086948827
 70
0
  0
VERTEX
  5
8D3F
  8
4
  6
CONTINUOUS
 10
57.855419501497487
 20
52.553020086948827
 70
0
  0
VERTEX
  5
8D40
  8
4
  6
CONTINUOUS
 10
57.856163364700912
 20
52.536071074890522
 70
0
  0
VERTEX
  5
8D41
  8
4
  6
CONTINUOUS
 10
57.856905600545133
 20
52.519662551636443
 70
0
  0
VERTEX
  5
8D42
  8
4
  6
CONTINUOUS
 10
57.856905600545133
 20
52.519662551636443
 70
0
  0
VERTEX
  5
8D43
  8
4
  6
CONTINUOUS
 10
57.857616771644132
 20
52.50441293725261
 70
0
  0
VERTEX
  5
8D44
  8
4
  6
CONTINUOUS
 10
57.858324709836722
 20
52.489705366689819
 70
0
  0
VERTEX
  5
8D45
  8
4
  6
CONTINUOUS
 10
57.858324709836722
 20
52.489705366689819
 70
0
  0
VERTEX
  5
8D46
  8
4
  6
CONTINUOUS
 10
57.859063116483838
 20
52.474806513221637
 70
0
  0
VERTEX
  5
8D47
  8
4
  6
CONTINUOUS
 10
57.859831901813152
 20
52.459752488533262
 70
0
  0
VERTEX
  5
8D48
  8
4
  6
CONTINUOUS
 10
57.859831901813152
 20
52.459752488533262
 70
0
  0
VERTEX
  5
8D49
  8
4
  6
CONTINUOUS
 10
57.86062377056119
 20
52.44473585843788
 70
0
  0
VERTEX
  5
8D4A
  8
4
  6
CONTINUOUS
 10
57.861436396636059
 20
52.429805566856942
 70
0
  0
VERTEX
  5
8D4B
  8
4
  6
CONTINUOUS
 10
57.861436396636059
 20
52.429805566856942
 70
0
  0
VERTEX
  5
8D4C
  8
4
  6
CONTINUOUS
 10
57.862272174850681
 20
52.414925914528439
 70
0
  0
VERTEX
  5
8D4D
  8
4
  6
CONTINUOUS
 10
57.86314741446688
 20
52.39986625135095
 70
0
  0
VERTEX
  5
8D4E
  8
4
  6
CONTINUOUS
 10
57.86314741446688
 20
52.39986625135095
 70
0
  0
VERTEX
  5
8D4F
  8
4
  6
CONTINUOUS
 10
57.864066746616743
 20
52.384578045825492
 70
0
  0
VERTEX
  5
8D50
  8
4
  6
CONTINUOUS
 10
57.864974175467168
 20
52.369936191705321
 70
0
  0
VERTEX
  5
8D51
  8
4
  6
CONTINUOUS
 10
57.864974175467168
 20
52.369936191705321
 70
0
  0
VERTEX
  5
8D52
  8
4
  6
CONTINUOUS
 10
57.865821641263288
 20
52.356677993405746
 70
0
  0
VERTEX
  5
8D53
  8
4
  6
CONTINUOUS
 10
57.866653455530262
 20
52.34406697274396
 70
0
  0
VERTEX
  5
8D54
  8
4
  6
CONTINUOUS
 10
57.866653455530262
 20
52.34406697274396
 70
0
  0
VERTEX
  5
8D55
  8
4
  6
CONTINUOUS
 10
57.867523172641413
 20
52.331227872268222
 70
0
  0
VERTEX
  5
8D56
  8
4
  6
CONTINUOUS
 10
57.868428947083331
 20
52.318204100053961
 70
0
  0
VERTEX
  5
8D57
  8
4
  6
CONTINUOUS
 10
57.868428947083331
 20
52.318204100053961
 70
0
  0
VERTEX
  5
8D58
  8
4
  6
CONTINUOUS
 10
57.869357278594151
 20
52.305225096738042
 70
0
  0
VERTEX
  5
8D59
  8
4
  6
CONTINUOUS
 10
57.870303447807132
 20
52.29234576768345
 70
0
  0
VERTEX
  5
8D5A
  8
4
  6
CONTINUOUS
 10
57.870303447807132
 20
52.29234576768345
 70
0
  0
VERTEX
  5
8D5B
  8
4
  6
CONTINUOUS
 10
57.871269999655823
 20
52.279522253326569
 70
0
  0
VERTEX
  5
8D5C
  8
4
  6
CONTINUOUS
 10
57.872279755382038
 20
52.266490169679841
 70
0
  0
VERTEX
  5
8D5D
  8
4
  6
CONTINUOUS
 10
57.872279755382038
 20
52.266490169679841
 70
0
  0
VERTEX
  5
8D5E
  8
4
  6
CONTINUOUS
 10
57.873338133772762
 20
52.253194159892182
 70
0
  0
VERTEX
  5
8D5F
  8
4
  6
CONTINUOUS
 10
57.8743606674889
 20
52.240635500091209
 70
0
  0
VERTEX
  5
8D60
  8
4
  6
CONTINUOUS
 10
57.8743606674889
 20
52.240635500091209
 70
0
  0
VERTEX
  5
8D61
  8
4
  6
CONTINUOUS
 10
57.875275875558032
 20
52.22965816607109
 70
0
  0
VERTEX
  5
8D62
  8
4
  6
CONTINUOUS
 10
57.876154108601263
 20
52.219420299321293
 70
0
  0
VERTEX
  5
8D63
  8
4
  6
CONTINUOUS
 10
57.876154108601263
 20
52.219420299321293
 70
0
  0
VERTEX
  5
8D64
  8
4
  6
CONTINUOUS
 10
57.877080286055516
 20
52.208921733926118
 70
0
  0
VERTEX
  5
8D65
  8
4
  6
CONTINUOUS
 10
57.87805577102997
 20
52.198214908659267
 70
0
  0
VERTEX
  5
8D66
  8
4
  6
CONTINUOUS
 10
57.87805577102997
 20
52.198214908659267
 70
0
  0
VERTEX
  5
8D67
  8
4
  6
CONTINUOUS
 10
57.879064161578867
 20
52.187564274822037
 70
0
  0
VERTEX
  5
8D68
  8
4
  6
CONTINUOUS
 10
57.880101551866943
 20
52.177029729142831
 70
0
  0
VERTEX
  5
8D69
  8
4
  6
CONTINUOUS
 10
57.880101551866943
 20
52.177029729142831
 70
0
  0
VERTEX
  5
8D6A
  8
4
  6
CONTINUOUS
 10
57.881175553058277
 20
52.166561433107567
 70
0
  0
VERTEX
  5
8D6B
  8
4
  6
CONTINUOUS
 10
57.8823273482051
 20
52.155875161810137
 70
0
  0
VERTEX
  5
8D6C
  8
4
  6
CONTINUOUS
 10
57.8823273482051
 20
52.155875161810137
 70
0
  0
VERTEX
  5
8D6D
  8
4
  6
CONTINUOUS
 10
57.883569817415783
 20
52.144913618782063
 70
0
  0
VERTEX
  5
8D6E
  8
4
  6
CONTINUOUS
 10
57.884769057136623
 20
52.134761607699261
 70
0
  0
VERTEX
  5
8D6F
  8
4
  6
CONTINUOUS
 10
57.884769057136623
 20
52.134761607699261
 70
0
  0
VERTEX
  5
8D70
  8
4
  6
CONTINUOUS
 10
57.885808722919727
 20
52.126332122906263
 70
0
  0
VERTEX
  5
8D71
  8
4
  6
CONTINUOUS
 10
57.886789490405619
 20
52.1187088212837
 70
0
  0
VERTEX
  5
8D72
  8
4
  6
CONTINUOUS
 10
57.886789490405619
 20
52.1187088212837
 70
0
  0
VERTEX
  5
8D73
  8
4
  6
CONTINUOUS
 10
57.887833566561753
 20
52.1108035570675
 70
0
  0
VERTEX
  5
8D74
  8
4
  6
CONTINUOUS
 10
57.888932263578617
 20
52.102670311388117
 70
0
  0
VERTEX
  5
8D75
  8
4
  6
CONTINUOUS
 10
57.888932263578617
 20
52.102670311388117
 70
0
  0
VERTEX
  5
8D76
  8
4
  6
CONTINUOUS
 10
57.890049885488573
 20
52.094592671251661
 70
0
  0
VERTEX
  5
8D77
  8
4
  6
CONTINUOUS
 10
57.89117359846837
 20
52.08663052028043
 70
0
  0
VERTEX
  5
8D78
  8
4
  6
CONTINUOUS
 10
57.89117359846837
 20
52.08663052028043
 70
0
  0
VERTEX
  5
8D79
  8
4
  6
CONTINUOUS
 10
57.892306145780537
 20
52.078725987911511
 70
0
  0
VERTEX
  5
8D7A
  8
4
  6
CONTINUOUS
 10
57.893489716887942
 20
52.070573890229127
 70
0
  0
VERTEX
  5
8D7B
  8
4
  6
CONTINUOUS
 10
57.893489716887942
 20
52.070573890229127
 70
0
  0
VERTEX
  5
8D7C
  8
4
  6
CONTINUOUS
 10
57.894731201067167
 20
52.062110454177969
 70
0
  0
VERTEX
  5
8D7D
  8
4
  6
CONTINUOUS
 10
57.895856840650808
 20
52.05448486350285
 70
0
  0
VERTEX
  5
8D7E
  8
4
  6
CONTINUOUS
 10
57.895856840650808
 20
52.05448486350285
 70
0
  0
VERTEX
  5
8D7F
  8
4
  6
CONTINUOUS
 10
57.89672272770477
 20
52.048666893466567
 70
0
  0
VERTEX
  5
8D80
  8
4
  6
CONTINUOUS
 10
57.897485000173461
 20
52.04369572861264
 70
0
  0
VERTEX
  5
8D81
  8
4
  6
CONTINUOUS
 10
57.897485000173461
 20
52.04369572861264
 70
0
  0
VERTEX
  5
8D82
  8
4
  6
CONTINUOUS
 10
57.898331521780847
 20
52.038430336395471
 70
0
  0
VERTEX
  5
8D83
  8
4
  6
CONTINUOUS
 10
57.8992770134914
 20
52.032939406640743
 70
0
  0
VERTEX
  5
8D84
  8
4
  6
CONTINUOUS
 10
57.8992770134914
 20
52.032939406640743
 70
0
  0
VERTEX
  5
8D85
  8
4
  6
CONTINUOUS
 10
57.900297145406221
 20
52.027532159137927
 70
0
  0
VERTEX
  5
8D86
  8
4
  6
CONTINUOUS
 10
57.901384526932787
 20
52.0222702111668
 70
0
  0
VERTEX
  5
8D87
  8
4
  6
CONTINUOUS
 10
57.901384526932787
 20
52.0222702111668
 70
0
  0
VERTEX
  5
8D88
  8
4
  6
CONTINUOUS
 10
57.902562348688463
 20
52.01709845129681
 70
0
  0
VERTEX
  5
8D89
  8
4
  6
CONTINUOUS
 10
57.903959186825382
 20
52.01174245577046
 70
0
  0
VERTEX
  5
8D8A
  8
4
  6
CONTINUOUS
 10
57.903959186825382
 20
52.01174245577046
 70
0
  0
VERTEX
  5
8D8B
  8
4
  6
CONTINUOUS
 10
57.905620343517931
 20
52.006154185703288
 70
0
  0
VERTEX
  5
8D8C
  8
4
  6
CONTINUOUS
 10
57.907152639497042
 20
52.00141045403123
 70
0
  0
VERTEX
  5
8D8D
  8
4
  6
CONTINUOUS
 10
57.907152639497042
 20
52.00141045403123
 70
0
  0
VERTEX
  5
8D8E
  8
4
  6
CONTINUOUS
 10
57.908208280902038
 20
51.998411670631668
 70
0
  0
VERTEX
  5
8D8F
  8
4
  6
CONTINUOUS
 10
57.90905949695194
 20
51.996227781329871
 70
0
  0
VERTEX
  5
8D90
  8
4
  6
CONTINUOUS
 10
57.90905949695194
 20
51.996227781329871
 70
0
  0
VERTEX
  5
8D91
  8
4
  6
CONTINUOUS
 10
57.91004217917
 20
51.993764015446892
 70
0
  0
VERTEX
  5
8D92
  8
4
  6
CONTINUOUS
 10
57.9111268452188
 20
51.991097200342807
 70
0
  0
VERTEX
  5
8D93
  8
4
  6
CONTINUOUS
 10
57.9111268452188
 20
51.991097200342807
 70
0
  0
VERTEX
  5
8D94
  8
4
  6
CONTINUOUS
 10
57.912217136295141
 20
51.988518607660872
 70
0
  0
VERTEX
  5
8D95
  8
4
  6
CONTINUOUS
 10
57.9133145615944
 20
51.986005688141532
 70
0
  0
VERTEX
  5
8D96
  8
4
  6
CONTINUOUS
 10
57.9133145615944
 20
51.986005688141532
 70
0
  0
VERTEX
  5
8D97
  8
4
  6
CONTINUOUS
 10
57.914438572778437
 20
51.98347835869275
 70
0
  0
VERTEX
  5
8D98
  8
4
  6
CONTINUOUS
 10
57.915582523376038
 20
51.980940221797091
 70
0
  0
VERTEX
  5
8D99
  8
4
  6
CONTINUOUS
 10
57.915582523376038
 20
51.980940221797091
 70
0
  0
VERTEX
  5
8D9A
  8
4
  6
CONTINUOUS
 10
57.91673487351602
 20
51.978410570981922
 70
0
  0
VERTEX
  5
8D9B
  8
4
  6
CONTINUOUS
 10
57.917890607860528
 20
51.975887778381122
 70
0
  0
SEQEND
  5
8D9C
  8
0
  0
POLYLINE
  5
2346
  8
4
  6
CONTINUOUS
 66
1
 70
0
 10
0
 20
0
 30
0
  0
VERTEX
  5
8D9D
  8
4
  6
CONTINUOUS
 10
57.917890607860528
 20
51.975887778381122
 70
0
  0
VERTEX
  5
8D9E
  8
4
  6
CONTINUOUS
 10
57.91867288838165
 20
51.97518219124138
 70
0
  0
VERTEX
  5
8D9F
  8
4
  6
CONTINUOUS
 10
57.9194549323515
 20
51.974490960656453
 70
0
  0
VERTEX
  5
8DA0
  8
4
  6
CONTINUOUS
 10
57.9194549323515
 20
51.974490960656453
 70
0
  0
VERTEX
  5
8DA1
  8
4
  6
CONTINUOUS
 10
57.920236470272641
 20
51.97382843557002
 70
0
  0
VERTEX
  5
8DA2
  8
4
  6
CONTINUOUS
 10
57.921017100862677
 20
51.97320893448412
 70
0
  0
VERTEX
  5
8DA3
  8
4
  6
CONTINUOUS
 10
57.921017100862677
 20
51.97320893448412
 70
0
  0
VERTEX
  5
8DA4
  8
4
  6
CONTINUOUS
 10
57.921796521677848
 20
51.972646798732349
 70
0
  0
VERTEX
  5
8DA5
  8
4
  6
CONTINUOUS
 10
57.92257495741417
 20
51.972156491416293
 70
0
  0
VERTEX
  5
8DA6
  8
4
  6
CONTINUOUS
 10
57.92257495741417
 20
51.972156491416293
 70
0
  0
VERTEX
  5
8DA7
  8
4
  6
CONTINUOUS
 10
57.923352270359139
 20
51.971752391922443
 70
0
  0
VERTEX
  5
8DA8
  8
4
  6
CONTINUOUS
 10
57.924126346026213
 20
51.971448423005143
 70
0
  0
VERTEX
  5
8DA9
  8
4
  6
CONTINUOUS
 10
57.924126346026213
 20
51.971448423005143
 70
0
  0
VERTEX
  5
8DAA
  8
4
  6
CONTINUOUS
 10
57.924896420724572
 20
51.971258819450462
 70
0
  0
VERTEX
  5
8DAB
  8
4
  6
CONTINUOUS
 10
57.92566911071907
 20
51.971199520803168
 70
0
  0
VERTEX
  5
8DAC
  8
4
  6
CONTINUOUS
 10
57.92566911071907
 20
51.971199520803168
 70
0
  0
VERTEX
  5
8DAD
  8
4
  6
CONTINUOUS
 10
57.9264500467806
 20
51.971281973453273
 70
0
  0
VERTEX
  5
8DAE
  8
4
  6
CONTINUOUS
 10
57.92723353774764
 20
51.971497946415532
 70
0
  0
VERTEX
  5
8DAF
  8
4
  6
CONTINUOUS
 10
57.92723353774764
 20
51.971497946415532
 70
0
  0
VERTEX
  5
8DB0
  8
4
  6
CONTINUOUS
 10
57.928012922116281
 20
51.971833908817572
 70
0
  0
VERTEX
  5
8DB1
  8
4
  6
CONTINUOUS
 10
57.92878897894559
 20
51.972274807615612
 70
0
  0
VERTEX
  5
8DB2
  8
4
  6
CONTINUOUS
 10
57.92878897894559
 20
51.972274807615612
 70
0
  0
VERTEX
  5
8DB3
  8
4
  6
CONTINUOUS
 10
57.92956384918358
 20
51.972805311155462
 70
0
  0
VERTEX
  5
8DB4
  8
4
  6
CONTINUOUS
 10
57.930337680770272
 20
51.973410495506378
 70
0
  0
VERTEX
  5
8DB5
  8
4
  6
CONTINUOUS
 10
57.930337680770272
 20
51.973410495506378
 70
0
  0
VERTEX
  5
8DB6
  8
4
  6
CONTINUOUS
 10
57.931110256260922
 20
51.9740755114874
 70
0
  0
VERTEX
  5
8DB7
  8
4
  6
CONTINUOUS
 10
57.931881889679531
 20
51.974785401191028
 70
0
  0
VERTEX
  5
8DB8
  8
4
  6
CONTINUOUS
 10
57.931881889679531
 20
51.974785401191028
 70
0
  0
VERTEX
  5
8DB9
  8
4
  6
CONTINUOUS
 10
57.932652994700568
 20
51.975525186323488
 70
0
  0
VERTEX
  5
8DBA
  8
4
  6
CONTINUOUS
 10
57.9334238521312
 20
51.976279915772523
 70
0
  0
SEQEND
  5
8DBB
  8
0
  0
POLYLINE
  5
2347
  8
4
  6
CONTINUOUS
 66
1
 70
0
 10
0
 20
0
 30
0
  0
VERTEX
  5
8DBC
  8
4
  6
CONTINUOUS
 10
57.938776479221559
 20
52.032893236886572
 70
0
  0
VERTEX
  5
8DBD
  8
4
  6
CONTINUOUS
 10
57.940359044026721
 20
52.038351101510543
 70
0
  0
VERTEX
  5
8DBE
  8
4
  6
CONTINUOUS
 10
57.941941608832181
 20
52.043808966134613
 70
0
  0
VERTEX
  5
8DBF
  8
4
  6
CONTINUOUS
 10
57.941941608832181
 20
52.043808966134613
 70
0
  0
VERTEX
  5
8DC0
  8
4
  6
CONTINUOUS
 10
57.94352417363757
 20
52.04926683075864
 70
0
  0
VERTEX
  5
8DC1
  8
4
  6
CONTINUOUS
 10
57.94510673844303
 20
52.054724695382873
 70
0
  0
VERTEX
  5
8DC2
  8
4
  6
CONTINUOUS
 10
57.94510673844303
 20
52.054724695382873
 70
0
  0
VERTEX
  5
8DC3
  8
4
  6
CONTINUOUS
 10
57.946689303248391
 20
52.060182560006851
 70
0
  0
VERTEX
  5
8DC4
  8
4
  6
CONTINUOUS
 10
57.948271868053631
 20
52.0656404246309
 70
0
  0
VERTEX
  5
8DC5
  8
4
  6
CONTINUOUS
 10
57.948271868053631
 20
52.0656404246309
 70
0
  0
VERTEX
  5
8DC6
  8
4
  6
CONTINUOUS
 10
57.949854432859013
 20
52.07109828925492
 70
0
  0
VERTEX
  5
8DC7
  8
4
  6
CONTINUOUS
 10
57.951436997664473
 20
52.076556153879046
 70
0
  0
VERTEX
  5
8DC8
  8
4
  6
CONTINUOUS
 10
57.951436997664473
 20
52.076556153879046
 70
0
  0
VERTEX
  5
8DC9
  8
4
  6
CONTINUOUS
 10
57.953019562469763
 20
52.082014018503131
 70
0
  0
VERTEX
  5
8DCA
  8
4
  6
CONTINUOUS
 10
57.954602127275123
 20
52.087471883127179
 70
0
  0
SEQEND
  5
8DCB
  8
0
  0
POLYLINE
  5
2348
  8
4
  6
CONTINUOUS
 66
1
 70
0
 10
0
 20
0
 30
0
  0
VERTEX
  5
8DCC
  8
4
  6
CONTINUOUS
 10
57.9334238521312
 20
51.976267935609172
 70
0
  0
VERTEX
  5
8DCD
  8
4
  6
CONTINUOUS
 10
57.9339591148401
 20
51.981930465736923
 70
0
  0
VERTEX
  5
8DCE
  8
4
  6
CONTINUOUS
 10
57.934494377549207
 20
51.987592995864738
 70
0
  0
VERTEX
  5
8DCF
  8
4
  6
CONTINUOUS
 10
57.934494377549207
 20
51.987592995864738
 70
0
  0
VERTEX
  5
8DD0
  8
4
  6
CONTINUOUS
 10
57.935029640258293
 20
51.99325552599241
 70
0
  0
VERTEX
  5
8DD1
  8
4
  6
CONTINUOUS
 10
57.935564902967378
 20
51.998918056120161
 70
0
  0
VERTEX
  5
8DD2
  8
4
  6
CONTINUOUS
 10
57.935564902967378
 20
51.998918056120161
 70
0
  0
VERTEX
  5
8DD3
  8
4
  6
CONTINUOUS
 10
57.936100165676443
 20
52.004580586247819
 70
0
  0
VERTEX
  5
8DD4
  8
4
  6
CONTINUOUS
 10
57.936635428385372
 20
52.010243116375463
 70
0
  0
VERTEX
  5
8DD5
  8
4
  6
CONTINUOUS
 10
57.936635428385372
 20
52.010243116375463
 70
0
  0
VERTEX
  5
8DD6
  8
4
  6
CONTINUOUS
 10
57.937170691094387
 20
52.0159056465033
 70
0
  0
VERTEX
  5
8DD7
  8
4
  6
CONTINUOUS
 10
57.937705953803473
 20
52.021568176631128
 70
0
  0
VERTEX
  5
8DD8
  8
4
  6
CONTINUOUS
 10
57.937705953803473
 20
52.021568176631128
 70
0
  0
VERTEX
  5
8DD9
  8
4
  6
CONTINUOUS
 10
57.938241216512552
 20
52.027230706758871
 70
0
  0
VERTEX
  5
8DDA
  8
4
  6
CONTINUOUS
 10
57.938776479221559
 20
52.032893236886572
 70
0
  0
SEQEND
  5
8DDB
  8
0
  0
POLYLINE
  5
2349
  8
4
  6
CONTINUOUS
 66
1
 70
0
 10
0
 20
0
 30
0
  0
VERTEX
  5
8DDC
  8
4
  6
CONTINUOUS
 10
58.16508755466549
 20
53.2210662580471
 70
0
  0
VERTEX
  5
8DDD
  8
4
  6
CONTINUOUS
 10
58.165091634565783
 20
53.223670657613411
 70
0
  0
VERTEX
  5
8DDE
  8
4
  6
CONTINUOUS
 10
58.165095714466162
 20
53.226275057179812
 70
0
  0
VERTEX
  5
8DDF
  8
4
  6
CONTINUOUS
 10
58.165095714466162
 20
53.226275057179812
 70
0
  0
VERTEX
  5
8DE0
  8
4
  6
CONTINUOUS
 10
58.16509979436649
 20
53.2288794567462
 70
0
  0
VERTEX
  5
8DE1
  8
4
  6
CONTINUOUS
 10
58.16510387426689
 20
53.231483856312629
 70
0
  0
VERTEX
  5
8DE2
  8
4
  6
CONTINUOUS
 10
58.16510387426689
 20
53.231483856312629
 70
0
  0
VERTEX
  5
8DE3
  8
4
  6
CONTINUOUS
 10
58.165107954167382
 20
53.234088255879151
 70
0
  0
VERTEX
  5
8DE4
  8
4
  6
CONTINUOUS
 10
58.165112034067647
 20
53.236692655445459
 70
0
  0
VERTEX
  5
8DE5
  8
4
  6
CONTINUOUS
 10
58.165112034067647
 20
53.236692655445459
 70
0
  0
VERTEX
  5
8DE6
  8
4
  6
CONTINUOUS
 10
58.165116113968011
 20
53.23929705501186
 70
0
  0
VERTEX
  5
8DE7
  8
4
  6
CONTINUOUS
 10
58.165120193868319
 20
53.241901454578169
 70
0
  0
VERTEX
  5
8DE8
  8
4
  6
CONTINUOUS
 10
58.165120193868319
 20
53.241901454578169
 70
0
  0
VERTEX
  5
8DE9
  8
4
  6
CONTINUOUS
 10
58.165124273768782
 20
53.244505854144649
 70
0
  0
VERTEX
  5
8DEA
  8
4
  6
CONTINUOUS
 10
58.165128353669111
 20
53.247110253711121
 70
0
  0
SEQEND
  5
8DEB
  8
0
  0
POLYLINE
  5
234A
  8
4
  6
CONTINUOUS
 66
1
 70
0
 10
0
 20
0
 30
0
  0
VERTEX
  5
8DEC
  8
4
  6
CONTINUOUS
 10
58.165054330702432
 20
53.21248045276576
 70
0
  0
VERTEX
  5
8DED
  8
4
  6
CONTINUOUS
 10
58.165057653098607
 20
53.213339033293849
 70
0
  0
VERTEX
  5
8DEE
  8
4
  6
CONTINUOUS
 10
58.165060975494917
 20
53.214197613822009
 70
0
  0
VERTEX
  5
8DEF
  8
4
  6
CONTINUOUS
 10
58.165060975494917
 20
53.214197613822009
 70
0
  0
VERTEX
  5
8DF0
  8
4
  6
CONTINUOUS
 10
58.165064297891249
 20
53.215056194350261
 70
0
  0
VERTEX
  5
8DF1
  8
4
  6
CONTINUOUS
 10
58.165067620287552
 20
53.215914774878392
 70
0
  0
VERTEX
  5
8DF2
  8
4
  6
CONTINUOUS
 10
58.165067620287552
 20
53.215914774878392
 70
0
  0
VERTEX
  5
8DF3
  8
4
  6
CONTINUOUS
 10
58.1650709426839
 20
53.216773355406552
 70
0
  0
VERTEX
  5
8DF4
  8
4
  6
CONTINUOUS
 10
58.165074265080158
 20
53.217631935934612
 70
0
  0
VERTEX
  5
8DF5
  8
4
  6
CONTINUOUS
 10
58.165074265080158
 20
53.217631935934612
 70
0
  0
VERTEX
  5
8DF6
  8
4
  6
CONTINUOUS
 10
58.165077587476389
 20
53.218490516462793
 70
0
  0
VERTEX
  5
8DF7
  8
4
  6
CONTINUOUS
 10
58.165080909872721
 20
53.219349096990868
 70
0
  0
VERTEX
  5
8DF8
  8
4
  6
CONTINUOUS
 10
58.165080909872721
 20
53.219349096990868
 70
0
  0
VERTEX
  5
8DF9
  8
4
  6
CONTINUOUS
 10
58.165084232269109
 20
53.220207677519
 70
0
  0
VERTEX
  5
8DFA
  8
4
  6
CONTINUOUS
 10
58.16508755466549
 20
53.2210662580471
 70
0
  0
SEQEND
  5
8DFB
  8
0
  0
POLYLINE
  5
234B
  8
4
  6
CONTINUOUS
 66
1
 70
0
 10
0
 20
0
 30
0
  0
VERTEX
  5
8DFC
  8
4
  6
CONTINUOUS
 10
58.164848874929078
 20
53.183450335311107
 70
0
  0
VERTEX
  5
8DFD
  8
4
  6
CONTINUOUS
 10
58.164859459570891
 20
53.184591822501339
 70
0
  0
VERTEX
  5
8DFE
  8
4
  6
CONTINUOUS
 10
58.164870016514271
 20
53.185734591838091
 70
0
  0
VERTEX
  5
8DFF
  8
4
  6
CONTINUOUS
 10
58.164870016514271
 20
53.185734591838091
 70
0
  0
VERTEX
  5
8E00
  8
4
  6
CONTINUOUS
 10
58.164880508848171
 20
53.186878643593033
 70
0
  0
VERTEX
  5
8E01
  8
4
  6
CONTINUOUS
 10
58.16489086281242
 20
53.188018850540921
 70
0
  0
VERTEX
  5
8E02
  8
4
  6
CONTINUOUS
 10
58.16489086281242
 20
53.188018850540921
 70
0
  0
VERTEX
  5
8E03
  8
4
  6
CONTINUOUS
 10
58.164901032283808
 20
53.1891539310792
 70
0
  0
VERTEX
  5
8E04
  8
4
  6
CONTINUOUS
 10
58.164911118537042
 20
53.19030311359608
 70
0
  0
VERTEX
  5
8E05
  8
4
  6
CONTINUOUS
 10
58.164911118537042
 20
53.19030311359608
 70
0
  0
VERTEX
  5
8E06
  8
4
  6
CONTINUOUS
 10
58.164921121510808
 20
53.191471525861417
 70
0
  0
VERTEX
  5
8E07
  8
4
  6
CONTINUOUS
 10
58.164930488400763
 20
53.192587383178733
 70
0
  0
VERTEX
  5
8E08
  8
4
  6
CONTINUOUS
 10
58.164930488400763
 20
53.192587383178733
 70
0
  0
VERTEX
  5
8E09
  8
4
  6
CONTINUOUS
 10
58.164939044110241
 20
53.193631457704
 70
0
  0
VERTEX
  5
8E0A
  8
4
  6
CONTINUOUS
 10
58.164948677116861
 20
53.194871661465527
 70
0
  0
VERTEX
  5
8E0B
  8
4
  6
CONTINUOUS
 10
58.164948677116861
 20
53.194871661465527
 70
0
  0
VERTEX
  5
8E0C
  8
4
  6
CONTINUOUS
 10
58.164960945105179
 20
53.196534459461077
 70
0
  0
VERTEX
  5
8E0D
  8
4
  6
CONTINUOUS
 10
58.164974019015212
 20
53.198393388692807
 70
0
  0
VERTEX
  5
8E0E
  8
4
  6
CONTINUOUS
 10
58.164974019015212
 20
53.198393388692807
 70
0
  0
VERTEX
  5
8E0F
  8
4
  6
CONTINUOUS
 10
58.164985807081251
 20
53.200180538630278
 70
0
  0
VERTEX
  5
8E10
  8
4
  6
CONTINUOUS
 10
58.1649965534595
 20
53.201915136608818
 70
0
  0
VERTEX
  5
8E11
  8
4
  6
CONTINUOUS
 10
58.1649965534595
 20
53.201915136608818
 70
0
  0
VERTEX
  5
8E12
  8
4
  6
CONTINUOUS
 10
58.165006929863459
 20
53.203668966448461
 70
0
  0
VERTEX
  5
8E13
  8
4
  6
CONTINUOUS
 10
58.165016982313119
 20
53.2054369000409
 70
0
  0
VERTEX
  5
8E14
  8
4
  6
CONTINUOUS
 10
58.165016982313119
 20
53.2054369000409
 70
0
  0
VERTEX
  5
8E15
  8
4
  6
CONTINUOUS
 10
58.165026642118022
 20
53.207199708757493
 70
0
  0
VERTEX
  5
8E16
  8
4
  6
CONTINUOUS
 10
58.165036007439483
 20
53.208958673817222
 70
0
  0
VERTEX
  5
8E17
  8
4
  6
CONTINUOUS
 10
58.165036007439483
 20
53.208958673817222
 70
0
  0
VERTEX
  5
8E18
  8
4
  6
CONTINUOUS
 10
58.165045207723317
 20
53.210718922035483
 70
0
  0
VERTEX
  5
8E19
  8
4
  6
CONTINUOUS
 10
58.165054330702432
 20
53.21248045276576
 70
0
  0
SEQEND
  5
8E1A
  8
0
  0
POLYLINE
  5
234C
  8
4
  6
CONTINUOUS
 66
1
 70
0
 10
0
 20
0
 30
0
  0
VERTEX
  5
8E1B
  8
4
  6
CONTINUOUS
 10
58.164807768838472
 20
53.1794798847817
 70
0
  0
VERTEX
  5
8E1C
  8
4
  6
CONTINUOUS
 10
58.164811879447448
 20
53.179876929834549
 70
0
  0
VERTEX
  5
8E1D
  8
4
  6
CONTINUOUS
 10
58.164815990056582
 20
53.180273974887612
 70
0
  0
VERTEX
  5
8E1E
  8
4
  6
CONTINUOUS
 10
58.164815990056582
 20
53.180273974887612
 70
0
  0
VERTEX
  5
8E1F
  8
4
  6
CONTINUOUS
 10
58.1648201006656
 20
53.180671019940519
 70
0
  0
VERTEX
  5
8E20
  8
4
  6
CONTINUOUS
 10
58.164824211274691
 20
53.181068064993518
 70
0
  0
VERTEX
  5
8E21
  8
4
  6
CONTINUOUS
 10
58.164824211274691
 20
53.181068064993518
 70
0
  0
VERTEX
  5
8E22
  8
4
  6
CONTINUOUS
 10
58.164828321883732
 20
53.18146511004646
 70
0
  0
VERTEX
  5
8E23
  8
4
  6
CONTINUOUS
 10
58.1648324324928
 20
53.181862155099267
 70
0
  0
VERTEX
  5
8E24
  8
4
  6
CONTINUOUS
 10
58.1648324324928
 20
53.181862155099267
 70
0
  0
VERTEX
  5
8E25
  8
4
  6
CONTINUOUS
 10
58.164836543101792
 20
53.182259200152153
 70
0
  0
VERTEX
  5
8E26
  8
4
  6
CONTINUOUS
 10
58.164840653710883
 20
53.18265624520506
 70
0
  0
VERTEX
  5
8E27
  8
4
  6
CONTINUOUS
 10
58.164840653710883
 20
53.18265624520506
 70
0
  0
VERTEX
  5
8E28
  8
4
  6
CONTINUOUS
 10
58.164844764320009
 20
53.183053290258037
 70
0
  0
VERTEX
  5
8E29
  8
4
  6
CONTINUOUS
 10
58.164848874929078
 20
53.183450335311107
 70
0
  0
SEQEND
  5
8E2A
  8
0
  0
POLYLINE
  5
234D
  8
4
  6
CONTINUOUS
 66
1
 70
0
 10
0
 20
0
 30
0
  0
VERTEX
  5
8E2B
  8
4
  6
CONTINUOUS
 10
58.162752898678917
 20
53.088811477599769
 70
0
  0
VERTEX
  5
8E2C
  8
4
  6
CONTINUOUS
 10
58.162846042948132
 20
53.0916083520162
 70
0
  0
VERTEX
  5
8E2D
  8
4
  6
CONTINUOUS
 10
58.16293887857455
 20
53.0944048633856
 70
0
  0
VERTEX
  5
8E2E
  8
4
  6
CONTINUOUS
 10
58.16293887857455
 20
53.0944048633856
 70
0
  0
VERTEX
  5
8E2F
  8
4
  6
CONTINUOUS
 10
58.163031106870612
 20
53.0972010203493
 70
0
  0
VERTEX
  5
8E30
  8
4
  6
CONTINUOUS
 10
58.163122468970592
 20
53.099998318305062
 70
0
  0
VERTEX
  5
8E31
  8
4
  6
CONTINUOUS
 10
58.163122468970592
 20
53.099998318305062
 70
0
  0
VERTEX
  5
8E32
  8
4
  6
CONTINUOUS
 10
58.163212676142308
 20
53.1027971375834
 70
0
  0
VERTEX
  5
8E33
  8
4
  6
CONTINUOUS
 10
58.163301280367612
 20
53.1055919114917
 70
0
  0
VERTEX
  5
8E34
  8
4
  6
CONTINUOUS
 10
58.163301280367612
 20
53.1055919114917
 70
0
  0
VERTEX
  5
8E35
  8
4
  6
CONTINUOUS
 10
58.1633879431377
 20
53.108381161916071
 70
0
  0
VERTEX
  5
8E36
  8
4
  6
CONTINUOUS
 10
58.1634729232662
 20
53.111185712079
 70
0
  0
VERTEX
  5
8E37
  8
4
  6
CONTINUOUS
 10
58.1634729232662
 20
53.111185712079
 70
0
  0
VERTEX
  5
8E38
  8
4
  6
CONTINUOUS
 10
58.163556071396243
 20
53.11401114595607
 70
0
  0
VERTEX
  5
8E39
  8
4
  6
CONTINUOUS
 10
58.163635008166843
 20
53.116779789200763
 70
0
  0
VERTEX
  5
8E3A
  8
4
  6
CONTINUOUS
 10
58.163635008166843
 20
53.116779789200763
 70
0
  0
VERTEX
  5
8E3B
  8
4
  6
CONTINUOUS
 10
58.163707780971919
 20
53.119425971744349
 70
0
  0
VERTEX
  5
8E3C
  8
4
  6
CONTINUOUS
 10
58.163776374229911
 20
53.122015298951943
 70
0
  0
VERTEX
  5
8E3D
  8
4
  6
CONTINUOUS
 10
58.163776374229911
 20
53.122015298951943
 70
0
  0
VERTEX
  5
8E3E
  8
4
  6
CONTINUOUS
 10
58.163843150629511
 20
53.12462544394802
 70
0
  0
VERTEX
  5
8E3F
  8
4
  6
CONTINUOUS
 10
58.163908048915893
 20
53.127251075458808
 70
0
  0
VERTEX
  5
8E40
  8
4
  6
CONTINUOUS
 10
58.163908048915893
 20
53.127251075458808
 70
0
  0
VERTEX
  5
8E41
  8
4
  6
CONTINUOUS
 10
58.1639705596541
 20
53.129871437886742
 70
0
  0
VERTEX
  5
8E42
  8
4
  6
CONTINUOUS
 10
58.164030804632461
 20
53.13248708273516
 70
0
  0
VERTEX
  5
8E43
  8
4
  6
CONTINUOUS
 10
58.164030804632461
 20
53.13248708273516
 70
0
  0
VERTEX
  5
8E44
  8
4
  6
CONTINUOUS
 10
58.164089038207521
 20
53.135103332280693
 70
0
  0
VERTEX
  5
8E45
  8
4
  6
CONTINUOUS
 10
58.16414541378802
 20
53.137723284795932
 70
0
  0
VERTEX
  5
8E46
  8
4
  6
CONTINUOUS
 10
58.16414541378802
 20
53.137723284795932
 70
0
  0
VERTEX
  5
8E47
  8
4
  6
CONTINUOUS
 10
58.16420000268792
 20
53.140346379781278
 70
0
  0
VERTEX
  5
8E48
  8
4
  6
CONTINUOUS
 10
58.164252648790949
 20
53.142959645655537
 70
0
  0
VERTEX
  5
8E49
  8
4
  6
CONTINUOUS
 10
58.164252648790949
 20
53.142959645655537
 70
0
  0
VERTEX
  5
8E4A
  8
4
  6
CONTINUOUS
 10
58.1643032207944
 20
53.145551902275223
 70
0
  0
VERTEX
  5
8E4B
  8
4
  6
CONTINUOUS
 10
58.164351914081458
 20
53.148131546330873
 70
0
  0
VERTEX
  5
8E4C
  8
4
  6
CONTINUOUS
 10
58.164351914081458
 20
53.148131546330873
 70
0
  0
VERTEX
  5
8E4D
  8
4
  6
CONTINUOUS
 10
58.164398971694631
 20
53.1507115440085
 70
0
  0
VERTEX
  5
8E4E
  8
4
  6
CONTINUOUS
 10
58.164444500628392
 20
53.153303562642719
 70
0
  0
VERTEX
  5
8E4F
  8
4
  6
CONTINUOUS
 10
58.164444500628392
 20
53.153303562642719
 70
0
  0
VERTEX
  5
8E50
  8
4
  6
CONTINUOUS
 10
58.164488437014711
 20
53.1559072769996
 70
0
  0
VERTEX
  5
8E51
  8
4
  6
CONTINUOUS
 10
58.164530169582818
 20
53.15847569042436
 70
0
  0
VERTEX
  5
8E52
  8
4
  6
CONTINUOUS
 10
58.164530169582818
 20
53.15847569042436
 70
0
  0
VERTEX
  5
8E53
  8
4
  6
CONTINUOUS
 10
58.164569531626071
 20
53.16099713454129
 70
0
  0
VERTEX
  5
8E54
  8
4
  6
CONTINUOUS
 10
58.164608682096741
 20
53.163647925510027
 70
0
  0
VERTEX
  5
8E55
  8
4
  6
CONTINUOUS
 10
58.164608682096741
 20
53.163647925510027
 70
0
  0
VERTEX
  5
8E56
  8
4
  6
CONTINUOUS
 10
58.1646481725534
 20
53.16647505894354
 70
0
  0
VERTEX
  5
8E57
  8
4
  6
CONTINUOUS
 10
58.164679799321448
 20
53.168820263733117
 70
0
  0
VERTEX
  5
8E58
  8
4
  6
CONTINUOUS
 10
58.164679799321448
 20
53.168820263733117
 70
0
  0
VERTEX
  5
8E59
  8
4
  6
CONTINUOUS
 10
58.164696802124631
 20
53.17012715603218
 70
0
  0
VERTEX
  5
8E5A
  8
4
  6
CONTINUOUS
 10
58.164706949516791
 20
53.170952167766544
 70
0
  0
VERTEX
  5
8E5B
  8
4
  6
CONTINUOUS
 10
58.164706949516791
 20
53.170952167766544
 70
0
  0
VERTEX
  5
8E5C
  8
4
  6
CONTINUOUS
 10
58.164719239892541
 20
53.171953558833891
 70
0
  0
VERTEX
  5
8E5D
  8
4
  6
CONTINUOUS
 10
58.1647330621841
 20
53.173084085250863
 70
0
  0
VERTEX
  5
8E5E
  8
4
  6
CONTINUOUS
 10
58.1647330621841
 20
53.173084085250863
 70
0
  0
VERTEX
  5
8E5F
  8
4
  6
CONTINUOUS
 10
58.1647460464483
 20
53.174167370626108
 70
0
  0
VERTEX
  5
8E60
  8
4
  6
CONTINUOUS
 10
58.164758396705587
 20
53.175216012823313
 70
0
  0
VERTEX
  5
8E61
  8
4
  6
CONTINUOUS
 10
58.164758396705587
 20
53.175216012823313
 70
0
  0
VERTEX
  5
8E62
  8
4
  6
CONTINUOUS
 10
58.164770788869333
 20
53.176277254985351
 70
0
  0
VERTEX
  5
8E63
  8
4
  6
CONTINUOUS
 10
58.164783212463043
 20
53.177347947121191
 70
0
  0
VERTEX
  5
8E64
  8
4
  6
CONTINUOUS
 10
58.164783212463043
 20
53.177347947121191
 70
0
  0
VERTEX
  5
8E65
  8
4
  6
CONTINUOUS
 10
58.164795528311821
 20
53.1784154905267
 70
0
  0
VERTEX
  5
8E66
  8
4
  6
CONTINUOUS
 10
58.164807768838472
 20
53.1794798847817
 70
0
  0
SEQEND
  5
8E67
  8
0
  0
POLYLINE
  5
234E
  8
4
  6
CONTINUOUS
 66
1
 70
0
 10
0
 20
0
 30
0
  0
VERTEX
  5
8E68
  8
4
  6
CONTINUOUS
 10
58.14826989081552
 20
52.8801597231997
 70
0
  0
VERTEX
  5
8E69
  8
4
  6
CONTINUOUS
 10
58.148357193724742
 20
52.881007335810068
 70
0
  0
VERTEX
  5
8E6A
  8
4
  6
CONTINUOUS
 10
58.148445310272223
 20
52.8818633302582
 70
0
  0
VERTEX
  5
8E6B
  8
4
  6
CONTINUOUS
 10
58.148445310272223
 20
52.8818633302582
 70
0
  0
VERTEX
  5
8E6C
  8
4
  6
CONTINUOUS
 10
58.14853421428662
 20
52.882727709239362
 70
0
  0
VERTEX
  5
8E6D
  8
4
  6
CONTINUOUS
 10
58.148620520358023
 20
52.883566958881161
 70
0
  0
VERTEX
  5
8E6E
  8
4
  6
CONTINUOUS
 10
58.148620520358023
 20
52.883566958881161
 70
0
  0
VERTEX
  5
8E6F
  8
4
  6
CONTINUOUS
 10
58.14870336250538
 20
52.884372702737032
 70
0
  0
VERTEX
  5
8E70
  8
4
  6
CONTINUOUS
 10
58.148795311701413
 20
52.885270630633
 70
0
  0
VERTEX
  5
8E71
  8
4
  6
CONTINUOUS
 10
58.148795311701413
 20
52.885270630633
 70
0
  0
VERTEX
  5
8E72
  8
4
  6
CONTINUOUS
 10
58.148899701013292
 20
52.886294261832951
 70
0
  0
VERTEX
  5
8E73
  8
4
  6
CONTINUOUS
 10
58.148969474931533
 20
52.8869743670776
 70
0
  0
VERTEX
  5
8E74
  8
4
  6
CONTINUOUS
 10
58.148969474931533
 20
52.8869743670776
 70
0
  0
VERTEX
  5
8E75
  8
4
  6
CONTINUOUS
 10
58.14899201014034
 20
52.887185261931542
 70
0
  0
VERTEX
  5
8E76
  8
4
  6
CONTINUOUS
 10
58.14914280067682
 20
52.8886781897794
 70
0
  0
VERTEX
  5
8E77
  8
4
  6
CONTINUOUS
 10
58.14914280067682
 20
52.8886781897794
 70
0
  0
VERTEX
  5
8E78
  8
4
  6
CONTINUOUS
 10
58.149569307350212
 20
52.892933387694391
 70
0
  0
VERTEX
  5
8E79
  8
4
  6
CONTINUOUS
 10
58.150118740707029
 20
52.898470139685891
 70
0
  0
VERTEX
  5
8E7A
  8
4
  6
CONTINUOUS
 10
58.150118740707029
 20
52.898470139685891
 70
0
  0
VERTEX
  5
8E7B
  8
4
  6
CONTINUOUS
 10
58.150611484033021
 20
52.903537612047373
 70
0
  0
VERTEX
  5
8E7C
  8
4
  6
CONTINUOUS
 10
58.151060861833173
 20
52.908265453271419
 70
0
  0
VERTEX
  5
8E7D
  8
4
  6
CONTINUOUS
 10
58.151060861833173
 20
52.908265453271419
 70
0
  0
VERTEX
  5
8E7E
  8
4
  6
CONTINUOUS
 10
58.15151520226857
 20
52.913123759404357
 70
0
  0
VERTEX
  5
8E7F
  8
4
  6
CONTINUOUS
 10
58.1519699069037
 20
52.918063934505462
 70
0
  0
VERTEX
  5
8E80
  8
4
  6
CONTINUOUS
 10
58.1519699069037
 20
52.918063934505462
 70
0
  0
VERTEX
  5
8E81
  8
4
  6
CONTINUOUS
 10
58.152411836945561
 20
52.92295628107378
 70
0
  0
VERTEX
  5
8E82
  8
4
  6
CONTINUOUS
 10
58.152846618766688
 20
52.927865387358523
 70
0
  0
VERTEX
  5
8E83
  8
4
  6
CONTINUOUS
 10
58.152846618766688
 20
52.927865387358523
 70
0
  0
VERTEX
  5
8E84
  8
4
  6
CONTINUOUS
 10
58.153279036514732
 20
52.932839800293323
 70
0
  0
VERTEX
  5
8E85
  8
4
  6
CONTINUOUS
 10
58.153691740270652
 20
52.937669615799962
 70
0
  0
VERTEX
  5
8E86
  8
4
  6
CONTINUOUS
 10
58.153691740270652
 20
52.937669615799962
 70
0
  0
VERTEX
  5
8E87
  8
4
  6
CONTINUOUS
 10
58.1540694835284
 20
52.94217026200112
 70
0
  0
VERTEX
  5
8E88
  8
4
  6
CONTINUOUS
 10
58.1544275675014
 20
52.946516946837782
 70
0
  0
VERTEX
  5
8E89
  8
4
  6
CONTINUOUS
 10
58.1544275675014
 20
52.946516946837782
 70
0
  0
VERTEX
  5
8E8A
  8
4
  6
CONTINUOUS
 10
58.154784124547632
 20
52.950919483146592
 70
0
  0
VERTEX
  5
8E8B
  8
4
  6
CONTINUOUS
 10
58.155138063884451
 20
52.955366323530342
 70
0
  0
VERTEX
  5
8E8C
  8
4
  6
CONTINUOUS
 10
58.155138063884451
 20
52.955366323530342
 70
0
  0
VERTEX
  5
8E8D
  8
4
  6
CONTINUOUS
 10
58.15548455177246
 20
52.959802121195139
 70
0
  0
VERTEX
  5
8E8E
  8
4
  6
CONTINUOUS
 10
58.155823005784512
 20
52.964217691994342
 70
0
  0
VERTEX
  5
8E8F
  8
4
  6
CONTINUOUS
 10
58.155823005784512
 20
52.964217691994342
 70
0
  0
VERTEX
  5
8E90
  8
4
  6
CONTINUOUS
 10
58.156154460794362
 20
52.968624569854512
 70
0
  0
VERTEX
  5
8E91
  8
4
  6
CONTINUOUS
 10
58.15648216956653
 20
52.973070998346557
 70
0
  0
VERTEX
  5
8E92
  8
4
  6
CONTINUOUS
 10
58.15648216956653
 20
52.973070998346557
 70
0
  0
VERTEX
  5
8E93
  8
4
  6
CONTINUOUS
 10
58.1568066586191
 20
52.977566148146153
 70
0
  0
VERTEX
  5
8E94
  8
4
  6
CONTINUOUS
 10
58.157115331595108
 20
52.981926188703881
 70
0
  0
VERTEX
  5
8E95
  8
4
  6
CONTINUOUS
 10
58.157115331595108
 20
52.981926188703881
 70
0
  0
VERTEX
  5
8E96
  8
4
  6
CONTINUOUS
 10
58.157397740119123
 20
52.9859964024141
 70
0
  0
VERTEX
  5
8E97
  8
4
  6
CONTINUOUS
 10
58.157665150619209
 20
52.989931524677722
 70
0
  0
VERTEX
  5
8E98
  8
4
  6
CONTINUOUS
 10
58.157665150619209
 20
52.989931524677722
 70
0
  0
VERTEX
  5
8E99
  8
4
  6
CONTINUOUS
 10
58.157930781069382
 20
52.9939153282593
 70
0
  0
VERTEX
  5
8E9A
  8
4
  6
CONTINUOUS
 10
58.158193940825427
 20
52.997938282375252
 70
0
  0
VERTEX
  5
8E9B
  8
4
  6
CONTINUOUS
 10
58.158193940825427
 20
52.997938282375252
 70
0
  0
VERTEX
  5
8E9C
  8
4
  6
CONTINUOUS
 10
58.158451202218288
 20
53.0019520519651
 70
0
  0
VERTEX
  5
8E9D
  8
4
  6
CONTINUOUS
 10
58.158702098100257
 20
53.0059463884111
 70
0
  0
VERTEX
  5
8E9E
  8
4
  6
CONTINUOUS
 10
58.158702098100257
 20
53.0059463884111
 70
0
  0
VERTEX
  5
8E9F
  8
4
  6
CONTINUOUS
 10
58.158947418087138
 20
53.009930804149839
 70
0
  0
VERTEX
  5
8EA0
  8
4
  6
CONTINUOUS
 10
58.159190018330008
 20
53.013955769399473
 70
0
  0
VERTEX
  5
8EA1
  8
4
  6
CONTINUOUS
 10
58.159190018330008
 20
53.013955769399473
 70
0
  0
VERTEX
  5
8EA2
  8
4
  6
CONTINUOUS
 10
58.159430464948251
 20
53.018031514431577
 70
0
  0
VERTEX
  5
8EA3
  8
4
  6
CONTINUOUS
 10
58.1596580974012
 20
53.021966351955477
 70
0
  0
VERTEX
  5
8EA4
  8
4
  6
CONTINUOUS
 10
58.1596580974012
 20
53.021966351955477
 70
0
  0
VERTEX
  5
8EA5
  8
4
  6
CONTINUOUS
 10
58.15986403783532
 20
53.025598823497191
 70
0
  0
VERTEX
  5
8EA6
  8
4
  6
CONTINUOUS
 10
58.160057765805853
 20
53.0290903034144
 70
0
  0
VERTEX
  5
8EA7
  8
4
  6
CONTINUOUS
 10
58.160057765805853
 20
53.0290903034144
 70
0
  0
VERTEX
  5
8EA8
  8
4
  6
CONTINUOUS
 10
58.160250383811047
 20
53.032632439772911
 70
0
  0
VERTEX
  5
8EA9
  8
4
  6
CONTINUOUS
 10
58.16044112871333
 20
53.0362151426421
 70
0
  0
VERTEX
  5
8EAA
  8
4
  6
CONTINUOUS
 10
58.16044112871333
 20
53.0362151426421
 70
0
  0
VERTEX
  5
8EAB
  8
4
  6
CONTINUOUS
 10
58.160626917772859
 20
53.039787976990709
 70
0
  0
VERTEX
  5
8EAC
  8
4
  6
CONTINUOUS
 10
58.160807255478581
 20
53.043340865385169
 70
0
  0
VERTEX
  5
8EAD
  8
4
  6
CONTINUOUS
 10
58.160807255478581
 20
53.043340865385169
 70
0
  0
VERTEX
  5
8EAE
  8
4
  6
CONTINUOUS
 10
58.160982672306432
 20
53.04688389669225
 70
0
  0
VERTEX
  5
8EAF
  8
4
  6
CONTINUOUS
 10
58.161155215456219
 20
53.05046746738946
 70
0
  0
VERTEX
  5
8EB0
  8
4
  6
CONTINUOUS
 10
58.161155215456219
 20
53.05046746738946
 70
0
  0
VERTEX
  5
8EB1
  8
4
  6
CONTINUOUS
 10
58.161325147777823
 20
53.054101653846963
 70
0
  0
VERTEX
  5
8EB2
  8
4
  6
CONTINUOUS
 10
58.161484078001273
 20
53.057594944401131
 70
0
  0
VERTEX
  5
8EB3
  8
4
  6
CONTINUOUS
 10
58.161484078001273
 20
53.057594944401131
 70
0
  0
VERTEX
  5
8EB4
  8
4
  6
CONTINUOUS
 10
58.161625146462342
 20
53.06078621120146
 70
0
  0
VERTEX
  5
8EB5
  8
4
  6
CONTINUOUS
 10
58.1617562740407
 20
53.063837449683852
 70
0
  0
VERTEX
  5
8EB6
  8
4
  6
CONTINUOUS
 10
58.1617562740407
 20
53.063837449683852
 70
0
  0
VERTEX
  5
8EB7
  8
4
  6
CONTINUOUS
 10
58.161886703193588
 20
53.066940128915462
 70
0
  0
VERTEX
  5
8EB8
  8
4
  6
CONTINUOUS
 10
58.162016182144271
 20
53.070080489204443
 70
0
  0
VERTEX
  5
8EB9
  8
4
  6
CONTINUOUS
 10
58.162016182144271
 20
53.070080489204443
 70
0
  0
VERTEX
  5
8EBA
  8
4
  6
CONTINUOUS
 10
58.162142721332373
 20
53.073207206665622
 70
0
  0
VERTEX
  5
8EBB
  8
4
  6
CONTINUOUS
 10
58.1622668742958
 20
53.076323929403742
 70
0
  0
VERTEX
  5
8EBC
  8
4
  6
CONTINUOUS
 10
58.1622668742958
 20
53.076323929403742
 70
0
  0
VERTEX
  5
8EBD
  8
4
  6
CONTINUOUS
 10
58.16238966080703
 20
53.079444383720677
 70
0
  0
VERTEX
  5
8EBE
  8
4
  6
CONTINUOUS
 10
58.162511422479319
 20
53.08256763672204
 70
0
  0
VERTEX
  5
8EBF
  8
4
  6
CONTINUOUS
 10
58.162511422479319
 20
53.08256763672204
 70
0
  0
VERTEX
  5
8EC0
  8
4
  6
CONTINUOUS
 10
58.16263237377057
 20
53.085690006913239
 70
0
  0
VERTEX
  5
8EC1
  8
4
  6
CONTINUOUS
 10
58.162752898678917
 20
53.088811477599769
 70
0
  0
SEQEND
  5
8EC2
  8
0
  0
POLYLINE
  5
234F
  8
4
  6
CONTINUOUS
 66
1
 70
0
 10
0
 20
0
 30
0
  0
VERTEX
  5
8EC3
  8
4
  6
CONTINUOUS
 10
58.14357421669051
 20
52.837865048072558
 70
0
  0
VERTEX
  5
8EC4
  8
4
  6
CONTINUOUS
 10
58.144043784102927
 20
52.842094515585131
 70
0
  0
VERTEX
  5
8EC5
  8
4
  6
CONTINUOUS
 10
58.14451335151545
 20
52.846323983097918
 70
0
  0
VERTEX
  5
8EC6
  8
4
  6
CONTINUOUS
 10
58.14451335151545
 20
52.846323983097918
 70
0
  0
VERTEX
  5
8EC7
  8
4
  6
CONTINUOUS
 10
58.144982918927958
 20
52.850553450610541
 70
0
  0
VERTEX
  5
8EC8
  8
4
  6
CONTINUOUS
 10
58.145452486340417
 20
52.854782918123171
 70
0
  0
VERTEX
  5
8EC9
  8
4
  6
CONTINUOUS
 10
58.145452486340417
 20
52.854782918123171
 70
0
  0
VERTEX
  5
8ECA
  8
4
  6
CONTINUOUS
 10
58.145922053753019
 20
52.859012385635879
 70
0
  0
VERTEX
  5
8ECB
  8
4
  6
CONTINUOUS
 10
58.146391621165449
 20
52.863241853148672
 70
0
  0
VERTEX
  5
8ECC
  8
4
  6
CONTINUOUS
 10
58.146391621165449
 20
52.863241853148672
 70
0
  0
VERTEX
  5
8ECD
  8
4
  6
CONTINUOUS
 10
58.146861188577923
 20
52.867471320661359
 70
0
  0
VERTEX
  5
8ECE
  8
4
  6
CONTINUOUS
 10
58.14733075599046
 20
52.871700788174032
 70
0
  0
VERTEX
  5
8ECF
  8
4
  6
CONTINUOUS
 10
58.14733075599046
 20
52.871700788174032
 70
0
  0
VERTEX
  5
8ED0
  8
4
  6
CONTINUOUS
 10
58.14780032340294
 20
52.875930255686932
 70
0
  0
VERTEX
  5
8ED1
  8
4
  6
CONTINUOUS
 10
58.14826989081552
 20
52.8801597231997
 70
0
  0
SEQEND
  5
8ED2
  8
0
  0
POLYLINE
  5
2350
  8
4
  6
CONTINUOUS
 66
1
 70
0
 10
0
 20
0
 30
0
  0
VERTEX
  5
8ED3
  8
4
  6
CONTINUOUS
 10
58.115526699760437
 20
52.651001952915131
 70
0
  0
VERTEX
  5
8ED4
  8
4
  6
CONTINUOUS
 10
58.116457027302133
 20
52.656259079881323
 70
0
  0
VERTEX
  5
8ED5
  8
4
  6
CONTINUOUS
 10
58.117386728772459
 20
52.661519682441508
 70
0
  0
VERTEX
  5
8ED6
  8
4
  6
CONTINUOUS
 10
58.117386728772459
 20
52.661519682441508
 70
0
  0
VERTEX
  5
8ED7
  8
4
  6
CONTINUOUS
 10
58.118314644493779
 20
52.666783955428372
 70
0
  0
VERTEX
  5
8ED8
  8
4
  6
CONTINUOUS
 10
58.119237480366706
 20
52.672038970628741
 70
0
  0
VERTEX
  5
8ED9
  8
4
  6
CONTINUOUS
 10
58.119237480366706
 20
52.672038970628741
 70
0
  0
VERTEX
  5
8EDA
  8
4
  6
CONTINUOUS
 10
58.120153543108387
 20
52.677281642114231
 70
0
  0
VERTEX
  5
8EDB
  8
4
  6
CONTINUOUS
 10
58.1210696771258
 20
52.682561376137322
 70
0
  0
VERTEX
  5
8EDC
  8
4
  6
CONTINUOUS
 10
58.1210696771258
 20
52.682561376137322
 70
0
  0
VERTEX
  5
8EDD
  8
4
  6
CONTINUOUS
 10
58.121986857164181
 20
52.687891490576149
 70
0
  0
VERTEX
  5
8EDE
  8
4
  6
CONTINUOUS
 10
58.122874041631711
 20
52.69308845762783
 70
0
  0
VERTEX
  5
8EDF
  8
4
  6
CONTINUOUS
 10
58.122874041631711
 20
52.69308845762783
 70
0
  0
VERTEX
  5
8EE0
  8
4
  6
CONTINUOUS
 10
58.123722066766959
 20
52.698103260704471
 70
0
  0
VERTEX
  5
8EE1
  8
4
  6
CONTINUOUS
 10
58.124641296466912
 20
52.703621773761391
 70
0
  0
VERTEX
  5
8EE2
  8
4
  6
CONTINUOUS
 10
58.124641296466912
 20
52.703621773761391
 70
0
  0
VERTEX
  5
8EE3
  8
4
  6
CONTINUOUS
 10
58.12572423769879
 20
52.710223634646162
 70
0
  0
VERTEX
  5
8EE4
  8
4
  6
CONTINUOUS
 10
58.126872442051422
 20
52.717328646231479
 70
0
  0
VERTEX
  5
8EE5
  8
4
  6
CONTINUOUS
 10
58.126872442051422
 20
52.717328646231479
 70
0
  0
VERTEX
  5
8EE6
  8
4
  6
CONTINUOUS
 10
58.127970881331052
 20
52.72425167377682
 70
0
  0
VERTEX
  5
8EE7
  8
4
  6
CONTINUOUS
 10
58.129029163591461
 20
52.7310476670593
 70
0
  0
VERTEX
  5
8EE8
  8
4
  6
CONTINUOUS
 10
58.129029163591461
 20
52.7310476670593
 70
0
  0
VERTEX
  5
8EE9
  8
4
  6
CONTINUOUS
 10
58.1300789476198
 20
52.737901518837262
 70
0
  0
VERTEX
  5
8EEA
  8
4
  6
CONTINUOUS
 10
58.131115458890072
 20
52.744777809271959
 70
0
  0
VERTEX
  5
8EEB
  8
4
  6
CONTINUOUS
 10
58.131115458890072
 20
52.744777809271959
 70
0
  0
VERTEX
  5
8EEC
  8
4
  6
CONTINUOUS
 10
58.132130088798981
 20
52.751621331842557
 70
0
  0
VERTEX
  5
8EED
  8
4
  6
CONTINUOUS
 10
58.133135325750111
 20
52.758518045895777
 70
0
  0
VERTEX
  5
8EEE
  8
4
  6
CONTINUOUS
 10
58.133135325750111
 20
52.758518045895777
 70
0
  0
VERTEX
  5
8EEF
  8
4
  6
CONTINUOUS
 10
58.134136943720648
 20
52.765503114527057
 70
0
  0
VERTEX
  5
8EF0
  8
4
  6
CONTINUOUS
 10
58.135092761974747
 20
52.7722673499575
 70
0
  0
VERTEX
  5
8EF1
  8
4
  6
CONTINUOUS
 10
58.135092761974747
 20
52.7722673499575
 70
0
  0
VERTEX
  5
8EF2
  8
4
  6
CONTINUOUS
 10
58.135966698320161
 20
52.778544629900239
 70
0
  0
VERTEX
  5
8EF3
  8
4
  6
CONTINUOUS
 10
58.136795019449551
 20
52.784585444907933
 70
0
  0
VERTEX
  5
8EF4
  8
4
  6
CONTINUOUS
 10
58.136795019449551
 20
52.784585444907933
 70
0
  0
VERTEX
  5
8EF5
  8
4
  6
CONTINUOUS
 10
58.137621667373708
 20
52.790698655588429
 70
0
  0
VERTEX
  5
8EF6
  8
4
  6
CONTINUOUS
 10
58.138448936488622
 20
52.796909989930811
 70
0
  0
VERTEX
  5
8EF7
  8
4
  6
CONTINUOUS
 10
58.138448936488622
 20
52.796909989930811
 70
0
  0
VERTEX
  5
8EF8
  8
4
  6
CONTINUOUS
 10
58.13926622832907
 20
52.803148665244031
 70
0
  0
VERTEX
  5
8EF9
  8
4
  6
CONTINUOUS
 10
58.14005302059666
 20
52.80924098873659
 70
0
  0
VERTEX
  5
8EFA
  8
4
  6
CONTINUOUS
 10
58.14005302059666
 20
52.80924098873659
 70
0
  0
VERTEX
  5
8EFB
  8
4
  6
CONTINUOUS
 10
58.1408066457717
 20
52.815161233347283
 70
0
  0
VERTEX
  5
8EFC
  8
4
  6
CONTINUOUS
 10
58.141605779279111
 20
52.821578445035613
 70
0
  0
VERTEX
  5
8EFD
  8
4
  6
CONTINUOUS
 10
58.141605779279111
 20
52.821578445035613
 70
0
  0
VERTEX
  5
8EFE
  8
4
  6
CONTINUOUS
 10
58.14247057029322
 20
52.828666317520643
 70
0
  0
VERTEX
  5
8EFF
  8
4
  6
CONTINUOUS
 10
58.143105720040673
 20
52.833922362537649
 70
0
  0
VERTEX
  5
8F00
  8
4
  6
CONTINUOUS
 10
58.143105720040673
 20
52.833922362537649
 70
0
  0
VERTEX
  5
8F01
  8
4
  6
CONTINUOUS
 10
58.143263221818408
 20
52.835232300435877
 70
0
  0
VERTEX
  5
8F02
  8
4
  6
CONTINUOUS
 10
58.143199685153377
 20
52.834710868006852
 70
0
  0
VERTEX
  5
8F03
  8
4
  6
CONTINUOUS
 10
58.143199685153377
 20
52.834710868006852
 70
0
  0
VERTEX
  5
8F04
  8
4
  6
CONTINUOUS
 10
58.143216988910631
 20
52.8348597485013
 70
0
  0
VERTEX
  5
8F05
  8
4
  6
CONTINUOUS
 10
58.143293473077563
 20
52.835499394568039
 70
0
  0
VERTEX
  5
8F06
  8
4
  6
CONTINUOUS
 10
58.143293473077563
 20
52.835499394568039
 70
0
  0
VERTEX
  5
8F07
  8
4
  6
CONTINUOUS
 10
58.143348258471811
 20
52.83595949789742
 70
0
  0
VERTEX
  5
8F08
  8
4
  6
CONTINUOUS
 10
58.143387128110447
 20
52.83628793694804
 70
0
  0
VERTEX
  5
8F09
  8
4
  6
CONTINUOUS
 10
58.143387128110447
 20
52.83628793694804
 70
0
  0
VERTEX
  5
8F0A
  8
4
  6
CONTINUOUS
 10
58.143431753080392
 20
52.836664257752943
 70
0
  0
VERTEX
  5
8F0B
  8
4
  6
CONTINUOUS
 10
58.143480694549027
 20
52.837076489873773
 70
0
  0
VERTEX
  5
8F0C
  8
4
  6
CONTINUOUS
 10
58.143480694549027
 20
52.837076489873773
 70
0
  0
VERTEX
  5
8F0D
  8
4
  6
CONTINUOUS
 10
58.143528180573291
 20
52.837476753533281
 70
0
  0
VERTEX
  5
8F0E
  8
4
  6
CONTINUOUS
 10
58.14357421669051
 20
52.837865048072558
 70
0
  0
SEQEND
  5
8F0F
  8
0
  0
POLYLINE
  5
2351
  8
4
  6
CONTINUOUS
 66
1
 70
0
 10
0
 20
0
 30
0
  0
VERTEX
  5
8F10
  8
4
  6
CONTINUOUS
 10
58.1099728665705
 20
52.621391717241089
 70
0
  0
VERTEX
  5
8F11
  8
4
  6
CONTINUOUS
 10
58.110154848069669
 20
52.6223399277088
 70
0
  0
VERTEX
  5
8F12
  8
4
  6
CONTINUOUS
 10
58.110337198033861
 20
52.623290344431439
 70
0
  0
VERTEX
  5
8F13
  8
4
  6
CONTINUOUS
 10
58.110337198033861
 20
52.623290344431439
 70
0
  0
VERTEX
  5
8F14
  8
4
  6
CONTINUOUS
 10
58.110519870622113
 20
52.6242429760497
 70
0
  0
VERTEX
  5
8F15
  8
4
  6
CONTINUOUS
 10
58.110701162769509
 20
52.625189040748069
 70
0
  0
VERTEX
  5
8F16
  8
4
  6
CONTINUOUS
 10
58.110701162769509
 20
52.625189040748069
 70
0
  0
VERTEX
  5
8F17
  8
4
  6
CONTINUOUS
 10
58.110880614328948
 20
52.626126349553637
 70
0
  0
VERTEX
  5
8F18
  8
4
  6
CONTINUOUS
 10
58.1110643940496
 20
52.627087875317137
 70
0
  0
VERTEX
  5
8F19
  8
4
  6
CONTINUOUS
 10
58.1110643940496
 20
52.627087875317137
 70
0
  0
VERTEX
  5
8F1A
  8
4
  6
CONTINUOUS
 10
58.11125411331443
 20
52.62808241713563
 70
0
  0
VERTEX
  5
8F1B
  8
4
  6
CONTINUOUS
 10
58.11142652514647
 20
52.628986917264612
 70
0
  0
VERTEX
  5
8F1C
  8
4
  6
CONTINUOUS
 10
58.11142652514647
 20
52.628986917264612
 70
0
  0
VERTEX
  5
8F1D
  8
4
  6
CONTINUOUS
 10
58.111575369114732
 20
52.629768420134333
 70
0
  0
VERTEX
  5
8F1E
  8
4
  6
CONTINUOUS
 10
58.11178718933224
 20
52.630886235716822
 70
0
  0
VERTEX
  5
8F1F
  8
4
  6
CONTINUOUS
 10
58.11178718933224
 20
52.630886235716822
 70
0
  0
VERTEX
  5
8F20
  8
4
  6
CONTINUOUS
 10
58.112135007316368
 20
52.63272864167979
 70
0
  0
VERTEX
  5
8F21
  8
4
  6
CONTINUOUS
 10
58.112544949657263
 20
52.634907520932359
 70
0
  0
VERTEX
  5
8F22
  8
4
  6
CONTINUOUS
 10
58.112544949657263
 20
52.634907520932359
 70
0
  0
VERTEX
  5
8F23
  8
4
  6
CONTINUOUS
 10
58.112929834085847
 20
52.636963683791848
 70
0
  0
VERTEX
  5
8F24
  8
4
  6
CONTINUOUS
 10
58.113296137822687
 20
52.63893004496385
 70
0
  0
VERTEX
  5
8F25
  8
4
  6
CONTINUOUS
 10
58.113296137822687
 20
52.63893004496385
 70
0
  0
VERTEX
  5
8F26
  8
4
  6
CONTINUOUS
 10
58.11366748112053
 20
52.640929591832887
 70
0
  0
VERTEX
  5
8F27
  8
4
  6
CONTINUOUS
 10
58.114042396868342
 20
52.642953498107651
 70
0
  0
VERTEX
  5
8F28
  8
4
  6
CONTINUOUS
 10
58.114042396868342
 20
52.642953498107651
 70
0
  0
VERTEX
  5
8F29
  8
4
  6
CONTINUOUS
 10
58.114414818605383
 20
52.644968771655968
 70
0
  0
VERTEX
  5
8F2A
  8
4
  6
CONTINUOUS
 10
58.114785369834287
 20
52.646977570659359
 70
0
  0
VERTEX
  5
8F2B
  8
4
  6
CONTINUOUS
 10
58.114785369834287
 20
52.646977570659359
 70
0
  0
VERTEX
  5
8F2C
  8
4
  6
CONTINUOUS
 10
58.115155928425928
 20
52.6489886439835
 70
0
  0
VERTEX
  5
8F2D
  8
4
  6
CONTINUOUS
 10
58.115526699760437
 20
52.651001952915131
 70
0
  0
SEQEND
  5
8F2E
  8
0
  0
POLYLINE
  5
2352
  8
4
  6
CONTINUOUS
 66
1
 70
0
 10
0
 20
0
 30
0
  0
VERTEX
  5
8F2F
  8
4
  6
CONTINUOUS
 10
58.082362863370449
 20
52.493265734732468
 70
0
  0
VERTEX
  5
8F30
  8
4
  6
CONTINUOUS
 10
58.083861737102382
 20
52.499710627875082
 70
0
  0
VERTEX
  5
8F31
  8
4
  6
CONTINUOUS
 10
58.0853584196906
 20
52.50615572793545
 70
0
  0
VERTEX
  5
8F32
  8
4
  6
CONTINUOUS
 10
58.0853584196906
 20
52.50615572793545
 70
0
  0
VERTEX
  5
8F33
  8
4
  6
CONTINUOUS
 10
58.086850773556648
 20
52.512601495309632
 70
0
  0
VERTEX
  5
8F34
  8
4
  6
CONTINUOUS
 10
58.088336875383277
 20
52.519049404307559
 70
0
  0
VERTEX
  5
8F35
  8
4
  6
CONTINUOUS
 10
58.088336875383277
 20
52.519049404307559
 70
0
  0
VERTEX
  5
8F36
  8
4
  6
CONTINUOUS
 10
58.089814641157417
 20
52.525500168804072
 70
0
  0
VERTEX
  5
8F37
  8
4
  6
CONTINUOUS
 10
58.091281129821184
 20
52.5319504470184
 70
0
  0
VERTEX
  5
8F38
  8
4
  6
CONTINUOUS
 10
58.091281129821184
 20
52.5319504470184
 70
0
  0
VERTEX
  5
8F39
  8
4
  6
CONTINUOUS
 10
58.09273398953507
 20
52.538399685433028
 70
0
  0
VERTEX
  5
8F3A
  8
4
  6
CONTINUOUS
 10
58.094174082376711
 20
52.544862539236412
 70
0
  0
VERTEX
  5
8F3B
  8
4
  6
CONTINUOUS
 10
58.094174082376711
 20
52.544862539236412
 70
0
  0
VERTEX
  5
8F3C
  8
4
  6
CONTINUOUS
 10
58.0956000742469
 20
52.551343271001222
 70
0
  0
VERTEX
  5
8F3D
  8
4
  6
CONTINUOUS
 10
58.096998632422782
 20
52.557789364131182
 70
0
  0
VERTEX
  5
8F3E
  8
4
  6
CONTINUOUS
 10
58.096998632422782
 20
52.557789364131182
 70
0
  0
VERTEX
  5
8F3F
  8
4
  6
CONTINUOUS
 10
58.098358939884491
 20
52.564156329024733
 70
0
  0
VERTEX
  5
8F40
  8
4
  6
CONTINUOUS
 10
58.099692241047933
 20
52.5704885632297
 70
0
  0
VERTEX
  5
8F41
  8
4
  6
CONTINUOUS
 10
58.099692241047933
 20
52.5704885632297
 70
0
  0
VERTEX
  5
8F42
  8
4
  6
CONTINUOUS
 10
58.101012188800141
 20
52.576838514385
 70
0
  0
VERTEX
  5
8F43
  8
4
  6
CONTINUOUS
 10
58.102320008476049
 20
52.58320194334356
 70
0
  0
VERTEX
  5
8F44
  8
4
  6
CONTINUOUS
 10
58.102320008476049
 20
52.58320194334356
 70
0
  0
VERTEX
  5
8F45
  8
4
  6
CONTINUOUS
 10
58.10361465072539
 20
52.58956423525273
 70
0
  0
VERTEX
  5
8F46
  8
4
  6
CONTINUOUS
 10
58.104898395006288
 20
52.59592595921962
 70
0
  0
VERTEX
  5
8F47
  8
4
  6
CONTINUOUS
 10
58.104898395006288
 20
52.59592595921962
 70
0
  0
VERTEX
  5
8F48
  8
4
  6
CONTINUOUS
 10
58.106174131058019
 20
52.602290468077513
 70
0
  0
VERTEX
  5
8F49
  8
4
  6
CONTINUOUS
 10
58.107443860938091
 20
52.60865706560346
 70
0
  0
VERTEX
  5
8F4A
  8
4
  6
CONTINUOUS
 10
58.107443860938091
 20
52.60865706560346
 70
0
  0
VERTEX
  5
8F4B
  8
4
  6
CONTINUOUS
 10
58.10870942026304
 20
52.615024296376887
 70
0
  0
VERTEX
  5
8F4C
  8
4
  6
CONTINUOUS
 10
58.1099728665705
 20
52.621391717241089
 70
0
  0
SEQEND
  5
8F4D
  8
0
  0
POLYLINE
  5
2353
  8
4
  6
CONTINUOUS
 66
1
 70
0
 10
0
 20
0
 30
0
  0
VERTEX
  5
8F4E
  8
4
  6
CONTINUOUS
 10
58.071525863963181
 20
52.449289996929693
 70
0
  0
VERTEX
  5
8F4F
  8
4
  6
CONTINUOUS
 10
58.072463021395251
 20
52.453023738053062
 70
0
  0
VERTEX
  5
8F50
  8
4
  6
CONTINUOUS
 10
58.0733979343251
 20
52.456751280608039
 70
0
  0
VERTEX
  5
8F51
  8
4
  6
CONTINUOUS
 10
58.0733979343251
 20
52.456751280608039
 70
0
  0
VERTEX
  5
8F52
  8
4
  6
CONTINUOUS
 10
58.074329884509332
 20
52.460472799586441
 70
0
  0
VERTEX
  5
8F53
  8
4
  6
CONTINUOUS
 10
58.075264258740091
 20
52.464213964220711
 70
0
  0
VERTEX
  5
8F54
  8
4
  6
CONTINUOUS
 10
58.075264258740091
 20
52.464213964220711
 70
0
  0
VERTEX
  5
8F55
  8
4
  6
CONTINUOUS
 10
58.076201865032942
 20
52.467981323062951
 70
0
  0
VERTEX
  5
8F56
  8
4
  6
CONTINUOUS
 10
58.077119091260641
 20
52.471679447701462
 70
0
  0
VERTEX
  5
8F57
  8
4
  6
CONTINUOUS
 10
58.077119091260641
 20
52.471679447701462
 70
0
  0
VERTEX
  5
8F58
  8
4
  6
CONTINUOUS
 10
58.0780091141441
 20
52.475283018887531
 70
0
  0
VERTEX
  5
8F59
  8
4
  6
CONTINUOUS
 10
58.078956685939993
 20
52.47914913098473
 70
0
  0
VERTEX
  5
8F5A
  8
4
  6
CONTINUOUS
 10
58.078956685939993
 20
52.47914913098473
 70
0
  0
VERTEX
  5
8F5B
  8
4
  6
CONTINUOUS
 10
58.079983982288582
 20
52.483373562388223
 70
0
  0
VERTEX
  5
8F5C
  8
4
  6
CONTINUOUS
 10
58.080771296830733
 20
52.486624414004538
 70
0
  0
VERTEX
  5
8F5D
  8
4
  6
CONTINUOUS
 10
58.080771296830733
 20
52.486624414004538
 70
0
  0
VERTEX
  5
8F5E
  8
4
  6
CONTINUOUS
 10
58.081049130710262
 20
52.487775656033129
 70
0
  0
VERTEX
  5
8F5F
  8
4
  6
CONTINUOUS
 10
58.081090697080953
 20
52.487952413328891
 70
0
  0
VERTEX
  5
8F60
  8
4
  6
CONTINUOUS
 10
58.081090697080953
 20
52.487952413328891
 70
0
  0
VERTEX
  5
8F61
  8
4
  6
CONTINUOUS
 10
58.081218484697381
 20
52.488485907086343
 70
0
  0
VERTEX
  5
8F62
  8
4
  6
CONTINUOUS
 10
58.081409372703028
 20
52.48928058920103
 70
0
  0
VERTEX
  5
8F63
  8
4
  6
CONTINUOUS
 10
58.081409372703028
 20
52.48928058920103
 70
0
  0
VERTEX
  5
8F64
  8
4
  6
CONTINUOUS
 10
58.081576981340191
 20
52.489979761831187
 70
0
  0
VERTEX
  5
8F65
  8
4
  6
CONTINUOUS
 10
58.081727504853752
 20
52.490608897483213
 70
0
  0
VERTEX
  5
8F66
  8
4
  6
CONTINUOUS
 10
58.081727504853752
 20
52.490608897483213
 70
0
  0
VERTEX
  5
8F67
  8
4
  6
CONTINUOUS
 10
58.081884109389136
 20
52.491263533226871
 70
0
  0
VERTEX
  5
8F68
  8
4
  6
CONTINUOUS
 10
58.082045274690628
 20
52.491937294039381
 70
0
  0
VERTEX
  5
8F69
  8
4
  6
CONTINUOUS
 10
58.082045274690628
 20
52.491937294039381
 70
0
  0
VERTEX
  5
8F6A
  8
4
  6
CONTINUOUS
 10
58.082204851802892
 20
52.49260469638034
 70
0
  0
VERTEX
  5
8F6B
  8
4
  6
CONTINUOUS
 10
58.082362863370449
 20
52.493265734732468
 70
0
  0
SEQEND
  5
8F6C
  8
0
  0
POLYLINE
  5
2354
  8
4
  6
CONTINUOUS
 66
1
 70
0
 10
0
 20
0
 30
0
  0
VERTEX
  5
8F6D
  8
4
  6
CONTINUOUS
 10
57.979382129531352
 20
52.15244150502911
 70
0
  0
VERTEX
  5
8F6E
  8
4
  6
CONTINUOUS
 10
57.981735201048529
 20
52.1589673833365
 70
0
  0
VERTEX
  5
8F6F
  8
4
  6
CONTINUOUS
 10
57.984086348959671
 20
52.165493907660647
 70
0
  0
VERTEX
  5
8F70
  8
4
  6
CONTINUOUS
 10
57.984086348959671
 20
52.165493907660647
 70
0
  0
VERTEX
  5
8F71
  8
4
  6
CONTINUOUS
 10
57.986433656717573
 20
52.172021744757842
 70
0
  0
VERTEX
  5
8F72
  8
4
  6
CONTINUOUS
 10
57.988775236012529
 20
52.17855164434723
 70
0
  0
VERTEX
  5
8F73
  8
4
  6
CONTINUOUS
 10
57.988775236012529
 20
52.17855164434723
 70
0
  0
VERTEX
  5
8F74
  8
4
  6
CONTINUOUS
 10
57.991109177356641
 20
52.1850842939261
 70
0
  0
VERTEX
  5
8F75
  8
4
  6
CONTINUOUS
 10
57.993433458314684
 20
52.191620049143552
 70
0
  0
VERTEX
  5
8F76
  8
4
  6
CONTINUOUS
 10
57.993433458314684
 20
52.191620049143552
 70
0
  0
VERTEX
  5
8F77
  8
4
  6
CONTINUOUS
 10
57.99574613410293
 20
52.198159493795082
 70
0
  0
VERTEX
  5
8F78
  8
4
  6
CONTINUOUS
 10
57.998045683490773
 20
52.204704456104423
 70
0
  0
VERTEX
  5
8F79
  8
4
  6
CONTINUOUS
 10
57.998045683490773
 20
52.204704456104423
 70
0
  0
VERTEX
  5
8F7A
  8
4
  6
CONTINUOUS
 10
58.000330295819531
 20
52.211255913935808
 70
0
  0
VERTEX
  5
8F7B
  8
4
  6
CONTINUOUS
 10
58.0025965791653
 20
52.2178101992851
 70
0
  0
VERTEX
  5
8F7C
  8
4
  6
CONTINUOUS
 10
58.0025965791653
 20
52.2178101992851
 70
0
  0
VERTEX
  5
8F7D
  8
4
  6
CONTINUOUS
 10
58.004841776172029
 20
52.224364170643817
 70
0
  0
VERTEX
  5
8F7E
  8
4
  6
CONTINUOUS
 10
58.007067249021219
 20
52.230921438353207
 70
0
  0
VERTEX
  5
8F7F
  8
4
  6
CONTINUOUS
 10
58.007067249021219
 20
52.230921438353207
 70
0
  0
VERTEX
  5
8F80
  8
4
  6
CONTINUOUS
 10
58.009274976642573
 20
52.237486110012412
 70
0
  0
VERTEX
  5
8F81
  8
4
  6
CONTINUOUS
 10
58.011465285422219
 20
52.2440575303997
 70
0
  0
VERTEX
  5
8F82
  8
4
  6
CONTINUOUS
 10
58.011465285422219
 20
52.2440575303997
 70
0
  0
VERTEX
  5
8F83
  8
4
  6
CONTINUOUS
 10
58.013638236644532
 20
52.250634291783122
 70
0
  0
VERTEX
  5
8F84
  8
4
  6
CONTINUOUS
 10
58.015794483730538
 20
52.25721673920826
 70
0
  0
VERTEX
  5
8F85
  8
4
  6
CONTINUOUS
 10
58.015794483730538
 20
52.25721673920826
 70
0
  0
VERTEX
  5
8F86
  8
4
  6
CONTINUOUS
 10
58.017934649134581
 20
52.263805093842649
 70
0
  0
VERTEX
  5
8F87
  8
4
  6
CONTINUOUS
 10
58.020058639308637
 20
52.27039732856344
 70
0
  0
VERTEX
  5
8F88
  8
4
  6
CONTINUOUS
 10
58.020058639308637
 20
52.27039732856344
 70
0
  0
VERTEX
  5
8F89
  8
4
  6
CONTINUOUS
 10
58.02216674967255
 20
52.276992664271177
 70
0
  0
VERTEX
  5
8F8A
  8
4
  6
CONTINUOUS
 10
58.02426154751879
 20
52.283597562249071
 70
0
  0
VERTEX
  5
8F8B
  8
4
  6
CONTINUOUS
 10
58.02426154751879
 20
52.283597562249071
 70
0
  0
VERTEX
  5
8F8C
  8
4
  6
CONTINUOUS
 10
58.026345193773132
 20
52.290217528643858
 70
0
  0
VERTEX
  5
8F8D
  8
4
  6
CONTINUOUS
 10
58.028415952020893
 20
52.296847008670852
 70
0
  0
VERTEX
  5
8F8E
  8
4
  6
CONTINUOUS
 10
58.028415952020893
 20
52.296847008670852
 70
0
  0
VERTEX
  5
8F8F
  8
4
  6
CONTINUOUS
 10
58.030471640570319
 20
52.303479326916992
 70
0
  0
VERTEX
  5
8F90
  8
4
  6
CONTINUOUS
 10
58.032512193960493
 20
52.310114386384171
 70
0
  0
VERTEX
  5
8F91
  8
4
  6
CONTINUOUS
 10
58.032512193960493
 20
52.310114386384171
 70
0
  0
VERTEX
  5
8F92
  8
4
  6
CONTINUOUS
 10
58.034538086158392
 20
52.316753824060171
 70
0
  0
VERTEX
  5
8F93
  8
4
  6
CONTINUOUS
 10
58.036549832609261
 20
52.323399634459271
 70
0
  0
VERTEX
  5
8F94
  8
4
  6
CONTINUOUS
 10
58.036549832609261
 20
52.323399634459271
 70
0
  0
VERTEX
  5
8F95
  8
4
  6
CONTINUOUS
 10
58.038547388591716
 20
52.33005189934736
 70
0
  0
VERTEX
  5
8F96
  8
4
  6
CONTINUOUS
 10
58.040528427238229
 20
52.33670269196675
 70
0
  0
VERTEX
  5
8F97
  8
4
  6
CONTINUOUS
 10
58.040528427238229
 20
52.33670269196675
 70
0
  0
VERTEX
  5
8F98
  8
4
  6
CONTINUOUS
 10
58.042492322921291
 20
52.3433500025704
 70
0
  0
VERTEX
  5
8F99
  8
4
  6
CONTINUOUS
 10
58.04444753711897
 20
52.350023497976707
 70
0
  0
VERTEX
  5
8F9A
  8
4
  6
CONTINUOUS
 10
58.04444753711897
 20
52.350023497976707
 70
0
  0
VERTEX
  5
8F9B
  8
4
  6
CONTINUOUS
 10
58.046400803496631
 20
52.356746998535392
 70
0
  0
VERTEX
  5
8F9C
  8
4
  6
CONTINUOUS
 10
58.048342857364027
 20
52.363489262159533
 70
0
  0
VERTEX
  5
8F9D
  8
4
  6
CONTINUOUS
 10
58.048342857364027
 20
52.363489262159533
 70
0
  0
VERTEX
  5
8F9E
  8
4
  6
CONTINUOUS
 10
58.05026471478488
 20
52.370220691413422
 70
0
  0
VERTEX
  5
8F9F
  8
4
  6
CONTINUOUS
 10
58.0521745131973
 20
52.376973329904033
 70
0
  0
VERTEX
  5
8FA0
  8
4
  6
CONTINUOUS
 10
58.0521745131973
 20
52.376973329904033
 70
0
  0
VERTEX
  5
8FA1
  8
4
  6
CONTINUOUS
 10
58.054076209045689
 20
52.383762622544722
 70
0
  0
VERTEX
  5
8FA2
  8
4
  6
CONTINUOUS
 10
58.055939913425533
 20
52.390475978432121
 70
0
  0
VERTEX
  5
8FA3
  8
4
  6
CONTINUOUS
 10
58.055939913425533
 20
52.390475978432121
 70
0
  0
VERTEX
  5
8FA4
  8
4
  6
CONTINUOUS
 10
58.057756841100307
 20
52.397081423264439
 70
0
  0
VERTEX
  5
8FA5
  8
4
  6
CONTINUOUS
 10
58.059636466855693
 20
52.403997484965821
 70
0
  0
VERTEX
  5
8FA6
  8
4
  6
CONTINUOUS
 10
58.059636466855693
 20
52.403997484965821
 70
0
  0
VERTEX
  5
8FA7
  8
4
  6
CONTINUOUS
 10
58.061608031797711
 20
52.41133682374533
 70
0
  0
VERTEX
  5
8FA8
  8
4
  6
CONTINUOUS
 10
58.063261582294729
 20
52.41753812672674
 70
0
  0
VERTEX
  5
8FA9
  8
4
  6
CONTINUOUS
 10
58.063261582294729
 20
52.41753812672674
 70
0
  0
VERTEX
  5
8FAA
  8
4
  6
CONTINUOUS
 10
58.064252150484812
 20
52.4212810871512
 70
0
  0
VERTEX
  5
8FAB
  8
4
  6
CONTINUOUS
 10
58.064933906324782
 20
52.423883395812183
 70
0
  0
VERTEX
  5
8FAC
  8
4
  6
CONTINUOUS
 10
58.064933906324782
 20
52.423883395812183
 70
0
  0
VERTEX
  5
8FAD
  8
4
  6
CONTINUOUS
 10
58.065724110887118
 20
52.42690439909488
 70
0
  0
VERTEX
  5
8FAE
  8
4
  6
CONTINUOUS
 10
58.066593251890538
 20
52.430232068201178
 70
0
  0
VERTEX
  5
8FAF
  8
4
  6
CONTINUOUS
 10
58.066593251890538
 20
52.430232068201178
 70
0
  0
VERTEX
  5
8FB0
  8
4
  6
CONTINUOUS
 10
58.06743004157326
 20
52.43344845298131
 70
0
  0
VERTEX
  5
8FB1
  8
4
  6
CONTINUOUS
 10
58.068242863608162
 20
52.436583293067571
 70
0
  0
VERTEX
  5
8FB2
  8
4
  6
CONTINUOUS
 10
58.068242863608162
 20
52.436583293067571
 70
0
  0
VERTEX
  5
8FB3
  8
4
  6
CONTINUOUS
 10
58.069062041430549
 20
52.4397484045522
 70
0
  0
VERTEX
  5
8FB4
  8
4
  6
CONTINUOUS
 10
58.069885986093652
 20
52.442936219585647
 70
0
  0
VERTEX
  5
8FB5
  8
4
  6
CONTINUOUS
 10
58.069885986093652
 20
52.442936219585647
 70
0
  0
VERTEX
  5
8FB6
  8
4
  6
CONTINUOUS
 10
58.070707125078791
 20
52.44611678582919
 70
0
  0
VERTEX
  5
8FB7
  8
4
  6
CONTINUOUS
 10
58.071525863963181
 20
52.449289996929693
 70
0
  0
SEQEND
  5
8FB8
  8
0
  0
POLYLINE
  5
2355
  8
4
  6
CONTINUOUS
 66
1
 70
0
 10
0
 20
0
 30
0
  0
VERTEX
  5
8FB9
  8
4
  6
CONTINUOUS
 10
57.968385282334751
 20
52.123049893251192
 70
0
  0
VERTEX
  5
8FBA
  8
4
  6
CONTINUOUS
 10
57.969484967054377
 20
52.125989054428757
 70
0
  0
VERTEX
  5
8FBB
  8
4
  6
CONTINUOUS
 10
57.970584651774089
 20
52.12892821560672
 70
0
  0
VERTEX
  5
8FBC
  8
4
  6
CONTINUOUS
 10
57.970584651774089
 20
52.12892821560672
 70
0
  0
VERTEX
  5
8FBD
  8
4
  6
CONTINUOUS
 10
57.971684336493752
 20
52.131867376784591
 70
0
  0
VERTEX
  5
8FBE
  8
4
  6
CONTINUOUS
 10
57.972784021213407
 20
52.134806537962419
 70
0
  0
VERTEX
  5
8FBF
  8
4
  6
CONTINUOUS
 10
57.972784021213407
 20
52.134806537962419
 70
0
  0
VERTEX
  5
8FC0
  8
4
  6
CONTINUOUS
 10
57.9738837059331
 20
52.137745699140417
 70
0
  0
VERTEX
  5
8FC1
  8
4
  6
CONTINUOUS
 10
57.97498339065271
 20
52.140684860317982
 70
0
  0
VERTEX
  5
8FC2
  8
4
  6
CONTINUOUS
 10
57.97498339065271
 20
52.140684860317982
 70
0
  0
VERTEX
  5
8FC3
  8
4
  6
CONTINUOUS
 10
57.976083075372372
 20
52.1436240214957
 70
0
  0
VERTEX
  5
8FC4
  8
4
  6
CONTINUOUS
 10
57.977182760092
 20
52.146563182673411
 70
0
  0
VERTEX
  5
8FC5
  8
4
  6
CONTINUOUS
 10
57.977182760092
 20
52.146563182673411
 70
0
  0
VERTEX
  5
8FC6
  8
4
  6
CONTINUOUS
 10
57.978282444811661
 20
52.149502343851211
 70
0
  0
VERTEX
  5
8FC7
  8
4
  6
CONTINUOUS
 10
57.979382129531352
 20
52.15244150502911
 70
0
  0
SEQEND
  5
8FC8
  8
0
  0
POLYLINE
  5
2356
  8
4
  6
CONTINUOUS
 66
1
 70
0
 10
0
 20
0
 30
0
  0
VERTEX
  5
8FC9
  8
4
  6
CONTINUOUS
 10
57.965558218900959
 20
52.115642038623747
 70
0
  0
VERTEX
  5
8FCA
  8
4
  6
CONTINUOUS
 10
57.9658409252443
 20
52.116382824086422
 70
0
  0
VERTEX
  5
8FCB
  8
4
  6
CONTINUOUS
 10
57.966123631587642
 20
52.117123609549232
 70
0
  0
VERTEX
  5
8FCC
  8
4
  6
CONTINUOUS
 10
57.966123631587642
 20
52.117123609549232
 70
0
  0
VERTEX
  5
8FCD
  8
4
  6
CONTINUOUS
 10
57.966406337931
 20
52.117864395011921
 70
0
  0
VERTEX
  5
8FCE
  8
4
  6
CONTINUOUS
 10
57.96668904427446
 20
52.118605180474717
 70
0
  0
VERTEX
  5
8FCF
  8
4
  6
CONTINUOUS
 10
57.96668904427446
 20
52.118605180474717
 70
0
  0
VERTEX
  5
8FD0
  8
4
  6
CONTINUOUS
 10
57.966971750617887
 20
52.1193459659374
 70
0
  0
VERTEX
  5
8FD1
  8
4
  6
CONTINUOUS
 10
57.967254456961292
 20
52.120086751400223
 70
0
  0
VERTEX
  5
8FD2
  8
4
  6
CONTINUOUS
 10
57.967254456961292
 20
52.120086751400223
 70
0
  0
VERTEX
  5
8FD3
  8
4
  6
CONTINUOUS
 10
57.9675371633046
 20
52.120827536862961
 70
0
  0
VERTEX
  5
8FD4
  8
4
  6
CONTINUOUS
 10
57.9678198696479
 20
52.121568322325707
 70
0
  0
VERTEX
  5
8FD5
  8
4
  6
CONTINUOUS
 10
57.9678198696479
 20
52.121568322325707
 70
0
  0
VERTEX
  5
8FD6
  8
4
  6
CONTINUOUS
 10
57.968102575991317
 20
52.122309107788539
 70
0
  0
VERTEX
  5
8FD7
  8
4
  6
CONTINUOUS
 10
57.968385282334751
 20
52.123049893251192
 70
0
  0
SEQEND
  5
8FD8
  8
0
  0
POLYLINE
  5
2357
  8
4
  6
CONTINUOUS
 66
1
 70
0
 10
0
 20
0
 30
0
  0
VERTEX
  5
8FD9
  8
4
  6
CONTINUOUS
 10
57.95969683565243
 20
52.100467047891087
 70
0
  0
VERTEX
  5
8FDA
  8
4
  6
CONTINUOUS
 10
57.9602829739772
 20
52.101984546964211
 70
0
  0
VERTEX
  5
8FDB
  8
4
  6
CONTINUOUS
 10
57.960869112302078
 20
52.103502046037541
 70
0
  0
VERTEX
  5
8FDC
  8
4
  6
CONTINUOUS
 10
57.960869112302078
 20
52.103502046037541
 70
0
  0
VERTEX
  5
8FDD
  8
4
  6
CONTINUOUS
 10
57.961455250626948
 20
52.105019545110942
 70
0
  0
VERTEX
  5
8FDE
  8
4
  6
CONTINUOUS
 10
57.962041388951768
 20
52.106537044184243
 70
0
  0
VERTEX
  5
8FDF
  8
4
  6
CONTINUOUS
 10
57.962041388951768
 20
52.106537044184243
 70
0
  0
VERTEX
  5
8FE0
  8
4
  6
CONTINUOUS
 10
57.96262752727668
 20
52.10805454325758
 70
0
  0
VERTEX
  5
8FE1
  8
4
  6
CONTINUOUS
 10
57.963213665601423
 20
52.109572042330711
 70
0
  0
VERTEX
  5
8FE2
  8
4
  6
CONTINUOUS
 10
57.963213665601423
 20
52.109572042330711
 70
0
  0
VERTEX
  5
8FE3
  8
4
  6
CONTINUOUS
 10
57.963799803926179
 20
52.111089541403977
 70
0
  0
VERTEX
  5
8FE4
  8
4
  6
CONTINUOUS
 10
57.964385942251113
 20
52.112607040477137
 70
0
  0
VERTEX
  5
8FE5
  8
4
  6
CONTINUOUS
 10
57.964385942251113
 20
52.112607040477137
 70
0
  0
VERTEX
  5
8FE6
  8
4
  6
CONTINUOUS
 10
57.9649720805761
 20
52.114124539550552
 70
0
  0
VERTEX
  5
8FE7
  8
4
  6
CONTINUOUS
 10
57.965558218900959
 20
52.115642038623747
 70
0
  0
SEQEND
  5
8FE8
  8
0
  0
POLYLINE
  5
2358
  8
4
  6
CONTINUOUS
 66
1
 70
0
 10
0
 20
0
 30
0
  0
VERTEX
  5
8FE9
  8
4
  6
CONTINUOUS
 10
57.954602127275123
 20
52.087471883127179
 70
0
  0
VERTEX
  5
8FEA
  8
4
  6
CONTINUOUS
 10
57.955111598112872
 20
52.088771399603431
 70
0
  0
VERTEX
  5
8FEB
  8
4
  6
CONTINUOUS
 10
57.95562106895062
 20
52.090070916079839
 70
0
  0
VERTEX
  5
8FEC
  8
4
  6
CONTINUOUS
 10
57.95562106895062
 20
52.090070916079839
 70
0
  0
VERTEX
  5
8FED
  8
4
  6
CONTINUOUS
 10
57.956130539788333
 20
52.091370432556239
 70
0
  0
VERTEX
  5
8FEE
  8
4
  6
CONTINUOUS
 10
57.9566400106261
 20
52.092669949032739
 70
0
  0
VERTEX
  5
8FEF
  8
4
  6
CONTINUOUS
 10
57.9566400106261
 20
52.092669949032739
 70
0
  0
VERTEX
  5
8FF0
  8
4
  6
CONTINUOUS
 10
57.957149481463823
 20
52.0939694655093
 70
0
  0
VERTEX
  5
8FF1
  8
4
  6
CONTINUOUS
 10
57.957658952301642
 20
52.09526898198564
 70
0
  0
VERTEX
  5
8FF2
  8
4
  6
CONTINUOUS
 10
57.957658952301642
 20
52.09526898198564
 70
0
  0
VERTEX
  5
8FF3
  8
4
  6
CONTINUOUS
 10
57.958168423139249
 20
52.09656849846202
 70
0
  0
VERTEX
  5
8FF4
  8
4
  6
CONTINUOUS
 10
57.958677893976947
 20
52.097868014938307
 70
0
  0
VERTEX
  5
8FF5
  8
4
  6
CONTINUOUS
 10
57.958677893976947
 20
52.097868014938307
 70
0
  0
VERTEX
  5
8FF6
  8
4
  6
CONTINUOUS
 10
57.959187364814639
 20
52.099167531414651
 70
0
  0
VERTEX
  5
8FF7
  8
4
  6
CONTINUOUS
 10
57.95969683565243
 20
52.100467047891087
 70
0
  0
SEQEND
  5
8FF8
  8
0
  0
ARC
  5
2359
  8
4
  6
CONTINUOUS
 10
55.165291624374163
 20
53.188408810280478
 30
0
 40
2.9999999999879789
 50
338.72647007759957
 51
0.45945016070657674
  0
ARC
  5
235A
  8
4
  6
CONTINUOUS
 10
54.84971725966075
 20
61.862510253452562
 30
0
 40
0.779999999999973
 50
270
 51
0
  0
ARC
  5
235B
  8
4
  6
CONTINUOUS
 10
54.84971725966075
 20
61.862510253452562
 30
0
 40
0.9
 50
270
 51
0
  0
ARC
  5
235C
  8
4
  6
CONTINUOUS
 10
54.699717259660673
 20
62.507510253453127
 30
0
 40
0.179999999999973
 50
270
 51
0
  0
ARC
  5
235D
  8
4
  6
CONTINUOUS
 10
54.699717259660673
 20
62.507510253453127
 30
0
 40
0.179999999999973
 50
0
 51
90
  0
LINE
  5
235E
  8
4
  6
CONTINUOUS
 10
55.7497172596609
 20
63.152510253452469
 30
0
 11
55.7497172596609
 21
61.862510253452562
 31
0
  0
LINE
  5
235F
  8
4
  6
CONTINUOUS
 10
55.629717259660652
 20
63.152510253452469
 30
0
 11
55.629717259660652
 21
61.862510253452562
 31
0
  0
LINE
  5
2362
  8
4
  6
CONTINUOUS
 10
54.84971725966075
 20
63.932510253452612
 30
0
 11
52.149717259660818
 21
63.932510253452612
 31
0
  0
LINE
  5
2363
  8
4
  6
CONTINUOUS
 10
54.84971725966075
 20
64.052510253452468
 30
0
 11
52.149717259660818
 21
64.052510253452468
 31
0
  0
LINE
  5
2364
  8
4
  6
CONTINUOUS
 10
54.84971725966075
 20
69.122510253453186
 30
0
 11
52.149717259660818
 21
69.122510253453186
 31
0
  0
LINE
  5
2365
  8
4
  6
CONTINUOUS
 10
54.84971725966075
 20
66.2725102534532
 30
0
 11
52.14971725966074
 21
66.2725102534532
 31
0
  0
LINE
  5
2366
  8
4
  6
CONTINUOUS
 10
54.84971725966075
 20
69.242510253452537
 30
0
 11
52.149717259660818
 21
69.242510253452537
 31
0
  0
LINE
  5
2367
  8
4
  6
CONTINUOUS
 10
54.84971725966075
 20
66.152510253453144
 30
0
 11
52.14971725966074
 21
66.152510253452476
 31
0
  0
ARC
  5
2368
  8
4
  6
CONTINUOUS
 10
50.589717259158078
 20
22.577510253435161
 30
0
 40
52.054779341592038
 50
83.4029283981019
 51
96.597071602003
  0
ARC
  5
2369
  8
4
  6
CONTINUOUS
 10
50.589717259158078
 20
22.577510253435161
 30
0
 40
50.404121571540031
 50
83.2830481278038
 51
96.716951871002507
  0
LINE
  5
2371
  8
4
  6
CONTINUOUS
 10
43.239717259414682
 20
73.769449397673085
 30
0
 11
43.239717259414682
 21
69.956566901787738
 31
0
  0
LINE
  5
2372
  8
4
  6
CONTINUOUS
 10
46.329717259660768
 20
63.932510253452612
 30
0
 11
49.029717259660792
 21
63.932510253452612
 31
0
  0
LINE
  5
2373
  8
4
  6
CONTINUOUS
 10
46.329717259660768
 20
64.052510253452468
 30
0
 11
49.02971725966065
 21
64.052510253452468
 31
0
  0
LINE
  5
2374
  8
4
  6
CONTINUOUS
 10
46.329717259660768
 20
69.122510253453186
 30
0
 11
49.029717259660792
 21
69.122510253453186
 31
0
  0
LINE
  5
2375
  8
4
  6
CONTINUOUS
 10
46.329717259660768
 20
66.2725102534532
 30
0
 11
49.029717259660792
 21
66.2725102534532
 31
0
  0
LINE
  5
2376
  8
4
  6
CONTINUOUS
 10
46.329717259660768
 20
69.242510253452537
 30
0
 11
49.02971725966065
 21
69.242510253452537
 31
0
  0
LINE
  5
2377
  8
4
  6
CONTINUOUS
 10
46.329717259660768
 20
66.152510253453144
 30
0
 11
49.029717259660792
 21
66.152510253452476
 31
0
  0
ARC
  5
2378
  8
4
  6
CONTINUOUS
 10
46.329717259660768
 20
68.342510253452545
 30
0
 40
0.9
 50
90
 51
180
  0
ARC
  5
2379
  8
4
  6
CONTINUOUS
 10
46.329717259660768
 20
68.342510253452545
 30
0
 40
0.779999999999973
 50
90
 51
180
  0
ARC
  5
237A
  8
4
  6
CONTINUOUS
 10
46.329717259660768
 20
67.052510253452468
 30
0
 40
0.9
 50
180
 51
270
  0
LINE
  5
237B
  8
4
  6
CONTINUOUS
 10
45.5497172596609
 20
68.342510253452545
 30
0
 11
45.5497172596609
 21
67.052510253452468
 31
0
  0
LINE
  5
237C
  8
4
  6
CONTINUOUS
 10
45.429717259660777
 20
68.342510253452545
 30
0
 11
45.429717259660777
 21
67.052510253452468
 31
0
  0
ARC
  5
237D
  8
4
  6
CONTINUOUS
 10
46.329717259660768
 20
67.052510253452468
 30
0
 40
0.779999999999973
 50
180
 51
270
  0
POLYLINE
  5
2382
  8
4
  6
CONTINUOUS
 66
1
 70
0
 10
0
 20
0
 30
0
  0
VERTEX
  5
8FF9
  8
4
  6
CONTINUOUS
 10
43.239717259414682
 20
69.9566120891497
 70
0
  0
VERTEX
  5
8FFA
  8
4
  6
CONTINUOUS
 10
43.239185925044282
 20
69.950915713191591
 70
0
  0
VERTEX
  5
8FFB
  8
4
  6
CONTINUOUS
 10
43.238654590673967
 20
69.9452193372336
 70
0
  0
VERTEX
  5
8FFC
  8
4
  6
CONTINUOUS
 10
43.238654590673967
 20
69.9452193372336
 70
0
  0
VERTEX
  5
8FFD
  8
4
  6
CONTINUOUS
 10
43.238123256303517
 20
69.939522961275514
 70
0
  0
VERTEX
  5
8FFE
  8
4
  6
CONTINUOUS
 10
43.237591921933138
 20
69.933826585317661
 70
0
  0
VERTEX
  5
8FFF
  8
4
  6
CONTINUOUS
 10
43.237591921933138
 20
69.933826585317661
 70
0
  0
VERTEX
  5
9000
  8
4
  6
CONTINUOUS
 10
43.237060587562809
 20
69.92813020935985
 70
0
  0
VERTEX
  5
9001
  8
4
  6
CONTINUOUS
 10
43.236529253192451
 20
69.922433833401712
 70
0
  0
VERTEX
  5
9002
  8
4
  6
CONTINUOUS
 10
43.236529253192451
 20
69.922433833401712
 70
0
  0
VERTEX
  5
9003
  8
4
  6
CONTINUOUS
 10
43.235997918822129
 20
69.916737457443659
 70
0
  0
VERTEX
  5
9004
  8
4
  6
CONTINUOUS
 10
43.235466584451757
 20
69.911041081485621
 70
0
  0
VERTEX
  5
9005
  8
4
  6
CONTINUOUS
 10
43.235466584451757
 20
69.911041081485621
 70
0
  0
VERTEX
  5
9006
  8
4
  6
CONTINUOUS
 10
43.2349352500814
 20
69.905344705527654
 70
0
  0
VERTEX
  5
9007
  8
4
  6
CONTINUOUS
 10
43.232887503164953
 20
69.883391041408643
 70
0
  0
VERTEX
  5
9008
  8
4
  6
CONTINUOUS
 10
43.190729965018271
 20
69.765867420099056
 70
0
  0
SEQEND
  5
9009
  8
0
  0
POLYLINE
  5
2384
  8
4
  6
CONTINUOUS
 66
1
 70
0
 10
0
 20
0
 30
0
  0
VERTEX
  5
900A
  8
4
  6
CONTINUOUS
 10
43.261543911214829
 20
69.968332728141178
 70
0
  0
VERTEX
  5
900B
  8
4
  6
CONTINUOUS
 10
43.260761597265038
 20
69.96903873033007
 70
0
  0
VERTEX
  5
900C
  8
4
  6
CONTINUOUS
 10
43.259979517514807
 20
69.969730368858208
 70
0
  0
VERTEX
  5
900D
  8
4
  6
CONTINUOUS
 10
43.259979517514807
 20
69.969730368858208
 70
0
  0
VERTEX
  5
900E
  8
4
  6
CONTINUOUS
 10
43.259197938295053
 20
69.970393287484029
 70
0
  0
VERTEX
  5
900F
  8
4
  6
CONTINUOUS
 10
43.258417254462977
 20
69.971013159645537
 70
0
  0
VERTEX
  5
9010
  8
4
  6
CONTINUOUS
 10
43.258417254462977
 20
69.971013159645537
 70
0
  0
VERTEX
  5
9011
  8
4
  6
CONTINUOUS
 10
43.257637764481188
 20
69.971575636521337
 70
0
  0
VERTEX
  5
9012
  8
4
  6
CONTINUOUS
 10
43.256859252707692
 20
69.972066250574045
 70
0
  0
VERTEX
  5
9013
  8
4
  6
CONTINUOUS
 10
43.256859252707692
 20
69.972066250574045
 70
0
  0
VERTEX
  5
9014
  8
4
  6
CONTINUOUS
 10
43.256081856947453
 20
69.9724706158836
 70
0
  0
VERTEX
  5
9015
  8
4
  6
CONTINUOUS
 10
43.255307642896973
 20
69.972774791713462
 70
0
  0
VERTEX
  5
9016
  8
4
  6
CONTINUOUS
 10
43.255307642896973
 20
69.972774791713462
 70
0
  0
VERTEX
  5
9017
  8
4
  6
CONTINUOUS
 10
43.254537358860361
 20
69.972964533118244
 70
0
  0
VERTEX
  5
9018
  8
4
  6
CONTINUOUS
 10
43.253764555679219
 20
69.973023933134741
 70
0
  0
VERTEX
  5
9019
  8
4
  6
CONTINUOUS
 10
43.253764555679219
 20
69.973023933134741
 70
0
  0
VERTEX
  5
901A
  8
4
  6
CONTINUOUS
 10
43.2529837440333
 20
69.972941587493523
 70
0
  0
VERTEX
  5
901B
  8
4
  6
CONTINUOUS
 10
43.252200471415932
 20
69.9727257647187
 70
0
  0
VERTEX
  5
901C
  8
4
  6
CONTINUOUS
 10
43.252200471415932
 20
69.9727257647187
 70
0
  0
VERTEX
  5
901D
  8
4
  6
CONTINUOUS
 10
43.251421230563011
 20
69.972390022774448
 70
0
  0
VERTEX
  5
901E
  8
4
  6
CONTINUOUS
 10
43.250645258366653
 20
69.971949404591328
 70
0
  0
VERTEX
  5
901F
  8
4
  6
CONTINUOUS
 10
43.250645258366653
 20
69.971949404591328
 70
0
  0
VERTEX
  5
9020
  8
4
  6
CONTINUOUS
 10
43.249870463640633
 20
69.97141922490222
 70
0
  0
VERTEX
  5
9021
  8
4
  6
CONTINUOUS
 10
43.24909669872811
 20
69.9708144006808
 70
0
  0
VERTEX
  5
9022
  8
4
  6
CONTINUOUS
 10
43.24909669872811
 20
69.9708144006808
 70
0
  0
VERTEX
  5
9023
  8
4
  6
CONTINUOUS
 10
43.24832417228594
 20
69.9701497759781
 70
0
  0
VERTEX
  5
9024
  8
4
  6
CONTINUOUS
 10
43.247552574696492
 20
69.969440300914513
 70
0
  0
VERTEX
  5
9025
  8
4
  6
CONTINUOUS
 10
43.247552574696492
 20
69.969440300914513
 70
0
  0
VERTEX
  5
9026
  8
4
  6
CONTINUOUS
 10
43.24678149916592
 20
69.96870094549827
 70
0
  0
VERTEX
  5
9027
  8
4
  6
CONTINUOUS
 10
43.246010668468621
 20
69.967946653220565
 70
0
  0
SEQEND
  5
9028
  8
0
  0
POLYLINE
  5
2386
  8
4
  6
CONTINUOUS
 66
1
 70
0
 10
0
 20
0
 30
0
  0
VERTEX
  5
9029
  8
4
  6
CONTINUOUS
 10
43.246010668468621
 20
69.967955756073138
 70
0
  0
VERTEX
  5
902A
  8
4
  6
CONTINUOUS
 10
43.245475427247932
 20
69.962293469480457
 70
0
  0
VERTEX
  5
902B
  8
4
  6
CONTINUOUS
 10
43.24494018602735
 20
69.956631182887861
 70
0
  0
VERTEX
  5
902C
  8
4
  6
CONTINUOUS
 10
43.24494018602735
 20
69.956631182887861
 70
0
  0
VERTEX
  5
902D
  8
4
  6
CONTINUOUS
 10
43.244404944806732
 20
69.950968896295251
 70
0
  0
VERTEX
  5
902E
  8
4
  6
CONTINUOUS
 10
43.243869703586093
 20
69.94530660970274
 70
0
  0
VERTEX
  5
902F
  8
4
  6
CONTINUOUS
 10
43.243869703586093
 20
69.94530660970274
 70
0
  0
VERTEX
  5
9030
  8
4
  6
CONTINUOUS
 10
43.243334462365532
 20
69.939644323110187
 70
0
  0
VERTEX
  5
9031
  8
4
  6
CONTINUOUS
 10
43.242799221144992
 20
69.9339820365176
 70
0
  0
VERTEX
  5
9032
  8
4
  6
CONTINUOUS
 10
43.242799221144992
 20
69.9339820365176
 70
0
  0
VERTEX
  5
9033
  8
4
  6
CONTINUOUS
 10
43.242263979924417
 20
69.928319749925137
 70
0
  0
VERTEX
  5
9034
  8
4
  6
CONTINUOUS
 10
43.241728738703912
 20
69.92265746333247
 70
0
  0
VERTEX
  5
9035
  8
4
  6
CONTINUOUS
 10
43.241728738703912
 20
69.92265746333247
 70
0
  0
VERTEX
  5
9036
  8
4
  6
CONTINUOUS
 10
43.241193497483387
 20
69.916995176739889
 70
0
  0
VERTEX
  5
9037
  8
4
  6
CONTINUOUS
 10
43.240658256262762
 20
69.9113328901471
 70
0
  0
SEQEND
  5
9038
  8
0
  0
POLYLINE
  5
2399
  8
4
  6
CONTINUOUS
 66
1
 70
0
 10
0
 20
0
 30
0
  0
VERTEX
  5
9039
  8
4
  6
CONTINUOUS
 10
43.98335207795887
 20
72.5468149364192
 70
0
  0
VERTEX
  5
903A
  8
4
  6
CONTINUOUS
 10
43.9832514114112
 20
72.543296900974241
 70
0
  0
VERTEX
  5
903B
  8
4
  6
CONTINUOUS
 10
43.983151607662357
 20
72.539778827925659
 70
0
  0
VERTEX
  5
903C
  8
4
  6
CONTINUOUS
 10
43.983151607662357
 20
72.539778827925659
 70
0
  0
VERTEX
  5
903D
  8
4
  6
CONTINUOUS
 10
43.983053529829327
 20
72.5362607031425
 70
0
  0
VERTEX
  5
903E
  8
4
  6
CONTINUOUS
 10
43.9829580423009
 20
72.532742606385625
 70
0
  0
VERTEX
  5
903F
  8
4
  6
CONTINUOUS
 10
43.9829580423009
 20
72.532742606385625
 70
0
  0
VERTEX
  5
9040
  8
4
  6
CONTINUOUS
 10
43.982866008512119
 20
72.529224546997256
 70
0
  0
VERTEX
  5
9041
  8
4
  6
CONTINUOUS
 10
43.982778286809811
 20
72.525706158752982
 70
0
  0
VERTEX
  5
9042
  8
4
  6
CONTINUOUS
 10
43.982778286809811
 20
72.525706158752982
 70
0
  0
VERTEX
  5
9043
  8
4
  6
CONTINUOUS
 10
43.982695739038832
 20
72.522187333630583
 70
0
  0
VERTEX
  5
9044
  8
4
  6
CONTINUOUS
 10
43.982619246123932
 20
72.518669371980977
 70
0
  0
VERTEX
  5
9045
  8
4
  6
CONTINUOUS
 10
43.982619246123932
 20
72.518669371980977
 70
0
  0
VERTEX
  5
9046
  8
4
  6
CONTINUOUS
 10
43.982549675951986
 20
72.515152611766382
 70
0
  0
VERTEX
  5
9047
  8
4
  6
CONTINUOUS
 10
43.982487825178517
 20
72.51163213302344
 70
0
  0
VERTEX
  5
9048
  8
4
  6
CONTINUOUS
 10
43.982487825178517
 20
72.51163213302344
 70
0
  0
VERTEX
  5
9049
  8
4
  6
CONTINUOUS
 10
43.982434217989507
 20
72.508103779374366
 70
0
  0
VERTEX
  5
904A
  8
4
  6
CONTINUOUS
 10
43.98238835992381
 20
72.504571706710038
 70
0
  0
VERTEX
  5
904B
  8
4
  6
CONTINUOUS
 10
43.98238835992381
 20
72.504571706710038
 70
0
  0
VERTEX
  5
904C
  8
4
  6
CONTINUOUS
 10
43.982349476593278
 20
72.501040834629819
 70
0
  0
VERTEX
  5
904D
  8
4
  6
CONTINUOUS
 10
43.982316692546249
 20
72.497510825294754
 70
0
  0
VERTEX
  5
904E
  8
4
  6
CONTINUOUS
 10
43.982316692546249
 20
72.497510825294754
 70
0
  0
VERTEX
  5
904F
  8
4
  6
CONTINUOUS
 10
43.982289113833531
 20
72.493980378567372
 70
0
  0
VERTEX
  5
9050
  8
4
  6
CONTINUOUS
 10
43.982265873576317
 20
72.490449602552673
 70
0
  0
VERTEX
  5
9051
  8
4
  6
CONTINUOUS
 10
43.982265873576317
 20
72.490449602552673
 70
0
  0
VERTEX
  5
9052
  8
4
  6
CONTINUOUS
 10
43.982246109858373
 20
72.486918863532978
 70
0
  0
VERTEX
  5
9053
  8
4
  6
CONTINUOUS
 10
43.982228953544947
 20
72.483388152259764
 70
0
  0
VERTEX
  5
9054
  8
4
  6
CONTINUOUS
 10
43.982228953544947
 20
72.483388152259764
 70
0
  0
VERTEX
  5
9055
  8
4
  6
CONTINUOUS
 10
43.982213534147768
 20
72.479857389071853
 70
0
  0
VERTEX
  5
9056
  8
4
  6
CONTINUOUS
 10
43.982198982983029
 20
72.476326588191142
 70
0
  0
SEQEND
  5
9057
  8
0
  0
POLYLINE
  5
239A
  8
4
  6
CONTINUOUS
 66
1
 70
0
 10
0
 20
0
 30
0
  0
VERTEX
  5
9058
  8
4
  6
CONTINUOUS
 10
44.543575739068807
 20
72.476326588191142
 70
0
  0
VERTEX
  5
9059
  8
4
  6
CONTINUOUS
 10
44.543572328156941
 20
72.483407018689732
 70
0
  0
VERTEX
  5
905A
  8
4
  6
CONTINUOUS
 10
44.543568626604632
 20
72.490487389115543
 70
0
  0
VERTEX
  5
905B
  8
4
  6
CONTINUOUS
 10
44.543568626604632
 20
72.490487389115543
 70
0
  0
VERTEX
  5
905C
  8
4
  6
CONTINUOUS
 10
44.543564343593
 20
72.4975676987338
 70
0
  0
VERTEX
  5
905D
  8
4
  6
CONTINUOUS
 10
44.543559187591029
 20
72.504648184163628
 70
0
  0
VERTEX
  5
905E
  8
4
  6
CONTINUOUS
 10
44.543559187591029
 20
72.504648184163628
 70
0
  0
VERTEX
  5
905F
  8
4
  6
CONTINUOUS
 10
44.54355286760191
 20
72.5117289040085
 70
0
  0
VERTEX
  5
9060
  8
4
  6
CONTINUOUS
 10
44.543545095478827
 20
72.5188089674586
 70
0
  0
VERTEX
  5
9061
  8
4
  6
CONTINUOUS
 10
44.543545095478827
 20
72.5188089674586
 70
0
  0
VERTEX
  5
9062
  8
4
  6
CONTINUOUS
 10
44.543535581115762
 20
72.525888136426374
 70
0
  0
VERTEX
  5
9063
  8
4
  6
CONTINUOUS
 10
44.543524023718732
 20
72.532969733124574
 70
0
  0
VERTEX
  5
9064
  8
4
  6
CONTINUOUS
 10
44.543524023718732
 20
72.532969733124574
 70
0
  0
VERTEX
  5
9065
  8
4
  6
CONTINUOUS
 10
44.5435101297972
 20
72.540054646894063
 70
0
  0
VERTEX
  5
9066
  8
4
  6
CONTINUOUS
 10
44.543493645761338
 20
72.547130475284646
 70
0
  0
VERTEX
  5
9067
  8
4
  6
CONTINUOUS
 10
44.543493645761338
 20
72.547130475284646
 70
0
  0
VERTEX
  5
9068
  8
4
  6
CONTINUOUS
 10
44.543474411291108
 20
72.554186734702427
 70
0
  0
VERTEX
  5
9069
  8
4
  6
CONTINUOUS
 10
44.5434525992442
 20
72.561233908772621
 70
0
  0
VERTEX
  5
906A
  8
4
  6
CONTINUOUS
 10
44.5434525992442
 20
72.561233908772621
 70
0
  0
VERTEX
  5
906B
  8
4
  6
CONTINUOUS
 10
44.543428472602521
 20
72.568284399969727
 70
0
  0
VERTEX
  5
906C
  8
4
  6
CONTINUOUS
 10
44.54340232166588
 20
72.575337318944449
 70
0
  0
VERTEX
  5
906D
  8
4
  6
CONTINUOUS
 10
44.54340232166588
 20
72.575337318944449
 70
0
  0
VERTEX
  5
906E
  8
4
  6
CONTINUOUS
 10
44.543374441734812
 20
72.582389343470226
 70
0
  0
VERTEX
  5
906F
  8
4
  6
CONTINUOUS
 10
44.543345120792111
 20
72.589440711629635
 70
0
  0
VERTEX
  5
9070
  8
4
  6
CONTINUOUS
 10
44.543345120792111
 20
72.589440711629635
 70
0
  0
VERTEX
  5
9071
  8
4
  6
CONTINUOUS
 10
44.543314645478972
 20
72.596492314228371
 70
0
  0
VERTEX
  5
9072
  8
4
  6
CONTINUOUS
 10
44.543283304387927
 20
72.6035440926569
 70
0
  0
VERTEX
  5
9073
  8
4
  6
CONTINUOUS
 10
44.543283304387927
 20
72.6035440926569
 70
0
  0
VERTEX
  5
9074
  8
4
  6
CONTINUOUS
 10
44.5432513864776
 20
72.610595810289468
 70
0
  0
VERTEX
  5
9075
  8
4
  6
CONTINUOUS
 10
44.543219180218529
 20
72.617647467855164
 70
0
  0
SEQEND
  5
9076
  8
0
  0
POLYLINE
  5
239B
  8
4
  6
CONTINUOUS
 66
1
 70
0
 10
0
 20
0
 30
0
  0
VERTEX
  5
9077
  8
4
  6
CONTINUOUS
 10
44.694220481974412
 20
72.635662328193092
 70
0
  0
VERTEX
  5
9078
  8
4
  6
CONTINUOUS
 10
44.694261293872813
 20
72.627714647972013
 70
0
  0
VERTEX
  5
9079
  8
4
  6
CONTINUOUS
 10
44.694301738647852
 20
72.619766887969732
 70
0
  0
VERTEX
  5
907A
  8
4
  6
CONTINUOUS
 10
44.694301738647852
 20
72.619766887969732
 70
0
  0
VERTEX
  5
907B
  8
4
  6
CONTINUOUS
 10
44.694341448994919
 20
72.611819047146781
 70
0
  0
VERTEX
  5
907C
  8
4
  6
CONTINUOUS
 10
44.694380056886359
 20
72.603871439435409
 70
0
  0
VERTEX
  5
907D
  8
4
  6
CONTINUOUS
 10
44.694380056886359
 20
72.603871439435409
 70
0
  0
VERTEX
  5
907E
  8
4
  6
CONTINUOUS
 10
44.694417194836973
 20
72.595924142539431
 70
0
  0
VERTEX
  5
907F
  8
4
  6
CONTINUOUS
 10
44.6944524982555
 20
72.587975974279573
 70
0
  0
VERTEX
  5
9080
  8
4
  6
CONTINUOUS
 10
44.6944524982555
 20
72.587975974279573
 70
0
  0
VERTEX
  5
9081
  8
4
  6
CONTINUOUS
 10
44.6944856005611
 20
72.580026618646443
 70
0
  0
VERTEX
  5
9082
  8
4
  6
CONTINUOUS
 10
44.694516124320309
 20
72.572080484191147
 70
0
  0
VERTEX
  5
9083
  8
4
  6
CONTINUOUS
 10
44.694516124320309
 20
72.572080484191147
 70
0
  0
VERTEX
  5
9084
  8
4
  6
CONTINUOUS
 10
44.694543699515791
 20
72.564138751015207
 70
0
  0
VERTEX
  5
9085
  8
4
  6
CONTINUOUS
 10
44.694567996646327
 20
72.556184960859781
 70
0
  0
VERTEX
  5
9086
  8
4
  6
CONTINUOUS
 10
44.694567996646327
 20
72.556184960859781
 70
0
  0
VERTEX
  5
9087
  8
4
  6
CONTINUOUS
 10
44.69458879966345
 20
72.548205201816941
 70
0
  0
VERTEX
  5
9088
  8
4
  6
CONTINUOUS
 10
44.694606305812819
 20
72.540213385741438
 70
0
  0
VERTEX
  5
9089
  8
4
  6
CONTINUOUS
 10
44.694606305812819
 20
72.540213385741438
 70
0
  0
VERTEX
  5
908A
  8
4
  6
CONTINUOUS
 10
44.694620830510388
 20
72.532225970852309
 70
0
  0
VERTEX
  5
908B
  8
4
  6
CONTINUOUS
 10
44.694632748558391
 20
72.524241777061548
 70
0
  0
VERTEX
  5
908C
  8
4
  6
CONTINUOUS
 10
44.694632748558391
 20
72.524241777061548
 70
0
  0
VERTEX
  5
908D
  8
4
  6
CONTINUOUS
 10
44.694642445629093
 20
72.5162563958411
 70
0
  0
VERTEX
  5
908E
  8
4
  6
CONTINUOUS
 10
44.694650291487939
 20
72.508270143210026
 70
0
  0
VERTEX
  5
908F
  8
4
  6
CONTINUOUS
 10
44.694650291487939
 20
72.508270143210026
 70
0
  0
VERTEX
  5
9090
  8
4
  6
CONTINUOUS
 10
44.694656652983767
 20
72.500284201353566
 70
0
  0
VERTEX
  5
9091
  8
4
  6
CONTINUOUS
 10
44.694661901207262
 20
72.492298492577888
 70
0
  0
VERTEX
  5
9092
  8
4
  6
CONTINUOUS
 10
44.694661901207262
 20
72.492298492577888
 70
0
  0
VERTEX
  5
9093
  8
4
  6
CONTINUOUS
 10
44.6946664080445
 20
72.484312702962185
 70
0
  0
VERTEX
  5
9094
  8
4
  6
CONTINUOUS
 10
44.694670544321177
 20
72.476326833555092
 70
0
  0
SEQEND
  5
9095
  8
0
  0
ARC
  5
239C
  8
4
  6
CONTINUOUS
 10
50.589717259158078
 20
22.577510253435161
 30
0
 40
50.404121571539953
 50
96.889816577408141
 51
97.531309747301776
  0
LINE
  5
239D
  8
4
  6
CONTINUOUS
 10
43.405074469720752
 20
72.476326588191142
 30
0
 11
43.982198982983313
 21
72.476326588191142
 31
0
  0
ARC
  5
239E
  8
4
  6
CONTINUOUS
 10
49.029717259660792
 20
68.342510253452545
 30
0
 40
0.779999999999973
 50
0
 51
90
  0
ARC
  5
239F
  8
4
  6
CONTINUOUS
 10
49.02971725966065
 20
68.342510253452545
 30
0
 40
0.9
 50
0
 51
90
  0
ARC
  5
23A0
  8
4
  6
CONTINUOUS
 10
52.149717259660818
 20
68.342510253452545
 30
0
 40
0.779999999999973
 50
90
 51
180
  0
ARC
  5
23A1
  8
4
  6
CONTINUOUS
 10
52.149717259660818
 20
68.342510253452545
 30
0
 40
0.9
 50
90
 51
179.99999999998263
  0
ARC
  5
23A2
  8
4
  6
CONTINUOUS
 10
49.029717259660792
 20
67.052510253452468
 30
0
 40
0.9
 50
270
 51
0
  0
LINE
  5
23A3
  8
4
  6
CONTINUOUS
 10
49.929717259660642
 20
68.342510253453085
 30
0
 11
49.929717259660791
 21
67.052510253453164
 31
0
  0
LINE
  5
23A4
  8
4
  6
CONTINUOUS
 10
49.809717259660843
 20
68.342510253452545
 30
0
 11
49.809717259660843
 21
67.052510253452468
 31
0
  0
ARC
  5
23A5
  8
4
  6
CONTINUOUS
 10
49.029717259660792
 20
67.052510253452468
 30
0
 40
0.779999999999973
 50
270
 51
0
  0
ARC
  5
23A6
  8
4
  6
CONTINUOUS
 10
52.14971725966074
 20
67.052510253452468
 30
0
 40
0.9
 50
179.99999999998263
 51
270
  0
ARC
  5
23A7
  8
4
  6
CONTINUOUS
 10
52.14971725966074
 20
67.052510253452468
 30
0
 40
0.779999999999973
 50
180
 51
270
  0
LINE
  5
23A8
  8
4
  6
CONTINUOUS
 10
51.249717259660912
 20
68.342510253453085
 30
0
 11
51.249717259660677
 21
67.052510253453164
 31
0
  0
LINE
  5
23A9
  8
4
  6
CONTINUOUS
 10
51.369717259660838
 20
68.342510253452545
 30
0
 11
51.3697172596607
 21
67.052510253452468
 31
0
  0
CIRCLE
  5
23AA
  8
4
  6
CONTINUOUS
 10
53.499717259660812
 20
67.697510253452521
 30
0
 40
0.1800000000000066
  0
ARC
  5
23AC
  8
4
  6
CONTINUOUS
 10
47.289717259476149
 20
74.342629099419156
 30
0
 40
0.75000000037803993
 50
58.67564226819902
 51
127.12834559269182
  0
POLYLINE
  5
23B1
  8
4
  6
CONTINUOUS
 66
1
 70
0
 10
0
 20
0
 30
0
  0
VERTEX
  5
9096
  8
4
  6
CONTINUOUS
 10
43.240439467844922
 20
73.782227400975017
 70
0
  0
VERTEX
  5
9097
  8
4
  6
CONTINUOUS
 10
43.240378487963
 20
73.7818756372351
 70
0
  0
SEQEND
  5
9098
  8
0
  0
POLYLINE
  5
23B2
  8
4
  6
CONTINUOUS
 66
1
 70
0
 10
0
 20
0
 30
0
  0
VERTEX
  5
9099
  8
4
  6
CONTINUOUS
 10
43.2398848750304
 20
73.775713050627132
 70
0
  0
VERTEX
  5
909A
  8
4
  6
CONTINUOUS
 10
43.2398681134688
 20
73.7750866853315
 70
0
  0
VERTEX
  5
909B
  8
4
  6
CONTINUOUS
 10
43.239851351907227
 20
73.774460320036113
 70
0
  0
VERTEX
  5
909C
  8
4
  6
CONTINUOUS
 10
43.239851351907227
 20
73.774460320036113
 70
0
  0
VERTEX
  5
909D
  8
4
  6
CONTINUOUS
 10
43.239834590345652
 20
73.773833954740752
 70
0
  0
VERTEX
  5
909E
  8
4
  6
CONTINUOUS
 10
43.23981782878414
 20
73.773207589445491
 70
0
  0
VERTEX
  5
909F
  8
4
  6
CONTINUOUS
 10
43.23981782878414
 20
73.773207589445491
 70
0
  0
VERTEX
  5
90A0
  8
4
  6
CONTINUOUS
 10
43.239801067222587
 20
73.772581224150272
 70
0
  0
VERTEX
  5
90A1
  8
4
  6
CONTINUOUS
 10
43.239784305660969
 20
73.771954858854755
 70
0
  0
VERTEX
  5
90A2
  8
4
  6
CONTINUOUS
 10
43.239784305660969
 20
73.771954858854755
 70
0
  0
VERTEX
  5
90A3
  8
4
  6
CONTINUOUS
 10
43.239767544099429
 20
73.7713284935593
 70
0
  0
VERTEX
  5
90A4
  8
4
  6
CONTINUOUS
 10
43.239750782537882
 20
73.770702128263849
 70
0
  0
VERTEX
  5
90A5
  8
4
  6
CONTINUOUS
 10
43.239750782537882
 20
73.770702128263849
 70
0
  0
VERTEX
  5
90A6
  8
4
  6
CONTINUOUS
 10
43.239734020976272
 20
73.7700757629684
 70
0
  0
VERTEX
  5
90A7
  8
4
  6
CONTINUOUS
 10
43.239717259414682
 20
73.769449397673085
 70
0
  0
SEQEND
  5
90A8
  8
0
  0
POLYLINE
  5
23B3
  8
4
  6
CONTINUOUS
 66
1
 70
0
 10
0
 20
0
 30
0
  0
VERTEX
  5
90A9
  8
4
  6
CONTINUOUS
 10
43.240378487963
 20
73.7818756372351
 70
0
  0
VERTEX
  5
90AA
  8
4
  6
CONTINUOUS
 10
43.240329126669721
 20
73.781259378574148
 70
0
  0
VERTEX
  5
90AB
  8
4
  6
CONTINUOUS
 10
43.240279765376471
 20
73.780643119913421
 70
0
  0
VERTEX
  5
90AC
  8
4
  6
CONTINUOUS
 10
43.240279765376471
 20
73.780643119913421
 70
0
  0
VERTEX
  5
90AD
  8
4
  6
CONTINUOUS
 10
43.240230404083221
 20
73.7800268612527
 70
0
  0
VERTEX
  5
90AE
  8
4
  6
CONTINUOUS
 10
43.240181042789963
 20
73.779410602591852
 70
0
  0
VERTEX
  5
90AF
  8
4
  6
CONTINUOUS
 10
43.240181042789963
 20
73.779410602591852
 70
0
  0
VERTEX
  5
90B0
  8
4
  6
CONTINUOUS
 10
43.240131681496742
 20
73.778794343931125
 70
0
  0
VERTEX
  5
90B1
  8
4
  6
CONTINUOUS
 10
43.240082320203491
 20
73.778178085270142
 70
0
  0
VERTEX
  5
90B2
  8
4
  6
CONTINUOUS
 10
43.240082320203491
 20
73.778178085270142
 70
0
  0
VERTEX
  5
90B3
  8
4
  6
CONTINUOUS
 10
43.240032958910241
 20
73.7775618266093
 70
0
  0
VERTEX
  5
90B4
  8
4
  6
CONTINUOUS
 10
43.239983597616991
 20
73.776945567948559
 70
0
  0
VERTEX
  5
90B5
  8
4
  6
CONTINUOUS
 10
43.239983597616991
 20
73.776945567948559
 70
0
  0
VERTEX
  5
90B6
  8
4
  6
CONTINUOUS
 10
43.239934236323677
 20
73.776329309287917
 70
0
  0
VERTEX
  5
90B7
  8
4
  6
CONTINUOUS
 10
43.2398848750304
 20
73.775713050627132
 70
0
  0
SEQEND
  5
90B8
  8
0
  0
ARC
  5
23BF
  8
4
  6
CONTINUOUS
 10
50.589717259158078
 20
22.577510253435161
 30
0
 40
52.650000000018
 50
94.705653121993691
 51
96.556493087399488
  0
ARC
  5
23C0
  8
4
  6
CONTINUOUS
 10
50.589717259158078
 20
22.577510253435161
 30
0
 40
52.639148396879982
 50
94.702439337809579
 51
96.685010738399228
  0
POLYLINE
  5
23C2
  8
4
  6
CONTINUOUS
 66
1
 70
0
 10
0
 20
0
 30
0
  0
VERTEX
  5
90B9
  8
4
  6
CONTINUOUS
 10
44.450194841249072
 20
74.845572664269739
 70
0
  0
VERTEX
  5
90BA
  8
4
  6
CONTINUOUS
 10
44.447938036593293
 20
74.847581911508414
 70
0
  0
VERTEX
  5
90BB
  8
4
  6
CONTINUOUS
 10
44.445681231937463
 20
74.849591158747259
 70
0
  0
VERTEX
  5
90BC
  8
4
  6
CONTINUOUS
 10
44.445681231937463
 20
74.849591158747259
 70
0
  0
VERTEX
  5
90BD
  8
4
  6
CONTINUOUS
 10
44.44342442728157
 20
74.851600405985991
 70
0
  0
VERTEX
  5
90BE
  8
4
  6
CONTINUOUS
 10
44.4411676226258
 20
74.853609653224765
 70
0
  0
VERTEX
  5
90BF
  8
4
  6
CONTINUOUS
 10
44.4411676226258
 20
74.853609653224765
 70
0
  0
VERTEX
  5
90C0
  8
4
  6
CONTINUOUS
 10
44.43891081797
 20
74.855618900463739
 70
0
  0
VERTEX
  5
90C1
  8
4
  6
CONTINUOUS
 10
44.436654013314246
 20
74.857628147702485
 70
0
  0
VERTEX
  5
90C2
  8
4
  6
CONTINUOUS
 10
44.436654013314246
 20
74.857628147702485
 70
0
  0
VERTEX
  5
90C3
  8
4
  6
CONTINUOUS
 10
44.434397208658439
 20
74.859637394941259
 70
0
  0
VERTEX
  5
90C4
  8
4
  6
CONTINUOUS
 10
44.4321404040027
 20
74.861646642179892
 70
0
  0
VERTEX
  5
90C5
  8
4
  6
CONTINUOUS
 10
44.4321404040027
 20
74.861646642179892
 70
0
  0
VERTEX
  5
90C6
  8
4
  6
CONTINUOUS
 10
44.429883599346837
 20
74.8636558894185
 70
0
  0
VERTEX
  5
90C7
  8
4
  6
CONTINUOUS
 10
44.427626794691108
 20
74.865665136657128
 70
0
  0
SEQEND
  5
90C8
  8
0
  0
POLYLINE
  5
23C3
  8
4
  6
CONTINUOUS
 66
1
 70
0
 10
0
 20
0
 30
0
  0
VERTEX
  5
90C9
  8
4
  6
CONTINUOUS
 10
44.4518686915969
 20
74.844083140196574
 70
0
  0
VERTEX
  5
90CA
  8
4
  6
CONTINUOUS
 10
44.451701306562178
 20
74.844232092603548
 70
0
  0
VERTEX
  5
90CB
  8
4
  6
CONTINUOUS
 10
44.451533921527393
 20
74.844381045011
 70
0
  0
VERTEX
  5
90CC
  8
4
  6
CONTINUOUS
 10
44.451533921527393
 20
74.844381045011
 70
0
  0
VERTEX
  5
90CD
  8
4
  6
CONTINUOUS
 10
44.451366536492579
 20
74.844529997418348
 70
0
  0
VERTEX
  5
90CE
  8
4
  6
CONTINUOUS
 10
44.451199151457757
 20
74.844678949825877
 70
0
  0
VERTEX
  5
90CF
  8
4
  6
CONTINUOUS
 10
44.451199151457757
 20
74.844678949825877
 70
0
  0
VERTEX
  5
90D0
  8
4
  6
CONTINUOUS
 10
44.451031766423029
 20
74.844827902233291
 70
0
  0
VERTEX
  5
90D1
  8
4
  6
CONTINUOUS
 10
44.450864381388271
 20
74.84497685464045
 70
0
  0
VERTEX
  5
90D2
  8
4
  6
CONTINUOUS
 10
44.450864381388271
 20
74.84497685464045
 70
0
  0
VERTEX
  5
90D3
  8
4
  6
CONTINUOUS
 10
44.450696996353507
 20
74.845125807047651
 70
0
  0
VERTEX
  5
90D4
  8
4
  6
CONTINUOUS
 10
44.450529611318657
 20
74.8452747594549
 70
0
  0
VERTEX
  5
90D5
  8
4
  6
CONTINUOUS
 10
44.450529611318657
 20
74.8452747594549
 70
0
  0
VERTEX
  5
90D6
  8
4
  6
CONTINUOUS
 10
44.4503622262839
 20
74.8454237118622
 70
0
  0
VERTEX
  5
90D7
  8
4
  6
CONTINUOUS
 10
44.450194841249072
 20
74.845572664269739
 70
0
  0
SEQEND
  5
90D8
  8
0
  0
POLYLINE
  5
23C4
  8
4
  6
CONTINUOUS
 66
1
 70
0
 10
0
 20
0
 30
0
  0
VERTEX
  5
90D9
  8
4
  6
CONTINUOUS
 10
44.465974984949028
 20
74.831535327345122
 70
0
  0
VERTEX
  5
90DA
  8
4
  6
CONTINUOUS
 10
44.464564355613781
 20
74.832790108630221
 70
0
  0
VERTEX
  5
90DB
  8
4
  6
CONTINUOUS
 10
44.463153726278669
 20
74.834044889915418
 70
0
  0
VERTEX
  5
90DC
  8
4
  6
CONTINUOUS
 10
44.463153726278669
 20
74.834044889915418
 70
0
  0
VERTEX
  5
90DD
  8
4
  6
CONTINUOUS
 10
44.461743096943458
 20
74.835299671200531
 70
0
  0
VERTEX
  5
90DE
  8
4
  6
CONTINUOUS
 10
44.460332467608168
 20
74.8365544524857
 70
0
  0
VERTEX
  5
90DF
  8
4
  6
CONTINUOUS
 10
44.460332467608168
 20
74.8365544524857
 70
0
  0
VERTEX
  5
90E0
  8
4
  6
CONTINUOUS
 10
44.458921838272921
 20
74.837809233771125
 70
0
  0
VERTEX
  5
90E1
  8
4
  6
CONTINUOUS
 10
44.457511208937731
 20
74.839064015056053
 70
0
  0
VERTEX
  5
90E2
  8
4
  6
CONTINUOUS
 10
44.457511208937731
 20
74.839064015056053
 70
0
  0
VERTEX
  5
90E3
  8
4
  6
CONTINUOUS
 10
44.456100579602513
 20
74.8403187963411
 70
0
  0
VERTEX
  5
90E4
  8
4
  6
CONTINUOUS
 10
44.454689950267323
 20
74.841573577626107
 70
0
  0
VERTEX
  5
90E5
  8
4
  6
CONTINUOUS
 10
44.454689950267323
 20
74.841573577626107
 70
0
  0
VERTEX
  5
90E6
  8
4
  6
CONTINUOUS
 10
44.453279320932133
 20
74.842828358911362
 70
0
  0
VERTEX
  5
90E7
  8
4
  6
CONTINUOUS
 10
44.4518686915969
 20
74.844083140196574
 70
0
  0
SEQEND
  5
90E8
  8
0
  0
POLYLINE
  5
23C9
  8
4
  6
CONTINUOUS
 66
1
 70
0
 10
0
 20
0
 30
0
  0
VERTEX
  5
90E9
  8
4
  6
CONTINUOUS
 10
44.514420159077083
 20
74.729192828703191
 70
0
  0
VERTEX
  5
90EA
  8
4
  6
CONTINUOUS
 10
44.514910054439611
 20
74.727569571192774
 70
0
  0
VERTEX
  5
90EB
  8
4
  6
CONTINUOUS
 10
44.515399949802173
 20
74.725946313682456
 70
0
  0
VERTEX
  5
90EC
  8
4
  6
CONTINUOUS
 10
44.515399949802173
 20
74.725946313682456
 70
0
  0
VERTEX
  5
90ED
  8
4
  6
CONTINUOUS
 10
44.515889845164679
 20
74.724323056172111
 70
0
  0
VERTEX
  5
90EE
  8
4
  6
CONTINUOUS
 10
44.51637974052732
 20
74.72269979866158
 70
0
  0
VERTEX
  5
90EF
  8
4
  6
CONTINUOUS
 10
44.51637974052732
 20
74.72269979866158
 70
0
  0
VERTEX
  5
90F0
  8
4
  6
CONTINUOUS
 10
44.516869635889847
 20
74.721076541151064
 70
0
  0
VERTEX
  5
90F1
  8
4
  6
CONTINUOUS
 10
44.5173595312524
 20
74.719453283640576
 70
0
  0
VERTEX
  5
90F2
  8
4
  6
CONTINUOUS
 10
44.5173595312524
 20
74.719453283640576
 70
0
  0
VERTEX
  5
90F3
  8
4
  6
CONTINUOUS
 10
44.51784942661503
 20
74.7178300261302
 70
0
  0
VERTEX
  5
90F4
  8
4
  6
CONTINUOUS
 10
44.518339321977663
 20
74.716206768619955
 70
0
  0
VERTEX
  5
90F5
  8
4
  6
CONTINUOUS
 10
44.518339321977663
 20
74.716206768619955
 70
0
  0
VERTEX
  5
90F6
  8
4
  6
CONTINUOUS
 10
44.518829217340283
 20
74.714583511109581
 70
0
  0
VERTEX
  5
90F7
  8
4
  6
CONTINUOUS
 10
44.519319112702767
 20
74.712960253599064
 70
0
  0
SEQEND
  5
90F8
  8
0
  0
POLYLINE
  5
23CA
  8
4
  6
CONTINUOUS
 66
1
 70
0
 10
0
 20
0
 30
0
  0
VERTEX
  5
90F9
  8
4
  6
CONTINUOUS
 10
44.513145618064911
 20
74.733320005869089
 70
0
  0
VERTEX
  5
90FA
  8
4
  6
CONTINUOUS
 10
44.513273072166093
 20
74.732907288152589
 70
0
  0
VERTEX
  5
90FB
  8
4
  6
CONTINUOUS
 10
44.513400526267432
 20
74.732494570436032
 70
0
  0
VERTEX
  5
90FC
  8
4
  6
CONTINUOUS
 10
44.513400526267432
 20
74.732494570436032
 70
0
  0
VERTEX
  5
90FD
  8
4
  6
CONTINUOUS
 10
44.513527980368593
 20
74.73208185271956
 70
0
  0
VERTEX
  5
90FE
  8
4
  6
CONTINUOUS
 10
44.513655434469811
 20
74.731669135002988
 70
0
  0
VERTEX
  5
90FF
  8
4
  6
CONTINUOUS
 10
44.513655434469811
 20
74.731669135002988
 70
0
  0
VERTEX
  5
9100
  8
4
  6
CONTINUOUS
 10
44.513782888571079
 20
74.731256417286431
 70
0
  0
VERTEX
  5
9101
  8
4
  6
CONTINUOUS
 10
44.513910342672219
 20
74.730843699569732
 70
0
  0
VERTEX
  5
9102
  8
4
  6
CONTINUOUS
 10
44.513910342672219
 20
74.730843699569732
 70
0
  0
VERTEX
  5
9103
  8
4
  6
CONTINUOUS
 10
44.514037796773408
 20
74.730430981853146
 70
0
  0
VERTEX
  5
9104
  8
4
  6
CONTINUOUS
 10
44.51416525087464
 20
74.730018264136532
 70
0
  0
VERTEX
  5
9105
  8
4
  6
CONTINUOUS
 10
44.51416525087464
 20
74.730018264136532
 70
0
  0
VERTEX
  5
9106
  8
4
  6
CONTINUOUS
 10
44.514292704975837
 20
74.7296055464198
 70
0
  0
VERTEX
  5
9107
  8
4
  6
CONTINUOUS
 10
44.514420159077083
 20
74.729192828703191
 70
0
  0
SEQEND
  5
9108
  8
0
  0
POLYLINE
  5
23CB
  8
4
  6
CONTINUOUS
 66
1
 70
0
 10
0
 20
0
 30
0
  0
VERTEX
  5
9109
  8
4
  6
CONTINUOUS
 10
44.511759151444522
 20
74.737765857531784
 70
0
  0
VERTEX
  5
910A
  8
4
  6
CONTINUOUS
 10
44.51189779810651
 20
74.737321272365335
 70
0
  0
VERTEX
  5
910B
  8
4
  6
CONTINUOUS
 10
44.512036444768611
 20
74.736876687199313
 70
0
  0
VERTEX
  5
910C
  8
4
  6
CONTINUOUS
 10
44.512036444768611
 20
74.736876687199313
 70
0
  0
VERTEX
  5
910D
  8
4
  6
CONTINUOUS
 10
44.512175091430592
 20
74.73643210203322
 70
0
  0
VERTEX
  5
910E
  8
4
  6
CONTINUOUS
 10
44.512313738092779
 20
74.735987516867013
 70
0
  0
VERTEX
  5
910F
  8
4
  6
CONTINUOUS
 10
44.512313738092779
 20
74.735987516867013
 70
0
  0
VERTEX
  5
9110
  8
4
  6
CONTINUOUS
 10
44.512452384754852
 20
74.735542931700863
 70
0
  0
VERTEX
  5
9111
  8
4
  6
CONTINUOUS
 10
44.51259103141679
 20
74.735098346534429
 70
0
  0
VERTEX
  5
9112
  8
4
  6
CONTINUOUS
 10
44.51259103141679
 20
74.735098346534429
 70
0
  0
VERTEX
  5
9113
  8
4
  6
CONTINUOUS
 10
44.51272967807887
 20
74.734653761368065
 70
0
  0
VERTEX
  5
9114
  8
4
  6
CONTINUOUS
 10
44.512868324740829
 20
74.734209176201844
 70
0
  0
VERTEX
  5
9115
  8
4
  6
CONTINUOUS
 10
44.512868324740829
 20
74.734209176201844
 70
0
  0
VERTEX
  5
9116
  8
4
  6
CONTINUOUS
 10
44.513006971402817
 20
74.733764591035481
 70
0
  0
VERTEX
  5
9117
  8
4
  6
CONTINUOUS
 10
44.513145618064911
 20
74.733320005869089
 70
0
  0
SEQEND
  5
9118
  8
0
  0
POLYLINE
  5
23CC
  8
4
  6
CONTINUOUS
 66
1
 70
0
 10
0
 20
0
 30
0
  0
VERTEX
  5
9119
  8
4
  6
CONTINUOUS
 10
44.509529617168667
 20
74.744818108094563
 70
0
  0
VERTEX
  5
911A
  8
4
  6
CONTINUOUS
 10
44.50975257059622
 20
74.7441128830383
 70
0
  0
VERTEX
  5
911B
  8
4
  6
CONTINUOUS
 10
44.50997552402378
 20
74.743407657982118
 70
0
  0
VERTEX
  5
911C
  8
4
  6
CONTINUOUS
 10
44.50997552402378
 20
74.743407657982118
 70
0
  0
VERTEX
  5
911D
  8
4
  6
CONTINUOUS
 10
44.510198477451347
 20
74.7427024329257
 70
0
  0
VERTEX
  5
911E
  8
4
  6
CONTINUOUS
 10
44.510421430879049
 20
74.7419972078693
 70
0
  0
VERTEX
  5
911F
  8
4
  6
CONTINUOUS
 10
44.510421430879049
 20
74.7419972078693
 70
0
  0
VERTEX
  5
9120
  8
4
  6
CONTINUOUS
 10
44.51064438430663
 20
74.741291982813209
 70
0
  0
VERTEX
  5
9121
  8
4
  6
CONTINUOUS
 10
44.510867337734133
 20
74.740586757756859
 70
0
  0
VERTEX
  5
9122
  8
4
  6
CONTINUOUS
 10
44.510867337734133
 20
74.740586757756859
 70
0
  0
VERTEX
  5
9123
  8
4
  6
CONTINUOUS
 10
44.51109029116175
 20
74.739881532700551
 70
0
  0
VERTEX
  5
9124
  8
4
  6
CONTINUOUS
 10
44.511313244589388
 20
74.739176307644342
 70
0
  0
VERTEX
  5
9125
  8
4
  6
CONTINUOUS
 10
44.511313244589388
 20
74.739176307644342
 70
0
  0
VERTEX
  5
9126
  8
4
  6
CONTINUOUS
 10
44.511536198017
 20
74.738471082588092
 70
0
  0
VERTEX
  5
9127
  8
4
  6
CONTINUOUS
 10
44.511759151444522
 20
74.737765857531784
 70
0
  0
SEQEND
  5
9128
  8
0
  0
POLYLINE
  5
23CF
  8
4
  6
CONTINUOUS
 66
1
 70
0
 10
0
 20
0
 30
0
  0
VERTEX
  5
9129
  8
4
  6
CONTINUOUS
 10
44.608262166719207
 20
74.294247067659057
 70
0
  0
VERTEX
  5
912A
  8
4
  6
CONTINUOUS
 10
44.60831603883485
 20
74.2939159012294
 70
0
  0
VERTEX
  5
912B
  8
4
  6
CONTINUOUS
 10
44.608369902678213
 20
74.293584732133468
 70
0
  0
VERTEX
  5
912C
  8
4
  6
CONTINUOUS
 10
44.608369902678213
 20
74.293584732133468
 70
0
  0
VERTEX
  5
912D
  8
4
  6
CONTINUOUS
 10
44.608423749767752
 20
74.2932535590026
 70
0
  0
VERTEX
  5
912E
  8
4
  6
CONTINUOUS
 10
44.60847757078615
 20
74.292922385659011
 70
0
  0
VERTEX
  5
912F
  8
4
  6
CONTINUOUS
 10
44.60847757078615
 20
74.292922385659011
 70
0
  0
VERTEX
  5
9130
  8
4
  6
CONTINUOUS
 10
44.608531357043127
 20
74.2925912120318
 70
0
  0
VERTEX
  5
9131
  8
4
  6
CONTINUOUS
 10
44.60858510319234
 20
74.292260017287234
 70
0
  0
VERTEX
  5
9132
  8
4
  6
CONTINUOUS
 10
44.60858510319234
 20
74.292260017287234
 70
0
  0
VERTEX
  5
9133
  8
4
  6
CONTINUOUS
 10
44.60863880158837
 20
74.291928794865953
 70
0
  0
VERTEX
  5
9134
  8
4
  6
CONTINUOUS
 10
44.60869243204565
 20
74.291597616069524
 70
0
  0
VERTEX
  5
9135
  8
4
  6
CONTINUOUS
 10
44.60869243204565
 20
74.291597616069524
 70
0
  0
VERTEX
  5
9136
  8
4
  6
CONTINUOUS
 10
44.6087459829476
 20
74.29126649899429
 70
0
  0
VERTEX
  5
9137
  8
4
  6
CONTINUOUS
 10
44.608799489495127
 20
74.290935171057043
 70
0
  0
VERTEX
  5
9138
  8
4
  6
CONTINUOUS
 10
44.608799489495127
 20
74.290935171057043
 70
0
  0
VERTEX
  5
9139
  8
4
  6
CONTINUOUS
 10
44.60885298292942
 20
74.290603402084258
 70
0
  0
VERTEX
  5
913A
  8
4
  6
CONTINUOUS
 10
44.608906431837752
 20
74.290271422221736
 70
0
  0
VERTEX
  5
913B
  8
4
  6
CONTINUOUS
 10
44.608906431837752
 20
74.290271422221736
 70
0
  0
VERTEX
  5
913C
  8
4
  6
CONTINUOUS
 10
44.608959800890972
 20
74.28993950403229
 70
0
  0
VERTEX
  5
913D
  8
4
  6
CONTINUOUS
 10
44.609013101749213
 20
74.289607629426129
 70
0
  0
VERTEX
  5
913E
  8
4
  6
CONTINUOUS
 10
44.609013101749213
 20
74.289607629426129
 70
0
  0
VERTEX
  5
913F
  8
4
  6
CONTINUOUS
 10
44.609066354673239
 20
74.289275727114
 70
0
  0
VERTEX
  5
9140
  8
4
  6
CONTINUOUS
 10
44.609119567337359
 20
74.288943803660061
 70
0
  0
VERTEX
  5
9141
  8
4
  6
CONTINUOUS
 10
44.609119567337359
 20
74.288943803660061
 70
0
  0
VERTEX
  5
9142
  8
4
  6
CONTINUOUS
 10
44.609172745108452
 20
74.288611879901126
 70
0
  0
VERTEX
  5
9143
  8
4
  6
CONTINUOUS
 10
44.609225896709781
 20
74.288279955913623
 70
0
  0
VERTEX
  5
9144
  8
4
  6
CONTINUOUS
 10
44.609225896709781
 20
74.288279955913623
 70
0
  0
VERTEX
  5
9145
  8
4
  6
CONTINUOUS
 10
44.6092790314939
 20
74.2879480278809
 70
0
  0
VERTEX
  5
9146
  8
4
  6
CONTINUOUS
 10
44.609332157974407
 20
74.2876160971771
 70
0
  0
SEQEND
  5
9147
  8
0
  0
POLYLINE
  5
23D9
  8
4
  6
CONTINUOUS
 66
1
 70
0
 10
0
 20
0
 30
0
  0
VERTEX
  5
9148
  8
4
  6
CONTINUOUS
 10
44.467741939504812
 20
74.8195696451552
 70
0
  0
VERTEX
  5
9149
  8
4
  6
CONTINUOUS
 10
44.468320617316238
 20
74.815656645767547
 70
0
  0
VERTEX
  5
914A
  8
4
  6
CONTINUOUS
 10
44.468899295127621
 20
74.811743646380265
 70
0
  0
VERTEX
  5
914B
  8
4
  6
CONTINUOUS
 10
44.468899295127621
 20
74.811743646380265
 70
0
  0
VERTEX
  5
914C
  8
4
  6
CONTINUOUS
 10
44.4694779729389
 20
74.807830646992812
 70
0
  0
VERTEX
  5
914D
  8
4
  6
CONTINUOUS
 10
44.470056650750308
 20
74.803917647605289
 70
0
  0
VERTEX
  5
914E
  8
4
  6
CONTINUOUS
 10
44.470056650750308
 20
74.803917647605289
 70
0
  0
VERTEX
  5
914F
  8
4
  6
CONTINUOUS
 10
44.470635328561677
 20
74.8000046482178
 70
0
  0
VERTEX
  5
9150
  8
4
  6
CONTINUOUS
 10
44.471214006373039
 20
74.796091648830114
 70
0
  0
VERTEX
  5
9151
  8
4
  6
CONTINUOUS
 10
44.471214006373039
 20
74.796091648830114
 70
0
  0
VERTEX
  5
9152
  8
4
  6
CONTINUOUS
 10
44.47179268418445
 20
74.792178649442434
 70
0
  0
VERTEX
  5
9153
  8
4
  6
CONTINUOUS
 10
44.472371361995869
 20
74.788265650055067
 70
0
  0
VERTEX
  5
9154
  8
4
  6
CONTINUOUS
 10
44.472371361995869
 20
74.788265650055067
 70
0
  0
VERTEX
  5
9155
  8
4
  6
CONTINUOUS
 10
44.472950039807259
 20
74.784352650667543
 70
0
  0
VERTEX
  5
9156
  8
4
  6
CONTINUOUS
 10
44.47352871761862
 20
74.7804396512797
 70
0
  0
SEQEND
  5
9157
  8
0
  0
POLYLINE
  5
23DA
  8
4
  6
CONTINUOUS
 66
1
 70
0
 10
0
 20
0
 30
0
  0
VERTEX
  5
9158
  8
4
  6
CONTINUOUS
 10
44.461946209414933
 20
74.858772345261059
 70
0
  0
VERTEX
  5
9159
  8
4
  6
CONTINUOUS
 10
44.46252578242381
 20
74.8548520752505
 70
0
  0
VERTEX
  5
915A
  8
4
  6
CONTINUOUS
 10
44.463105355432823
 20
74.850931805239924
 70
0
  0
VERTEX
  5
915B
  8
4
  6
CONTINUOUS
 10
44.463105355432823
 20
74.850931805239924
 70
0
  0
VERTEX
  5
915C
  8
4
  6
CONTINUOUS
 10
44.463684928441673
 20
74.847011535229257
 70
0
  0
VERTEX
  5
915D
  8
4
  6
CONTINUOUS
 10
44.464264501450707
 20
74.84309126521859
 70
0
  0
VERTEX
  5
915E
  8
4
  6
CONTINUOUS
 10
44.464264501450707
 20
74.84309126521859
 70
0
  0
VERTEX
  5
915F
  8
4
  6
CONTINUOUS
 10
44.464844074459762
 20
74.839170995208192
 70
0
  0
VERTEX
  5
9160
  8
4
  6
CONTINUOUS
 10
44.465423647468853
 20
74.835250725197625
 70
0
  0
VERTEX
  5
9161
  8
4
  6
CONTINUOUS
 10
44.465423647468853
 20
74.835250725197625
 70
0
  0
VERTEX
  5
9162
  8
4
  6
CONTINUOUS
 10
44.466003220477837
 20
74.831330455187043
 70
0
  0
VERTEX
  5
9163
  8
4
  6
CONTINUOUS
 10
44.466582793486772
 20
74.827410185176319
 70
0
  0
VERTEX
  5
9164
  8
4
  6
CONTINUOUS
 10
44.466582793486772
 20
74.827410185176319
 70
0
  0
VERTEX
  5
9165
  8
4
  6
CONTINUOUS
 10
44.467162366495842
 20
74.8234899151657
 70
0
  0
VERTEX
  5
9166
  8
4
  6
CONTINUOUS
 10
44.467741939504812
 20
74.8195696451552
 70
0
  0
SEQEND
  5
9167
  8
0
  0
POLYLINE
  5
23DC
  8
4
  6
CONTINUOUS
 66
1
 70
0
 10
0
 20
0
 30
0
  0
VERTEX
  5
9168
  8
4
  6
CONTINUOUS
 10
44.42725358766485
 20
74.713715125851124
 70
0
  0
VERTEX
  5
9169
  8
4
  6
CONTINUOUS
 10
44.432306019596957
 20
74.714311373172649
 70
0
  0
VERTEX
  5
916A
  8
4
  6
CONTINUOUS
 10
44.437358451529171
 20
74.7149076204943
 70
0
  0
VERTEX
  5
916B
  8
4
  6
CONTINUOUS
 10
44.437358451529171
 20
74.7149076204943
 70
0
  0
VERTEX
  5
916C
  8
4
  6
CONTINUOUS
 10
44.442410883461278
 20
74.715503867815855
 70
0
  0
VERTEX
  5
916D
  8
4
  6
CONTINUOUS
 10
44.447463315393449
 20
74.716100115137479
 70
0
  0
VERTEX
  5
916E
  8
4
  6
CONTINUOUS
 10
44.447463315393449
 20
74.716100115137479
 70
0
  0
VERTEX
  5
916F
  8
4
  6
CONTINUOUS
 10
44.452515747325762
 20
74.716696362459231
 70
0
  0
VERTEX
  5
9170
  8
4
  6
CONTINUOUS
 10
44.457568179257919
 20
74.717292609780813
 70
0
  0
VERTEX
  5
9171
  8
4
  6
CONTINUOUS
 10
44.457568179257919
 20
74.717292609780813
 70
0
  0
VERTEX
  5
9172
  8
4
  6
CONTINUOUS
 10
44.462620611190061
 20
74.717888857102523
 70
0
  0
VERTEX
  5
9173
  8
4
  6
CONTINUOUS
 10
44.467673043122247
 20
74.718485104424289
 70
0
  0
VERTEX
  5
9174
  8
4
  6
CONTINUOUS
 10
44.467673043122247
 20
74.718485104424289
 70
0
  0
VERTEX
  5
9175
  8
4
  6
CONTINUOUS
 10
44.472725475054332
 20
74.71908135174607
 70
0
  0
VERTEX
  5
9176
  8
4
  6
CONTINUOUS
 10
44.477777906986567
 20
74.719677599067737
 70
0
  0
SEQEND
  5
9177
  8
0
  0
POLYLINE
  5
23DD
  8
4
  6
CONTINUOUS
 66
1
 70
0
 10
0
 20
0
 30
0
  0
VERTEX
  5
9178
  8
4
  6
CONTINUOUS
 10
44.365110575045129
 20
74.706314171895173
 70
0
  0
VERTEX
  5
9179
  8
4
  6
CONTINUOUS
 10
44.36886275426852
 20
74.706762597983555
 70
0
  0
VERTEX
  5
917A
  8
4
  6
CONTINUOUS
 10
44.372612270185442
 20
74.70721066688958
 70
0
  0
VERTEX
  5
917B
  8
4
  6
CONTINUOUS
 10
44.372612270185442
 20
74.70721066688958
 70
0
  0
VERTEX
  5
917C
  8
4
  6
CONTINUOUS
 10
44.376359127561159
 20
74.707658338579009
 70
0
  0
VERTEX
  5
917D
  8
4
  6
CONTINUOUS
 10
44.380114003448789
 20
74.708106841612334
 70
0
  0
VERTEX
  5
917E
  8
4
  6
CONTINUOUS
 10
44.380114003448789
 20
74.708106841612334
 70
0
  0
VERTEX
  5
917F
  8
4
  6
CONTINUOUS
 10
44.383879570685473
 20
74.708556453104563
 70
0
  0
VERTEX
  5
9180
  8
4
  6
CONTINUOUS
 10
44.38761581295838
 20
74.709002375791016
 70
0
  0
VERTEX
  5
9181
  8
4
  6
CONTINUOUS
 10
44.38761581295838
 20
74.709002375791016
 70
0
  0
VERTEX
  5
9182
  8
4
  6
CONTINUOUS
 10
44.391312062745172
 20
74.7094433010433
 70
0
  0
VERTEX
  5
9183
  8
4
  6
CONTINUOUS
 10
44.395117736837371
 20
74.709896949153887
 70
0
  0
VERTEX
  5
9184
  8
4
  6
CONTINUOUS
 10
44.395117736837371
 20
74.709896949153887
 70
0
  0
VERTEX
  5
9185
  8
4
  6
CONTINUOUS
 10
44.3990728610787
 20
74.710368037319
 70
0
  0
VERTEX
  5
9186
  8
4
  6
CONTINUOUS
 10
44.402619813208887
 20
74.710790241428541
 70
0
  0
VERTEX
  5
9187
  8
4
  6
CONTINUOUS
 10
44.402619813208887
 20
74.710790241428541
 70
0
  0
VERTEX
  5
9188
  8
4
  6
CONTINUOUS
 10
44.405287234625007
 20
74.711107525454764
 70
0
  0
VERTEX
  5
9189
  8
4
  6
CONTINUOUS
 10
44.407546469457458
 20
74.711376047008
 70
0
  0
VERTEX
  5
918A
  8
4
  6
CONTINUOUS
 10
44.407546469457458
 20
74.711376047008
 70
0
  0
VERTEX
  5
918B
  8
4
  6
CONTINUOUS
 10
44.409955129125422
 20
74.711662221276669
 70
0
  0
VERTEX
  5
918C
  8
4
  6
CONTINUOUS
 10
44.4124731914679
 20
74.711961300123974
 70
0
  0
VERTEX
  5
918D
  8
4
  6
CONTINUOUS
 10
44.4124731914679
 20
74.711961300123974
 70
0
  0
VERTEX
  5
918E
  8
4
  6
CONTINUOUS
 10
44.414951246034811
 20
74.712255509983265
 70
0
  0
VERTEX
  5
918F
  8
4
  6
CONTINUOUS
 10
44.417399962799493
 20
74.712546138892733
 70
0
  0
VERTEX
  5
9190
  8
4
  6
CONTINUOUS
 10
44.417399962799493
 20
74.712546138892733
 70
0
  0
VERTEX
  5
9191
  8
4
  6
CONTINUOUS
 10
44.419859359812612
 20
74.712837969517935
 70
0
  0
VERTEX
  5
9192
  8
4
  6
CONTINUOUS
 10
44.42232676701196
 20
74.71313070142979
 70
0
  0
VERTEX
  5
9193
  8
4
  6
CONTINUOUS
 10
44.42232676701196
 20
74.71313070142979
 70
0
  0
VERTEX
  5
9194
  8
4
  6
CONTINUOUS
 10
44.424791510314407
 20
74.713423081119458
 70
0
  0
VERTEX
  5
9195
  8
4
  6
CONTINUOUS
 10
44.42725358766485
 20
74.713715125851124
 70
0
  0
SEQEND
  5
9196
  8
0
  0
POLYLINE
  5
23DE
  8
4
  6
CONTINUOUS
 66
1
 70
0
 10
0
 20
0
 30
0
  0
VERTEX
  5
9197
  8
4
  6
CONTINUOUS
 10
44.47333444952902
 20
74.7497657817158
 70
0
  0
VERTEX
  5
9198
  8
4
  6
CONTINUOUS
 10
44.472889597510388
 20
74.7527787520422
 70
0
  0
VERTEX
  5
9199
  8
4
  6
CONTINUOUS
 10
44.472444745491792
 20
74.755791722368741
 70
0
  0
VERTEX
  5
919A
  8
4
  6
CONTINUOUS
 10
44.472444745491792
 20
74.755791722368741
 70
0
  0
VERTEX
  5
919B
  8
4
  6
CONTINUOUS
 10
44.471999893473132
 20
74.758804692695264
 70
0
  0
VERTEX
  5
919C
  8
4
  6
CONTINUOUS
 10
44.471555041454558
 20
74.761817663021816
 70
0
  0
VERTEX
  5
919D
  8
4
  6
CONTINUOUS
 10
44.471555041454558
 20
74.761817663021816
 70
0
  0
VERTEX
  5
919E
  8
4
  6
CONTINUOUS
 10
44.471110189436082
 20
74.76483063334841
 70
0
  0
VERTEX
  5
919F
  8
4
  6
CONTINUOUS
 10
44.470665337417437
 20
74.7678436036749
 70
0
  0
VERTEX
  5
91A0
  8
4
  6
CONTINUOUS
 10
44.470665337417437
 20
74.7678436036749
 70
0
  0
VERTEX
  5
91A1
  8
4
  6
CONTINUOUS
 10
44.470220485398883
 20
74.770856574001556
 70
0
  0
VERTEX
  5
91A2
  8
4
  6
CONTINUOUS
 10
44.46977563338028
 20
74.773869544328122
 70
0
  0
VERTEX
  5
91A3
  8
4
  6
CONTINUOUS
 10
44.46977563338028
 20
74.773869544328122
 70
0
  0
VERTEX
  5
91A4
  8
4
  6
CONTINUOUS
 10
44.469330781361663
 20
74.776882514654631
 70
0
  0
VERTEX
  5
91A5
  8
4
  6
CONTINUOUS
 10
44.468885929343
 20
74.779895484981182
 70
0
  0
SEQEND
  5
91A6
  8
0
  0
POLYLINE
  5
23DF
  8
4
  6
CONTINUOUS
 66
1
 70
0
 10
0
 20
0
 30
0
  0
VERTEX
  5
91A7
  8
4
  6
CONTINUOUS
 10
44.477777906986567
 20
74.719677599067737
 70
0
  0
VERTEX
  5
91A8
  8
4
  6
CONTINUOUS
 10
44.477333561240791
 20
74.722686417332284
 70
0
  0
VERTEX
  5
91A9
  8
4
  6
CONTINUOUS
 10
44.476889215495092
 20
74.725695235597044
 70
0
  0
VERTEX
  5
91AA
  8
4
  6
CONTINUOUS
 10
44.476889215495092
 20
74.725695235597044
 70
0
  0
VERTEX
  5
91AB
  8
4
  6
CONTINUOUS
 10
44.476444869749393
 20
74.728704053861861
 70
0
  0
VERTEX
  5
91AC
  8
4
  6
CONTINUOUS
 10
44.476000524003631
 20
74.731712872126778
 70
0
  0
VERTEX
  5
91AD
  8
4
  6
CONTINUOUS
 10
44.476000524003631
 20
74.731712872126778
 70
0
  0
VERTEX
  5
91AE
  8
4
  6
CONTINUOUS
 10
44.4755561782579
 20
74.73472169039168
 70
0
  0
VERTEX
  5
91AF
  8
4
  6
CONTINUOUS
 10
44.475111832512113
 20
74.737730508656512
 70
0
  0
VERTEX
  5
91B0
  8
4
  6
CONTINUOUS
 10
44.475111832512113
 20
74.737730508656512
 70
0
  0
VERTEX
  5
91B1
  8
4
  6
CONTINUOUS
 10
44.474667486766329
 20
74.740739326921087
 70
0
  0
VERTEX
  5
91B2
  8
4
  6
CONTINUOUS
 10
44.474223141020524
 20
74.743748145185933
 70
0
  0
VERTEX
  5
91B3
  8
4
  6
CONTINUOUS
 10
44.474223141020524
 20
74.743748145185933
 70
0
  0
VERTEX
  5
91B4
  8
4
  6
CONTINUOUS
 10
44.473778795274747
 20
74.7467569634509
 70
0
  0
VERTEX
  5
91B5
  8
4
  6
CONTINUOUS
 10
44.47333444952902
 20
74.7497657817158
 70
0
  0
SEQEND
  5
91B6
  8
0
  0
ARC
  5
23E9
  8
4
  6
CONTINUOUS
 10
50.589717259158078
 20
22.577510253435161
 30
0
 40
52.65000000001794
 50
96.721231343600465
 51
97.433796495401
  0
ARC
  5
23EA
  8
4
  6
CONTINUOUS
 10
50.589717259158078
 20
22.577510253435161
 30
0
 40
52.054779341591932
 50
96.763436585700688
 51
97.341995502202181
  0
ARC
  5
23EC
  8
4
  6
CONTINUOUS
 10
50.589717259158078
 20
22.577510253435161
 30
0
 40
52.560000000186022
 50
96.682410865793088
 51
96.687506625798136
  0
LINE
  5
23EF
  8
4
  6
CONTINUOUS
 10
43.93714655289466
 20
74.207927725185783
 30
0
 11
43.937554076590871
 21
74.2054946927132
 31
0
  0
LINE
  5
23F1
  8
4
  6
CONTINUOUS
 10
44.5779871058571
 20
74.8713563333012
 30
0
 11
44.577992266883292
 21
74.883166377753739
 31
0
  0
LINE
  5
23F2
  8
4
  6
CONTINUOUS
 10
44.427560450768333
 20
74.713751339362929
 30
0
 11
44.427626794691108
 21
74.865665136657128
 31
0
  0
ARC
  5
23FC
  8
4
  6
CONTINUOUS
 10
50.589717259158277
 20
74.43262909925059
 30
0
 40
0.75000000037800529
 50
57.546670605002106
 51
122.45069227860591
  0
ARC
  5
23FD
  8
4
  6
CONTINUOUS
 10
50.589717259158078
 20
22.577510253435161
 30
0
 40
52.650000000017961
 50
91.110267954294756
 51
92.482023910605619
  0
ARC
  5
23FE
  8
4
  6
CONTINUOUS
 10
50.589717259158078
 20
22.577510253435161
 30
0
 40
52.639148396880039
 50
91.106598028900649
 51
92.486125181004184
  0
POLYLINE
  5
2407
  8
4
  6
CONTINUOUS
 66
1
 70
0
 10
0
 20
0
 30
0
  0
VERTEX
  5
91B7
  8
4
  6
CONTINUOUS
 10
49.576845808144952
 20
75.210447550977065
 70
0
  0
VERTEX
  5
91B8
  8
4
  6
CONTINUOUS
 10
49.579439401332053
 20
75.20790039627957
 70
0
  0
VERTEX
  5
91B9
  8
4
  6
CONTINUOUS
 10
49.5820329945193
 20
75.205353241582444
 70
0
  0
VERTEX
  5
91BA
  8
4
  6
CONTINUOUS
 10
49.5820329945193
 20
75.205353241582444
 70
0
  0
VERTEX
  5
91BB
  8
4
  6
CONTINUOUS
 10
49.584626587706452
 20
75.202806086884962
 70
0
  0
VERTEX
  5
91BC
  8
4
  6
CONTINUOUS
 10
49.587220180893638
 20
75.200258932187481
 70
0
  0
VERTEX
  5
91BD
  8
4
  6
CONTINUOUS
 10
49.587220180893638
 20
75.200258932187481
 70
0
  0
VERTEX
  5
91BE
  8
4
  6
CONTINUOUS
 10
49.5898137740809
 20
75.197711777490113
 70
0
  0
VERTEX
  5
91BF
  8
4
  6
CONTINUOUS
 10
49.592407367268088
 20
75.1951646227926
 70
0
  0
VERTEX
  5
91C0
  8
4
  6
CONTINUOUS
 10
49.592407367268088
 20
75.1951646227926
 70
0
  0
VERTEX
  5
91C1
  8
4
  6
CONTINUOUS
 10
49.595000960455287
 20
75.1926174680951
 70
0
  0
VERTEX
  5
91C2
  8
4
  6
CONTINUOUS
 10
49.597594553642459
 20
75.190070313397555
 70
0
  0
VERTEX
  5
91C3
  8
4
  6
CONTINUOUS
 10
49.597594553642459
 20
75.190070313397555
 70
0
  0
VERTEX
  5
91C4
  8
4
  6
CONTINUOUS
 10
49.600188146829652
 20
75.18752315870006
 70
0
  0
VERTEX
  5
91C5
  8
4
  6
CONTINUOUS
 10
49.60278174001683
 20
75.184976004002479
 70
0
  0
SEQEND
  5
91C6
  8
0
  0
POLYLINE
  5
2408
  8
4
  6
CONTINUOUS
 66
1
 70
0
 10
0
 20
0
 30
0
  0
VERTEX
  5
91C7
  8
4
  6
CONTINUOUS
 10
49.569538299772887
 20
75.217624823643163
 70
0
  0
VERTEX
  5
91C8
  8
4
  6
CONTINUOUS
 10
49.570269050610072
 20
75.2169070963764
 70
0
  0
VERTEX
  5
91C9
  8
4
  6
CONTINUOUS
 10
49.570999801447321
 20
75.216189369109927
 70
0
  0
VERTEX
  5
91CA
  8
4
  6
CONTINUOUS
 10
49.570999801447321
 20
75.216189369109927
 70
0
  0
VERTEX
  5
91CB
  8
4
  6
CONTINUOUS
 10
49.571730552284549
 20
75.21547164184345
 70
0
  0
VERTEX
  5
91CC
  8
4
  6
CONTINUOUS
 10
49.572461303121742
 20
75.214753914577088
 70
0
  0
VERTEX
  5
91CD
  8
4
  6
CONTINUOUS
 10
49.572461303121742
 20
75.214753914577088
 70
0
  0
VERTEX
  5
91CE
  8
4
  6
CONTINUOUS
 10
49.573192053959033
 20
75.214036187310441
 70
0
  0
VERTEX
  5
91CF
  8
4
  6
CONTINUOUS
 10
49.573922804796211
 20
75.213318460043709
 70
0
  0
VERTEX
  5
91D0
  8
4
  6
CONTINUOUS
 10
49.573922804796211
 20
75.213318460043709
 70
0
  0
VERTEX
  5
91D1
  8
4
  6
CONTINUOUS
 10
49.574653555633361
 20
75.2126007327769
 70
0
  0
VERTEX
  5
91D2
  8
4
  6
CONTINUOUS
 10
49.575384306470539
 20
75.2118830055103
 70
0
  0
VERTEX
  5
91D3
  8
4
  6
CONTINUOUS
 10
49.575384306470539
 20
75.2118830055103
 70
0
  0
VERTEX
  5
91D4
  8
4
  6
CONTINUOUS
 10
49.576115057307732
 20
75.2111652782437
 70
0
  0
VERTEX
  5
91D5
  8
4
  6
CONTINUOUS
 10
49.576845808144952
 20
75.210447550977065
 70
0
  0
SEQEND
  5
91D6
  8
0
  0
ARC
  5
240E
  8
4
  6
CONTINUOUS
 10
50.589717259158078
 20
22.577510253435161
 30
0
 40
52.650000000018018
 50
87.5179812375015
 51
88.889737191407889
  0
ARC
  5
240F
  8
4
  6
CONTINUOUS
 10
50.589717259158078
 20
22.577510253435161
 30
0
 40
52.639148396880039
 50
87.513868326401408
 51
88.893386632308548
  0
POLYLINE
  5
2410
  8
4
  6
CONTINUOUS
 66
1
 70
0
 10
0
 20
0
 30
0
  0
VERTEX
  5
91D7
  8
4
  6
CONTINUOUS
 10
51.602573608090687
 20
75.210437612972484
 70
0
  0
VERTEX
  5
91D8
  8
4
  6
CONTINUOUS
 10
51.599989270384071
 20
75.207899477154754
 70
0
  0
VERTEX
  5
91D9
  8
4
  6
CONTINUOUS
 10
51.597404932677563
 20
75.205361341337124
 70
0
  0
VERTEX
  5
91DA
  8
4
  6
CONTINUOUS
 10
51.597404932677563
 20
75.205361341337124
 70
0
  0
VERTEX
  5
91DB
  8
4
  6
CONTINUOUS
 10
51.594820594970876
 20
75.202823205519422
 70
0
  0
VERTEX
  5
91DC
  8
4
  6
CONTINUOUS
 10
51.592236257264346
 20
75.20028506970182
 70
0
  0
VERTEX
  5
91DD
  8
4
  6
CONTINUOUS
 10
51.592236257264346
 20
75.20028506970182
 70
0
  0
VERTEX
  5
91DE
  8
4
  6
CONTINUOUS
 10
51.589651919557781
 20
75.19774693388419
 70
0
  0
VERTEX
  5
91DF
  8
4
  6
CONTINUOUS
 10
51.587067581851237
 20
75.19520879806646
 70
0
  0
VERTEX
  5
91E0
  8
4
  6
CONTINUOUS
 10
51.587067581851237
 20
75.19520879806646
 70
0
  0
VERTEX
  5
91E1
  8
4
  6
CONTINUOUS
 10
51.584483244144742
 20
75.192670662248815
 70
0
  0
VERTEX
  5
91E2
  8
4
  6
CONTINUOUS
 10
51.58189890643829
 20
75.190132526431142
 70
0
  0
VERTEX
  5
91E3
  8
4
  6
CONTINUOUS
 10
51.58189890643829
 20
75.190132526431142
 70
0
  0
VERTEX
  5
91E4
  8
4
  6
CONTINUOUS
 10
51.579314568731753
 20
75.187594390613455
 70
0
  0
VERTEX
  5
91E5
  8
4
  6
CONTINUOUS
 10
51.5767302310251
 20
75.185056254795683
 70
0
  0
SEQEND
  5
91E6
  8
0
  0
POLYLINE
  5
2411
  8
4
  6
CONTINUOUS
 66
1
 70
0
 10
0
 20
0
 30
0
  0
VERTEX
  5
91E7
  8
4
  6
CONTINUOUS
 10
51.609891494902719
 20
75.217625072817739
 70
0
  0
VERTEX
  5
91E8
  8
4
  6
CONTINUOUS
 10
51.609159706221561
 20
75.21690632683314
 70
0
  0
VERTEX
  5
91E9
  8
4
  6
CONTINUOUS
 10
51.608427917540247
 20
75.216187580848612
 70
0
  0
VERTEX
  5
91EA
  8
4
  6
CONTINUOUS
 10
51.608427917540247
 20
75.216187580848612
 70
0
  0
VERTEX
  5
91EB
  8
4
  6
CONTINUOUS
 10
51.607696128859
 20
75.21546883486387
 70
0
  0
VERTEX
  5
91EC
  8
4
  6
CONTINUOUS
 10
51.606964340177832
 20
75.214750088879342
 70
0
  0
VERTEX
  5
91ED
  8
4
  6
CONTINUOUS
 10
51.606964340177832
 20
75.214750088879342
 70
0
  0
VERTEX
  5
91EE
  8
4
  6
CONTINUOUS
 10
51.6062325514967
 20
75.214031342894913
 70
0
  0
VERTEX
  5
91EF
  8
4
  6
CONTINUOUS
 10
51.605500762815552
 20
75.213312596910484
 70
0
  0
VERTEX
  5
91F0
  8
4
  6
CONTINUOUS
 10
51.605500762815552
 20
75.213312596910484
 70
0
  0
VERTEX
  5
91F1
  8
4
  6
CONTINUOUS
 10
51.604768974134352
 20
75.212593850926041
 70
0
  0
VERTEX
  5
91F2
  8
4
  6
CONTINUOUS
 10
51.6040371854531
 20
75.21187510494147
 70
0
  0
VERTEX
  5
91F3
  8
4
  6
CONTINUOUS
 10
51.6040371854531
 20
75.21187510494147
 70
0
  0
VERTEX
  5
91F4
  8
4
  6
CONTINUOUS
 10
51.603305396771873
 20
75.211156358956941
 70
0
  0
VERTEX
  5
91F5
  8
4
  6
CONTINUOUS
 10
51.602573608090687
 20
75.210437612972484
 70
0
  0
SEQEND
  5
91F6
  8
0
  0
ARC
  5
2429
  8
4
  6
CONTINUOUS
 10
54.84971725966075
 20
68.342510253452545
 30
0
 40
0.779999999999973
 50
0
 51
90
  0
ARC
  5
242A
  8
4
  6
CONTINUOUS
 10
54.84971725966075
 20
68.342510253452545
 30
0
 40
0.9
 50
0
 51
90
  0
ARC
  5
242B
  8
4
  6
CONTINUOUS
 10
54.84971725966075
 20
67.052510253452468
 30
0
 40
0.9
 50
270
 51
0
  0
ARC
  5
242C
  8
4
  6
CONTINUOUS
 10
54.84971725966075
 20
67.052510253452468
 30
0
 40
0.779999999999973
 50
270
 51
0
  0
LINE
  5
242D
  8
4
  6
CONTINUOUS
 10
55.7497172596609
 20
68.342510253452545
 30
0
 11
55.7497172596609
 21
67.052510253452468
 31
0
  0
LINE
  5
242E
  8
4
  6
CONTINUOUS
 10
55.629717259660652
 20
68.342510253452545
 30
0
 11
55.629717259660652
 21
67.052510253452468
 31
0
  0
ARC
  5
84A2
  8
4
  6
CONTINUOUS
 10
45.862371914566573
 20
37.943141160638881
 30
0
 40
1.167704948291667
 50
179.85816148415191
 51
267.00497341036578
  0
ARC
  5
84A3
  8
4
  6
CONTINUOUS
 10
45.862622174799128
 20
37.943377913372181
 30
0
 40
1.3190491056404261
 50
179.8847195777735
 51
266.982634483753
  0
ARC
  5
84A4
  8
4
  6
CONTINUOUS
 10
45.889790852922488
 20
37.96911171757209
 30
0
 40
1.907731485740404
 50
180.6931846573361
 51
266.201935385229
  0
ARC
  5
84A7
  8
4
  6
CONTINUOUS
 10
46.2528407376801
 20
53.2179432935334
 30
0
 40
3.2384812129593632
 50
180.00665442781829
 51
201.24283053342359
  0
LINE
  5
84A9
  8
4
  6
CONTINUOUS
 10
43.014306165407262
 20
53.247110253710566
 30
0
 11
43.014359546562467
 21
53.21756717090085
 31
0
  0
LINE
  5
84AA
  8
4
  6
CONTINUOUS
 10
43.234403914187133
 20
52.044572205909169
 30
0
 11
43.239717259414682
 21
51.987655856444583
 31
0
  0
ARC
  5
84AB
  8
4
  6
CONTINUOUS
 10
34.753656603267594
 20
53.0436813382451
 30
0
 40
8.5864762272637023
 50
353.24547115692769
 51
1.357566088593811
  0
LINE
  5
84AC
  8
4
  6
CONTINUOUS
 10
43.280535501363687
 20
52.033775274015241
 30
0
 11
43.261543911214829
 21
51.975887778381122
 31
0
  0
ARC
  5
84AF
  8
4
  6
CONTINUOUS
 10
45.797446755924042
 20
37.881664510905452
 30
0
 40
2.392157087130526
 50
179.95485441035081
 51
266.90500471905813
  0
ARC
  5
84B0
  8
4
  6
CONTINUOUS
 10
45.631972264504881
 20
37.72515776819381
 30
0
 40
2.392255677936109
 50
179.95702739786589
 51
266.80002970204089
  0
LINE
  5
84B4
  8
4
  6
CONTINUOUS
 10
43.405074469720752
 20
37.94196602636719
 30
0
 11
43.405290411376633
 21
37.883549385009189
 31
0
  0
LINE
  5
84B6
  8
4
  6
CONTINUOUS
 10
45.668290387018779
 20
35.4929966474552
 30
0
 11
45.734385703944433
 21
35.489172517091248
 31
0
  0
ARC
  5
84CF
  8
4
  6
CONTINUOUS
 10
55.317062604508848
 20
37.943141160638881
 30
0
 40
1.167704948291667
 50
272.99502658963428
 51
0.14183851584812249
  0
ARC
  5
84D0
  8
4
  6
CONTINUOUS
 10
55.316812344276293
 20
37.943377913372181
 30
0
 40
1.3190491056404261
 50
273.0173655162468
 51
0.11528042222650858
  0
ARC
  5
84D1
  8
4
  6
CONTINUOUS
 10
55.289643666152926
 20
37.96911171757209
 30
0
 40
1.907731485740404
 50
273.798064614771
 51
359.30681534266381
  0
ARC
  5
84D2
  8
4
  6
CONTINUOUS
 10
55.381987763151379
 20
37.881664510905452
 30
0
 40
2.392157087130526
 50
273.0949952809421
 51
0.0451455896492075
  0
ARC
  5
84D3
  8
4
  6
CONTINUOUS
 10
55.547462254570547
 20
37.72515776819381
 30
0
 40
2.392255677936109
 50
273.19997029795911
 51
0.0429726021339615
  0
LINE
  5
84D4
  8
4
  6
CONTINUOUS
 10
57.774360049354662
 20
37.94196602636719
 30
0
 11
57.774144107698788
 21
37.883549385009189
 31
0
  0
LINE
  5
84D5
  8
4
  6
CONTINUOUS
 10
55.51114413205665
 20
35.4929966474552
 30
0
 11
55.445048815130967
 21
35.489172517091248
 31
0
  0
ARC
  5
84DA
  8
4
  6
CONTINUOUS
 10
36.91100523378234
 20
72.579978182869553
 30
0
 40
6.4948963728651812
 50
359.08558186352462
 51
6.1058947097806433
  0
ARC
  5
84DB
  8
4
  6
CONTINUOUS
 10
40.936570465064086
 20
72.930940060917763
 30
0
 40
2.4561153306219272
 50
7.9541013636781663
 51
20.279440803665949
  0
ARC
  5
84DD
  8
4
  6
CONTINUOUS
 10
45.406572223855292
 20
72.717115961012482
 30
0
 40
2.1114110219966342
 50
136.28605046117329
 51
164.79686029107464
  0
ARC
  5
84DE
  8
4
  6
CONTINUOUS
 10
43.949038635970737
 20
74.1127413191614
 30
0
 40
0.0934616684358478
 50
97.0583384655471
 51
137.21529480491179
  0
ARC
  5
84DF
  8
4
  6
CONTINUOUS
 10
45.570496612728611
 20
73.234345011506448
 30
0
 40
2.3936042720369071
 50
141.02061315100141
 51
166.76801631421651
  0
ARC
  5
84E0
  8
4
  6
CONTINUOUS
 10
43.80090345238559
 20
74.676085673031508
 30
0
 40
0.1113192094659979
 50
101.96110651774481
 51
144.94725977609909
  0
ARC
  5
84E6
  8
4
  6
CONTINUOUS
 10
40.552152592997409
 20
73.6819316674529
 30
0
 40
3.4256176028989831
 50
8.8325833133915221
 51
16.763150154425
  0
ARC
  5
84E8
  8
4
  6
CONTINUOUS
 10
43.547998015193969
 20
74.607038554805442
 30
0
 40
0.29067168460169363
 50
13.124554575827849
 51
37.748801807404632
  0
ARC
  5
84E9
  8
4
  6
CONTINUOUS
 10
33.048460526377141
 20
73.074168961822735
 30
0
 40
10.9477055246604
 50
357.21132742500993
 51
5.9314818242044831
  0
ARC
  5
84EB
  8
4
  6
CONTINUOUS
 10
30.95634521001784
 20
72.755214085343411
 30
0
 40
13.587570380916681
 50
359.41990208509731
 51
6.4009646740602451
  0
ARC
  5
84EC
  8
4
  6
CONTINUOUS
 10
40.989946406870367
 20
73.756628278366335
 30
0
 40
3.5070476708246261
 50
8.4179181056093242
 51
15.548134631737812
  0
ARC
  5
84ED
  8
4
  6
CONTINUOUS
 10
43.441968113215147
 20
74.41556004228579
 30
0
 40
0.9683894703447391
 50
16.815550351928241
 51
26.740252823889882
  0
ARC
  5
84EE
  8
4
  6
CONTINUOUS
 10
46.058188789506673
 20
68.743585058586888
 30
0
 40
3.0442373982321862
 50
160.37825878156849
 51
180.8747391475697
  0
LINE
  5
84F1
  8
4
  6
CONTINUOUS
 10
43.232887503164953
 20
69.883391041408643
 30
0
 11
43.240658256262762
 21
69.9113328901471
 31
0
  0
ARC
  5
84F2
  8
4
  6
CONTINUOUS
 10
43.028526405161628
 20
69.8601353946633
 30
0
 40
0.25691286786613871
 50
5.75600465328049
 51
24.288120745510518
  0
ARC
  5
84F4
  8
4
  6
CONTINUOUS
 10
40.075785042014381
 20
69.40899920730493
 30
0
 40
3.2436095280284918
 50
2.1247279227712959
 51
8.4547545314142631
  0
ARC
  5
84F6
  8
4
  6
CONTINUOUS
 10
28.14479651859207
 20
68.738095997968344
 30
0
 40
15.19298146025282
 50
359.8454343521388
 51
2.984973211346527
  0
ARC
  5
84F7
  8
4
  6
CONTINUOUS
 10
29.064982783953059
 20
72.660686544125483
 30
0
 40
15.629257731338379
 50
359.9082629136629
 51
5.9750354123991292
  0
ARC
  5
84F9
  8
4
  6
CONTINUOUS
 10
40.913930736898919
 20
73.727776889432789
 30
0
 40
3.7375676049285711
 50
8.6145857178257081
 51
15.283154125253072
  0
ARC
  5
84FB
  8
4
  6
CONTINUOUS
 10
43.66926481916434
 20
74.462681457766564
 30
0
 40
0.88613304735039933
 50
16.405843727850542
 51
26.550604283725729
  0
ARC
  5
84FE
  8
4
  6
CONTINUOUS
 10
43.834049702045711
 20
74.3657929533015
 30
0
 40
0.73458855446124849
 50
14.149077666065409
 51
28.799458013473149
  0
ARC
  5
84FF
  8
4
  6
CONTINUOUS
 10
41.404805781545988
 20
73.696615910112314
 30
0
 40
3.2541797109177271
 50
9.70926597976933
 51
15.11852100060308
  0
ARC
  5
8501
  8
4
  6
CONTINUOUS
 10
43.505819217544328
 20
72.037209634648548
 30
0
 40
4.0890718967232491
 50
46.854934585281107
 51
47.45967310136686
  0
ARC
  5
8504
  8
4
  6
CONTINUOUS
 10
47.079362094833847
 20
78.825121248112012
 30
0
 40
3.891148498006666
 50
273.112650170596
 51
284.14499570377887
  0
ARC
  5
8505
  8
4
  6
CONTINUOUS
 10
47.02528595503496
 20
78.303824044297556
 30
0
 40
3.3745604454521829
 50
259.5594892658321
 51
274.51018005027282
  0
ARC
  5
8508
  8
4
  6
CONTINUOUS
 10
46.37297820373437
 20
75.156015307833087
 30
0
 40
0.15270289089354949
 50
229.7486213375301
 51
252.2328739683951
  0
ARC
  5
8509
  8
4
  6
CONTINUOUS
 10
46.569690158191989
 20
75.682962785180379
 30
0
 40
0.71503628653264084
 50
250.10636113126043
 51
257.40465912639053
  0
ARC
  5
850A
  8
4
  6
CONTINUOUS
 10
47.772439160641689
 20
76.143639472797972
 30
0
 40
1.121721754054454
 50
283.28828420656691
 51
296.39424493106168
  0
ARC
  5
850B
  8
4
  6
CONTINUOUS
 10
48.195170568325857
 20
75.269738122668755
 30
0
 40
0.15131505329912021
 50
300.11685093534368
 51
317.29483195335308
  0
ARC
  5
850D
  8
4
  6
CONTINUOUS
 10
47.697454570666572
 20
75.740793912565664
 30
0
 40
0.83150467116085836
 50
313.6208178034023
 51
317.41391606089468
  0
ARC
  5
850E
  8
4
  6
CONTINUOUS
 10
46.492834518930927
 20
76.4190793133652
 30
0
 40
1.396407099757162
 50
261.79218527958551
 51
271.59902648719458
  0
ARC
  5
850F
  8
4
  6
CONTINUOUS
 10
46.469523835696968
 20
85.531979969746985
 30
0
 40
10.508948511187541
 50
270.33954174796611
 51
273.031373620398
  0
ARC
  5
8510
  8
4
  6
CONTINUOUS
 10
47.56408104206173
 20
78.726770870363069
 30
0
 40
3.6414048734371951
 50
274.57095058519911
 51
280.43702219725981
  0
ARC
  5
8511
  8
4
  6
CONTINUOUS
 10
46.437580948573782
 20
89.672087113505825
 30
0
 40
14.643828560249471
 50
274.106012509168
 51
275.551682433592
  0
POLYLINE
  5
8512
  8
4
  6
CONTINUOUS
 66
1
 70
0
 10
0
 20
0
 30
0
  0
VERTEX
  5
91F7
  8
4
  6
CONTINUOUS
 10
57.196082441116559
 20
72.5468149364192
 70
0
  0
VERTEX
  5
91F8
  8
4
  6
CONTINUOUS
 10
57.196183107664218
 20
72.543296900974241
 70
0
  0
VERTEX
  5
91F9
  8
4
  6
CONTINUOUS
 10
57.19628291141305
 20
72.539778827925659
 70
0
  0
VERTEX
  5
91FA
  8
4
  6
CONTINUOUS
 10
57.19628291141305
 20
72.539778827925659
 70
0
  0
VERTEX
  5
91FB
  8
4
  6
CONTINUOUS
 10
57.1963809892461
 20
72.5362607031425
 70
0
  0
VERTEX
  5
91FC
  8
4
  6
CONTINUOUS
 10
57.196476476774528
 20
72.532742606385625
 70
0
  0
VERTEX
  5
91FD
  8
4
  6
CONTINUOUS
 10
57.196476476774528
 20
72.532742606385625
 70
0
  0
VERTEX
  5
91FE
  8
4
  6
CONTINUOUS
 10
57.19656851056331
 20
72.529224546997256
 70
0
  0
VERTEX
  5
91FF
  8
4
  6
CONTINUOUS
 10
57.19665623226561
 20
72.525706158752982
 70
0
  0
VERTEX
  5
9200
  8
4
  6
CONTINUOUS
 10
57.19665623226561
 20
72.525706158752982
 70
0
  0
VERTEX
  5
9201
  8
4
  6
CONTINUOUS
 10
57.196738780036611
 20
72.522187333630583
 70
0
  0
VERTEX
  5
9202
  8
4
  6
CONTINUOUS
 10
57.1968152729515
 20
72.518669371980977
 70
0
  0
VERTEX
  5
9203
  8
4
  6
CONTINUOUS
 10
57.1968152729515
 20
72.518669371980977
 70
0
  0
VERTEX
  5
9204
  8
4
  6
CONTINUOUS
 10
57.196884843123421
 20
72.515152611766382
 70
0
  0
VERTEX
  5
9205
  8
4
  6
CONTINUOUS
 10
57.196946693896891
 20
72.51163213302344
 70
0
  0
VERTEX
  5
9206
  8
4
  6
CONTINUOUS
 10
57.196946693896891
 20
72.51163213302344
 70
0
  0
VERTEX
  5
9207
  8
4
  6
CONTINUOUS
 10
57.1970003010859
 20
72.508103779374366
 70
0
  0
VERTEX
  5
9208
  8
4
  6
CONTINUOUS
 10
57.197046159151618
 20
72.504571706710038
 70
0
  0
VERTEX
  5
9209
  8
4
  6
CONTINUOUS
 10
57.197046159151618
 20
72.504571706710038
 70
0
  0
VERTEX
  5
920A
  8
4
  6
CONTINUOUS
 10
57.197085042482151
 20
72.501040834629819
 70
0
  0
VERTEX
  5
920B
  8
4
  6
CONTINUOUS
 10
57.197117826529158
 20
72.497510825294754
 70
0
  0
VERTEX
  5
920C
  8
4
  6
CONTINUOUS
 10
57.197117826529158
 20
72.497510825294754
 70
0
  0
VERTEX
  5
920D
  8
4
  6
CONTINUOUS
 10
57.1971454052419
 20
72.493980378567372
 70
0
  0
VERTEX
  5
920E
  8
4
  6
CONTINUOUS
 10
57.1971686454991
 20
72.490449602552673
 70
0
  0
VERTEX
  5
920F
  8
4
  6
CONTINUOUS
 10
57.1971686454991
 20
72.490449602552673
 70
0
  0
VERTEX
  5
9210
  8
4
  6
CONTINUOUS
 10
57.197188409217041
 20
72.486918863532978
 70
0
  0
VERTEX
  5
9211
  8
4
  6
CONTINUOUS
 10
57.197205565530467
 20
72.483388152259764
 70
0
  0
VERTEX
  5
9212
  8
4
  6
CONTINUOUS
 10
57.197205565530467
 20
72.483388152259764
 70
0
  0
VERTEX
  5
9213
  8
4
  6
CONTINUOUS
 10
57.197220984927647
 20
72.479857389071853
 70
0
  0
VERTEX
  5
9214
  8
4
  6
CONTINUOUS
 10
57.197235536092379
 20
72.476326588191142
 70
0
  0
SEQEND
  5
9215
  8
0
  0
POLYLINE
  5
8513
  8
4
  6
CONTINUOUS
 66
1
 70
0
 10
0
 20
0
 30
0
  0
VERTEX
  5
9216
  8
4
  6
CONTINUOUS
 10
56.6358587800066
 20
72.476326588191142
 70
0
  0
VERTEX
  5
9217
  8
4
  6
CONTINUOUS
 10
56.635862190918473
 20
72.483407018689732
 70
0
  0
VERTEX
  5
9218
  8
4
  6
CONTINUOUS
 10
56.6358658924708
 20
72.490487389115543
 70
0
  0
VERTEX
  5
9219
  8
4
  6
CONTINUOUS
 10
56.6358658924708
 20
72.490487389115543
 70
0
  0
VERTEX
  5
921A
  8
4
  6
CONTINUOUS
 10
56.635870175482417
 20
72.4975676987338
 70
0
  0
VERTEX
  5
921B
  8
4
  6
CONTINUOUS
 10
56.635875331484371
 20
72.504648184163628
 70
0
  0
VERTEX
  5
921C
  8
4
  6
CONTINUOUS
 10
56.635875331484371
 20
72.504648184163628
 70
0
  0
VERTEX
  5
921D
  8
4
  6
CONTINUOUS
 10
56.635881651473518
 20
72.5117289040085
 70
0
  0
VERTEX
  5
921E
  8
4
  6
CONTINUOUS
 10
56.635889423596581
 20
72.5188089674586
 70
0
  0
VERTEX
  5
921F
  8
4
  6
CONTINUOUS
 10
56.635889423596581
 20
72.5188089674586
 70
0
  0
VERTEX
  5
9220
  8
4
  6
CONTINUOUS
 10
56.635898937959652
 20
72.525888136426374
 70
0
  0
VERTEX
  5
9221
  8
4
  6
CONTINUOUS
 10
56.6359104953567
 20
72.532969733124574
 70
0
  0
VERTEX
  5
9222
  8
4
  6
CONTINUOUS
 10
56.6359104953567
 20
72.532969733124574
 70
0
  0
VERTEX
  5
9223
  8
4
  6
CONTINUOUS
 10
56.63592438927823
 20
72.540054646894063
 70
0
  0
VERTEX
  5
9224
  8
4
  6
CONTINUOUS
 10
56.635940873314091
 20
72.547130475284646
 70
0
  0
VERTEX
  5
9225
  8
4
  6
CONTINUOUS
 10
56.635940873314091
 20
72.547130475284646
 70
0
  0
VERTEX
  5
9226
  8
4
  6
CONTINUOUS
 10
56.6359601077843
 20
72.554186734702427
 70
0
  0
VERTEX
  5
9227
  8
4
  6
CONTINUOUS
 10
56.635981919831231
 20
72.561233908772621
 70
0
  0
VERTEX
  5
9228
  8
4
  6
CONTINUOUS
 10
56.635981919831231
 20
72.561233908772621
 70
0
  0
VERTEX
  5
9229
  8
4
  6
CONTINUOUS
 10
56.6360060464729
 20
72.568284399969727
 70
0
  0
VERTEX
  5
922A
  8
4
  6
CONTINUOUS
 10
56.636032197409527
 20
72.575337318944449
 70
0
  0
VERTEX
  5
922B
  8
4
  6
CONTINUOUS
 10
56.636032197409527
 20
72.575337318944449
 70
0
  0
VERTEX
  5
922C
  8
4
  6
CONTINUOUS
 10
56.636060077340609
 20
72.582389343470226
 70
0
  0
VERTEX
  5
922D
  8
4
  6
CONTINUOUS
 10
56.636089398283318
 20
72.589440711629635
 70
0
  0
VERTEX
  5
922E
  8
4
  6
CONTINUOUS
 10
56.636089398283318
 20
72.589440711629635
 70
0
  0
VERTEX
  5
922F
  8
4
  6
CONTINUOUS
 10
56.636119873596449
 20
72.596492314228371
 70
0
  0
VERTEX
  5
9230
  8
4
  6
CONTINUOUS
 10
56.63615121468748
 20
72.6035440926569
 70
0
  0
VERTEX
  5
9231
  8
4
  6
CONTINUOUS
 10
56.63615121468748
 20
72.6035440926569
 70
0
  0
VERTEX
  5
9232
  8
4
  6
CONTINUOUS
 10
56.636183132597822
 20
72.610595810289468
 70
0
  0
VERTEX
  5
9233
  8
4
  6
CONTINUOUS
 10
56.636215338856879
 20
72.617647467855164
 70
0
  0
SEQEND
  5
9234
  8
0
  0
POLYLINE
  5
8514
  8
4
  6
CONTINUOUS
 66
1
 70
0
 10
0
 20
0
 30
0
  0
VERTEX
  5
9235
  8
4
  6
CONTINUOUS
 10
56.485214037101017
 20
72.635662328193092
 70
0
  0
VERTEX
  5
9236
  8
4
  6
CONTINUOUS
 10
56.485173225202622
 20
72.627714647972013
 70
0
  0
VERTEX
  5
9237
  8
4
  6
CONTINUOUS
 10
56.485132780427577
 20
72.619766887969732
 70
0
  0
VERTEX
  5
9238
  8
4
  6
CONTINUOUS
 10
56.485132780427577
 20
72.619766887969732
 70
0
  0
VERTEX
  5
9239
  8
4
  6
CONTINUOUS
 10
56.4850930700805
 20
72.611819047146781
 70
0
  0
VERTEX
  5
923A
  8
4
  6
CONTINUOUS
 10
56.485054462189062
 20
72.603871439435409
 70
0
  0
VERTEX
  5
923B
  8
4
  6
CONTINUOUS
 10
56.485054462189062
 20
72.603871439435409
 70
0
  0
VERTEX
  5
923C
  8
4
  6
CONTINUOUS
 10
56.485017324238449
 20
72.595924142539431
 70
0
  0
VERTEX
  5
923D
  8
4
  6
CONTINUOUS
 10
56.48498202081992
 20
72.587975974279573
 70
0
  0
VERTEX
  5
923E
  8
4
  6
CONTINUOUS
 10
56.48498202081992
 20
72.587975974279573
 70
0
  0
VERTEX
  5
923F
  8
4
  6
CONTINUOUS
 10
56.484948918514327
 20
72.580026618646443
 70
0
  0
VERTEX
  5
9240
  8
4
  6
CONTINUOUS
 10
56.484918394755113
 20
72.572080484191147
 70
0
  0
VERTEX
  5
9241
  8
4
  6
CONTINUOUS
 10
56.484918394755113
 20
72.572080484191147
 70
0
  0
VERTEX
  5
9242
  8
4
  6
CONTINUOUS
 10
56.484890819559638
 20
72.564138751015207
 70
0
  0
VERTEX
  5
9243
  8
4
  6
CONTINUOUS
 10
56.4848665224291
 20
72.556184960859781
 70
0
  0
VERTEX
  5
9244
  8
4
  6
CONTINUOUS
 10
56.4848665224291
 20
72.556184960859781
 70
0
  0
VERTEX
  5
9245
  8
4
  6
CONTINUOUS
 10
56.484845719411958
 20
72.548205201816941
 70
0
  0
VERTEX
  5
9246
  8
4
  6
CONTINUOUS
 10
56.4848282132626
 20
72.540213385741438
 70
0
  0
VERTEX
  5
9247
  8
4
  6
CONTINUOUS
 10
56.4848282132626
 20
72.540213385741438
 70
0
  0
VERTEX
  5
9248
  8
4
  6
CONTINUOUS
 10
56.484813688565019
 20
72.532225970852309
 70
0
  0
VERTEX
  5
9249
  8
4
  6
CONTINUOUS
 10
56.484801770517038
 20
72.524241777061548
 70
0
  0
VERTEX
  5
924A
  8
4
  6
CONTINUOUS
 10
56.484801770517038
 20
72.524241777061548
 70
0
  0
VERTEX
  5
924B
  8
4
  6
CONTINUOUS
 10
56.484792073446322
 20
72.5162563958411
 70
0
  0
VERTEX
  5
924C
  8
4
  6
CONTINUOUS
 10
56.48478422758749
 20
72.508270143210026
 70
0
  0
VERTEX
  5
924D
  8
4
  6
CONTINUOUS
 10
56.48478422758749
 20
72.508270143210026
 70
0
  0
VERTEX
  5
924E
  8
4
  6
CONTINUOUS
 10
56.484777866091648
 20
72.500284201353566
 70
0
  0
VERTEX
  5
924F
  8
4
  6
CONTINUOUS
 10
56.484772617868153
 20
72.492298492577888
 70
0
  0
VERTEX
  5
9250
  8
4
  6
CONTINUOUS
 10
56.484772617868153
 20
72.492298492577888
 70
0
  0
VERTEX
  5
9251
  8
4
  6
CONTINUOUS
 10
56.4847681110309
 20
72.484312702962185
 70
0
  0
VERTEX
  5
9252
  8
4
  6
CONTINUOUS
 10
56.484763974754237
 20
72.476326833555092
 70
0
  0
SEQEND
  5
9253
  8
0
  0
ARC
  5
8515
  8
4
  6
CONTINUOUS
 10
50.58971725991735
 20
22.577510253435161
 30
0
 40
50.404121571539953
 50
82.468690252698266
 51
83.110183422591874
  0
LINE
  5
8516
  8
4
  6
CONTINUOUS
 10
57.774360049354662
 20
72.476326588191142
 30
0
 11
57.1972355360921
 21
72.476326588191142
 31
0
  0
ARC
  5
8517
  8
4
  6
CONTINUOUS
 10
53.889717259599287
 20
74.342629099419156
 30
0
 40
0.75000000037803993
 50
52.871654407308249
 51
121.32435773180092
  0
ARC
  5
851B
  8
4
  6
CONTINUOUS
 10
50.58971725991735
 20
22.577510253435161
 30
0
 40
52.650000000018
 50
83.443506912600526
 51
85.294346878006309
  0
ARC
  5
851C
  8
4
  6
CONTINUOUS
 10
50.58971725991735
 20
22.577510253435161
 30
0
 40
52.639148396879982
 50
83.314989261600786
 51
85.297560662190364
  0
POLYLINE
  5
851D
  8
4
  6
CONTINUOUS
 66
1
 70
0
 10
0
 20
0
 30
0
  0
VERTEX
  5
9254
  8
4
  6
CONTINUOUS
 10
56.729239677826357
 20
74.845572664269739
 70
0
  0
VERTEX
  5
9255
  8
4
  6
CONTINUOUS
 10
56.731496482482129
 20
74.847581911508414
 70
0
  0
VERTEX
  5
9256
  8
4
  6
CONTINUOUS
 10
56.733753287137951
 20
74.849591158747259
 70
0
  0
VERTEX
  5
9257
  8
4
  6
CONTINUOUS
 10
56.733753287137951
 20
74.849591158747259
 70
0
  0
VERTEX
  5
9258
  8
4
  6
CONTINUOUS
 10
56.736010091793851
 20
74.851600405985991
 70
0
  0
VERTEX
  5
9259
  8
4
  6
CONTINUOUS
 10
56.738266896449609
 20
74.853609653224765
 70
0
  0
VERTEX
  5
925A
  8
4
  6
CONTINUOUS
 10
56.738266896449609
 20
74.853609653224765
 70
0
  0
VERTEX
  5
925B
  8
4
  6
CONTINUOUS
 10
56.7405237011054
 20
74.855618900463739
 70
0
  0
VERTEX
  5
925C
  8
4
  6
CONTINUOUS
 10
56.742780505761168
 20
74.857628147702485
 70
0
  0
VERTEX
  5
925D
  8
4
  6
CONTINUOUS
 10
56.742780505761168
 20
74.857628147702485
 70
0
  0
VERTEX
  5
925E
  8
4
  6
CONTINUOUS
 10
56.74503731041699
 20
74.859637394941259
 70
0
  0
VERTEX
  5
925F
  8
4
  6
CONTINUOUS
 10
56.747294115072712
 20
74.861646642179892
 70
0
  0
VERTEX
  5
9260
  8
4
  6
CONTINUOUS
 10
56.747294115072712
 20
74.861646642179892
 70
0
  0
VERTEX
  5
9261
  8
4
  6
CONTINUOUS
 10
56.749550919728577
 20
74.8636558894185
 70
0
  0
VERTEX
  5
9262
  8
4
  6
CONTINUOUS
 10
56.7518077243843
 20
74.865665136657128
 70
0
  0
SEQEND
  5
9263
  8
0
  0
POLYLINE
  5
851E
  8
4
  6
CONTINUOUS
 66
1
 70
0
 10
0
 20
0
 30
0
  0
VERTEX
  5
9264
  8
4
  6
CONTINUOUS
 10
56.727565827478543
 20
74.844083140196574
 70
0
  0
VERTEX
  5
9265
  8
4
  6
CONTINUOUS
 10
56.727733212513243
 20
74.844232092603548
 70
0
  0
VERTEX
  5
9266
  8
4
  6
CONTINUOUS
 10
56.727900597548022
 20
74.844381045011
 70
0
  0
VERTEX
  5
9267
  8
4
  6
CONTINUOUS
 10
56.727900597548022
 20
74.844381045011
 70
0
  0
VERTEX
  5
9268
  8
4
  6
CONTINUOUS
 10
56.72806798258285
 20
74.844529997418348
 70
0
  0
VERTEX
  5
9269
  8
4
  6
CONTINUOUS
 10
56.728235367617671
 20
74.844678949825877
 70
0
  0
VERTEX
  5
926A
  8
4
  6
CONTINUOUS
 10
56.728235367617671
 20
74.844678949825877
 70
0
  0
VERTEX
  5
926B
  8
4
  6
CONTINUOUS
 10
56.728402752652379
 20
74.844827902233291
 70
0
  0
VERTEX
  5
926C
  8
4
  6
CONTINUOUS
 10
56.728570137687157
 20
74.84497685464045
 70
0
  0
VERTEX
  5
926D
  8
4
  6
CONTINUOUS
 10
56.728570137687157
 20
74.84497685464045
 70
0
  0
VERTEX
  5
926E
  8
4
  6
CONTINUOUS
 10
56.728737522721921
 20
74.845125807047651
 70
0
  0
VERTEX
  5
926F
  8
4
  6
CONTINUOUS
 10
56.728904907756778
 20
74.8452747594549
 70
0
  0
VERTEX
  5
9270
  8
4
  6
CONTINUOUS
 10
56.728904907756778
 20
74.8452747594549
 70
0
  0
VERTEX
  5
9271
  8
4
  6
CONTINUOUS
 10
56.729072292791528
 20
74.8454237118622
 70
0
  0
VERTEX
  5
9272
  8
4
  6
CONTINUOUS
 10
56.729239677826357
 20
74.845572664269739
 70
0
  0
SEQEND
  5
9273
  8
0
  0
POLYLINE
  5
851F
  8
4
  6
CONTINUOUS
 66
1
 70
0
 10
0
 20
0
 30
0
  0
VERTEX
  5
9274
  8
4
  6
CONTINUOUS
 10
56.7134595341264
 20
74.831535327345122
 70
0
  0
VERTEX
  5
9275
  8
4
  6
CONTINUOUS
 10
56.71487016346164
 20
74.832790108630221
 70
0
  0
VERTEX
  5
9276
  8
4
  6
CONTINUOUS
 10
56.716280792796738
 20
74.834044889915418
 70
0
  0
VERTEX
  5
9277
  8
4
  6
CONTINUOUS
 10
56.716280792796738
 20
74.834044889915418
 70
0
  0
VERTEX
  5
9278
  8
4
  6
CONTINUOUS
 10
56.717691422131963
 20
74.835299671200531
 70
0
  0
VERTEX
  5
9279
  8
4
  6
CONTINUOUS
 10
56.719102051467239
 20
74.8365544524857
 70
0
  0
VERTEX
  5
927A
  8
4
  6
CONTINUOUS
 10
56.719102051467239
 20
74.8365544524857
 70
0
  0
VERTEX
  5
927B
  8
4
  6
CONTINUOUS
 10
56.7205126808025
 20
74.837809233771125
 70
0
  0
VERTEX
  5
927C
  8
4
  6
CONTINUOUS
 10
56.7219233101377
 20
74.839064015056053
 70
0
  0
VERTEX
  5
927D
  8
4
  6
CONTINUOUS
 10
56.7219233101377
 20
74.839064015056053
 70
0
  0
VERTEX
  5
927E
  8
4
  6
CONTINUOUS
 10
56.723333939472923
 20
74.8403187963411
 70
0
  0
VERTEX
  5
927F
  8
4
  6
CONTINUOUS
 10
56.724744568808092
 20
74.841573577626107
 70
0
  0
VERTEX
  5
9280
  8
4
  6
CONTINUOUS
 10
56.724744568808092
 20
74.841573577626107
 70
0
  0
VERTEX
  5
9281
  8
4
  6
CONTINUOUS
 10
56.726155198143282
 20
74.842828358911362
 70
0
  0
VERTEX
  5
9282
  8
4
  6
CONTINUOUS
 10
56.727565827478543
 20
74.844083140196574
 70
0
  0
SEQEND
  5
9283
  8
0
  0
POLYLINE
  5
8520
  8
4
  6
CONTINUOUS
 66
1
 70
0
 10
0
 20
0
 30
0
  0
VERTEX
  5
9284
  8
4
  6
CONTINUOUS
 10
56.665014359998331
 20
74.729192828703191
 70
0
  0
VERTEX
  5
9285
  8
4
  6
CONTINUOUS
 10
56.664524464635818
 20
74.727569571192774
 70
0
  0
VERTEX
  5
9286
  8
4
  6
CONTINUOUS
 10
56.664034569273262
 20
74.725946313682456
 70
0
  0
VERTEX
  5
9287
  8
4
  6
CONTINUOUS
 10
56.664034569273262
 20
74.725946313682456
 70
0
  0
VERTEX
  5
9288
  8
4
  6
CONTINUOUS
 10
56.663544673910742
 20
74.724323056172111
 70
0
  0
VERTEX
  5
9289
  8
4
  6
CONTINUOUS
 10
56.663054778548087
 20
74.72269979866158
 70
0
  0
VERTEX
  5
928A
  8
4
  6
CONTINUOUS
 10
56.663054778548087
 20
74.72269979866158
 70
0
  0
VERTEX
  5
928B
  8
4
  6
CONTINUOUS
 10
56.66256488318556
 20
74.721076541151064
 70
0
  0
VERTEX
  5
928C
  8
4
  6
CONTINUOUS
 10
56.662074987823019
 20
74.719453283640576
 70
0
  0
VERTEX
  5
928D
  8
4
  6
CONTINUOUS
 10
56.662074987823019
 20
74.719453283640576
 70
0
  0
VERTEX
  5
928E
  8
4
  6
CONTINUOUS
 10
56.661585092460392
 20
74.7178300261302
 70
0
  0
VERTEX
  5
928F
  8
4
  6
CONTINUOUS
 10
56.661095197097772
 20
74.716206768619955
 70
0
  0
VERTEX
  5
9290
  8
4
  6
CONTINUOUS
 10
56.661095197097772
 20
74.716206768619955
 70
0
  0
VERTEX
  5
9291
  8
4
  6
CONTINUOUS
 10
56.660605301735153
 20
74.714583511109581
 70
0
  0
VERTEX
  5
9292
  8
4
  6
CONTINUOUS
 10
56.660115406372633
 20
74.712960253599064
 70
0
  0
SEQEND
  5
9293
  8
0
  0
POLYLINE
  5
8521
  8
4
  6
CONTINUOUS
 66
1
 70
0
 10
0
 20
0
 30
0
  0
VERTEX
  5
9294
  8
4
  6
CONTINUOUS
 10
56.6662889010105
 20
74.733320005869089
 70
0
  0
VERTEX
  5
9295
  8
4
  6
CONTINUOUS
 10
56.666161446909342
 20
74.732907288152589
 70
0
  0
VERTEX
  5
9296
  8
4
  6
CONTINUOUS
 10
56.666033992807982
 20
74.732494570436032
 70
0
  0
VERTEX
  5
9297
  8
4
  6
CONTINUOUS
 10
56.666033992807982
 20
74.732494570436032
 70
0
  0
VERTEX
  5
9298
  8
4
  6
CONTINUOUS
 10
56.665906538706842
 20
74.73208185271956
 70
0
  0
VERTEX
  5
9299
  8
4
  6
CONTINUOUS
 10
56.665779084605617
 20
74.731669135002988
 70
0
  0
VERTEX
  5
929A
  8
4
  6
CONTINUOUS
 10
56.665779084605617
 20
74.731669135002988
 70
0
  0
VERTEX
  5
929B
  8
4
  6
CONTINUOUS
 10
56.66565163050435
 20
74.731256417286431
 70
0
  0
VERTEX
  5
929C
  8
4
  6
CONTINUOUS
 10
56.665524176403189
 20
74.730843699569732
 70
0
  0
VERTEX
  5
929D
  8
4
  6
CONTINUOUS
 10
56.665524176403189
 20
74.730843699569732
 70
0
  0
VERTEX
  5
929E
  8
4
  6
CONTINUOUS
 10
56.665396722302027
 20
74.730430981853146
 70
0
  0
VERTEX
  5
929F
  8
4
  6
CONTINUOUS
 10
56.665269268200788
 20
74.730018264136532
 70
0
  0
VERTEX
  5
92A0
  8
4
  6
CONTINUOUS
 10
56.665269268200788
 20
74.730018264136532
 70
0
  0
VERTEX
  5
92A1
  8
4
  6
CONTINUOUS
 10
56.665141814099577
 20
74.7296055464198
 70
0
  0
VERTEX
  5
92A2
  8
4
  6
CONTINUOUS
 10
56.665014359998331
 20
74.729192828703191
 70
0
  0
SEQEND
  5
92A3
  8
0
  0
POLYLINE
  5
8522
  8
4
  6
CONTINUOUS
 66
1
 70
0
 10
0
 20
0
 30
0
  0
VERTEX
  5
92A4
  8
4
  6
CONTINUOUS
 10
56.6676753676309
 20
74.737765857531784
 70
0
  0
VERTEX
  5
92A5
  8
4
  6
CONTINUOUS
 10
56.6675367209689
 20
74.737321272365335
 70
0
  0
VERTEX
  5
92A6
  8
4
  6
CONTINUOUS
 10
56.66739807430681
 20
74.736876687199313
 70
0
  0
VERTEX
  5
92A7
  8
4
  6
CONTINUOUS
 10
56.66739807430681
 20
74.736876687199313
 70
0
  0
VERTEX
  5
92A8
  8
4
  6
CONTINUOUS
 10
56.667259427644822
 20
74.73643210203322
 70
0
  0
VERTEX
  5
92A9
  8
4
  6
CONTINUOUS
 10
56.667120780982643
 20
74.735987516867013
 70
0
  0
VERTEX
  5
92AA
  8
4
  6
CONTINUOUS
 10
56.667120780982643
 20
74.735987516867013
 70
0
  0
VERTEX
  5
92AB
  8
4
  6
CONTINUOUS
 10
56.666982134320577
 20
74.735542931700863
 70
0
  0
VERTEX
  5
92AC
  8
4
  6
CONTINUOUS
 10
56.666843487658632
 20
74.735098346534429
 70
0
  0
VERTEX
  5
92AD
  8
4
  6
CONTINUOUS
 10
56.666843487658632
 20
74.735098346534429
 70
0
  0
VERTEX
  5
92AE
  8
4
  6
CONTINUOUS
 10
56.666704840996559
 20
74.734653761368065
 70
0
  0
VERTEX
  5
92AF
  8
4
  6
CONTINUOUS
 10
56.666566194334592
 20
74.734209176201844
 70
0
  0
VERTEX
  5
92B0
  8
4
  6
CONTINUOUS
 10
56.666566194334592
 20
74.734209176201844
 70
0
  0
VERTEX
  5
92B1
  8
4
  6
CONTINUOUS
 10
56.6664275476726
 20
74.733764591035481
 70
0
  0
VERTEX
  5
92B2
  8
4
  6
CONTINUOUS
 10
56.6662889010105
 20
74.733320005869089
 70
0
  0
SEQEND
  5
92B3
  8
0
  0
POLYLINE
  5
8523
  8
4
  6
CONTINUOUS
 66
1
 70
0
 10
0
 20
0
 30
0
  0
VERTEX
  5
92B4
  8
4
  6
CONTINUOUS
 10
56.669904901906747
 20
74.744818108094563
 70
0
  0
VERTEX
  5
92B5
  8
4
  6
CONTINUOUS
 10
56.669681948479209
 20
74.7441128830383
 70
0
  0
VERTEX
  5
92B6
  8
4
  6
CONTINUOUS
 10
56.669458995051649
 20
74.743407657982118
 70
0
  0
VERTEX
  5
92B7
  8
4
  6
CONTINUOUS
 10
56.669458995051649
 20
74.743407657982118
 70
0
  0
VERTEX
  5
92B8
  8
4
  6
CONTINUOUS
 10
56.66923604162406
 20
74.7427024329257
 70
0
  0
VERTEX
  5
92B9
  8
4
  6
CONTINUOUS
 10
56.66901308819638
 20
74.7419972078693
 70
0
  0
VERTEX
  5
92BA
  8
4
  6
CONTINUOUS
 10
56.66901308819638
 20
74.7419972078693
 70
0
  0
VERTEX
  5
92BB
  8
4
  6
CONTINUOUS
 10
56.668790134768791
 20
74.741291982813209
 70
0
  0
VERTEX
  5
92BC
  8
4
  6
CONTINUOUS
 10
56.6685671813413
 20
74.740586757756859
 70
0
  0
VERTEX
  5
92BD
  8
4
  6
CONTINUOUS
 10
56.6685671813413
 20
74.740586757756859
 70
0
  0
VERTEX
  5
92BE
  8
4
  6
CONTINUOUS
 10
56.668344227913671
 20
74.739881532700551
 70
0
  0
VERTEX
  5
92BF
  8
4
  6
CONTINUOUS
 10
56.668121274486019
 20
74.739176307644342
 70
0
  0
VERTEX
  5
92C0
  8
4
  6
CONTINUOUS
 10
56.668121274486019
 20
74.739176307644342
 70
0
  0
VERTEX
  5
92C1
  8
4
  6
CONTINUOUS
 10
56.667898321058424
 20
74.738471082588092
 70
0
  0
VERTEX
  5
92C2
  8
4
  6
CONTINUOUS
 10
56.6676753676309
 20
74.737765857531784
 70
0
  0
SEQEND
  5
92C3
  8
0
  0
POLYLINE
  5
8524
  8
4
  6
CONTINUOUS
 66
1
 70
0
 10
0
 20
0
 30
0
  0
VERTEX
  5
92C4
  8
4
  6
CONTINUOUS
 10
56.571172352356207
 20
74.294247067659057
 70
0
  0
VERTEX
  5
92C5
  8
4
  6
CONTINUOUS
 10
56.571118480240571
 20
74.2939159012294
 70
0
  0
VERTEX
  5
92C6
  8
4
  6
CONTINUOUS
 10
56.5710646163972
 20
74.293584732133468
 70
0
  0
VERTEX
  5
92C7
  8
4
  6
CONTINUOUS
 10
56.5710646163972
 20
74.293584732133468
 70
0
  0
VERTEX
  5
92C8
  8
4
  6
CONTINUOUS
 10
56.571010769307676
 20
74.2932535590026
 70
0
  0
VERTEX
  5
92C9
  8
4
  6
CONTINUOUS
 10
56.570956948289279
 20
74.292922385659011
 70
0
  0
VERTEX
  5
92CA
  8
4
  6
CONTINUOUS
 10
56.570956948289279
 20
74.292922385659011
 70
0
  0
VERTEX
  5
92CB
  8
4
  6
CONTINUOUS
 10
56.570903162032288
 20
74.2925912120318
 70
0
  0
VERTEX
  5
92CC
  8
4
  6
CONTINUOUS
 10
56.570849415883067
 20
74.292260017287234
 70
0
  0
VERTEX
  5
92CD
  8
4
  6
CONTINUOUS
 10
56.570849415883067
 20
74.292260017287234
 70
0
  0
VERTEX
  5
92CE
  8
4
  6
CONTINUOUS
 10
56.57079571748703
 20
74.291928794865953
 70
0
  0
VERTEX
  5
92CF
  8
4
  6
CONTINUOUS
 10
56.570742087029778
 20
74.291597616069524
 70
0
  0
VERTEX
  5
92D0
  8
4
  6
CONTINUOUS
 10
56.570742087029778
 20
74.291597616069524
 70
0
  0
VERTEX
  5
92D1
  8
4
  6
CONTINUOUS
 10
56.570688536127818
 20
74.29126649899429
 70
0
  0
VERTEX
  5
92D2
  8
4
  6
CONTINUOUS
 10
56.570635029580281
 20
74.290935171057043
 70
0
  0
VERTEX
  5
92D3
  8
4
  6
CONTINUOUS
 10
56.570635029580281
 20
74.290935171057043
 70
0
  0
VERTEX
  5
92D4
  8
4
  6
CONTINUOUS
 10
56.570581536146008
 20
74.290603402084258
 70
0
  0
VERTEX
  5
92D5
  8
4
  6
CONTINUOUS
 10
56.57052808723769
 20
74.290271422221736
 70
0
  0
VERTEX
  5
92D6
  8
4
  6
CONTINUOUS
 10
56.57052808723769
 20
74.290271422221736
 70
0
  0
VERTEX
  5
92D7
  8
4
  6
CONTINUOUS
 10
56.570474718184457
 20
74.28993950403229
 70
0
  0
VERTEX
  5
92D8
  8
4
  6
CONTINUOUS
 10
56.5704214173262
 20
74.289607629426129
 70
0
  0
VERTEX
  5
92D9
  8
4
  6
CONTINUOUS
 10
56.5704214173262
 20
74.289607629426129
 70
0
  0
VERTEX
  5
92DA
  8
4
  6
CONTINUOUS
 10
56.570368164402183
 20
74.289275727114
 70
0
  0
VERTEX
  5
92DB
  8
4
  6
CONTINUOUS
 10
56.570314951738069
 20
74.288943803660061
 70
0
  0
VERTEX
  5
92DC
  8
4
  6
CONTINUOUS
 10
56.570314951738069
 20
74.288943803660061
 70
0
  0
VERTEX
  5
92DD
  8
4
  6
CONTINUOUS
 10
56.570261773966983
 20
74.288611879901126
 70
0
  0
VERTEX
  5
92DE
  8
4
  6
CONTINUOUS
 10
56.570208622365641
 20
74.288279955913623
 70
0
  0
VERTEX
  5
92DF
  8
4
  6
CONTINUOUS
 10
56.570208622365641
 20
74.288279955913623
 70
0
  0
VERTEX
  5
92E0
  8
4
  6
CONTINUOUS
 10
56.57015548758153
 20
74.2879480278809
 70
0
  0
VERTEX
  5
92E1
  8
4
  6
CONTINUOUS
 10
56.570102361101029
 20
74.2876160971771
 70
0
  0
SEQEND
  5
92E2
  8
0
  0
POLYLINE
  5
8525
  8
4
  6
CONTINUOUS
 66
1
 70
0
 10
0
 20
0
 30
0
  0
VERTEX
  5
92E3
  8
4
  6
CONTINUOUS
 10
56.7116925795706
 20
74.8195696451552
 70
0
  0
VERTEX
  5
92E4
  8
4
  6
CONTINUOUS
 10
56.711113901759177
 20
74.815656645767547
 70
0
  0
VERTEX
  5
92E5
  8
4
  6
CONTINUOUS
 10
56.710535223947808
 20
74.811743646380265
 70
0
  0
VERTEX
  5
92E6
  8
4
  6
CONTINUOUS
 10
56.710535223947808
 20
74.811743646380265
 70
0
  0
VERTEX
  5
92E7
  8
4
  6
CONTINUOUS
 10
56.709956546136532
 20
74.807830646992812
 70
0
  0
VERTEX
  5
92E8
  8
4
  6
CONTINUOUS
 10
56.7093778683251
 20
74.803917647605289
 70
0
  0
VERTEX
  5
92E9
  8
4
  6
CONTINUOUS
 10
56.7093778683251
 20
74.803917647605289
 70
0
  0
VERTEX
  5
92EA
  8
4
  6
CONTINUOUS
 10
56.708799190513751
 20
74.8000046482178
 70
0
  0
VERTEX
  5
92EB
  8
4
  6
CONTINUOUS
 10
56.708220512702383
 20
74.796091648830114
 70
0
  0
VERTEX
  5
92EC
  8
4
  6
CONTINUOUS
 10
56.708220512702383
 20
74.796091648830114
 70
0
  0
VERTEX
  5
92ED
  8
4
  6
CONTINUOUS
 10
56.707641834890957
 20
74.792178649442434
 70
0
  0
VERTEX
  5
92EE
  8
4
  6
CONTINUOUS
 10
56.707063157079538
 20
74.788265650055067
 70
0
  0
VERTEX
  5
92EF
  8
4
  6
CONTINUOUS
 10
56.707063157079538
 20
74.788265650055067
 70
0
  0
VERTEX
  5
92F0
  8
4
  6
CONTINUOUS
 10
56.706484479268163
 20
74.784352650667543
 70
0
  0
VERTEX
  5
92F1
  8
4
  6
CONTINUOUS
 10
56.705905801456808
 20
74.7804396512797
 70
0
  0
SEQEND
  5
92F2
  8
0
  0
POLYLINE
  5
8526
  8
4
  6
CONTINUOUS
 66
1
 70
0
 10
0
 20
0
 30
0
  0
VERTEX
  5
92F3
  8
4
  6
CONTINUOUS
 10
56.717488309660482
 20
74.858772345261059
 70
0
  0
VERTEX
  5
92F4
  8
4
  6
CONTINUOUS
 10
56.716908736651618
 20
74.8548520752505
 70
0
  0
VERTEX
  5
92F5
  8
4
  6
CONTINUOUS
 10
56.7163291636426
 20
74.850931805239924
 70
0
  0
VERTEX
  5
92F6
  8
4
  6
CONTINUOUS
 10
56.7163291636426
 20
74.850931805239924
 70
0
  0
VERTEX
  5
92F7
  8
4
  6
CONTINUOUS
 10
56.715749590633742
 20
74.847011535229257
 70
0
  0
VERTEX
  5
92F8
  8
4
  6
CONTINUOUS
 10
56.715170017624722
 20
74.84309126521859
 70
0
  0
VERTEX
  5
92F9
  8
4
  6
CONTINUOUS
 10
56.715170017624722
 20
74.84309126521859
 70
0
  0
VERTEX
  5
92FA
  8
4
  6
CONTINUOUS
 10
56.714590444615673
 20
74.839170995208192
 70
0
  0
VERTEX
  5
92FB
  8
4
  6
CONTINUOUS
 10
56.714010871606568
 20
74.835250725197625
 70
0
  0
VERTEX
  5
92FC
  8
4
  6
CONTINUOUS
 10
56.714010871606568
 20
74.835250725197625
 70
0
  0
VERTEX
  5
92FD
  8
4
  6
CONTINUOUS
 10
56.71343129859757
 20
74.831330455187043
 70
0
  0
VERTEX
  5
92FE
  8
4
  6
CONTINUOUS
 10
56.712851725588642
 20
74.827410185176319
 70
0
  0
VERTEX
  5
92FF
  8
4
  6
CONTINUOUS
 10
56.712851725588642
 20
74.827410185176319
 70
0
  0
VERTEX
  5
9300
  8
4
  6
CONTINUOUS
 10
56.712272152579573
 20
74.8234899151657
 70
0
  0
VERTEX
  5
9301
  8
4
  6
CONTINUOUS
 10
56.7116925795706
 20
74.8195696451552
 70
0
  0
SEQEND
  5
9302
  8
0
  0
POLYLINE
  5
8527
  8
4
  6
CONTINUOUS
 66
1
 70
0
 10
0
 20
0
 30
0
  0
VERTEX
  5
9303
  8
4
  6
CONTINUOUS
 10
56.752180931410578
 20
74.713715125851124
 70
0
  0
VERTEX
  5
9304
  8
4
  6
CONTINUOUS
 10
56.747128499478457
 20
74.714311373172649
 70
0
  0
VERTEX
  5
9305
  8
4
  6
CONTINUOUS
 10
56.742076067546243
 20
74.7149076204943
 70
0
  0
VERTEX
  5
9306
  8
4
  6
CONTINUOUS
 10
56.742076067546243
 20
74.7149076204943
 70
0
  0
VERTEX
  5
9307
  8
4
  6
CONTINUOUS
 10
56.737023635614143
 20
74.715503867815855
 70
0
  0
VERTEX
  5
9308
  8
4
  6
CONTINUOUS
 10
56.731971203681972
 20
74.716100115137479
 70
0
  0
VERTEX
  5
9309
  8
4
  6
CONTINUOUS
 10
56.731971203681972
 20
74.716100115137479
 70
0
  0
VERTEX
  5
930A
  8
4
  6
CONTINUOUS
 10
56.726918771749659
 20
74.716696362459231
 70
0
  0
VERTEX
  5
930B
  8
4
  6
CONTINUOUS
 10
56.7218663398175
 20
74.717292609780813
 70
0
  0
VERTEX
  5
930C
  8
4
  6
CONTINUOUS
 10
56.7218663398175
 20
74.717292609780813
 70
0
  0
VERTEX
  5
930D
  8
4
  6
CONTINUOUS
 10
56.716813907885367
 20
74.717888857102523
 70
0
  0
VERTEX
  5
930E
  8
4
  6
CONTINUOUS
 10
56.711761475953182
 20
74.718485104424289
 70
0
  0
VERTEX
  5
930F
  8
4
  6
CONTINUOUS
 10
56.711761475953182
 20
74.718485104424289
 70
0
  0
VERTEX
  5
9310
  8
4
  6
CONTINUOUS
 10
56.706709044021089
 20
74.71908135174607
 70
0
  0
VERTEX
  5
9311
  8
4
  6
CONTINUOUS
 10
56.701656612088861
 20
74.719677599067737
 70
0
  0
SEQEND
  5
9312
  8
0
  0
POLYLINE
  5
8528
  8
4
  6
CONTINUOUS
 66
1
 70
0
 10
0
 20
0
 30
0
  0
VERTEX
  5
9313
  8
4
  6
CONTINUOUS
 10
56.814323944030278
 20
74.706314171895173
 70
0
  0
VERTEX
  5
9314
  8
4
  6
CONTINUOUS
 10
56.8105717648069
 20
74.706762597983555
 70
0
  0
VERTEX
  5
9315
  8
4
  6
CONTINUOUS
 10
56.806822248889979
 20
74.70721066688958
 70
0
  0
VERTEX
  5
9316
  8
4
  6
CONTINUOUS
 10
56.806822248889979
 20
74.70721066688958
 70
0
  0
VERTEX
  5
9317
  8
4
  6
CONTINUOUS
 10
56.80307539151427
 20
74.707658338579009
 70
0
  0
VERTEX
  5
9318
  8
4
  6
CONTINUOUS
 10
56.79932051562664
 20
74.708106841612334
 70
0
  0
VERTEX
  5
9319
  8
4
  6
CONTINUOUS
 10
56.79932051562664
 20
74.708106841612334
 70
0
  0
VERTEX
  5
931A
  8
4
  6
CONTINUOUS
 10
56.795554948389963
 20
74.708556453104563
 70
0
  0
VERTEX
  5
931B
  8
4
  6
CONTINUOUS
 10
56.791818706117041
 20
74.709002375791016
 70
0
  0
VERTEX
  5
931C
  8
4
  6
CONTINUOUS
 10
56.791818706117041
 20
74.709002375791016
 70
0
  0
VERTEX
  5
931D
  8
4
  6
CONTINUOUS
 10
56.78812245633025
 20
74.7094433010433
 70
0
  0
VERTEX
  5
931E
  8
4
  6
CONTINUOUS
 10
56.784316782238037
 20
74.709896949153887
 70
0
  0
VERTEX
  5
931F
  8
4
  6
CONTINUOUS
 10
56.784316782238037
 20
74.709896949153887
 70
0
  0
VERTEX
  5
9320
  8
4
  6
CONTINUOUS
 10
56.780361657996728
 20
74.710368037319
 70
0
  0
VERTEX
  5
9321
  8
4
  6
CONTINUOUS
 10
56.776814705866521
 20
74.710790241428541
 70
0
  0
VERTEX
  5
9322
  8
4
  6
CONTINUOUS
 10
56.776814705866521
 20
74.710790241428541
 70
0
  0
VERTEX
  5
9323
  8
4
  6
CONTINUOUS
 10
56.774147284450429
 20
74.711107525454764
 70
0
  0
VERTEX
  5
9324
  8
4
  6
CONTINUOUS
 10
56.771888049617957
 20
74.711376047008
 70
0
  0
VERTEX
  5
9325
  8
4
  6
CONTINUOUS
 10
56.771888049617957
 20
74.711376047008
 70
0
  0
VERTEX
  5
9326
  8
4
  6
CONTINUOUS
 10
56.769479389950007
 20
74.711662221276669
 70
0
  0
VERTEX
  5
9327
  8
4
  6
CONTINUOUS
 10
56.766961327607532
 20
74.711961300123974
 70
0
  0
VERTEX
  5
9328
  8
4
  6
CONTINUOUS
 10
56.766961327607532
 20
74.711961300123974
 70
0
  0
VERTEX
  5
9329
  8
4
  6
CONTINUOUS
 10
56.764483273040611
 20
74.712255509983265
 70
0
  0
VERTEX
  5
932A
  8
4
  6
CONTINUOUS
 10
56.762034556275928
 20
74.712546138892733
 70
0
  0
VERTEX
  5
932B
  8
4
  6
CONTINUOUS
 10
56.762034556275928
 20
74.712546138892733
 70
0
  0
VERTEX
  5
932C
  8
4
  6
CONTINUOUS
 10
56.759575159262809
 20
74.712837969517935
 70
0
  0
VERTEX
  5
932D
  8
4
  6
CONTINUOUS
 10
56.757107752063462
 20
74.71313070142979
 70
0
  0
VERTEX
  5
932E
  8
4
  6
CONTINUOUS
 10
56.757107752063462
 20
74.71313070142979
 70
0
  0
VERTEX
  5
932F
  8
4
  6
CONTINUOUS
 10
56.754643008760993
 20
74.713423081119458
 70
0
  0
VERTEX
  5
9330
  8
4
  6
CONTINUOUS
 10
56.752180931410578
 20
74.713715125851124
 70
0
  0
SEQEND
  5
9331
  8
0
  0
POLYLINE
  5
8529
  8
4
  6
CONTINUOUS
 66
1
 70
0
 10
0
 20
0
 30
0
  0
VERTEX
  5
9332
  8
4
  6
CONTINUOUS
 10
56.706100069546387
 20
74.7497657817158
 70
0
  0
VERTEX
  5
9333
  8
4
  6
CONTINUOUS
 10
56.706544921565019
 20
74.7527787520422
 70
0
  0
VERTEX
  5
9334
  8
4
  6
CONTINUOUS
 10
56.706989773583622
 20
74.755791722368741
 70
0
  0
VERTEX
  5
9335
  8
4
  6
CONTINUOUS
 10
56.706989773583622
 20
74.755791722368741
 70
0
  0
VERTEX
  5
9336
  8
4
  6
CONTINUOUS
 10
56.707434625602289
 20
74.758804692695264
 70
0
  0
VERTEX
  5
9337
  8
4
  6
CONTINUOUS
 10
56.707879477620857
 20
74.761817663021816
 70
0
  0
VERTEX
  5
9338
  8
4
  6
CONTINUOUS
 10
56.707879477620857
 20
74.761817663021816
 70
0
  0
VERTEX
  5
9339
  8
4
  6
CONTINUOUS
 10
56.708324329639332
 20
74.76483063334841
 70
0
  0
VERTEX
  5
933A
  8
4
  6
CONTINUOUS
 10
56.708769181657992
 20
74.7678436036749
 70
0
  0
VERTEX
  5
933B
  8
4
  6
CONTINUOUS
 10
56.708769181657992
 20
74.7678436036749
 70
0
  0
VERTEX
  5
933C
  8
4
  6
CONTINUOUS
 10
56.709214033676531
 20
74.770856574001556
 70
0
  0
VERTEX
  5
933D
  8
4
  6
CONTINUOUS
 10
56.709658885695141
 20
74.773869544328122
 70
0
  0
VERTEX
  5
933E
  8
4
  6
CONTINUOUS
 10
56.709658885695141
 20
74.773869544328122
 70
0
  0
VERTEX
  5
933F
  8
4
  6
CONTINUOUS
 10
56.710103737713773
 20
74.776882514654631
 70
0
  0
VERTEX
  5
9340
  8
4
  6
CONTINUOUS
 10
56.710548589732419
 20
74.779895484981182
 70
0
  0
SEQEND
  5
9341
  8
0
  0
POLYLINE
  5
852A
  8
4
  6
CONTINUOUS
 66
1
 70
0
 10
0
 20
0
 30
0
  0
VERTEX
  5
9342
  8
4
  6
CONTINUOUS
 10
56.701656612088861
 20
74.719677599067737
 70
0
  0
VERTEX
  5
9343
  8
4
  6
CONTINUOUS
 10
56.702100957834631
 20
74.722686417332284
 70
0
  0
VERTEX
  5
9344
  8
4
  6
CONTINUOUS
 10
56.702545303580322
 20
74.725695235597044
 70
0
  0
VERTEX
  5
9345
  8
4
  6
CONTINUOUS
 10
56.702545303580322
 20
74.725695235597044
 70
0
  0
VERTEX
  5
9346
  8
4
  6
CONTINUOUS
 10
56.702989649326021
 20
74.728704053861861
 70
0
  0
VERTEX
  5
9347
  8
4
  6
CONTINUOUS
 10
56.703433995071791
 20
74.731712872126778
 70
0
  0
VERTEX
  5
9348
  8
4
  6
CONTINUOUS
 10
56.703433995071791
 20
74.731712872126778
 70
0
  0
VERTEX
  5
9349
  8
4
  6
CONTINUOUS
 10
56.703878340817518
 20
74.73472169039168
 70
0
  0
VERTEX
  5
934A
  8
4
  6
CONTINUOUS
 10
56.7043226865633
 20
74.737730508656512
 70
0
  0
VERTEX
  5
934B
  8
4
  6
CONTINUOUS
 10
56.7043226865633
 20
74.737730508656512
 70
0
  0
VERTEX
  5
934C
  8
4
  6
CONTINUOUS
 10
56.704767032309093
 20
74.740739326921087
 70
0
  0
VERTEX
  5
934D
  8
4
  6
CONTINUOUS
 10
56.7052113780549
 20
74.743748145185933
 70
0
  0
VERTEX
  5
934E
  8
4
  6
CONTINUOUS
 10
56.7052113780549
 20
74.743748145185933
 70
0
  0
VERTEX
  5
934F
  8
4
  6
CONTINUOUS
 10
56.705655723800682
 20
74.7467569634509
 70
0
  0
VERTEX
  5
9350
  8
4
  6
CONTINUOUS
 10
56.706100069546387
 20
74.7497657817158
 70
0
  0
SEQEND
  5
9351
  8
0
  0
ARC
  5
852B
  8
4
  6
CONTINUOUS
 10
50.58971725991735
 20
22.577510253435161
 30
0
 40
52.65000000001794
 50
82.566203504599017
 51
83.278768656399549
  0
ARC
  5
852C
  8
4
  6
CONTINUOUS
 10
50.58971725991735
 20
22.577510253435161
 30
0
 40
52.054779341591932
 50
82.658004497797847
 51
83.23656341429934
  0
ARC
  5
852D
  8
4
  6
CONTINUOUS
 10
50.58971725991735
 20
22.577510253435161
 30
0
 40
52.560000000186022
 50
83.312493374201864
 51
83.317589134206912
  0
LINE
  5
852E
  8
4
  6
CONTINUOUS
 10
57.242287966180783
 20
74.207927725185783
 30
0
 11
57.241880442484558
 21
74.2054946927132
 31
0
  0
LINE
  5
852F
  8
4
  6
CONTINUOUS
 10
56.601447413218317
 20
74.8713563333012
 30
0
 11
56.601442252192143
 21
74.883166377753739
 31
0
  0
LINE
  5
8530
  8
4
  6
CONTINUOUS
 10
56.751874068307067
 20
74.713751339362929
 30
0
 11
56.7518077243843
 21
74.865665136657128
 31
0
  0
ARC
  5
8533
  8
4
  6
CONTINUOUS
 10
55.772862295220143
 20
72.717115961012482
 30
0
 40
2.1114110219966342
 50
15.203139708925383
 51
43.713949538826718
  0
ARC
  5
8534
  8
4
  6
CONTINUOUS
 10
57.23039588310467
 20
74.1127413191614
 30
0
 40
0.0934616684358478
 50
42.784705195088392
 51
82.941661534452834
  0
ARC
  5
8535
  8
4
  6
CONTINUOUS
 10
55.608937906346817
 20
73.234345011506448
 30
0
 40
2.3936042720369071
 50
13.231983685783391
 51
38.979386848998473
  0
ARC
  5
8536
  8
4
  6
CONTINUOUS
 10
57.378531066689817
 20
74.676085673031508
 30
0
 40
0.1113192094659979
 50
35.052740223900841
 51
78.038893482254863
  0
ARC
  5
8537
  8
4
  6
CONTINUOUS
 10
60.627281926078027
 20
73.6819316674529
 30
0
 40
3.4256176028989831
 50
163.23684984557491
 51
171.16741668660839
  0
ARC
  5
8538
  8
4
  6
CONTINUOUS
 10
57.631436503881453
 20
74.607038554805442
 30
0
 40
0.29067168460169363
 50
142.25119819259541
 51
166.87544542417211
  0
ARC
  5
8539
  8
4
  6
CONTINUOUS
 10
68.1309739926983
 20
73.074168961822735
 30
0
 40
10.9477055246604
 50
174.0685181757955
 51
182.78867257499019
  0
ARC
  5
853A
  8
4
  6
CONTINUOUS
 10
70.2230893090576
 20
72.755214085343411
 30
0
 40
13.587570380916681
 50
173.59903532593981
 51
180.58009791490261
  0
ARC
  5
853B
  8
4
  6
CONTINUOUS
 10
60.189488112205041
 20
73.756628278366335
 30
0
 40
3.5070476708246261
 50
164.45186536826219
 51
171.5820818943906
  0
ARC
  5
853C
  8
4
  6
CONTINUOUS
 10
57.737466405860282
 20
74.41556004228579
 30
0
 40
0.9683894703447391
 50
153.2597471761103
 51
163.18444964807179
  0
ARC
  5
853D
  8
4
  6
CONTINUOUS
 10
72.114451735122373
 20
72.660686544125483
 30
0
 40
15.629257731338379
 50
174.02496458760081
 51
180.09173708633711
  0
ARC
  5
853E
  8
4
  6
CONTINUOUS
 10
60.265503782176488
 20
73.727776889432789
 30
0
 40
3.7375676049285711
 50
164.71684587474681
 51
171.38541428217431
  0
ARC
  5
853F
  8
4
  6
CONTINUOUS
 10
57.510169699911089
 20
74.462681457766564
 30
0
 40
0.88613304735039933
 50
153.44939571627421
 51
163.59415627214949
  0
ARC
  5
8540
  8
4
  6
CONTINUOUS
 10
57.345384817029718
 20
74.3657929533015
 30
0
 40
0.73458855446124849
 50
151.20054198652679
 51
165.85092233393459
  0
ARC
  5
8541
  8
4
  6
CONTINUOUS
 10
59.774628737529433
 20
73.696615910112314
 30
0
 40
3.2541797109177271
 50
164.88147899939679
 51
170.29073402023059
  0
ARC
  5
8542
  8
4
  6
CONTINUOUS
 10
57.6736153015311
 20
72.037209634648548
 30
0
 40
4.0890718967232491
 50
132.54032689863291
 51
133.14506541471911
  0
ARC
  5
8543
  8
4
  6
CONTINUOUS
 10
54.100072424241567
 20
78.825121248112012
 30
0
 40
3.891148498006666
 50
255.85500429622118
 51
266.88734982940429
  0
ARC
  5
8544
  8
4
  6
CONTINUOUS
 10
54.154148564040469
 20
78.303824044297556
 30
0
 40
3.3745604454521829
 50
265.4898199497274
 51
280.440510734168
  0
ARC
  5
8545
  8
4
  6
CONTINUOUS
 10
54.806456315341052
 20
75.156015307833087
 30
0
 40
0.15270289089354949
 50
287.7671260316049
 51
310.25137866246968
  0
ARC
  5
8546
  8
4
  6
CONTINUOUS
 10
54.60974436088344
 20
75.682962785180379
 30
0
 40
0.71503628653264084
 50
282.59534087360993
 51
289.89363886873917
  0
ARC
  5
8547
  8
4
  6
CONTINUOUS
 10
53.406995358433733
 20
76.143639472797972
 30
0
 40
1.121721754054454
 50
243.60575506893838
 51
256.71171579343348
  0
ARC
  5
8548
  8
4
  6
CONTINUOUS
 10
52.984263950749579
 20
75.269738122668755
 30
0
 40
0.15131505329912021
 50
222.7051680466468
 51
239.88314906465629
  0
ARC
  5
8549
  8
4
  6
CONTINUOUS
 10
53.481979948408842
 20
75.740793912565664
 30
0
 40
0.83150467116085836
 50
222.58608393910509
 51
226.379182196598
  0
ARC
  5
854A
  8
4
  6
CONTINUOUS
 10
54.6866000001445
 20
76.4190793133652
 30
0
 40
1.396407099757162
 50
268.400973512805
 51
278.20781472041489
  0
ARC
  5
854B
  8
4
  6
CONTINUOUS
 10
54.709910683378453
 20
85.531979969746985
 30
0
 40
10.508948511187541
 50
266.968626379602
 51
269.660458252034
  0
ARC
  5
854C
  8
4
  6
CONTINUOUS
 10
53.615353477013677
 20
78.726770870363069
 30
0
 40
3.6414048734371951
 50
259.56297780274048
 51
265.42904941480123
  0
ARC
  5
854D
  8
4
  6
CONTINUOUS
 10
54.741853570501632
 20
89.672087113505825
 30
0
 40
14.643828560249471
 50
264.44831756640781
 51
265.89398749083227
  0
LINE
  5
854E
  8
4
  6
CONTINUOUS
 10
57.939717259660732
 20
73.769449397673085
 30
0
 11
57.939717259660732
 21
69.956566901787738
 31
0
  0
POLYLINE
  5
854F
  8
4
  6
CONTINUOUS
 66
1
 70
0
 10
0
 20
0
 30
0
  0
VERTEX
  5
9352
  8
4
  6
CONTINUOUS
 10
57.939717259660732
 20
69.9566120891497
 70
0
  0
VERTEX
  5
9353
  8
4
  6
CONTINUOUS
 10
57.940248594031146
 20
69.950915713191591
 70
0
  0
VERTEX
  5
9354
  8
4
  6
CONTINUOUS
 10
57.94077992840144
 20
69.9452193372336
 70
0
  0
VERTEX
  5
9355
  8
4
  6
CONTINUOUS
 10
57.94077992840144
 20
69.9452193372336
 70
0
  0
VERTEX
  5
9356
  8
4
  6
CONTINUOUS
 10
57.9413112627719
 20
69.939522961275514
 70
0
  0
VERTEX
  5
9357
  8
4
  6
CONTINUOUS
 10
57.941842597142248
 20
69.933826585317661
 70
0
  0
VERTEX
  5
9358
  8
4
  6
CONTINUOUS
 10
57.941842597142248
 20
69.933826585317661
 70
0
  0
VERTEX
  5
9359
  8
4
  6
CONTINUOUS
 10
57.942373931512613
 20
69.92813020935985
 70
0
  0
VERTEX
  5
935A
  8
4
  6
CONTINUOUS
 10
57.94290526588297
 20
69.922433833401712
 70
0
  0
VERTEX
  5
935B
  8
4
  6
CONTINUOUS
 10
57.94290526588297
 20
69.922433833401712
 70
0
  0
VERTEX
  5
935C
  8
4
  6
CONTINUOUS
 10
57.943436600253293
 20
69.916737457443659
 70
0
  0
VERTEX
  5
935D
  8
4
  6
CONTINUOUS
 10
57.94396793462365
 20
69.911041081485621
 70
0
  0
VERTEX
  5
935E
  8
4
  6
CONTINUOUS
 10
57.94396793462365
 20
69.911041081485621
 70
0
  0
VERTEX
  5
935F
  8
4
  6
CONTINUOUS
 10
57.944499268994029
 20
69.905344705527654
 70
0
  0
VERTEX
  5
9360
  8
4
  6
CONTINUOUS
 10
57.946547015910461
 20
69.883391041408643
 70
0
  0
VERTEX
  5
9361
  8
4
  6
CONTINUOUS
 10
57.988704554057151
 20
69.765867420099056
 70
0
  0
SEQEND
  5
9362
  8
0
  0
POLYLINE
  5
8550
  8
4
  6
CONTINUOUS
 66
1
 70
0
 10
0
 20
0
 30
0
  0
VERTEX
  5
9363
  8
4
  6
CONTINUOUS
 10
57.917890607860592
 20
69.968332728141178
 70
0
  0
VERTEX
  5
9364
  8
4
  6
CONTINUOUS
 10
57.918672921810369
 20
69.96903873033007
 70
0
  0
VERTEX
  5
9365
  8
4
  6
CONTINUOUS
 10
57.919455001560607
 20
69.969730368858208
 70
0
  0
VERTEX
  5
9366
  8
4
  6
CONTINUOUS
 10
57.919455001560607
 20
69.969730368858208
 70
0
  0
VERTEX
  5
9367
  8
4
  6
CONTINUOUS
 10
57.920236580780362
 20
69.970393287484029
 70
0
  0
VERTEX
  5
9368
  8
4
  6
CONTINUOUS
 10
57.921017264612431
 20
69.971013159645537
 70
0
  0
VERTEX
  5
9369
  8
4
  6
CONTINUOUS
 10
57.921017264612431
 20
69.971013159645537
 70
0
  0
VERTEX
  5
936A
  8
4
  6
CONTINUOUS
 10
57.921796754594233
 20
69.971575636521337
 70
0
  0
VERTEX
  5
936B
  8
4
  6
CONTINUOUS
 10
57.92257526636773
 20
69.972066250574045
 70
0
  0
VERTEX
  5
936C
  8
4
  6
CONTINUOUS
 10
57.92257526636773
 20
69.972066250574045
 70
0
  0
VERTEX
  5
936D
  8
4
  6
CONTINUOUS
 10
57.923352662127932
 20
69.9724706158836
 70
0
  0
VERTEX
  5
936E
  8
4
  6
CONTINUOUS
 10
57.924126876178441
 20
69.972774791713462
 70
0
  0
VERTEX
  5
936F
  8
4
  6
CONTINUOUS
 10
57.924126876178441
 20
69.972774791713462
 70
0
  0
VERTEX
  5
9370
  8
4
  6
CONTINUOUS
 10
57.924897160215039
 20
69.972964533118244
 70
0
  0
VERTEX
  5
9371
  8
4
  6
CONTINUOUS
 10
57.9256699633962
 20
69.973023933134741
 70
0
  0
VERTEX
  5
9372
  8
4
  6
CONTINUOUS
 10
57.9256699633962
 20
69.973023933134741
 70
0
  0
VERTEX
  5
9373
  8
4
  6
CONTINUOUS
 10
57.926450775042113
 20
69.972941587493523
 70
0
  0
VERTEX
  5
9374
  8
4
  6
CONTINUOUS
 10
57.927234047659489
 20
69.9727257647187
 70
0
  0
VERTEX
  5
9375
  8
4
  6
CONTINUOUS
 10
57.927234047659489
 20
69.9727257647187
 70
0
  0
VERTEX
  5
9376
  8
4
  6
CONTINUOUS
 10
57.9280132885124
 20
69.972390022774448
 70
0
  0
VERTEX
  5
9377
  8
4
  6
CONTINUOUS
 10
57.928789260708761
 20
69.971949404591328
 70
0
  0
VERTEX
  5
9378
  8
4
  6
CONTINUOUS
 10
57.928789260708761
 20
69.971949404591328
 70
0
  0
VERTEX
  5
9379
  8
4
  6
CONTINUOUS
 10
57.929564055434788
 20
69.97141922490222
 70
0
  0
VERTEX
  5
937A
  8
4
  6
CONTINUOUS
 10
57.930337820347312
 20
69.9708144006808
 70
0
  0
VERTEX
  5
937B
  8
4
  6
CONTINUOUS
 10
57.930337820347312
 20
69.9708144006808
 70
0
  0
VERTEX
  5
937C
  8
4
  6
CONTINUOUS
 10
57.931110346789467
 20
69.9701497759781
 70
0
  0
VERTEX
  5
937D
  8
4
  6
CONTINUOUS
 10
57.931881944378929
 20
69.969440300914513
 70
0
  0
VERTEX
  5
937E
  8
4
  6
CONTINUOUS
 10
57.931881944378929
 20
69.969440300914513
 70
0
  0
VERTEX
  5
937F
  8
4
  6
CONTINUOUS
 10
57.932653019909488
 20
69.96870094549827
 70
0
  0
VERTEX
  5
9380
  8
4
  6
CONTINUOUS
 10
57.933423850606793
 20
69.967946653220565
 70
0
  0
SEQEND
  5
9381
  8
0
  0
POLYLINE
  5
8551
  8
4
  6
CONTINUOUS
 66
1
 70
0
 10
0
 20
0
 30
0
  0
VERTEX
  5
9382
  8
4
  6
CONTINUOUS
 10
57.933423850606793
 20
69.967955756073138
 70
0
  0
VERTEX
  5
9383
  8
4
  6
CONTINUOUS
 10
57.933959091827482
 20
69.962293469480457
 70
0
  0
VERTEX
  5
9384
  8
4
  6
CONTINUOUS
 10
57.934494333048058
 20
69.956631182887861
 70
0
  0
VERTEX
  5
9385
  8
4
  6
CONTINUOUS
 10
57.934494333048058
 20
69.956631182887861
 70
0
  0
VERTEX
  5
9386
  8
4
  6
CONTINUOUS
 10
57.935029574268682
 20
69.950968896295251
 70
0
  0
VERTEX
  5
9387
  8
4
  6
CONTINUOUS
 10
57.935564815489322
 20
69.94530660970274
 70
0
  0
VERTEX
  5
9388
  8
4
  6
CONTINUOUS
 10
57.935564815489322
 20
69.94530660970274
 70
0
  0
VERTEX
  5
9389
  8
4
  6
CONTINUOUS
 10
57.93610005670989
 20
69.939644323110187
 70
0
  0
VERTEX
  5
938A
  8
4
  6
CONTINUOUS
 10
57.93663529793043
 20
69.9339820365176
 70
0
  0
VERTEX
  5
938B
  8
4
  6
CONTINUOUS
 10
57.93663529793043
 20
69.9339820365176
 70
0
  0
VERTEX
  5
938C
  8
4
  6
CONTINUOUS
 10
57.937170539150991
 20
69.928319749925137
 70
0
  0
VERTEX
  5
938D
  8
4
  6
CONTINUOUS
 10
57.9377057803715
 20
69.92265746333247
 70
0
  0
VERTEX
  5
938E
  8
4
  6
CONTINUOUS
 10
57.9377057803715
 20
69.92265746333247
 70
0
  0
VERTEX
  5
938F
  8
4
  6
CONTINUOUS
 10
57.93824102159202
 20
69.916995176739889
 70
0
  0
VERTEX
  5
9390
  8
4
  6
CONTINUOUS
 10
57.938776262812652
 20
69.9113328901471
 70
0
  0
SEQEND
  5
9391
  8
0
  0
POLYLINE
  5
8552
  8
4
  6
CONTINUOUS
 66
1
 70
0
 10
0
 20
0
 30
0
  0
VERTEX
  5
9392
  8
4
  6
CONTINUOUS
 10
57.9389950512305
 20
73.782227400975017
 70
0
  0
VERTEX
  5
9393
  8
4
  6
CONTINUOUS
 10
57.9390560311124
 20
73.7818756372351
 70
0
  0
SEQEND
  5
9394
  8
0
  0
POLYLINE
  5
8553
  8
4
  6
CONTINUOUS
 66
1
 70
0
 10
0
 20
0
 30
0
  0
VERTEX
  5
9395
  8
4
  6
CONTINUOUS
 10
57.939549644045023
 20
73.775713050627132
 70
0
  0
VERTEX
  5
9396
  8
4
  6
CONTINUOUS
 10
57.939566405606612
 20
73.7750866853315
 70
0
  0
VERTEX
  5
9397
  8
4
  6
CONTINUOUS
 10
57.93958316716818
 20
73.774460320036113
 70
0
  0
VERTEX
  5
9398
  8
4
  6
CONTINUOUS
 10
57.93958316716818
 20
73.774460320036113
 70
0
  0
VERTEX
  5
9399
  8
4
  6
CONTINUOUS
 10
57.93959992872977
 20
73.773833954740752
 70
0
  0
VERTEX
  5
939A
  8
4
  6
CONTINUOUS
 10
57.939616690291281
 20
73.773207589445491
 70
0
  0
VERTEX
  5
939B
  8
4
  6
CONTINUOUS
 10
57.939616690291281
 20
73.773207589445491
 70
0
  0
VERTEX
  5
939C
  8
4
  6
CONTINUOUS
 10
57.939633451852821
 20
73.772581224150272
 70
0
  0
VERTEX
  5
939D
  8
4
  6
CONTINUOUS
 10
57.939650213414453
 20
73.771954858854755
 70
0
  0
VERTEX
  5
939E
  8
4
  6
CONTINUOUS
 10
57.939650213414453
 20
73.771954858854755
 70
0
  0
VERTEX
  5
939F
  8
4
  6
CONTINUOUS
 10
57.939666974976
 20
73.7713284935593
 70
0
  0
VERTEX
  5
93A0
  8
4
  6
CONTINUOUS
 10
57.939683736537539
 20
73.770702128263849
 70
0
  0
VERTEX
  5
93A1
  8
4
  6
CONTINUOUS
 10
57.939683736537539
 20
73.770702128263849
 70
0
  0
VERTEX
  5
93A2
  8
4
  6
CONTINUOUS
 10
57.939700498099143
 20
73.7700757629684
 70
0
  0
VERTEX
  5
93A3
  8
4
  6
CONTINUOUS
 10
57.939717259660732
 20
73.769449397673085
 70
0
  0
SEQEND
  5
93A4
  8
0
  0
POLYLINE
  5
8554
  8
4
  6
CONTINUOUS
 66
1
 70
0
 10
0
 20
0
 30
0
  0
VERTEX
  5
93A5
  8
4
  6
CONTINUOUS
 10
57.9390560311124
 20
73.7818756372351
 70
0
  0
VERTEX
  5
93A6
  8
4
  6
CONTINUOUS
 10
57.9391053924057
 20
73.781259378574148
 70
0
  0
VERTEX
  5
93A7
  8
4
  6
CONTINUOUS
 10
57.939154753698951
 20
73.780643119913421
 70
0
  0
VERTEX
  5
93A8
  8
4
  6
CONTINUOUS
 10
57.939154753698951
 20
73.780643119913421
 70
0
  0
VERTEX
  5
93A9
  8
4
  6
CONTINUOUS
 10
57.9392041149922
 20
73.7800268612527
 70
0
  0
VERTEX
  5
93AA
  8
4
  6
CONTINUOUS
 10
57.939253476285458
 20
73.779410602591852
 70
0
  0
VERTEX
  5
93AB
  8
4
  6
CONTINUOUS
 10
57.939253476285458
 20
73.779410602591852
 70
0
  0
VERTEX
  5
93AC
  8
4
  6
CONTINUOUS
 10
57.939302837578659
 20
73.778794343931125
 70
0
  0
VERTEX
  5
93AD
  8
4
  6
CONTINUOUS
 10
57.939352198871923
 20
73.778178085270142
 70
0
  0
VERTEX
  5
93AE
  8
4
  6
CONTINUOUS
 10
57.939352198871923
 20
73.778178085270142
 70
0
  0
VERTEX
  5
93AF
  8
4
  6
CONTINUOUS
 10
57.93940156016518
 20
73.7775618266093
 70
0
  0
VERTEX
  5
93B0
  8
4
  6
CONTINUOUS
 10
57.939450921458423
 20
73.776945567948559
 70
0
  0
VERTEX
  5
93B1
  8
4
  6
CONTINUOUS
 10
57.939450921458423
 20
73.776945567948559
 70
0
  0
VERTEX
  5
93B2
  8
4
  6
CONTINUOUS
 10
57.93950028275173
 20
73.776329309287917
 70
0
  0
VERTEX
  5
93B3
  8
4
  6
CONTINUOUS
 10
57.939549644045023
 20
73.775713050627132
 70
0
  0
SEQEND
  5
93B4
  8
0
  0
ARC
  5
8555
  8
4
  6
CONTINUOUS
 10
64.268429285293067
 20
72.579978182869553
 30
0
 40
6.4948963728651821
 50
173.8941052902193
 51
180.91441813647543
  0
ARC
  5
8556
  8
4
  6
CONTINUOUS
 10
60.242864054011307
 20
72.930940060917763
 30
0
 40
2.4561153306219281
 50
159.72055919633391
 51
172.0458986363218
  0
ARC
  5
8557
  8
4
  6
CONTINUOUS
 10
55.608937906346789
 20
73.234345011506448
 30
0
 40
2.393604272036908
 50
13.231983685783391
 51
38.979386848998473
  0
ARC
  5
8558
  8
4
  6
CONTINUOUS
 10
55.121245729568727
 20
68.743585058586888
 30
0
 40
3.0442373982321871
 50
359.12526085243024
 51
19.621741218431374
  0
LINE
  5
8559
  8
4
  6
CONTINUOUS
 10
57.946547015910461
 20
69.883391041408643
 30
0
 11
57.938776262812652
 21
69.9113328901471
 31
0
  0
ARC
  5
855A
  8
4
  6
CONTINUOUS
 10
58.150908113913779
 20
69.8601353946633
 30
0
 40
0.25691286786613882
 50
155.7118792544893
 51
174.24399534671949
  0
ARC
  5
855B
  8
4
  6
CONTINUOUS
 10
61.10364947706104
 20
69.40899920730493
 30
0
 40
3.2436095280284931
 50
171.54524546858579
 51
177.87527207722869
  0
ARC
  5
855C
  8
4
  6
CONTINUOUS
 10
73.034638000483341
 20
68.738095997968344
 30
0
 40
15.192981460252829
 50
177.0150267886535
 51
180.15456564786132
  0
ARC
  5
855D
  8
4
  6
CONTINUOUS
 10
50.5335202906257
 20
78.4376786358069
 30
0
 40
3.3945756201026871
 50
255.76440575253579
 51
270.95837131427947
  0
ARC
  5
855E
  8
4
  6
CONTINUOUS
 10
50.651264041427318
 20
78.379838999418524
 30
0
 40
3.336818117839782
 50
268.9531038140716
 51
284.67266048060338
  0
ARC
  5
855F
  8
4
  6
CONTINUOUS
 10
49.772821949317191
 20
75.464397192381057
 30
0
 40
0.3259081759012733
 50
232.21091255519249
 51
257.84273936192119
  0
ARC
  5
8560
  8
4
  6
CONTINUOUS
 10
51.434587822510871
 20
75.41265706327259
 30
0
 40
0.26805845272625312
 50
283.34686532374144
 51
309.8429660857513
  0
ARC
  5
8561
  8
4
  6
CONTINUOUS
 10
49.851919328692887
 20
76.411041746908452
 30
0
 40
1.2355208232702131
 50
257.91639737472832
 51
267.40089323866
  0
ARC
  5
8562
  8
4
  6
CONTINUOUS
 10
50.453300858150207
 20
86.085871846986109
 30
0
 40
10.92887054743589
 50
266.5513796221469
 51
269.71199228959091
  0
ARC
  5
8563
  8
4
  6
CONTINUOUS
 10
50.69918556120858
 20
87.334794131280674
 30
0
 40
12.177931007009491
 50
270.38522125107392
 51
272.90698104197429
  0
ARC
  5
8564
  8
4
  6
CONTINUOUS
 10
51.2876505477946
 20
76.5574582411186
 30
0
 40
1.385230787638098
 50
271.20513592408372
 51
283.030973220889
  0
INSERT
  5
93C8
  8
0
  2
SPECR09
 10
58.165483127800911
 20
7
 30
0
 41
1
 42
1
 43
1
 50
0
  0
ENDSEC
999
Created By CadLib version 4.0.36.7
999
CadLib website: www.woutware.com
  0
EOF
