  0
SECTION
  2
HEADER
  9
$ACADVER
  1
AC1009
  9
$INSBASE
 10
0
 20
0
 30
0
  9
$EXTMIN
 10
0
 20
0
  9
$EXTMAX
 10
84.100000000000009
 20
59.400000000000006
  9
$LIMMIN
 10
0
 20
0
  9
$LIMMAX
 10
84.100000000000009
 20
59.400000000000006
  9
$LTSCALE
 40
0.1
  0
ENDSEC
  0
SECTION
  2
TABLES
  0
TABLE
  2
LTYPE
 70
     9
  0
LTYPE
  2
CONTINUOUS
 70
    64
  3
実線
 72
    65
 73
     0
 40
0.0
  0
LTYPE
  2
DASHED1
 70
    64
  3
--  --  --  --  --  --  --  --  
 72
    65
 73
     2
 40
2.5
 49
1.25
 49
-1.25
  0
LTYPE
  2
DASHED2
 70
    64
  3
----    ----    ----    ----    
 72
    65
 73
     2
 40
5.0
 49
2.5
 49
-2.5
  0
LTYPE
  2
DASHED3
 70
    64
  3
------  ------  ------  ------  
 72
    65
 73
     2
 40
5.0
 49
3.75
 49
-1.25
  0
LTYPE
  2
CENTER1
 70
    64
  3
----- - ----- - ----- - ----- - 
 72
    65
 73
     4
 40
10.0
 49
6.25
 49
-1.25
 49
1.25
 49
-1.25
  0
LTYPE
  2
CENTER2
 70
    64
  3
----------  --  ----------  --  
 72
    65
 73
     4
 40
20.0
 49
12.5
 49
-2.5
 49
2.5
 49
-2.5
  0
LTYPE
  2
PHANTOM1
 70
    64
  3
--- - - --- - - --- - - --- - - 
 72
    65
 73
     6
 40
10.0
 49
3.25
 49
-1.25
 49
1.25
 49
-1.25
 49
1.25
 49
-1.25
  0
LTYPE
  2
PHANTOM2
 70
    64
  3
--------  -  -  --------  -  -  
 72
    65
 73
     6
 40
20.0
 49
10.0
 49
-2.5
 49
1.25
 49
-2.5
 49
1.25
 49
-2.5
  0
LTYPE
  2
DOT
 70
    64
  3
-   -   -   -   -   -   -   -   
 72
    65
 73
     2
 40
2.5
 49
0.625
 49
-1.875
  0
LTYPE
  2
DUMMY
 70
    64
  3
ダミー
 72
    65
 73
     0
 40
0.0
  0
LTYPE
  2
RAND1
 70
    64
  3
ランダム線1
 72
    65
 73
     4
 40
10.0
 49
1.0
 49
-2.0
 49
3.0
 49
-4.0
  0
LTYPE
  2
RAND2
 70
    64
  3
ランダム線2
 72
    65
 73
     4
 40
14.0
 49
2.0
 49
-3.0
 49
4.0
 49
-5.0
  0
LTYPE
  2
RAND3
 70
    64
  3
ランダム線3
 72
    65
 73
     4
 40
18.0
 49
3.0
 49
-4.0
 49
5.0
 49
-6.0
  0
LTYPE
  2
RAND4
 70
    64
  3
ランダム線4
 72
    65
 73
     4
 40
22.0
 49
4.0
 49
-5.0
 49
6.0
 49
-7.0
  0
LTYPE
  2
RAND5
 70
    64
  3
ランダム線5
 72
    65
 73
     4
 40
26.0
 49
5.0
 49
-6.0
 49
7.0
 49
-8.0
  0
LTYPE
  2
LONG1
 70
    64
  3
----------  --  ----------  --  
 72
    65
 73
     4
 40
40.0
 49
32.5
 49
-2.5
 49
2.5
 49
-2.5
  0
LTYPE
  2
LONG2
 70
    64
  3
--------  -  -  --------  -  -  
 72
    65
 73
     6
 40
40.0
 49
30.0
 49
-2.5
 49
1.25
 49
-2.5
 49
1.25
 49
-2.5
  0
LTYPE
  2
LONG3
 70
    64
  3
+++++++++++++++..+++++++++++++++
 72
    65
 73
     2
 40
40.0
 49
37.5
 49
-2.5
  0
LTYPE
  2
LONG4
 70
    64
  3
+++++++++++++++..+++++++++++++++
 72
    65
 73
     2
 40
80.0
 49
75.0
 49
-5.0
  0
LTYPE
  2
LONG5
 70
    64
  3
----------  --  ----------  --  
 72
    65
 73
     4
 40
60.0
 49
37.5
 49
-7.5
 49
7.5
 49
-7.5
  0
LTYPE
  2
dashed
 70
   64
  3
-------   -------------   ------
 72
   65
 73
    2
 40
7.5
 49
6
 49
-1.5
  0
LTYPE
  2
dashed_spaced
 70
   64
  3
----        --------        ----
 72
   65
 73
    2
 40
12
 49
6
 49
-6
  0
LTYPE
  2
long_dashed_dotted
 70
   64
  3
------------- --- --------------
 72
   65
 73
    4
 40
15.25
 49
12
 49
-1.5
 49
0.25
 49
-1.5
  0
LTYPE
  2
long_dashed_double-dotted
 70
   64
  3
----------- --- --- ------------
 72
   65
 73
    6
 40
17
 49
12
 49
-1.5
 49
0.25
 49
-1.5
 49
0.25
 49
-1.5
  0
LTYPE
  2
long_dashed_triplicate-dotted
 70
   64
  3
--------- --- --- --- ----------
 72
   65
 73
    8
 40
18.75
 49
12
 49
-1.5
 49
0.25
 49
-1.5
 49
0.25
 49
-1.5
 49
0.25
 49
-1.5
  0
LTYPE
  2
dotted
 70
   64
  3
   -       -       -       -    
 72
   65
 73
    2
 40
1.75
 49
0.25
 49
-1.5
  0
LTYPE
  2
chain
 70
   64
  3
-------------- -- --------------
 72
   65
 73
    4
 40
18.5
 49
12
 49
-1.5
 49
3.5
 49
-1.5
  0
LTYPE
  2
chain_double_dash
 70
   64
  3
------------ -- -- -------------
 72
   65
 73
    6
 40
23.5
 49
12
 49
-1.5
 49
3.5
 49
-1.5
 49
3.5
 49
-1.5
  0
LTYPE
  2
dashed_dotted
 70
   64
  3
-----------     -     ----------
 72
   65
 73
    4
 40
9.25
 49
6
 49
-1.5
 49
0.25
 49
-1.5
  0
LTYPE
  2
double-dashed_dotted
 70
   64
  3
------   -----------   -   -----
 72
   65
 73
    6
 40
16.75
 49
6
 49
-1.5
 49
6
 49
-1.5
 49
0.25
 49
-1.5
  0
LTYPE
  2
dashed_double-dotted
 70
   64
  3
---------    -    -    ---------
 72
   65
 73
    6
 40
11
 49
6
 49
-1.5
 49
0.25
 49
-1.5
 49
0.25
 49
-1.5
  0
LTYPE
  2
double-dashed_double-dotted
 70
   64
  3
-----   ---------   -   -   ----
 72
   65
 73
    8
 40
18.5
 49
6
 49
-1.5
 49
6
 49
-1.5
 49
0.25
 49
-1.5
 49
0.25
 49
-1.5
  0
LTYPE
  2
dashed_triplicate-dotted
 70
   64
  3
-------    -    -    -    ------
 72
   65
 73
    8
 40
12.75
 49
6
 49
-1.5
 49
0.25
 49
-1.5
 49
0.25
 49
-1.5
 49
0.25
 49
-1.5
  0
LTYPE
  2
double-dashed_triplicate-dotted
 70
   64
  3
-----  ---------  -  -  -  -----
 72
   65
 73
   10
 40
20.25
 49
6
 49
-1.5
 49
6
 49
-1.5
 49
0.25
 49
-1.5
 49
0.25
 49
-1.5
 49
0.25
 49
-1.5
  0
LTYPE
  2
undefined
 70
   64
  3
--------------------------------
 72
   65
 73
    0
 40
0
  0
LTYPE
  2
_
 70
   64
  3
                                
 72
   65
 73
    0
 40
0
  0
LTYPE
  2
__18
 70
   64
  3
                                
 72
   65
 73
    0
 40
0
  0
LTYPE
  2
__19
 70
   64
  3
                                
 72
   65
 73
    0
 40
0
  0
LTYPE
  2
__20
 70
   64
  3
                                
 72
   65
 73
    0
 40
0
  0
LTYPE
  2
__21
 70
   64
  3
                                
 72
   65
 73
    0
 40
0
  0
LTYPE
  2
__22
 70
   64
  3
                                
 72
   65
 73
    0
 40
0
  0
LTYPE
  2
__23
 70
   64
  3
                                
 72
   65
 73
    0
 40
0
  0
LTYPE
  2
__24
 70
   64
  3
                                
 72
   65
 73
    0
 40
0
  0
LTYPE
  2
__25
 70
   64
  3
                                
 72
   65
 73
    0
 40
0
  0
LTYPE
  2
__26
 70
   64
  3
                                
 72
   65
 73
    0
 40
0
  0
LTYPE
  2
__27
 70
   64
  3
                                
 72
   65
 73
    0
 40
0
  0
LTYPE
  2
__28
 70
   64
  3
                                
 72
   65
 73
    0
 40
0
  0
LTYPE
  2
__29
 70
   64
  3
                                
 72
   65
 73
    0
 40
0
  0
LTYPE
  2
__30
 70
   64
  3
                                
 72
   65
 73
    0
 40
0
  0
LTYPE
  2
__31
 70
   64
  3
                                
 72
   65
 73
    0
 40
0
  0
LTYPE
  2
__32
 70
   64
  3
                                
 72
   65
 73
    0
 40
0
  0
ENDTAB
  0
TABLE
  2
STYLE
  5
3
100
AcDbSymbolTable
 70
     1
  0
STYLE
  5
10
100
AcDbSymbolTableRecord
100
AcDbTextStyleTableRecord
  2
STANDARD
 70
     0
 40
0.0
 41
1.0
 50
0.0
 71
     0
 42
0.2
  3
txt
  4
bigfont.shx
  0
STYLE
  5
26
100
AcDbSymbolTableRecord
100
AcDbTextStyleTableRecord
  2
TATEGAKI
 70
    68
 40
0.0
 41
1.0
 50
0.0
 71
     0
 42
1.0
  3
txt
  4
bigfont.shx
  0
ENDTAB
  0
TABLE
  2
LAYER
 70
    4
  0
LAYER
  2
_0-0_0
 70
   64
 62
    7
  6
CONTINUOUS
  0
LAYER
  2
_0-2_SC0930
 70
   64
 62
    7
  6
CONTINUOUS
  0
LAYER
  2
_0-3______1
 70
   64
 62
    7
  6
CONTINUOUS
  0
LAYER
  2
ADD_LINE
 70
   64
 62
    7
  6
CONTINUOUS
  0
ENDTAB
  0
ENDSEC
  0
SECTION
  2
BLOCKS
  0
BLOCK
  2
-002-SPECSC0930
 70
   64
 10
0
 20
0
 30
0
  0
TEXT
  8
_0-4_SPEC
 62
    7
 10
0
 20
0
 40
1.5
 41
1
 50
0
  1
DALIｼｽﾃﾑ通信機器
  0
TEXT
  8
_0-4_SPEC
 62
    7
 10
0
 20
-3
 40
1.5
 41
1
 50
0
  1
制御
  0
TEXT
  8
_0-4_SPEC
 62
    7
 10
0
 20
-6
 40
1.5
 41
1
 50
0
  1
本体:ﾌﾟﾗｽﾁｯｸ ﾎﾜｲﾄ色仕上
  0
ENDBLK
  0
ENDSEC
  0
SECTION
  2
ENTITIES
  0
LINE
  8
_0-3______1
  6
CONTINUOUS
 62
    7
 10
41.736723049051022
 20
0.5534259884621634
 11
40.974667927713767
 21
0.4179648339821824
  0
LINE
  8
_0-3______1
  6
CONTINUOUS
 62
    7
 10
37.604813327861756
 20
0.9767593216897069
 11
37.807936157672081
 21
1.0274711272325021
  0
LINE
  8
_0-3______1
  6
CONTINUOUS
 62
    7
 10
32.152467409086007
 20
2.1789598422224117
 11
36.707434855863823
 21
0.9937091914770462
  0
LINE
  8
_0-3______1
  6
CONTINUOUS
 62
    7
 10
38.282256904081279
 20
0.654987403367295
 11
38.350056383231042
 21
0.6380375335799272
  0
LINE
  8
_0-3______1
  6
CONTINUOUS
 62
    7
 10
39.433745619071189
 20
0.3501653548324157
 11
40.263324611919373
 21
0.1470425250220842
  0
LINE
  8
_0-3______1
  6
CONTINUOUS
 62
    7
 10
38.739489976883689
 20
1.3322931757674554
 11
38.722402303276787
 21
1.3322931757674554
  0
LINE
  8
_0-3______1
  6
CONTINUOUS
 62
    7
 10
32.778923572123766
 20
3.8046314998021615
 11
36.63963537671416
 21
2.8055538090796919
  0
LINE
  8
_0-3______1
  6
CONTINUOUS
 62
    7
 10
32.812823311698637
 20
3.9908044598250627
 11
36.673535116289024
 21
2.9918645729220033
  0
LINE
  8
_0-3______1
  6
CONTINUOUS
 62
    7
 10
37.807936157672081
 20
1.7725763787824236
 11
37.604813327861756
 21
1.7386766392075232
  0
LINE
  8
_0-3______1
  6
CONTINUOUS
 62
    7
 10
40.534246920879347
 20
3.3473984269997858
 11
40.347936157037111
 21
3.3304485572123443
  0
LINE
  8
_0-3______1
  6
CONTINUOUS
 62
    7
 10
40.517434854911357
 20
2.5007317605447215
 11
39.230347181622072
 21
2.8225036788671334
  0
LINE
  8
_0-3______1
  6
CONTINUOUS
 62
    7
 10
38.400768188773917
 20
3.6013708661724255
 11
39.416657945464408
 21
3.3304485572123443
  0
LINE
  8
_0-3______1
  6
CONTINUOUS
 62
    7
 10
36.978357164823912
 20
7.2589598409524116
 11
37.080056383548474
 21
7.2420099711650412
  0
LINE
  8
_0-3______1
  6
CONTINUOUS
 62
    7
 10
32.270978693778545
 20
8.5798094499972226
 11
32.287790759746542
 21
8.5798094499972226
  0
LINE
  8
_0-3______1
  6
CONTINUOUS
 62
    7
 10
36.809134074588471
 20
7.4113708652199426
 11
37.012256904398797
 21
7.3606590596770536
  0
LINE
  8
_0-3______1
  6
CONTINUOUS
 62
    7
 10
32.304602825714539
 20
8.613709189572095
 11
31.559635377984161
 21
9.0200926530121741
  0
LINE
  8
_0-3______1
  6
CONTINUOUS
 62
    7
 10
32.355590238896319
 20
8.8168320193824226
 11
31.712046402251588
 21
9.1386039377047421
  0
LINE
  8
_0-3______1
  6
CONTINUOUS
 62
    7
 10
31.407224353716721
 20
9.0370425227996041
 11
31.559635377984161
 21
9.0200926530121741
  0
LINE
  8
_0-3______1
  6
CONTINUOUS
 62
    7
 10
32.270978693778545
 20
8.5798094499972226
 11
31.407224353716721
 21
9.0370425227996041
  0
LINE
  8
_0-3______1
  6
CONTINUOUS
 62
    7
 10
35.962467408133442
 20
7.8686039380222645
 11
36.097790758794076
 21
7.8516540682348026
  0
LINE
  8
_0-3______1
  6
CONTINUOUS
 62
    7
 10
31.187013850299508
 20
9.5449874011448141
 11
31.288713069024148
 21
9.5110876615699222
  0
LINE
  8
_0-3______1
  6
CONTINUOUS
 62
    7
 10
35.742256904716321
 20
8.3765488163675439
 11
35.860768189408866
 21
8.3258370108245838
  0
LINE
  8
_0-3______1
  6
CONTINUOUS
 62
    7
 10
31.542823312016157
 20
10.036120213522004
 11
35.488146661724251
 21
9.0200926530121741
  0
LINE
  8
_0-3______1
  6
CONTINUOUS
 62
    7
 10
31.542823312016157
 20
10.205343303757534
 11
35.488146661724251
 21
9.1894535470670444
  0
LINE
  8
_0-3______1
  6
CONTINUOUS
 62
    7
 10
31.661334596708731
 20
10.408603937387282
 11
35.623745620023691
 21
9.3586766373024837
  0
LINE
  8
_0-3______1
  6
CONTINUOUS
 62
    7
 10
36.605735637139276
 20
9.6465488160500126
 11
32.575800742313433
 21
10.713425985922164
  0
LINE
  8
_0-3______1
  6
CONTINUOUS
 62
    7
 10
36.707434855863823
 20
9.8498094496796913
 11
32.69431202700607
 21
10.88278687997706
  0
LINE
  8
_0-3______1
  6
CONTINUOUS
 62
    7
 10
36.097790758794076
 20
7.8516540682348026
 11
37.012256904398797
 21
7.3606590596770536
  0
LINE
  8
_0-3______1
  6
CONTINUOUS
 62
    7
 10
36.284101522636412
 20
7.9701653529274612
 11
37.080056383548474
 21
7.5468320196999237
  0
LINE
  8
_0-3______1
  6
CONTINUOUS
 62
    7
 10
35.962467408133442
 20
7.8686039380222645
 11
36.809134074588471
 21
7.4113708652199426
  0
LINE
  8
_0-3______1
  6
CONTINUOUS
 62
    7
 10
31.898357166093906
 20
9.8328595798923235
 11
31.542823312016157
 21
9.7650601007425664
  0
LINE
  8
_0-3______1
  6
CONTINUOUS
 62
    7
 10
39.365946139921448
 20
12.762293172909928
 11
39.416657945464408
 21
12.762293172909928
  0
LINE
  8
_0-3______1
  6
CONTINUOUS
 62
    7
 10
31.187013850299508
 20
9.5449874011448141
 11
31.187013850299508
 21
9.8159097101048935
  0
LINE
  8
_0-3______1
  6
CONTINUOUS
 62
    7
 10
31.288713069024148
 20
9.5110876615699222
 11
31.288713069024148
 21
9.7651979045620241
  0
LINE
  8
_0-3______1
  6
CONTINUOUS
 62
    7
 10
31.542823312016157
 20
9.5110876615699222
 11
31.542823312016157
 21
9.7651979045620241
  0
LINE
  8
_0-3______1
  6
CONTINUOUS
 62
    7
 10
33.862612807963998
 20
40.245060093122582
 11
33.185169231744467
 21
40.008037523737372
  0
LINE
  8
_0-3______1
  6
CONTINUOUS
 62
    7
 10
48.154246918974401
 20
17.656120211617054
 11
48.374457422391608
 21
17.588320732467288
  0
LINE
  8
_0-3______1
  6
CONTINUOUS
 62
    7
 10
32.152467409086007
 20
36.011726760847615
 11
32.152467409086007
 21
28.916759314704656
  0
LINE
  8
_0-3______1
  6
CONTINUOUS
 62
    7
 10
32.152467409086007
 20
14.252503676009617
 11
32.152467409086007
 21
10.628676636984984
  0
LINE
  8
_0-3______1
  6
CONTINUOUS
 62
    7
 10
32.152467409086007
 20
8.647471125327522
 11
32.152467409086007
 21
2.1789598422224117
  0
LINE
  8
_0-3______1
  6
CONTINUOUS
 62
    7
 10
32.457013849981983
 20
7.2420099711650412
 11
32.457013849981983
 21
4.8206590603120025
  0
LINE
  8
_0-3______1
  6
CONTINUOUS
 62
    7
 10
32.711124092974089
 20
39.364631490912167
 11
32.711124092974089
 21
37.281726760530091
  0
LINE
  8
_0-3______1
  6
CONTINUOUS
 62
    7
 10
32.897434856816396
 20
6.700165353244893
 11
32.897434856816396
 21
4.8206590603120025
  0
LINE
  8
_0-3______1
  6
CONTINUOUS
 62
    7
 10
33.507078953886229
 20
38.043781881867382
 11
33.507078953886229
 21
38.077681621442181
  0
LINE
  8
_0-3______1
  6
CONTINUOUS
 62
    7
 10
32.761835898516964
 20
36.841581361334583
 11
32.575800742313433
 21
36.756832012397446
  0
LINE
  8
_0-3______1
  6
CONTINUOUS
 62
    7
 10
33.794813328814243
 20
36.570659052374502
 11
33.608502564971921
 21
36.502859573224804
  0
LINE
  8
_0-3______1
  6
CONTINUOUS
 62
    7
 10
35.318923571488789
 20
39.110659051739525
 11
35.47133459575624
 21
39.178320727069853
  0
LINE
  8
_0-3______1
  6
CONTINUOUS
 62
    7
 10
34.844602825079598
 20
38.348603930402263
 11
34.844602825079598
 21
37.620448548639857
  0
LINE
  8
_0-3______1
  6
CONTINUOUS
 62
    7
 10
34.94630204380416
 20
39.059809442377222
 11
34.94630204380416
 21
39.110659051739525
  0
LINE
  8
_0-3______1
  6
CONTINUOUS
 62
    7
 10
35.742256904716321
 20
8.6306590593595214
 11
35.742256904716321
 21
8.3765488163675439
  0
LINE
  8
_0-3______1
  6
CONTINUOUS
 62
    7
 10
35.860768189408866
 20
8.5967593197846561
 11
35.860768189408866
 21
8.3258370108245838
  0
LINE
  8
_0-3______1
  6
CONTINUOUS
 62
    7
 10
35.894667928983758
 20
45.799243034442405
 11
35.894667928983758
 21
40.499170336114666
  0
LINE
  8
_0-3______1
  6
CONTINUOUS
 62
    7
 10
36.080978692826072
 20
8.5967593197846561
 11
36.080978692826072
 21
8.3258370108245838
  0
LINE
  8
_0-3______1
  6
CONTINUOUS
 62
    7
 10
39.873891018266733
 20
37.942220466962183
 11
41.245590236673749
 21
38.348603930402263
  0
LINE
  8
_0-3______1
  6
CONTINUOUS
 62
    7
 10
40.347936157037111
 20
37.163215475837525
 11
41.736723049051022
 21
37.552649069490101
  0
LINE
  8
_0-3______1
  6
CONTINUOUS
 62
    7
 10
38.112758206206969
 20
39.398393426667624
 11
38.112758206206969
 21
39.500092645392172
  0
LINE
  8
_0-3______1
  6
CONTINUOUS
 62
    7
 10
36.707434855863823
 20
0.9937091914770462
 11
36.707434855863823
 21
1.7386766392075232
  0
LINE
  8
_0-3______1
  6
CONTINUOUS
 62
    7
 10
36.978357164823912
 20
3.6522204755346537
 11
36.978357164823912
 21
7.2589598409524116
  0
LINE
  8
_0-3______1
  6
CONTINUOUS
 62
    7
 10
37.080056383548474
 20
7.5468320196999237
 11
37.080056383548474
 21
8.8846314985321637
  0
LINE
  8
_0-3______1
  6
CONTINUOUS
 62
    7
 10
37.317078952933677
 20
7.5468320196999237
 11
37.317078952933677
 21
8.8846314985321637
  0
LINE
  8
_0-3______1
  6
CONTINUOUS
 62
    7
 10
37.604813327861756
 20
0.9767593216897069
 11
37.604813327861756
 21
1.7386766392075232
  0
LINE
  8
_0-3______1
  6
CONTINUOUS
 62
    7
 10
37.807936157672081
 20
1.7725763787824236
 11
37.807936157672081
 21
1.0274711272325021
  0
LINE
  8
_0-3______1
  6
CONTINUOUS
 62
    7
 10
38.282256904081279
 20
0.7227868825170618
 11
38.282256904081279
 21
0.654987403367295
  0
LINE
  8
_0-3______1
  6
CONTINUOUS
 62
    7
 10
38.858001261576227
 20
39.195270596857227
 11
38.858001261576227
 21
39.296832011762426
  0
LINE
  8
_0-3______1
  6
CONTINUOUS
 62
    7
 10
38.739489976883689
 20
1.2985312400120108
 11
38.739489976883689
 21
1.3322931757674554
  0
LINE
  8
_0-3______1
  6
CONTINUOUS
 62
    7
 10
39.027224351811682
 20
38.907398418109771
 11
39.027224351811682
 21
38.975060093440085
  0
LINE
  8
_0-3______1
  6
CONTINUOUS
 62
    7
 10
39.416657945464408
 20
37.180165345624893
 11
39.416657945464408
 21
27.054065087739765
  0
LINE
  8
_0-3______1
  6
CONTINUOUS
 62
    7
 10
39.416657945464408
 20
12.372859579257288
 11
39.416657945464408
 21
3.3304485572123443
  0
LINE
  8
_0-3______1
  6
CONTINUOUS
 62
    7
 10
39.501269490582082
 20
38.788887133417212
 11
39.501269490582082
 21
38.958248027472088
  0
LINE
  8
_0-3______1
  6
CONTINUOUS
 62
    7
 10
39.907790757841603
 20
38.704137784480018
 11
39.907790757841603
 21
39.025909702802323
  0
LINE
  8
_0-3______1
  6
CONTINUOUS
 62
    7
 10
40.347936157037111
 20
3.3304485572123443
 11
40.347936157037111
 21
37.163215475837525
  0
LINE
  8
_0-3______1
  6
CONTINUOUS
 62
    7
 10
40.483535115336551
 20
38.585626499787466
 11
40.483535115336551
 21
38.534914694244577
  0
LINE
  8
_0-3______1
  6
CONTINUOUS
 62
    7
 10
40.517434854911357
 20
0.4179648339821824
 11
40.517434854911357
 21
2.5007317605447215
  0
LINE
  8
_0-3______1
  6
CONTINUOUS
 62
    7
 10
39.365946139921448
 20
26.715481103449452
 11
39.416657945464408
 21
26.732293169417449
  0
LINE
  8
_0-3______1
  6
CONTINUOUS
 62
    7
 10
39.128923570536301
 20
27.087964827314654
 11
39.162823310111108
 21
27.121726763070093
  0
LINE
  8
_0-3______1
  6
CONTINUOUS
 62
    7
 10
40.974667927713767
 20
0.4179648339821824
 11
40.974667927713767
 21
2.5007317605447215
  0
LINE
  8
_0-3______1
  6
CONTINUOUS
 62
    7
 10
32.169279475053997
 20
28.764348290437212
 11
32.101479995904235
 21
28.730448550862338
  0
LINE
  8
_0-3______1
  6
CONTINUOUS
 62
    7
 10
43.226657944511842
 20
37.925270597174752
 11
43.226657944511842
 21
1.0444209970199325
  0
LINE
  8
_0-3______1
  6
CONTINUOUS
 62
    7
 10
43.260557684086713
 20
43.885837001934647
 11
43.260557684086713
 21
38.450165345307468
  0
LINE
  8
_0-3______1
  6
CONTINUOUS
 62
    7
 10
43.260557684086713
 20
0.7397367523044921
 11
43.260557684086713
 21
0.384065094407282
  0
LINE
  8
_0-3______1
  6
CONTINUOUS
 62
    7
 10
43.988713065849133
 20
43.885837001934647
 11
43.988713065849133
 21
15.319243042062332
  0
LINE
  8
_0-3______1
  6
CONTINUOUS
 62
    7
 10
43.988713065849133
 20
3.6183207359598555
 11
43.988713065849133
 21
0.384065094407282
  0
LINE
  8
_0-3______1
  6
CONTINUOUS
 62
    7
 10
33.236156644926147
 20
5.6673257267669648
 11
32.897434856816396
 21
4.8206590603120025
  0
LINE
  8
_0-3______1
  6
CONTINUOUS
 62
    7
 10
33.489991280279355
 20
5.6673257267669648
 11
32.812823311698637
 21
3.9908044598250627
  0
LINE
  8
_0-3______1
  6
CONTINUOUS
 62
    7
 10
32.474101523588892
 20
28.815060095980087
 11
32.524813329131746
 21
28.815060095980087
  0
LINE
  8
_0-3______1
  6
CONTINUOUS
 62
    7
 10
33.151269492169597
 20
35.740804451887541
 11
32.152467409086007
 21
36.011726760847615
  0
LINE
  8
_0-3______1
  6
CONTINUOUS
 62
    7
 10
36.673535116289024
 20
2.9918645729220033
 11
36.87665794609935
 21
3.5506590606295223
  0
LINE
  8
_0-3______1
  6
CONTINUOUS
 62
    7
 10
33.608502564971921
 20
36.502859573224804
 11
32.575800742313433
 21
36.756832012397446
  0
LINE
  8
_0-3______1
  6
CONTINUOUS
 62
    7
 10
32.761835898516964
 20
36.841581361334583
 11
33.794813328814243
 21
36.570659052374502
  0
LINE
  8
_0-3______1
  6
CONTINUOUS
 62
    7
 10
32.711124092974089
 20
37.281726760530091
 11
33.997936158624555
 21
36.943142776239782
  0
LINE
  8
_0-3______1
  6
CONTINUOUS
 62
    7
 10
49.204312022878568
 20
43.564065083612263
 11
49.204312022878568
 21
43.242293165289929
  0
LINE
  8
_0-3______1
  6
CONTINUOUS
 62
    7
 10
49.559845876956317
 20
49.609243033489861
 11
49.559845876956317
 21
49.93101495181218
  0
LINE
  8
_0-3______1
  6
CONTINUOUS
 62
    7
 10
43.226657944511842
 20
37.925270597174752
 11
41.855234333743603
 21
37.586548809064972
  0
LINE
  8
_0-3______1
  6
CONTINUOUS
 62
    7
 10
39.416657945464408
 20
37.180165345624893
 11
34.844602825079598
 21
38.348603930402263
  0
LINE
  8
_0-3______1
  6
CONTINUOUS
 62
    7
 10
34.94630204380416
 20
39.110659051739525
 11
34.167434856498879
 21
39.313781881549858
  0
LINE
  8
_0-3______1
  6
CONTINUOUS
 62
    7
 10
33.794813328814243
 20
39.415481100274405
 11
32.96523433596608
 21
39.635553799872177
  0
LINE
  8
_0-3______1
  6
CONTINUOUS
 62
    7
 10
39.873891018266733
 20
37.942220466962183
 11
35.318923571488789
 21
39.110659051739525
  0
LINE
  8
_0-3______1
  6
CONTINUOUS
 62
    7
 10
35.183324613189363
 20
39.500092645392172
 11
33.185169231744467
 21
40.008037523737372
  0
LINE
  8
_0-3______1
  6
CONTINUOUS
 62
    7
 10
51.473389713283524
 20
42.649736741826977
 11
51.473389713283524
 21
42.971370856329941
  0
LINE
  8
_0-3______1
  6
CONTINUOUS
 62
    7
 10
42.769424871709518
 20
38.687325718512014
 11
41.364101521366408
 21
38.365553800189694
  0
LINE
  8
_0-3______1
  6
CONTINUOUS
 62
    7
 10
35.488146661724251
 20
40.583781881232333
 11
39.365946139921448
 21
39.567754320722507
  0
LINE
  8
_0-3______1
  6
CONTINUOUS
 62
    7
 10
41.076091538799517
 20
39.110659051739525
 11
42.769424871709518
 21
38.687325718512014
  0
LINE
  8
_0-3______1
  6
CONTINUOUS
 62
    7
 10
52.404667924856234
 20
42.649736741826977
 11
52.404667924856234
 21
42.971370856329941
  0
LINE
  8
_0-3______1
  6
CONTINUOUS
 62
    7
 10
49.40743485268888
 20
43.174631489959609
 11
49.08580073818591
 21
43.123781880597384
  0
LINE
  8
_0-3______1
  6
CONTINUOUS
 62
    7
 10
50.745234331521132
 20
43.953498677264882
 11
49.204312022878568
 21
43.564065083612263
  0
LINE
  8
_0-3______1
  6
CONTINUOUS
 62
    7
 10
35.488146661724251
 20
40.583781881232333
 11
33.997936158624555
 21
40.278959832697467
  0
LINE
  8
_0-3______1
  6
CONTINUOUS
 62
    7
 10
54.317936153544565
 20
43.140731750384724
 11
54.317936153544565
 21
43.462503668707136
  0
LINE
  8
_0-3______1
  6
CONTINUOUS
 62
    7
 10
32.169279475053997
 20
14.489526245394812
 11
32.101479995904235
 21
14.455626505819943
  0
LINE
  8
_0-3______1
  6
CONTINUOUS
 62
    7
 10
32.406302044439201
 20
14.100092651742171
 11
32.321690499321441
 21
14.083142781954733
  0
LINE
  8
_0-3______1
  6
CONTINUOUS
 62
    7
 10
40.890056382596001
 20
43.37775431977002
 11
41.127078951981197
 21
43.445553798919697
  0
LINE
  8
_0-3______1
  6
CONTINUOUS
 62
    7
 10
46.478001259671188
 20
42.920659050787037
 11
46.240978690286077
 21
42.971370856329941
  0
LINE
  8
_0-3______1
  6
CONTINUOUS
 62
    7
 10
43.988713065849133
 20
43.885837001934647
 11
43.73460282285712
 21
43.953498677264882
  0
LINE
  8
_0-3______1
  6
CONTINUOUS
 62
    7
 10
48.018923568313767
 20
43.445553798919697
 11
48.272758203666967
 21
43.37775431977002
  0
LINE
  8
_0-3______1
  6
CONTINUOUS
 62
    7
 10
41.753535115019019
 20
45.274348286309696
 11
41.838146660136793
 21
45.291298156097128
  0
LINE
  8
_0-3______1
  6
CONTINUOUS
 62
    7
 10
49.08580073818591
 20
47.966759309942177
 11
43.988713065849133
 21
46.64590970089737
  0
LINE
  8
_0-3______1
  6
CONTINUOUS
 62
    7
 10
43.260557684086713
 20
46.64590970089737
 11
43.497580253471916
 21
46.713709180047033
  0
LINE
  8
_0-3______1
  6
CONTINUOUS
 62
    7
 10
48.729991276469363
 20
48.559453537224556
 11
43.616091538164483
 21
47.238603928179771
  0
LINE
  8
_0-3______1
  6
CONTINUOUS
 62
    7
 10
37.909635376396636
 20
46.391937261724728
 11
37.689424872979522
 21
46.442786871087058
  0
LINE
  8
_0-3______1
  6
CONTINUOUS
 62
    7
 10
45.529635374491683
 20
44.410731750067292
 11
45.749845877908889
 21
44.359882140704961
  0
LINE
  8
_0-3______1
  6
CONTINUOUS
 62
    7
 10
38.858001261576227
 20
46.307325716606954
 11
38.620978692191031
 21
46.358037522149914
  0
LINE
  8
_0-3______1
  6
CONTINUOUS
 62
    7
 10
46.478001259671188
 20
44.326120204949518
 11
46.697936155449611
 21
44.275270595587223
  0
LINE
  8
_0-3______1
  6
CONTINUOUS
 62
    7
 10
43.73460282285712
 20
45.240448546734818
 11
43.988713065849133
 21
45.18959893737258
  0
LINE
  8
_0-3______1
  6
CONTINUOUS
 62
    7
 10
35.894667928983758
 20
48.559453537224556
 11
43.260557684086713
 21
46.64590970089737
  0
LINE
  8
_0-3______1
  6
CONTINUOUS
 62
    7
 10
43.988713065849133
 20
46.64590970089737
 11
43.73460282285712
 21
46.713709180047033
  0
LINE
  8
_0-3______1
  6
CONTINUOUS
 62
    7
 10
35.894667928983758
 20
48.745626497247464
 11
35.928567668558564
 21
48.745626497247464
  0
LINE
  8
_0-3______1
  6
CONTINUOUS
 62
    7
 10
31.661334596708731
 20
10.408603937387282
 11
32.575800742313433
 21
10.713425985922164
  0
LINE
  8
_0-3______1
  6
CONTINUOUS
 62
    7
 10
39.298146660771771
 20
12.305197903926988
 11
39.230347181622072
 21
12.28824803413954
  0
LINE
  8
_0-3______1
  6
CONTINUOUS
 62
    7
 10
46.223891016679197
 20
49.710804448395059
 11
46.833535113749029
 21
49.880165342449935
  0
LINE
  8
_0-3______1
  6
CONTINUOUS
 62
    7
 10
36.26701384902951
 20
49.118248024932086
 11
43.616091538164483
 21
47.238603928179771
  0
LINE
  8
_0-3______1
  6
CONTINUOUS
 62
    7
 10
35.623745620023691
 20
9.3586766373024837
 11
36.605735637139276
 21
9.6465488160500126
  0
LINE
  8
_0-3______1
  6
CONTINUOUS
 62
    7
 10
36.080978692826072
 20
8.5967593197846561
 11
37.080056383548474
 21
8.8846314985321637
  0
LINE
  8
_0-3______1
  6
CONTINUOUS
 62
    7
 10
44.090412284573667
 20
50.286548805890014
 11
44.666156642068628
 21
50.422009960370019
  0
LINE
  8
_0-3______1
  6
CONTINUOUS
 62
    7
 10
36.26701384902951
 20
49.118248024932086
 11
44.937078951028731
 21
51.387325715336971
  0
LINE
  8
_0-3______1
  6
CONTINUOUS
 62
    7
 10
43.226657944511842
 20
1.0444209970199325
 11
41.855234333743603
 21
0.5703758582496277
  0
LINE
  8
_0-3______1
  6
CONTINUOUS
 62
    7
 10
38.891901001151133
 20
1.2476816306496801
 11
38.891901001151133
 21
1.2815813702245862
  0
LINE
  8
_0-3______1
  6
CONTINUOUS
 62
    7
 10
38.891901001151133
 20
1.2476816306496801
 11
38.891901001151133
 21
1.1968320212874459
  0
LINE
  8
_0-3______1
  6
CONTINUOUS
 62
    7
 10
31.407224353716721
 20
9.0370425227996041
 11
31.390412287748717
 21
9.0539923925870429
  0
LINE
  8
_0-3______1
  6
CONTINUOUS
 62
    7
 10
35.962467408133442
 20
7.8855538078096945
 11
35.962467408133442
 21
7.8686039380222645
  0
LINE
  8
_0-3______1
  6
CONTINUOUS
 62
    7
 10
36.792046400981597
 20
7.4113708652199426
 11
36.809134074588471
 21
7.4113708652199426
  0
LINE
  8
_0-3______1
  6
CONTINUOUS
 62
    7
 10
33.65948997815368
 20
37.993070076324493
 11
33.65948997815368
 21
38.026832012079943
  0
LINE
  8
_0-3______1
  6
CONTINUOUS
 62
    7
 10
33.65948997815368
 20
37.993070076324493
 11
33.65948997815368
 21
37.959170336749615
  0
LINE
  8
_0-3______1
  6
CONTINUOUS
 62
    7
 10
51.524101518826413
 20
45.189736741191929
 11
51.540913584794396
 21
45.189736741191929
  0
LINE
  8
_0-3______1
  6
CONTINUOUS
 62
    7
 10
48.052823307888637
 20
59.549170331352094
 11
48.018923568313767
 21
59.549170331352094
  0
LINE
  8
_0-3______1
  6
CONTINUOUS
 62
    7
 10
40.41573563618681
 20
-0.1238797839379969
 11
40.652758205571992
 21
-0.1408296537253363
  0
LINE
  8
_0-3______1
  6
CONTINUOUS
 62
    7
 10
32.457013849981983
 20
1.6371152243023346
 11
37.012256904398797
 21
0.4518645735569635
  0
LINE
  8
_0-3______1
  6
CONTINUOUS
 62
    7
 10
39.518357164188956
 20
0.384065094407282
 11
39.416657945464408
 21
0.3501653548324157
  0
LINE
  8
_0-3______1
  6
CONTINUOUS
 62
    7
 10
39.349134073953451
 20
0.5364761186747216
 11
39.196723049686
 21
0.4686766395249833
  0
LINE
  8
_0-3______1
  6
CONTINUOUS
 62
    7
 10
39.162823310111108
 20
0.5364761186747216
 11
39.010412285843678
 21
0.485626509312425
  0
LINE
  8
_0-3______1
  6
CONTINUOUS
 62
    7
 10
41.380913587334398
 20
0.0285312403295336
 11
40.652758205571992
 21
-0.1408296537253363
  0
LINE
  8
_0-3______1
  6
CONTINUOUS
 62
    7
 10
37.804745682212157
 20
0.4833843622864833
 11
38.383680515167036
 21
0.4179648339821824
  0
LINE
  8
_0-3______1
  6
CONTINUOUS
 62
    7
 10
37.299991279326868
 20
0.4518645735569635
 11
37.804745682212157
 21
0.4833843622864833
  0
LINE
  8
_0-3______1
  6
CONTINUOUS
 62
    7
 10
38.739489976883689
 20
1.2985312400120108
 11
38.079134074270939
 21
1.2646315004371447
  0
LINE
  8
_0-3______1
  6
CONTINUOUS
 62
    7
 10
38.383680515167036
 20
0.4179648339821824
 11
40.41573563618681
 21
-0.1238797839379969
  0
LINE
  8
_0-3______1
  6
CONTINUOUS
 62
    7
 10
38.790201782426472
 20
1.2815813702245862
 11
38.705590237308797
 21
1.2985312400120108
  0
LINE
  8
_0-3______1
  6
CONTINUOUS
 62
    7
 10
48.289845877273841
 20
59.701581355619538
 11
48.018923568313767
 21
59.549170331352094
  0
LINE
  8
_0-3______1
  6
CONTINUOUS
 62
    7
 10
48.950201779886562
 20
60.378887128019691
 11
48.289845877273841
 21
59.701581355619538
  0
LINE
  8
_0-3______1
  6
CONTINUOUS
 62
    7
 10
49.237936154814562
 20
60.582009957830024
 11
48.950201779886562
 21
60.378887128019691
  0
LINE
  8
_0-3______1
  6
CONTINUOUS
 62
    7
 10
49.39034717908207
 20
60.615909697404895
 11
49.237936154814562
 21
60.582009957830024
  0
LINE
  8
_0-3______1
  6
CONTINUOUS
 62
    7
 10
46.322170982711192
 20
56.057544412028896
 11
47.409279471244012
 21
52.91129815419211
  0
LINE
  8
_0-3______1
  6
CONTINUOUS
 62
    7
 10
46.140062647588962
 20
56.91497614495529
 11
46.322170982711192
 21
56.057544412028896
  0
LINE
  8
_0-3______1
  6
CONTINUOUS
 62
    7
 10
46.074607691260951
 20
57.741692872121376
 11
46.140062647588962
 21
56.91497614495529
  0
LINE
  8
_0-3______1
  6
CONTINUOUS
 62
    7
 10
46.143414871353741
 20
58.408957740886173
 11
46.074607691260951
 21
57.741692872121376
  0
LINE
  8
_0-3______1
  6
CONTINUOUS
 62
    7
 10
46.349654667702396
 20
58.891367402222727
 11
46.143414871353741
 21
58.408957740886173
  0
LINE
  8
_0-3______1
  6
CONTINUOUS
 62
    7
 10
46.850040442863452
 20
59.377793118068894
 11
46.349654667702396
 21
58.891367402222727
  0
LINE
  8
_0-3______1
  6
CONTINUOUS
 62
    7
 10
47.358567665701116
 20
59.599882136894962
 11
46.850040442863452
 21
59.377793118068894
  0
LINE
  8
_0-3______1
  6
CONTINUOUS
 62
    7
 10
38.790201782426472
 20
1.2307317608622554
 11
38.451479994316813
 21
1.1461202157444859
  0
LINE
  8
_0-3______1
  6
CONTINUOUS
 62
    7
 10
38.705590237308797
 20
1.2985312400120108
 11
38.282256904081279
 21
1.17988215150001
  0
LINE
  8
_0-3______1
  6
CONTINUOUS
 62
    7
 10
38.485379733891591
 20
1.5016540698223253
 11
38.282256904081279
 21
1.4508044604600117
  0
LINE
  8
_0-3______1
  6
CONTINUOUS
 62
    7
 10
38.705590237308797
 20
2.3652706060647235
 11
38.53609153943448
 21
2.3144209967024838
  0
LINE
  8
_0-3______1
  6
CONTINUOUS
 62
    7
 10
38.858001261576227
 20
2.4498821511824875
 11
38.688502563701917
 21
2.3991703456396123
  0
LINE
  8
_0-3______1
  6
CONTINUOUS
 62
    7
 10
38.925800740725911
 20
2.653142784812252
 11
38.807013848394547
 21
2.6192430452373632
  0
LINE
  8
_0-3______1
  6
CONTINUOUS
 62
    7
 10
40.161901000833609
 20
2.8225036788671334
 11
39.975590236991273
 21
2.8055538090796919
  0
LINE
  8
_0-3______1
  6
CONTINUOUS
 62
    7
 10
38.705590237308797
 20
3.0764761180397047
 11
39.721479993999289
 21
2.8055538090796919
  0
LINE
  8
_0-3______1
  6
CONTINUOUS
 62
    7
 10
33.489991280279355
 20
5.6673257267669648
 11
36.87665794609935
 21
4.7698094509496913
  0
LINE
  8
_0-3______1
  6
CONTINUOUS
 62
    7
 10
36.87665794609935
 20
4.973070084579442
 11
33.930412287113676
 21
5.7349874020972953
  0
LINE
  8
_0-3______1
  6
CONTINUOUS
 62
    7
 10
36.87665794609935
 20
5.1422931748149727
 11
35.53913407490591
 21
5.481014962924724
  0
LINE
  8
_0-3______1
  6
CONTINUOUS
 62
    7
 10
35.522046401299114
 20
5.481014962924724
 11
33.540978693461042
 21
6.0228595808448038
  0
LINE
  8
_0-3______1
  6
CONTINUOUS
 62
    7
 10
38.33296870962414
 20
1.8064761183572047
 11
38.502467407498493
 21
1.6879648336646653
  0
LINE
  8
_0-3______1
  6
CONTINUOUS
 62
    7
 10
50.626723046828488
 20
59.345909697722327
 11
51.490201779251507
 21
59.650731746257293
  0
LINE
  8
_0-3______1
  6
CONTINUOUS
 62
    7
 10
51.490201779251507
 20
59.108887128337216
 11
50.626723046828488
 21
58.821014949589703
  0
LINE
  8
_0-3______1
  6
CONTINUOUS
 62
    7
 10
43.41296870835415
 20
3.7198821508649647
 11
43.497580253471916
 21
3.6861202151095371
  0
LINE
  8
_0-3______1
  6
CONTINUOUS
 62
    7
 10
43.73460282285712
 20
3.6861202151095371
 11
43.988713065849133
 21
3.6183207359598555
  0
LINE
  8
_0-3______1
  6
CONTINUOUS
 62
    7
 10
36.047078953251209
 20
6.3615813689545835
 11
35.77615664429112
 21
6.4461929140723448
  0
LINE
  8
_0-3______1
  6
CONTINUOUS
 62
    7
 10
35.420347182574552
 20
6.5308044591900147
 11
34.929489977836162
 21
6.6494535477020209
  0
LINE
  8
_0-3______1
  6
CONTINUOUS
 62
    7
 10
34.573680516119524
 20
6.7510149626072238
 11
34.353745620341194
 21
6.8018645719694639
  0
LINE
  8
_0-3______1
  6
CONTINUOUS
 62
    7
 10
34.336657946734412
 20
6.8018645719694639
 11
34.099635377349102
 21
6.8695262472997713
  0
LINE
  8
_0-3______1
  6
CONTINUOUS
 62
    7
 10
33.744101523271354
 20
6.9541377924175327
 11
33.252968710894145
 21
7.0727868809295336
  0
LINE
  8
_0-3______1
  6
CONTINUOUS
 62
    7
 10
32.914246922784393
 20
7.1743482958347418
 11
32.355590238896319
 21
7.3098094503147424
  0
LINE
  8
_0-3______1
  6
CONTINUOUS
 62
    7
 10
32.287790759746542
 20
7.7839923929044916
 11
32.897434856816396
 21
7.6146314988496249
  0
LINE
  8
_0-3______1
  6
CONTINUOUS
 62
    7
 10
33.117645360233603
 20
7.5637818894873821
 11
33.727013849664552
 21
7.3944209954324807
  0
LINE
  8
_0-3______1
  6
CONTINUOUS
 62
    7
 10
33.947224353081673
 20
7.3437091898896147
 11
34.556868450151512
 21
7.1743482958347418
  0
LINE
  8
_0-3______1
  6
CONTINUOUS
 62
    7
 10
34.777078953568733
 20
7.1404485562598445
 11
35.386723050638487
 21
6.9710876622049627
  0
LINE
  8
_0-3______1
  6
CONTINUOUS
 62
    7
 10
35.77615664429112
 20
6.9880375319924015
 11
35.623745620023691
 21
7.0049874017798635
  0
LINE
  8
_0-3______1
  6
CONTINUOUS
 62
    7
 10
35.386723050638487
 20
7.800804458872566
 11
34.777078953568733
 21
7.9701653529274612
  0
LINE
  8
_0-3______1
  6
CONTINUOUS
 62
    7
 10
34.556868450151512
 20
8.0210149622897031
 11
33.947224353081673
 21
8.1903758563445717
  0
LINE
  8
_0-3______1
  6
CONTINUOUS
 62
    7
 10
33.727013849664552
 20
8.2241377921000041
 11
33.117645360233603
 21
8.3934986861548833
  0
LINE
  8
_0-3______1
  6
CONTINUOUS
 62
    7
 10
32.897434856816396
 20
8.444348295517214
 11
32.287790759746542
 21
8.613709189572095
  0
LINE
  8
_0-3______1
  6
CONTINUOUS
 62
    7
 10
32.253891020171679
 20
8.5967593197846561
 11
31.390412287748717
 21
9.0539923925870429
  0
LINE
  8
_0-3______1
  6
CONTINUOUS
 62
    7
 10
48.323745616848711
 20
59.362859567509787
 11
48.272758203666967
 21
59.345909697722327
  0
LINE
  8
_0-3______1
  6
CONTINUOUS
 62
    7
 10
49.255023828421443
 20
60.260375843327147
 11
49.44133459226375
 21
60.328037518657368
  0
LINE
  8
_0-3______1
  6
CONTINUOUS
 62
    7
 10
48.501146107181043
 20
59.471490152656408
 11
49.255023828421443
 21
60.260375843327147
  0
LINE
  8
_0-3______1
  6
CONTINUOUS
 62
    7
 10
48.222046398124064
 20
59.295060088360088
 11
48.501146107181043
 21
59.471490152656408
  0
LINE
  8
_0-3______1
  6
CONTINUOUS
 62
    7
 10
48.990783389814226
 20
59.379124186273373
 11
49.44133459226375
 21
59.515270591777295
  0
LINE
  8
_0-3______1
  6
CONTINUOUS
 62
    7
 10
48.35764535642361
 20
59.041087649187432
 11
48.990783389814226
 21
59.379124186273373
  0
LINE
  8
_0-3______1
  6
CONTINUOUS
 62
    7
 10
35.522046401299114
 20
5.481014962924724
 11
35.53913407490591
 21
5.481014962924724
  0
LINE
  8
_0-3______1
  6
CONTINUOUS
 62
    7
 10
33.185169231744467
 20
5.6673257267669648
 11
33.236156644926147
 21
5.6673257267669648
  0
LINE
  8
_0-3______1
  6
CONTINUOUS
 62
    7
 10
35.860768189408866
 20
7.9194535473845722
 11
35.251124092339047
 21
8.0886766376200026
  0
LINE
  8
_0-3______1
  6
CONTINUOUS
 62
    7
 10
35.048001262528707
 20
8.1564761167697011
 11
34.42126949185208
 21
8.3088871410372125
  0
LINE
  8
_0-3______1
  6
CONTINUOUS
 62
    7
 10
34.218146662041761
 20
8.3597367503994544
 11
33.591690499003917
 21
8.5120099708475419
  0
LINE
  8
_0-3______1
  6
CONTINUOUS
 62
    7
 10
33.388567669193591
 20
8.5798094499972226
 11
32.761835898516964
 21
8.732220474264663
  0
LINE
  8
_0-3______1
  6
CONTINUOUS
 62
    7
 10
35.691269491534648
 20
8.3934986861548833
 11
34.353745620341194
 21
8.7491703440520929
  0
LINE
  8
_0-3______1
  6
CONTINUOUS
 62
    7
 10
34.336657946734412
 20
8.7491703440520929
 11
32.355590238896319
 21
9.2571152223973723
  0
LINE
  8
_0-3______1
  6
CONTINUOUS
 62
    7
 10
35.58984588044887
 20
8.8846314985321637
 11
35.691269491534648
 21
8.647471125327522
  0
LINE
  8
_0-3______1
  6
CONTINUOUS
 62
    7
 10
31.610347183527047
 20
9.9174711250100227
 11
35.58984588044887
 21
8.8846314985321637
  0
LINE
  8
_0-3______1
  6
CONTINUOUS
 62
    7
 10
36.809134074588471
 20
7.4113708652199426
 11
36.87665794609935
 21
7.3098094503147424
  0
LINE
  8
_0-3______1
  6
CONTINUOUS
 62
    7
 10
33.540978693461042
 20
6.0228595808448038
 11
32.355590238896319
 21
7.3098094503147424
  0
LINE
  8
_0-3______1
  6
CONTINUOUS
 62
    7
 10
32.914246922784393
 20
7.1743482958347418
 11
32.999134075540944
 21
7.0897367507169724
  0
LINE
  8
_0-3______1
  6
CONTINUOUS
 62
    7
 10
33.252968710894145
 20
7.0727868809295336
 11
33.337580256011904
 21
6.9880375319924015
  0
LINE
  8
_0-3______1
  6
CONTINUOUS
 62
    7
 10
33.744101523271354
 20
6.9541377924175327
 11
33.811901002421131
 21
6.8695262472997713
  0
LINE
  8
_0-3______1
  6
CONTINUOUS
 62
    7
 10
34.099635377349102
 20
6.8695262472997713
 11
34.167434856498879
 21
6.7849147021820961
  0
LINE
  8
_0-3______1
  6
CONTINUOUS
 62
    7
 10
35.522046401299114
 20
5.481014962924724
 11
34.336657946734412
 21
6.8018645719694639
  0
LINE
  8
_0-3______1
  6
CONTINUOUS
 62
    7
 10
35.53913407490591
 20
5.481014962924724
 11
34.353745620341194
 21
6.8018645719694639
  0
LINE
  8
_0-3______1
  6
CONTINUOUS
 62
    7
 10
34.573680516119524
 20
6.7510149626072238
 11
34.641479995269286
 21
6.6494535477020209
  0
LINE
  8
_0-3______1
  6
CONTINUOUS
 62
    7
 10
34.929489977836162
 20
6.6494535477020209
 11
35.014101522953908
 21
6.5647041987648924
  0
LINE
  8
_0-3______1
  6
CONTINUOUS
 62
    7
 10
35.488146661724251
 20
6.4461929140723448
 11
35.77615664429112
 21
6.5308044591900147
  0
LINE
  8
_0-3______1
  6
CONTINUOUS
 62
    7
 10
35.420347182574552
 20
6.5308044591900147
 11
35.488146661724251
 21
6.4461929140723448
  0
LINE
  8
_0-3______1
  6
CONTINUOUS
 62
    7
 10
34.641479995269286
 20
6.6494535477020209
 11
34.929489977836162
 21
6.7340650928197654
  0
LINE
  8
_0-3______1
  6
CONTINUOUS
 62
    7
 10
35.860768189408866
 20
7.0897367507169724
 11
35.386723050638487
 21
6.9710876622049627
  0
LINE
  8
_0-3______1
  6
CONTINUOUS
 62
    7
 10
33.811901002421131
 20
6.8695262472997713
 11
34.099635377349102
 21
6.9541377924175327
  0
LINE
  8
_0-3______1
  6
CONTINUOUS
 62
    7
 10
34.777078953568733
 20
7.2420099711650412
 11
34.556868450151512
 21
7.1743482958347418
  0
LINE
  8
_0-3______1
  6
CONTINUOUS
 62
    7
 10
32.999134075540944
 20
7.0897367507169724
 11
33.252968710894145
 21
7.1743482958347418
  0
LINE
  8
_0-3______1
  6
CONTINUOUS
 62
    7
 10
35.860768189408866
 20
7.9194535473845722
 11
35.386723050638487
 21
7.800804458872566
  0
LINE
  8
_0-3______1
  6
CONTINUOUS
 62
    7
 10
33.947224353081673
 20
7.4622204745821854
 11
33.727013849664552
 21
7.3944209954324807
  0
LINE
  8
_0-3______1
  6
CONTINUOUS
 62
    7
 10
35.251124092339047
 20
8.0886766376200026
 11
34.777078953568733
 21
7.9701653529274612
  0
LINE
  8
_0-3______1
  6
CONTINUOUS
 62
    7
 10
35.048001262528707
 20
8.1564761167697011
 11
34.556868450151512
 21
8.0210149622897031
  0
LINE
  8
_0-3______1
  6
CONTINUOUS
 62
    7
 10
33.117645360233603
 20
7.6653433043924908
 11
32.897434856816396
 21
7.6146314988496249
  0
LINE
  8
_0-3______1
  6
CONTINUOUS
 62
    7
 10
34.42126949185208
 20
8.3088871410372125
 11
33.947224353081673
 21
8.1903758563445717
  0
LINE
  8
_0-3______1
  6
CONTINUOUS
 62
    7
 10
34.218146662041761
 20
8.3597367503994544
 11
33.727013849664552
 21
8.2241377921000041
  0
LINE
  8
_0-3______1
  6
CONTINUOUS
 62
    7
 10
35.77615664429112
 20
6.4461929140723448
 11
35.84368051580207
 21
6.344631499167142
  0
LINE
  8
_0-3______1
  6
CONTINUOUS
 62
    7
 10
36.047078953251209
 20
6.3615813689545835
 11
36.87665794609935
 21
5.4301653535624128
  0
LINE
  8
_0-3______1
  6
CONTINUOUS
 62
    7
 10
33.591690499003917
 20
8.5120099708475419
 11
33.117645360233603
 21
8.3934986861548833
  0
LINE
  8
_0-3______1
  6
CONTINUOUS
 62
    7
 10
33.388567669193591
 20
8.5798094499972226
 11
32.897434856816396
 21
8.444348295517214
  0
LINE
  8
_0-3______1
  6
CONTINUOUS
 62
    7
 10
32.761835898516964
 20
8.732220474264663
 11
32.287790759746542
 21
8.613709189572095
  0
LINE
  8
_0-3______1
  6
CONTINUOUS
 62
    7
 10
39.230347181622072
 20
12.28824803413954
 11
32.321690499321441
 21
14.083142781954733
  0
LINE
  8
_0-3______1
  6
CONTINUOUS
 62
    7
 10
39.298146660771771
 20
12.305197903926988
 11
32.406302044439201
 21
14.100092651742171
  0
LINE
  8
_0-3______1
  6
CONTINUOUS
 62
    7
 10
32.474101523588892
 20
14.218603936434731
 11
39.128923570536301
 21
12.474420994162484
  0
LINE
  8
_0-3______1
  6
CONTINUOUS
 62
    7
 10
38.06410491250351
 20
44.806688332594014
 11
38.028146661089274
 21
44.207471116437524
  0
LINE
  8
_0-3______1
  6
CONTINUOUS
 62
    7
 10
38.271405929895117
 20
45.324636721915205
 11
38.06410491250351
 21
44.806688332594014
  0
LINE
  8
_0-3______1
  6
CONTINUOUS
 62
    7
 10
38.631841929436789
 20
45.689763884260572
 11
38.271405929895117
 21
45.324636721915205
  0
LINE
  8
_0-3______1
  6
CONTINUOUS
 62
    7
 10
39.128923570536301
 20
45.917754319134978
 11
38.631841929436789
 21
45.689763884260572
  0
LINE
  8
_0-3______1
  6
CONTINUOUS
 62
    7
 10
39.213535115653997
 20
12.474420994162484
 11
39.247434855228882
 21
12.491370863949946
  0
LINE
  8
_0-3______1
  6
CONTINUOUS
 62
    7
 10
49.86466792549129
 20
61.20860392468731
 11
49.729068967191836
 21
61.039243030632406
  0
LINE
  8
_0-3______1
  6
CONTINUOUS
 62
    7
 10
41.253914448640082
 20
44.810725637974564
 11
41.804246920561923
 21
45.325060091852585
  0
LINE
  8
_0-3______1
  6
CONTINUOUS
 62
    7
 10
40.754457424296561
 20
44.613992383697052
 11
41.253914448640082
 21
44.810725637974564
  0
LINE
  8
_0-3______1
  6
CONTINUOUS
 62
    7
 10
48.154246918974401
 20
17.656120211617054
 11
46.478001259671188
 21
17.232786878389543
  0
LINE
  8
_0-3______1
  6
CONTINUOUS
 62
    7
 10
31.187013850299508
 20
9.2571152223973723
 11
31.390412287748717
 21
9.0539923925870429
  0
LINE
  8
_0-3______1
  6
CONTINUOUS
 62
    7
 10
31.136302044756633
 20
9.561937270932253
 11
31.187013850299508
 21
9.2571152223973723
  0
LINE
  8
_0-3______1
  6
CONTINUOUS
 62
    7
 10
31.136302044756633
 20
9.561937270932253
 11
31.136302044756633
 21
9.8328595798923235
  0
LINE
  8
_0-3______1
  6
CONTINUOUS
 62
    7
 10
31.949068971636798
 20
36.130375849359623
 11
31.949068971636798
 21
10.544065091867285
  0
LINE
  8
_0-3______1
  6
CONTINUOUS
 62
    7
 10
31.949068971636798
 20
8.7491703440520929
 11
31.949068971636798
 21
2.2974711269150419
  0
LINE
  8
_0-3______1
  6
CONTINUOUS
 62
    7
 10
40.517434854911357
 20
46.391937261724728
 11
40.331124091069043
 21
46.222576367669852
  0
LINE
  8
_0-3______1
  6
CONTINUOUS
 62
    7
 10
33.507078953886229
 20
38.077681621442181
 11
33.354667929618721
 21
37.925270597174752
  0
LINE
  8
_0-3______1
  6
CONTINUOUS
 62
    7
 10
33.252968710894145
 20
37.772859572907286
 11
33.100557686626701
 21
37.586548809064972
  0
LINE
  8
_0-3______1
  6
CONTINUOUS
 62
    7
 10
33.507078953886229
 20
38.077681621442181
 11
33.489991280279355
 21
38.043781881867382
  0
LINE
  8
_0-3______1
  6
CONTINUOUS
 62
    7
 10
49.828618981933367
 20
50.993889219390894
 11
48.780978689651022
 21
54.011937259819774
  0
LINE
  8
_0-3______1
  6
CONTINUOUS
 62
    7
 10
50.015617935659108
 20
50.176577313481857
 11
49.828618981933367
 21
50.993889219390894
  0
LINE
  8
_0-3______1
  6
CONTINUOUS
 62
    7
 10
50.102905534328009
 20
49.380230676439943
 11
50.015617935659108
 21
50.176577313481857
  0
LINE
  8
_0-3______1
  6
CONTINUOUS
 62
    7
 10
50.070459966108956
 20
48.726297868810185
 11
50.102905534328009
 21
49.380230676439943
  0
LINE
  8
_0-3______1
  6
CONTINUOUS
 62
    7
 10
49.914498087996151
 20
48.237692001883282
 11
50.070459966108956
 21
48.726297868810185
  0
LINE
  8
_0-3______1
  6
CONTINUOUS
 62
    7
 10
49.519918692634235
 20
47.724902679153047
 11
49.914498087996151
 21
48.237692001883282
  0
LINE
  8
_0-3______1
  6
CONTINUOUS
 62
    7
 10
49.08580073818591
 20
47.441726757990089
 11
49.519918692634235
 21
47.724902679153047
  0
LINE
  8
_0-3______1
  6
CONTINUOUS
 62
    7
 10
32.711124092974089
 20
39.787964824139614
 11
32.60942487424952
 21
39.415343296454978
  0
LINE
  8
_0-3______1
  6
CONTINUOUS
 62
    7
 10
32.829635377666627
 20
39.940375848407143
 11
32.711124092974089
 21
39.787964824139614
  0
LINE
  8
_0-3______1
  6
CONTINUOUS
 62
    7
 10
32.999134075540944
 20
40.008037523737372
 11
32.829635377666627
 21
39.940375848407143
  0
LINE
  8
_0-3______1
  6
CONTINUOUS
 62
    7
 10
33.693389717728472
 20
40.245060093122582
 11
32.999134075540944
 21
40.008037523737372
  0
LINE
  8
_0-3______1
  6
CONTINUOUS
 62
    7
 10
48.306657943241838
 20
17.656120211617054
 11
48.526868446659037
 21
17.588320732467288
  0
LINE
  8
_0-3______1
  6
CONTINUOUS
 62
    7
 10
32.101479995904235
 20
28.730448550862338
 11
32.101479995904235
 21
14.455626505819943
  0
LINE
  8
_0-3______1
  6
CONTINUOUS
 62
    7
 10
32.169279475053997
 20
14.489526245394812
 11
32.169279475053997
 21
28.764348290437212
  0
LINE
  8
_0-3______1
  6
CONTINUOUS
 62
    7
 10
32.219991280596879
 20
28.561087656807445
 11
32.219991280596879
 21
14.591087660299927
  0
LINE
  8
_0-3______1
  6
CONTINUOUS
 62
    7
 10
32.287790759746542
 20
8.613709189572095
 11
32.287790759746542
 21
7.7839923929044916
  0
LINE
  8
_0-3______1
  6
CONTINUOUS
 62
    7
 10
32.355590238896319
 20
9.2571152223973723
 11
32.355590238896319
 21
8.6306590593595214
  0
LINE
  8
_0-3______1
  6
CONTINUOUS
 62
    7
 10
32.355590238896319
 20
7.750092653329606
 11
32.355590238896319
 21
7.3098094503147424
  0
LINE
  8
_0-3______1
  6
CONTINUOUS
 62
    7
 10
32.60942487424952
 20
39.415481100274405
 11
32.60942487424952
 21
37.349526239679754
  0
LINE
  8
_0-3______1
  6
CONTINUOUS
 62
    7
 10
32.897434856816396
 20
7.6146314988496249
 11
32.897434856816396
 21
8.444348295517214
  0
LINE
  8
_0-3______1
  6
CONTINUOUS
 62
    7
 10
32.914246922784393
 20
7.1743482958347418
 11
32.914246922784393
 21
7.6146314988496249
  0
LINE
  8
_0-3______1
  6
CONTINUOUS
 62
    7
 10
33.117645360233603
 20
8.3934986861548833
 11
33.117645360233603
 21
7.5637818894873821
  0
LINE
  8
_0-3______1
  6
CONTINUOUS
 62
    7
 10
33.185169231744467
 20
6.3953433047100141
 11
33.185169231744467
 21
5.6673257267669648
  0
LINE
  8
_0-3______1
  6
CONTINUOUS
 62
    7
 10
33.252968710894145
 20
7.0727868809295336
 11
33.252968710894145
 21
7.513070083944493
  0
LINE
  8
_0-3______1
  6
CONTINUOUS
 62
    7
 10
33.388567669193591
 20
8.4782480350920917
 11
33.388567669193591
 21
8.5798094499972226
  0
LINE
  8
_0-3______1
  6
CONTINUOUS
 62
    7
 10
33.489991280279355
 20
38.043781881867382
 11
33.489991280279355
 21
38.094631491229627
  0
LINE
  8
_0-3______1
  6
CONTINUOUS
 62
    7
 10
33.65948997815368
 20
5.9720099714825015
 11
33.65948997815368
 21
5.7858370114596029
  0
LINE
  8
_0-3______1
  6
CONTINUOUS
 62
    7
 10
33.727013849664552
 20
7.3944209954324807
 11
33.727013849664552
 21
8.2241377921000041
  0
LINE
  8
_0-3______1
  6
CONTINUOUS
 62
    7
 10
33.744101523271354
 20
6.9541377924175327
 11
33.744101523271354
 21
7.3944209954324807
  0
LINE
  8
_0-3______1
  6
CONTINUOUS
 62
    7
 10
33.947224353081673
 20
8.1903758563445717
 11
33.947224353081673
 21
7.3437091898896147
  0
LINE
  8
_0-3______1
  6
CONTINUOUS
 62
    7
 10
34.099635377349102
 20
6.8695262472997713
 11
34.099635377349102
 21
7.292859580527284
  0
LINE
  8
_0-3______1
  6
CONTINUOUS
 62
    7
 10
34.218146662041761
 20
8.2580375316749048
 11
34.218146662041761
 21
8.3597367503994544
  0
LINE
  8
_0-3______1
  6
CONTINUOUS
 62
    7
 10
32.575800742313433
 20
36.960092646027128
 11
32.490913589556882
 21
36.807681621759691
  0
LINE
  8
_0-3______1
  6
CONTINUOUS
 62
    7
 10
32.60942487424952
 20
37.349526239679754
 11
32.575800742313433
 21
36.960092646027128
  0
LINE
  8
_0-3______1
  6
CONTINUOUS
 62
    7
 10
32.524813329131746
 20
36.824631491547144
 11
32.372402304864316
 21
36.756832012397446
  0
LINE
  8
_0-3______1
  6
CONTINUOUS
 62
    7
 10
35.11580074167847
 20
39.110659051739525
 11
35.251124092339047
 21
39.178320727069853
  0
LINE
  8
_0-3______1
  6
CONTINUOUS
 62
    7
 10
35.742256904716321
 20
8.1056265074074627
 11
35.962467408133442
 21
7.8686039380222645
  0
LINE
  8
_0-3______1
  6
CONTINUOUS
 62
    7
 10
35.691269491534648
 20
8.3934986861548833
 11
35.742256904716321
 21
8.1056265074074627
  0
LINE
  8
_0-3______1
  6
CONTINUOUS
 62
    7
 10
34.336657946734412
 20
8.7491703440520929
 11
34.336657946734412
 21
8.2919372712497736
  0
LINE
  8
_0-3______1
  6
CONTINUOUS
 62
    7
 10
34.336657946734412
 20
7.2420099711650412
 11
34.336657946734412
 21
6.8017267681500932
  0
LINE
  8
_0-3______1
  6
CONTINUOUS
 62
    7
 10
34.353745620341194
 20
8.7491703440520929
 11
34.353745620341194
 21
8.2919372712497736
  0
LINE
  8
_0-3______1
  6
CONTINUOUS
 62
    7
 10
34.353745620341194
 20
7.2420099711650412
 11
34.353745620341194
 21
6.8017267681500932
  0
LINE
  8
_0-3______1
  6
CONTINUOUS
 62
    7
 10
34.556868450151512
 20
7.1743482958347418
 11
34.556868450151512
 21
8.0210149622897031
  0
LINE
  8
_0-3______1
  6
CONTINUOUS
 62
    7
 10
34.573680516119524
 20
6.7510149626072238
 11
34.573680516119524
 21
7.1912981656220811
  0
LINE
  8
_0-3______1
  6
CONTINUOUS
 62
    7
 10
34.641479995269286
 20
38.484065084882268
 11
34.641479995269286
 21
37.738959833332402
  0
LINE
  8
_0-3______1
  6
CONTINUOUS
 62
    7
 10
34.65856766887606
 20
5.7180375323099248
 11
34.65856766887606
 21
5.5486766382549835
  0
LINE
  8
_0-3______1
  6
CONTINUOUS
 62
    7
 10
34.777078953568733
 20
7.9701653529274612
 11
34.777078953568733
 21
7.1404485562598445
  0
LINE
  8
_0-3______1
  6
CONTINUOUS
 62
    7
 10
34.929489977836162
 20
6.6494535477020209
 11
34.929489977836162
 21
7.0897367507169724
  0
LINE
  8
_0-3______1
  6
CONTINUOUS
 62
    7
 10
35.048001262528707
 20
8.0549147018645737
 11
35.048001262528707
 21
8.1564761167697011
  0
LINE
  8
_0-3______1
  6
CONTINUOUS
 62
    7
 10
35.386723050638487
 20
6.9710876622049627
 11
35.386723050638487
 21
7.800804458872566
  0
LINE
  8
_0-3______1
  6
CONTINUOUS
 62
    7
 10
35.420347182574552
 20
6.5308044591900147
 11
35.420347182574552
 21
6.9710876622049627
  0
LINE
  8
_0-3______1
  6
CONTINUOUS
 62
    7
 10
35.691269491534648
 20
8.647471125327522
 11
35.691269491534648
 21
8.3934986861548833
  0
LINE
  8
_0-3______1
  6
CONTINUOUS
 62
    7
 10
35.77615664429112
 20
6.4461929140723448
 11
35.77615664429112
 21
6.9880375319924015
  0
LINE
  8
_0-3______1
  6
CONTINUOUS
 62
    7
 10
35.860768189408866
 20
7.0897367507169724
 11
35.860768189408866
 21
7.9194535473845722
  0
LINE
  8
_0-3______1
  6
CONTINUOUS
 62
    7
 10
36.047078953251209
 20
7.8177543286600244
 11
36.047078953251209
 21
6.3615813689545835
  0
LINE
  8
_0-3______1
  6
CONTINUOUS
 62
    7
 10
37.452402303594319
 20
39.381581360699535
 11
37.452402303594319
 21
39.313781881549858
  0
LINE
  8
_0-3______1
  6
CONTINUOUS
 62
    7
 10
38.282256904081279
 20
39.110659051739525
 11
38.282256904081279
 21
39.178320727069853
  0
LINE
  8
_0-3______1
  6
CONTINUOUS
 62
    7
 10
38.519279473466483
 20
39.110659051739525
 11
38.519279473466483
 21
39.212220466644652
  0
LINE
  8
_0-3______1
  6
CONTINUOUS
 62
    7
 10
36.87665794609935
 20
3.7198821508649647
 11
36.87665794609935
 21
7.3098094503147424
  0
LINE
  8
_0-3______1
  6
CONTINUOUS
 62
    7
 10
38.400768188773917
 20
45.850092643804651
 11
38.400768188773917
 21
45.477471116120022
  0
LINE
  8
_0-3______1
  6
CONTINUOUS
 62
    7
 10
38.705590237308797
 20
1.2985312400120108
 11
38.705590237308797
 21
1.3661929153423444
  0
LINE
  8
_0-3______1
  6
CONTINUOUS
 62
    7
 10
37.723324612554322
 20
39.313781881549858
 11
37.723324612554322
 21
39.415343296454978
  0
LINE
  8
_0-3______1
  6
CONTINUOUS
 62
    7
 10
36.87665794609935
 20
3.4150601023300853
 11
36.809134074588471
 21
3.2288871423072125
  0
LINE
  8
_0-3______1
  6
CONTINUOUS
 62
    7
 10
36.87665794609935
 20
3.7198821508649647
 11
36.87665794609935
 21
3.4150601023300853
  0
LINE
  8
_0-3______1
  6
CONTINUOUS
 62
    7
 10
37.672612807011426
 20
39.263070076006962
 11
37.672612807011426
 21
39.313781881549858
  0
LINE
  8
_0-3______1
  6
CONTINUOUS
 62
    7
 10
38.485379733891591
 20
39.110659051739525
 11
38.485379733891591
 21
39.059809442377222
  0
LINE
  8
_0-3______1
  6
CONTINUOUS
 62
    7
 10
39.128923570536301
 20
27.087964827314654
 11
32.474101523588892
 21
28.815060095980087
  0
LINE
  8
_0-3______1
  6
CONTINUOUS
 62
    7
 10
39.162823310111108
 20
27.121726763070093
 11
32.524813329131746
 21
28.815060095980087
  0
LINE
  8
_0-3______1
  6
CONTINUOUS
 62
    7
 10
39.230347181622072
 20
27.240375851582105
 11
32.321690499321441
 21
29.001370859822419
  0
LINE
  8
_0-3______1
  6
CONTINUOUS
 62
    7
 10
38.240902721397923
 20
43.111121873819137
 11
38.756302042851694
 21
41.650659051104505
  0
LINE
  8
_0-3______1
  6
CONTINUOUS
 62
    7
 10
38.028146661089274
 20
44.207471116437524
 11
38.240902721397923
 21
43.111121873819137
  0
LINE
  8
_0-3______1
  6
CONTINUOUS
 62
    7
 10
39.721479993999289
 20
44.309170335162094
 11
39.721479993999289
 21
44.461581359429537
  0
LINE
  8
_0-3______1
  6
CONTINUOUS
 62
    7
 10
38.959424872661998
 20
39.212220466644652
 11
38.942612806694001
 21
39.364631490912167
  0
LINE
  8
_0-3______1
  6
CONTINUOUS
 62
    7
 10
38.858001261576227
 20
46.307325716606954
 11
38.858001261576227
 21
46.815270594952246
  0
LINE
  8
_0-3______1
  6
CONTINUOUS
 62
    7
 10
39.365946139921448
 20
12.762293172909928
 11
39.365946139921448
 21
26.715343299630014
  0
LINE
  8
_0-3______1
  6
CONTINUOUS
 62
    7
 10
39.399845879496318
 20
39.229170336432098
 11
39.399845879496318
 21
38.805837003204587
  0
LINE
  8
_0-3______1
  6
CONTINUOUS
 62
    7
 10
39.416657945464408
 20
12.762293172909928
 11
39.416657945464408
 21
26.732293169417449
  0
LINE
  8
_0-3______1
  6
CONTINUOUS
 62
    7
 10
39.467645358646088
 20
12.559170343099616
 11
39.467645358646088
 21
26.833992388142022
  0
LINE
  8
_0-3______1
  6
CONTINUOUS
 62
    7
 10
40.381835896611904
 20
38.653425978937143
 11
40.381835896611904
 21
38.568676630000006
  0
LINE
  8
_0-3______1
  6
CONTINUOUS
 62
    7
 10
40.892639800487842
 20
40.517227834379703
 11
40.229424872344467
 21
42.531087653314955
  0
LINE
  8
_0-3______1
  6
CONTINUOUS
 62
    7
 10
41.076091538799517
 20
39.229170336432098
 11
40.892639800487842
 21
40.517227834379703
  0
LINE
  8
_0-3______1
  6
CONTINUOUS
 62
    7
 10
41.076091538799517
 20
38.399453539764572
 11
41.076091538799517
 21
39.229170336432098
  0
LINE
  8
_0-3______1
  6
CONTINUOUS
 62
    7
 10
41.736723049051022
 20
37.552786873309536
 11
41.736723049051022
 21
0.5534259884621634
  0
LINE
  8
_0-3______1
  6
CONTINUOUS
 62
    7
 10
41.855234333743603
 20
37.586548809064972
 11
41.855234333743603
 21
0.5703758582496277
  0
LINE
  8
_0-3______1
  6
CONTINUOUS
 62
    7
 10
39.196723049686
 20
40.380659051422008
 11
39.399845879496318
 21
39.229170336432098
  0
LINE
  8
_0-3______1
  6
CONTINUOUS
 62
    7
 10
38.756302042851694
 20
41.650659051104505
 11
39.196723049686
 21
40.380659051422008
  0
LINE
  8
_0-3______1
  6
CONTINUOUS
 62
    7
 10
43.41296870835415
 20
38.043781881867382
 11
43.41296870835415
 21
1.1461202157444859
  0
LINE
  8
_0-3______1
  6
CONTINUOUS
 62
    7
 10
43.497580253471916
 20
46.713709180047033
 11
43.497580253471916
 21
43.953498677264882
  0
LINE
  8
_0-3______1
  6
CONTINUOUS
 62
    7
 10
43.616091538164483
 20
47.238603928179771
 11
43.616091538164483
 21
46.899882140070012
  0
LINE
  8
_0-3______1
  6
CONTINUOUS
 62
    7
 10
43.683891017314252
 20
46.866120204314576
 11
43.683891017314252
 21
45.409809440789765
  0
LINE
  8
_0-3______1
  6
CONTINUOUS
 62
    7
 10
43.73460282285712
 20
46.713709180047033
 11
43.73460282285712
 21
45.240448546734818
  0
LINE
  8
_0-3______1
  6
CONTINUOUS
 62
    7
 10
43.73460282285712
 20
3.6861202151095371
 11
43.73460282285712
 21
15.30229317227497
  0
LINE
  8
_0-3______1
  6
CONTINUOUS
 62
    7
 10
32.389489978471133
 20
28.815060095980087
 11
32.457013849981983
 21
28.832009965767543
  0
LINE
  8
_0-3______1
  6
CONTINUOUS
 62
    7
 10
33.100557686626701
 20
38.568814433819448
 11
33.286868450469044
 21
38.450165345307468
  0
LINE
  8
_0-3______1
  6
CONTINUOUS
 62
    7
 10
39.851574024466231
 20
43.616258145639769
 11
39.721479993999289
 21
44.309170335162094
  0
LINE
  8
_0-3______1
  6
CONTINUOUS
 62
    7
 10
40.229424872344467
 20
42.531087653314955
 11
39.851574024466231
 21
43.616258145639769
  0
LINE
  8
_0-3______1
  6
CONTINUOUS
 62
    7
 10
46.478001259671188
 20
45.189736741191929
 11
46.478001259671188
 21
44.325982401130183
  0
LINE
  8
_0-3______1
  6
CONTINUOUS
 62
    7
 10
33.540978693461042
 20
38.026832012079943
 11
33.489991280279355
 21
38.043781881867382
  0
LINE
  8
_0-3______1
  6
CONTINUOUS
 62
    7
 10
48.425169227934475
 20
49.30442098495498
 11
48.391269488359598
 21
48.982786870452003
  0
LINE
  8
_0-3______1
  6
CONTINUOUS
 62
    7
 10
48.882402300736793
 20
57.466403404789446
 11
48.882402300736793
 21
57.940448543559853
  0
LINE
  8
_0-3______1
  6
CONTINUOUS
 62
    7
 10
48.882402300736793
 20
58.26222046188218
 11
48.882402300736793
 21
58.719453534684568
  0
LINE
  8
_0-3______1
  6
CONTINUOUS
 62
    7
 10
48.882402300736793
 20
58.990375843644578
 11
48.882402300736793
 21
59.295060088360088
  0
LINE
  8
_0-3______1
  6
CONTINUOUS
 62
    7
 10
48.882402300736793
 20
59.650731746257293
 11
48.882402300736793
 21
59.870804445855065
  0
LINE
  8
_0-3______1
  6
CONTINUOUS
 62
    7
 10
48.882402300736793
 20
60.311087648869943
 11
48.882402300736793
 21
61.479526233647277
  0
LINE
  8
_0-3______1
  6
CONTINUOUS
 62
    7
 10
49.221124088846572
 20
57.838887128654669
 11
49.221124088846572
 21
57.855836998442101
  0
LINE
  8
_0-3______1
  6
CONTINUOUS
 62
    7
 10
49.221124088846572
 20
58.160659046977052
 11
49.221124088846572
 21
58.48229316147993
  0
LINE
  8
_0-3______1
  6
CONTINUOUS
 62
    7
 10
49.221124088846572
 20
58.651654055534827
 11
49.221124088846572
 21
58.685553795109684
  0
LINE
  8
_0-3______1
  6
CONTINUOUS
 62
    7
 10
49.221124088846572
 20
58.990375843644578
 11
49.221124088846572
 21
59.295060088360088
  0
LINE
  8
_0-3______1
  6
CONTINUOUS
 62
    7
 10
49.221124088846572
 20
59.769243030949866
 11
49.221124088846572
 21
60.107964819059617
  0
LINE
  8
_0-3______1
  6
CONTINUOUS
 62
    7
 10
49.221124088846572
 20
60.565060088042571
 11
49.221124088846572
 21
60.920731745939776
  0
LINE
  8
_0-3______1
  6
CONTINUOUS
 62
    7
 10
49.33963537353911
 20
57.855836998442101
 11
49.33963537353911
 21
57.872786868229525
  0
LINE
  8
_0-3______1
  6
CONTINUOUS
 62
    7
 10
49.33963537353911
 20
58.177471112945049
 11
49.33963537353911
 21
58.465343291692477
  0
LINE
  8
_0-3______1
  6
CONTINUOUS
 62
    7
 10
49.33963537353911
 20
58.990375843644578
 11
49.33963537353911
 21
59.278248022392091
  0
LINE
  8
_0-3______1
  6
CONTINUOUS
 62
    7
 10
49.33963537353911
 20
59.803142770524737
 11
49.33963537353911
 21
60.091014949272164
  0
LINE
  8
_0-3______1
  6
CONTINUOUS
 62
    7
 10
49.33963537353911
 20
60.615909697404895
 11
49.33963537353911
 21
60.886832006364898
  0
LINE
  8
_0-3______1
  6
CONTINUOUS
 62
    7
 10
33.862612807963998
 20
40.245060093122582
 11
41.245590236673749
 21
38.348603930402263
  0
LINE
  8
_0-3______1
  6
CONTINUOUS
 62
    7
 10
49.746156640798631
 20
49.727754318182498
 11
49.746156640798631
 21
50.066476106292249
  0
LINE
  8
_0-3______1
  6
CONTINUOUS
 62
    7
 10
49.847580251884381
 20
60.768320721672332
 11
49.847580251884381
 21
60.107964819059617
  0
LINE
  8
_0-3______1
  6
CONTINUOUS
 62
    7
 10
49.847580251884381
 20
59.955553794792174
 11
49.847580251884381
 21
59.295060088360088
  0
LINE
  8
_0-3______1
  6
CONTINUOUS
 62
    7
 10
49.847580251884381
 20
59.159736737699454
 11
49.847580251884381
 21
58.48229316147993
  0
LINE
  8
_0-3______1
  6
CONTINUOUS
 62
    7
 10
49.847580251884381
 20
58.329882137212486
 11
49.847580251884381
 21
57.669526234599772
  0
LINE
  8
_0-3______1
  6
CONTINUOUS
 62
    7
 10
49.966091536577053
 20
58.126759307402182
 11
49.966091536577053
 21
60.277325713114493
  0
LINE
  8
_0-3______1
  6
CONTINUOUS
 62
    7
 10
50.152402300419268
 20
57.601726755450095
 11
50.152402300419268
 21
58.075909698039851
  0
LINE
  8
_0-3______1
  6
CONTINUOUS
 62
    7
 10
50.152402300419268
 20
58.329882137212486
 11
50.152402300419268
 21
59.955553794792174
  0
LINE
  8
_0-3______1
  6
CONTINUOUS
 62
    7
 10
50.152402300419268
 20
60.209526233964816
 11
50.152402300419268
 21
60.683709176554572
  0
LINE
  8
_0-3______1
  6
CONTINUOUS
 62
    7
 10
50.220201779569038
 20
57.127681616679688
 11
50.220201779569038
 21
57.601726755450095
  0
LINE
  8
_0-3______1
  6
CONTINUOUS
 62
    7
 10
50.220201779569038
 20
60.683709176554572
 11
50.220201779569038
 21
61.123992379569529
  0
LINE
  8
_0-3______1
  6
CONTINUOUS
 62
    7
 10
50.338713064261597
 20
60.700659046342004
 11
50.338713064261597
 21
60.565060088042571
  0
LINE
  8
_0-3______1
  6
CONTINUOUS
 62
    7
 10
50.338713064261597
 20
57.804987389079862
 11
50.338713064261597
 21
57.652576364812425
  0
LINE
  8
_0-3______1
  6
CONTINUOUS
 62
    7
 10
50.423324609379371
 20
57.16158135625458
 11
50.423324609379371
 21
57.432503665214568
  0
LINE
  8
_0-3______1
  6
CONTINUOUS
 62
    7
 10
50.423324609379371
 20
60.920731745939776
 11
50.423324609379371
 21
61.174704185112411
  0
LINE
  8
_0-3______1
  6
CONTINUOUS
 62
    7
 10
50.440412282986152
 20
61.344065079167287
 11
50.440412282986152
 21
61.479526233647277
  0
LINE
  8
_0-3______1
  6
CONTINUOUS
 62
    7
 10
50.507936154497109
 20
58.245270592094748
 11
50.507936154497109
 21
59.870804445855065
  0
LINE
  8
_0-3______1
  6
CONTINUOUS
 62
    7
 10
50.626723046828488
 20
58.26222046188218
 11
50.626723046828488
 21
59.887754315642496
  0
LINE
  8
_0-3______1
  6
CONTINUOUS
 62
    7
 10
50.745234331521132
 20
43.953498677264882
 11
50.745234331521132
 21
44.207471116437524
  0
LINE
  8
_0-3______1
  6
CONTINUOUS
 62
    7
 10
50.81275820303199
 20
58.126759307402182
 11
50.81275820303199
 21
57.838887128654669
  0
LINE
  8
_0-3______1
  6
CONTINUOUS
 62
    7
 10
50.81275820303199
 20
60.260375843327147
 11
50.81275820303199
 21
60.565060088042571
  0
LINE
  8
_0-3______1
  6
CONTINUOUS
 62
    7
 10
50.880557682181689
 20
60.158814428421948
 11
50.880557682181689
 21
60.260375843327147
  0
LINE
  8
_0-3______1
  6
CONTINUOUS
 62
    7
 10
51.134667925173773
 20
44.207471116437524
 11
51.134667925173773
 21
44.529243034759865
  0
LINE
  8
_0-3______1
  6
CONTINUOUS
 62
    7
 10
51.236091536259529
 20
44.529243034759865
 11
51.236091536259529
 21
44.698603928814741
  0
LINE
  8
_0-3______1
  6
CONTINUOUS
 62
    7
 10
51.490201779251507
 20
58.313070071244489
 11
51.490201779251507
 21
58.025060088677606
  0
LINE
  8
_0-3______1
  6
CONTINUOUS
 62
    7
 10
51.490201779251507
 20
59.108887128337216
 11
51.490201779251507
 21
59.650731746257293
  0
LINE
  8
_0-3______1
  6
CONTINUOUS
 62
    7
 10
51.490201779251507
 20
60.429736737381916
 11
51.490201779251507
 21
60.734420982097447
  0
LINE
  8
_0-3______1
  6
CONTINUOUS
 62
    7
 10
51.659424869486941
 20
61.648887127702153
 11
51.659424869486941
 21
61.598037518339929
  0
LINE
  8
_0-3______1
  6
CONTINUOUS
 62
    7
 10
51.744312022243527
 20
43.564065083612263
 11
51.744312022243527
 21
43.29314277465226
  0
LINE
  8
_0-3______1
  6
CONTINUOUS
 62
    7
 10
51.744312022243527
 20
42.514137783527531
 11
51.744312022243527
 21
41.938393426032583
  0
LINE
  8
_0-3______1
  6
CONTINUOUS
 62
    7
 10
32.355590238896319
 20
9.2571152223973723
 11
32.727936158942093
 21
9.6127868802945855
  0
LINE
  8
_0-3______1
  6
CONTINUOUS
 62
    7
 10
34.302758207159506
 20
37.129453540082025
 11
34.167434856498879
 21
37.112503670294565
  0
LINE
  8
_0-3______1
  6
CONTINUOUS
 62
    7
 10
34.116723050956004
 20
37.264914694562101
 11
33.947224353081673
 21
37.231014954987224
  0
LINE
  8
_0-3______1
  6
CONTINUOUS
 62
    7
 10
33.930412287113676
 20
37.281726760530091
 11
33.794813328814243
 21
37.231014954987224
  0
LINE
  8
_0-3______1
  6
CONTINUOUS
 62
    7
 10
40.46672304936849
 20
38.704137784480018
 11
40.85615664302113
 21
38.788887133417212
  0
LINE
  8
_0-3______1
  6
CONTINUOUS
 62
    7
 10
38.485379733891591
 20
39.110659051739525
 11
38.739489976883689
 21
39.178320727069853
  0
LINE
  8
_0-3______1
  6
CONTINUOUS
 62
    7
 10
38.891901001151133
 20
39.195270596857227
 11
39.095023830961438
 21
39.263070076006962
  0
LINE
  8
_0-3______1
  6
CONTINUOUS
 62
    7
 10
39.907790757841603
 20
38.704137784480018
 11
39.839991278691834
 21
38.704137784480018
  0
LINE
  8
_0-3______1
  6
CONTINUOUS
 62
    7
 10
39.907790757841603
 20
39.025909702802323
 11
39.501269490582082
 21
38.958248027472088
  0
LINE
  8
_0-3______1
  6
CONTINUOUS
 62
    7
 10
33.507078953886229
 20
38.043781881867382
 11
32.829635377666627
 21
38.026832012079943
  0
LINE
  8
_0-3______1
  6
CONTINUOUS
 62
    7
 10
33.997936158624555
 20
40.278959832697467
 11
37.452402303594319
 21
39.381581360699535
  0
LINE
  8
_0-3______1
  6
CONTINUOUS
 62
    7
 10
37.672612807011426
 20
39.313781881549858
 11
38.282256904081279
 21
39.178320727069853
  0
LINE
  8
_0-3______1
  6
CONTINUOUS
 62
    7
 10
38.485379733891591
 20
39.110659051739525
 11
39.027224351811682
 21
38.975060093440085
  0
LINE
  8
_0-3______1
  6
CONTINUOUS
 62
    7
 10
40.483535115336551
 20
38.585626499787466
 11
41.364101521366408
 21
38.365553800189694
  0
LINE
  8
_0-3______1
  6
CONTINUOUS
 62
    7
 10
37.723324612554322
 20
39.415481100274405
 11
37.92672305000351
 21
39.381581360699535
  0
LINE
  8
_0-3______1
  6
CONTINUOUS
 62
    7
 10
38.519279473466483
 20
39.212220466644652
 11
38.739489976883689
 21
39.178320727069853
  0
LINE
  8
_0-3______1
  6
CONTINUOUS
 62
    7
 10
38.891901001151133
 20
39.195270596857227
 11
38.654602824127117
 21
39.263070076006962
  0
LINE
  8
_0-3______1
  6
CONTINUOUS
 62
    7
 10
38.112758206206969
 20
39.398393426667624
 11
37.892823310428632
 21
39.466192905817302
  0
LINE
  8
_0-3______1
  6
CONTINUOUS
 62
    7
 10
35.640557685991688
 20
40.549882141657477
 11
39.365946139921448
 21
39.601654060297292
  0
LINE
  8
_0-3______1
  6
CONTINUOUS
 62
    7
 10
41.076091538799517
 20
39.161370857282428
 11
42.905023830008957
 21
38.687325718512014
  0
LINE
  8
_0-3______1
  6
CONTINUOUS
 62
    7
 10
52.099845876321353
 20
61.140804445537526
 11
52.099845876321353
 21
61.107042509782104
  0
LINE
  8
_0-3______1
  6
CONTINUOUS
 62
    7
 10
52.099845876321353
 20
60.717471112310022
 11
52.099845876321353
 21
60.463498673137451
  0
LINE
  8
_0-3______1
  6
CONTINUOUS
 62
    7
 10
52.099845876321353
 20
58.719453534684568
 11
52.099845876321353
 21
58.668603925322259
  0
LINE
  8
_0-3______1
  6
CONTINUOUS
 62
    7
 10
52.099845876321353
 20
58.279170331669604
 11
52.099845876321353
 21
58.211370852519941
  0
LINE
  8
_0-3______1
  6
CONTINUOUS
 62
    7
 10
52.252256900588797
 20
45.240448546734818
 11
52.252256900588797
 21
45.37590970121488
  0
LINE
  8
_0-3______1
  6
CONTINUOUS
 62
    7
 10
52.286156640163682
 20
61.073142770207198
 11
52.286156640163682
 21
60.768320721672332
  0
LINE
  8
_0-3______1
  6
CONTINUOUS
 62
    7
 10
52.286156640163682
 20
58.634704185747353
 11
52.286156640163682
 21
58.329882137212486
  0
LINE
  8
_0-3______1
  6
CONTINUOUS
 62
    7
 10
52.353680511674554
 20
61.411726754497614
 11
52.353680511674554
 21
61.225553794474742
  0
LINE
  8
_0-3______1
  6
CONTINUOUS
 62
    7
 10
52.353680511674554
 20
58.143709177189614
 11
52.353680511674554
 21
57.940448543559853
  0
LINE
  8
_0-3______1
  6
CONTINUOUS
 62
    7
 10
52.404667924856234
 20
45.325060091852585
 11
52.404667924856234
 21
45.409809440789765
  0
LINE
  8
_0-3______1
  6
CONTINUOUS
 62
    7
 10
52.590978688698556
 20
45.240448546734818
 11
52.590978688698556
 21
45.37590970121488
  0
LINE
  8
_0-3______1
  6
CONTINUOUS
 62
    7
 10
52.658502560209435
 20
58.854914689164559
 11
52.658502560209435
 21
60.480448542924819
  0
LINE
  8
_0-3______1
  6
CONTINUOUS
 62
    7
 10
53.08183589343696
 20
43.564065083612263
 11
53.08183589343696
 21
43.29314277465226
  0
LINE
  8
_0-3______1
  6
CONTINUOUS
 62
    7
 10
53.08183589343696
 20
42.514137783527531
 11
53.08183589343696
 21
41.938393426032583
  0
LINE
  8
_0-3______1
  6
CONTINUOUS
 62
    7
 10
53.26814665727926
 20
43.970448547052342
 11
53.26814665727926
 21
44.292220465374662
  0
LINE
  8
_0-3______1
  6
CONTINUOUS
 62
    7
 10
53.369845876003843
 20
44.004348286627213
 11
53.369845876003843
 21
44.309170335162094
  0
LINE
  8
_0-3______1
  6
CONTINUOUS
 62
    7
 10
53.59005637942105
 20
44.529243034759865
 11
53.59005637942105
 21
44.698603928814741
  0
LINE
  8
_0-3______1
  6
CONTINUOUS
 62
    7
 10
53.691479990506799
 20
44.207471116437524
 11
53.691479990506799
 21
44.529243034759865
  0
LINE
  8
_0-3______1
  6
CONTINUOUS
 62
    7
 10
54.098001257766242
 20
43.953498677264882
 11
54.098001257766242
 21
44.207471116437524
  0
LINE
  8
_0-3______1
  6
CONTINUOUS
 62
    7
 10
34.336657946734412
 20
8.7491703440520929
 11
34.709279474418956
 21
9.1047041981298431
  0
LINE
  8
_0-3______1
  6
CONTINUOUS
 62
    7
 10
34.353745620341194
 20
8.7491703440520929
 11
34.726091540387053
 21
9.1047041981298431
  0
LINE
  8
_0-3______1
  6
CONTINUOUS
 62
    7
 10
33.540978693461042
 20
37.959170336749615
 11
33.236156644926147
 21
37.891370857599945
  0
LINE
  8
_0-3______1
  6
CONTINUOUS
 62
    7
 10
33.489991280279355
 20
38.043781881867382
 11
33.04984588108384
 21
37.942220466962183
  0
LINE
  8
_0-3______1
  6
CONTINUOUS
 62
    7
 10
52.404667924856234
 20
42.971370856329941
 11
54.317936153544565
 21
43.462503668707136
  0
LINE
  8
_0-3______1
  6
CONTINUOUS
 62
    7
 10
33.236156644926147
 20
38.247042515497064
 11
33.04984588108384
 21
38.196192906134812
  0
LINE
  8
_0-3______1
  6
CONTINUOUS
 62
    7
 10
33.489991280279355
 20
39.093709181952093
 11
33.3207681900439
 21
39.059809442377222
  0
LINE
  8
_0-3______1
  6
CONTINUOUS
 62
    7
 10
33.625590238578788
 20
39.195270596857227
 11
33.45609154070447
 21
39.127471117707522
  0
LINE
  8
_0-3______1
  6
CONTINUOUS
 62
    7
 10
48.831690495193918
 20
43.174631489959609
 11
48.492968707084152
 21
43.072932271235054
  0
LINE
  8
_0-3______1
  6
CONTINUOUS
 62
    7
 10
33.693389717728472
 20
39.398393426667624
 11
33.591690499003917
 21
39.364631490912167
  0
LINE
  8
_0-3______1
  6
CONTINUOUS
 62
    7
 10
50.745234331521132
 20
43.987398416839767
 11
49.08580073818591
 21
43.564065083612263
  0
LINE
  8
_0-3______1
  6
CONTINUOUS
 62
    7
 10
46.240978690286077
 20
42.971370856329941
 11
48.018923568313767
 21
43.445553798919697
  0
LINE
  8
_0-3______1
  6
CONTINUOUS
 62
    7
 10
38.282256904081279
 20
39.178320727069853
 11
38.519279473466483
 21
39.212220466644652
  0
LINE
  8
_0-3______1
  6
CONTINUOUS
 62
    7
 10
38.654602824127117
 20
39.263070076006962
 11
38.858001261576227
 21
39.296832011762426
  0
LINE
  8
_0-3______1
  6
CONTINUOUS
 62
    7
 10
35.352823311063602
 20
40.583781881232333
 11
33.845800741995902
 21
40.278959832697467
  0
LINE
  8
_0-3______1
  6
CONTINUOUS
 62
    7
 10
38.299068970049277
 20
39.432293166242403
 11
38.112758206206969
 21
39.398393426667624
  0
LINE
  8
_0-3______1
  6
CONTINUOUS
 62
    7
 10
37.92672305000351
 20
39.381581360699535
 11
37.672612807011426
 21
39.313781881549858
  0
LINE
  8
_0-3______1
  6
CONTINUOUS
 62
    7
 10
38.112758206206969
 20
39.500092645392172
 11
37.892823310428632
 21
39.466192905817302
  0
LINE
  8
_0-3______1
  6
CONTINUOUS
 62
    7
 10
37.723324612554322
 20
39.415481100274405
 11
37.452402303594319
 21
39.381581360699535
  0
LINE
  8
_0-3______1
  6
CONTINUOUS
 62
    7
 10
54.521334590993753
 20
43.259243035077382
 11
54.521334590993753
 21
43.597964823187134
  0
LINE
  8
_0-3______1
  6
CONTINUOUS
 62
    7
 10
43.73460282285712
 20
43.953498677264882
 11
45.529635374491683
 21
44.410731750067292
  0
LINE
  8
_0-3______1
  6
CONTINUOUS
 62
    7
 10
43.260557684086713
 20
43.885837001934647
 11
43.497580253471916
 21
43.953498677264882
  0
LINE
  8
_0-3______1
  6
CONTINUOUS
 62
    7
 10
39.806091539117048
 20
43.784137783210006
 11
41.127078951981197
 21
43.445553798919697
  0
LINE
  8
_0-3______1
  6
CONTINUOUS
 62
    7
 10
48.831690495193918
 20
43.174631489959609
 11
49.08580073818591
 21
43.123781880597384
  0
LINE
  8
_0-3______1
  6
CONTINUOUS
 62
    7
 10
47.409279471244012
 20
52.91129815419211
 11
48.205234332156067
 21
50.523709179094567
  0
LINE
  8
_0-3______1
  6
CONTINUOUS
 62
    7
 10
38.722402303276787
 20
1.3322931757674554
 11
38.60389101858425
 21
1.17988215150001
  0
LINE
  8
_0-3______1
  6
CONTINUOUS
 62
    7
 10
38.485379733891591
 20
1.0274711272325021
 11
38.33296870962414
 21
0.8412981672096009
  0
LINE
  8
_0-3______1
  6
CONTINUOUS
 62
    7
 10
31.187013850299508
 20
10.137681628427206
 11
31.136302044756633
 21
9.8328595798923235
  0
LINE
  8
_0-3______1
  6
CONTINUOUS
 62
    7
 10
31.339424874566948
 20
10.323992392269544
 11
31.187013850299508
 21
10.137681628427206
  0
LINE
  8
_0-3______1
  6
CONTINUOUS
 62
    7
 10
31.475023832866384
 20
10.374704197812413
 11
31.339424874566948
 21
10.323992392269544
  0
LINE
  8
_0-3______1
  6
CONTINUOUS
 62
    7
 10
39.721479993999289
 20
44.326120204949518
 11
40.754457424296561
 21
44.613992383697052
  0
LINE
  8
_0-3______1
  6
CONTINUOUS
 62
    7
 10
43.73460282285712
 20
45.426759310577133
 11
43.683891017314252
 21
45.409809440789765
  0
LINE
  8
_0-3______1
  6
CONTINUOUS
 62
    7
 10
40.331124091069043
 20
46.222576367669852
 11
39.128923570536301
 21
45.917754319134978
  0
LINE
  8
_0-3______1
  6
CONTINUOUS
 62
    7
 10
48.103535113431533
 20
43.445553798919697
 11
48.35764535642361
 21
43.37775431977002
  0
LINE
  8
_0-3______1
  6
CONTINUOUS
 62
    7
 10
46.782823308206162
 20
43.801087652997445
 11
47.002758203984492
 21
43.750375847454563
  0
LINE
  8
_0-3______1
  6
CONTINUOUS
 62
    7
 10
44.039424871391986
 20
44.715553798602173
 11
44.293535114384007
 21
44.664704189239842
  0
LINE
  8
_0-3______1
  6
CONTINUOUS
 62
    7
 10
38.095946140238972
 20
46.391937261724728
 11
37.858923570853769
 21
46.442786871087058
  0
LINE
  8
_0-3______1
  6
CONTINUOUS
 62
    7
 10
45.68204639875912
 20
44.410731750067292
 11
45.936156641751133
 21
44.359882140704961
  0
LINE
  8
_0-3______1
  6
CONTINUOUS
 62
    7
 10
49.204312022878568
 20
43.564065083612263
 11
51.473389713283524
 21
42.971370856329941
  0
LINE
  8
_0-3______1
  6
CONTINUOUS
 62
    7
 10
43.683891017314252
 20
45.409809440789765
 11
43.497580253471916
 21
45.477471116120022
  0
LINE
  8
_0-3______1
  6
CONTINUOUS
 62
    7
 10
54.317936153544565
 20
43.733425977667139
 11
53.979489973073697
 21
43.801087652997445
  0
LINE
  8
_0-3______1
  6
CONTINUOUS
 62
    7
 10
53.369845876003843
 20
44.004348286627213
 11
53.26814665727926
 21
44.021298156414652
  0
LINE
  8
_0-3______1
  6
CONTINUOUS
 62
    7
 10
53.26814665727926
 20
44.292220465374662
 11
53.183535112161536
 21
44.309170335162094
  0
LINE
  8
_0-3______1
  6
CONTINUOUS
 62
    7
 10
53.369845876003843
 20
44.309170335162094
 11
53.302046396854067
 21
44.326120204949518
  0
LINE
  8
_0-3______1
  6
CONTINUOUS
 62
    7
 10
47.75401779564104
 20
57.595918270632346
 11
47.798713064896653
 21
58.008248022709545
  0
LINE
  8
_0-3______1
  6
CONTINUOUS
 62
    7
 10
47.916351367776144
 20
56.630444794887609
 11
47.75401779564104
 21
57.595918270632346
  0
LINE
  8
_0-3______1
  6
CONTINUOUS
 62
    7
 10
48.780978689651022
 20
54.011937259819774
 11
47.916351367776144
 21
56.630444794887609
  0
LINE
  8
_0-3______1
  6
CONTINUOUS
 62
    7
 10
31.475023832866384
 20
10.374704197812413
 11
32.389489978471133
 21
10.679526246347287
  0
LINE
  8
_0-3______1
  6
CONTINUOUS
 62
    7
 10
48.408357161966407
 20
48.982786870452003
 11
47.84942487043952
 21
48.830375846184573
  0
LINE
  8
_0-3______1
  6
CONTINUOUS
 62
    7
 10
37.486302043169211
 20
46.25647610724473
 11
37.909635376396636
 21
46.391937261724728
  0
LINE
  8
_0-3______1
  6
CONTINUOUS
 62
    7
 10
49.559845876956317
 20
49.609243033489861
 11
47.680201780203987
 21
49.118248024932086
  0
LINE
  8
_0-3______1
  6
CONTINUOUS
 62
    7
 10
43.649991277739353
 20
50.286548805890014
 11
44.259635374809108
 21
50.422009960370019
  0
LINE
  8
_0-3______1
  6
CONTINUOUS
 62
    7
 10
46.223891016679197
 20
49.389170333892082
 11
44.090412284573667
 21
49.964914691387037
  0
LINE
  8
_0-3______1
  6
CONTINUOUS
 62
    7
 10
44.090412284573667
 20
50.286548805890014
 11
46.223891016679197
 21
49.710804448395059
  0
LINE
  8
_0-3______1
  6
CONTINUOUS
 62
    7
 10
44.666156642068628
 20
50.422147764189447
 11
46.833535113749029
 21
49.880165342449935
  0
LINE
  8
_0-3______1
  6
CONTINUOUS
 62
    7
 10
49.729068967191836
 20
61.039243030632406
 11
49.59374561653118
 21
61.293215469804977
  0
LINE
  8
_0-3______1
  6
CONTINUOUS
 62
    7
 10
49.79686844634152
 20
61.327115209379855
 11
49.86466792549129
 21
61.19165405489985
  0
LINE
  8
_0-3______1
  6
CONTINUOUS
 62
    7
 10
38.739489976883689
 20
1.3322931757674554
 11
38.705590237308797
 21
1.2983934361925833
  0
LINE
  8
_0-3______1
  6
CONTINUOUS
 62
    7
 10
50.423324609379371
 20
57.16158135625458
 11
50.220201779569038
 21
57.127681616679688
  0
LINE
  8
_0-3______1
  6
CONTINUOUS
 62
    7
 10
52.353680511674554
 20
57.940448543559853
 11
50.423324609379371
 21
57.432503665214568
  0
LINE
  8
_0-3______1
  6
CONTINUOUS
 62
    7
 10
50.220201779569038
 20
57.601726755450095
 11
52.353680511674554
 21
58.143709177189614
  0
LINE
  8
_0-3______1
  6
CONTINUOUS
 62
    7
 10
50.152402300419268
 20
57.601726755450095
 11
50.338713064261597
 21
57.652576364812425
  0
LINE
  8
_0-3______1
  6
CONTINUOUS
 62
    7
 10
51.490201779251507
 20
58.025060088677606
 11
50.81275820303199
 21
57.838887128654669
  0
LINE
  8
_0-3______1
  6
CONTINUOUS
 62
    7
 10
52.099845876321353
 20
58.211370852519941
 11
51.490201779251507
 21
58.042009958465066
  0
LINE
  8
_0-3______1
  6
CONTINUOUS
 62
    7
 10
50.575735633646808
 20
57.804987389079862
 11
50.338713064261597
 21
57.737325713749534
  0
LINE
  8
_0-3______1
  6
CONTINUOUS
 62
    7
 10
52.286156640163682
 20
58.329882137212486
 11
51.490201779251507
 21
58.143709177189614
  0
LINE
  8
_0-3______1
  6
CONTINUOUS
 62
    7
 10
51.490201779251507
 20
58.313070071244489
 11
50.81275820303199
 21
58.126759307402182
  0
LINE
  8
_0-3______1
  6
CONTINUOUS
 62
    7
 10
51.269991275834322
 20
58.363781876787385
 11
52.286156640163682
 21
58.634704185747353
  0
LINE
  8
_0-3______1
  6
CONTINUOUS
 62
    7
 10
48.831640837372312
 20
59.628630449414096
 11
48.323745616848711
 21
59.362859567509787
  0
LINE
  8
_0-3______1
  6
CONTINUOUS
 62
    7
 10
49.39034717908207
 20
59.820092640312168
 11
48.831640837372312
 21
59.628630449414096
  0
LINE
  8
_0-3______1
  6
CONTINUOUS
 62
    7
 10
49.695169227616951
 20
57.957398413347306
 11
49.44133459226375
 21
57.906548803984975
  0
LINE
  8
_0-3______1
  6
CONTINUOUS
 62
    7
 10
49.221124088846572
 20
57.838887128654669
 11
49.33963537353911
 21
57.855836998442101
  0
LINE
  8
_0-3______1
  6
CONTINUOUS
 62
    7
 10
50.626723046828488
 20
58.26222046188218
 11
50.507936154497109
 21
58.245270592094748
  0
LINE
  8
_0-3______1
  6
CONTINUOUS
 62
    7
 10
49.966091536577053
 20
58.126759307402182
 11
50.457224348954242
 21
58.26222046188218
  0
LINE
  8
_0-3______1
  6
CONTINUOUS
 62
    7
 10
50.626723046828488
 20
58.313070071244489
 11
52.099845876321353
 21
58.668603925322259
  0
LINE
  8
_0-3______1
  6
CONTINUOUS
 62
    7
 10
52.658502560209435
 20
58.854914689164559
 11
50.626723046828488
 21
58.329882137212486
  0
LINE
  8
_0-3______1
  6
CONTINUOUS
 62
    7
 10
49.627645356106086
 20
58.26222046188218
 11
49.39034717908207
 21
58.211370852519941
  0
LINE
  8
_0-3______1
  6
CONTINUOUS
 62
    7
 10
47.78190099892862
 20
57.974348283134738
 11
48.018923568313767
 21
58.042009958465066
  0
LINE
  8
_0-3______1
  6
CONTINUOUS
 62
    7
 10
49.695169227616951
 20
58.770165340227464
 11
49.44133459226375
 21
58.719315730865134
  0
LINE
  8
_0-3______1
  6
CONTINUOUS
 62
    7
 10
49.221124088846572
 20
58.651654055534827
 11
49.33963537353911
 21
58.685553795109684
  0
LINE
  8
_0-3______1
  6
CONTINUOUS
 62
    7
 10
49.627645356106086
 20
59.058037518974906
 11
49.39034717908207
 21
58.990375843644578
  0
LINE
  8
_0-3______1
  6
CONTINUOUS
 62
    7
 10
51.490201779251507
 20
59.650731746257293
 11
50.626723046828488
 21
59.396759307084658
  0
LINE
  8
_0-3______1
  6
CONTINUOUS
 62
    7
 10
49.695169227616951
 20
59.583070070926965
 11
49.44133459226375
 21
59.515270591777295
  0
LINE
  8
_0-3______1
  6
CONTINUOUS
 62
    7
 10
50.626723046828488
 20
59.887754315642496
 11
50.507936154497109
 21
59.870804445855065
  0
LINE
  8
_0-3______1
  6
CONTINUOUS
 62
    7
 10
52.658502560209435
 20
60.480448542924819
 11
50.507936154497109
 21
59.921654055217289
  0
LINE
  8
_0-3______1
  6
CONTINUOUS
 62
    7
 10
50.152402300419268
 20
59.955553794792174
 11
51.066868446024003
 21
60.192576364177377
  0
LINE
  8
_0-3______1
  6
CONTINUOUS
 62
    7
 10
51.269991275834322
 20
60.260375843327147
 11
52.404667924856234
 21
60.531298152287128
  0
LINE
  8
_0-3______1
  6
CONTINUOUS
 62
    7
 10
49.627645356106086
 20
59.887754315642496
 11
49.39034717908207
 21
59.820092640312168
  0
LINE
  8
_0-3______1
  6
CONTINUOUS
 62
    7
 10
50.880557682181689
 20
60.260375843327147
 11
51.066868446024003
 21
60.29413777908249
  0
LINE
  8
_0-3______1
  6
CONTINUOUS
 62
    7
 10
51.490201779251507
 20
60.429736737381916
 11
50.81275820303199
 21
60.260375843327147
  0
LINE
  8
_0-3______1
  6
CONTINUOUS
 62
    7
 10
51.490201779251507
 20
60.565060088042571
 11
52.286156640163682
 21
60.768320721672332
  0
LINE
  8
_0-3______1
  6
CONTINUOUS
 62
    7
 10
47.59559023508632
 20
59.667681616044717
 11
47.358567665701116
 21
59.599882136894962
  0
LINE
  8
_0-3______1
  6
CONTINUOUS
 62
    7
 10
49.255023828421443
 20
58.160659046977052
 11
49.051900998611131
 21
58.211370852519941
  0
LINE
  8
_0-3______1
  6
CONTINUOUS
 62
    7
 10
49.39034717908207
 20
58.211370852519941
 11
49.255023828421443
 21
58.160659046977052
  0
LINE
  8
_0-3______1
  6
CONTINUOUS
 62
    7
 10
49.39034717908207
 20
58.990375843644578
 11
48.374457422391608
 21
58.97342597385714
  0
LINE
  8
_0-3______1
  6
CONTINUOUS
 62
    7
 10
48.391269488359598
 20
58.668603925322259
 11
49.44133459226375
 21
58.719453534684568
  0
LINE
  8
_0-3______1
  6
CONTINUOUS
 62
    7
 10
50.81275820303199
 20
57.838887128654669
 11
50.152402300419268
 21
57.77108764950497
  0
LINE
  8
_0-3______1
  6
CONTINUOUS
 62
    7
 10
50.152402300419268
 20
58.075909698039851
 11
50.81275820303199
 21
58.126759307402182
  0
LINE
  8
_0-3______1
  6
CONTINUOUS
 62
    7
 10
42.955735635551832
 20
0.519526248887297
 11
41.550412285208722
 21
0.0453433062975364
  0
LINE
  8
_0-3______1
  6
CONTINUOUS
 62
    7
 10
51.490201779251507
 20
60.734420982097447
 11
50.81275820303199
 21
60.565060088042571
  0
LINE
  8
_0-3______1
  6
CONTINUOUS
 62
    7
 10
50.152402300419268
 20
60.497398412712243
 11
50.338713064261597
 21
60.565060088042571
  0
LINE
  8
_0-3______1
  6
CONTINUOUS
 62
    7
 10
51.269991275834322
 20
60.802220461247202
 11
52.286156640163682
 21
61.073142770207198
  0
LINE
  8
_0-3______1
  6
CONTINUOUS
 62
    7
 10
49.695169227616951
 20
60.395836997807123
 11
49.44133459226375
 21
60.328037518657368
  0
LINE
  8
_0-3______1
  6
CONTINUOUS
 62
    7
 10
52.099845876321353
 20
61.107042509782104
 11
50.338713064261597
 21
60.666759306767119
  0
LINE
  8
_0-3______1
  6
CONTINUOUS
 62
    7
 10
50.220201779569038
 20
60.683709176554572
 11
52.353680511674554
 21
61.225553794474742
  0
LINE
  8
_0-3______1
  6
CONTINUOUS
 62
    7
 10
49.627645356106086
 20
60.683709176554572
 11
49.39034717908207
 21
60.615909697404895
  0
LINE
  8
_0-3______1
  6
CONTINUOUS
 62
    7
 10
52.353680511674554
 20
61.411726754497614
 11
50.423324609379371
 21
60.920731745939776
  0
LINE
  8
_0-3______1
  6
CONTINUOUS
 62
    7
 10
50.220201779569038
 20
61.123992379569529
 11
50.423324609379371
 21
61.174704185112411
  0
LINE
  8
_0-3______1
  6
CONTINUOUS
 62
    7
 10
50.440412282986152
 20
61.344065079167287
 11
50.067790755301587
 21
61.242503664262074
  0
LINE
  8
_0-3______1
  6
CONTINUOUS
 62
    7
 10
51.540913584794396
 20
61.631937257914728
 11
51.659424869486941
 21
61.648887127702153
  0
LINE
  8
_0-3______1
  6
CONTINUOUS
 62
    7
 10
49.86466792549129
 20
61.20860392468731
 11
50.050978689333512
 21
61.242503664262074
  0
LINE
  8
_0-3______1
  6
CONTINUOUS
 62
    7
 10
50.440412282986152
 20
61.479526233647277
 11
49.813680512309517
 21
61.293215469804977
  0
LINE
  8
_0-3______1
  6
CONTINUOUS
 62
    7
 10
49.59374561653118
 20
61.293215469804977
 11
49.79686844634152
 21
61.327115209379855
  0
LINE
  8
_0-3______1
  6
CONTINUOUS
 62
    7
 10
51.269991275834322
 20
61.750448542607366
 11
50.270913585111927
 21
61.49647610343473
  0
LINE
  8
_0-3______1
  6
CONTINUOUS
 62
    7
 10
49.66126948804208
 20
61.377964818742186
 11
50.237013845537035
 21
61.513425973222184
  0
LINE
  8
_0-3______1
  6
CONTINUOUS
 62
    7
 10
48.882402300736793
 20
61.479526233647277
 11
49.051900998611131
 21
61.530375843009608
  0
LINE
  8
_0-3______1
  6
CONTINUOUS
 62
    7
 10
50.81275820303199
 20
60.260375843327147
 11
50.152402300419268
 21
60.209526233964816
  0
LINE
  8
_0-3______1
  6
CONTINUOUS
 62
    7
 10
49.237936154814562
 20
57.855836998442101
 11
49.44133459226375
 21
57.906548803984975
  0
LINE
  8
_0-3______1
  6
CONTINUOUS
 62
    7
 10
49.00091358542943
 20
57.906548803984975
 11
49.237936154814562
 21
57.855836998442101
  0
LINE
  8
_0-3______1
  6
CONTINUOUS
 62
    7
 10
48.882402300736793
 20
57.466403404789446
 11
50.220201779569038
 21
57.127681616679688
  0
LINE
  8
_0-3______1
  6
CONTINUOUS
 62
    7
 10
50.220201779569038
 20
57.601726755450095
 11
50.152402300419268
 21
57.601726755450095
  0
LINE
  8
_0-3______1
  6
CONTINUOUS
 62
    7
 10
49.847580251884381
 20
57.669526234599772
 11
49.221124088846572
 21
57.838887128654669
  0
LINE
  8
_0-3______1
  6
CONTINUOUS
 62
    7
 10
49.847580251884381
 20
57.737325713749534
 11
49.33963537353911
 21
57.855836998442101
  0
LINE
  8
_0-3______1
  6
CONTINUOUS
 62
    7
 10
50.152402300419268
 20
58.075909698039851
 11
49.966091536577053
 21
58.126759307402182
  0
LINE
  8
_0-3______1
  6
CONTINUOUS
 62
    7
 10
49.221124088846572
 20
58.48229316147993
 11
49.847580251884381
 21
58.329882137212486
  0
LINE
  8
_0-3______1
  6
CONTINUOUS
 62
    7
 10
50.507936154497109
 20
58.245270592094748
 11
50.152402300419268
 21
58.329882137212486
  0
LINE
  8
_0-3______1
  6
CONTINUOUS
 62
    7
 10
49.847580251884381
 20
58.48229316147993
 11
49.221124088846572
 21
58.651654055534827
  0
LINE
  8
_0-3______1
  6
CONTINUOUS
 62
    7
 10
49.847580251884381
 20
58.550092640629693
 11
49.33963537353911
 21
58.685553795109684
  0
LINE
  8
_0-3______1
  6
CONTINUOUS
 62
    7
 10
51.269991275834322
 20
58.363781876787385
 11
51.490201779251507
 21
58.312932267425055
  0
LINE
  8
_0-3______1
  6
CONTINUOUS
 62
    7
 10
52.099845876321353
 20
58.211370852519941
 11
52.353680511674554
 21
58.143709177189614
  0
LINE
  8
_0-3______1
  6
CONTINUOUS
 62
    7
 10
49.051900998611131
 20
58.211370852519941
 11
48.391269488359598
 21
58.550092640629693
  0
LINE
  8
_0-3______1
  6
CONTINUOUS
 62
    7
 10
48.733380876983837
 20
57.993429338949852
 11
49.00091358542943
 21
57.906548803984975
  0
LINE
  8
_0-3______1
  6
CONTINUOUS
 62
    7
 10
48.289845877273841
 20
58.26222046188218
 11
48.733380876983837
 21
57.993429338949852
  0
LINE
  8
_0-3______1
  6
CONTINUOUS
 62
    7
 10
50.152402300419268
 20
60.497398412712243
 11
50.81275820303199
 21
60.565060088042571
  0
LINE
  8
_0-3______1
  6
CONTINUOUS
 62
    7
 10
49.221124088846572
 20
59.295060088360088
 11
49.847580251884381
 21
59.15959893388009
  0
LINE
  8
_0-3______1
  6
CONTINUOUS
 62
    7
 10
52.099845876321353
 20
58.668603925322259
 11
52.286156640163682
 21
58.634704185747353
  0
LINE
  8
_0-3______1
  6
CONTINUOUS
 62
    7
 10
49.847580251884381
 20
59.295060088360088
 11
49.237936154814562
 21
59.464420982414985
  0
LINE
  8
_0-3______1
  6
CONTINUOUS
 62
    7
 10
49.847580251884381
 20
59.362859567509787
 11
49.33963537353911
 21
59.481370852202417
  0
LINE
  8
_0-3______1
  6
CONTINUOUS
 62
    7
 10
49.221124088846572
 20
60.107964819059617
 11
49.847580251884381
 21
59.955553794792174
  0
LINE
  8
_0-3______1
  6
CONTINUOUS
 62
    7
 10
50.507936154497109
 20
59.870804445855065
 11
50.152402300419268
 21
59.955553794792174
  0
LINE
  8
_0-3______1
  6
CONTINUOUS
 62
    7
 10
50.507936154497109
 20
59.921654055217289
 11
50.626723046828488
 21
59.887754315642496
  0
LINE
  8
_0-3______1
  6
CONTINUOUS
 62
    7
 10
49.847580251884381
 20
60.107964819059617
 11
49.305735633964332
 21
60.260375843327147
  0
LINE
  8
_0-3______1
  6
CONTINUOUS
 62
    7
 10
49.847580251884381
 20
60.175626494389945
 11
49.356723047146012
 21
60.311087648869943
  0
LINE
  8
_0-3______1
  6
CONTINUOUS
 62
    7
 10
49.966091536577053
 20
60.277325713114493
 11
50.152402300419268
 21
60.209526233964816
  0
LINE
  8
_0-3______1
  6
CONTINUOUS
 62
    7
 10
51.066868446024003
 20
60.192576364177377
 11
50.880557682181689
 21
60.260375843327147
  0
LINE
  8
_0-3______1
  6
CONTINUOUS
 62
    7
 10
51.066868446024003
 20
60.29413777908249
 11
51.269991275834322
 21
60.260375843327147
  0
LINE
  8
_0-3______1
  6
CONTINUOUS
 62
    7
 10
49.221124088846572
 20
60.920731745939776
 11
49.847580251884381
 21
60.768320721672332
  0
LINE
  8
_0-3______1
  6
CONTINUOUS
 62
    7
 10
50.152402300419268
 20
60.683709176554572
 11
50.220201779569038
 21
60.683709176554572
  0
LINE
  8
_0-3______1
  6
CONTINUOUS
 62
    7
 10
51.269991275834322
 20
60.802220461247202
 11
51.490201779251507
 21
60.734420982097447
  0
LINE
  8
_0-3______1
  6
CONTINUOUS
 62
    7
 10
52.404667924856234
 20
60.531298152287128
 11
52.658502560209435
 21
60.480448542924819
  0
LINE
  8
_0-3______1
  6
CONTINUOUS
 62
    7
 10
48.882402300736793
 20
61.479526233647277
 11
49.59374561653118
 21
61.293215469804977
  0
LINE
  8
_0-3______1
  6
CONTINUOUS
 62
    7
 10
49.86466792549129
 20
61.20860392468731
 11
50.220201779569038
 21
61.123992379569529
  0
LINE
  8
_0-3______1
  6
CONTINUOUS
 62
    7
 10
50.423324609379371
 20
61.174704185112411
 11
50.050978689333512
 21
61.242503664262074
  0
LINE
  8
_0-3______1
  6
CONTINUOUS
 62
    7
 10
49.79686844634152
 20
61.327115209379855
 11
49.051900998611131
 21
61.530375843009608
  0
LINE
  8
_0-3______1
  6
CONTINUOUS
 62
    7
 10
50.237013845537035
 20
61.513425973222184
 11
50.440412282986152
 21
61.479526233647277
  0
LINE
  8
_0-3______1
  6
CONTINUOUS
 62
    7
 10
52.099845876321353
 20
61.107042509782104
 11
52.286156640163682
 21
61.073142770207198
  0
LINE
  8
_0-3______1
  6
CONTINUOUS
 62
    7
 10
52.353680511674554
 20
61.411726754497614
 11
51.540913584794396
 21
61.631937257914728
  0
LINE
  8
_0-3______1
  6
CONTINUOUS
 62
    7
 10
51.269991275834322
 20
61.750448542607366
 11
51.659424869486941
 21
61.648887127702153
  0
LINE
  8
_0-3______1
  6
CONTINUOUS
 62
    7
 10
38.519279473466483
 20
1.7725763787824236
 11
38.451479994316813
 21
1.4000926549171255
  0
LINE
  8
_0-3______1
  6
CONTINUOUS
 62
    7
 10
38.33296870962414
 20
1.8064761183572047
 11
38.282256904081279
 21
1.4508044604600117
  0
LINE
  8
_0-3______1
  6
CONTINUOUS
 62
    7
 10
38.062046400664165
 20
1.3831427851297862
 11
38.079134074270939
 21
1.5355538093972259
  0
LINE
  8
_0-3______1
  6
CONTINUOUS
 62
    7
 10
38.062046400664165
 20
1.3831427851297862
 11
38.079134074270939
 21
1.2646315004371447
  0
LINE
  8
_0-3______1
  6
CONTINUOUS
 62
    7
 10
39.721479993999289
 20
2.8055538090796919
 11
39.975590236991273
 21
2.8055538090796919
  0
LINE
  8
_0-3______1
  6
CONTINUOUS
 62
    7
 10
37.012256904398797
 20
0.4518645735569635
 11
37.299991279326868
 21
0.4518645735569635
  0
LINE
  8
_0-3______1
  6
CONTINUOUS
 62
    7
 10
32.321690499321441
 20
1.6710149638772238
 11
32.457013849981983
 21
1.6371152243023346
  0
LINE
  8
_0-3______1
  6
CONTINUOUS
 62
    7
 10
32.101479995904235
 20
1.8573257277195354
 11
32.321690499321441
 21
1.6710149638772238
  0
LINE
  8
_0-3______1
  6
CONTINUOUS
 62
    7
 10
32.000056384818478
 20
1.9927868821995334
 11
32.101479995904235
 21
1.8573257277195354
  0
LINE
  8
_0-3______1
  6
CONTINUOUS
 62
    7
 10
31.949068971636798
 20
2.2974711269150419
 11
32.000056384818478
 21
1.9927868821995334
  0
LINE
  8
_0-3______1
  6
CONTINUOUS
 62
    7
 10
38.739489976883689
 20
1.2985312400120108
 11
38.790201782426472
 21
1.2985312400120108
  0
LINE
  8
_0-3______1
  6
CONTINUOUS
 62
    7
 10
41.465800740090963
 20
0.0453433062975364
 11
41.550412285208722
 21
0.0453433062975364
  0
LINE
  8
_0-3______1
  6
CONTINUOUS
 62
    7
 10
33.540978693461042
 20
37.840659052057056
 11
33.540978693461042
 21
37.959170336749615
  0
LINE
  8
_0-3______1
  6
CONTINUOUS
 62
    7
 10
38.316156643656143
 20
46.205626497882406
 11
38.637790758159028
 21
46.154914692339524
  0
LINE
  8
_0-3______1
  6
CONTINUOUS
 62
    7
 10
33.303680516437041
 20
38.501014954669706
 11
33.236156644926147
 21
38.145343296772488
  0
LINE
  8
_0-3______1
  6
CONTINUOUS
 62
    7
 10
33.100557686626701
 20
38.568814433819448
 11
33.04984588108384
 21
38.196192906134812
  0
LINE
  8
_0-3______1
  6
CONTINUOUS
 62
    7
 10
32.829635377666627
 20
38.145481100591937
 11
32.829635377666627
 21
38.280804451252585
  0
LINE
  8
_0-3______1
  6
CONTINUOUS
 62
    7
 10
32.829635377666627
 20
38.145481100591937
 11
32.829635377666627
 21
38.026832012079943
  0
LINE
  8
_0-3______1
  6
CONTINUOUS
 62
    7
 10
35.640557685991688
 20
40.549882141657477
 11
35.352823311063602
 21
40.583781881232333
  0
LINE
  8
_0-3______1
  6
CONTINUOUS
 62
    7
 10
32.050768190361346
 20
36.502859573224804
 11
31.949068971636798
 21
36.130375849359623
  0
LINE
  8
_0-3______1
  6
CONTINUOUS
 62
    7
 10
32.372402304864316
 20
36.756832012397446
 11
32.050768190361346
 21
36.502859573224804
  0
LINE
  8
_0-3______1
  6
CONTINUOUS
 62
    7
 10
34.759991279961831
 20
38.873498678534887
 11
34.641479995269286
 21
38.484065084882268
  0
LINE
  8
_0-3______1
  6
CONTINUOUS
 62
    7
 10
35.11580074167847
 20
39.110659051739525
 11
34.759991279961831
 21
38.873498678534887
  0
LINE
  8
_0-3______1
  6
CONTINUOUS
 62
    7
 10
33.507078953886229
 20
38.043781881867382
 11
33.540978693461042
 21
38.043781881867382
  0
LINE
  8
_0-3______1
  6
CONTINUOUS
 62
    7
 10
33.845800741995902
 20
40.278959832697467
 11
33.760913589239429
 21
40.245060093122582
  0
LINE
  8
_0-3______1
  6
CONTINUOUS
 62
    7
 10
38.790201782426472
 20
1.1968320212874459
 11
38.790201782426472
 21
1.3492430455548856
  0
LINE
  8
_0-3______1
  6
CONTINUOUS
 62
    7
 10
38.790201782426472
 20
1.1968320212874459
 11
38.790201782426472
 21
1.0783207365948158
  0
LINE
  8
_0-3______1
  6
CONTINUOUS
 62
    7
 10
43.294457423661598
 20
0.7565488182724948
 11
43.41296870835415
 21
1.1461202157444859
  0
LINE
  8
_0-3______1
  6
CONTINUOUS
 62
    7
 10
42.955735635551832
 20
0.519526248887297
 11
43.294457423661598
 21
0.7565488182724948
  0
LINE
  8
_0-3______1
  6
CONTINUOUS
 62
    7
 10
33.540978693461042
 20
37.959170336749615
 11
33.540978693461042
 21
38.094631491229627
  0
LINE
  8
_0-3______1
  6
CONTINUOUS
 62
    7
 10
53.183535112161536
 20
44.309170335162094
 11
53.251334591311263
 21
44.326120204949518
  0
LINE
  8
_0-3______1
  6
CONTINUOUS
 62
    7
 10
53.302046396854067
 20
45.189736741191929
 11
52.997224348319186
 21
45.325060091852585
  0
LINE
  8
_0-3______1
  6
CONTINUOUS
 62
    7
 10
51.845735633329276
 20
45.342147765459458
 11
51.540913584794396
 21
45.189736741191929
  0
LINE
  8
_0-3______1
  6
CONTINUOUS
 62
    7
 10
52.675590233816322
 20
45.426759310577133
 11
52.167645355471031
 21
45.426759310577133
  0
LINE
  8
_0-3______1
  6
CONTINUOUS
 62
    7
 10
52.997224348319186
 20
45.342147765459458
 11
52.997224348319186
 21
45.325060091852585
  0
LINE
  8
_0-3______1
  6
CONTINUOUS
 62
    7
 10
52.946512542776333
 20
45.10498739225482
 11
52.844813324051756
 21
45.071087652679942
  0
LINE
  8
_0-3______1
  6
CONTINUOUS
 62
    7
 10
52.946512542776333
 20
45.10498739225482
 11
53.01431202192606
 21
45.10498739225482
  0
LINE
  8
_0-3______1
  6
CONTINUOUS
 62
    7
 10
52.844813324051756
 20
45.37590970121488
 11
52.675590233816322
 21
45.426759310577133
  0
LINE
  8
_0-3______1
  6
CONTINUOUS
 62
    7
 10
51.98133459162873
 20
45.37590970121488
 11
51.845735633329276
 21
45.342009961640024
  0
LINE
  8
_0-3______1
  6
CONTINUOUS
 62
    7
 10
52.167645355471031
 20
45.426759310577133
 11
51.98133459162873
 21
45.37590970121488
  0
LINE
  8
_0-3______1
  6
CONTINUOUS
 62
    7
 10
52.997224348319186
 20
45.342147765459458
 11
52.844813324051756
 21
45.37590970121488
  0
LINE
  8
_0-3______1
  6
CONTINUOUS
 62
    7
 10
43.379068968779279
 20
38.263992385284503
 11
43.260557684086713
 21
38.467115215094807
  0
LINE
  8
_0-3______1
  6
CONTINUOUS
 62
    7
 10
43.41296870835415
 20
38.043781881867382
 11
43.379068968779279
 21
38.263992385284503
  0
LINE
  8
_0-3______1
  6
CONTINUOUS
 62
    7
 10
43.074246920244398
 20
38.636476109149704
 11
42.905023830008957
 21
38.687325718512014
  0
LINE
  8
_0-3______1
  6
CONTINUOUS
 62
    7
 10
43.260557684086713
 20
38.467115215094807
 11
43.074246920244398
 21
38.636476109149704
  0
LINE
  8
_0-3______1
  6
CONTINUOUS
 62
    7
 10
43.599279472196486
 20
49.897115212237374
 11
43.616091538164483
 21
49.914065082024813
  0
LINE
  8
_0-3______1
  6
CONTINUOUS
 62
    7
 10
43.73460282285712
 20
49.964914691387037
 11
43.616091538164483
 21
49.914065082024813
  0
LINE
  8
_0-3______1
  6
CONTINUOUS
 62
    7
 10
43.988713065849133
 20
0.384065094407282
 11
44.818567666336072
 21
0.5873257280369671
  0
LINE
  8
_0-3______1
  6
CONTINUOUS
 62
    7
 10
42.87112409043408
 20
0.485626509312425
 11
43.260557684086713
 21
0.384065094407282
  0
LINE
  8
_0-3______1
  6
CONTINUOUS
 62
    7
 10
45.275800739138482
 20
7.5468320196999237
 11
45.986868447294
 21
7.7161929137548215
  0
LINE
  8
_0-3______1
  6
CONTINUOUS
 62
    7
 10
46.478001259671188
 20
10.611864571016964
 11
48.374457422391608
 21
11.119809449362243
  0
LINE
  8
_0-3______1
  6
CONTINUOUS
 62
    7
 10
48.374457422391608
 20
17.588320732467288
 11
46.478001259671188
 21
17.097325723909531
  0
LINE
  8
_0-3______1
  6
CONTINUOUS
 62
    7
 10
35.742256904716321
 20
40.533070075689444
 11
35.742256904716321
 21
45.90080444934754
  0
LINE
  8
_0-3______1
  6
CONTINUOUS
 62
    7
 10
35.894667928983758
 20
45.799243034442405
 11
35.894667928983758
 21
48.745626497247464
  0
LINE
  8
_0-3______1
  6
CONTINUOUS
 62
    7
 10
38.620978692191031
 20
46.358037522149914
 11
38.620978692191031
 21
46.866120204314576
  0
LINE
  8
_0-3______1
  6
CONTINUOUS
 62
    7
 10
43.260557684086713
 20
46.64590970089737
 11
43.260557684086713
 21
43.885837001934647
  0
LINE
  8
_0-3______1
  6
CONTINUOUS
 62
    7
 10
43.988713065849133
 20
46.64590970089737
 11
43.988713065849133
 21
45.189736741191929
  0
LINE
  8
_0-3______1
  6
CONTINUOUS
 62
    7
 10
43.988713065849133
 20
3.6183207359598555
 11
43.988713065849133
 21
15.319243042062332
  0
LINE
  8
_0-3______1
  6
CONTINUOUS
 62
    7
 10
45.275800739138482
 20
1.3661929153423444
 11
45.275800739138482
 21
7.5468320196999237
  0
LINE
  8
_0-3______1
  6
CONTINUOUS
 62
    7
 10
46.240978690286077
 20
42.852859571637282
 11
46.240978690286077
 21
43.818037522784891
  0
LINE
  8
_0-3______1
  6
CONTINUOUS
 62
    7
 10
46.478001259671188
 20
8.4951979048795234
 11
46.478001259671188
 21
10.611864571016964
  0
LINE
  8
_0-3______1
  6
CONTINUOUS
 62
    7
 10
46.478001259671188
 20
17.097325723909531
 11
46.478001259671188
 21
36.435060094075062
  0
LINE
  8
_0-3______1
  6
CONTINUOUS
 62
    7
 10
46.697936155449611
 20
45.240448546734818
 11
46.697936155449611
 21
44.275270595587223
  0
LINE
  8
_0-3______1
  6
CONTINUOUS
 62
    7
 10
46.478001259671188
 20
36.435060094075062
 11
51.473389713283524
 21
37.722009963545041
  0
LINE
  8
_0-3______1
  6
CONTINUOUS
 62
    7
 10
48.492968707084152
 20
42.954420986542509
 11
48.492968707084152
 21
43.123781880597384
  0
LINE
  8
_0-3______1
  6
CONTINUOUS
 62
    7
 10
48.831690495193918
 20
11.864914700912093
 11
48.831690495193918
 21
17.063425984334664
  0
LINE
  8
_0-3______1
  6
CONTINUOUS
 62
    7
 10
49.08580073818591
 20
47.966759309942177
 11
49.08580073818591
 21
44.884914692657048
  0
LINE
  8
_0-3______1
  6
CONTINUOUS
 62
    7
 10
51.947434852053824
 20
38.484065084882268
 11
51.947434852053824
 21
41.819882141340017
  0
LINE
  8
_0-3______1
  6
CONTINUOUS
 62
    7
 10
52.404667924856234
 20
42.649736741826977
 11
54.317936153544565
 21
43.140731750384724
  0
LINE
  8
_0-3______1
  6
CONTINUOUS
 62
    7
 10
53.302046396854067
 20
42.649736741826977
 11
53.302046396854067
 21
42.869809441424742
  0
LINE
  8
_0-3______1
  6
CONTINUOUS
 62
    7
 10
49.08580073818591
 20
43.123781880597384
 11
48.492968707084152
 21
42.954420986542509
  0
LINE
  8
_0-3______1
  6
CONTINUOUS
 62
    7
 10
46.240978690286077
 20
42.852859571637282
 11
48.272758203666967
 21
43.37775431977002
  0
LINE
  8
_0-3______1
  6
CONTINUOUS
 62
    7
 10
47.189068967826799
 20
43.750375847454563
 11
48.611479991776811
 21
44.122859571319786
  0
LINE
  8
_0-3______1
  6
CONTINUOUS
 62
    7
 10
43.988713065849133
 20
43.885837001934647
 11
45.749845877908889
 21
44.359882140704961
  0
LINE
  8
_0-3______1
  6
CONTINUOUS
 62
    7
 10
44.445946138651436
 20
44.681654059027302
 11
46.697936155449611
 21
45.240448546734818
  0
LINE
  8
_0-3______1
  6
CONTINUOUS
 62
    7
 10
39.839991278691834
 20
43.648814432549443
 11
40.890056382596001
 21
43.37775431977002
  0
LINE
  8
_0-3______1
  6
CONTINUOUS
 62
    7
 10
49.204312022878568
 20
43.242293165289929
 11
51.473389713283524
 21
42.649736741826977
  0
LINE
  8
_0-3______1
  6
CONTINUOUS
 62
    7
 10
40.890056382596001
 20
46.290375846819622
 11
38.282256904081279
 21
46.967681619219682
  0
LINE
  8
_0-3______1
  6
CONTINUOUS
 62
    7
 10
37.520201782743982
 20
46.408887131512166
 11
37.689424872979522
 21
46.442786871087058
  0
LINE
  8
_0-3______1
  6
CONTINUOUS
 62
    7
 10
49.559845876956317
 20
49.93101495181218
 11
47.493891016361772
 21
49.405982399860186
  0
LINE
  8
_0-3______1
  6
CONTINUOUS
 62
    7
 10
46.630412283938711
 20
49.168959830474876
 11
46.478001259671188
 21
49.118248024932086
  0
LINE
  8
_0-3______1
  6
CONTINUOUS
 62
    7
 10
43.954813326274227
 20
49.964914691387037
 11
43.616091538164483
 21
49.880165342449935
  0
LINE
  8
_0-3______1
  6
CONTINUOUS
 62
    7
 10
42.905023830008957
 20
50.066476106292249
 11
43.514667927078719
 21
50.218887130559686
  0
LINE
  8
_0-3______1
  6
CONTINUOUS
 62
    7
 10
36.131690498368968
 20
49.118248024932086
 11
44.818567666336072
 21
51.404137781305053
  0
LINE
  8
_0-3______1
  6
CONTINUOUS
 62
    7
 10
48.729991276469363
 20
48.559453537224556
 11
46.478001259671188
 21
49.118248024932086
  0
LINE
  8
_0-3______1
  6
CONTINUOUS
 62
    7
 10
43.616091538164483
 20
49.880165342449935
 11
42.905023830008957
 21
50.066476106292249
  0
LINE
  8
_0-3______1
  6
CONTINUOUS
 62
    7
 10
44.937078951028731
 20
51.387325715336971
 11
49.559845876956317
 21
50.184987390984816
  0
LINE
  8
_0-3______1
  6
CONTINUOUS
 62
    7
 10
37.909635376396636
 20
46.628959831109931
 11
37.689424872979522
 21
46.730659049834507
  0
LINE
  8
_0-3______1
  6
CONTINUOUS
 62
    7
 10
38.620978692191031
 20
46.527398416204825
 11
37.909635376396636
 21
46.628959831109931
  0
LINE
  8
_0-3______1
  6
CONTINUOUS
 62
    7
 10
37.92672305000351
 20
46.950731749432236
 11
38.620978692191031
 21
46.865982400495135
  0
LINE
  8
_0-3______1
  6
CONTINUOUS
 62
    7
 10
53.691479990506799
 20
44.529243034759865
 11
53.59005637942105
 21
44.681654059027302
  0
LINE
  8
_0-3______1
  6
CONTINUOUS
 62
    7
 10
51.236091536259529
 20
44.681654059027302
 11
51.134667925173773
 21
44.529243034759865
  0
LINE
  8
_0-3______1
  6
CONTINUOUS
 62
    7
 10
53.67466792453871
 20
44.122859571319786
 11
53.369845876003843
 21
44.004348286627213
  0
LINE
  8
_0-3______1
  6
CONTINUOUS
 62
    7
 10
53.691479990506799
 20
44.207471116437524
 11
53.67466792453871
 21
44.122859571319786
  0
LINE
  8
_0-3______1
  6
CONTINUOUS
 62
    7
 10
51.168567664748572
 20
44.122859571319786
 11
51.134667925173773
 21
44.207471116437524
  0
LINE
  8
_0-3______1
  6
CONTINUOUS
 62
    7
 10
51.354602820952067
 20
44.021298156414652
 11
51.168567664748572
 21
44.122859571319786
  0
LINE
  8
_0-3______1
  6
CONTINUOUS
 62
    7
 10
51.86282330693615
 20
43.902649067902644
 11
51.354602820952067
 21
44.021298156414652
  0
LINE
  8
_0-3______1
  6
CONTINUOUS
 62
    7
 10
52.692402299784305
 20
43.885837001934647
 11
51.86282330693615
 21
43.902649067902644
  0
LINE
  8
_0-3______1
  6
CONTINUOUS
 62
    7
 10
53.26814665727926
 20
43.970448547052342
 11
52.692402299784305
 21
43.885837001934647
  0
LINE
  8
_0-3______1
  6
CONTINUOUS
 62
    7
 10
52.777013844902086
 20
44.207471116437524
 11
53.26814665727926
 21
44.292220465374662
  0
LINE
  8
_0-3______1
  6
CONTINUOUS
 62
    7
 10
52.049134070778479
 20
44.207471116437524
 11
52.777013844902086
 21
44.207471116437524
  0
LINE
  8
_0-3______1
  6
CONTINUOUS
 62
    7
 10
51.371690494558976
 20
44.326120204949518
 11
52.049134070778479
 21
44.207471116437524
  0
LINE
  8
_0-3______1
  6
CONTINUOUS
 62
    7
 10
51.134667925173773
 20
44.529243034759865
 11
51.371690494558976
 21
44.326120204949518
  0
LINE
  8
_0-3______1
  6
CONTINUOUS
 62
    7
 10
53.67466792453871
 20
44.461581359429537
 11
53.691479990506799
 21
44.529243034759865
  0
LINE
  8
_0-3______1
  6
CONTINUOUS
 62
    7
 10
53.369845876003843
 20
44.309170335162094
 11
53.67466792453871
 21
44.461581359429537
  0
LINE
  8
_0-3______1
  6
CONTINUOUS
 62
    7
 10
38.688502563701917
 20
2.3991703456396123
 11
38.485379733891591
 21
2.2974711269150419
  0
LINE
  8
_0-3______1
  6
CONTINUOUS
 62
    7
 10
38.942612806694001
 20
0.4686766395249833
 11
39.196723049686
 21
0.4686766395249833
  0
LINE
  8
_0-3______1
  6
CONTINUOUS
 62
    7
 10
39.602968709306651
 20
0.654987403367295
 11
39.349134073953451
 21
0.5364761186747216
  0
LINE
  8
_0-3______1
  6
CONTINUOUS
 62
    7
 10
39.721479993999289
 20
0.8412981672096009
 11
39.602968709306651
 21
0.654987403367295
  0
LINE
  8
_0-3______1
  6
CONTINUOUS
 62
    7
 10
39.806091539117048
 20
1.1461202157444859
 11
39.721479993999289
 21
0.8412981672096009
  0
LINE
  8
_0-3______1
  6
CONTINUOUS
 62
    7
 10
39.806091539117048
 20
1.5016540698223253
 11
39.806091539117048
 21
1.1461202157444859
  0
LINE
  8
_0-3______1
  6
CONTINUOUS
 62
    7
 10
39.602968709306651
 20
2.0604485575298441
 11
39.806091539117048
 21
1.5016540698223253
  0
LINE
  8
_0-3______1
  6
CONTINUOUS
 62
    7
 10
39.399845879496318
 20
2.2806590609470563
 11
39.602968709306651
 21
2.0604485575298441
  0
LINE
  8
_0-3______1
  6
CONTINUOUS
 62
    7
 10
39.162823310111108
 20
2.4498821511824875
 11
39.399845879496318
 21
2.2806590609470563
  0
LINE
  8
_0-3______1
  6
CONTINUOUS
 62
    7
 10
38.858001261576227
 20
2.4498821511824875
 11
39.162823310111108
 21
2.4498821511824875
  0
LINE
  8
_0-3______1
  6
CONTINUOUS
 62
    7
 10
38.959424872661998
 20
2.3991703456396123
 11
38.688502563701917
 21
2.3991703456396123
  0
LINE
  8
_0-3______1
  6
CONTINUOUS
 62
    7
 10
39.230347181622072
 20
2.2637091911596143
 11
38.959424872661998
 21
2.3991703456396123
  0
LINE
  8
_0-3______1
  6
CONTINUOUS
 62
    7
 10
39.416657945464408
 20
2.0434986877424137
 11
39.230347181622072
 21
2.2637091911596143
  0
LINE
  8
_0-3______1
  6
CONTINUOUS
 62
    7
 10
39.602968709306651
 20
1.654065094089765
 11
39.416657945464408
 21
2.0434986877424137
  0
LINE
  8
_0-3______1
  6
CONTINUOUS
 62
    7
 10
39.602968709306651
 20
0.9259097123273761
 11
39.602968709306651
 21
1.654065094089765
  0
LINE
  8
_0-3______1
  6
CONTINUOUS
 62
    7
 10
39.467645358646088
 20
0.654987403367295
 11
39.602968709306651
 21
0.9259097123273761
  0
LINE
  8
_0-3______1
  6
CONTINUOUS
 62
    7
 10
39.196723049686
 20
0.4686766395249833
 11
39.467645358646088
 21
0.654987403367295
  0
LINE
  8
_0-3______1
  6
CONTINUOUS
 62
    7
 10
38.062046400664165
 20
46.459598937055056
 11
38.620978692191031
 21
46.425837001299612
  0
LINE
  8
_0-3______1
  6
CONTINUOUS
 62
    7
 10
37.604813327861756
 20
46.561298155779603
 11
38.062046400664165
 21
46.459598937055056
  0
LINE
  8
_0-3______1
  6
CONTINUOUS
 62
    7
 10
33.45609154070447
 20
39.127471117707522
 11
33.252968710894145
 21
39.025909702802323
  0
LINE
  8
_0-3______1
  6
CONTINUOUS
 62
    7
 10
33.727013849664552
 20
37.231014954987224
 11
33.947224353081673
 21
37.231014954987224
  0
LINE
  8
_0-3______1
  6
CONTINUOUS
 62
    7
 10
34.336657946734412
 20
37.366476109467207
 11
34.116723050956004
 21
37.264914694562101
  0
LINE
  8
_0-3______1
  6
CONTINUOUS
 62
    7
 10
34.522968710576649
 20
37.654348288214742
 11
34.336657946734412
 21
37.366476109467207
  0
LINE
  8
_0-3______1
  6
CONTINUOUS
 62
    7
 10
34.573680516119524
 20
38.162293166559927
 11
34.522968710576649
 21
37.654348288214742
  0
LINE
  8
_0-3______1
  6
CONTINUOUS
 62
    7
 10
34.522968710576649
 20
38.450165345307468
 11
34.573680516119524
 21
38.162293166559927
  0
LINE
  8
_0-3______1
  6
CONTINUOUS
 62
    7
 10
34.404457425884083
 20
38.754987393842342
 11
34.522968710576649
 21
38.450165345307468
  0
LINE
  8
_0-3______1
  6
CONTINUOUS
 62
    7
 10
34.099635377349102
 20
39.076759312164654
 11
34.404457425884083
 21
38.754987393842342
  0
LINE
  8
_0-3______1
  6
CONTINUOUS
 62
    7
 10
33.930412287113676
 20
39.178320727069853
 11
34.099635377349102
 21
39.076759312164654
  0
LINE
  8
_0-3______1
  6
CONTINUOUS
 62
    7
 10
33.625590238578788
 20
39.195270596857227
 11
33.930412287113676
 21
39.178320727069853
  0
LINE
  8
_0-3______1
  6
CONTINUOUS
 62
    7
 10
33.65948997815368
 20
39.161370857282428
 11
33.45609154070447
 21
39.127471117707522
  0
LINE
  8
_0-3______1
  6
CONTINUOUS
 62
    7
 10
33.997936158624555
 20
38.992009963227545
 11
33.65948997815368
 21
39.161370857282428
  0
LINE
  8
_0-3______1
  6
CONTINUOUS
 62
    7
 10
34.269134075223448
 20
38.636476109149704
 11
33.997936158624555
 21
38.992009963227545
  0
LINE
  8
_0-3______1
  6
CONTINUOUS
 62
    7
 10
34.404457425884083
 20
38.263992385284503
 11
34.269134075223448
 21
38.636476109149704
  0
LINE
  8
_0-3______1
  6
CONTINUOUS
 62
    7
 10
34.404457425884083
 20
37.789809442694732
 11
34.404457425884083
 21
38.263992385284503
  0
LINE
  8
_0-3______1
  6
CONTINUOUS
 62
    7
 10
34.321438261766481
 20
37.551130687391613
 11
34.404457425884083
 21
37.789809442694732
  0
LINE
  8
_0-3______1
  6
CONTINUOUS
 62
    7
 10
34.116723050956004
 20
37.281726760530091
 11
34.321438261766481
 21
37.551130687391613
  0
LINE
  8
_0-3______1
  6
CONTINUOUS
 62
    7
 10
33.947224353081673
 20
37.231014954987224
 11
34.116723050956004
 21
37.281726760530091
  0
LINE
  8
_0-3______1
  6
CONTINUOUS
 62
    7
 10
38.53609153943448
 20
2.4837818907573821
 11
38.400768188773917
 21
2.2637091911596143
  0
LINE
  8
_0-3______1
  6
CONTINUOUS
 62
    7
 10
38.807013848394547
 20
2.6192430452373632
 11
38.53609153943448
 21
2.4837818907573821
  0
LINE
  8
_0-3______1
  6
CONTINUOUS
 62
    7
 10
39.298146660771771
 20
2.653142784812252
 11
38.925800740725911
 21
2.653142784812252
  0
LINE
  8
_0-3______1
  6
CONTINUOUS
 62
    7
 10
39.704667928031292
 20
2.3483207362772816
 11
39.298146660771771
 21
2.653142784812252
  0
LINE
  8
_0-3______1
  6
CONTINUOUS
 62
    7
 10
39.907790757841603
 20
2.0434986877424137
 11
39.704667928031292
 21
2.3483207362772816
  0
LINE
  8
_0-3______1
  6
CONTINUOUS
 62
    7
 10
40.009489976566172
 20
1.7386766392075232
 11
39.907790757841603
 21
2.0434986877424137
  0
LINE
  8
_0-3______1
  6
CONTINUOUS
 62
    7
 10
40.043389716141043
 20
1.2985312400120108
 11
40.009489976566172
 21
1.7386766392075232
  0
LINE
  8
_0-3______1
  6
CONTINUOUS
 62
    7
 10
39.04431202541857
 20
0.3501653548324157
 11
39.416657945464408
 21
0.3501653548324157
  0
LINE
  8
_0-3______1
  6
CONTINUOUS
 62
    7
 10
38.858001261576227
 20
0.4686766395249833
 11
39.04431202541857
 21
0.3501653548324157
  0
LINE
  8
_0-3______1
  6
CONTINUOUS
 62
    7
 10
40.026302042534155
 20
0.9428595821148008
 11
40.043389716141043
 21
1.2985312400120108
  0
LINE
  8
_0-3______1
  6
CONTINUOUS
 62
    7
 10
39.907790757841603
 20
0.654987403367295
 11
40.026302042534155
 21
0.9428595821148008
  0
LINE
  8
_0-3______1
  6
CONTINUOUS
 62
    7
 10
39.73856766760607
 20
0.4686766395249833
 11
39.907790757841603
 21
0.654987403367295
  0
LINE
  8
_0-3______1
  6
CONTINUOUS
 62
    7
 10
39.518357164188956
 20
0.384065094407282
 11
39.73856766760607
 21
0.4686766395249833
  0
LINE
  8
_0-3______1
  6
CONTINUOUS
 62
    7
 10
39.04431202541857
 20
2.653142784812252
 11
38.807013848394547
 21
2.6192430452373632
  0
LINE
  8
_0-3______1
  6
CONTINUOUS
 62
    7
 10
39.315234334378637
 20
2.5515813699070522
 11
39.04431202541857
 21
2.653142784812252
  0
LINE
  8
_0-3______1
  6
CONTINUOUS
 62
    7
 10
39.501269490582082
 20
2.3991703456396123
 11
39.315234334378637
 21
2.5515813699070522
  0
LINE
  8
_0-3______1
  6
CONTINUOUS
 62
    7
 10
39.721479993999289
 20
2.1112981668920838
 11
39.501269490582082
 21
2.3991703456396123
  0
LINE
  8
_0-3______1
  6
CONTINUOUS
 62
    7
 10
39.907790757841603
 20
1.6371152243023346
 11
39.721479993999289
 21
2.1112981668920838
  0
LINE
  8
_0-3______1
  6
CONTINUOUS
 62
    7
 10
39.941690497416403
 20
1.1968320212874459
 11
39.907790757841603
 21
1.6371152243023346
  0
LINE
  8
_0-3______1
  6
CONTINUOUS
 62
    7
 10
39.839991278691834
 20
0.7395989484850645
 11
39.941690497416403
 21
1.1968320212874459
  0
LINE
  8
_0-3______1
  6
CONTINUOUS
 62
    7
 10
39.721479993999289
 20
0.5364761186747216
 11
39.839991278691834
 21
0.7395989484850645
  0
LINE
  8
_0-3______1
  6
CONTINUOUS
 62
    7
 10
39.416657945464408
 20
0.3501653548324157
 11
39.721479993999289
 21
0.5364761186747216
  0
LINE
  8
_0-3______1
  6
CONTINUOUS
 62
    7
 10
53.979489973073697
 20
43.784137783210006
 11
54.098001257766242
 21
43.953498677264882
  0
LINE
  8
_0-3______1
  6
CONTINUOUS
 62
    7
 10
53.606868445389047
 20
43.648814432549443
 11
53.979489973073697
 21
43.784137783210006
  0
LINE
  8
_0-3______1
  6
CONTINUOUS
 62
    7
 10
52.760201778933983
 20
43.530165344037464
 11
53.606868445389047
 21
43.648676628730009
  0
LINE
  8
_0-3______1
  6
CONTINUOUS
 62
    7
 10
51.777936154179613
 20
43.547115213824803
 11
52.760201778933983
 21
43.530165344037464
  0
LINE
  8
_0-3______1
  6
CONTINUOUS
 62
    7
 10
51.083680511992092
 20
43.6825763683049
 11
51.777936154179613
 21
43.547115213824803
  0
LINE
  8
_0-3______1
  6
CONTINUOUS
 62
    7
 10
50.81275820303199
 20
43.818037522784891
 11
51.083680511992092
 21
43.6825763683049
  0
LINE
  8
_0-3______1
  6
CONTINUOUS
 62
    7
 10
50.745234331521132
 20
43.953498677264882
 11
50.81275820303199
 21
43.818037522784891
  0
LINE
  8
_0-3______1
  6
CONTINUOUS
 62
    7
 10
50.829845876638878
 20
44.376832010492421
 11
50.745234331521132
 21
44.207471116437524
  0
LINE
  8
_0-3______1
  6
CONTINUOUS
 62
    7
 10
51.134667925173773
 20
44.495481099004394
 11
50.829845876638878
 21
44.376832010492421
  0
LINE
  8
_0-3______1
  6
CONTINUOUS
 62
    7
 10
53.996302039041694
 20
44.376832010492421
 11
53.691479990506799
 21
44.495343295184966
  0
LINE
  8
_0-3______1
  6
CONTINUOUS
 62
    7
 10
54.098001257766242
 20
44.207471116437524
 11
53.996302039041694
 21
44.376832010492421
  0
LINE
  8
_0-3______1
  6
CONTINUOUS
 62
    7
 10
53.911690493923913
 20
44.004348286627213
 11
54.098001257766242
 21
44.207471116437524
  0
LINE
  8
_0-3______1
  6
CONTINUOUS
 62
    7
 10
53.606868445389047
 20
43.902786871722014
 11
53.911690493923913
 21
44.004348286627213
  0
LINE
  8
_0-3______1
  6
CONTINUOUS
 62
    7
 10
52.878713063626641
 20
43.784137783210006
 11
53.606868445389047
 21
43.902786871722014
  0
LINE
  8
_0-3______1
  6
CONTINUOUS
 62
    7
 10
51.659424869486941
 20
43.818037522784891
 11
52.878713063626641
 21
43.784137783210006
  0
LINE
  8
_0-3______1
  6
CONTINUOUS
 62
    7
 10
50.880557682181689
 20
44.021298156414652
 11
51.659424869486941
 21
43.818037522784891
  0
LINE
  8
_0-3______1
  6
CONTINUOUS
 62
    7
 10
50.745234331521132
 20
44.207471116437524
 11
50.880557682181689
 21
44.021298156414652
  0
LINE
  8
_0-3______1
  6
CONTINUOUS
 62
    7
 10
33.252968710894145
 20
39.178320727069853
 11
33.151269492169597
 21
38.992009963227545
  0
LINE
  8
_0-3______1
  6
CONTINUOUS
 62
    7
 10
33.507078953886229
 20
39.364631490912167
 11
33.252968710894145
 21
39.178320727069853
  0
LINE
  8
_0-3______1
  6
CONTINUOUS
 62
    7
 10
33.591690499003917
 20
39.364631490912167
 11
33.507078953886229
 21
39.364631490912167
  0
LINE
  8
_0-3______1
  6
CONTINUOUS
 62
    7
 10
33.930412287113676
 20
39.415343296454978
 11
33.693389717728472
 21
39.398393426667624
  0
LINE
  8
_0-3______1
  6
CONTINUOUS
 62
    7
 10
34.252046401616653
 20
39.279882141974966
 11
33.930412287113676
 21
39.415343296454978
  0
LINE
  8
_0-3______1
  6
CONTINUOUS
 62
    7
 10
34.50615664460863
 20
39.025909702802323
 11
34.252046401616653
 21
39.279882141974966
  0
LINE
  8
_0-3______1
  6
CONTINUOUS
 62
    7
 10
34.675379734844093
 20
38.704137784480018
 11
34.50615664460863
 21
39.025909702802323
  0
LINE
  8
_0-3______1
  6
CONTINUOUS
 62
    7
 10
33.96431202668856
 20
37.061654060932327
 11
34.167434856498879
 21
37.112503670294565
  0
LINE
  8
_0-3______1
  6
CONTINUOUS
 62
    7
 10
33.625590238578788
 20
37.231014954987224
 11
33.96431202668856
 21
37.061654060932327
  0
LINE
  8
_0-3______1
  6
CONTINUOUS
 62
    7
 10
34.45516923142695
 20
37.180165345624893
 11
34.624667929301289
 21
37.349526239679754
  0
LINE
  8
_0-3______1
  6
CONTINUOUS
 62
    7
 10
34.302758207159506
 20
37.129453540082025
 11
34.45516923142695
 21
37.180165345624893
  0
LINE
  8
_0-3______1
  6
CONTINUOUS
 62
    7
 10
34.45516923142695
 20
37.247964824774662
 11
34.641479995269286
 21
37.620448548639857
  0
LINE
  8
_0-3______1
  6
CONTINUOUS
 62
    7
 10
34.302758207159506
 20
37.129453540082025
 11
34.45516923142695
 21
37.247964824774662
  0
LINE
  8
_0-3______1
  6
CONTINUOUS
 62
    7
 10
33.930412287113676
 20
39.364631490912167
 11
33.591690499003917
 21
39.364631490912167
  0
LINE
  8
_0-3______1
  6
CONTINUOUS
 62
    7
 10
34.302758207159506
 20
39.110659051739525
 11
33.930412287113676
 21
39.364631490912167
  0
LINE
  8
_0-3______1
  6
CONTINUOUS
 62
    7
 10
34.540056384183515
 20
38.754987393842342
 11
34.302758207159506
 21
39.110659051739525
  0
LINE
  8
_0-3______1
  6
CONTINUOUS
 62
    7
 10
34.641479995269286
 20
38.450165345307468
 11
34.540056384183515
 21
38.754987393842342
  0
LINE
  8
_0-3______1
  6
CONTINUOUS
 62
    7
 10
38.587078952616253
 20
46.899882140070012
 11
37.994246921514403
 21
47.001581358794567
  0
LINE
  8
_0-3______1
  6
CONTINUOUS
 62
    7
 10
53.08183589343696
 20
41.938393426032583
 11
52.895800737233436
 21
41.819882141340017
  0
LINE
  8
_0-3______1
  6
CONTINUOUS
 62
    7
 10
53.471269487089593
 20
44.393781880279846
 11
53.59005637942105
 21
44.529243034759865
  0
LINE
  8
_0-3______1
  6
CONTINUOUS
 62
    7
 10
53.251334591311263
 20
44.326120204949518
 11
53.471269487089593
 21
44.393781880279846
  0
LINE
  8
_0-3______1
  6
CONTINUOUS
 62
    7
 10
51.287078949441195
 20
44.427681619854731
 11
51.236091536259529
 21
44.529243034759865
  0
LINE
  8
_0-3______1
  6
CONTINUOUS
 62
    7
 10
51.777936154179613
 20
44.275270595587223
 11
51.287078949441195
 21
44.427681619854731
  0
LINE
  8
_0-3______1
  6
CONTINUOUS
 62
    7
 10
52.506091535942005
 20
44.22442098622497
 11
51.777936154179613
 21
44.275270595587223
  0
LINE
  8
_0-3______1
  6
CONTINUOUS
 62
    7
 10
53.183535112161536
 20
44.309170335162094
 11
52.506091535942005
 21
44.22442098622497
  0
LINE
  8
_0-3______1
  6
CONTINUOUS
 62
    7
 10
51.828923567361279
 20
45.10498739225482
 11
51.98133459162873
 21
45.071087652679942
  0
LINE
  8
_0-3______1
  6
CONTINUOUS
 62
    7
 10
52.404667924856234
 20
45.325060091852585
 11
51.98133459162873
 21
45.071087652679942
  0
LINE
  8
_0-3______1
  6
CONTINUOUS
 62
    7
 10
52.844813324051756
 20
45.071087652679942
 11
52.404667924856234
 21
45.325060091852585
  0
LINE
  8
_0-3______1
  6
CONTINUOUS
 62
    7
 10
53.48835716069641
 20
45.020375847137132
 11
53.302046396854067
 21
45.189736741191929
  0
LINE
  8
_0-3______1
  6
CONTINUOUS
 62
    7
 10
53.59005637942105
 20
44.698603928814741
 11
53.48835716069641
 21
45.020375847137132
  0
LINE
  8
_0-3______1
  6
CONTINUOUS
 62
    7
 10
52.252256900588797
 20
45.37590970121488
 11
51.98133459162873
 21
45.37590970121488
  0
LINE
  8
_0-3______1
  6
CONTINUOUS
 62
    7
 10
51.795023827786387
 20
41.853781880914902
 11
51.744312022243527
 21
41.938393426032583
  0
LINE
  8
_0-3______1
  6
CONTINUOUS
 62
    7
 10
52.150557681864235
 20
41.769170335797142
 11
51.795023827786387
 21
41.853781880914902
  0
LINE
  8
_0-3______1
  6
CONTINUOUS
 62
    7
 10
52.895800737233436
 20
41.819882141340017
 11
52.150557681864235
 21
41.769170335797142
  0
LINE
  8
_0-3______1
  6
CONTINUOUS
 62
    7
 10
51.287078949441195
 20
44.935626498199944
 11
51.236091536259529
 21
44.698603928814741
  0
LINE
  8
_0-3______1
  6
CONTINUOUS
 62
    7
 10
51.540913584794396
 20
45.189736741191929
 11
51.287078949441195
 21
44.935626498199944
  0
LINE
  8
_0-3______1
  6
CONTINUOUS
 62
    7
 10
52.844813324051756
 20
45.37590970121488
 11
52.590978688698556
 21
45.37590970121488
  0
LINE
  8
_0-3______1
  6
CONTINUOUS
 62
    7
 10
52.404667924856234
 20
45.409809440789765
 11
52.167645355471031
 21
45.426759310577133
  0
LINE
  8
_0-3______1
  6
CONTINUOUS
 62
    7
 10
53.369845876003843
 20
45.138887131829676
 11
53.302046396854067
 21
45.189736741191929
  0
LINE
  8
_0-3______1
  6
CONTINUOUS
 62
    7
 10
53.369845876003843
 20
45.037325716924492
 11
53.369845876003843
 21
45.138887131829676
  0
LINE
  8
_0-3______1
  6
CONTINUOUS
 62
    7
 10
53.08183589343696
 20
44.918814432231947
 11
53.369845876003843
 21
45.037325716924492
  0
LINE
  8
_0-3______1
  6
CONTINUOUS
 62
    7
 10
52.539991275516883
 20
44.83406508329481
 11
53.08183589343696
 21
44.918676628412506
  0
LINE
  8
_0-3______1
  6
CONTINUOUS
 62
    7
 10
51.86282330693615
 20
44.884914692657048
 11
52.539991275516883
 21
44.83406508329481
  0
LINE
  8
_0-3______1
  6
CONTINUOUS
 62
    7
 10
51.490201779251507
 20
45.003425977349686
 11
51.86282330693615
 21
44.884914692657048
  0
LINE
  8
_0-3______1
  6
CONTINUOUS
 62
    7
 10
51.456302039676643
 20
45.121937262042252
 11
51.490201779251507
 21
45.003425977349686
  0
LINE
  8
_0-3______1
  6
CONTINUOUS
 62
    7
 10
51.524101518826413
 20
45.189736741191929
 11
51.456302039676643
 21
45.121937262042252
  0
LINE
  8
_0-3______1
  6
CONTINUOUS
 62
    7
 10
53.572968705814141
 20
44.613992383697052
 11
53.59005637942105
 21
44.698603928814741
  0
LINE
  8
_0-3______1
  6
CONTINUOUS
 62
    7
 10
53.403745615578707
 20
44.512293164972391
 11
53.572968705814141
 21
44.613992383697052
  0
LINE
  8
_0-3______1
  6
CONTINUOUS
 62
    7
 10
53.065023827468963
 20
44.427681619854731
 11
53.403745615578707
 21
44.512293164972391
  0
LINE
  8
_0-3______1
  6
CONTINUOUS
 62
    7
 10
52.049134070778479
 20
44.393781880279846
 11
53.065023827468963
 21
44.427681619854731
  0
LINE
  8
_0-3______1
  6
CONTINUOUS
 62
    7
 10
51.42240230010183
 20
44.512293164972391
 11
52.049134070778479
 21
44.393781880279846
  0
LINE
  8
_0-3______1
  6
CONTINUOUS
 62
    7
 10
51.236091536259529
 20
44.698603928814741
 11
51.42240230010183
 21
44.512293164972391
  0
LINE
  8
_0-3______1
  6
CONTINUOUS
 62
    7
 10
52.675590233816322
 20
45.426759310577133
 11
52.404667924856234
 21
45.409809440789765
  0
LINE
  8
_0-3______1
  6
CONTINUOUS
 62
    7
 10
52.252256900588797
 20
45.37590970121488
 11
51.828923567361279
 21
45.10498739225482
  0
LINE
  8
_0-3______1
  6
CONTINUOUS
 62
    7
 10
53.01431202192606
 20
45.10498739225482
 11
52.590978688698556
 21
45.37590970121488
  0
LINE
  8
_0-3______1
  6
CONTINUOUS
 62
    7
 10
38.519279473466483
 20
0.7904485578473668
 11
38.451479994316813
 21
1.1461202157444859
  0
LINE
  8
_0-3______1
  6
CONTINUOUS
 62
    7
 10
38.079134074270939
 20
1.5355538093972259
 11
38.282256904081279
 21
1.4508044604600117
  0
LINE
  8
_0-3______1
  6
CONTINUOUS
 62
    7
 10
38.451479994316813
 20
1.4000926549171255
 11
38.790201782426472
 21
1.3492430455548856
  0
LINE
  8
_0-3______1
  6
CONTINUOUS
 62
    7
 10
38.688502563701917
 20
0.4686766395249833
 11
39.010412285843678
 21
0.485626509312425
  0
LINE
  8
_0-3______1
  6
CONTINUOUS
 62
    7
 10
38.400768188773917
 20
0.5873257280369671
 11
38.688502563701917
 21
0.4686766395249833
  0
LINE
  8
_0-3______1
  6
CONTINUOUS
 62
    7
 10
38.112758206206969
 20
0.8920099727525041
 11
38.400768188773917
 21
0.5873257280369671
  0
LINE
  8
_0-3______1
  6
CONTINUOUS
 62
    7
 10
37.994246921514403
 20
1.1968320212874459
 11
38.112758206206969
 21
0.8920099727525041
  0
LINE
  8
_0-3______1
  6
CONTINUOUS
 62
    7
 10
37.977434855546392
 20
1.4847042000348951
 11
37.994246921514403
 21
1.1968320212874459
  0
LINE
  8
_0-3______1
  6
CONTINUOUS
 62
    7
 10
37.994246921514403
 20
1.7556265089949648
 11
37.977434855546392
 21
1.4847042000348951
  0
LINE
  8
_0-3______1
  6
CONTINUOUS
 62
    7
 10
38.134450524124475
 20
2.0435312126062626
 11
37.994246921514403
 21
1.7556265089949648
  0
LINE
  8
_0-3______1
  6
CONTINUOUS
 62
    7
 10
38.350056383231042
 20
2.2467593213721728
 11
38.134450524124475
 21
2.0435312126062626
  0
LINE
  8
_0-3______1
  6
CONTINUOUS
 62
    7
 10
38.53609153943448
 20
2.3144209967024838
 11
38.350056383231042
 21
2.2467593213721728
  0
LINE
  8
_0-3______1
  6
CONTINUOUS
 62
    7
 10
39.535169230156953
 20
1.7386766392075232
 11
39.602968709306651
 21
1.2646315004371447
  0
LINE
  8
_0-3______1
  6
CONTINUOUS
 62
    7
 10
39.298146660771771
 20
2.1450601026476024
 11
39.535169230156953
 21
1.7386766392075232
  0
LINE
  8
_0-3______1
  6
CONTINUOUS
 62
    7
 10
39.010412285843678
 20
2.3483207362772816
 11
39.298146660771771
 21
2.1450601026476024
  0
LINE
  8
_0-3______1
  6
CONTINUOUS
 62
    7
 10
38.705590237308797
 20
2.3652706060647235
 11
39.010412285843678
 21
2.3483207362772816
  0
LINE
  8
_0-3______1
  6
CONTINUOUS
 62
    7
 10
39.602968709306651
 20
1.0613708668073742
 11
39.602968709306651
 21
1.2646315004371447
  0
LINE
  8
_0-3______1
  6
CONTINUOUS
 62
    7
 10
39.501269490582082
 20
0.7734986880599308
 11
39.602968709306651
 21
1.0613708668073742
  0
LINE
  8
_0-3______1
  6
CONTINUOUS
 62
    7
 10
39.298146660771771
 20
0.5703758582496277
 11
39.501269490582082
 21
0.7734986880599308
  0
LINE
  8
_0-3______1
  6
CONTINUOUS
 62
    7
 10
39.162823310111108
 20
0.5364761186747216
 11
39.298146660771771
 21
0.5703758582496277
  0
LINE
  8
_0-3______1
  6
CONTINUOUS
 62
    7
 10
38.807013848394547
 20
0.8412981672096009
 11
38.891901001151133
 21
1.1968320212874459
  0
LINE
  8
_0-3______1
  6
CONTINUOUS
 62
    7
 10
38.502467407498493
 20
0.6888871429421613
 11
38.807013848394547
 21
0.8412981672096009
  0
LINE
  8
_0-3______1
  6
CONTINUOUS
 62
    7
 10
38.282256904081279
 20
0.7904485578473668
 11
38.502467407498493
 21
0.6888871429421613
  0
LINE
  8
_0-3______1
  6
CONTINUOUS
 62
    7
 10
38.129845879813836
 20
0.9598094519022425
 11
38.282256904081279
 21
0.7904485578473668
  0
LINE
  8
_0-3______1
  6
CONTINUOUS
 62
    7
 10
38.028146661089274
 20
1.1968320212874459
 11
38.129845879813836
 21
0.9598094519022425
  0
LINE
  8
_0-3______1
  6
CONTINUOUS
 62
    7
 10
38.011334595121284
 20
1.4339923944920145
 11
38.028146661089274
 21
1.1968320212874459
  0
LINE
  8
_0-3______1
  6
CONTINUOUS
 62
    7
 10
38.079134074270939
 20
1.2646315004371447
 11
38.282256904081279
 21
1.17988215150001
  0
LINE
  8
_0-3______1
  6
CONTINUOUS
 62
    7
 10
38.33296870962414
 20
0.8412981672096009
 11
38.282256904081279
 21
1.17988215150001
  0
LINE
  8
_0-3______1
  6
CONTINUOUS
 62
    7
 10
38.33296870962414
 20
0.8412981672096009
 11
38.519279473466483
 21
0.7904485578473668
  0
LINE
  8
_0-3______1
  6
CONTINUOUS
 62
    7
 10
38.942612806694001
 20
2.2637091911596143
 11
38.53609153943448
 21
2.3144209967024838
  0
LINE
  8
_0-3______1
  6
CONTINUOUS
 62
    7
 10
39.196723049686
 20
2.0434986877424137
 11
38.942612806694001
 21
2.2637091911596143
  0
LINE
  8
_0-3______1
  6
CONTINUOUS
 62
    7
 10
39.416657945464408
 20
1.5694535489720238
 11
39.196723049686
 21
2.0434986877424137
  0
LINE
  8
_0-3______1
  6
CONTINUOUS
 62
    7
 10
39.4505576850392
 20
1.2307317608622554
 11
39.416657945464408
 21
1.5694535489720238
  0
LINE
  8
_0-3______1
  6
CONTINUOUS
 62
    7
 10
38.451479994316813
 20
1.1461202157444859
 11
38.790201782426472
 21
1.0783207365948158
  0
LINE
  8
_0-3______1
  6
CONTINUOUS
 62
    7
 10
39.349134073953451
 20
0.7565488182724948
 11
39.4505576850392
 21
1.2307317608622554
  0
LINE
  8
_0-3______1
  6
CONTINUOUS
 62
    7
 10
39.196723049686
 20
0.5703758582496277
 11
39.349134073953451
 21
0.7565488182724948
  0
LINE
  8
_0-3______1
  6
CONTINUOUS
 62
    7
 10
39.010412285843678
 20
0.485626509312425
 11
39.196723049686
 21
0.5703758582496277
  0
LINE
  8
_0-3______1
  6
CONTINUOUS
 62
    7
 10
38.519279473466483
 20
1.7725763787824236
 11
38.33296870962414
 21
1.8064761183572047
  0
LINE
  8
_0-3______1
  6
CONTINUOUS
 62
    7
 10
38.790201782426472
 20
1.3492430455548856
 11
38.739489976883689
 21
1.3322931757674554
  0
LINE
  8
_0-3______1
  6
CONTINUOUS
 62
    7
 10
38.028146661089274
 20
1.6371152243023346
 11
38.011334595121284
 21
1.4339923944920145
  0
LINE
  8
_0-3______1
  6
CONTINUOUS
 62
    7
 10
38.146657945781833
 20
1.8573257277195354
 11
38.028146661089274
 21
1.6371152243023346
  0
LINE
  8
_0-3______1
  6
CONTINUOUS
 62
    7
 10
38.417580254741907
 20
1.941937272837305
 11
38.146657945781833
 21
1.8573257277195354
  0
LINE
  8
_0-3______1
  6
CONTINUOUS
 62
    7
 10
38.722402303276787
 20
1.7386766392075232
 11
38.417580254741907
 21
1.941937272837305
  0
LINE
  8
_0-3______1
  6
CONTINUOUS
 62
    7
 10
38.891901001151133
 20
1.2815813702245862
 11
38.722402303276787
 21
1.7386766392075232
  0
LINE
  8
_0-3______1
  6
CONTINUOUS
 62
    7
 10
38.739489976883689
 20
1.3661929153423444
 11
38.722402303276787
 21
1.3322931757674554
  0
LINE
  8
_0-3______1
  6
CONTINUOUS
 62
    7
 10
33.303680516437041
 20
37.552786873309536
 11
33.236156644926147
 21
37.891370857599945
  0
LINE
  8
_0-3______1
  6
CONTINUOUS
 62
    7
 10
32.829635377666627
 20
38.280804451252585
 11
33.04984588108384
 21
38.196192906134812
  0
LINE
  8
_0-3______1
  6
CONTINUOUS
 62
    7
 10
33.236156644926147
 20
38.145481100591937
 11
33.540978693461042
 21
38.094631491229627
  0
LINE
  8
_0-3______1
  6
CONTINUOUS
 62
    7
 10
33.42246740876849
 20
37.231014954987224
 11
33.794813328814243
 21
37.231014954987224
  0
LINE
  8
_0-3______1
  6
CONTINUOUS
 62
    7
 10
33.117645360233603
 20
37.38342597925466
 11
33.42246740876849
 21
37.231014954987224
  0
LINE
  8
_0-3______1
  6
CONTINUOUS
 62
    7
 10
32.829635377666627
 20
37.772859572907286
 11
33.117645360233603
 21
37.38342597925466
  0
LINE
  8
_0-3______1
  6
CONTINUOUS
 62
    7
 10
32.761835898516964
 20
38.230092645709696
 11
32.829635377666627
 21
37.772859572907286
  0
LINE
  8
_0-3______1
  6
CONTINUOUS
 62
    7
 10
32.778923572123766
 20
38.534914694244577
 11
32.761835898516964
 21
38.230092645709696
  0
LINE
  8
_0-3______1
  6
CONTINUOUS
 62
    7
 10
32.897434856816396
 20
38.771937263629773
 11
32.778923572123766
 21
38.534914694244577
  0
LINE
  8
_0-3______1
  6
CONTINUOUS
 62
    7
 10
33.083745620658704
 20
38.958248027472088
 11
32.897434856816396
 21
38.771937263629773
  0
LINE
  8
_0-3______1
  6
CONTINUOUS
 62
    7
 10
33.3207681900439
 20
39.059809442377222
 11
33.083745620658704
 21
38.958248027472088
  0
LINE
  8
_0-3______1
  6
CONTINUOUS
 62
    7
 10
34.302758207159506
 20
38.467115215094807
 11
34.370557686309205
 21
38.026832012079943
  0
LINE
  8
_0-3______1
  6
CONTINUOUS
 62
    7
 10
34.099635377349102
 20
38.822786872992012
 11
34.302758207159506
 21
38.467115215094807
  0
LINE
  8
_0-3______1
  6
CONTINUOUS
 62
    7
 10
33.845800741995902
 20
39.059809442377222
 11
34.099635377349102
 21
38.822786872992012
  0
LINE
  8
_0-3______1
  6
CONTINUOUS
 62
    7
 10
33.489991280279355
 20
39.093709181952093
 11
33.845800741995902
 21
39.059809442377222
  0
LINE
  8
_0-3______1
  6
CONTINUOUS
 62
    7
 10
34.302758207159506
 20
37.586548809064972
 11
34.370557686309205
 21
38.026832012079943
  0
LINE
  8
_0-3______1
  6
CONTINUOUS
 62
    7
 10
34.116723050956004
 20
37.349526239679754
 11
34.302758207159506
 21
37.586548809064972
  0
LINE
  8
_0-3______1
  6
CONTINUOUS
 62
    7
 10
33.930412287113676
 20
37.281726760530091
 11
34.116723050956004
 21
37.349526239679754
  0
LINE
  8
_0-3______1
  6
CONTINUOUS
 62
    7
 10
33.625590238578788
 20
37.688248027789541
 11
33.65948997815368
 21
37.959170336749615
  0
LINE
  8
_0-3______1
  6
CONTINUOUS
 62
    7
 10
33.540978693461042
 20
37.552786873309536
 11
33.625590238578788
 21
37.688248027789541
  0
LINE
  8
_0-3______1
  6
CONTINUOUS
 62
    7
 10
33.388567669193591
 20
37.451087654584974
 11
33.540978693461042
 21
37.552786873309536
  0
LINE
  8
_0-3______1
  6
CONTINUOUS
 62
    7
 10
33.236156644926147
 20
37.451087654584974
 11
33.388567669193591
 21
37.451087654584974
  0
LINE
  8
_0-3______1
  6
CONTINUOUS
 62
    7
 10
33.117645360233603
 20
37.484987394159866
 11
33.236156644926147
 21
37.451087654584974
  0
LINE
  8
_0-3______1
  6
CONTINUOUS
 62
    7
 10
32.931334596391267
 20
37.671298158002081
 11
33.117645360233603
 21
37.484987394159866
  0
LINE
  8
_0-3______1
  6
CONTINUOUS
 62
    7
 10
32.829635377666627
 20
37.857471118025053
 11
32.931334596391267
 21
37.671298158002081
  0
LINE
  8
_0-3______1
  6
CONTINUOUS
 62
    7
 10
32.778923572123766
 20
38.162293166559927
 11
32.829635377666627
 21
37.857471118025053
  0
LINE
  8
_0-3______1
  6
CONTINUOUS
 62
    7
 10
32.829635377666627
 20
38.026832012079943
 11
33.04984588108384
 21
37.942220466962183
  0
LINE
  8
_0-3______1
  6
CONTINUOUS
 62
    7
 10
33.100557686626701
 20
37.586548809064972
 11
33.04984588108384
 21
37.942220466962183
  0
LINE
  8
_0-3______1
  6
CONTINUOUS
 62
    7
 10
33.100557686626701
 20
37.586548809064972
 11
33.303680516437041
 21
37.552649069490101
  0
LINE
  8
_0-3______1
  6
CONTINUOUS
 62
    7
 10
33.507078953886229
 20
39.076759312164654
 11
33.3207681900439
 21
39.059809442377222
  0
LINE
  8
_0-3______1
  6
CONTINUOUS
 62
    7
 10
33.693389717728472
 20
39.008959833014892
 11
33.507078953886229
 21
39.076759312164654
  0
LINE
  8
_0-3______1
  6
CONTINUOUS
 62
    7
 10
33.930412287113676
 20
38.805837003204587
 11
33.693389717728472
 21
39.008959833014892
  0
LINE
  8
_0-3______1
  6
CONTINUOUS
 62
    7
 10
34.099635377349102
 20
38.551726760212567
 11
33.930412287113676
 21
38.805837003204587
  0
LINE
  8
_0-3______1
  6
CONTINUOUS
 62
    7
 10
34.218146662041761
 20
37.976120206537054
 11
34.099635377349102
 21
38.551726760212567
  0
LINE
  8
_0-3______1
  6
CONTINUOUS
 62
    7
 10
33.236156644926147
 20
37.891370857599945
 11
33.540978693461042
 21
37.840659052057056
  0
LINE
  8
_0-3______1
  6
CONTINUOUS
 62
    7
 10
34.218146662041761
 20
37.772859572907286
 11
34.218146662041761
 21
37.975982402717612
  0
LINE
  8
_0-3______1
  6
CONTINUOUS
 62
    7
 10
34.099635377349102
 20
37.451087654584974
 11
34.218146662041761
 21
37.772859572907286
  0
LINE
  8
_0-3______1
  6
CONTINUOUS
 62
    7
 10
33.794813328814243
 20
37.231014954987224
 11
34.099635377349102
 21
37.451087654584974
  0
LINE
  8
_0-3______1
  6
CONTINUOUS
 62
    7
 10
33.303680516437041
 20
38.501014954669706
 11
33.100557686626701
 21
38.568676630000006
  0
LINE
  8
_0-3______1
  6
CONTINUOUS
 62
    7
 10
33.540978693461042
 20
38.094631491229627
 11
33.507078953886229
 21
38.077681621442181
  0
LINE
  8
_0-3______1
  6
CONTINUOUS
 62
    7
 10
32.897434856816396
 20
38.568676630000006
 11
32.778923572123766
 21
38.162293166559927
  0
LINE
  8
_0-3______1
  6
CONTINUOUS
 62
    7
 10
33.04984588108384
 20
38.670375848724582
 11
32.897434856816396
 21
38.568676630000006
  0
LINE
  8
_0-3______1
  6
CONTINUOUS
 62
    7
 10
33.20225690535127
 20
38.670375848724582
 11
33.04984588108384
 21
38.670375848724582
  0
LINE
  8
_0-3______1
  6
CONTINUOUS
 62
    7
 10
33.507078953886229
 20
38.467115215094807
 11
33.20225690535127
 21
38.670375848724582
  0
LINE
  8
_0-3______1
  6
CONTINUOUS
 62
    7
 10
33.65948997815368
 20
38.026832012079943
 11
33.507078953886229
 21
38.467115215094807
  0
LINE
  8
_0-3______1
  6
CONTINUOUS
 62
    7
 10
33.507078953886229
 20
38.094631491229627
 11
33.507078953886229
 21
38.077681621442181
  0
LINE
  8
_0-3______1
  6
CONTINUOUS
 62
    7
 10
44.090412284573667
 20
49.964914691387037
 11
43.73460282285712
 21
49.964914691387037
  0
LINE
  8
_0-3______1
  6
CONTINUOUS
 62
    7
 10
43.430056381961037
 20
50.184987390984816
 11
43.649991277739353
 21
50.286548805890014
  0
LINE
  8
_0-3______1
  6
CONTINUOUS
 62
    7
 10
43.209845878543831
 20
49.981726757355034
 11
43.430056381961037
 21
50.184987390984816
  0
LINE
  8
_0-3______1
  6
CONTINUOUS
 62
    7
 10
46.376302040946641
 20
49.355270594317226
 11
46.223891016679197
 21
49.389170333892082
  0
LINE
  8
_0-3______1
  6
CONTINUOUS
 62
    7
 10
46.731835895024481
 20
49.067398415569777
 11
46.376302040946641
 21
49.355270594317226
  0
LINE
  8
_0-3______1
  6
CONTINUOUS
 62
    7
 10
47.663389714235997
 20
49.185909700262322
 11
47.866512544046316
 21
48.779526236822335
  0
LINE
  8
_0-3______1
  6
CONTINUOUS
 62
    7
 10
47.375379731669113
 20
49.558393424127622
 11
47.663389714235997
 21
49.185909700262322
  0
LINE
  8
_0-3______1
  6
CONTINUOUS
 62
    7
 10
46.833535113749029
 20
49.880165342449935
 11
47.375379731669113
 21
49.558393424127622
  0
LINE
  8
_0-3______1
  6
CONTINUOUS
 62
    7
 10
44.259635374809108
 20
50.422147764189447
 11
44.666156642068628
 21
50.422147764189447
  0
LINE
  8
_0-3______1
  6
CONTINUOUS
 62
    7
 10
43.649991277739353
 20
50.286548805890014
 11
44.090412284573667
 21
50.286548805890014
  0
LINE
  8
_0-3______1
  6
CONTINUOUS
 62
    7
 10
46.697936155449611
 20
49.473781879009856
 11
47.087645356741042
 21
48.982786870452003
  0
LINE
  8
_0-3______1
  6
CONTINUOUS
 62
    7
 10
46.44410152009641
 20
49.66009264285217
 11
46.697936155449611
 21
49.473781879009856
  0
LINE
  8
_0-3______1
  6
CONTINUOUS
 62
    7
 10
46.223891016679197
 20
49.710804448395059
 11
46.44410152009641
 21
49.66009264285217
  0
LINE
  8
_0-3______1
  6
CONTINUOUS
 62
    7
 10
36.334813328179273
 20
5.9551979055145043
 11
35.84368051580207
 21
6.344631499167142
  0
LINE
  8
_0-3______1
  6
CONTINUOUS
 62
    7
 10
36.402612807328957
 20
5.8197367510344922
 11
36.334813328179273
 21
5.9551979055145043
  0
LINE
  8
_0-3______1
  6
CONTINUOUS
 62
    7
 10
36.36871306775415
 20
5.7180375323099248
 11
36.402612807328957
 21
5.8197367510344922
  0
LINE
  8
_0-3______1
  6
CONTINUOUS
 62
    7
 10
35.53913407490591
 20
6.1244209957499409
 11
35.014101522953908
 21
6.5647041987648924
  0
LINE
  8
_0-3______1
  6
CONTINUOUS
 62
    7
 10
35.58984588044887
 20
5.9720099714825015
 11
35.53913407490591
 21
6.1244209957499409
  0
LINE
  8
_0-3______1
  6
CONTINUOUS
 62
    7
 10
35.53913407490591
 20
5.9212981659396009
 11
35.58984588044887
 21
5.9720099714825015
  0
LINE
  8
_0-3______1
  6
CONTINUOUS
 62
    7
 10
34.709279474418956
 20
6.344631499167142
 11
34.167434856498879
 21
6.7849147021820961
  0
LINE
  8
_0-3______1
  6
CONTINUOUS
 62
    7
 10
34.709279474418956
 20
6.1413708655373744
 11
34.709279474418956
 21
6.344631499167142
  0
LINE
  8
_0-3______1
  6
CONTINUOUS
 62
    7
 10
33.811901002421131
 20
6.6325036779145625
 11
33.337580256011904
 21
6.9880375319924015
  0
LINE
  8
_0-3______1
  6
CONTINUOUS
 62
    7
 10
33.913324613506873
 20
6.4800926536471231
 11
33.811901002421131
 21
6.6325036779145625
  0
LINE
  8
_0-3______1
  6
CONTINUOUS
 62
    7
 10
33.862612807963998
 20
6.3615813689545835
 11
33.913324613506873
 21
6.4800926536471231
  0
LINE
  8
_0-3______1
  6
CONTINUOUS
 62
    7
 10
33.682590478850713
 20
6.390433379184171
 11
33.862612807963998
 21
6.3615813689545835
  0
LINE
  8
_0-3______1
  6
CONTINUOUS
 62
    7
 10
33.354667929618721
 20
6.5816540685523224
 11
33.682590478850713
 21
6.390433379184171
  0
LINE
  8
_0-3______1
  6
CONTINUOUS
 62
    7
 10
33.04984588108384
 20
6.8864761170872049
 11
33.354667929618721
 21
6.5816540685523224
  0
LINE
  8
_0-3______1
  6
CONTINUOUS
 62
    7
 10
32.999134075540944
 20
7.0897367507169724
 11
33.04984588108384
 21
6.8864761170872049
  0
LINE
  8
_0-3______1
  6
CONTINUOUS
 62
    7
 10
34.497159890454711
 20
6.1876199855625833
 11
34.709279474418956
 21
6.1413708655373744
  0
LINE
  8
_0-3______1
  6
CONTINUOUS
 62
    7
 10
34.065735637774303
 20
6.4631427838597837
 11
34.497159890454711
 21
6.1876199855625833
  0
LINE
  8
_0-3______1
  6
CONTINUOUS
 62
    7
 10
33.845800741995902
 20
6.700165353244893
 11
34.065735637774303
 21
6.4631427838597837
  0
LINE
  8
_0-3______1
  6
CONTINUOUS
 62
    7
 10
33.811901002421131
 20
6.8695262472997713
 11
33.845800741995902
 21
6.700165353244893
  0
LINE
  8
_0-3______1
  6
CONTINUOUS
 62
    7
 10
35.36963537703167
 20
5.9550601016950626
 11
35.53913407490591
 21
5.9212981659396009
  0
LINE
  8
_0-3______1
  6
CONTINUOUS
 62
    7
 10
34.980201783379037
 20
6.1922204748996821
 11
35.36963537703167
 21
5.9550601016950626
  0
LINE
  8
_0-3______1
  6
CONTINUOUS
 62
    7
 10
34.65856766887606
 20
6.5308044591900147
 11
34.980201783379037
 21
6.1922204748996821
  0
LINE
  8
_0-3______1
  6
CONTINUOUS
 62
    7
 10
34.641479995269286
 20
6.6494535477020209
 11
34.65856766887606
 21
6.5308044591900147
  0
LINE
  8
_0-3______1
  6
CONTINUOUS
 62
    7
 10
36.080978692826072
 20
5.7858370114596029
 11
36.36871306775415
 21
5.7180375323099248
  0
LINE
  8
_0-3______1
  6
CONTINUOUS
 62
    7
 10
35.792968710259196
 20
5.9720099714825015
 11
36.080978692826072
 21
5.7858370114596029
  0
LINE
  8
_0-3______1
  6
CONTINUOUS
 62
    7
 10
35.488146661724251
 20
6.3276816293796863
 11
35.792968710259196
 21
5.9720099714825015
  0
LINE
  8
_0-3______1
  6
CONTINUOUS
 62
    7
 10
35.488146661724251
 20
6.4461929140723448
 11
35.488146661724251
 21
6.3276816293796863
  0
LINE
  8
_0-3______1
  6
CONTINUOUS
 62
    7
 10
39.298146660771771
 20
27.054065087739765
 11
39.416657945464408
 21
26.732293169417449
  0
LINE
  8
_0-3______1
  6
CONTINUOUS
 62
    7
 10
39.162823310111108
 20
27.121726763070093
 11
39.298146660771771
 21
27.054065087739765
  0
LINE
  8
_0-3______1
  6
CONTINUOUS
 62
    7
 10
32.457013849981983
 20
28.832147769586882
 11
32.524813329131746
 21
28.815060095980087
  0
LINE
  8
_0-3______1
  6
CONTINUOUS
 62
    7
 10
32.287790759746542
 20
28.764348290437212
 11
32.219991280596879
 21
28.561087656807445
  0
LINE
  8
_0-3______1
  6
CONTINUOUS
 62
    7
 10
32.389489978471133
 20
28.815060095980087
 11
32.287790759746542
 21
28.764348290437212
  0
LINE
  8
_0-3______1
  6
CONTINUOUS
 62
    7
 10
39.349134073953451
 20
12.542220473312183
 11
39.247434855228882
 21
12.491370863949946
  0
LINE
  8
_0-3______1
  6
CONTINUOUS
 62
    7
 10
39.416657945464408
 20
12.762293172909928
 11
39.349134073953451
 21
12.542220473312183
  0
LINE
  8
_0-3______1
  6
CONTINUOUS
 62
    7
 10
39.128923570536301
 20
12.474420994162484
 11
39.213535115653997
 21
12.474420994162484
  0
LINE
  8
_0-3______1
  6
CONTINUOUS
 62
    7
 10
32.287790759746542
 20
14.3540650909148
 11
32.474101523588892
 21
14.218603936434731
  0
LINE
  8
_0-3______1
  6
CONTINUOUS
 62
    7
 10
32.219991280596879
 20
14.591087660299927
 11
32.287790759746542
 21
14.3540650909148
  0
LINE
  8
_0-3______1
  6
CONTINUOUS
 62
    7
 10
39.298146660771771
 20
12.508320733737285
 11
39.365946139921448
 21
12.762293172909928
  0
LINE
  8
_0-3______1
  6
CONTINUOUS
 62
    7
 10
39.213535115653997
 20
12.474420994162484
 11
39.298146660771771
 21
12.508320733737285
  0
LINE
  8
_0-3______1
  6
CONTINUOUS
 62
    7
 10
32.474101523588892
 20
28.815060095980087
 11
32.389489978471133
 21
28.815060095980087
  0
LINE
  8
_0-3______1
  6
CONTINUOUS
 62
    7
 10
39.298146660771771
 20
26.986403412409448
 11
39.128923570536301
 21
27.087964827314654
  0
LINE
  8
_0-3______1
  6
CONTINUOUS
 62
    7
 10
39.365946139921448
 20
26.715481103449452
 11
39.298146660771771
 21
26.986403412409448
  0
LINE
  8
_0-3______1
  6
CONTINUOUS
 62
    7
 10
49.746156640798631
 20
60.598959827617456
 11
49.66126948804208
 21
60.683709176554572
  0
LINE
  8
_0-3______1
  6
CONTINUOUS
 62
    7
 10
49.746156640798631
 20
60.429736737381916
 11
49.746156640798631
 21
60.598959827617456
  0
LINE
  8
_0-3______1
  6
CONTINUOUS
 62
    7
 10
49.695169227616951
 20
60.395836997807123
 11
49.746156640798631
 21
60.429736737381916
  0
LINE
  8
_0-3______1
  6
CONTINUOUS
 62
    7
 10
48.272758203666967
 20
58.211370852519941
 11
48.018923568313767
 21
58.042009958465066
  0
LINE
  8
_0-3______1
  6
CONTINUOUS
 62
    7
 10
48.391269488359598
 20
58.516192901054808
 11
48.272758203666967
 21
58.211370852519941
  0
LINE
  8
_0-3______1
  6
CONTINUOUS
 62
    7
 10
49.746156640798631
 20
59.786192900737298
 11
49.66126948804208
 21
59.887754315642496
  0
LINE
  8
_0-3______1
  6
CONTINUOUS
 62
    7
 10
49.746156640798631
 20
59.616832006682422
 11
49.746156640798631
 21
59.786192900737298
  0
LINE
  8
_0-3______1
  6
CONTINUOUS
 62
    7
 10
49.695169227616951
 20
59.583070070926965
 11
49.746156640798631
 21
59.616832006682422
  0
LINE
  8
_0-3______1
  6
CONTINUOUS
 62
    7
 10
49.746156640798631
 20
58.97342597385714
 11
49.66126948804208
 21
59.058037518974906
  0
LINE
  8
_0-3______1
  6
CONTINUOUS
 62
    7
 10
49.695169227616951
 20
58.770165340227464
 11
49.746156640798631
 21
58.97342597385714
  0
LINE
  8
_0-3______1
  6
CONTINUOUS
 62
    7
 10
49.66126948804208
 20
58.26222046188218
 11
49.627645356106086
 21
58.26222046188218
  0
LINE
  8
_0-3______1
  6
CONTINUOUS
 62
    7
 10
49.66126948804208
 20
59.058037518974906
 11
49.627645356106086
 21
59.058037518974906
  0
LINE
  8
_0-3______1
  6
CONTINUOUS
 62
    7
 10
49.66126948804208
 20
59.887754315642496
 11
49.627645356106086
 21
59.887754315642496
  0
LINE
  8
_0-3______1
  6
CONTINUOUS
 62
    7
 10
49.66126948804208
 20
60.683709176554572
 11
49.627645356106086
 21
60.683709176554572
  0
LINE
  8
_0-3______1
  6
CONTINUOUS
 62
    7
 10
49.746156640798631
 20
58.160659046977052
 11
49.66126948804208
 21
58.26222046188218
  0
LINE
  8
_0-3______1
  6
CONTINUOUS
 62
    7
 10
49.695169227616951
 20
57.957398413347306
 11
49.746156640798631
 21
58.160659046977052
  0
LINE
  8
_0-3______1
  6
CONTINUOUS
 62
    7
 10
48.391269488359598
 20
58.93952623428234
 11
48.391269488359598
 21
58.516192901054808
  0
LINE
  8
_0-3______1
  6
CONTINUOUS
 62
    7
 10
48.154246918974401
 20
59.447471112627511
 11
48.391269488359598
 21
58.93952623428234
  0
LINE
  8
_0-3______1
  6
CONTINUOUS
 62
    7
 10
47.900412283621201
 20
59.650731746257293
 11
48.154246918974401
 21
59.447471112627511
  0
LINE
  8
_0-3______1
  6
CONTINUOUS
 62
    7
 10
47.59559023508632
 20
59.667681616044717
 11
47.900412283621201
 21
59.650731746257293
  0
LINE
  8
_0-3______1
  6
CONTINUOUS
 62
    7
 10
40.957580254106887
 20
39.110659051739525
 11
41.076091538799517
 21
39.229170336432098
  0
LINE
  8
_0-3______1
  6
CONTINUOUS
 62
    7
 10
40.534246920879347
 20
39.008959833014892
 11
40.957580254106887
 21
39.110659051739525
  0
LINE
  8
_0-3______1
  6
CONTINUOUS
 62
    7
 10
39.839991278691834
 20
39.025909702802323
 11
40.534246920879347
 21
39.008959833014892
  0
LINE
  8
_0-3______1
  6
CONTINUOUS
 62
    7
 10
39.4505576850392
 20
39.127471117707522
 11
39.839991278691834
 21
39.025909702802323
  0
LINE
  8
_0-3______1
  6
CONTINUOUS
 62
    7
 10
39.416657945464408
 20
39.195270596857227
 11
39.4505576850392
 21
39.127471117707522
  0
LINE
  8
_0-3______1
  6
CONTINUOUS
 62
    7
 10
39.839991278691834
 20
44.512293164972391
 11
39.704667928031292
 21
44.376832010492421
  0
LINE
  8
_0-3______1
  6
CONTINUOUS
 62
    7
 10
39.924602823809593
 20
44.766403407964503
 11
39.839991278691834
 21
44.512293164972391
  0
LINE
  8
_0-3______1
  6
CONTINUOUS
 62
    7
 10
48.052823307888637
 20
58.160659046977052
 11
47.78190099892862
 21
57.974348283134738
  0
LINE
  8
_0-3______1
  6
CONTINUOUS
 62
    7
 10
48.154246918974401
 20
58.448393421905052
 11
48.052823307888637
 21
58.160659046977052
  0
LINE
  8
_0-3______1
  6
CONTINUOUS
 62
    7
 10
48.154246918974401
 20
59.447471112627511
 11
48.052823307888637
 21
59.549170331352094
  0
LINE
  8
_0-3______1
  6
CONTINUOUS
 62
    7
 10
40.957580254106887
 20
44.732503668389597
 11
40.754457424296561
 21
44.613992383697052
  0
LINE
  8
_0-3______1
  6
CONTINUOUS
 62
    7
 10
41.127078951981197
 20
45.071087652679942
 11
40.957580254106887
 21
44.732503668389597
  0
LINE
  8
_0-3______1
  6
CONTINUOUS
 62
    7
 10
39.399845879496318
 20
39.229170336432098
 11
39.416657945464408
 21
39.195270596857227
  0
LINE
  8
_0-3______1
  6
CONTINUOUS
 62
    7
 10
49.525946137381453
 20
58.058959828252505
 11
49.424246918656877
 21
58.211370852519941
  0
LINE
  8
_0-3______1
  6
CONTINUOUS
 62
    7
 10
49.509134071413449
 20
57.923498673772407
 11
49.525946137381453
 21
58.058959828252505
  0
LINE
  8
_0-3______1
  6
CONTINUOUS
 62
    7
 10
49.44133459226375
 20
57.906548803984975
 11
49.509134071413449
 21
57.923498673772407
  0
LINE
  8
_0-3______1
  6
CONTINUOUS
 62
    7
 10
41.127078951981197
 20
45.477471116120022
 11
41.127078951981197
 21
45.071087652679942
  0
LINE
  8
_0-3______1
  6
CONTINUOUS
 62
    7
 10
40.940768188138861
 20
45.917754319134978
 11
41.127078951981197
 21
45.477471116120022
  0
LINE
  8
_0-3______1
  6
CONTINUOUS
 62
    7
 10
40.635946139603988
 20
46.205626497882406
 11
40.940768188138861
 21
45.917754319134978
  0
LINE
  8
_0-3______1
  6
CONTINUOUS
 62
    7
 10
40.331124091069043
 20
46.222576367669852
 11
40.635946139603988
 21
46.205626497882406
  0
LINE
  8
_0-3______1
  6
CONTINUOUS
 62
    7
 10
39.907790757841603
 20
45.291298156097128
 11
39.924602823809593
 21
44.766403407964503
  0
LINE
  8
_0-3______1
  6
CONTINUOUS
 62
    7
 10
39.704667928031292
 20
45.680731749749775
 11
39.907790757841603
 21
45.291298156097128
  0
LINE
  8
_0-3______1
  6
CONTINUOUS
 62
    7
 10
39.433745619071189
 20
45.90080444934754
 11
39.704667928031292
 21
45.680731749749775
  0
LINE
  8
_0-3______1
  6
CONTINUOUS
 62
    7
 10
39.128923570536301
 20
45.917754319134978
 11
39.433745619071189
 21
45.90080444934754
  0
LINE
  8
_0-3______1
  6
CONTINUOUS
 62
    7
 10
49.492046397806632
 20
58.97342597385714
 11
49.424246918656877
 21
58.990375843644578
  0
LINE
  8
_0-3______1
  6
CONTINUOUS
 62
    7
 10
49.525946137381453
 20
58.871726755132556
 11
49.492046397806632
 21
58.97342597385714
  0
LINE
  8
_0-3______1
  6
CONTINUOUS
 62
    7
 10
49.509134071413449
 20
58.753215470440011
 11
49.525946137381453
 21
58.871726755132556
  0
LINE
  8
_0-3______1
  6
CONTINUOUS
 62
    7
 10
49.44133459226375
 20
58.719453534684568
 11
49.509134071413449
 21
58.753215470440011
  0
LINE
  8
_0-3______1
  6
CONTINUOUS
 62
    7
 10
49.187224349271673
 20
48.271581358477057
 11
49.187224349271673
 21
47.814348285674726
  0
LINE
  8
_0-3______1
  6
CONTINUOUS
 62
    7
 10
49.00091358542943
 20
48.694914691704575
 11
49.187224349271673
 21
48.271581358477057
  0
LINE
  8
_0-3______1
  6
CONTINUOUS
 62
    7
 10
48.713179210501359
 20
48.94888713087721
 11
49.00091358542943
 21
48.694914691704575
  0
LINE
  8
_0-3______1
  6
CONTINUOUS
 62
    7
 10
48.408357161966407
 20
48.982786870452003
 11
48.713179210501359
 21
48.94888713087721
  0
LINE
  8
_0-3______1
  6
CONTINUOUS
 62
    7
 10
49.424246918656877
 20
58.211370852519941
 11
49.39034717908207
 21
58.211370852519941
  0
LINE
  8
_0-3______1
  6
CONTINUOUS
 62
    7
 10
49.492046397806632
 20
60.598959827617456
 11
49.424246918656877
 21
60.615909697404895
  0
LINE
  8
_0-3______1
  6
CONTINUOUS
 62
    7
 10
49.525946137381453
 20
60.497398412712243
 11
49.492046397806632
 21
60.598959827617456
  0
LINE
  8
_0-3______1
  6
CONTINUOUS
 62
    7
 10
49.492046397806632
 20
60.328037518657368
 11
49.525946137381453
 21
60.497398412712243
  0
LINE
  8
_0-3______1
  6
CONTINUOUS
 62
    7
 10
49.44133459226375
 20
60.328037518657368
 11
49.492046397806632
 21
60.328037518657368
  0
LINE
  8
_0-3______1
  6
CONTINUOUS
 62
    7
 10
49.187224349271673
 20
47.814348285674726
 11
49.08580073818591
 21
47.543425976714666
  0
LINE
  8
_0-3______1
  6
CONTINUOUS
 62
    7
 10
48.154246918974401
 20
58.871726755132556
 11
48.154246918974401
 21
58.448393421905052
  0
LINE
  8
_0-3______1
  6
CONTINUOUS
 62
    7
 10
47.963386173115282
 20
59.326516653017052
 11
48.154246918974401
 21
58.871726755132556
  0
LINE
  8
_0-3______1
  6
CONTINUOUS
 62
    7
 10
47.646302040629209
 20
59.58293226710753
 11
47.963386173115282
 21
59.326516653017052
  0
LINE
  8
_0-3______1
  6
CONTINUOUS
 62
    7
 10
47.358567665701116
 20
59.599882136894962
 11
47.646302040629209
 21
59.58293226710753
  0
LINE
  8
_0-3______1
  6
CONTINUOUS
 62
    7
 10
49.424246918656877
 20
58.990375843644578
 11
49.39034717908207
 21
58.990375843644578
  0
LINE
  8
_0-3______1
  6
CONTINUOUS
 62
    7
 10
49.424246918656877
 20
59.820092640312168
 11
49.39034717908207
 21
59.820092640312168
  0
LINE
  8
_0-3______1
  6
CONTINUOUS
 62
    7
 10
49.525946137381453
 20
59.68463148583217
 11
49.424246918656877
 21
59.820092640312168
  0
LINE
  8
_0-3______1
  6
CONTINUOUS
 62
    7
 10
49.509134071413449
 20
59.549170331352094
 11
49.525946137381453
 21
59.68463148583217
  0
LINE
  8
_0-3______1
  6
CONTINUOUS
 62
    7
 10
49.44133459226375
 20
59.515270591777295
 11
49.509134071413449
 21
59.549170331352094
  0
LINE
  8
_0-3______1
  6
CONTINUOUS
 62
    7
 10
49.424246918656877
 20
60.615909697404895
 11
49.39034717908207
 21
60.615909697404895
  0
LINE
  8
_0-3______1
  6
CONTINUOUS
 62
    7
 10
39.230347181622072
 20
39.296832011762426
 11
39.247434855228882
 21
39.364631490912167
  0
LINE
  8
_0-3______1
  6
CONTINUOUS
 62
    7
 10
39.095023830961438
 20
39.263070076006962
 11
39.230347181622072
 21
39.296832011762426
  0
LINE
  8
_0-3______1
  6
CONTINUOUS
 62
    7
 10
40.46672304936849
 20
38.704137784480018
 11
40.381835896611904
 21
38.653425978937143
  0
LINE
  8
_0-3______1
  6
CONTINUOUS
 62
    7
 10
40.991479993681757
 20
38.822786872992012
 11
41.025379733256628
 21
38.890448548322347
  0
LINE
  8
_0-3______1
  6
CONTINUOUS
 62
    7
 10
40.85615664302113
 20
38.788887133417212
 11
40.991479993681757
 21
38.822786872992012
  0
LINE
  8
_0-3______1
  6
CONTINUOUS
 62
    7
 10
38.637790758159028
 20
39.466192905817302
 11
38.299068970049277
 21
39.432293166242403
  0
LINE
  8
_0-3______1
  6
CONTINUOUS
 62
    7
 10
38.942612806694001
 20
39.364631490912167
 11
38.637790758159028
 21
39.466192905817302
  0
LINE
  8
_0-3______1
  6
CONTINUOUS
 62
    7
 10
40.1448133272267
 20
38.754987393842342
 11
39.907790757841603
 21
38.704137784480018
  0
LINE
  8
_0-3______1
  6
CONTINUOUS
 62
    7
 10
40.585234334061113
 20
38.721087654267443
 11
40.1448133272267
 21
38.754987393842342
  0
LINE
  8
_0-3______1
  6
CONTINUOUS
 62
    7
 10
35.640557685991688
 20
40.549882141657477
 11
35.488146661724251
 21
40.583781881232333
  0
LINE
  8
_0-3______1
  6
CONTINUOUS
 62
    7
 10
43.396156642386153
 20
37.975982402717612
 11
43.226657944511842
 21
37.925270597174752
  0
LINE
  8
_0-3______1
  6
CONTINUOUS
 62
    7
 10
43.41296870835415
 20
38.043781881867382
 11
43.396156642386153
 21
37.975982402717612
  0
LINE
  8
_0-3______1
  6
CONTINUOUS
 62
    7
 10
42.905023830008957
 20
38.687325718512014
 11
42.769424871709518
 21
38.687325718512014
  0
LINE
  8
_0-3______1
  6
CONTINUOUS
 62
    7
 10
33.997936158624555
 20
40.278959832697467
 11
33.845800741995902
 21
40.278959832697467
  0
LINE
  8
_0-3______1
  6
CONTINUOUS
 62
    7
 10
43.379068968779279
 20
1.0783207365948158
 11
43.226657944511842
 21
1.0444209970199325
  0
LINE
  8
_0-3______1
  6
CONTINUOUS
 62
    7
 10
43.41296870835415
 20
1.1461202157444859
 11
43.379068968779279
 21
1.0783207365948158
  0
LINE
  8
_0-3______1
  6
CONTINUOUS
 62
    7
 10
35.352823311063602
 20
40.583781881232333
 11
35.488146661724251
 21
40.583781881232333
  0
LINE
  8
_0-3______1
  6
CONTINUOUS
 62
    7
 10
41.736723049051022
 20
0.1639923948095429
 11
41.855234333743603
 21
0.5703758582496277
  0
LINE
  8
_0-3______1
  6
CONTINUOUS
 62
    7
 10
41.550412285208722
 20
0.0453433062975364
 11
41.736723049051022
 21
0.1639923948095429
  0
LINE
  8
_0-3______1
  6
CONTINUOUS
 62
    7
 10
39.298146660771771
 20
38.924348287897217
 11
39.501269490582082
 21
38.958248027472088
  0
LINE
  8
_0-3______1
  6
CONTINUOUS
 62
    7
 10
39.027224351811682
 20
38.975060093440085
 11
39.298146660771771
 21
38.924348287897217
  0
LINE
  8
_0-3______1
  6
CONTINUOUS
 62
    7
 10
43.175946138968968
 20
0.6888871429421613
 11
42.955735635551832
 21
0.519526248887297
  0
LINE
  8
_0-3______1
  6
CONTINUOUS
 62
    7
 10
43.226657944511842
 20
1.0444209970199325
 11
43.175946138968968
 21
0.6888871429421613
  0
LINE
  8
_0-3______1
  6
CONTINUOUS
 62
    7
 10
43.159134073000949
 20
38.331654060614838
 11
43.226657944511842
 21
37.925270597174752
  0
LINE
  8
_0-3______1
  6
CONTINUOUS
 62
    7
 10
42.989635375126625
 20
38.568676630000006
 11
43.159134073000949
 21
38.331654060614838
  0
LINE
  8
_0-3______1
  6
CONTINUOUS
 62
    7
 10
42.769424871709518
 20
38.687325718512014
 11
42.989635375126625
 21
38.568676630000006
  0
LINE
  8
_0-3______1
  6
CONTINUOUS
 62
    7
 10
40.381835896611904
 20
38.653425978937143
 11
40.483535115336551
 21
38.585626499787466
  0
LINE
  8
_0-3______1
  6
CONTINUOUS
 62
    7
 10
40.635946139603988
 20
39.059809442377222
 11
39.907790757841603
 21
39.025909702802323
  0
LINE
  8
_0-3______1
  6
CONTINUOUS
 62
    7
 10
40.923680514532087
 20
38.992009963227545
 11
40.635946139603988
 21
39.059809442377222
  0
LINE
  8
_0-3______1
  6
CONTINUOUS
 62
    7
 10
41.025379733256628
 20
38.890448548322347
 11
40.923680514532087
 21
38.992009963227545
  0
LINE
  8
_0-3______1
  6
CONTINUOUS
 62
    7
 10
38.942612806694001
 20
39.500092645392172
 11
38.112758206206969
 21
39.500092645392172
  0
LINE
  8
_0-3______1
  6
CONTINUOUS
 62
    7
 10
39.247434855228882
 20
39.364631490912167
 11
38.942612806694001
 21
39.500092645392172
  0
LINE
  8
_0-3______1
  6
CONTINUOUS
 62
    7
 10
38.858001261576227
 20
39.296832011762426
 11
38.942612806694001
 21
39.364631490912167
  0
LINE
  8
_0-3______1
  6
CONTINUOUS
 62
    7
 10
41.567224351176719
 20
38.263992385284503
 11
41.364101521366408
 21
38.365553800189694
  0
LINE
  8
_0-3______1
  6
CONTINUOUS
 62
    7
 10
41.736723049051022
 20
38.043781881867382
 11
41.567224351176719
 21
38.263992385284503
  0
LINE
  8
_0-3______1
  6
CONTINUOUS
 62
    7
 10
41.855234333743603
 20
37.586548809064972
 11
41.736723049051022
 21
38.043781881867382
  0
LINE
  8
_0-3______1
  6
CONTINUOUS
 62
    7
 10
41.550412285208722
 20
0.0792430458723458
 11
41.380913587334398
 21
0.0283934365101004
  0
LINE
  8
_0-3______1
  6
CONTINUOUS
 62
    7
 10
41.635023830326404
 20
0.1808044607775457
 11
41.550412285208722
 21
0.0792430458723458
  0
LINE
  8
_0-3______1
  6
CONTINUOUS
 62
    7
 10
41.736723049051022
 20
0.5534259884621634
 11
41.635023830326404
 21
0.1808044607775457
  0
LINE
  8
_0-3______1
  6
CONTINUOUS
 62
    7
 10
41.685735635869293
 20
37.840659052057056
 11
41.736723049051022
 21
37.552786873309536
  0
LINE
  8
_0-3______1
  6
CONTINUOUS
 62
    7
 10
41.550412285208722
 20
38.128393426985056
 11
41.685735635869293
 21
37.840659052057056
  0
LINE
  8
_0-3______1
  6
CONTINUOUS
 62
    7
 10
41.245590236673749
 20
38.348603930402263
 11
41.550412285208722
 21
38.128393426985056
  0
LINE
  8
_0-3______1
  6
CONTINUOUS
 62
    7
 10
32.270978693778545
 20
29.001370859822419
 11
32.321690499321441
 21
29.001370859822419
  0
LINE
  8
_0-3______1
  6
CONTINUOUS
 62
    7
 10
33.693389717728472
 20
40.245060093122582
 11
33.862612807963998
 21
40.245060093122582
  0
LINE
  8
_0-3______1
  6
CONTINUOUS
 62
    7
 10
34.641479995269286
 20
37.434137784797535
 11
34.641479995269286
 21
37.738959833332402
  0
LINE
  8
_0-3______1
  6
CONTINUOUS
 62
    7
 10
34.522968710576649
 20
36.977042515814581
 11
34.641479995269286
 21
37.434137784797535
  0
LINE
  8
_0-3______1
  6
CONTINUOUS
 62
    7
 10
34.336657946734412
 20
36.672220467279708
 11
34.522968710576649
 21
36.977042515814581
  0
LINE
  8
_0-3______1
  6
CONTINUOUS
 62
    7
 10
34.116723050956004
 20
36.519809443012278
 11
34.336657946734412
 21
36.672220467279708
  0
LINE
  8
_0-3______1
  6
CONTINUOUS
 62
    7
 10
38.705590237308797
 20
3.0764761180397047
 11
38.485379733891591
 21
3.0934259878271462
  0
LINE
  8
_0-3______1
  6
CONTINUOUS
 62
    7
 10
39.416657945464408
 20
27.054065087739765
 11
39.467645358646088
 21
26.833992388142022
  0
LINE
  8
_0-3______1
  6
CONTINUOUS
 62
    7
 10
39.230347181622072
 20
27.240375851582105
 11
39.416657945464408
 21
27.054065087739765
  0
LINE
  8
_0-3______1
  6
CONTINUOUS
 62
    7
 10
39.416657945464408
 20
12.372859579257288
 11
39.315234334378637
 21
12.28824803413954
  0
LINE
  8
_0-3______1
  6
CONTINUOUS
 62
    7
 10
39.467645358646088
 20
12.559170343099616
 11
39.416657945464408
 21
12.372859579257288
  0
LINE
  8
_0-3______1
  6
CONTINUOUS
 62
    7
 10
33.930412287113676
 20
5.7349874020972953
 11
33.185169231744467
 21
5.7858370114596029
  0
LINE
  8
_0-3______1
  6
CONTINUOUS
 62
    7
 10
40.652758205571992
 20
3.3473984269997858
 11
40.534246920879347
 21
3.3473984269997858
  0
LINE
  8
_0-3______1
  6
CONTINUOUS
 62
    7
 10
40.822256903446316
 20
3.2288871423072125
 11
40.652758205571992
 21
3.3473984269997858
  0
LINE
  8
_0-3______1
  6
CONTINUOUS
 62
    7
 10
40.940768188138861
 20
2.9749147031345728
 11
40.822256903446316
 21
3.2288871423072125
  0
LINE
  8
_0-3______1
  6
CONTINUOUS
 62
    7
 10
40.974667927713767
 20
2.5007317605447215
 11
40.940768188138861
 21
2.9749147031345728
  0
LINE
  8
_0-3______1
  6
CONTINUOUS
 62
    7
 10
32.406302044439201
 20
10.865837010189601
 11
32.186091541021995
 21
10.628676636984984
  0
LINE
  8
_0-3______1
  6
CONTINUOUS
 62
    7
 10
32.69431202700607
 20
10.88278687997706
 11
32.406302044439201
 21
10.865837010189601
  0
LINE
  8
_0-3______1
  6
CONTINUOUS
 62
    7
 10
40.41573563618681
 20
0.1639923948095429
 11
40.517434854911357
 21
0.4179648339821824
  0
LINE
  8
_0-3______1
  6
CONTINUOUS
 62
    7
 10
40.263324611919373
 20
0.1470425250220842
 11
40.41573563618681
 21
0.1639923948095429
  0
LINE
  8
_0-3______1
  6
CONTINUOUS
 62
    7
 10
38.417580254741907
 20
2.4668320209699233
 11
38.33296870962414
 21
2.2128595817972836
  0
LINE
  8
_0-3______1
  6
CONTINUOUS
 62
    7
 10
38.688502563701917
 20
2.7547041997173611
 11
38.417580254741907
 21
2.4668320209699233
  0
LINE
  8
_0-3______1
  6
CONTINUOUS
 62
    7
 10
38.959424872661998
 20
2.8564034184419373
 11
38.688502563701917
 21
2.7547041997173611
  0
LINE
  8
_0-3______1
  6
CONTINUOUS
 62
    7
 10
39.230347181622072
 20
2.8225036788671334
 11
38.959424872661998
 21
2.8564034184419373
  0
LINE
  8
_0-3______1
  6
CONTINUOUS
 62
    7
 10
32.778923572123766
 20
39.584704190509846
 11
32.711124092974089
 21
39.364631490912167
  0
LINE
  8
_0-3______1
  6
CONTINUOUS
 62
    7
 10
32.96523433596608
 20
39.635553799872177
 11
32.778923572123766
 21
39.584704190509846
  0
LINE
  8
_0-3______1
  6
CONTINUOUS
 62
    7
 10
34.336657946734412
 20
36.943142776239782
 11
34.540056384183515
 21
37.044704191144895
  0
LINE
  8
_0-3______1
  6
CONTINUOUS
 62
    7
 10
33.997936158624555
 20
36.943142776239782
 11
34.336657946734412
 21
36.943142776239782
  0
LINE
  8
_0-3______1
  6
CONTINUOUS
 62
    7
 10
35.555946140873992
 20
39.364631490912167
 11
35.183324613189363
 21
39.500092645392172
  0
LINE
  8
_0-3______1
  6
CONTINUOUS
 62
    7
 10
35.58984588044887
 20
39.263070076006962
 11
35.555946140873992
 21
39.364631490912167
  0
LINE
  8
_0-3______1
  6
CONTINUOUS
 62
    7
 10
35.47133459575624
 20
39.178320727069853
 11
35.58984588044887
 21
39.263070076006962
  0
LINE
  8
_0-3______1
  6
CONTINUOUS
 62
    7
 10
40.009489976566172
 20
37.891370857599945
 11
39.873891018266733
 21
37.942220466962183
  0
LINE
  8
_0-3______1
  6
CONTINUOUS
 62
    7
 10
40.229424872344467
 20
37.654348288214742
 11
40.009489976566172
 21
37.891370857599945
  0
LINE
  8
_0-3______1
  6
CONTINUOUS
 62
    7
 10
40.347936157037111
 20
37.163215475837525
 11
40.229424872344467
 21
37.654348288214742
  0
LINE
  8
_0-3______1
  6
CONTINUOUS
 62
    7
 10
35.318923571488789
 20
39.110659051739525
 11
35.11580074167847
 21
39.110659051739525
  0
LINE
  8
_0-3______1
  6
CONTINUOUS
 62
    7
 10
32.761835898516964
 20
36.841581361334583
 11
32.524813329131746
 21
36.824631491547144
  0
LINE
  8
_0-3______1
  6
CONTINUOUS
 62
    7
 10
32.575800742313433
 20
36.756832012397446
 11
32.372402304864316
 21
36.756832012397446
  0
LINE
  8
_0-3______1
  6
CONTINUOUS
 62
    7
 10
37.689424872979522
 20
0.5873257280369671
 11
37.486302043169211
 21
0.4686766395249833
  0
LINE
  8
_0-3______1
  6
CONTINUOUS
 62
    7
 10
37.791124091704084
 20
0.7904485578473668
 11
37.689424872979522
 21
0.5873257280369671
  0
LINE
  8
_0-3______1
  6
CONTINUOUS
 62
    7
 10
37.807936157672081
 20
1.0274711272325021
 11
37.791124091704084
 21
0.7904485578473668
  0
LINE
  8
_0-3______1
  6
CONTINUOUS
 62
    7
 10
33.811901002421131
 20
35.740804451887541
 11
33.151269492169597
 21
35.740804451887541
  0
LINE
  8
_0-3______1
  6
CONTINUOUS
 62
    7
 10
34.218146662041761
 20
35.961014955304726
 11
33.811901002421131
 21
35.740804451887541
  0
LINE
  8
_0-3______1
  6
CONTINUOUS
 62
    7
 10
34.404457425884083
 20
36.147325719146977
 11
34.218146662041761
 21
35.961014955304726
  0
LINE
  8
_0-3______1
  6
CONTINUOUS
 62
    7
 10
34.731271907170068
 20
36.770721414557457
 11
34.404457425884083
 21
36.147325719146977
  0
LINE
  8
_0-3______1
  6
CONTINUOUS
 62
    7
 10
34.8277907591116
 20
37.163215475837525
 11
34.731271907170068
 21
36.770721414557457
  0
LINE
  8
_0-3______1
  6
CONTINUOUS
 62
    7
 10
34.844602825079598
 20
37.620448548639857
 11
34.8277907591116
 21
37.163215475837525
  0
LINE
  8
_0-3______1
  6
CONTINUOUS
 62
    7
 10
40.212612806376477
 20
2.9240650937722421
 11
40.347936157037111
 21
3.3304485572123443
  0
LINE
  8
_0-3______1
  6
CONTINUOUS
 62
    7
 10
39.975590236991273
 20
2.8055538090796919
 11
40.212612806376477
 21
2.9240650937722421
  0
LINE
  8
_0-3______1
  6
CONTINUOUS
 62
    7
 10
40.44963537576168
 20
3.0086766388900061
 11
40.534246920879347
 21
3.3473984269997858
  0
LINE
  8
_0-3______1
  6
CONTINUOUS
 62
    7
 10
40.314312025101053
 20
2.8732154844100024
 11
40.44963537576168
 21
3.0086766388900061
  0
LINE
  8
_0-3______1
  6
CONTINUOUS
 62
    7
 10
40.161901000833609
 20
2.8225036788671334
 11
40.314312025101053
 21
2.8732154844100024
  0
LINE
  8
_0-3______1
  6
CONTINUOUS
 62
    7
 10
37.554101522318881
 20
0.654987403367295
 11
37.604813327861756
 21
0.9767593216897069
  0
LINE
  8
_0-3______1
  6
CONTINUOUS
 62
    7
 10
37.299991279326868
 20
0.4518645735569635
 11
37.554101522318881
 21
0.654987403367295
  0
LINE
  8
_0-3______1
  6
CONTINUOUS
 62
    7
 10
32.253891020171679
 20
8.5967593197846561
 11
32.270978693778545
 21
8.5798094499972226
  0
LINE
  8
_0-3______1
  6
CONTINUOUS
 62
    7
 10
38.146657945781833
 20
2.9749147031345728
 11
38.485379733891591
 21
3.0934259878271462
  0
LINE
  8
_0-3______1
  6
CONTINUOUS
 62
    7
 10
37.909635376396636
 20
2.7547041997173611
 11
38.146657945781833
 21
2.9749147031345728
  0
LINE
  8
_0-3______1
  6
CONTINUOUS
 62
    7
 10
37.723324612554322
 20
2.4161202154270542
 11
37.909635376396636
 21
2.7547041997173611
  0
LINE
  8
_0-3______1
  6
CONTINUOUS
 62
    7
 10
37.604813327861756
 20
1.7386766392075232
 11
37.723324612554322
 21
2.4161202154270542
  0
LINE
  8
_0-3______1
  6
CONTINUOUS
 62
    7
 10
33.913324613506873
 20
36.468959833649947
 11
33.608502564971921
 21
36.502859573224804
  0
LINE
  8
_0-3______1
  6
CONTINUOUS
 62
    7
 10
34.116723050956004
 20
36.519809443012278
 11
33.913324613506873
 21
36.468959833649947
  0
LINE
  8
_0-3______1
  6
CONTINUOUS
 62
    7
 10
37.825023831278962
 20
2.0943482971047445
 11
37.807936157672081
 21
1.7725763787824236
  0
LINE
  8
_0-3______1
  6
CONTINUOUS
 62
    7
 10
38.011334595121284
 20
2.653142784812252
 11
37.825023831278962
 21
2.0943482971047445
  0
LINE
  8
_0-3______1
  6
CONTINUOUS
 62
    7
 10
38.282256904081279
 20
2.9579648333471313
 11
38.011334595121284
 21
2.653142784812252
  0
LINE
  8
_0-3______1
  6
CONTINUOUS
 62
    7
 10
38.587078952616253
 20
3.0934259878271462
 11
38.282256904081279
 21
2.9579648333471313
  0
LINE
  8
_0-3______1
  6
CONTINUOUS
 62
    7
 10
31.982968711211665
 20
2.2128595817972836
 11
31.949068971636798
 21
2.2974711269150419
  0
LINE
  8
_0-3______1
  6
CONTINUOUS
 62
    7
 10
32.152467409086007
 20
2.1789598422224117
 11
31.982968711211665
 21
2.2128595817972836
  0
LINE
  8
_0-3______1
  6
CONTINUOUS
 62
    7
 10
32.219991280596879
 20
1.8064761183572047
 11
32.457013849981983
 21
1.6371152243023346
  0
LINE
  8
_0-3______1
  6
CONTINUOUS
 62
    7
 10
32.152467409086007
 20
2.1789598422224117
 11
32.219991280596879
 21
1.8064761183572047
  0
LINE
  8
_0-3______1
  6
CONTINUOUS
 62
    7
 10
36.809134074588471
 20
0.5873257280369671
 11
37.012256904398797
 21
0.4518645735569635
  0
LINE
  8
_0-3______1
  6
CONTINUOUS
 62
    7
 10
36.707434855863823
 20
0.8243482974222615
 11
36.809134074588471
 21
0.5873257280369671
  0
LINE
  8
_0-3______1
  6
CONTINUOUS
 62
    7
 10
36.707434855863823
 20
0.9937091914770462
 11
36.707434855863823
 21
0.8243482974222615
  0
LINE
  8
_0-3______1
  6
CONTINUOUS
 62
    7
 10
36.961269491217116
 20
0.9428595821148008
 11
37.604813327861756
 21
0.9767593216897069
  0
LINE
  8
_0-3______1
  6
CONTINUOUS
 62
    7
 10
36.707434855863823
 20
0.9937091914770462
 11
36.961269491217116
 21
0.9428595821148008
  0
LINE
  8
_0-3______1
  6
CONTINUOUS
 62
    7
 10
37.486302043169211
 20
1.6879648336646653
 11
37.604813327861756
 21
1.7386766392075232
  0
LINE
  8
_0-3______1
  6
CONTINUOUS
 62
    7
 10
36.87665794609935
 20
1.6879648336646653
 11
37.486302043169211
 21
1.6879648336646653
  0
LINE
  8
_0-3______1
  6
CONTINUOUS
 62
    7
 10
36.707434855863823
 20
1.7386766392075232
 11
36.87665794609935
 21
1.6879648336646653
  0
LINE
  8
_0-3______1
  6
CONTINUOUS
 62
    7
 10
38.451479994316813
 20
3.2797367516694522
 11
38.705590237308797
 21
3.0764761180397047
  0
LINE
  8
_0-3______1
  6
CONTINUOUS
 62
    7
 10
38.400768188773917
 20
3.6013708661724255
 11
38.451479994316813
 21
3.2797367516694522
  0
LINE
  8
_0-3______1
  6
CONTINUOUS
 62
    7
 10
39.467645358646088
 20
3.0256265086774423
 11
39.721479993999289
 21
2.8055538090796919
  0
LINE
  8
_0-3______1
  6
CONTINUOUS
 62
    7
 10
39.416657945464408
 20
3.3304485572123443
 11
39.467645358646088
 21
3.0256265086774423
  0
LINE
  8
_0-3______1
  6
CONTINUOUS
 62
    7
 10
39.416657945464408
 20
3.3304485572123443
 11
40.347936157037111
 21
3.3304485572123443
  0
LINE
  8
_0-3______1
  6
CONTINUOUS
 62
    7
 10
39.620056382913518
 20
37.129315736262654
 11
40.347936157037111
 21
37.163215475837525
  0
LINE
  8
_0-3______1
  6
CONTINUOUS
 62
    7
 10
39.416657945464408
 20
37.180165345624893
 11
39.620056382913518
 21
37.129315736262654
  0
LINE
  8
_0-3______1
  6
CONTINUOUS
 62
    7
 10
39.670768188456393
 20
37.840659052057056
 11
39.873891018266733
 21
37.942220466962183
  0
LINE
  8
_0-3______1
  6
CONTINUOUS
 62
    7
 10
39.467645358646088
 20
37.535837003522104
 11
39.670768188456393
 21
37.840659052057056
  0
LINE
  8
_0-3______1
  6
CONTINUOUS
 62
    7
 10
39.416657945464408
 20
37.180165345624893
 11
39.467645358646088
 21
37.535837003522104
  0
LINE
  8
_0-3______1
  6
CONTINUOUS
 62
    7
 10
35.183324613189363
 20
39.076759312164654
 11
35.318923571488789
 21
39.110659051739525
  0
LINE
  8
_0-3______1
  6
CONTINUOUS
 62
    7
 10
34.980201783379037
 20
38.856548808747547
 11
35.183324613189363
 21
39.076759312164654
  0
LINE
  8
_0-3______1
  6
CONTINUOUS
 62
    7
 10
34.87850256465449
 20
38.653425978937143
 11
34.980201783379037
 21
38.856548808747547
  0
LINE
  8
_0-3______1
  6
CONTINUOUS
 62
    7
 10
34.844602825079598
 20
38.348603930402263
 11
34.87850256465449
 21
38.653425978937143
  0
LINE
  8
_0-3______1
  6
CONTINUOUS
 62
    7
 10
34.844602825079598
 20
38.348603930402263
 11
34.641479995269286
 21
38.484065084882268
  0
LINE
  8
_0-3______1
  6
CONTINUOUS
 62
    7
 10
34.65856766887606
 20
37.671298158002081
 11
34.641479995269286
 21
37.738959833332402
  0
LINE
  8
_0-3______1
  6
CONTINUOUS
 62
    7
 10
34.844602825079598
 20
37.620448548639857
 11
34.65856766887606
 21
37.671298158002081
  0
LINE
  8
_0-3______1
  6
CONTINUOUS
 62
    7
 10
33.439279474736487
 20
36.435060094075062
 11
33.608502564971921
 21
36.502859573224804
  0
LINE
  8
_0-3______1
  6
CONTINUOUS
 62
    7
 10
33.252968710894145
 20
36.198037524689937
 11
33.439279474736487
 21
36.435060094075062
  0
LINE
  8
_0-3______1
  6
CONTINUOUS
 62
    7
 10
33.151269492169597
 20
35.740804451887541
 11
33.252968710894145
 21
36.198037524689937
  0
LINE
  8
_0-3______1
  6
CONTINUOUS
 62
    7
 10
32.406302044439201
 20
36.672220467279708
 11
32.575800742313433
 21
36.756832012397446
  0
LINE
  8
_0-3______1
  6
CONTINUOUS
 62
    7
 10
32.219991280596879
 20
36.435060094075062
 11
32.406302044439201
 21
36.672220467279708
  0
LINE
  8
_0-3______1
  6
CONTINUOUS
 62
    7
 10
32.152467409086007
 20
36.011726760847615
 11
32.219991280596879
 21
36.435060094075062
  0
LINE
  8
_0-3______1
  6
CONTINUOUS
 62
    7
 10
31.982968711211665
 20
36.062576370209868
 11
31.949068971636798
 21
36.130375849359623
  0
LINE
  8
_0-3______1
  6
CONTINUOUS
 62
    7
 10
32.152467409086007
 20
36.011726760847615
 11
31.982968711211665
 21
36.062576370209868
  0
LINE
  8
_0-3______1
  6
CONTINUOUS
 62
    7
 10
33.185169231744467
 20
40.008037523737372
 11
32.999134075540944
 21
40.008037523737372
  0
LINE
  8
_0-3______1
  6
CONTINUOUS
 62
    7
 10
33.96431202668856
 20
36.756832012397446
 11
33.997936158624555
 21
36.943142776239782
  0
LINE
  8
_0-3______1
  6
CONTINUOUS
 62
    7
 10
33.794813328814243
 20
36.570659052374502
 11
33.96431202668856
 21
36.756832012397446
  0
LINE
  8
_0-3______1
  6
CONTINUOUS
 62
    7
 10
32.711124092974089
 20
39.364631490912167
 11
32.60942487424952
 21
39.415343296454978
  0
LINE
  8
_0-3______1
  6
CONTINUOUS
 62
    7
 10
33.015946141508969
 20
39.906476108832251
 11
33.185169231744467
 21
40.008037523737372
  0
LINE
  8
_0-3______1
  6
CONTINUOUS
 62
    7
 10
32.96523433596608
 20
39.635553799872177
 11
33.015946141508969
 21
39.906476108832251
  0
LINE
  8
_0-3______1
  6
CONTINUOUS
 62
    7
 10
34.94630204380416
 20
39.110659051739525
 11
35.014101522953908
 21
39.076759312164654
  0
LINE
  8
_0-3______1
  6
CONTINUOUS
 62
    7
 10
34.980201783379037
 20
39.296832011762426
 11
34.94630204380416
 21
39.110659051739525
  0
LINE
  8
_0-3______1
  6
CONTINUOUS
 62
    7
 10
35.183324613189363
 20
39.500092645392172
 11
34.980201783379037
 21
39.296832011762426
  0
LINE
  8
_0-3______1
  6
CONTINUOUS
 62
    7
 10
32.711124092974089
 20
37.281726760530091
 11
32.60942487424952
 21
37.349526239679754
  0
LINE
  8
_0-3______1
  6
CONTINUOUS
 62
    7
 10
32.761835898516964
 20
36.841581361334583
 11
32.711124092974089
 21
37.281726760530091
  0
LINE
  8
_0-3______1
  6
CONTINUOUS
 62
    7
 10
40.517434854911357
 20
0.4179648339821824
 11
40.974667927713767
 21
0.4179648339821824
  0
LINE
  8
_0-3______1
  6
CONTINUOUS
 62
    7
 10
40.280412285526147
 20
-0.0223183690327971
 11
40.41573563618681
 21
-0.1238797839379969
  0
LINE
  8
_0-3______1
  6
CONTINUOUS
 62
    7
 10
40.263324611919373
 20
0.1470425250220842
 11
40.280412285526147
 21
-0.0223183690327971
  0
LINE
  8
_0-3______1
  6
CONTINUOUS
 62
    7
 10
37.807936157672081
 20
1.7725763787824236
 11
38.011334595121284
 21
1.7895262485697629
  0
LINE
  8
_0-3______1
  6
CONTINUOUS
 62
    7
 10
38.282256904081279
 20
0.654987403367295
 11
37.807936157672081
 21
1.0274711272325021
  0
LINE
  8
_0-3______1
  6
CONTINUOUS
 62
    7
 10
40.517434854911357
 20
2.5007317605447215
 11
40.974667927713767
 21
2.5007317605447215
  0
LINE
  8
_0-3______1
  6
CONTINUOUS
 62
    7
 10
31.136302044756633
 20
9.561937270932253
 11
31.187013850299508
 21
9.5449874011448141
  0
LINE
  8
_0-3______1
  6
CONTINUOUS
 62
    7
 10
31.136302044756633
 20
9.8328595798923235
 11
31.187013850299508
 21
9.8159097101048935
  0
LINE
  8
_0-3______1
  6
CONTINUOUS
 62
    7
 10
31.475023832866384
 20
10.374704197812413
 11
31.661334596708731
 21
10.408603937387282
  0
LINE
  8
_0-3______1
  6
CONTINUOUS
 62
    7
 10
36.87665794609935
 20
3.7198821508649647
 11
36.978357164823912
 21
3.6522204755346537
  0
LINE
  8
_0-3______1
  6
CONTINUOUS
 62
    7
 10
37.712288287857447
 20
3.5912720347200153
 11
38.400768188773917
 21
3.6013708661724255
  0
LINE
  8
_0-3______1
  6
CONTINUOUS
 62
    7
 10
37.215379734209122
 20
3.2627868818820165
 11
37.712288287857447
 21
3.5912720347200153
  0
LINE
  8
_0-3______1
  6
CONTINUOUS
 62
    7
 10
36.910557685674227
 20
2.8055538090796919
 11
37.215379734209122
 21
3.2627868818820165
  0
LINE
  8
_0-3______1
  6
CONTINUOUS
 62
    7
 10
36.707434855863823
 20
2.0434986877424137
 11
36.910557685674227
 21
2.8055538090796919
  0
LINE
  8
_0-3______1
  6
CONTINUOUS
 62
    7
 10
36.707434855863823
 20
1.7386766392075232
 11
36.707434855863823
 21
2.0434986877424137
  0
LINE
  8
_0-3______1
  6
CONTINUOUS
 62
    7
 10
33.794813328814243
 20
36.570659052374502
 11
34.20133459607375
 21
36.553709182587042
  0
LINE
  8
_0-3______1
  6
CONTINUOUS
 62
    7
 10
32.152467409086007
 20
28.916759314704656
 11
32.270978693778545
 21
29.001370859822419
  0
LINE
  8
_0-3______1
  6
CONTINUOUS
 62
    7
 10
32.101479995904235
 20
28.882859575129785
 11
32.152467409086007
 21
28.916759314704656
  0
LINE
  8
_0-3______1
  6
CONTINUOUS
 62
    7
 10
32.101479995904235
 20
28.730448550862338
 11
32.101479995904235
 21
28.882859575129785
  0
LINE
  8
_0-3______1
  6
CONTINUOUS
 62
    7
 10
32.152467409086007
 20
14.252503676009617
 11
32.101479995904235
 21
14.455626505819943
  0
LINE
  8
_0-3______1
  6
CONTINUOUS
 62
    7
 10
32.219991280596879
 20
14.117042521529605
 11
32.152467409086007
 21
14.252503676009617
  0
LINE
  8
_0-3______1
  6
CONTINUOUS
 62
    7
 10
32.321690499321441
 20
14.083142781954733
 11
32.219991280596879
 21
14.117042521529605
  0
LINE
  8
_0-3______1
  6
CONTINUOUS
 62
    7
 10
39.298146660771771
 20
12.305197903926988
 11
39.349134073953451
 21
12.28824803413954
  0
LINE
  8
_0-3______1
  6
CONTINUOUS
 62
    7
 10
32.219991280596879
 20
14.218603936434731
 11
32.406302044439201
 21
14.100092651742171
  0
LINE
  8
_0-3______1
  6
CONTINUOUS
 62
    7
 10
32.169279475053997
 20
14.489526245394812
 11
32.219991280596879
 21
14.218603936434731
  0
LINE
  8
_0-3______1
  6
CONTINUOUS
 62
    7
 10
32.152467409086007
 20
8.647471125327522
 11
32.287790759746542
 21
8.4782480350920917
  0
LINE
  8
_0-3______1
  6
CONTINUOUS
 62
    7
 10
39.213535115653997
 20
2.9579648333471313
 11
39.230347181622072
 21
2.8225036788671334
  0
LINE
  8
_0-3______1
  6
CONTINUOUS
 62
    7
 10
40.41573563618681
 20
2.6870425243870617
 11
40.517434854911357
 21
2.5007317605447215
  0
LINE
  8
_0-3______1
  6
CONTINUOUS
 62
    7
 10
40.1448133272267
 20
2.8055538090796919
 11
40.41573563618681
 21
2.6870425243870617
  0
LINE
  8
_0-3______1
  6
CONTINUOUS
 62
    7
 10
32.219991280596879
 20
28.967471120247524
 11
32.169279475053997
 21
28.764348290437212
  0
LINE
  8
_0-3______1
  6
CONTINUOUS
 62
    7
 10
32.287790759746542
 20
29.001370859822419
 11
32.219991280596879
 21
28.967471120247524
  0
LINE
  8
_0-3______1
  6
CONTINUOUS
 62
    7
 10
31.593535117559028
 20
9.2401653526099334
 11
31.542823312016157
 21
9.5110876615699222
  0
LINE
  8
_0-3______1
  6
CONTINUOUS
 62
    7
 10
31.712046402251588
 20
9.1386039377047421
 11
31.593535117559028
 21
9.2401653526099334
  0
LINE
  8
_0-3______1
  6
CONTINUOUS
 62
    7
 10
38.301124655833839
 20
0.4904689375451425
 11
38.282256904081279
 21
0.654987403367295
  0
LINE
  8
_0-3______1
  6
CONTINUOUS
 62
    7
 10
38.417580254741907
 20
0.384065094407282
 11
38.301124655833839
 21
0.4904689375451425
  0
LINE
  8
_0-3______1
  6
CONTINUOUS
 62
    7
 10
39.315234334378637
 20
12.28824803413954
 11
39.230347181622072
 21
12.28824803413954
  0
LINE
  8
_0-3______1
  6
CONTINUOUS
 62
    7
 10
35.674457425566558
 20
8.8846314985321637
 11
35.742256904716321
 21
8.6306590593595214
  0
LINE
  8
_0-3______1
  6
CONTINUOUS
 62
    7
 10
35.488146661724251
 20
9.0200926530121741
 11
35.674457425566558
 21
8.8846314985321637
  0
LINE
  8
_0-3______1
  6
CONTINUOUS
 62
    7
 10
31.373324614141836
 20
10.019170343734665
 11
31.542823312016157
 21
10.036120213522004
  0
LINE
  8
_0-3______1
  6
CONTINUOUS
 62
    7
 10
31.288713069024148
 20
9.7651979045620241
 11
31.373324614141836
 21
10.019170343734665
  0
LINE
  8
_0-3______1
  6
CONTINUOUS
 62
    7
 10
31.373324614141836
 20
10.205343303757534
 11
31.542823312016157
 21
10.205343303757534
  0
LINE
  8
_0-3______1
  6
CONTINUOUS
 62
    7
 10
31.271901003056087
 20
10.120731758639772
 11
31.373324614141836
 21
10.205343303757534
  0
LINE
  8
_0-3______1
  6
CONTINUOUS
 62
    7
 10
31.187013850299508
 20
9.9683207343723339
 11
31.271901003056087
 21
10.120731758639772
  0
LINE
  8
_0-3______1
  6
CONTINUOUS
 62
    7
 10
31.187013850299508
 20
9.8159097101048935
 11
31.187013850299508
 21
9.9683207343723339
  0
LINE
  8
_0-3______1
  6
CONTINUOUS
 62
    7
 10
35.84368051580207
 20
8.8168320193824226
 11
35.860768189408866
 21
8.5967593197846561
  0
LINE
  8
_0-3______1
  6
CONTINUOUS
 62
    7
 10
35.742256904716321
 20
9.0031427832247353
 11
35.84368051580207
 21
8.8168320193824226
  0
LINE
  8
_0-3______1
  6
CONTINUOUS
 62
    7
 10
35.488146661724251
 20
9.1894535470670444
 11
35.742256904716321
 21
9.0031427832247353
  0
LINE
  8
_0-3______1
  6
CONTINUOUS
 62
    7
 10
40.872968708989198
 20
0.0283934365101004
 11
40.974667927713767
 21
0.4179648339821824
  0
LINE
  8
_0-3______1
  6
CONTINUOUS
 62
    7
 10
40.652758205571992
 20
-0.1408296537253363
 11
40.872968708989198
 21
0.0283934365101004
  0
LINE
  8
_0-3______1
  6
CONTINUOUS
 62
    7
 10
36.182402303911843
 20
8.0210149622897031
 11
36.284101522636412
 21
7.9701653529274612
  0
LINE
  8
_0-3______1
  6
CONTINUOUS
 62
    7
 10
36.080978692826072
 20
8.3258370108245838
 11
36.182402303911843
 21
8.0210149622897031
  0
LINE
  8
_0-3______1
  6
CONTINUOUS
 62
    7
 10
32.69431202700607
 20
3.8385312393769713
 11
32.778923572123766
 21
3.8046314998021615
  0
LINE
  8
_0-3______1
  6
CONTINUOUS
 62
    7
 10
32.524813329131746
 20
4.1094535483370409
 11
32.69431202700607
 21
3.8385312393769713
  0
LINE
  8
_0-3______1
  6
CONTINUOUS
 62
    7
 10
32.457013849981983
 20
4.8206590603120025
 11
32.524813329131746
 21
4.1094535483370409
  0
LINE
  8
_0-3______1
  6
CONTINUOUS
 62
    7
 10
31.542823312016157
 20
9.7651979045620241
 11
31.610347183527047
 21
9.9174711250100227
  0
LINE
  8
_0-3______1
  6
CONTINUOUS
 62
    7
 10
36.741334595438722
 20
3.0256265086774423
 11
36.809134074588471
 21
3.2288871423072125
  0
LINE
  8
_0-3______1
  6
CONTINUOUS
 62
    7
 10
36.673535116289024
 20
2.9918645729220033
 11
36.741334595438722
 21
3.0256265086774423
  0
LINE
  8
_0-3______1
  6
CONTINUOUS
 62
    7
 10
32.778923572123766
 20
4.2279648330296116
 11
32.812823311698637
 21
3.9908044598250627
  0
LINE
  8
_0-3______1
  6
CONTINUOUS
 62
    7
 10
32.897434856816396
 20
4.8206590603120025
 11
32.778923572123766
 21
4.2279648330296116
  0
LINE
  8
_0-3______1
  6
CONTINUOUS
 62
    7
 10
33.236156644926147
 20
5.6673257267669648
 11
33.489991280279355
 21
5.6673257267669648
  0
LINE
  8
_0-3______1
  6
CONTINUOUS
 62
    7
 10
32.575800742313433
 20
10.713425985922164
 11
32.389489978471133
 21
10.679526246347287
  0
LINE
  8
_0-3______1
  6
CONTINUOUS
 62
    7
 10
36.944457425249134
 20
9.4095262466648144
 11
36.605735637139276
 21
9.6465488160500126
  0
LINE
  8
_0-3______1
  6
CONTINUOUS
 62
    7
 10
37.062968709941671
 20
9.1386039377047421
 11
36.944457425249134
 21
9.4095262466648144
  0
LINE
  8
_0-3______1
  6
CONTINUOUS
 62
    7
 10
37.080056383548474
 20
8.8846314985321637
 11
37.062968709941671
 21
9.1386039377047421
  0
LINE
  8
_0-3______1
  6
CONTINUOUS
 62
    7
 10
36.080978692826072
 20
8.7830700836269617
 11
36.080978692826072
 21
8.5967593197846561
  0
LINE
  8
_0-3______1
  6
CONTINUOUS
 62
    7
 10
35.962467408133442
 20
9.0877543283424931
 11
36.080978692826072
 21
8.7830700836269617
  0
LINE
  8
_0-3______1
  6
CONTINUOUS
 62
    7
 10
35.759068970684318
 20
9.3079648317596142
 11
35.962467408133442
 21
9.0877543283424931
  0
LINE
  8
_0-3______1
  6
CONTINUOUS
 62
    7
 10
35.623745620023691
 20
9.3586766373024837
 11
35.759068970684318
 21
9.3079648317596142
  0
LINE
  8
_0-3______1
  6
CONTINUOUS
 62
    7
 10
31.204101523906406
 20
9.3079648317596142
 11
31.187013850299508
 21
9.5449874011448141
  0
LINE
  8
_0-3______1
  6
CONTINUOUS
 62
    7
 10
31.390412287748717
 20
9.0539923925870429
 11
31.204101523906406
 21
9.3079648317596142
  0
LINE
  8
_0-3______1
  6
CONTINUOUS
 62
    7
 10
31.305800742630961
 20
9.3079648317596142
 11
31.288713069024148
 21
9.5110876615699222
  0
LINE
  8
_0-3______1
  6
CONTINUOUS
 62
    7
 10
31.407224353716721
 20
9.1216540679173033
 11
31.305800742630961
 21
9.3079648317596142
  0
LINE
  8
_0-3______1
  6
CONTINUOUS
 62
    7
 10
31.559635377984161
 20
9.0200926530121741
 11
31.407224353716721
 21
9.1216540679173033
  0
LINE
  8
_0-3______1
  6
CONTINUOUS
 62
    7
 10
35.979279474101524
 20
7.9194535473845722
 11
36.097790758794076
 21
7.8516540682348026
  0
LINE
  8
_0-3______1
  6
CONTINUOUS
 62
    7
 10
35.894667928983758
 20
8.0717267678325637
 11
35.979279474101524
 21
7.9194535473845722
  0
LINE
  8
_0-3______1
  6
CONTINUOUS
 62
    7
 10
35.860768189408866
 20
8.3258370108245838
 11
35.894667928983758
 21
8.0717267678325637
  0
LINE
  8
_0-3______1
  6
CONTINUOUS
 62
    7
 10
35.77615664429112
 20
8.0886766376200026
 11
35.962467408133442
 21
7.8855538078096945
  0
LINE
  8
_0-3______1
  6
CONTINUOUS
 62
    7
 10
35.742256904716321
 20
8.3765488163675439
 11
35.77615664429112
 21
8.0886766376200026
  0
LINE
  8
_0-3______1
  6
CONTINUOUS
 62
    7
 10
35.251124092339047
 20
39.178320727069853
 11
35.47133459575624
 21
39.178320727069853
  0
LINE
  8
_0-3______1
  6
CONTINUOUS
 62
    7
 10
36.944457425249134
 20
3.1273257274020128
 11
36.978357164823912
 21
3.6522204755346537
  0
LINE
  8
_0-3______1
  6
CONTINUOUS
 62
    7
 10
36.842758206524493
 20
2.9071152239848006
 11
36.944457425249134
 21
3.1273257274020128
  0
LINE
  8
_0-3______1
  6
CONTINUOUS
 62
    7
 10
36.63963537671416
 20
2.8055538090796919
 11
36.842758206524493
 21
2.9071152239848006
  0
LINE
  8
_0-3______1
  6
CONTINUOUS
 62
    7
 10
36.978357164823912
 20
7.2589598409524116
 11
36.87665794609935
 21
7.3098094503147424
  0
LINE
  8
_0-3______1
  6
CONTINUOUS
 62
    7
 10
36.673535116289024
 20
2.9918645729220033
 11
36.63963537671416
 21
2.8055538090796919
  0
LINE
  8
_0-3______1
  6
CONTINUOUS
 62
    7
 10
32.812823311698637
 20
3.9908044598250627
 11
32.778923572123766
 21
3.8046314998021615
  0
LINE
  8
_0-3______1
  6
CONTINUOUS
 62
    7
 10
32.897434856816396
 20
4.8206590603120025
 11
32.457013849981983
 21
4.8206590603120025
  0
LINE
  8
_0-3______1
  6
CONTINUOUS
 62
    7
 10
37.09686844951657
 20
7.3944209954324807
 11
37.080056383548474
 21
7.5468320196999237
  0
LINE
  8
_0-3______1
  6
CONTINUOUS
 62
    7
 10
37.012256904398797
 20
7.3606590596770536
 11
37.09686844951657
 21
7.3944209954324807
  0
LINE
  8
_0-3______1
  6
CONTINUOUS
 62
    7
 10
36.233389717093523
 20
7.8686039380222645
 11
36.097790758794076
 21
7.8516540682348026
  0
LINE
  8
_0-3______1
  6
CONTINUOUS
 62
    7
 10
36.284101522636412
 20
7.9701653529274612
 11
36.233389717093523
 21
7.8686039380222645
  0
LINE
  8
_0-3______1
  6
CONTINUOUS
 62
    7
 10
36.080978692826072
 20
8.3258370108245838
 11
35.860768189408866
 21
8.3258370108245838
  0
LINE
  8
_0-3______1
  6
CONTINUOUS
 62
    7
 10
36.080978692826072
 20
8.5967593197846561
 11
35.860768189408866
 21
8.5967593197846561
  0
LINE
  8
_0-3______1
  6
CONTINUOUS
 62
    7
 10
35.623745620023691
 20
9.3586766373024837
 11
35.488146661724251
 21
9.1894535470670444
  0
LINE
  8
_0-3______1
  6
CONTINUOUS
 62
    7
 10
31.559635377984161
 20
10.323992392269544
 11
31.542823312016157
 21
10.205343303757534
  0
LINE
  8
_0-3______1
  6
CONTINUOUS
 62
    7
 10
31.661334596708731
 20
10.408603937387282
 11
31.559635377984161
 21
10.323992392269544
  0
LINE
  8
_0-3______1
  6
CONTINUOUS
 62
    7
 10
35.742256904716321
 20
8.3765488163675439
 11
35.691269491534648
 21
8.3934986861548833
  0
LINE
  8
_0-3______1
  6
CONTINUOUS
 62
    7
 10
35.742256904716321
 20
8.6306590593595214
 11
35.691269491534648
 21
8.647471125327522
  0
LINE
  8
_0-3______1
  6
CONTINUOUS
 62
    7
 10
35.488146661724251
 20
9.0200926530121741
 11
35.572758206841989
 21
8.8846314985321637
  0
LINE
  8
_0-3______1
  6
CONTINUOUS
 62
    7
 10
31.542823312016157
 20
10.036120213522004
 11
31.610347183527047
 21
9.9174711250100227
  0
LINE
  8
_0-3______1
  6
CONTINUOUS
 62
    7
 10
31.288713069024148
 20
9.7651979045620241
 11
31.542823312016157
 21
9.7651979045620241
  0
LINE
  8
_0-3______1
  6
CONTINUOUS
 62
    7
 10
31.288713069024148
 20
9.5110876615699222
 11
31.542823312016157
 21
9.5110876615699222
  0
LINE
  8
_0-3______1
  6
CONTINUOUS
 62
    7
 10
31.644246923101917
 20
9.0200926530121741
 11
31.712046402251588
 21
9.1386039377047421
  0
LINE
  8
_0-3______1
  6
CONTINUOUS
 62
    7
 10
31.559635377984161
 20
9.0200926530121741
 11
31.644246923101917
 21
9.0200926530121741
  0
LINE
  8
_0-3______1
  6
CONTINUOUS
 62
    7
 10
32.660412287431193
 20
10.747325725496976
 11
32.575800742313433
 21
10.713425985922164
  0
LINE
  8
_0-3______1
  6
CONTINUOUS
 62
    7
 10
32.69431202700607
 20
10.88278687997706
 11
32.660412287431193
 21
10.747325725496976
  0
LINE
  8
_0-3______1
  6
CONTINUOUS
 62
    7
 10
36.707434855863823
 20
9.7482480347745657
 11
36.605735637139276
 21
9.6465488160500126
  0
LINE
  8
_0-3______1
  6
CONTINUOUS
 62
    7
 10
36.707434855863823
 20
9.8498094496796913
 11
36.707434855863823
 21
9.7482480347745657
  0
LINE
  8
_0-3______1
  6
CONTINUOUS
 62
    7
 10
37.317078952933677
 20
8.8846314985321637
 11
37.080056383548474
 21
8.8846314985321637
  0
LINE
  8
_0-3______1
  6
CONTINUOUS
 62
    7
 10
37.317078952933677
 20
7.5468320196999237
 11
37.080056383548474
 21
7.5468320196999237
  0
LINE
  8
_0-3______1
  6
CONTINUOUS
 62
    7
 10
37.080056383548474
 20
7.2420099711650412
 11
37.012256904398797
 21
7.3606590596770536
  0
LINE
  8
_0-3______1
  6
CONTINUOUS
 62
    7
 10
36.978357164823912
 20
7.2589598409524116
 11
36.809134074588471
 21
7.4113708652199426
  0
LINE
  8
_0-3______1
  6
CONTINUOUS
 62
    7
 10
37.266091539751997
 20
7.292859580527284
 11
37.317078952933677
 21
7.5468320196999237
  0
LINE
  8
_0-3______1
  6
CONTINUOUS
 62
    7
 10
37.080056383548474
 20
7.2420099711650412
 11
37.266091539751997
 21
7.292859580527284
  0
LINE
  8
_0-3______1
  6
CONTINUOUS
 62
    7
 10
36.96945427606456
 20
9.7298648126561833
 11
36.707434855863823
 21
9.8498094496796913
  0
LINE
  8
_0-3______1
  6
CONTINUOUS
 62
    7
 10
37.147580255059431
 20
9.5110876615699222
 11
36.96945427606456
 21
9.7298648126561833
  0
LINE
  8
_0-3______1
  6
CONTINUOUS
 62
    7
 10
37.299991279326868
 20
9.1386039377047421
 11
37.147580255059431
 21
9.5110876615699222
  0
LINE
  8
_0-3______1
  6
CONTINUOUS
 62
    7
 10
37.317078952933677
 20
8.8846314985321637
 11
37.299991279326868
 21
9.1386039377047421
  0
LINE
  8
_0-3______1
  6
CONTINUOUS
 62
    7
 10
41.380913587334398
 20
43.428603929132258
 11
41.127078951981197
 21
43.445553798919697
  0
LINE
  8
_0-3______1
  6
CONTINUOUS
 62
    7
 10
54.521334590993753
 20
43.597964823187134
 11
54.317936153544565
 21
43.733425977667139
  0
LINE
  8
_0-3______1
  6
CONTINUOUS
 62
    7
 10
49.746156640798631
 20
49.727754318182498
 11
49.559845876956317
 21
49.609243033489861
  0
LINE
  8
_0-3______1
  6
CONTINUOUS
 62
    7
 10
43.73460282285712
 20
3.6861202151095371
 11
43.497580253471916
 21
3.6861202151095371
  0
LINE
  8
_0-3______1
  6
CONTINUOUS
 62
    7
 10
43.802402302006783
 20
44.918676628412506
 11
43.73460282285712
 21
45.240448546734818
  0
LINE
  8
_0-3______1
  6
CONTINUOUS
 62
    7
 10
44.039424871391986
 20
44.715553798602173
 11
43.802402302006783
 21
44.918676628412506
  0
LINE
  8
_0-3______1
  6
CONTINUOUS
 62
    7
 10
43.514667927078719
 20
46.815270594952246
 11
43.616091538164483
 21
46.899882140070012
  0
LINE
  8
_0-3______1
  6
CONTINUOUS
 62
    7
 10
43.497580253471916
 20
46.713709180047033
 11
43.514667927078719
 21
46.815270594952246
  0
LINE
  8
_0-3______1
  6
CONTINUOUS
 62
    7
 10
43.73460282285712
 20
43.953498677264882
 11
43.497580253471916
 21
43.953498677264882
  0
LINE
  8
_0-3______1
  6
CONTINUOUS
 62
    7
 10
46.562612804788955
 20
43.970448547052342
 11
46.478001259671188
 21
44.326120204949518
  0
LINE
  8
_0-3______1
  6
CONTINUOUS
 62
    7
 10
46.782823308206162
 20
43.801087652997445
 11
46.562612804788955
 21
43.970448547052342
  0
LINE
  8
_0-3______1
  6
CONTINUOUS
 62
    7
 10
48.89948997434368
 20
43.428603929132258
 11
48.831690495193918
 21
43.174631489959609
  0
LINE
  8
_0-3______1
  6
CONTINUOUS
 62
    7
 10
49.08580073818591
 20
43.564065083612263
 11
48.89948997434368
 21
43.428603929132258
  0
LINE
  8
_0-3______1
  6
CONTINUOUS
 62
    7
 10
52.150557681864235
 20
43.225343295502491
 11
53.115735633011838
 21
43.29314277465226
  0
LINE
  8
_0-3______1
  6
CONTINUOUS
 62
    7
 10
51.727224348636724
 20
43.29314277465226
 11
52.150557681864235
 21
43.225343295502491
  0
LINE
  8
_0-3______1
  6
CONTINUOUS
 62
    7
 10
43.71779075688903
 20
46.832220464739692
 11
43.616091538164483
 21
46.899882140070012
  0
LINE
  8
_0-3______1
  6
CONTINUOUS
 62
    7
 10
43.73460282285712
 20
46.713709180047033
 11
43.71779075688903
 21
46.832220464739692
  0
LINE
  8
_0-3______1
  6
CONTINUOUS
 62
    7
 10
38.400768188773917
 20
45.90080444934754
 11
38.891901001151133
 21
45.850092643804651
  0
LINE
  8
_0-3______1
  6
CONTINUOUS
 62
    7
 10
38.282256904081279
 20
46.25647610724473
 11
38.095946140238972
 21
46.391937261724728
  0
LINE
  8
_0-3______1
  6
CONTINUOUS
 62
    7
 10
38.400768188773917
 20
45.850092643804651
 11
38.282256904081279
 21
46.25647610724473
  0
LINE
  8
_0-3______1
  6
CONTINUOUS
 62
    7
 10
37.672612807011426
 20
46.713709180047033
 11
38.011334595121284
 21
47.001581358794567
  0
LINE
  8
_0-3______1
  6
CONTINUOUS
 62
    7
 10
37.503389716775985
 20
46.358037522149914
 11
37.672612807011426
 21
46.713709180047033
  0
LINE
  8
_0-3______1
  6
CONTINUOUS
 62
    7
 10
37.452402303594319
 20
45.629882140387451
 11
37.503389716775985
 21
46.358037522149914
  0
LINE
  8
_0-3______1
  6
CONTINUOUS
 62
    7
 10
37.601562018997598
 20
45.026996890022815
 11
37.452402303594319
 21
45.629882140387451
  0
LINE
  8
_0-3______1
  6
CONTINUOUS
 62
    7
 10
38.028146661089274
 20
44.393781880279846
 11
37.601562018997598
 21
45.026996890022815
  0
LINE
  8
_0-3______1
  6
CONTINUOUS
 62
    7
 10
48.018923568313767
 20
43.445553798919697
 11
48.103535113431533
 21
43.445553798919697
  0
LINE
  8
_0-3______1
  6
CONTINUOUS
 62
    7
 10
45.529635374491683
 20
44.410731750067292
 11
45.68204639875912
 21
44.410731750067292
  0
LINE
  8
_0-3______1
  6
CONTINUOUS
 62
    7
 10
48.154246918974401
 20
17.656120211617054
 11
48.306657943241838
 21
17.656120211617054
  0
LINE
  8
_0-3______1
  6
CONTINUOUS
 62
    7
 10
38.095946140238972
 20
46.391937261724728
 11
37.909635376396636
 21
46.391937261724728
  0
LINE
  8
_0-3______1
  6
CONTINUOUS
 62
    7
 10
38.400768188773917
 20
45.850092643804651
 11
38.90871306711913
 21
45.833142774017212
  0
LINE
  8
_0-3______1
  6
CONTINUOUS
 62
    7
 10
38.90871306711913
 20
46.036403407646979
 11
39.010412285843678
 21
45.883992383379542
  0
LINE
  8
_0-3______1
  6
CONTINUOUS
 62
    7
 10
38.858001261576227
 20
46.307325716606954
 11
38.90871306711913
 21
46.036403407646979
  0
LINE
  8
_0-3______1
  6
CONTINUOUS
 62
    7
 10
49.204312022878568
 20
43.564065083612263
 11
49.08580073818591
 21
43.564065083612263
  0
LINE
  8
_0-3______1
  6
CONTINUOUS
 62
    7
 10
51.473389713283524
 20
42.971370856329941
 11
52.404667924856234
 21
42.971370856329941
  0
LINE
  8
_0-3______1
  6
CONTINUOUS
 62
    7
 10
54.317936153544565
 20
43.462503668707136
 11
54.521334590993753
 21
43.597964823187134
  0
LINE
  8
_0-3______1
  6
CONTINUOUS
 62
    7
 10
53.454457421121596
 20
43.530165344037464
 11
53.352758202396956
 21
43.597964823187134
  0
LINE
  8
_0-3______1
  6
CONTINUOUS
 62
    7
 10
53.454457421121596
 20
43.394704189557366
 11
53.454457421121596
 21
43.530165344037464
  0
LINE
  8
_0-3______1
  6
CONTINUOUS
 62
    7
 10
53.166723046193511
 20
43.276192904864821
 11
53.454457421121596
 21
43.394704189557366
  0
LINE
  8
_0-3______1
  6
CONTINUOUS
 62
    7
 10
52.709489973391129
 20
43.191581359747055
 11
53.166723046193511
 21
43.276192904864821
  0
LINE
  8
_0-3______1
  6
CONTINUOUS
 62
    7
 10
52.08275820271448
 20
43.191581359747055
 11
52.709489973391129
 21
43.191581359747055
  0
LINE
  8
_0-3______1
  6
CONTINUOUS
 62
    7
 10
51.693324609061847
 20
43.259243035077382
 11
52.08275820271448
 21
43.191581359747055
  0
LINE
  8
_0-3______1
  6
CONTINUOUS
 62
    7
 10
51.388502560526973
 20
43.394704189557366
 11
51.693324609061847
 21
43.259243035077382
  0
LINE
  8
_0-3______1
  6
CONTINUOUS
 62
    7
 10
51.371690494558976
 20
43.530165344037464
 11
51.388502560526973
 21
43.394704189557366
  0
LINE
  8
_0-3______1
  6
CONTINUOUS
 62
    7
 10
51.473389713283524
 20
43.597964823187134
 11
51.371690494558976
 21
43.530165344037464
  0
LINE
  8
_0-3______1
  6
CONTINUOUS
 62
    7
 10
37.689424872979522
 20
46.442786871087058
 11
37.858923570853769
 21
46.442786871087058
  0
LINE
  8
_0-3______1
  6
CONTINUOUS
 62
    7
 10
48.476156641116162
 20
43.259243035077382
 11
48.35764535642361
 21
43.37775431977002
  0
LINE
  8
_0-3______1
  6
CONTINUOUS
 62
    7
 10
48.492968707084152
 20
43.123781880597384
 11
48.476156641116162
 21
43.259243035077382
  0
LINE
  8
_0-3______1
  6
CONTINUOUS
 62
    7
 10
51.845735633329276
 20
38.043781881867382
 11
51.947434852053824
 21
38.484065084882268
  0
LINE
  8
_0-3______1
  6
CONTINUOUS
 62
    7
 10
51.625800737550946
 20
37.772859572907286
 11
51.845735633329276
 21
38.043781881867382
  0
LINE
  8
_0-3______1
  6
CONTINUOUS
 62
    7
 10
51.473389713283524
 20
37.722147767364412
 11
51.625800737550946
 21
37.772859572907286
  0
LINE
  8
_0-3______1
  6
CONTINUOUS
 62
    7
 10
48.696091536894471
 20
17.537471123105053
 11
48.526868446659037
 21
17.588320732467288
  0
LINE
  8
_0-3______1
  6
CONTINUOUS
 62
    7
 10
48.780978689651022
 20
17.402009968625045
 11
48.696091536894471
 21
17.537471123105053
  0
LINE
  8
_0-3______1
  6
CONTINUOUS
 62
    7
 10
48.831690495193918
 20
17.063425984334664
 11
48.780978689651022
 21
17.402009968625045
  0
LINE
  8
_0-3______1
  6
CONTINUOUS
 62
    7
 10
48.814602821587123
 20
11.593992391952021
 11
48.831690495193918
 21
11.864914700912093
  0
LINE
  8
_0-3______1
  6
CONTINUOUS
 62
    7
 10
48.690940269645353
 20
11.336442739228003
 11
48.814602821587123
 21
11.593992391952021
  0
LINE
  8
_0-3______1
  6
CONTINUOUS
 62
    7
 10
48.510056380691047
 20
11.153709188937055
 11
48.690940269645353
 21
11.336442739228003
  0
LINE
  8
_0-3______1
  6
CONTINUOUS
 62
    7
 10
48.374457422391608
 20
11.119809449362243
 11
48.510056380691047
 21
11.153709188937055
  0
LINE
  8
_0-3______1
  6
CONTINUOUS
 62
    7
 10
46.44410152009641
 20
8.2073257261320158
 11
46.478001259671188
 21
8.4950601010600817
  0
LINE
  8
_0-3______1
  6
CONTINUOUS
 62
    7
 10
46.342402301371841
 20
8.004065092502243
 11
46.44410152009641
 21
8.2073257261320158
  0
LINE
  8
_0-3______1
  6
CONTINUOUS
 62
    7
 10
46.240978690286077
 20
7.8686039380222645
 11
46.342402301371841
 21
8.004065092502243
  0
LINE
  8
_0-3______1
  6
CONTINUOUS
 62
    7
 10
45.986868447294
 20
7.7161929137548215
 11
46.240978690286077
 21
7.8686039380222645
  0
LINE
  8
_0-3______1
  6
CONTINUOUS
 62
    7
 10
45.241900999563597
 20
1.0783207365948158
 11
45.275800739138482
 21
1.3661929153423444
  0
LINE
  8
_0-3______1
  6
CONTINUOUS
 62
    7
 10
45.140201780839043
 20
0.8582480369970426
 11
45.241900999563597
 21
1.0783207365948158
  0
LINE
  8
_0-3______1
  6
CONTINUOUS
 62
    7
 10
45.004602822539596
 20
0.6888871429421613
 11
45.140201780839043
 21
0.8582480369970426
  0
LINE
  8
_0-3______1
  6
CONTINUOUS
 62
    7
 10
44.818567666336072
 20
0.5873257280369671
 11
45.004602822539596
 21
0.6888871429421613
  0
LINE
  8
_0-3______1
  6
CONTINUOUS
 62
    7
 10
46.156091537529527
 20
44.173709180682089
 11
45.936156641751133
 21
44.359882140704961
  0
LINE
  8
_0-3______1
  6
CONTINUOUS
 62
    7
 10
46.240978690286077
 20
43.818037522784891
 11
46.156091537529527
 21
44.173709180682089
  0
LINE
  8
_0-3______1
  6
CONTINUOUS
 62
    7
 10
43.988713065849133
 20
0.384065094407282
 11
43.260557684086713
 21
0.384065094407282
  0
LINE
  8
_0-3______1
  6
CONTINUOUS
 62
    7
 10
35.894667928983758
 20
45.985553798284649
 11
35.742256904716321
 21
45.90080444934754
  0
LINE
  8
_0-3______1
  6
CONTINUOUS
 62
    7
 10
36.097790758794076
 20
49.067398415569777
 11
36.26701384902951
 21
49.118248024932086
  0
LINE
  8
_0-3______1
  6
CONTINUOUS
 62
    7
 10
35.979279474101524
 20
48.91498739130234
 11
36.097790758794076
 21
49.067398415569777
  0
LINE
  8
_0-3______1
  6
CONTINUOUS
 62
    7
 10
35.894667928983758
 20
48.559453537224556
 11
35.979279474101524
 21
48.91498739130234
  0
LINE
  8
_0-3______1
  6
CONTINUOUS
 62
    7
 10
41.651835896294472
 20
43.597964823187134
 11
41.262402302641839
 21
43.360804449982588
  0
LINE
  8
_0-3______1
  6
CONTINUOUS
 62
    7
 10
41.855234333743603
 20
43.919736741509439
 11
41.651835896294472
 21
43.597964823187134
  0
LINE
  8
_0-3______1
  6
CONTINUOUS
 62
    7
 10
41.954676712133747
 20
44.364877293654011
 11
41.855234333743603
 21
43.919736741509439
  0
LINE
  8
_0-3______1
  6
CONTINUOUS
 62
    7
 10
41.952421251183267
 20
44.742458682245051
 11
41.954676712133747
 21
44.364877293654011
  0
LINE
  8
_0-3______1
  6
CONTINUOUS
 62
    7
 10
41.847872965407191
 20
45.208342309066488
 11
41.952421251183267
 21
44.742458682245051
  0
LINE
  8
_0-3______1
  6
CONTINUOUS
 62
    7
 10
41.651835896294472
 20
45.680731749749775
 11
41.847872965407191
 21
45.208342309066488
  0
LINE
  8
_0-3______1
  6
CONTINUOUS
 62
    7
 10
41.296302042216652
 20
46.087115213189854
 11
41.651835896294472
 21
45.680731749749775
  0
LINE
  8
_0-3______1
  6
CONTINUOUS
 62
    7
 10
40.890056382596001
 20
46.290375846819622
 11
41.296302042216652
 21
46.087115213189854
  0
LINE
  8
_0-3______1
  6
CONTINUOUS
 62
    7
 10
37.892823310428632
 20
46.967681619219682
 11
38.282256904081279
 21
46.967681619219682
  0
LINE
  8
_0-3______1
  6
CONTINUOUS
 62
    7
 10
52.032046397171598
 20
42.581937262677208
 11
51.473389713283524
 21
42.649736741826977
  0
LINE
  8
_0-3______1
  6
CONTINUOUS
 62
    7
 10
52.404667924856234
 20
42.649736741826977
 11
52.032046397171598
 21
42.581937262677208
  0
LINE
  8
_0-3______1
  6
CONTINUOUS
 62
    7
 10
49.204312022878568
 20
43.242293165289929
 11
49.153324609696881
 21
43.242293165289929
  0
LINE
  8
_0-3______1
  6
CONTINUOUS
 62
    7
 10
54.487434851418882
 20
43.191581359747055
 11
54.317936153544565
 21
43.140731750384724
  0
LINE
  8
_0-3______1
  6
CONTINUOUS
 62
    7
 10
54.521334590993753
 20
43.259243035077382
 11
54.487434851418882
 21
43.191581359747055
  0
LINE
  8
_0-3______1
  6
CONTINUOUS
 62
    7
 10
49.746156640798631
 20
50.066476106292249
 11
49.559845876956317
 21
50.184987390984816
  0
LINE
  8
_0-3______1
  6
CONTINUOUS
 62
    7
 10
44.293535114384007
 20
44.664704189239842
 11
44.445946138651436
 21
44.681654059027302
  0
LINE
  8
_0-3______1
  6
CONTINUOUS
 62
    7
 10
47.002758203984492
 20
43.750375847454563
 11
47.189068967826799
 21
43.750375847454563
  0
LINE
  8
_0-3______1
  6
CONTINUOUS
 62
    7
 10
43.988713065849133
 20
15.319243042062332
 11
43.41296870835415
 21
15.30229317227497
  0
LINE
  8
_0-3______1
  6
CONTINUOUS
 62
    7
 10
38.654602824127117
 20
46.104065082977286
 11
38.620978692191031
 21
46.358037522149914
  0
LINE
  8
_0-3______1
  6
CONTINUOUS
 62
    7
 10
38.756302042851694
 20
45.93470418892241
 11
38.654602824127117
 21
46.104065082977286
  0
LINE
  8
_0-3______1
  6
CONTINUOUS
 62
    7
 10
38.90871306711913
 20
45.833142774017212
 11
38.756302042851694
 21
45.93470418892241
  0
LINE
  8
_0-3______1
  6
CONTINUOUS
 62
    7
 10
35.979279474101524
 20
49.050448545782331
 11
36.131690498368968
 21
49.118248024932086
  0
LINE
  8
_0-3______1
  6
CONTINUOUS
 62
    7
 10
35.894667928983758
 20
48.745626497247464
 11
35.979279474101524
 21
49.050448545782331
  0
LINE
  8
_0-3______1
  6
CONTINUOUS
 62
    7
 10
44.818567666336072
 20
51.404137781305053
 11
44.937078951028731
 21
51.387325715336971
  0
LINE
  8
_0-3______1
  6
CONTINUOUS
 62
    7
 10
48.984101519461362
 20
44.427681619854731
 11
49.08580073818591
 21
44.884914692657048
  0
LINE
  8
_0-3______1
  6
CONTINUOUS
 62
    7
 10
48.797790755619033
 20
44.207471116437524
 11
48.984101519461362
 21
44.427681619854731
  0
LINE
  8
_0-3______1
  6
CONTINUOUS
 62
    7
 10
48.611479991776811
 20
44.122859571319786
 11
48.797790755619033
 21
44.207471116437524
  0
LINE
  8
_0-3______1
  6
CONTINUOUS
 62
    7
 10
48.882402300736793
 20
48.491654058074822
 11
48.729991276469363
 21
48.559453537224556
  0
LINE
  8
_0-3______1
  6
CONTINUOUS
 62
    7
 10
49.00091358542943
 20
48.339243033807385
 11
48.882402300736793
 21
48.491654058074822
  0
LINE
  8
_0-3______1
  6
CONTINUOUS
 62
    7
 10
49.08580073818591
 20
47.966759309942177
 11
49.00091358542943
 21
48.339243033807385
  0
LINE
  8
_0-3______1
  6
CONTINUOUS
 62
    7
 10
53.251334591311263
 20
42.564987392889861
 11
53.047936153862089
 21
42.514137783527531
  0
LINE
  8
_0-3______1
  6
CONTINUOUS
 62
    7
 10
53.302046396854067
 20
42.649736741826977
 11
53.251334591311263
 21
42.564987392889861
  0
LINE
  8
_0-3______1
  6
CONTINUOUS
 62
    7
 10
52.797755472907923
 20
42.451728129349718
 11
53.047936153862089
 21
42.514137783527531
  0
LINE
  8
_0-3______1
  6
CONTINUOUS
 62
    7
 10
51.98133459162873
 20
42.446476108197217
 11
52.797755472907923
 21
42.451728129349718
  0
LINE
  8
_0-3______1
  6
CONTINUOUS
 62
    7
 10
51.591900997976076
 20
42.564987392889861
 11
51.98133459162873
 21
42.446476108197217
  0
LINE
  8
_0-3______1
  6
CONTINUOUS
 62
    7
 10
51.540913584794396
 20
42.632786872039532
 11
51.591900997976076
 21
42.564987392889861
  0
LINE
  8
_0-3______1
  6
CONTINUOUS
 62
    7
 10
43.988713065849133
 20
3.6183207359598555
 11
43.41296870835415
 21
3.6013708661724255
  0
LINE
  8
_0-3______1
  6
CONTINUOUS
 62
    7
 10
46.799635374174159
 20
43.902786871722014
 11
47.002758203984492
 21
43.750375847454563
  0
LINE
  8
_0-3______1
  6
CONTINUOUS
 62
    7
 10
46.697936155449611
 20
44.275270595587223
 11
46.799635374174159
 21
43.902786871722014
  0
LINE
  8
_0-3______1
  6
CONTINUOUS
 62
    7
 10
44.056512544998803
 20
44.83406508329481
 11
44.293535114384007
 21
44.664704189239842
  0
LINE
  8
_0-3______1
  6
CONTINUOUS
 62
    7
 10
43.988713065849133
 20
45.189736741191929
 11
44.056512544998803
 21
44.83406508329481
  0
LINE
  8
_0-3______1
  6
CONTINUOUS
 62
    7
 10
43.785590236038786
 20
47.153992383062018
 11
43.616091538164483
 21
47.238603928179771
  0
LINE
  8
_0-3______1
  6
CONTINUOUS
 62
    7
 10
43.904101520731373
 20
47.001581358794567
 11
43.785590236038786
 21
47.153992383062018
  0
LINE
  8
_0-3______1
  6
CONTINUOUS
 62
    7
 10
43.988713065849133
 20
46.64590970089737
 11
43.904101520731373
 21
47.001581358794567
  0
LINE
  8
_0-3______1
  6
CONTINUOUS
 62
    7
 10
48.35764535642361
 20
43.37775431977002
 11
48.272758203666967
 21
43.37775431977002
  0
LINE
  8
_0-3______1
  6
CONTINUOUS
 62
    7
 10
49.153324609696881
 20
43.242293165289929
 11
49.08580073818591
 21
43.123781880597384
  0
LINE
  8
_0-3______1
  6
CONTINUOUS
 62
    7
 10
45.936156641751133
 20
44.359882140704961
 11
45.749845877908889
 21
44.359882140704961
  0
LINE
  8
_0-3______1
  6
CONTINUOUS
 62
    7
 10
43.345169229204473
 20
47.001581358794567
 11
43.616091538164483
 21
47.238603928179771
  0
LINE
  8
_0-3______1
  6
CONTINUOUS
 62
    7
 10
43.260557684086713
 20
46.64590970089737
 11
43.345169229204473
 21
47.001581358794567
  0
LINE
  8
_0-3______1
  6
CONTINUOUS
 62
    7
 10
41.262402302641839
 20
43.360804449982588
 11
40.890056382596001
 21
43.37775431977002
  0
LINE
  8
_0-3______1
  6
CONTINUOUS
 62
    7
 10
35.742256904716321
 20
45.90080444934754
 11
35.894667928983758
 21
45.799243034442405
  0
LINE
  8
_0-3______1
  6
CONTINUOUS
 62
    7
 10
43.988713065849133
 20
43.885837001934647
 11
43.260557684086713
 21
43.885837001934647
  0
LINE
  8
_0-3______1
  6
CONTINUOUS
 62
    7
 10
49.729068967191836
 20
49.998676627142508
 11
49.746156640798631
 21
50.066476106292249
  0
LINE
  8
_0-3______1
  6
CONTINUOUS
 62
    7
 10
49.559845876956317
 20
49.93101495181218
 11
49.729068967191836
 21
49.998676627142508
  0
LINE
  8
_0-3______1
  6
CONTINUOUS
 62
    7
 10
48.526868446659037
 20
17.588320732467288
 11
48.374457422391608
 21
17.588320732467288
  0
LINE
  8
_0-3______1
  6
CONTINUOUS
 62
    7
 10
37.570913588286878
 20
46.798320725164807
 11
37.892823310428632
 21
46.967681619219682
  0
LINE
  8
_0-3______1
  6
CONTINUOUS
 62
    7
 10
37.317078952933677
 20
46.442786871087058
 11
37.570913588286878
 21
46.798320725164807
  0
LINE
  8
_0-3______1
  6
CONTINUOUS
 62
    7
 10
37.215379734209122
 20
46.087115213189854
 11
37.317078952933677
 21
46.442786871087058
  0
LINE
  8
_0-3______1
  6
CONTINUOUS
 62
    7
 10
37.198567668241118
 20
45.613070074419447
 11
37.215379734209122
 21
46.087115213189854
  0
LINE
  8
_0-3______1
  6
CONTINUOUS
 62
    7
 10
37.418502564019434
 20
44.817115213507371
 11
37.198567668241118
 21
45.613070074419447
  0
LINE
  8
_0-3______1
  6
CONTINUOUS
 62
    7
 10
37.774312025736073
 20
44.326120204949518
 11
37.418502564019434
 21
44.817115213507371
  0
LINE
  8
_0-3______1
  6
CONTINUOUS
 62
    7
 10
38.028146661089274
 20
44.156759310894643
 11
37.774312025736073
 21
44.326120204949518
  0
LINE
  8
_0-3______1
  6
CONTINUOUS
 62
    7
 10
36.131690498368968
 20
49.118248024932086
 11
36.26701384902951
 21
49.118248024932086
  0
TEXT
  8
_0-2_SC0930
 62
    7
 10
3.278686752842606
 20
69.657692444630158
 40
4.5
 41
1
 50
0
  1
DALI対応ユニット
  0
TEXT
  8
_0-2_SC0930
 62
    7
 10
3.278686752842606
 20
-14.342307555369837
 40
4.5
 41
1
 50
0
  1
三菱　SC0930
  0
INSERT
  2
-002-SPECSC0930
  8
_0-0_0
 10
54.521334590993753
 20
-6.1630709141484665
 41
1
 42
1
 50
0
  0
ENDSEC
  0
EOF
