  0
SECTION
  2
HEADER
  9
$ACADVER
  1
AC1009
  9
$INSBASE
 10
0
 20
0
 30
0
  9
$EXTMIN
 10
0
 20
0
  9
$EXTMAX
 10
84.100000000000009
 20
59.400000000000006
  9
$LIMMIN
 10
0
 20
0
  9
$LIMMAX
 10
84.100000000000009
 20
59.400000000000006
  9
$LTSCALE
 40
0.1
  0
ENDSEC
  0
SECTION
  2
TABLES
  0
TABLE
  2
LTYPE
 70
     9
  0
LTYPE
  2
CONTINUOUS
 70
    64
  3
実線
 72
    65
 73
     0
 40
0.0
  0
LTYPE
  2
DASHED1
 70
    64
  3
--  --  --  --  --  --  --  --  
 72
    65
 73
     2
 40
2.5
 49
1.25
 49
-1.25
  0
LTYPE
  2
DASHED2
 70
    64
  3
----    ----    ----    ----    
 72
    65
 73
     2
 40
5.0
 49
2.5
 49
-2.5
  0
LTYPE
  2
DASHED3
 70
    64
  3
------  ------  ------  ------  
 72
    65
 73
     2
 40
5.0
 49
3.75
 49
-1.25
  0
LTYPE
  2
CENTER1
 70
    64
  3
----- - ----- - ----- - ----- - 
 72
    65
 73
     4
 40
10.0
 49
6.25
 49
-1.25
 49
1.25
 49
-1.25
  0
LTYPE
  2
CENTER2
 70
    64
  3
----------  --  ----------  --  
 72
    65
 73
     4
 40
20.0
 49
12.5
 49
-2.5
 49
2.5
 49
-2.5
  0
LTYPE
  2
PHANTOM1
 70
    64
  3
--- - - --- - - --- - - --- - - 
 72
    65
 73
     6
 40
10.0
 49
3.25
 49
-1.25
 49
1.25
 49
-1.25
 49
1.25
 49
-1.25
  0
LTYPE
  2
PHANTOM2
 70
    64
  3
--------  -  -  --------  -  -  
 72
    65
 73
     6
 40
20.0
 49
10.0
 49
-2.5
 49
1.25
 49
-2.5
 49
1.25
 49
-2.5
  0
LTYPE
  2
DOT
 70
    64
  3
-   -   -   -   -   -   -   -   
 72
    65
 73
     2
 40
2.5
 49
0.625
 49
-1.875
  0
LTYPE
  2
DUMMY
 70
    64
  3
ダミー
 72
    65
 73
     0
 40
0.0
  0
LTYPE
  2
RAND1
 70
    64
  3
ランダム線1
 72
    65
 73
     4
 40
10.0
 49
1.0
 49
-2.0
 49
3.0
 49
-4.0
  0
LTYPE
  2
RAND2
 70
    64
  3
ランダム線2
 72
    65
 73
     4
 40
14.0
 49
2.0
 49
-3.0
 49
4.0
 49
-5.0
  0
LTYPE
  2
RAND3
 70
    64
  3
ランダム線3
 72
    65
 73
     4
 40
18.0
 49
3.0
 49
-4.0
 49
5.0
 49
-6.0
  0
LTYPE
  2
RAND4
 70
    64
  3
ランダム線4
 72
    65
 73
     4
 40
22.0
 49
4.0
 49
-5.0
 49
6.0
 49
-7.0
  0
LTYPE
  2
RAND5
 70
    64
  3
ランダム線5
 72
    65
 73
     4
 40
26.0
 49
5.0
 49
-6.0
 49
7.0
 49
-8.0
  0
LTYPE
  2
LONG1
 70
    64
  3
----------  --  ----------  --  
 72
    65
 73
     4
 40
40.0
 49
32.5
 49
-2.5
 49
2.5
 49
-2.5
  0
LTYPE
  2
LONG2
 70
    64
  3
--------  -  -  --------  -  -  
 72
    65
 73
     6
 40
40.0
 49
30.0
 49
-2.5
 49
1.25
 49
-2.5
 49
1.25
 49
-2.5
  0
LTYPE
  2
LONG3
 70
    64
  3
+++++++++++++++..+++++++++++++++
 72
    65
 73
     2
 40
40.0
 49
37.5
 49
-2.5
  0
LTYPE
  2
LONG4
 70
    64
  3
+++++++++++++++..+++++++++++++++
 72
    65
 73
     2
 40
80.0
 49
75.0
 49
-5.0
  0
LTYPE
  2
LONG5
 70
    64
  3
----------  --  ----------  --  
 72
    65
 73
     4
 40
60.0
 49
37.5
 49
-7.5
 49
7.5
 49
-7.5
  0
LTYPE
  2
dashed
 70
   64
  3
-------   -------------   ------
 72
   65
 73
    2
 40
7.5
 49
6
 49
-1.5
  0
LTYPE
  2
dashed_spaced
 70
   64
  3
----        --------        ----
 72
   65
 73
    2
 40
12
 49
6
 49
-6
  0
LTYPE
  2
long_dashed_dotted
 70
   64
  3
------------- --- --------------
 72
   65
 73
    4
 40
15.25
 49
12
 49
-1.5
 49
0.25
 49
-1.5
  0
LTYPE
  2
long_dashed_double-dotted
 70
   64
  3
----------- --- --- ------------
 72
   65
 73
    6
 40
17
 49
12
 49
-1.5
 49
0.25
 49
-1.5
 49
0.25
 49
-1.5
  0
LTYPE
  2
long_dashed_triplicate-dotted
 70
   64
  3
--------- --- --- --- ----------
 72
   65
 73
    8
 40
18.75
 49
12
 49
-1.5
 49
0.25
 49
-1.5
 49
0.25
 49
-1.5
 49
0.25
 49
-1.5
  0
LTYPE
  2
dotted
 70
   64
  3
   -       -       -       -    
 72
   65
 73
    2
 40
1.75
 49
0.25
 49
-1.5
  0
LTYPE
  2
chain
 70
   64
  3
-------------- -- --------------
 72
   65
 73
    4
 40
18.5
 49
12
 49
-1.5
 49
3.5
 49
-1.5
  0
LTYPE
  2
chain_double_dash
 70
   64
  3
------------ -- -- -------------
 72
   65
 73
    6
 40
23.5
 49
12
 49
-1.5
 49
3.5
 49
-1.5
 49
3.5
 49
-1.5
  0
LTYPE
  2
dashed_dotted
 70
   64
  3
-----------     -     ----------
 72
   65
 73
    4
 40
9.25
 49
6
 49
-1.5
 49
0.25
 49
-1.5
  0
LTYPE
  2
double-dashed_dotted
 70
   64
  3
------   -----------   -   -----
 72
   65
 73
    6
 40
16.75
 49
6
 49
-1.5
 49
6
 49
-1.5
 49
0.25
 49
-1.5
  0
LTYPE
  2
dashed_double-dotted
 70
   64
  3
---------    -    -    ---------
 72
   65
 73
    6
 40
11
 49
6
 49
-1.5
 49
0.25
 49
-1.5
 49
0.25
 49
-1.5
  0
LTYPE
  2
double-dashed_double-dotted
 70
   64
  3
-----   ---------   -   -   ----
 72
   65
 73
    8
 40
18.5
 49
6
 49
-1.5
 49
6
 49
-1.5
 49
0.25
 49
-1.5
 49
0.25
 49
-1.5
  0
LTYPE
  2
dashed_triplicate-dotted
 70
   64
  3
-------    -    -    -    ------
 72
   65
 73
    8
 40
12.75
 49
6
 49
-1.5
 49
0.25
 49
-1.5
 49
0.25
 49
-1.5
 49
0.25
 49
-1.5
  0
LTYPE
  2
double-dashed_triplicate-dotted
 70
   64
  3
-----  ---------  -  -  -  -----
 72
   65
 73
   10
 40
20.25
 49
6
 49
-1.5
 49
6
 49
-1.5
 49
0.25
 49
-1.5
 49
0.25
 49
-1.5
 49
0.25
 49
-1.5
  0
LTYPE
  2
undefined
 70
   64
  3
--------------------------------
 72
   65
 73
    0
 40
0
  0
LTYPE
  2
_
 70
   64
  3
                                
 72
   65
 73
    0
 40
0
  0
LTYPE
  2
__18
 70
   64
  3
                                
 72
   65
 73
    0
 40
0
  0
LTYPE
  2
__19
 70
   64
  3
                                
 72
   65
 73
    0
 40
0
  0
LTYPE
  2
__20
 70
   64
  3
                                
 72
   65
 73
    0
 40
0
  0
LTYPE
  2
__21
 70
   64
  3
                                
 72
   65
 73
    0
 40
0
  0
LTYPE
  2
__22
 70
   64
  3
                                
 72
   65
 73
    0
 40
0
  0
LTYPE
  2
__23
 70
   64
  3
                                
 72
   65
 73
    0
 40
0
  0
LTYPE
  2
__24
 70
   64
  3
                                
 72
   65
 73
    0
 40
0
  0
LTYPE
  2
__25
 70
   64
  3
                                
 72
   65
 73
    0
 40
0
  0
LTYPE
  2
__26
 70
   64
  3
                                
 72
   65
 73
    0
 40
0
  0
LTYPE
  2
__27
 70
   64
  3
                                
 72
   65
 73
    0
 40
0
  0
LTYPE
  2
__28
 70
   64
  3
                                
 72
   65
 73
    0
 40
0
  0
LTYPE
  2
__29
 70
   64
  3
                                
 72
   65
 73
    0
 40
0
  0
LTYPE
  2
__30
 70
   64
  3
                                
 72
   65
 73
    0
 40
0
  0
LTYPE
  2
__31
 70
   64
  3
                                
 72
   65
 73
    0
 40
0
  0
LTYPE
  2
__32
 70
   64
  3
                                
 72
   65
 73
    0
 40
0
  0
ENDTAB
  0
TABLE
  2
STYLE
  5
3
100
AcDbSymbolTable
 70
     1
  0
STYLE
  5
10
100
AcDbSymbolTableRecord
100
AcDbTextStyleTableRecord
  2
STANDARD
 70
     0
 40
0.0
 41
1.0
 50
0.0
 71
     0
 42
0.2
  3
txt
  4
bigfont.shx
  0
STYLE
  5
26
100
AcDbSymbolTableRecord
100
AcDbTextStyleTableRecord
  2
TATEGAKI
 70
    68
 40
0.0
 41
1.0
 50
0.0
 71
     0
 42
1.0
  3
txt
  4
bigfont.shx
  0
ENDTAB
  0
TABLE
  2
LAYER
 70
    4
  0
LAYER
  2
_0-0_0
 70
   64
 62
    7
  6
CONTINUOUS
  0
LAYER
  2
_0-2_SC0931
 70
   64
 62
    7
  6
CONTINUOUS
  0
LAYER
  2
_0-3______1
 70
   64
 62
    7
  6
CONTINUOUS
  0
LAYER
  2
ADD_LINE
 70
   64
 62
    7
  6
CONTINUOUS
  0
ENDTAB
  0
ENDSEC
  0
SECTION
  2
BLOCKS
  0
BLOCK
  2
-002-SPECSC0931
 70
   64
 10
0
 20
0
 30
0
  0
TEXT
  8
_0-4_SPEC
 62
    7
 10
0
 20
0
 40
1.5
 41
1
 50
0
  1
DALIｼｽﾃﾑ通信機器
  0
TEXT
  8
_0-4_SPEC
 62
    7
 10
0
 20
-3
 40
1.5
 41
1
 50
0
  1
制御
  0
TEXT
  8
_0-4_SPEC
 62
    7
 10
0
 20
-6
 40
1.5
 41
1
 50
0
  1
本体:ﾌﾟﾗｽﾁｯｸ ﾎﾜｲﾄ色仕上
  0
ENDBLK
  0
ENDSEC
  0
SECTION
  2
ENTITIES
  0
LINE
  8
_0-3______1
  6
CONTINUOUS
 62
    7
 10
41.257820325646414
 20
0.5576979068638252
 11
40.501925035036805
 21
0.4129074338097155
  0
LINE
  8
_0-3______1
  6
CONTINUOUS
 62
    7
 10
31.702434585847744
 20
2.1824669494263733
 11
36.238853638533122
 21
1.0080407886956835
  0
LINE
  8
_0-3______1
  6
CONTINUOUS
 62
    7
 10
37.799344089531871
 20
0.6863860036197935
 11
37.911929809989822
 21
0.6380788747256759
  0
LINE
  8
_0-3______1
  6
CONTINUOUS
 62
    7
 10
38.989610799303755
 20
0.3807026812135916
 11
39.810177422362528
 21
0.155531240297654
  0
LINE
  8
_0-3______1
  6
CONTINUOUS
 62
    7
 10
32.329772693329836
 20
3.8232074546585526
 11
36.190677423267388
 21
2.809805056908397
  0
LINE
  8
_0-3______1
  6
CONTINUOUS
 62
    7
 10
32.377948908595577
 20
3.9841003040106844
 11
36.206648885936985
 21
2.9868002825585904
  0
LINE
  8
_0-3______1
  6
CONTINUOUS
 62
    7
 10
37.364972670369582
 20
1.7803002828602361
 11
37.155772692123314
 21
1.7319931539660218
  0
LINE
  8
_0-3______1
  6
CONTINUOUS
 62
    7
 10
37.155772692123314
 20
0.9920693260260122
 11
37.364972670369582
 21
1.0241431649937454
  0
LINE
  8
_0-3______1
  6
CONTINUOUS
 62
    7
 10
40.083525078544113
 20
3.3567621965286039
 11
39.890558390224328
 21
3.3406598202306044
  0
LINE
  8
_0-3______1
  6
CONTINUOUS
 62
    7
 10
40.051320325948069
 20
2.5041217345021725
 11
38.780672648314294
 21
2.8581121858025824
  0
LINE
  8
_0-3______1
  6
CONTINUOUS
 62
    7
 10
37.944134562585944
 20
3.5980360137426146
 11
38.957406046707646
 21
3.3567621965286039
  0
LINE
  8
_0-3______1
  6
CONTINUOUS
 62
    7
 10
36.528434584641253
 20
7.2658431417318727
 11
36.625048842429599
 21
7.2336383891358231
  0
LINE
  8
_0-3______1
  6
CONTINUOUS
 62
    7
 10
31.830991768975345
 20
8.5849288618882333
 11
31.84722505890181
 21
8.5688264855901739
  0
LINE
  8
_0-3______1
  6
CONTINUOUS
 62
    7
 10
36.367672648917576
 20
7.4106336147860024
 11
36.576610799906966
 21
7.3462241095937433
  0
LINE
  8
_0-3______1
  6
CONTINUOUS
 62
    7
 10
31.84722505890181
 20
8.6332359907824436
 11
31.091067941035334
 21
9.0193002810505245
  0
LINE
  8
_0-3______1
  6
CONTINUOUS
 62
    7
 10
31.91163456409409
 20
8.8101003028041713
 11
31.284034629355133
 21
9.1318860015084429
  0
LINE
  8
_0-3______1
  6
CONTINUOUS
 62
    7
 10
31.830991768975345
 20
8.5849288618882333
 11
31.091067941035334
 21
9.0193002810505245
  0
LINE
  8
_0-3______1
  6
CONTINUOUS
 62
    7
 10
35.514901273262709
 20
7.8770788729158943
 11
35.659691746316788
 21
7.8448741203198411
  0
LINE
  8
_0-3______1
  6
CONTINUOUS
 62
    7
 10
30.737339316991793
 20
9.5340526680745636
 11
30.849925037449793
 21
9.5179502917765131
  0
LINE
  8
_0-3______1
  6
CONTINUOUS
 62
    7
 10
35.289729832346758
 20
8.3597574209722918
 11
35.418548842731234
 21
8.3275526683762333
  0
LINE
  8
_0-3______1
  6
CONTINUOUS
 62
    7
 10
31.091067941035334
 20
10.048805055098663
 11
35.048325101504354
 21
9.0193002810505245
  0
LINE
  8
_0-3______1
  6
CONTINUOUS
 62
    7
 10
31.091067941035334
 20
10.193595528152722
 11
35.048325101504354
 21
9.1800622167742016
  0
LINE
  8
_0-3______1
  6
CONTINUOUS
 62
    7
 10
31.219886951419824
 20
10.386562216472534
 11
35.177144111888815
 21
9.3570574424243826
  0
LINE
  8
_0-3______1
  6
CONTINUOUS
 62
    7
 10
36.142239380744797
 20
9.6466383885325158
 11
32.136806005010037
 21
10.69224553887882
  0
LINE
  8
_0-3______1
  6
CONTINUOUS
 62
    7
 10
36.271058391129223
 20
9.8397359904808024
 11
32.249391725467959
 21
10.901445517125095
  0
LINE
  8
_0-3______1
  6
CONTINUOUS
 62
    7
 10
35.659691746316788
 20
7.8448741203198411
 11
36.576610799906966
 21
7.3462241095937433
  0
LINE
  8
_0-3______1
  6
CONTINUOUS
 62
    7
 10
35.820715509297365
 20
7.9575907544062154
 11
36.625048842429599
 21
7.539321711542005
  0
LINE
  8
_0-3______1
  6
CONTINUOUS
 62
    7
 10
35.514901273262709
 20
7.8770788729158943
 11
36.367672648917576
 21
7.4106336147860024
  0
LINE
  8
_0-3______1
  6
CONTINUOUS
 62
    7
 10
31.461029855005364
 20
9.8236336141827234
 11
31.091067941035334
 21
9.7753264852885948
  0
LINE
  8
_0-3______1
  6
CONTINUOUS
 62
    7
 10
38.90922983144192
 20
12.735283624305517
 11
38.957406046707646
 21
12.735283624305517
  0
LINE
  8
_0-3______1
  6
CONTINUOUS
 62
    7
 10
30.737339316991793
 20
9.5340526680745636
 11
30.737339316991793
 21
9.8075312378846444
  0
LINE
  8
_0-3______1
  6
CONTINUOUS
 62
    7
 10
30.849925037449793
 20
9.5179502917765131
 11
30.849925037449793
 21
9.7753264852885948
  0
LINE
  8
_0-3______1
  6
CONTINUOUS
 62
    7
 10
31.091067941035334
 20
9.5179502917765131
 11
31.091067941035334
 21
9.7753264852885948
  0
LINE
  8
_0-3______1
  6
CONTINUOUS
 62
    7
 10
31.702434585847744
 20
35.948364564682812
 11
31.702434585847744
 21
28.870257415844652
  0
LINE
  8
_0-3______1
  6
CONTINUOUS
 62
    7
 10
31.702434585847744
 20
14.247466946410084
 11
31.702434585847744
 21
10.611864571016955
  0
LINE
  8
_0-3______1
  6
CONTINUOUS
 62
    7
 10
31.702434585847744
 20
8.6492074534520444
 11
31.702434585847744
 21
2.1824669494263733
  0
LINE
  8
_0-3______1
  6
CONTINUOUS
 62
    7
 10
31.992015531955964
 20
7.2336383891358231
 11
31.992015531955964
 21
4.8367407660370931
  0
LINE
  8
_0-3______1
  6
CONTINUOUS
 62
    7
 10
33.423686972570259
 20
40.179100294961962
 11
32.748172649822429
 21
39.953928854046012
  0
LINE
  8
_0-3______1
  6
CONTINUOUS
 62
    7
 10
47.676515528034827
 20
17.641664590960904
 11
47.901686968950763
 21
17.577385999397087
  0
LINE
  8
_0-3______1
  6
CONTINUOUS
 62
    7
 10
32.281596478064102
 20
39.310488370265894
 11
32.281596478064102
 21
37.219143155944984
  0
LINE
  8
_0-3______1
  6
CONTINUOUS
 62
    7
 10
32.458591703714298
 20
6.7188860021116428
 11
32.458591703714298
 21
4.8367407660370931
  0
LINE
  8
_0-3______1
  6
CONTINUOUS
 62
    7
 10
33.069696521269854
 20
37.991271736481131
 11
33.069696521269854
 21
38.007374112779182
  0
LINE
  8
_0-3______1
  6
CONTINUOUS
 62
    7
 10
32.313801230660168
 20
36.768800274113097
 11
32.136806005010037
 21
36.72049314521896
  0
LINE
  8
_0-3______1
  6
CONTINUOUS
 62
    7
 10
33.327072714781856
 20
36.511424080601067
 11
33.150339316388568
 21
36.447014575408836
  0
LINE
  8
_0-3______1
  6
CONTINUOUS
 62
    7
 10
34.871591703111008
 20
39.069214553051872
 11
35.032353638834685
 21
39.133493144615656
  0
LINE
  8
_0-3______1
  6
CONTINUOUS
 62
    7
 10
34.40501553135266
 20
38.296955058887313
 11
34.40501553135266
 21
37.540928854649245
  0
LINE
  8
_0-3______1
  6
CONTINUOUS
 62
    7
 10
34.501367961884149
 20
38.988702671561605
 11
34.501367961884149
 21
39.053112176753878
  0
LINE
  8
_0-3______1
  6
CONTINUOUS
 62
    7
 10
35.289729832346758
 20
8.6332359907824436
 11
35.289729832346758
 21
8.3597574209722918
  0
LINE
  8
_0-3______1
  6
CONTINUOUS
 62
    7
 10
35.418548842731234
 20
8.6010312381862839
 11
35.418548842731234
 21
8.3275526683762333
  0
LINE
  8
_0-3______1
  6
CONTINUOUS
 62
    7
 10
35.450491768070485
 20
45.729052659025818
 11
35.450491768070485
 21
40.420374112175907
  0
LINE
  8
_0-3______1
  6
CONTINUOUS
 62
    7
 10
35.643720283647149
 20
8.6010312381862839
 11
35.643720283647149
 21
8.3275526683762333
  0
LINE
  8
_0-3______1
  6
CONTINUOUS
 62
    7
 10
36.238853638533122
 20
1.0080407886956835
 11
36.238853638533122
 21
1.7319931539660218
  0
LINE
  8
_0-3______1
  6
CONTINUOUS
 62
    7
 10
39.408010755796369
 20
37.894788392321182
 11
40.791505981144937
 21
38.280852682589263
  0
LINE
  8
_0-3______1
  6
CONTINUOUS
 62
    7
 10
39.890558390224328
 20
37.122659811785091
 11
41.257820325646414
 21
37.508724102053115
  0
LINE
  8
_0-3______1
  6
CONTINUOUS
 62
    7
 10
36.528434584641253
 20
3.6624455189348852
 11
36.528434584641253
 21
7.2658431417318727
  0
LINE
  8
_0-3______1
  6
CONTINUOUS
 62
    7
 10
36.625048842429599
 20
7.539321711542005
 11
36.625048842429599
 21
8.8745098079964446
  0
LINE
  8
_0-3______1
  6
CONTINUOUS
 62
    7
 10
36.882425035941644
 20
7.539321711542005
 11
36.882425035941644
 21
8.8745098079964446
  0
LINE
  8
_0-3______1
  6
CONTINUOUS
 62
    7
 10
37.155772692123314
 20
0.9920693260260122
 11
37.155772692123314
 21
1.7319931539660218
  0
LINE
  8
_0-3______1
  6
CONTINUOUS
 62
    7
 10
37.364972670369582
 20
1.7803002828602361
 11
37.364972670369582
 21
1.0241431649937454
  0
LINE
  8
_0-3______1
  6
CONTINUOUS
 62
    7
 10
37.670525079147396
 20
39.101288392019605
 11
37.670525079147396
 21
39.439176467021866
  0
LINE
  8
_0-3______1
  6
CONTINUOUS
 62
    7
 10
37.799344089531871
 20
0.7506645951836049
 11
37.799344089531871
 21
0.6863860036197935
  0
LINE
  8
_0-3______1
  6
CONTINUOUS
 62
    7
 10
38.265658434033369
 20
1.3137241111018854
 11
38.265658434033369
 21
1.3459288636980205
  0
LINE
  8
_0-3______1
  6
CONTINUOUS
 62
    7
 10
38.571472670068026
 20
38.843912198507525
 11
38.571472670068026
 21
38.908321703699713
  0
LINE
  8
_0-3______1
  6
CONTINUOUS
 62
    7
 10
38.957406046707646
 20
37.122659811785091
 11
38.957406046707646
 21
27.004083642439682
  0
LINE
  8
_0-3______1
  6
CONTINUOUS
 62
    7
 10
38.957406046707646
 20
12.349219334037441
 11
38.957406046707646
 21
3.3567621965286039
  0
LINE
  8
_0-3______1
  6
CONTINUOUS
 62
    7
 10
39.021815551899834
 20
38.715224101751524
 11
39.021815551899834
 21
38.908321703699713
  0
LINE
  8
_0-3______1
  6
CONTINUOUS
 62
    7
 10
39.456186971062124
 20
38.667047886485797
 11
39.456186971062124
 21
38.988702671561605
  0
LINE
  8
_0-3______1
  6
CONTINUOUS
 62
    7
 10
39.890558390224328
 20
3.3406598202306044
 11
39.890558390224328
 21
37.122659811785091
  0
LINE
  8
_0-3______1
  6
CONTINUOUS
 62
    7
 10
40.035348863278379
 20
38.538228876101343
 11
40.035348863278379
 21
38.473950284537537
  0
LINE
  8
_0-3______1
  6
CONTINUOUS
 62
    7
 10
40.051320325948069
 20
0.4129074338097155
 11
40.051320325948069
 21
2.5041217345021725
  0
LINE
  8
_0-3______1
  6
CONTINUOUS
 62
    7
 10
40.501925035036805
 20
0.4129074338097155
 11
40.501925035036805
 21
2.5041217345021725
  0
LINE
  8
_0-3______1
  6
CONTINUOUS
 62
    7
 10
38.90922983144192
 20
26.682428857363888
 11
38.957406046707646
 21
26.682428857363888
  0
LINE
  8
_0-3______1
  6
CONTINUOUS
 62
    7
 10
38.684058390525969
 20
27.068493147631962
 11
38.716263143122106
 21
27.068493147631962
  0
LINE
  8
_0-3______1
  6
CONTINUOUS
 62
    7
 10
42.770134561379443
 20
37.846612177055427
 11
42.770134561379443
 21
1.0402455412918357
  0
LINE
  8
_0-3______1
  6
CONTINUOUS
 62
    7
 10
42.786106024049033
 20
43.830805046653175
 11
42.786106024049033
 21
38.393438403047263
  0
LINE
  8
_0-3______1
  6
CONTINUOUS
 62
    7
 10
42.786106024049033
 20
0.7506645951836049
 11
42.786106024049033
 21
0.3968050575116649
  0
LINE
  8
_0-3______1
  6
CONTINUOUS
 62
    7
 10
32.796348865088177
 20
5.6732788517654544
 11
32.458591703714298
 21
4.8367407660370931
  0
LINE
  8
_0-3______1
  6
CONTINUOUS
 62
    7
 10
31.734639338443863
 20
28.725466942790582
 11
31.654258370582014
 21
28.709364566492617
  0
LINE
  8
_0-3______1
  6
CONTINUOUS
 62
    7
 10
43.526029851989051
 20
43.830805046653175
 11
43.526029851989051
 21
15.309176473054363
  0
LINE
  8
_0-3______1
  6
CONTINUOUS
 62
    7
 10
43.526029851989051
 20
3.6463431426368063
 11
43.526029851989051
 21
0.3968050575116649
  0
LINE
  8
_0-3______1
  6
CONTINUOUS
 62
    7
 10
33.037491768673718
 20
5.6732788517654544
 11
32.377948908595577
 21
3.9841003040106844
  0
LINE
  8
_0-3______1
  6
CONTINUOUS
 62
    7
 10
32.024220284552023
 20
28.789745534354381
 11
32.072396499817749
 21
28.789745534354381
  0
LINE
  8
_0-3______1
  6
CONTINUOUS
 62
    7
 10
32.715967897226314
 20
35.707090747468797
 11
31.702434585847744
 21
35.948364564682812
  0
LINE
  8
_0-3______1
  6
CONTINUOUS
 62
    7
 10
36.206648885936985
 20
2.9868002825585904
 11
36.431820326852929
 21
3.5658312611464513
  0
LINE
  8
_0-3______1
  6
CONTINUOUS
 62
    7
 10
33.150339316388568
 20
36.447014575408836
 11
32.136806005010037
 21
36.72049314521896
  0
LINE
  8
_0-3______1
  6
CONTINUOUS
 62
    7
 10
32.313801230660168
 20
36.768800274113097
 11
33.327072714781856
 21
36.511424080601067
  0
LINE
  8
_0-3______1
  6
CONTINUOUS
 62
    7
 10
32.281596478064102
 20
37.219143155944984
 11
33.55250598295472
 21
36.897488370869148
  0
LINE
  8
_0-3______1
  6
CONTINUOUS
 62
    7
 10
33.069696521269854
 20
38.007505026407564
 11
33.037491768673718
 21
38.007505026407564
  0
LINE
  8
_0-3______1
  6
CONTINUOUS
 62
    7
 10
48.738225054679106
 20
43.476945508981238
 11
48.738225054679106
 21
43.155159810276928
  0
LINE
  8
_0-3______1
  6
CONTINUOUS
 62
    7
 10
49.075982216052964
 20
49.541519346440758
 11
49.075982216052964
 21
49.847202668846968
  0
LINE
  8
_0-3______1
  6
CONTINUOUS
 62
    7
 10
42.770134561379443
 20
37.846612177055427
 11
41.370406046104335
 21
37.524826478351166
  0
LINE
  8
_0-3______1
  6
CONTINUOUS
 62
    7
 10
38.957406046707646
 20
37.122659811785091
 11
34.40501553135266
 21
38.296955058887313
  0
LINE
  8
_0-3______1
  6
CONTINUOUS
 62
    7
 10
34.501367961884149
 20
39.053112176753878
 11
33.729239381348002
 21
39.246078865073677
  0
LINE
  8
_0-3______1
  6
CONTINUOUS
 62
    7
 10
33.343306004708381
 20
39.342562209233542
 11
32.490534629053499
 21
39.567864563777945
  0
LINE
  8
_0-3______1
  6
CONTINUOUS
 62
    7
 10
39.408010755796369
 20
37.894788392321182
 11
34.871591703111008
 21
39.069083639423468
  0
LINE
  8
_0-3______1
  6
CONTINUOUS
 62
    7
 10
34.726801230056928
 20
39.439176467021866
 11
32.748172649822429
 21
39.953928854046012
  0
LINE
  8
_0-3______1
  6
CONTINUOUS
 62
    7
 10
50.974229828425614
 20
42.592100294358687
 11
50.974229828425614
 21
42.913885993062934
  0
LINE
  8
_0-3______1
  6
CONTINUOUS
 62
    7
 10
51.939325097281568
 20
42.592100294358687
 11
51.939325097281568
 21
42.913885993062934
  0
LINE
  8
_0-3______1
  6
CONTINUOUS
 62
    7
 10
42.287325099694556
 20
38.618740757591581
 11
40.904091701602852
 21
38.313057435185392
  0
LINE
  8
_0-3______1
  6
CONTINUOUS
 62
    7
 10
35.032353638834685
 20
40.500885993666223
 11
37.139801229453667
 21
39.953928854046012
  0
LINE
  8
_0-3______1
  6
CONTINUOUS
 62
    7
 10
38.844820326249625
 20
39.519557434883737
 11
38.925201294111503
 21
39.487352682287671
  0
LINE
  8
_0-3______1
  6
CONTINUOUS
 62
    7
 10
40.598277465568266
 20
39.053112176753878
 11
42.287325099694556
 21
38.618740757591581
  0
LINE
  8
_0-3______1
  6
CONTINUOUS
 62
    7
 10
53.821601246984613
 20
43.074778842415071
 11
53.821601246984613
 21
43.396433627490957
  0
LINE
  8
_0-3______1
  6
CONTINUOUS
 62
    7
 10
48.915220280329287
 20
43.122955057680826
 11
48.609406044294623
 21
43.042574089818949
  0
LINE
  8
_0-3______1
  6
CONTINUOUS
 62
    7
 10
50.250277463155264
 20
43.895214551845392
 11
48.738225054679106
 21
43.476814595352771
  0
LINE
  8
_0-3______1
  6
CONTINUOUS
 62
    7
 10
35.032353638834685
 20
40.500885993666223
 11
33.55250598295472
 21
40.227407423856093
  0
LINE
  8
_0-3______1
  6
CONTINUOUS
 62
    7
 10
31.734639338443863
 20
14.456536011027957
 11
31.654258370582014
 21
14.44043363472994
  0
LINE
  8
_0-3______1
  6
CONTINUOUS
 62
    7
 10
31.975782242029403
 20
14.086574097057955
 11
31.895401274167554
 21
14.054369344461874
  0
LINE
  8
_0-3______1
  6
CONTINUOUS
 62
    7
 10
40.421282239918057
 20
43.299950283331022
 11
40.66268697076049
 21
43.36422887489482
  0
LINE
  8
_0-3______1
  6
CONTINUOUS
 62
    7
 10
45.987467893908445
 20
42.849476487870753
 11
45.778267915662099
 21
42.913885993062934
  0
LINE
  8
_0-3______1
  6
CONTINUOUS
 62
    7
 10
43.526029851989051
 20
43.830805046653175
 11
43.284886948403518
 21
43.895214551845392
  0
LINE
  8
_0-3______1
  6
CONTINUOUS
 62
    7
 10
47.547696517650344
 20
43.36422887489482
 11
47.77286795856628
 21
43.299950283331022
  0
LINE
  8
_0-3______1
  6
CONTINUOUS
 62
    7
 10
37.46132510090105
 20
46.308214551242145
 11
37.220182197315509
 21
46.356390766507879
  0
LINE
  8
_0-3______1
  6
CONTINUOUS
 62
    7
 10
45.038344087722088
 20
44.361659809975301
 11
45.279486991307706
 21
44.297250304783113
  0
LINE
  8
_0-3______1
  6
CONTINUOUS
 62
    7
 10
37.847520304797605
 20
43.991697896005292
 11
38.056720283043873
 21
44.03987411127104
  0
LINE
  8
_0-3______1
  6
CONTINUOUS
 62
    7
 10
40.212344088928596
 20
45.600364562269817
 11
41.032648884730477
 21
45.79333125058961
  0
LINE
  8
_0-3______1
  6
CONTINUOUS
 62
    7
 10
48.609406044294623
 20
47.900778841208592
 11
43.526029851989051
 21
46.581562207423815
  0
LINE
  8
_0-3______1
  6
CONTINUOUS
 62
    7
 10
42.786106024049033
 20
46.581562207423815
 11
43.043482217561113
 21
46.645971712616017
  0
LINE
  8
_0-3______1
  6
CONTINUOUS
 62
    7
 10
48.239444130324628
 20
48.463838357126882
 11
43.156067938019063
 21
47.160724099640106
  0
LINE
  8
_0-3______1
  6
CONTINUOUS
 62
    7
 10
45.987467893908445
 20
44.281278842113458
 11
46.244844087420439
 21
44.216869336921242
  0
LINE
  8
_0-3______1
  6
CONTINUOUS
 62
    7
 10
43.284886948403518
 20
45.182095519405607
 11
43.526029851989051
 21
45.133788390511477
  0
LINE
  8
_0-3______1
  6
CONTINUOUS
 62
    7
 10
35.450491768070485
 20
48.463838357126882
 11
42.786106024049033
 21
46.581562207423815
  0
LINE
  8
_0-3______1
  6
CONTINUOUS
 62
    7
 10
43.526029851989051
 20
46.581562207423815
 11
43.284886948403518
 21
46.645971712616017
  0
LINE
  8
_0-3______1
  6
CONTINUOUS
 62
    7
 10
35.450491768070485
 20
48.656805045446653
 11
35.482696520666579
 21
48.656805045446653
  0
LINE
  8
_0-3______1
  6
CONTINUOUS
 62
    7
 10
31.219886951419824
 20
10.386562216472534
 11
32.136806005010037
 21
10.69224553887882
  0
LINE
  8
_0-3______1
  6
CONTINUOUS
 62
    7
 10
38.844820326249625
 20
12.300912205143227
 11
38.780672648314294
 21
12.268707452547197
  0
LINE
  8
_0-3______1
  6
CONTINUOUS
 62
    7
 10
45.746063163066047
 20
49.638133604229097
 11
46.341196517951907
 21
49.782924077283234
  0
LINE
  8
_0-3______1
  6
CONTINUOUS
 62
    7
 10
35.804482219370833
 20
49.058971712012806
 11
43.156067938019063
 21
47.160724099640106
  0
LINE
  8
_0-3______1
  6
CONTINUOUS
 62
    7
 10
35.177144111888815
 20
9.3570574424243826
 11
36.142239380744797
 21
9.6466383885325158
  0
LINE
  8
_0-3______1
  6
CONTINUOUS
 62
    7
 10
35.643720283647149
 20
8.6010312381862839
 11
36.625048842429599
 21
8.8745098079964446
  0
LINE
  8
_0-3______1
  6
CONTINUOUS
 62
    7
 10
43.622644109777376
 20
50.185090743849308
 11
44.217777464663349
 21
50.361955055871114
  0
LINE
  8
_0-3______1
  6
CONTINUOUS
 62
    7
 10
35.804482219370833
 20
49.058971712012806
 11
44.459182195505825
 21
51.3110788620574
  0
LINE
  8
_0-3______1
  6
CONTINUOUS
 62
    7
 10
42.770134561379443
 20
1.0402455412918357
 11
41.370406046104335
 21
0.6058741221295463
  0
LINE
  8
_0-3______1
  6
CONTINUOUS
 62
    7
 10
38.442653659683543
 20
1.2655478958361641
 11
38.442653659683543
 21
1.2976217348038119
  0
LINE
  8
_0-3______1
  6
CONTINUOUS
 62
    7
 10
38.442653659683543
 20
1.2655478958361641
 11
38.442653659683543
 21
1.2333431432400233
  0
LINE
  8
_0-3______1
  6
CONTINUOUS
 62
    7
 10
35.498929810593076
 20
7.8770788729158943
 11
35.514901273262709
 21
7.8770788729158943
  0
LINE
  8
_0-3______1
  6
CONTINUOUS
 62
    7
 10
36.33546789632144
 20
7.4106336147860024
 11
36.367672648917576
 21
7.4106336147860024
  0
LINE
  8
_0-3______1
  6
CONTINUOUS
 62
    7
 10
33.230720284250388
 20
37.926993144917326
 11
33.230720284250388
 21
37.975300273811534
  0
LINE
  8
_0-3______1
  6
CONTINUOUS
 62
    7
 10
33.230720284250388
 20
37.926993144917326
 11
33.230720284250388
 21
37.894788392321182
  0
LINE
  8
_0-3______1
  6
CONTINUOUS
 62
    7
 10
47.917658431620367
 20
48.898078862660661
 11
47.933891721546829
 21
48.898078862660661
  0
LINE
  8
_0-3______1
  6
CONTINUOUS
 62
    7
 10
49.333358409565079
 20
48.528116948690688
 11
49.365563162161095
 21
48.528116948690688
  0
LINE
  8
_0-3______1
  6
CONTINUOUS
 62
    7
 10
51.054610796287498
 20
45.133788390511477
 11
51.038639333617894
 21
45.101583637915319
  0
LINE
  8
_0-3______1
  6
CONTINUOUS
 62
    7
 10
39.954967895416587
 20
-0.1018449532143279
 11
40.180139336332516
 21
-0.1018449532143279
  0
LINE
  8
_0-3______1
  6
CONTINUOUS
 62
    7
 10
32.007986994625568
 20
1.6516121861042337
 11
36.576610799906966
 21
0.477186025373544
  0
LINE
  8
_0-3______1
  6
CONTINUOUS
 62
    7
 10
40.936034626942124
 20
0.0268431435416403
 11
40.180139336332516
 21
-0.1018449532143279
  0
LINE
  8
_0-3______1
  6
CONTINUOUS
 62
    7
 10
37.252386949911674
 20
0.5254931542676616
 11
37.927901272659476
 21
0.4129074338097155
  0
LINE
  8
_0-3______1
  6
CONTINUOUS
 62
    7
 10
36.850220283345543
 20
0.4612145627038558
 11
37.252386949911674
 21
0.5254931542676616
  0
LINE
  8
_0-3______1
  6
CONTINUOUS
 62
    7
 10
38.265658434033369
 20
1.3137241111018854
 11
37.60611557395513
 21
1.2976217348038119
  0
LINE
  8
_0-3______1
  6
CONTINUOUS
 62
    7
 10
37.927901272659476
 20
0.4129074338097155
 11
39.954967895416587
 21
-0.1018449532143279
  0
LINE
  8
_0-3______1
  6
CONTINUOUS
 62
    7
 10
38.314096476555953
 20
1.2976217348038119
 11
38.249686971363758
 21
1.3137241111018854
  0
LINE
  8
_0-3______1
  6
CONTINUOUS
 62
    7
 10
47.182763130025577
 20
59.853168736016642
 11
46.839977442306484
 21
59.643993139488025
  0
LINE
  8
_0-3______1
  6
CONTINUOUS
 62
    7
 10
47.822953314531297
 20
60.513749175833532
 11
47.182763130025577
 21
59.853168736016642
  0
LINE
  8
_0-3______1
  6
CONTINUOUS
 62
    7
 10
48.191267915058894
 20
60.705702666132368
 11
47.822953314531297
 21
60.513749175833532
  0
LINE
  8
_0-3______1
  6
CONTINUOUS
 62
    7
 10
45.750544473135619
 20
54.832975182473696
 11
46.485986991006065
 21
53.193224098132021
  0
LINE
  8
_0-3______1
  6
CONTINUOUS
 62
    7
 10
45.253667238386853
 20
56.120875193214147
 11
45.750544473135619
 21
54.832975182473696
  0
LINE
  8
_0-3______1
  6
CONTINUOUS
 62
    7
 10
45.027250400824727
 20
56.941751902482252
 11
45.253667238386853
 21
56.120875193214147
  0
LINE
  8
_0-3______1
  6
CONTINUOUS
 62
    7
 10
44.92579633667355
 20
57.731684815525938
 11
45.027250400824727
 21
56.941751902482252
  0
LINE
  8
_0-3______1
  6
CONTINUOUS
 62
    7
 10
44.973888477062268
 20
58.482468247274461
 11
44.92579633667355
 21
57.731684815525938
  0
LINE
  8
_0-3______1
  6
CONTINUOUS
 62
    7
 10
45.206249142105207
 20
59.020661179252016
 11
44.973888477062268
 21
58.482468247274461
  0
LINE
  8
_0-3______1
  6
CONTINUOUS
 62
    7
 10
45.54843699271845
 20
59.396309962521542
 11
45.206249142105207
 21
59.020661179252016
  0
LINE
  8
_0-3______1
  6
CONTINUOUS
 62
    7
 10
46.180434582228258
 20
59.692300268382226
 11
45.54843699271845
 21
59.396309962521542
  0
LINE
  8
_0-3______1
  6
CONTINUOUS
 62
    7
 10
39.069991767165561
 20
0.3968050575116649
 11
38.941434584038049
 21
0.3646003049155354
  0
LINE
  8
_0-3______1
  6
CONTINUOUS
 62
    7
 10
38.90922983144192
 20
0.5415955305657235
 11
38.732234605791703
 21
0.4932884016716059
  0
LINE
  8
_0-3______1
  6
CONTINUOUS
 62
    7
 10
38.716263143122106
 20
0.5576979068638252
 11
38.555239380141494
 21
0.4932884016716059
  0
LINE
  8
_0-3______1
  6
CONTINUOUS
 62
    7
 10
38.314096476555953
 20
1.2333431432400233
 11
38.008282240521282
 21
1.1689336380478152
  0
LINE
  8
_0-3______1
  6
CONTINUOUS
 62
    7
 10
38.249686971363758
 20
1.3137241111018854
 11
37.831548842128008
 21
1.2172407669419443
  0
LINE
  8
_0-3______1
  6
CONTINUOUS
 62
    7
 10
38.024515530447829
 20
1.5068217130501524
 11
37.831548842128008
 21
1.4746169604540342
  0
LINE
  8
_0-3______1
  6
CONTINUOUS
 62
    7
 10
38.249686971363758
 20
2.3593312614481023
 11
38.08892503564001
 21
2.327257422480443
  0
LINE
  8
_0-3______1
  6
CONTINUOUS
 62
    7
 10
38.394477444417838
 20
2.4720478955345015
 11
38.23371550869409
 21
2.4237407666403841
  0
LINE
  8
_0-3______1
  6
CONTINUOUS
 62
    7
 10
39.713563164574083
 20
2.8259074332064644
 11
39.504363186327851
 21
2.809805056908397
  0
LINE
  8
_0-3______1
  6
CONTINUOUS
 62
    7
 10
38.249686971363758
 20
3.0993860030165936
 11
39.263220282742317
 21
2.809805056908397
  0
LINE
  8
_0-3______1
  6
CONTINUOUS
 62
    7
 10
33.037491768673718
 20
5.6732788517654544
 11
36.431820326852929
 21
4.8045360134409556
  0
LINE
  8
_0-3______1
  6
CONTINUOUS
 62
    7
 10
36.431820326852929
 20
4.9815312390911517
 11
33.488096477762454
 21
5.7536598196273054
  0
LINE
  8
_0-3______1
  6
CONTINUOUS
 62
    7
 10
36.431820326852929
 20
5.1424240884432839
 11
35.096763144026959
 21
5.4801812498172531
  0
LINE
  8
_0-3______1
  6
CONTINUOUS
 62
    7
 10
35.064558391430808
 20
5.4801812498172531
 11
33.101901273865984
 21
6.0110360131393836
  0
LINE
  8
_0-3______1
  6
CONTINUOUS
 62
    7
 10
37.895696520063339
 20
1.8445788744240248
 11
38.056720283043873
 21
1.7158907776680508
  0
LINE
  8
_0-3______1
  6
CONTINUOUS
 62
    7
 10
49.445944130022987
 20
59.434924074870224
 11
50.314686968347459
 21
59.724374107349888
  0
LINE
  8
_0-3______1
  6
CONTINUOUS
 62
    7
 10
50.314686968347459
 20
59.209621720325799
 11
49.445944130022987
 21
58.903938397919639
  0
LINE
  8
_0-3______1
  6
CONTINUOUS
 62
    7
 10
50.713145771761134
 20
58.90548696126514
 11
50.395067936209344
 21
58.727074085897904
  0
LINE
  8
_0-3______1
  6
CONTINUOUS
 62
    7
 10
51.389418016531479
 20
59.593720278913842
 11
50.713145771761134
 21
58.90548696126514
  0
LINE
  8
_0-3______1
  6
CONTINUOUS
 62
    7
 10
51.746358408961754
 20
59.772681236244104
 11
51.389418016531479
 21
59.593720278913842
  0
LINE
  8
_0-3______1
  6
CONTINUOUS
 62
    7
 10
49.061587086428958
 20
58.446760057221354
 11
48.673815549486839
 21
57.954945505361735
  0
LINE
  8
_0-3______1
  6
CONTINUOUS
 62
    7
 10
49.406382133784916
 20
58.654777529992828
 11
49.061587086428958
 21
58.446760057221354
  0
LINE
  8
_0-3______1
  6
CONTINUOUS
 62
    7
 10
49.719553613461514
 20
58.759278838493948
 11
49.406382133784916
 21
58.654777529992828
  0
LINE
  8
_0-3______1
  6
CONTINUOUS
 62
    7
 10
38.474858412279708
 20
2.6650145838543269
 11
38.362272691821673
 21
2.6328098312582657
  0
LINE
  8
_0-3______1
  6
CONTINUOUS
 62
    7
 10
42.946867959772796
 20
3.7267241104986173
 11
43.043482217561113
 21
3.7106217342005268
  0
LINE
  8
_0-3______1
  6
CONTINUOUS
 62
    7
 10
43.284886948403518
 20
3.7106217342005268
 11
43.526029851989051
 21
3.6463431426368063
  0
LINE
  8
_0-3______1
  6
CONTINUOUS
 62
    7
 10
35.595282241124565
 20
6.3809979271093829
 11
35.321934584942895
 21
6.4454074323015904
  0
LINE
  8
_0-3______1
  6
CONTINUOUS
 62
    7
 10
34.967944133642469
 20
6.5418907764615346
 11
34.485396499214559
 21
6.6544764969194521
  0
LINE
  8
_0-3______1
  6
CONTINUOUS
 62
    7
 10
34.131406047914133
 20
6.7349883784097218
 11
33.890263144328593
 21
6.7992669699735337
  0
LINE
  8
_0-3______1
  6
CONTINUOUS
 62
    7
 10
33.87402985440206
 20
6.7992669699735337
 11
33.648858413486117
 21
6.8636764751658008
  0
LINE
  8
_0-3______1
  6
CONTINUOUS
 62
    7
 10
33.311101252112238
 20
6.9601598193256624
 11
32.828553617684314
 21
7.0888479160816651
  0
LINE
  8
_0-3______1
  6
CONTINUOUS
 62
    7
 10
32.458591703714298
 20
7.1692288839435241
 11
31.91163456409409
 21
7.3301217332956643
  0
LINE
  8
_0-3______1
  6
CONTINUOUS
 62
    7
 10
31.84722505890181
 20
7.7805955287560327
 11
32.458591703714298
 21
7.619702679403904
  0
LINE
  8
_0-3______1
  6
CONTINUOUS
 62
    7
 10
32.683763144630142
 20
7.5713955505096839
 11
33.294867962185798
 21
7.3945312384879518
  0
LINE
  8
_0-3______1
  6
CONTINUOUS
 62
    7
 10
33.488096477762454
 20
7.3462241095937433
 11
34.115434585244536
 21
7.1853312602416146
  0
LINE
  8
_0-3______1
  6
CONTINUOUS
 62
    7
 10
34.324634563490797
 20
7.1210526686777946
 11
34.951972670972872
 21
6.9601598193256624
  0
LINE
  8
_0-3______1
  6
CONTINUOUS
 62
    7
 10
35.321934584942895
 20
6.9923645719218035
 11
35.177144111888815
 21
7.024569324517933
  0
LINE
  8
_0-3______1
  6
CONTINUOUS
 62
    7
 10
34.951972670972872
 20
7.8128002813520858
 11
34.324634563490797
 21
7.9575907544062154
  0
LINE
  8
_0-3______1
  6
CONTINUOUS
 62
    7
 10
34.115434585244536
 20
8.0218693459699733
 11
33.488096477762454
 21
8.1827621953221037
  0
LINE
  8
_0-3______1
  6
CONTINUOUS
 62
    7
 10
33.294867962185798
 20
8.2470407868858935
 11
32.683763144630142
 21
8.4079336362380452
  0
LINE
  8
_0-3______1
  6
CONTINUOUS
 62
    7
 10
32.458591703714298
 20
8.4401383888341517
 11
31.84722505890181
 21
8.6010312381862839
  0
LINE
  8
_0-3______1
  6
CONTINUOUS
 62
    7
 10
31.815020306305748
 20
8.5849288618882333
 11
30.962510757907712
 21
9.0513741200181723
  0
LINE
  8
_0-3______1
  6
CONTINUOUS
 62
    7
 10
47.971452677011015
 20
60.24206094912811
 11
48.271648882920765
 21
60.432224096322244
  0
LINE
  8
_0-3______1
  6
CONTINUOUS
 62
    7
 10
47.366656476061479
 20
59.62044705911336
 11
47.971452677011015
 21
60.24206094912811
  0
LINE
  8
_0-3______1
  6
CONTINUOUS
 62
    7
 10
47.049177420552724
 20
59.386616945976016
 11
47.366656476061479
 21
59.62044705911336
  0
LINE
  8
_0-3______1
  6
CONTINUOUS
 62
    7
 10
47.772350536512818
 20
59.431284669607344
 11
48.271648882920765
 21
59.595686010593887
  0
LINE
  8
_0-3______1
  6
CONTINUOUS
 62
    7
 10
47.177734603680349
 20
59.113138376165864
 11
47.772350536512818
 21
59.431284669607344
  0
LINE
  8
_0-3______1
  6
CONTINUOUS
 62
    7
 10
50.12172028002766
 20
57.150612172229437
 11
50.153925032623803
 21
57.150612172229437
  0
LINE
  8
_0-3______1
  6
CONTINUOUS
 62
    7
 10
53.001034623925854
 20
58.501771731353472
 11
53.886010752176858
 21
58.807455053759696
  0
LINE
  8
_0-3______1
  6
CONTINUOUS
 62
    7
 10
53.886010752176858
 20
58.276600290437528
 11
53.001034623925854
 21
57.9710478816598
  0
LINE
  8
_0-3______1
  6
CONTINUOUS
 62
    7
 10
35.064558391430808
 20
5.4801812498172531
 11
35.096763144026959
 21
5.5123860024132911
  0
LINE
  8
_0-3______1
  6
CONTINUOUS
 62
    7
 10
32.748172649822429
 20
5.6732788517654544
 11
32.796348865088177
 21
5.6732788517654544
  0
LINE
  8
_0-3______1
  6
CONTINUOUS
 62
    7
 10
35.418548842731234
 20
7.9414883781081649
 11
34.807182197918813
 21
8.1023812274602935
  0
LINE
  8
_0-3______1
  6
CONTINUOUS
 62
    7
 10
34.58201075700287
 20
8.1344550664279733
 11
33.970644112190385
 21
8.2953479157801038
  0
LINE
  8
_0-3______1
  6
CONTINUOUS
 62
    7
 10
33.7776774238706
 20
8.3597574209722918
 11
33.150339316388568
 21
8.5205193566960453
  0
LINE
  8
_0-3______1
  6
CONTINUOUS
 62
    7
 10
32.924906048215789
 20
8.5688264855901739
 11
32.313801230660168
 21
8.7297193349423114
  0
LINE
  8
_0-3______1
  6
CONTINUOUS
 62
    7
 10
35.225320327154542
 20
8.4079336362380452
 11
33.890263144328593
 21
8.745821711240362
  0
LINE
  8
_0-3______1
  6
CONTINUOUS
 62
    7
 10
33.87402985440206
 20
8.745821711240362
 11
31.91163456409409
 21
9.2766764745625121
  0
LINE
  8
_0-3______1
  6
CONTINUOUS
 62
    7
 10
35.177144111888815
 20
8.8745098079964446
 11
35.225320327154542
 21
8.6653098297500915
  0
LINE
  8
_0-3______1
  6
CONTINUOUS
 62
    7
 10
31.187682198823662
 20
9.904014582044594
 11
35.177144111888815
 21
8.8745098079964446
  0
LINE
  8
_0-3______1
  6
CONTINUOUS
 62
    7
 10
35.498929810593076
 20
7.8770788729158943
 11
36.431820326852929
 21
7.3301217332956643
  0
LINE
  8
_0-3______1
  6
CONTINUOUS
 62
    7
 10
33.101901273865984
 20
6.0110360131393836
 11
31.91163456409409
 21
7.3301217332956643
  0
LINE
  8
_0-3______1
  6
CONTINUOUS
 62
    7
 10
32.458591703714298
 20
7.1692288839435241
 11
32.554944134245773
 21
7.0888479160816651
  0
LINE
  8
_0-3______1
  6
CONTINUOUS
 62
    7
 10
32.828553617684314
 20
7.0888479160816651
 11
32.908934585546092
 21
7.0084669482198825
  0
LINE
  8
_0-3______1
  6
CONTINUOUS
 62
    7
 10
33.311101252112238
 20
6.9601598193256624
 11
33.375510757304518
 21
6.8797788514638514
  0
LINE
  8
_0-3______1
  6
CONTINUOUS
 62
    7
 10
33.648858413486117
 20
6.8636764751658008
 11
33.729239381348002
 21
6.7831645936755312
  0
LINE
  8
_0-3______1
  6
CONTINUOUS
 62
    7
 10
35.064558391430808
 20
5.4801812498172531
 11
33.87402985440206
 21
6.7992669699735337
  0
LINE
  8
_0-3______1
  6
CONTINUOUS
 62
    7
 10
35.096763144026959
 20
5.4801812498172531
 11
33.890263144328593
 21
6.7992669699735337
  0
LINE
  8
_0-3______1
  6
CONTINUOUS
 62
    7
 10
34.131406047914133
 20
6.7349883784097218
 11
34.195815553106307
 21
6.6544764969194521
  0
LINE
  8
_0-3______1
  6
CONTINUOUS
 62
    7
 10
34.485396499214559
 20
6.6544764969194521
 11
34.565777467076337
 21
6.5579931527595141
  0
LINE
  8
_0-3______1
  6
CONTINUOUS
 62
    7
 10
34.967944133642469
 20
6.5418907764615346
 11
35.032353638834685
 21
6.4454074323015904
  0
LINE
  8
_0-3______1
  6
CONTINUOUS
 62
    7
 10
35.321934584942895
 20
6.4454074323015904
 11
35.402315552804673
 21
6.3648955508113234
  0
LINE
  8
_0-3______1
  6
CONTINUOUS
 62
    7
 10
50.716853634913619
 20
58.550078860247652
 11
50.652444129721324
 21
58.501771731353472
  0
LINE
  8
_0-3______1
  6
CONTINUOUS
 62
    7
 10
51.544713062627672
 20
59.34171613990236
 11
51.826739376823653
 21
59.499202666433945
  0
LINE
  8
_0-3______1
  6
CONTINUOUS
 62
    7
 10
50.887319525249694
 20
58.663102658568462
 11
51.544713062627672
 21
59.34171613990236
  0
LINE
  8
_0-3______1
  6
CONTINUOUS
 62
    7
 10
50.588034624529136
 20
58.485800268683874
 11
50.887319525249694
 21
58.663102658568462
  0
LINE
  8
_0-3______1
  6
CONTINUOUS
 62
    7
 10
51.517074790714616
 20
58.592856965827082
 11
51.826739376823653
 21
58.678766957003688
  0
LINE
  8
_0-3______1
  6
CONTINUOUS
 62
    7
 10
50.716853634913619
 20
58.196219322575672
 11
51.517074790714616
 21
58.592856965827082
  0
LINE
  8
_0-3______1
  6
CONTINUOUS
 62
    7
 10
35.032353638834685
 20
6.4454074323015904
 11
35.321934584942895
 21
6.525788400163453
  0
LINE
  8
_0-3______1
  6
CONTINUOUS
 62
    7
 10
34.195815553106307
 20
6.6544764969194521
 11
34.485396499214559
 21
6.7349883784097218
  0
LINE
  8
_0-3______1
  6
CONTINUOUS
 62
    7
 10
35.418548842731234
 20
7.0888479160816651
 11
34.951972670972872
 21
6.9601598193256624
  0
LINE
  8
_0-3______1
  6
CONTINUOUS
 62
    7
 10
33.375510757304518
 20
6.8797788514638514
 11
33.648858413486117
 21
6.9601598193256624
  0
LINE
  8
_0-3______1
  6
CONTINUOUS
 62
    7
 10
34.324634563490797
 20
7.2336383891358231
 11
34.115434585244536
 21
7.1853312602416146
  0
LINE
  8
_0-3______1
  6
CONTINUOUS
 62
    7
 10
32.554944134245773
 20
7.0888479160816651
 11
32.828553617684314
 21
7.1692288839435241
  0
LINE
  8
_0-3______1
  6
CONTINUOUS
 62
    7
 10
35.418548842731234
 20
7.9414883781081649
 11
34.951972670972872
 21
7.8128002813520858
  0
LINE
  8
_0-3______1
  6
CONTINUOUS
 62
    7
 10
33.488096477762454
 20
7.4588098300517602
 11
33.294867962185798
 21
7.3945312384879518
  0
LINE
  8
_0-3______1
  6
CONTINUOUS
 62
    7
 10
34.807182197918813
 20
8.1023812274602935
 11
34.324634563490797
 21
7.9575907544062154
  0
LINE
  8
_0-3______1
  6
CONTINUOUS
 62
    7
 10
34.58201075700287
 20
8.1344550664279733
 11
34.115434585244536
 21
8.0218693459699733
  0
LINE
  8
_0-3______1
  6
CONTINUOUS
 62
    7
 10
32.683763144630142
 20
7.6680098082980042
 11
32.458591703714298
 21
7.619702679403904
  0
LINE
  8
_0-3______1
  6
CONTINUOUS
 62
    7
 10
35.595282241124565
 20
6.3809979271093829
 11
36.431820326852929
 21
5.4318741209230446
  0
LINE
  8
_0-3______1
  6
CONTINUOUS
 62
    7
 10
33.970644112190385
 20
8.2953479157801038
 11
33.488096477762454
 21
8.1827621953221037
  0
LINE
  8
_0-3______1
  6
CONTINUOUS
 62
    7
 10
33.7776774238706
 20
8.3597574209722918
 11
33.294867962185798
 21
8.2470407868858935
  0
LINE
  8
_0-3______1
  6
CONTINUOUS
 62
    7
 10
33.150339316388568
 20
8.5205193566960453
 11
32.683763144630142
 21
8.4079336362380452
  0
LINE
  8
_0-3______1
  6
CONTINUOUS
 62
    7
 10
32.924906048215789
 20
8.5688264855901739
 11
32.458591703714298
 21
8.4401383888341517
  0
LINE
  8
_0-3______1
  6
CONTINUOUS
 62
    7
 10
32.313801230660168
 20
8.7297193349423114
 11
31.84722505890181
 21
8.6010312381862839
  0
LINE
  8
_0-3______1
  6
CONTINUOUS
 62
    7
 10
38.780672648314294
 20
12.26883836617557
 11
31.895401274167554
 21
14.054369344461874
  0
LINE
  8
_0-3______1
  6
CONTINUOUS
 62
    7
 10
38.844820326249625
 20
12.300912205143227
 11
31.975782242029403
 21
14.086574097057955
  0
LINE
  8
_0-3______1
  6
CONTINUOUS
 62
    7
 10
32.024220284552023
 20
14.199159817515955
 11
38.684058390525969
 21
12.477907430793444
  0
LINE
  8
_0-3______1
  6
CONTINUOUS
 62
    7
 10
48.690048839413343
 20
61.300966934646709
 11
48.545258366359292
 21
61.140074085294593
  0
LINE
  8
_0-3______1
  6
CONTINUOUS
 62
    7
 10
38.76443935838784
 20
46.645971712616017
 11
38.442653659683543
 21
46.517283615860016
  0
LINE
  8
_0-3______1
  6
CONTINUOUS
 62
    7
 10
36.987054844990382
 20
40.756319169725792
 11
37.155772692123314
 21
39.632143155341751
  0
LINE
  8
_0-3______1
  6
CONTINUOUS
 62
    7
 10
36.217757591047665
 20
43.597003644459612
 11
36.987054844990382
 21
40.756319169725792
  0
LINE
  8
_0-3______1
  6
CONTINUOUS
 62
    7
 10
36.107533570956129
 20
44.521970540011544
 11
36.217757591047665
 21
43.597003644459612
  0
LINE
  8
_0-3______1
  6
CONTINUOUS
 62
    7
 10
36.178399591555696
 20
45.124392870772816
 11
36.107533570956129
 21
44.521970540011544
  0
LINE
  8
_0-3______1
  6
CONTINUOUS
 62
    7
 10
36.401332228917248
 20
45.637564132952598
 11
36.178399591555696
 21
45.124392870772816
  0
LINE
  8
_0-3______1
  6
CONTINUOUS
 62
    7
 10
36.743709997172019
 20
45.973921581013975
 11
36.401332228917248
 21
45.637564132952598
  0
LINE
  8
_0-3______1
  6
CONTINUOUS
 62
    7
 10
37.236153659985135
 20
46.227702669751899
 11
36.743709997172019
 21
45.973921581013975
  0
LINE
  8
_0-3______1
  6
CONTINUOUS
 62
    7
 10
38.76443935838784
 20
12.477907430793444
 11
38.796644110983884
 21
12.494009807091523
  0
LINE
  8
_0-3______1
  6
CONTINUOUS
 62
    7
 10
40.019115573351925
 20
45.455574089215737
 11
40.807477443814534
 21
46.018633605134006
  0
LINE
  8
_0-3______1
  6
CONTINUOUS
 62
    7
 10
39.234421162214083
 20
44.905834815257016
 11
39.069991767165561
 21
44.63513837978536
  0
LINE
  8
_0-3______1
  6
CONTINUOUS
 62
    7
 10
39.501648997792508
 20
45.178741704652204
 11
39.234421162214083
 21
44.905834815257016
  0
LINE
  8
_0-3______1
  6
CONTINUOUS
 62
    7
 10
40.099758368470674
 20
45.48777884181186
 11
39.501648997792508
 21
45.178741704652204
  0
LINE
  8
_0-3______1
  6
CONTINUOUS
 62
    7
 10
38.86105361617615
 20
44.908616949595533
 11
39.423982218465959
 21
45.133788390511477
  0
LINE
  8
_0-3______1
  6
CONTINUOUS
 62
    7
 10
50.390399160218223
 20
47.197961843621066
 11
50.845672645298066
 21
47.723783615558375
  0
LINE
  8
_0-3______1
  6
CONTINUOUS
 62
    7
 10
49.767729828727248
 20
46.90334790612809
 11
50.390399160218223
 21
47.197961843621066
  0
LINE
  8
_0-3______1
  6
CONTINUOUS
 62
    7
 10
47.676515528034827
 20
17.641664590960904
 11
45.987467893908445
 21
17.207424085427089
  0
LINE
  8
_0-3______1
  6
CONTINUOUS
 62
    7
 10
30.769282242331066
 20
9.2283693456683817
 11
30.962510757907712
 21
9.0513741200181723
  0
LINE
  8
_0-3______1
  6
CONTINUOUS
 62
    7
 10
30.688901274469217
 20
9.5822288833403242
 11
30.769282242331066
 21
9.2283693456683817
  0
LINE
  8
_0-3______1
  6
CONTINUOUS
 62
    7
 10
30.688901274469217
 20
9.5822288833403242
 11
30.688901274469217
 21
9.8397359904808024
  0
LINE
  8
_0-3______1
  6
CONTINUOUS
 62
    7
 10
31.509467897527955
 20
36.060950285140756
 11
31.509467897527955
 21
10.547455065824662
  0
LINE
  8
_0-3______1
  6
CONTINUOUS
 62
    7
 10
31.509467897527955
 20
8.745821711240362
 11
31.509467897527955
 21
2.3111550461823755
  0
LINE
  8
_0-3______1
  6
CONTINUOUS
 62
    7
 10
31.654258370582014
 20
28.709364566492617
 11
31.654258370582014
 21
14.44043363472994
  0
LINE
  8
_0-3______1
  6
CONTINUOUS
 62
    7
 10
31.734639338443863
 20
14.456536011027957
 11
31.734639338443863
 21
28.725466942790582
  0
LINE
  8
_0-3______1
  6
CONTINUOUS
 62
    7
 10
31.782815553709625
 20
28.500164588246264
 11
31.782815553709625
 21
14.585224107784022
  0
LINE
  8
_0-3______1
  6
CONTINUOUS
 62
    7
 10
31.84722505890181
 20
8.6010312381862839
 11
31.84722505890181
 21
7.7805955287560327
  0
LINE
  8
_0-3______1
  6
CONTINUOUS
 62
    7
 10
31.91163456409409
 20
9.2766764745625121
 11
31.91163456409409
 21
8.6331050771539619
  0
LINE
  8
_0-3______1
  6
CONTINUOUS
 62
    7
 10
31.91163456409409
 20
7.7483907761598916
 11
31.91163456409409
 21
7.3301217332956643
  0
LINE
  8
_0-3______1
  6
CONTINUOUS
 62
    7
 10
33.037491768673718
 20
38.007505026407564
 11
32.924906048215789
 21
37.878686016023117
  0
LINE
  8
_0-3______1
  6
CONTINUOUS
 62
    7
 10
32.796348865088177
 20
37.701821704001382
 11
32.667529854703709
 21
37.524826478351166
  0
LINE
  8
_0-3______1
  6
CONTINUOUS
 62
    7
 10
52.22890604338977
 20
60.367945504758438
 11
52.100348860262187
 21
60.207052655406301
  0
LINE
  8
_0-3______1
  6
CONTINUOUS
 62
    7
 10
33.069696521269854
 20
38.007505026407564
 11
33.021520306004099
 21
37.991271736481131
  0
LINE
  8
_0-3______1
  6
CONTINUOUS
 62
    7
 10
32.297567940733693
 20
39.776933628395803
 11
32.16901075760611
 21
39.374766961829671
  0
LINE
  8
_0-3______1
  6
CONTINUOUS
 62
    7
 10
32.554944134245773
 20
39.937826477747961
 11
32.297567940733693
 21
39.776933628395803
  0
LINE
  8
_0-3______1
  6
CONTINUOUS
 62
    7
 10
33.246691746920042
 20
40.179100294961962
 11
32.554944134245773
 21
39.937826477747961
  0
LINE
  8
_0-3______1
  6
CONTINUOUS
 62
    7
 10
47.821306001088878
 20
17.641664590960904
 11
48.062448904674419
 21
17.577385999397087
  0
LINE
  8
_0-3______1
  6
CONTINUOUS
 62
    7
 10
32.16901075760611
 20
39.374766961829671
 11
32.16901075760611
 21
37.283552661137222
  0
LINE
  8
_0-3______1
  6
CONTINUOUS
 62
    7
 10
32.458591703714298
 20
7.619702679403904
 11
32.458591703714298
 21
8.4401383888341517
  0
LINE
  8
_0-3______1
  6
CONTINUOUS
 62
    7
 10
32.458591703714298
 20
7.1692288839435241
 11
32.458591703714298
 21
7.619702679403904
  0
LINE
  8
_0-3______1
  6
CONTINUOUS
 62
    7
 10
32.683763144630142
 20
8.4079336362380452
 11
32.683763144630142
 21
7.5713955505096839
  0
LINE
  8
_0-3______1
  6
CONTINUOUS
 62
    7
 10
32.748172649822429
 20
6.3971003034074529
 11
32.748172649822429
 21
5.6732788517654544
  0
LINE
  8
_0-3______1
  6
CONTINUOUS
 62
    7
 10
32.828553617684314
 20
7.0888479160816651
 11
32.828553617684314
 21
7.5071169589458755
  0
LINE
  8
_0-3______1
  6
CONTINUOUS
 62
    7
 10
32.924906048215789
 20
8.4723431414302919
 11
32.924906048215789
 21
8.5688264855901739
  0
LINE
  8
_0-3______1
  6
CONTINUOUS
 62
    7
 10
33.021520306004099
 20
37.991271736481131
 11
33.021520306004099
 21
38.055681241673312
  0
LINE
  8
_0-3______1
  6
CONTINUOUS
 62
    7
 10
33.230720284250388
 20
5.9788312605432541
 11
33.230720284250388
 21
5.7858645722234545
  0
LINE
  8
_0-3______1
  6
CONTINUOUS
 62
    7
 10
33.294867962185798
 20
7.3945312384879518
 11
33.294867962185798
 21
8.2470407868858935
  0
LINE
  8
_0-3______1
  6
CONTINUOUS
 62
    7
 10
33.311101252112238
 20
6.9601598193256624
 11
33.311101252112238
 21
7.4106336147860024
  0
LINE
  8
_0-3______1
  6
CONTINUOUS
 62
    7
 10
33.488096477762454
 20
8.1827621953221037
 11
33.488096477762454
 21
7.3462241095937433
  0
LINE
  8
_0-3______1
  6
CONTINUOUS
 62
    7
 10
33.648858413486117
 20
6.8636764751658008
 11
33.648858413486117
 21
7.3140193569976937
  0
LINE
  8
_0-3______1
  6
CONTINUOUS
 62
    7
 10
33.7776774238706
 20
8.2631431631839636
 11
33.7776774238706
 21
8.3597574209722918
  0
LINE
  8
_0-3______1
  6
CONTINUOUS
 62
    7
 10
33.87402985440206
 20
8.745821711240362
 11
33.87402985440206
 21
8.279245539482023
  0
LINE
  8
_0-3______1
  6
CONTINUOUS
 62
    7
 10
33.87402985440206
 20
7.2497407654338737
 11
33.87402985440206
 21
6.7992669699735337
  0
LINE
  8
_0-3______1
  6
CONTINUOUS
 62
    7
 10
33.890263144328593
 20
8.745821711240362
 11
33.890263144328593
 21
8.2953479157801038
  0
LINE
  8
_0-3______1
  6
CONTINUOUS
 62
    7
 10
33.890263144328593
 20
7.2336383891358231
 11
33.890263144328593
 21
6.7992669699735337
  0
LINE
  8
_0-3______1
  6
CONTINUOUS
 62
    7
 10
34.115434585244536
 20
7.1853312602416146
 11
34.115434585244536
 21
8.0218693459699733
  0
LINE
  8
_0-3______1
  6
CONTINUOUS
 62
    7
 10
34.131406047914133
 20
6.7349883784097218
 11
34.131406047914133
 21
7.1853312602416146
  0
LINE
  8
_0-3______1
  6
CONTINUOUS
 62
    7
 10
34.195815553106307
 20
38.425643155643314
 11
34.195815553106307
 21
37.685719327703296
  0
LINE
  8
_0-3______1
  6
CONTINUOUS
 62
    7
 10
34.228020305702479
 20
5.7053526907331253
 11
34.228020305702479
 21
5.5445907550094438
  0
LINE
  8
_0-3______1
  6
CONTINUOUS
 62
    7
 10
32.136806005010037
 20
36.945664586134903
 11
32.024220284552023
 21
36.736595521517017
  0
LINE
  8
_0-3______1
  6
CONTINUOUS
 62
    7
 10
32.16901075760611
 20
37.283552661137222
 11
32.136806005010037
 21
36.945664586134903
  0
LINE
  8
_0-3______1
  6
CONTINUOUS
 62
    7
 10
38.701956306744854
 20
42.960528021150445
 11
38.941434584038049
 21
39.165697897211814
  0
LINE
  8
_0-3______1
  6
CONTINUOUS
 62
    7
 10
38.791002836184887
 20
43.789869515484803
 11
38.701956306744854
 21
42.960528021150445
  0
LINE
  8
_0-3______1
  6
CONTINUOUS
 62
    7
 10
39.069991767165561
 20
44.63513837978536
 11
38.791002836184887
 21
43.789869515484803
  0
LINE
  8
_0-3______1
  6
CONTINUOUS
 62
    7
 10
32.088367962487432
 20
36.768800274113097
 11
31.91163456409409
 21
36.688288392622837
  0
LINE
  8
_0-3______1
  6
CONTINUOUS
 62
    7
 10
34.646158434938208
 20
39.053112176753878
 11
34.807182197918813
 21
39.101288392019605
  0
LINE
  8
_0-3______1
  6
CONTINUOUS
 62
    7
 10
35.289729832346758
 20
8.1023812274602935
 11
35.498929810593076
 21
7.8770788729158943
  0
LINE
  8
_0-3______1
  6
CONTINUOUS
 62
    7
 10
35.225320327154542
 20
8.3918312599399432
 11
35.289729832346758
 21
8.1023812274602935
  0
LINE
  8
_0-3______1
  6
CONTINUOUS
 62
    7
 10
34.324634563490797
 20
7.9575907544062154
 11
34.324634563490797
 21
7.1210526686777946
  0
LINE
  8
_0-3______1
  6
CONTINUOUS
 62
    7
 10
34.485396499214559
 20
6.6544764969194521
 11
34.485396499214559
 21
7.0888479160816651
  0
LINE
  8
_0-3______1
  6
CONTINUOUS
 62
    7
 10
34.58201075700287
 20
8.0379717222680238
 11
34.58201075700287
 21
8.1344550664279733
  0
LINE
  8
_0-3______1
  6
CONTINUOUS
 62
    7
 10
34.951972670972872
 20
6.9601598193256624
 11
34.951972670972872
 21
7.8128002813520858
  0
LINE
  8
_0-3______1
  6
CONTINUOUS
 62
    7
 10
34.967944133642469
 20
6.5418907764615346
 11
34.967944133642469
 21
6.9601598193256624
  0
LINE
  8
_0-3______1
  6
CONTINUOUS
 62
    7
 10
35.225320327154542
 20
8.6653098297500915
 11
35.225320327154542
 21
8.3918312599399432
  0
LINE
  8
_0-3______1
  6
CONTINUOUS
 62
    7
 10
35.321934584942895
 20
6.4454074323015904
 11
35.321934584942895
 21
6.9923645719218035
  0
LINE
  8
_0-3______1
  6
CONTINUOUS
 62
    7
 10
35.418548842731234
 20
7.0888479160816651
 11
35.418548842731234
 21
7.9414883781081649
  0
LINE
  8
_0-3______1
  6
CONTINUOUS
 62
    7
 10
35.595282241124565
 20
7.8448741203198411
 11
35.595282241124565
 21
6.3809979271093829
  0
LINE
  8
_0-3______1
  6
CONTINUOUS
 62
    7
 10
36.431820326852929
 20
3.7267241104986173
 11
36.431820326852929
 21
7.3301217332956643
  0
LINE
  8
_0-3______1
  6
CONTINUOUS
 62
    7
 10
48.492135920162809
 20
54.838288486703668
 11
48.979367958264646
 21
52.421095517595859
  0
LINE
  8
_0-3______1
  6
CONTINUOUS
 62
    7
 10
48.354990658619627
 20
56.047558186136143
 11
48.492135920162809
 21
54.838288486703668
  0
LINE
  8
_0-3______1
  6
CONTINUOUS
 62
    7
 10
48.391698737828264
 20
57.080731584305866
 11
48.354990658619627
 21
56.047558186136143
  0
LINE
  8
_0-3______1
  6
CONTINUOUS
 62
    7
 10
48.529336921298977
 20
57.643548340400571
 11
48.391698737828264
 21
57.080731584305866
  0
LINE
  8
_0-3______1
  6
CONTINUOUS
 62
    7
 10
48.673815549486839
 20
57.954945505361735
 11
48.529336921298977
 21
57.643548340400571
  0
LINE
  8
_0-3______1
  6
CONTINUOUS
 62
    7
 10
43.043482217561113
 20
45.2946812398636
 11
43.284886948403518
 21
45.761257411621948
  0
LINE
  8
_0-3______1
  6
CONTINUOUS
 62
    7
 10
40.550101250302532
 20
43.846907422951254
 11
40.566072712972129
 21
43.895214551845392
  0
LINE
  8
_0-3______1
  6
CONTINUOUS
 62
    7
 10
50.12172028002766
 20
57.118407419633378
 11
50.153925032623803
 21
57.150612172229437
  0
LINE
  8
_0-3______1
  6
CONTINUOUS
 62
    7
 10
37.010982219069263
 20
39.310488370265894
 11
37.010982219069263
 21
39.246078865073677
  0
LINE
  8
_0-3______1
  6
CONTINUOUS
 62
    7
 10
37.155772692123314
 20
39.632143155341751
 11
37.155772692123314
 21
39.213874112477548
  0
LINE
  8
_0-3______1
  6
CONTINUOUS
 62
    7
 10
38.024515530447829
 20
39.053112176753878
 11
38.024515530447829
 21
38.988702671561605
  0
LINE
  8
_0-3______1
  6
CONTINUOUS
 62
    7
 10
38.249686971363758
 20
1.3137241111018854
 11
38.249686971363758
 21
1.3781336162940931
  0
LINE
  8
_0-3______1
  6
CONTINUOUS
 62
    7
 10
38.410448907087435
 20
46.517283615860016
 11
38.410448907087435
 21
46.726352680477909
  0
LINE
  8
_0-3______1
  6
CONTINUOUS
 62
    7
 10
38.523034627545357
 20
44.63513837978536
 11
38.523034627545357
 21
44.474245530433329
  0
LINE
  8
_0-3______1
  6
CONTINUOUS
 62
    7
 10
36.431820326852929
 20
3.7267241104986173
 11
36.367672648917576
 21
3.2441764760706633
  0
LINE
  8
_0-3______1
  6
CONTINUOUS
 62
    7
 10
38.684058390525969
 20
27.068493147631962
 11
32.024220284552023
 21
28.789745534354381
  0
LINE
  8
_0-3______1
  6
CONTINUOUS
 62
    7
 10
38.716263143122106
 20
27.068493147631962
 11
32.072396499817749
 21
28.789745534354381
  0
LINE
  8
_0-3______1
  6
CONTINUOUS
 62
    7
 10
38.780672648314294
 20
27.197181244387952
 11
31.895401274167554
 21
28.966740760004576
  0
LINE
  8
_0-3______1
  6
CONTINUOUS
 62
    7
 10
38.695242940119748
 20
40.797790687937237
 11
38.2174822187676
 21
42.608202670656738
  0
LINE
  8
_0-3______1
  6
CONTINUOUS
 62
    7
 10
38.844820326249625
 20
39.632143155341751
 11
38.695242940119748
 21
40.797790687937237
  0
LINE
  8
_0-3______1
  6
CONTINUOUS
 62
    7
 10
40.565532039047469
 20
40.388560810026206
 11
40.485691745110266
 21
41.079916972254132
  0
LINE
  8
_0-3______1
  6
CONTINUOUS
 62
    7
 10
40.598277465568266
 20
39.165697897211814
 11
40.565532039047469
 21
40.388560810026206
  0
LINE
  8
_0-3______1
  6
CONTINUOUS
 62
    7
 10
38.844820326249625
 20
38.795605069613337
 11
38.844820326249625
 21
39.632143155341751
  0
LINE
  8
_0-3______1
  6
CONTINUOUS
 62
    7
 10
38.90922983144192
 20
12.735283624305517
 11
38.90922983144192
 21
26.682428857363888
  0
LINE
  8
_0-3______1
  6
CONTINUOUS
 62
    7
 10
38.941434584038049
 20
39.165697897211814
 11
38.941434584038049
 21
38.747428854347682
  0
LINE
  8
_0-3______1
  6
CONTINUOUS
 62
    7
 10
38.957406046707646
 20
12.735283624305517
 11
38.957406046707646
 21
26.682428857363888
  0
LINE
  8
_0-3______1
  6
CONTINUOUS
 62
    7
 10
39.005844089230237
 20
12.542186022357241
 11
39.005844089230237
 21
26.811116954119882
  0
LINE
  8
_0-3______1
  6
CONTINUOUS
 62
    7
 10
39.938734605490026
 20
38.602638381293524
 11
39.938734605490026
 21
38.506155037133652
  0
LINE
  8
_0-3______1
  6
CONTINUOUS
 62
    7
 10
40.598277465568266
 20
38.361364564079615
 11
40.598277465568266
 21
39.165697897211814
  0
LINE
  8
_0-3______1
  6
CONTINUOUS
 62
    7
 10
49.381534624830763
 20
48.544219324988738
 11
49.365563162161095
 21
48.528116948690688
  0
LINE
  8
_0-3______1
  6
CONTINUOUS
 62
    7
 10
40.437515529844539
 20
43.589531229439153
 11
40.550101250302532
 21
43.846907422951254
  0
LINE
  8
_0-3______1
  6
CONTINUOUS
 62
    7
 10
40.373106024652316
 20
43.026471713520941
 11
40.437515529844539
 21
43.589531229439153
  0
LINE
  8
_0-3______1
  6
CONTINUOUS
 62
    7
 10
40.485691745110266
 20
41.080047885882514
 11
40.373106024652316
 21
43.026471713520941
  0
LINE
  8
_0-3______1
  6
CONTINUOUS
 62
    7
 10
41.257820325646414
 20
37.508724102053115
 11
41.257820325646414
 21
0.5576979068638252
  0
LINE
  8
_0-3______1
  6
CONTINUOUS
 62
    7
 10
41.370406046104335
 20
37.524826478351166
 11
41.370406046104335
 21
0.6058741221295463
  0
LINE
  8
_0-3______1
  6
CONTINUOUS
 62
    7
 10
42.946867959772796
 20
37.975300273811534
 11
42.946867959772796
 21
1.1689336380478152
  0
LINE
  8
_0-3______1
  6
CONTINUOUS
 62
    7
 10
43.043482217561113
 20
46.645971712616017
 11
43.043482217561113
 21
43.895214551845392
  0
LINE
  8
_0-3______1
  6
CONTINUOUS
 62
    7
 10
51.006053752314095
 20
50.817422761993775
 11
50.53985840926341
 21
53.209326474430135
  0
LINE
  8
_0-3______1
  6
CONTINUOUS
 62
    7
 10
51.145947906762309
 20
49.558705660455189
 11
51.006053752314095
 21
50.817422761993775
  0
LINE
  8
_0-3______1
  6
CONTINUOUS
 62
    7
 10
51.115909237296336
 20
48.586199676144247
 11
51.145947906762309
 21
49.558705660455189
  0
LINE
  8
_0-3______1
  6
CONTINUOUS
 62
    7
 10
50.845672645298066
 20
47.723783615558375
 11
51.115909237296336
 21
48.586199676144247
  0
LINE
  8
_0-3______1
  6
CONTINUOUS
 62
    7
 10
37.783110799605332
 20
44.329455057379164
 11
37.799344089531871
 21
44.715519347647238
  0
LINE
  8
_0-3______1
  6
CONTINUOUS
 62
    7
 10
37.847520304797605
 20
43.943390767111204
 11
37.783110799605332
 21
44.329455057379164
  0
LINE
  8
_0-3______1
  6
CONTINUOUS
 62
    7
 10
38.2174822187676
 20
42.608202670656738
 11
37.847520304797605
 21
43.943390767111204
  0
LINE
  8
_0-3______1
  6
CONTINUOUS
 62
    7
 10
43.156067938019063
 20
47.160724099640106
 11
43.156067938019063
 21
46.822966938266227
  0
LINE
  8
_0-3______1
  6
CONTINUOUS
 62
    7
 10
43.20450598054174
 20
45.616466938567875
 11
43.20450598054174
 21
45.342988368757737
  0
LINE
  8
_0-3______1
  6
CONTINUOUS
 62
    7
 10
43.284886948403518
 20
46.645971712616017
 11
43.284886948403518
 21
45.182095519405607
  0
LINE
  8
_0-3______1
  6
CONTINUOUS
 62
    7
 10
43.284886948403518
 20
3.7106217342005268
 11
43.284886948403518
 21
15.276971720458313
  0
LINE
  8
_0-3______1
  6
CONTINUOUS
 62
    7
 10
31.943839316690159
 20
28.789745534354381
 11
31.992015531955964
 21
28.789745534354381
  0
LINE
  8
_0-3______1
  6
CONTINUOUS
 62
    7
 10
32.667529854703709
 20
38.506155037133652
 11
32.828553617684314
 21
38.377466940377587
  0
LINE
  8
_0-3______1
  6
CONTINUOUS
 62
    7
 10
45.987467893908445
 20
45.133788390511477
 11
45.987467893908445
 21
44.281147928485062
  0
LINE
  8
_0-3______1
  6
CONTINUOUS
 62
    7
 10
33.101901273865984
 20
37.975300273811534
 11
33.021520306004099
 21
37.991271736481131
  0
LINE
  8
_0-3______1
  6
CONTINUOUS
 62
    7
 10
47.917658431620367
 20
49.235966937663022
 11
47.917658431620367
 21
48.898078862660661
  0
LINE
  8
_0-3______1
  6
CONTINUOUS
 62
    7
 10
47.676515528034827
 20
57.568881215093668
 11
47.676515528034827
 21
58.035326473223613
  0
LINE
  8
_0-3______1
  6
CONTINUOUS
 62
    7
 10
47.676515528034827
 20
58.357112171927866
 11
47.676515528034827
 21
58.791352677461674
  0
LINE
  8
_0-3______1
  6
CONTINUOUS
 62
    7
 10
47.676515528034827
 20
59.097035999867892
 11
47.676515528034827
 21
59.386616945976016
  0
LINE
  8
_0-3______1
  6
CONTINUOUS
 62
    7
 10
47.676515528034827
 20
59.72450502097837
 11
47.676515528034827
 21
59.933574085596234
  0
LINE
  8
_0-3______1
  6
CONTINUOUS
 62
    7
 10
47.676515528034827
 20
60.384047881056517
 11
47.676515528034827
 21
61.542240751860732
  0
LINE
  8
_0-3______1
  6
CONTINUOUS
 62
    7
 10
48.046477442004829
 20
57.906638376467527
 11
48.046477442004829
 21
57.954945505361735
  0
LINE
  8
_0-3______1
  6
CONTINUOUS
 62
    7
 10
48.046477442004829
 20
58.260497914139478
 11
48.046477442004829
 21
58.582283612843746
  0
LINE
  8
_0-3______1
  6
CONTINUOUS
 62
    7
 10
48.046477442004829
 20
58.743176462195862
 11
48.046477442004829
 21
58.759278838493948
  0
LINE
  8
_0-3______1
  6
CONTINUOUS
 62
    7
 10
48.046477442004829
 20
59.064831247271769
 11
48.046477442004829
 21
59.386616945976016
  0
LINE
  8
_0-3______1
  6
CONTINUOUS
 62
    7
 10
48.046477442004829
 20
59.853062204105981
 11
48.046477442004829
 21
60.207052655406301
  0
LINE
  8
_0-3______1
  6
CONTINUOUS
 62
    7
 10
48.046477442004829
 20
60.657395537238159
 11
48.046477442004829
 21
60.995283612240542
  0
LINE
  8
_0-3______1
  6
CONTINUOUS
 62
    7
 10
48.159063162462736
 20
57.954945505361735
 11
48.159063162462736
 21
57.9710478816598
  0
LINE
  8
_0-3______1
  6
CONTINUOUS
 62
    7
 10
48.159063162462736
 20
58.276600290437528
 11
48.159063162462736
 21
58.550078860247652
  0
LINE
  8
_0-3______1
  6
CONTINUOUS
 62
    7
 10
48.159063162462736
 20
59.097035999867892
 11
48.159063162462736
 21
59.354412193379886
  0
LINE
  8
_0-3______1
  6
CONTINUOUS
 62
    7
 10
48.159063162462736
 20
59.901369333000119
 11
48.159063162462736
 21
60.158745526512178
  0
LINE
  8
_0-3______1
  6
CONTINUOUS
 62
    7
 10
48.159063162462736
 20
60.689600289834317
 11
48.159063162462736
 21
60.979181235942455
  0
LINE
  8
_0-3______1
  6
CONTINUOUS
 62
    7
 10
48.64161079689076
 20
60.850493139186462
 11
48.64161079689076
 21
60.207052655406301
  0
LINE
  8
_0-3______1
  6
CONTINUOUS
 62
    7
 10
48.64161079689076
 20
60.046159806054163
 11
48.64161079689076
 21
59.386616945976016
  0
LINE
  8
_0-3______1
  6
CONTINUOUS
 62
    7
 10
48.64161079689076
 20
59.225724096623878
 11
48.64161079689076
 21
58.582283612843746
  0
LINE
  8
_0-3______1
  6
CONTINUOUS
 62
    7
 10
48.64161079689076
 20
58.421390763491701
 11
48.64161079689076
 21
57.906638376467527
  0
LINE
  8
_0-3______1
  6
CONTINUOUS
 62
    7
 10
48.770429807275249
 20
58.196219322575672
 11
48.770429807275249
 21
60.35184312846043
  0
LINE
  8
_0-3______1
  6
CONTINUOUS
 62
    7
 10
48.947425032925459
 20
58.421390763491701
 11
48.947425032925459
 21
60.046159806054163
  0
LINE
  8
_0-3______1
  6
CONTINUOUS
 62
    7
 10
48.947425032925459
 20
60.30353599956625
 11
48.947425032925459
 21
60.770112171324605
  0
LINE
  8
_0-3______1
  6
CONTINUOUS
 62
    7
 10
49.027806000787237
 20
60.754009795026519
 11
49.027806000787237
 21
61.204352676858392
  0
LINE
  8
_0-3______1
  6
CONTINUOUS
 62
    7
 10
49.156363183914827
 20
60.786214547622649
 11
49.156363183914827
 21
60.625321698270511
  0
LINE
  8
_0-3______1
  6
CONTINUOUS
 62
    7
 10
49.220772689107037
 20
60.995283612240542
 11
49.220772689107037
 21
61.236557429454535
  0
LINE
  8
_0-3______1
  6
CONTINUOUS
 62
    7
 10
49.252977441703173
 20
61.413552655104723
 11
49.252977441703173
 21
61.542240751860732
  0
LINE
  8
_0-3______1
  6
CONTINUOUS
 62
    7
 10
49.285182194299317
 20
49.670338356825233
 11
49.285182194299317
 21
49.975890765603047
  0
LINE
  8
_0-3______1
  6
CONTINUOUS
 62
    7
 10
49.317386946895475
 20
58.598385989141804
 11
49.317386946895475
 21
59.933574085596234
  0
LINE
  8
_0-3______1
  6
CONTINUOUS
 62
    7
 10
49.445944130022987
 20
58.662664580705602
 11
49.445944130022987
 21
59.981881214490443
  0
LINE
  8
_0-3______1
  6
CONTINUOUS
 62
    7
 10
49.606967893003606
 20
60.35184312846043
 11
49.606967893003606
 21
60.625321698270511
  0
LINE
  8
_0-3______1
  6
CONTINUOUS
 62
    7
 10
49.703320323535067
 20
60.22315503170438
 11
49.703320323535067
 21
60.319638375864308
  0
LINE
  8
_0-3______1
  6
CONTINUOUS
 62
    7
 10
33.423686972570259
 20
40.179100294961962
 11
40.791505981144937
 21
38.280852682589263
  0
LINE
  8
_0-3______1
  6
CONTINUOUS
 62
    7
 10
33.55250598295472
 20
40.227407423856093
 11
37.010982219069263
 21
39.310488370265894
  0
LINE
  8
_0-3______1
  6
CONTINUOUS
 62
    7
 10
38.024515530447829
 20
39.053112176753878
 11
38.571472670068026
 21
38.908321703699713
  0
LINE
  8
_0-3______1
  6
CONTINUOUS
 62
    7
 10
40.035348863278379
 20
38.538228876101343
 11
40.904091701602852
 21
38.313057435185392
  0
LINE
  8
_0-3______1
  6
CONTINUOUS
 62
    7
 10
50.250277463155264
 20
43.895214551845392
 11
50.250277463155264
 21
44.152590745357429
  0
LINE
  8
_0-3______1
  6
CONTINUOUS
 62
    7
 10
50.314686968347459
 20
59.209621720325799
 11
50.314686968347459
 21
59.724374107349888
  0
LINE
  8
_0-3______1
  6
CONTINUOUS
 62
    7
 10
50.314686968347459
 20
60.528838354110647
 11
50.314686968347459
 21
60.818288386590325
  0
LINE
  8
_0-3______1
  6
CONTINUOUS
 62
    7
 10
50.459477441401532
 20
61.751309816478603
 11
50.459477441401532
 21
61.68703122491479
  0
LINE
  8
_0-3______1
  6
CONTINUOUS
 62
    7
 10
50.652444129721324
 20
44.152590745357429
 11
50.652444129721324
 21
44.474245530433329
  0
LINE
  8
_0-3______1
  6
CONTINUOUS
 62
    7
 10
50.765029850179346
 20
44.474245530433329
 11
50.765029850179346
 21
44.619036003487395
  0
LINE
  8
_0-3______1
  6
CONTINUOUS
 62
    7
 10
50.893848860563821
 20
61.236557429454535
 11
50.893848860563821
 21
61.172147924262269
  0
LINE
  8
_0-3______1
  6
CONTINUOUS
 62
    7
 10
50.893848860563821
 20
60.786214547622649
 11
50.893848860563821
 21
60.544809816780258
  0
LINE
  8
_0-3______1
  6
CONTINUOUS
 62
    7
 10
51.103048838810082
 20
61.140074085294593
 11
51.103048838810082
 21
60.850493139186462
  0
LINE
  8
_0-3______1
  6
CONTINUOUS
 62
    7
 10
51.167196516745413
 20
61.49393362296653
 11
51.167196516745413
 21
61.300966934646709
  0
LINE
  8
_0-3______1
  6
CONTINUOUS
 62
    7
 10
51.167196516745413
 20
58.244395537841484
 11
51.167196516745413
 21
58.180116946277678
  0
LINE
  8
_0-3______1
  6
CONTINUOUS
 62
    7
 10
51.247839311864134
 20
56.635728871576873
 11
51.247839311864134
 21
57.102305043335292
  0
LINE
  8
_0-3______1
  6
CONTINUOUS
 62
    7
 10
51.247839311864134
 20
57.424090742039596
 11
51.247839311864134
 21
57.858331247573403
  0
LINE
  8
_0-3______1
  6
CONTINUOUS
 62
    7
 10
51.247839311864134
 20
58.164014569979578
 11
51.247839311864134
 21
58.485800268683874
  0
LINE
  8
_0-3______1
  6
CONTINUOUS
 62
    7
 10
51.247839311864134
 20
58.807455053759696
 11
51.247839311864134
 21
59.032757408304093
  0
LINE
  8
_0-3______1
  6
CONTINUOUS
 62
    7
 10
51.247839311864134
 20
59.450895537539829
 11
51.247839311864134
 21
60.625321698270511
  0
LINE
  8
_0-3______1
  6
CONTINUOUS
 62
    7
 10
51.263810774533823
 20
43.476945508981238
 11
51.263810774533823
 21
43.219438401840755
  0
LINE
  8
_0-3______1
  6
CONTINUOUS
 62
    7
 10
51.263810774533823
 20
42.431338358635003
 11
51.263810774533823
 21
41.884381219014791
  0
LINE
  8
_0-3______1
  6
CONTINUOUS
 62
    7
 10
51.601567935907703
 20
57.005821699175364
 11
51.601567935907703
 21
57.037895538143061
  0
LINE
  8
_0-3______1
  6
CONTINUOUS
 62
    7
 10
51.601567935907703
 20
57.810155032307676
 11
51.601567935907703
 21
57.858331247573403
  0
LINE
  8
_0-3______1
  6
CONTINUOUS
 62
    7
 10
51.601567935907703
 20
57.343578860549314
 11
51.601567935907703
 21
57.649262182955546
  0
LINE
  8
_0-3______1
  6
CONTINUOUS
 62
    7
 10
51.601567935907703
 20
58.164014569979578
 11
51.601567935907703
 21
58.485800268683874
  0
LINE
  8
_0-3______1
  6
CONTINUOUS
 62
    7
 10
51.601567935907703
 20
58.920171687846079
 11
51.601567935907703
 21
59.27403122551803
  0
LINE
  8
_0-3______1
  6
CONTINUOUS
 62
    7
 10
51.601567935907703
 20
59.72450502097837
 11
51.601567935907703
 21
60.078364558650314
  0
LINE
  8
_0-3______1
  6
CONTINUOUS
 62
    7
 10
51.714153656365625
 20
57.343578860549314
 11
51.714153656365625
 21
57.63315980665746
  0
LINE
  8
_0-3______1
  6
CONTINUOUS
 62
    7
 10
51.714153656365625
 20
58.164014569979578
 11
51.714153656365625
 21
58.437493139789652
  0
LINE
  8
_0-3______1
  6
CONTINUOUS
 62
    7
 10
51.714153656365625
 20
58.968347903111805
 11
51.714153656365625
 21
59.257928849220029
  0
LINE
  8
_0-3______1
  6
CONTINUOUS
 62
    7
 10
51.714153656365625
 20
59.772681236244104
 11
51.714153656365625
 21
60.062262182352242
  0
LINE
  8
_0-3______1
  6
CONTINUOUS
 62
    7
 10
51.746358408961754
 20
45.182095519405607
 11
51.746358408961754
 21
45.310783616161665
  0
LINE
  8
_0-3______1
  6
CONTINUOUS
 62
    7
 10
51.939325097281568
 20
45.262476487267442
 11
51.939325097281568
 21
45.342988368757737
  0
LINE
  8
_0-3______1
  6
CONTINUOUS
 62
    7
 10
31.91163456409409
 20
9.2766764745625121
 11
32.281596478064102
 21
9.6144336359364626
  0
LINE
  8
_0-3______1
  6
CONTINUOUS
 62
    7
 10
33.84182510180591
 20
37.074352682890904
 11
33.713267918678405
 21
37.042147930294746
  0
LINE
  8
_0-3______1
  6
CONTINUOUS
 62
    7
 10
33.665091703412649
 20
37.219143155944984
 11
33.504067940432058
 21
37.154864564381178
  0
LINE
  8
_0-3______1
  6
CONTINUOUS
 62
    7
 10
33.488096477762454
 20
37.219143155944984
 11
33.343306004708381
 21
37.186938403348826
  0
LINE
  8
_0-3______1
  6
CONTINUOUS
 62
    7
 10
40.019115573351925
 20
38.634843133889667
 11
40.373106024652316
 21
38.715224101751524
  0
LINE
  8
_0-3______1
  6
CONTINUOUS
 62
    7
 10
38.024515530447829
 20
39.053112176753878
 11
38.619648885333774
 21
39.181800273509872
  0
LINE
  8
_0-3______1
  6
CONTINUOUS
 62
    7
 10
39.456186971062124
 20
38.667047886485797
 11
39.391777465869829
 21
38.634843133889667
  0
LINE
  8
_0-3______1
  6
CONTINUOUS
 62
    7
 10
39.456186971062124
 20
38.988702671561605
 11
39.021815551899834
 21
38.908321703699713
  0
LINE
  8
_0-3______1
  6
CONTINUOUS
 62
    7
 10
37.670525079147396
 20
39.101288392019605
 11
37.60611557395513
 21
39.101288392019605
  0
LINE
  8
_0-3______1
  6
CONTINUOUS
 62
    7
 10
33.069696521269854
 20
37.991271736481131
 11
32.394182198522024
 21
37.959197897513427
  0
LINE
  8
_0-3______1
  6
CONTINUOUS
 62
    7
 10
35.193115574558412
 20
40.500885993666223
 11
37.123567939527184
 21
40.002105069311746
  0
LINE
  8
_0-3______1
  6
CONTINUOUS
 62
    7
 10
38.844820326249625
 20
39.551762187479888
 11
38.925201294111503
 21
39.535659811181802
  0
LINE
  8
_0-3______1
  6
CONTINUOUS
 62
    7
 10
40.598277465568266
 20
39.085186015721547
 11
42.448348862675189
 21
38.618740757591581
  0
LINE
  8
_0-3______1
  6
CONTINUOUS
 62
    7
 10
52.100348860262187
 20
45.182095519405607
 11
52.100348860262187
 21
45.310783616161665
  0
LINE
  8
_0-3______1
  6
CONTINUOUS
 62
    7
 10
52.212934580720109
 20
59.933574085596234
 11
52.212934580720109
 21
59.27403122551803
  0
LINE
  8
_0-3______1
  6
CONTINUOUS
 62
    7
 10
52.212934580720109
 20
59.113138376165864
 11
52.212934580720109
 21
58.485800268683874
  0
LINE
  8
_0-3______1
  6
CONTINUOUS
 62
    7
 10
52.212934580720109
 20
58.292702666735615
 11
52.212934580720109
 21
57.649262182955546
  0
LINE
  8
_0-3______1
  6
CONTINUOUS
 62
    7
 10
52.212934580720109
 20
57.488369333603373
 11
52.212934580720109
 21
56.861031226121305
  0
LINE
  8
_0-3______1
  6
CONTINUOUS
 62
    7
 10
52.341491763847728
 20
57.279300268985509
 11
52.341491763847728
 21
59.418821698572152
  0
LINE
  8
_0-3______1
  6
CONTINUOUS
 62
    7
 10
52.518486989497916
 20
56.764547881961363
 11
52.518486989497916
 21
57.247095516389379
  0
LINE
  8
_0-3______1
  6
CONTINUOUS
 62
    7
 10
52.518486989497916
 20
57.488369333603373
 11
52.518486989497916
 21
59.113138376165864
  0
LINE
  8
_0-3______1
  6
CONTINUOUS
 62
    7
 10
52.518486989497916
 20
59.370514569677972
 11
52.518486989497916
 21
59.837090741436306
  0
LINE
  8
_0-3______1
  6
CONTINUOUS
 62
    7
 10
52.582896494690203
 20
56.297971710203029
 11
52.582896494690203
 21
56.764547881961363
  0
LINE
  8
_0-3______1
  6
CONTINUOUS
 62
    7
 10
52.582896494690203
 20
59.837090741436306
 11
52.582896494690203
 21
60.287433623268186
  0
LINE
  8
_0-3______1
  6
CONTINUOUS
 62
    7
 10
52.598867957359793
 20
43.476945508981238
 11
52.598867957359793
 21
43.219438401840755
  0
LINE
  8
_0-3______1
  6
CONTINUOUS
 62
    7
 10
52.598867957359793
 20
42.431338358635003
 11
52.598867957359793
 21
41.884381219014791
  0
LINE
  8
_0-3______1
  6
CONTINUOUS
 62
    7
 10
52.695482215148132
 20
59.853062204105981
 11
52.695482215148132
 21
59.724374107349888
  0
LINE
  8
_0-3______1
  6
CONTINUOUS
 62
    7
 10
52.695482215148132
 20
56.957514570281255
 11
52.695482215148132
 21
56.812724097227125
  0
LINE
  8
_0-3______1
  6
CONTINUOUS
 62
    7
 10
52.759891720340335
 20
43.911186014515032
 11
52.759891720340335
 21
44.216869336921242
  0
LINE
  8
_0-3______1
  6
CONTINUOUS
 62
    7
 10
52.775863183009989
 20
56.330176462799152
 11
52.775863183009989
 21
56.619757408907276
  0
LINE
  8
_0-3______1
  6
CONTINUOUS
 62
    7
 10
52.775863183009989
 20
60.078364558650314
 11
52.775863183009989
 21
60.319638375864308
  0
LINE
  8
_0-3______1
  6
CONTINUOUS
 62
    7
 10
52.808067935606033
 20
60.512605064184122
 11
52.808067935606033
 21
60.625321698270511
  0
LINE
  8
_0-3______1
  6
CONTINUOUS
 62
    7
 10
52.888448903467932
 20
57.407988365741545
 11
52.888448903467932
 21
59.032757408304093
  0
LINE
  8
_0-3______1
  6
CONTINUOUS
 62
    7
 10
52.888448903467932
 20
43.927288390813089
 11
52.888448903467932
 21
44.2490740895173
  0
LINE
  8
_0-3______1
  6
CONTINUOUS
 62
    7
 10
53.001034623925854
 20
57.424090742039596
 11
53.001034623925854
 21
59.048728870973676
  0
LINE
  8
_0-3______1
  6
CONTINUOUS
 62
    7
 10
53.113882171640697
 20
44.474245530433329
 11
53.113882171640697
 21
44.619036003487395
  0
LINE
  8
_0-3______1
  6
CONTINUOUS
 62
    7
 10
53.162058386906466
 20
57.279300268985509
 11
53.162058386906466
 21
56.989719322877306
  0
LINE
  8
_0-3______1
  6
CONTINUOUS
 62
    7
 10
53.162058386906466
 20
59.418821698572152
 11
53.162058386906466
 21
59.724374107349888
  0
LINE
  8
_0-3______1
  6
CONTINUOUS
 62
    7
 10
53.210234602172193
 20
44.152590745357429
 11
53.210234602172193
 21
44.474245530433329
  0
LINE
  8
_0-3______1
  6
CONTINUOUS
 62
    7
 10
53.242439354768329
 20
59.306105064485749
 11
53.242439354768329
 21
59.418821698572152
  0
LINE
  8
_0-3______1
  6
CONTINUOUS
 62
    7
 10
53.612401268738324
 20
43.895214551845392
 11
53.612401268738324
 21
44.152590745357429
  0
LINE
  8
_0-3______1
  6
CONTINUOUS
 62
    7
 10
53.886010752176858
 20
57.47226695730533
 11
53.886010752176858
 21
57.166714548527494
  0
LINE
  8
_0-3______1
  6
CONTINUOUS
 62
    7
 10
53.886010752176858
 20
58.276600290437528
 11
53.886010752176858
 21
58.807455053759696
  0
LINE
  8
_0-3______1
  6
CONTINUOUS
 62
    7
 10
53.886010752176858
 20
59.595686010593887
 11
53.886010752176858
 21
59.901369333000119
  0
LINE
  8
_0-3______1
  6
CONTINUOUS
 62
    7
 10
53.998596472634802
 20
60.818288386590325
 11
53.998596472634802
 21
60.754009795026519
  0
LINE
  8
_0-3______1
  6
CONTINUOUS
 62
    7
 10
54.01456793530447
 20
43.203466939171072
 11
54.01456793530447
 21
43.525121724246958
  0
LINE
  8
_0-3______1
  6
CONTINUOUS
 62
    7
 10
33.87402985440206
 20
8.745821711240362
 11
34.260225058298602
 21
9.1157836252103817
  0
LINE
  8
_0-3______1
  6
CONTINUOUS
 62
    7
 10
33.890263144328593
 20
8.745821711240362
 11
34.276196520968199
 21
9.0996812489123027
  0
LINE
  8
_0-3______1
  6
CONTINUOUS
 62
    7
 10
33.101901273865984
 20
37.910890768619247
 11
32.796348865088177
 21
37.830509800757461
  0
LINE
  8
_0-3______1
  6
CONTINUOUS
 62
    7
 10
33.021520306004099
 20
37.991271736481131
 11
32.619353639437968
 21
37.878686016023117
  0
LINE
  8
_0-3______1
  6
CONTINUOUS
 62
    7
 10
51.939325097281568
 20
42.913885993062934
 11
53.821601246984613
 21
43.396433627490957
  0
LINE
  8
_0-3______1
  6
CONTINUOUS
 62
    7
 10
32.796348865088177
 20
38.200471714727442
 11
32.619353639437968
 21
38.13606220953519
  0
LINE
  8
_0-3______1
  6
CONTINUOUS
 62
    7
 10
33.021520306004099
 20
39.053112176753878
 11
32.876729832950033
 21
38.988702671561605
  0
LINE
  8
_0-3______1
  6
CONTINUOUS
 62
    7
 10
33.182282241727798
 20
39.133493144615656
 11
33.005548843334502
 21
39.085186015721547
  0
LINE
  8
_0-3______1
  6
CONTINUOUS
 62
    7
 10
48.368263140709089
 20
43.106852681382748
 11
48.014272689408685
 21
43.026471713520941
  0
LINE
  8
_0-3______1
  6
CONTINUOUS
 62
    7
 10
33.246691746920042
 20
39.326590746563944
 11
33.118134563792431
 21
39.310488370265894
  0
LINE
  8
_0-3______1
  6
CONTINUOUS
 62
    7
 10
50.250277463155264
 20
43.927288390813089
 11
48.609406044294623
 21
43.509019347948914
  0
LINE
  8
_0-3______1
  6
CONTINUOUS
 62
    7
 10
45.778267915662099
 20
42.913885993062934
 11
47.547696517650344
 21
43.36422887489482
  0
LINE
  8
_0-3______1
  6
CONTINUOUS
 62
    7
 10
34.903534628450267
 20
40.533090746262303
 11
33.407715509900576
 21
40.227407423856093
  0
LINE
  8
_0-3______1
  6
CONTINUOUS
 62
    7
 10
37.670525079147396
 20
39.439176467021866
 11
37.010982219069263
 21
39.310488370265894
  0
LINE
  8
_0-3______1
  6
CONTINUOUS
 62
    7
 10
49.478148882619124
 20
49.139352679874683
 11
49.381534624830763
 21
48.544219324988738
  0
LINE
  8
_0-3______1
  6
CONTINUOUS
 62
    7
 10
49.445944130022987
 20
49.975890765603047
 11
49.478148882619124
 21
49.139352679874683
  0
LINE
  8
_0-3______1
  6
CONTINUOUS
 62
    7
 10
48.979367958264646
 20
52.421095517595859
 11
49.445944130022987
 21
49.975890765603047
  0
LINE
  8
_0-3______1
  6
CONTINUOUS
 62
    7
 10
54.465172644393149
 20
60.30353599956625
 11
54.465172644393149
 21
60.271331246970078
  0
LINE
  8
_0-3______1
  6
CONTINUOUS
 62
    7
 10
54.465172644393149
 20
59.885266956702019
 11
54.465172644393149
 21
59.643993139488025
  0
LINE
  8
_0-3______1
  6
CONTINUOUS
 62
    7
 10
54.465172644393149
 20
57.874433623871461
 11
54.465172644393149
 21
57.826257408605649
  0
LINE
  8
_0-3______1
  6
CONTINUOUS
 62
    7
 10
54.465172644393149
 20
57.440062204709193
 11
54.465172644393149
 21
57.359681236847329
  0
LINE
  8
_0-3______1
  6
CONTINUOUS
 62
    7
 10
54.641906042786495
 20
60.22315503170438
 11
54.641906042786495
 21
59.933574085596234
  0
LINE
  8
_0-3______1
  6
CONTINUOUS
 62
    7
 10
54.641906042786495
 20
57.794052656009619
 11
54.641906042786495
 21
57.488369333603373
  0
LINE
  8
_0-3______1
  6
CONTINUOUS
 62
    7
 10
54.722548837905222
 20
60.560912193078252
 11
54.722548837905222
 21
60.384047881056517
  0
LINE
  8
_0-3______1
  6
CONTINUOUS
 62
    7
 10
54.722548837905222
 20
57.311505021581596
 11
54.722548837905222
 21
57.102305043335292
  0
LINE
  8
_0-3______1
  6
CONTINUOUS
 62
    7
 10
55.01186795675649
 20
58.019224096925534
 11
55.01186795675649
 21
59.643993139488025
  0
LINE
  8
_0-3______1
  6
CONTINUOUS
 62
    7
 10
43.284886948403518
 20
43.895214551845392
 11
45.038344087722088
 21
44.361659809975301
  0
LINE
  8
_0-3______1
  6
CONTINUOUS
 62
    7
 10
42.786106024049033
 20
43.830805046653175
 11
43.043482217561113
 21
43.895214551845392
  0
LINE
  8
_0-3______1
  6
CONTINUOUS
 62
    7
 10
40.550101250302532
 20
43.863009799249305
 11
41.451048841223098
 21
44.088181240165248
  0
LINE
  8
_0-3______1
  6
CONTINUOUS
 62
    7
 10
38.056720283043873
 20
44.040005024899521
 11
38.796644110983884
 21
43.846907422951254
  0
LINE
  8
_0-3______1
  6
CONTINUOUS
 62
    7
 10
40.421282239918057
 20
43.428638380087015
 11
40.66268697076049
 21
43.36422887489482
  0
LINE
  8
_0-3______1
  6
CONTINUOUS
 62
    7
 10
39.069991767165561
 20
44.63513837978536
 11
38.90922983144192
 21
44.69954788497764
  0
LINE
  8
_0-3______1
  6
CONTINUOUS
 62
    7
 10
48.368263140709089
 20
43.106852681382748
 11
48.609406044294623
 21
43.042574089818949
  0
LINE
  8
_0-3______1
  6
CONTINUOUS
 62
    7
 10
47.628339312769064
 20
43.36422887489482
 11
47.853510753685008
 21
43.299950283331022
  0
LINE
  8
_0-3______1
  6
CONTINUOUS
 62
    7
 10
46.293020302686259
 20
43.750424078791298
 11
46.534425033528656
 21
43.686014573599088
  0
LINE
  8
_0-3______1
  6
CONTINUOUS
 62
    7
 10
43.590439357181353
 20
44.667343132381539
 11
43.831844088023729
 21
44.602933627189316
  0
LINE
  8
_0-3______1
  6
CONTINUOUS
 62
    7
 10
46.485986991006065
 20
53.193224098132021
 11
47.596134560172935
 21
50.474540776329036
  0
LINE
  8
_0-3______1
  6
CONTINUOUS
 62
    7
 10
48.921532628024593
 20
51.756697463044624
 11
47.917658431620367
 21
54.061966936456521
  0
LINE
  8
_0-3______1
  6
CONTINUOUS
 62
    7
 10
49.365563162161095
 20
50.490643152627115
 11
48.921532628024593
 21
51.756697463044624
  0
LINE
  8
_0-3______1
  6
CONTINUOUS
 62
    7
 10
50.009134559569659
 20
56.490938398522829
 11
50.12172028002766
 21
57.118407419633378
  0
LINE
  8
_0-3______1
  6
CONTINUOUS
 62
    7
 10
50.065308779322933
 20
55.666021630012644
 11
50.009134559569659
 21
56.490938398522829
  0
LINE
  8
_0-3______1
  6
CONTINUOUS
 62
    7
 10
50.12172028002766
 20
55.155750302068476
 11
50.065308779322933
 21
55.666021630012644
  0
LINE
  8
_0-3______1
  6
CONTINUOUS
 62
    7
 10
50.53985840926341
 20
53.209326474430135
 11
50.12172028002766
 21
55.155750302068476
  0
LINE
  8
_0-3______1
  6
CONTINUOUS
 62
    7
 10
38.265658434033369
 20
1.3459288636980205
 11
38.137101250905737
 21
1.1850360143458942
  0
LINE
  8
_0-3______1
  6
CONTINUOUS
 62
    7
 10
38.024515530447829
 20
1.0402455412918357
 11
37.895696520063339
 21
0.863381229270027
  0
LINE
  8
_0-3______1
  6
CONTINUOUS
 62
    7
 10
30.769282242331066
 20
10.193595528152722
 11
30.688901274469217
 21
9.8397359904808024
  0
LINE
  8
_0-3______1
  6
CONTINUOUS
 62
    7
 10
31.010686973173474
 20
10.386562216472534
 11
30.769282242331066
 21
10.193595528152722
  0
LINE
  8
_0-3______1
  6
CONTINUOUS
 62
    7
 10
31.010686973173474
 20
10.386562216472534
 11
31.943839316690159
 21
10.69224553887882
  0
LINE
  8
_0-3______1
  6
CONTINUOUS
 62
    7
 10
48.609406044294623
 20
46.613766960019909
 11
49.767729828727248
 21
46.90334790612809
  0
LINE
  8
_0-3______1
  6
CONTINUOUS
 62
    7
 10
43.284886948403518
 20
45.37506220772547
 11
43.20450598054174
 21
45.342988368757737
  0
LINE
  8
_0-3______1
  6
CONTINUOUS
 62
    7
 10
38.523034627545357
 20
44.474245530433329
 11
39.038048841826367
 21
44.619036003487395
  0
LINE
  8
_0-3______1
  6
CONTINUOUS
 62
    7
 10
37.783110799605332
 20
44.63513837978536
 11
38.86105361617615
 21
44.908616949595533
  0
LINE
  8
_0-3______1
  6
CONTINUOUS
 62
    7
 10
41.097058389922744
 20
45.729052659025818
 11
40.099758368470674
 21
45.48777884181186
  0
LINE
  8
_0-3______1
  6
CONTINUOUS
 62
    7
 10
49.333358409565079
 20
48.528116948690688
 11
48.480848861167026
 21
48.302945507774744
  0
LINE
  8
_0-3______1
  6
CONTINUOUS
 62
    7
 10
37.622348863881676
 20
46.308214551242145
 11
37.39717742296574
 21
46.356390766507879
  0
LINE
  8
_0-3______1
  6
CONTINUOUS
 62
    7
 10
45.231310776041894
 20
44.361659809975301
 11
45.440510754288219
 21
44.297250304783113
  0
LINE
  8
_0-3______1
  6
CONTINUOUS
 62
    7
 10
48.738225054679106
 20
43.476945508981238
 11
50.974229828425614
 21
42.913885993062934
  0
LINE
  8
_0-3______1
  6
CONTINUOUS
 62
    7
 10
43.20450598054174
 20
45.342988368757737
 11
43.091658432826854
 21
45.37506220772547
  0
LINE
  8
_0-3______1
  6
CONTINUOUS
 62
    7
 10
53.821601246984613
 20
43.653809821002959
 11
53.499815548280324
 21
43.734321702493219
  0
LINE
  8
_0-3______1
  6
CONTINUOUS
 62
    7
 10
52.888448903467932
 20
43.927288390813089
 11
52.759891720340335
 21
43.975595519707213
  0
LINE
  8
_0-3______1
  6
CONTINUOUS
 62
    7
 10
52.759891720340335
 20
44.216869336921242
 11
52.695482215148132
 21
44.232971713219321
  0
LINE
  8
_0-3______1
  6
CONTINUOUS
 62
    7
 10
52.888448903467932
 20
44.2490740895173
 11
52.824301225532579
 21
44.281278842113458
  0
LINE
  8
_0-3______1
  6
CONTINUOUS
 62
    7
 10
46.669769267216488
 20
57.357953938988935
 11
46.598572711464008
 21
58.09960506478734
  0
LINE
  8
_0-3______1
  6
CONTINUOUS
 62
    7
 10
46.852950806545209
 20
56.646766370240655
 11
46.669769267216488
 21
57.357953938988935
  0
LINE
  8
_0-3______1
  6
CONTINUOUS
 62
    7
 10
47.917658431620367
 20
54.061966936456521
 11
46.852950806545209
 21
56.646766370240655
  0
LINE
  8
_0-3______1
  6
CONTINUOUS
 62
    7
 10
47.917658431620367
 20
48.898078862660661
 11
47.370701292000149
 21
48.753288389606602
  0
LINE
  8
_0-3______1
  6
CONTINUOUS
 62
    7
 10
38.442653659683543
 20
46.517283615860016
 11
37.236153659985135
 21
46.227702669751899
  0
LINE
  8
_0-3______1
  6
CONTINUOUS
 62
    7
 10
37.043186971665328
 20
46.195497917155755
 11
37.46132510090105
 21
46.308214551242145
  0
LINE
  8
_0-3______1
  6
CONTINUOUS
 62
    7
 10
49.075982216052964
 20
49.541519346440758
 11
47.209939356276458
 21
49.058971712012806
  0
LINE
  8
_0-3______1
  6
CONTINUOUS
 62
    7
 10
43.20450598054174
 20
50.185090743849308
 11
43.783406045501124
 21
50.361955055871114
  0
LINE
  8
_0-3______1
  6
CONTINUOUS
 62
    7
 10
45.746063163066047
 20
49.316347905524815
 11
43.622644109777376
 21
49.863305045145047
  0
LINE
  8
_0-3______1
  6
CONTINUOUS
 62
    7
 10
43.622644109777376
 20
50.185090743849308
 11
45.746063163066047
 21
49.638133604229097
  0
LINE
  8
_0-3______1
  6
CONTINUOUS
 62
    7
 10
44.217777464663349
 20
50.361955055871114
 11
46.341196517951907
 21
49.782924077283234
  0
LINE
  8
_0-3______1
  6
CONTINUOUS
 62
    7
 10
52.775863183009989
 20
56.330176462799152
 11
52.582896494690203
 21
56.297971710203029
  0
LINE
  8
_0-3______1
  6
CONTINUOUS
 62
    7
 10
54.722548837905222
 20
57.102305043335292
 11
52.775863183009989
 21
56.619757408907276
  0
LINE
  8
_0-3______1
  6
CONTINUOUS
 62
    7
 10
48.545258366359292
 20
61.140074085294593
 11
48.400467893305219
 21
61.365245526210543
  0
LINE
  8
_0-3______1
  6
CONTINUOUS
 62
    7
 10
48.593434581625026
 20
61.413552655104723
 11
48.673815549486839
 21
61.284864558348659
  0
LINE
  8
_0-3______1
  6
CONTINUOUS
 62
    7
 10
38.265658434033369
 20
1.3459288636980205
 11
38.249686971363758
 21
1.3137241111018854
  0
LINE
  8
_0-3______1
  6
CONTINUOUS
 62
    7
 10
52.582896494690203
 20
56.764547881961363
 11
54.722287010648358
 21
57.311374107953185
  0
LINE
  8
_0-3______1
  6
CONTINUOUS
 62
    7
 10
52.518486989497916
 20
56.764547881961363
 11
52.695482215148132
 21
56.812724097227125
  0
LINE
  8
_0-3______1
  6
CONTINUOUS
 62
    7
 10
53.886010752176858
 20
57.166714548527494
 11
53.162058386906466
 21
56.989719322877306
  0
LINE
  8
_0-3______1
  6
CONTINUOUS
 62
    7
 10
54.465172644393149
 20
57.359681236847329
 11
53.886010752176858
 21
57.2309931400913
  0
LINE
  8
_0-3______1
  6
CONTINUOUS
 62
    7
 10
52.952858408660205
 20
56.989719322877306
 11
52.695482215148132
 21
56.925309817685118
  0
LINE
  8
_0-3______1
  6
CONTINUOUS
 62
    7
 10
54.641906042786495
 20
57.488369333603373
 11
53.886010752176858
 21
57.311374107953185
  0
LINE
  8
_0-3______1
  6
CONTINUOUS
 62
    7
 10
53.886010752176858
 20
57.47226695730533
 11
53.162058386906466
 21
57.279300268985509
  0
LINE
  8
_0-3______1
  6
CONTINUOUS
 62
    7
 10
53.628634558664807
 20
57.53667646249751
 11
54.641906042786495
 21
57.794052656009619
  0
LINE
  8
_0-3______1
  6
CONTINUOUS
 62
    7
 10
52.052172644996432
 20
57.118407419633378
 11
51.826739376823653
 21
57.070100290739163
  0
LINE
  8
_0-3______1
  6
CONTINUOUS
 62
    7
 10
51.601567935907703
 20
57.005821699175364
 11
51.714153656365625
 21
57.037895538143061
  0
LINE
  8
_0-3______1
  6
CONTINUOUS
 62
    7
 10
53.001034623925854
 20
57.424090742039596
 11
52.888448903467932
 21
57.407988365741545
  0
LINE
  8
_0-3______1
  6
CONTINUOUS
 62
    7
 10
52.341491763847728
 20
57.279300268985509
 11
52.824301225532579
 21
57.407988365741545
  0
LINE
  8
_0-3______1
  6
CONTINUOUS
 62
    7
 10
53.001034623925854
 20
57.47226695730533
 11
54.465172644393149
 21
57.826257408605649
  0
LINE
  8
_0-3______1
  6
CONTINUOUS
 62
    7
 10
55.01186795675649
 20
58.019224096925534
 11
53.001034623925854
 21
57.488369333603373
  0
LINE
  8
_0-3______1
  6
CONTINUOUS
 62
    7
 10
51.987763139804159
 20
57.424090742039596
 11
51.746358408961754
 21
57.359681236847329
  0
LINE
  8
_0-3______1
  6
CONTINUOUS
 62
    7
 10
50.153925032623803
 20
57.150612172229437
 11
50.395067936209344
 21
57.198788387495199
  0
LINE
  8
_0-3______1
  6
CONTINUOUS
 62
    7
 10
52.052172644996432
 20
57.938843129063663
 11
51.826739376823653
 21
57.874433623871461
  0
LINE
  8
_0-3______1
  6
CONTINUOUS
 62
    7
 10
51.601567935907703
 20
57.810155032307676
 11
51.714153656365625
 21
57.858331247573403
  0
LINE
  8
_0-3______1
  6
CONTINUOUS
 62
    7
 10
51.987763139804159
 20
58.244395537841484
 11
51.746358408961754
 21
58.164014569979578
  0
LINE
  8
_0-3______1
  6
CONTINUOUS
 62
    7
 10
53.886010752176858
 20
58.807455053759696
 11
53.001034623925854
 21
58.566181236545759
  0
LINE
  8
_0-3______1
  6
CONTINUOUS
 62
    7
 10
50.942025075829555
 20
58.164014569979578
 11
51.167196516745413
 21
58.244395537841484
  0
LINE
  8
_0-3______1
  6
CONTINUOUS
 62
    7
 10
52.052172644996432
 20
58.743176462195862
 11
51.826739376823653
 21
58.678766957003688
  0
LINE
  8
_0-3______1
  6
CONTINUOUS
 62
    7
 10
51.746358408961754
 20
57.359681236847329
 11
51.424572710257486
 21
57.359681236847329
  0
LINE
  8
_0-3______1
  6
CONTINUOUS
 62
    7
 10
52.100348860262187
 20
60.207052655406301
 11
51.971529849877697
 21
60.44832647262033
  0
LINE
  8
_0-3______1
  6
CONTINUOUS
 62
    7
 10
52.148525075527914
 20
60.480531225216424
 11
52.22890604338977
 21
60.367814591130042
  0
LINE
  8
_0-3______1
  6
CONTINUOUS
 62
    7
 10
51.746358408961754
 20
58.984450279409863
 11
50.716853634913619
 21
58.550078860247652
  0
LINE
  8
_0-3______1
  6
CONTINUOUS
 62
    7
 10
47.709122098535389
 20
59.742868150351143
 11
47.081382173148853
 21
59.418821698572152
  0
LINE
  8
_0-3______1
  6
CONTINUOUS
 62
    7
 10
48.191267915058894
 20
59.901369333000119
 11
47.709122098535389
 21
59.742868150351143
  0
LINE
  8
_0-3______1
  6
CONTINUOUS
 62
    7
 10
53.001034623925854
 20
59.048728870973676
 11
52.888448903467932
 21
59.032757408304093
  0
LINE
  8
_0-3______1
  6
CONTINUOUS
 62
    7
 10
55.01186795675649
 20
59.643993139488025
 11
52.888448903467932
 21
59.097035999867892
  0
LINE
  8
_0-3______1
  6
CONTINUOUS
 62
    7
 10
50.877615570637253
 20
58.662664580705602
 11
51.006434581021743
 21
58.678766957003688
  0
LINE
  8
_0-3______1
  6
CONTINUOUS
 62
    7
 10
48.513053613763169
 20
58.035326473223613
 11
48.271648882920765
 21
57.970916968031339
  0
LINE
  8
_0-3______1
  6
CONTINUOUS
 62
    7
 10
48.046477442004829
 20
57.906638376467527
 11
48.159063162462736
 21
57.954945505361735
  0
LINE
  8
_0-3______1
  6
CONTINUOUS
 62
    7
 10
52.518486989497916
 20
59.113138376165864
 11
53.45163933301459
 21
59.354412193379886
  0
LINE
  8
_0-3______1
  6
CONTINUOUS
 62
    7
 10
53.628634558664807
 20
59.418821698572152
 11
54.770725053170956
 21
59.692300268382226
  0
LINE
  8
_0-3______1
  6
CONTINUOUS
 62
    7
 10
51.987763139804159
 20
59.048728870973676
 11
51.746358408961754
 21
58.984450279409863
  0
LINE
  8
_0-3______1
  6
CONTINUOUS
 62
    7
 10
48.770429807275249
 20
58.196219322575672
 11
48.866782237806646
 21
58.244395537841484
  0
LINE
  8
_0-3______1
  6
CONTINUOUS
 62
    7
 10
53.242439354768329
 20
59.418821698572152
 11
53.45163933301459
 21
59.450895537539829
  0
LINE
  8
_0-3______1
  6
CONTINUOUS
 62
    7
 10
51.247839311864134
 20
58.887966935250034
 11
51.054610796287498
 21
58.839659806355819
  0
LINE
  8
_0-3______1
  6
CONTINUOUS
 62
    7
 10
53.886010752176858
 20
59.595686010593887
 11
53.162058386906466
 21
59.418821698572152
  0
LINE
  8
_0-3______1
  6
CONTINUOUS
 62
    7
 10
53.886010752176858
 20
59.72450502097837
 11
54.641906042786495
 21
59.933574085596234
  0
LINE
  8
_0-3______1
  6
CONTINUOUS
 62
    7
 10
48.432672645901299
 20
58.341009795629816
 11
48.191267915058894
 21
58.276600290437528
  0
LINE
  8
_0-3______1
  6
CONTINUOUS
 62
    7
 10
49.960696517047069
 20
58.82355743005774
 11
49.719553613461514
 21
58.759147924865545
  0
LINE
  8
_0-3______1
  6
CONTINUOUS
 62
    7
 10
53.886010752176858
 20
59.901369333000119
 11
53.162058386906466
 21
59.724374107349888
  0
LINE
  8
_0-3______1
  6
CONTINUOUS
 62
    7
 10
46.598572711464008
 20
58.083633602117743
 11
46.824005979636787
 21
58.13180981738347
  0
LINE
  8
_0-3______1
  6
CONTINUOUS
 62
    7
 10
52.518486989497916
 20
59.660095515786104
 11
52.695482215148132
 21
59.724374107349888
  0
LINE
  8
_0-3______1
  6
CONTINUOUS
 62
    7
 10
53.628634558664807
 20
59.965778838192364
 11
54.641906042786495
 21
60.22315503170438
  0
LINE
  8
_0-3______1
  6
CONTINUOUS
 62
    7
 10
52.052172644996432
 20
59.563612171626232
 11
51.826739376823653
 21
59.499202666433945
  0
LINE
  8
_0-3______1
  6
CONTINUOUS
 62
    7
 10
54.465172644393149
 20
60.271331246970078
 11
52.695482215148132
 21
59.82098836513822
  0
LINE
  8
_0-3______1
  6
CONTINUOUS
 62
    7
 10
52.582896494690203
 20
59.837090741436306
 11
54.722287010648358
 21
60.384047881056517
  0
LINE
  8
_0-3______1
  6
CONTINUOUS
 62
    7
 10
48.513053613763169
 20
58.871864558951941
 11
48.271648882920765
 21
58.807455053759696
  0
LINE
  8
_0-3______1
  6
CONTINUOUS
 62
    7
 10
48.046477442004829
 20
58.743176462195862
 11
48.159063162462736
 21
58.791352677461674
  0
LINE
  8
_0-3______1
  6
CONTINUOUS
 62
    7
 10
51.987763139804159
 20
59.837090741436306
 11
51.746358408961754
 21
59.772681236244104
  0
LINE
  8
_0-3______1
  6
CONTINUOUS
 62
    7
 10
54.722548837905222
 20
60.560912193078252
 11
52.775863183009989
 21
60.078364558650314
  0
LINE
  8
_0-3______1
  6
CONTINUOUS
 62
    7
 10
48.432672645901299
 20
59.145343128762022
 11
48.191267915058894
 21
59.097035999867892
  0
LINE
  8
_0-3______1
  6
CONTINUOUS
 62
    7
 10
52.582896494690203
 20
60.287433623268186
 11
52.775863183009989
 21
60.319638375864308
  0
LINE
  8
_0-3______1
  6
CONTINUOUS
 62
    7
 10
50.314686968347459
 20
59.72450502097837
 11
49.445944130022987
 21
59.499202666433945
  0
LINE
  8
_0-3______1
  6
CONTINUOUS
 62
    7
 10
52.808067935606033
 20
60.512605064184122
 11
52.454339311562585
 21
60.432224096322244
  0
LINE
  8
_0-3______1
  6
CONTINUOUS
 62
    7
 10
53.901982214846456
 20
60.786214547622649
 11
53.998596472634802
 21
60.818288386590325
  0
LINE
  8
_0-3______1
  6
CONTINUOUS
 62
    7
 10
52.22890604338977
 20
60.367945504758438
 11
52.438106021636045
 21
60.432224096322244
  0
LINE
  8
_0-3______1
  6
CONTINUOUS
 62
    7
 10
52.808067935606033
 20
60.625321698270511
 11
52.180729828124029
 21
60.44832647262033
  0
LINE
  8
_0-3______1
  6
CONTINUOUS
 62
    7
 10
51.971529849877697
 20
60.44832647262033
 11
52.148525075527914
 21
60.480531225216424
  0
LINE
  8
_0-3______1
  6
CONTINUOUS
 62
    7
 10
53.628634558664807
 20
60.91477173075026
 11
52.647305999882398
 21
60.673497913536266
  0
LINE
  8
_0-3______1
  6
CONTINUOUS
 62
    7
 10
52.035939355069956
 20
60.528838354110647
 11
52.598867957359793
 21
60.673497913536266
  0
LINE
  8
_0-3______1
  6
CONTINUOUS
 62
    7
 10
48.513053613763169
 20
59.660095515786104
 11
48.271648882920765
 21
59.595686010593887
  0
LINE
  8
_0-3______1
  6
CONTINUOUS
 62
    7
 10
49.445944130022987
 20
59.981881214490443
 11
49.317386946895475
 21
59.933574085596234
  0
LINE
  8
_0-3______1
  6
CONTINUOUS
 62
    7
 10
51.247839311864134
 20
60.512605064184122
 11
49.317386946895475
 21
59.99785267716004
  0
LINE
  8
_0-3______1
  6
CONTINUOUS
 62
    7
 10
48.947425032925459
 20
60.046159806054163
 11
49.88031554918517
 21
60.271331246970078
  0
LINE
  8
_0-3______1
  6
CONTINUOUS
 62
    7
 10
50.073282237505069
 20
60.319638375864308
 11
51.199401269341557
 21
60.625321698270511
  0
LINE
  8
_0-3______1
  6
CONTINUOUS
 62
    7
 10
51.247839311864134
 20
60.625321698270511
 11
51.424572710257486
 21
60.689600289834317
  0
LINE
  8
_0-3______1
  6
CONTINUOUS
 62
    7
 10
48.432672645901299
 20
59.965778838192364
 11
48.191267915058894
 21
59.901369333000119
  0
LINE
  8
_0-3______1
  6
CONTINUOUS
 62
    7
 10
49.703320323535067
 20
60.319638375864308
 11
49.88031554918517
 21
60.384047881056517
  0
LINE
  8
_0-3______1
  6
CONTINUOUS
 62
    7
 10
50.314686968347459
 20
60.528838354110647
 11
49.606967893003606
 21
60.35184312846043
  0
LINE
  8
_0-3______1
  6
CONTINUOUS
 62
    7
 10
48.191267915058894
 20
58.276600290437528
 11
47.885715506281088
 21
58.292702666735615
  0
LINE
  8
_0-3______1
  6
CONTINUOUS
 62
    7
 10
51.746358408961754
 20
58.164014569979578
 11
50.732825097583202
 21
58.13180981738347
  0
LINE
  8
_0-3______1
  6
CONTINUOUS
 62
    7
 10
47.338758366660883
 20
59.097035999867892
 11
47.193967893606803
 21
59.048728870973676
  0
LINE
  8
_0-3______1
  6
CONTINUOUS
 62
    7
 10
48.191267915058894
 20
59.097035999867892
 11
47.338758366660883
 21
59.097035999867892
  0
LINE
  8
_0-3______1
  6
CONTINUOUS
 62
    7
 10
50.781263140105793
 20
57.826257408605649
 11
51.826739376823653
 21
57.874433623871461
  0
LINE
  8
_0-3______1
  6
CONTINUOUS
 62
    7
 10
47.505028966328929
 20
58.806696627259186
 11
48.271648882920765
 21
58.807455053759696
  0
LINE
  8
_0-3______1
  6
CONTINUOUS
 62
    7
 10
47.209939356276458
 20
58.743176462195862
 11
47.505028966328929
 21
58.806696627259186
  0
LINE
  8
_0-3______1
  6
CONTINUOUS
 62
    7
 10
53.162058386906466
 20
56.989719322877306
 11
52.518486989497916
 21
56.941412193983176
  0
LINE
  8
_0-3______1
  6
CONTINUOUS
 62
    7
 10
52.518486989497916
 20
57.247095516389379
 11
53.162058386906466
 21
57.279300268985509
  0
LINE
  8
_0-3______1
  6
CONTINUOUS
 62
    7
 10
42.496525077940909
 20
0.5254931542676616
 11
41.097058389922744
 21
0.0750193588074069
  0
LINE
  8
_0-3______1
  6
CONTINUOUS
 62
    7
 10
50.314686968347459
 20
60.657395537238159
 11
51.103048838810082
 21
60.850493139186462
  0
LINE
  8
_0-3______1
  6
CONTINUOUS
 62
    7
 10
46.421839313070656
 20
59.756578859946046
 11
46.180434582228258
 21
59.692300268382226
  0
LINE
  8
_0-3______1
  6
CONTINUOUS
 62
    7
 10
50.314686968347459
 20
60.818288386590325
 11
49.606967893003606
 21
60.625321698270511
  0
LINE
  8
_0-3______1
  6
CONTINUOUS
 62
    7
 10
48.947425032925459
 20
60.593116945674389
 11
49.156363183914827
 21
60.625321698270511
  0
LINE
  8
_0-3______1
  6
CONTINUOUS
 62
    7
 10
50.073282237505069
 20
60.866595515484505
 11
51.103048838810082
 21
61.140074085294593
  0
LINE
  8
_0-3______1
  6
CONTINUOUS
 62
    7
 10
48.513053613763169
 20
60.480531225216424
 11
48.271648882920765
 21
60.432224096322244
  0
LINE
  8
_0-3______1
  6
CONTINUOUS
 62
    7
 10
50.893848860563821
 20
61.172278837890715
 11
49.156363183914827
 21
60.737907418728462
  0
LINE
  8
_0-3______1
  6
CONTINUOUS
 62
    7
 10
49.027806000787237
 20
60.754009795026519
 11
51.167196516745413
 21
61.300966934646709
  0
LINE
  8
_0-3______1
  6
CONTINUOUS
 62
    7
 10
48.432672645901299
 20
60.770112171324605
 11
48.191267915058894
 21
60.705702666132368
  0
LINE
  8
_0-3______1
  6
CONTINUOUS
 62
    7
 10
51.167196516745413
 20
61.49393362296653
 11
49.220772689107037
 21
60.995283612240542
  0
LINE
  8
_0-3______1
  6
CONTINUOUS
 62
    7
 10
49.027806000787237
 20
61.204352676858392
 11
49.220772689107037
 21
61.236557429454535
  0
LINE
  8
_0-3______1
  6
CONTINUOUS
 62
    7
 10
49.252977441703173
 20
61.413552655104723
 11
48.898986990402783
 21
61.333040773614385
  0
LINE
  8
_0-3______1
  6
CONTINUOUS
 62
    7
 10
50.330658431017056
 20
61.703133601212869
 11
50.459477441401532
 21
61.751309816478603
  0
LINE
  8
_0-3______1
  6
CONTINUOUS
 62
    7
 10
48.690048839413343
 20
61.300966934646709
 11
48.866782237806646
 21
61.333040773614385
  0
LINE
  8
_0-3______1
  6
CONTINUOUS
 62
    7
 10
49.252977441703173
 20
61.542240751860732
 11
48.609406044294623
 21
61.381347902508608
  0
LINE
  8
_0-3______1
  6
CONTINUOUS
 62
    7
 10
48.400467893305219
 20
61.365245526210543
 11
48.593434581625026
 21
61.413552655104723
  0
LINE
  8
_0-3______1
  6
CONTINUOUS
 62
    7
 10
50.073282237505069
 20
61.847924074266928
 11
49.075982216052964
 21
61.574445504456882
  0
LINE
  8
_0-3______1
  6
CONTINUOUS
 62
    7
 10
48.480848861167026
 20
61.445757407700796
 11
49.060010753383374
 21
61.574445504456882
  0
LINE
  8
_0-3______1
  6
CONTINUOUS
 62
    7
 10
47.676515528034827
 20
61.542240751860732
 11
47.885715506281088
 21
61.606519343424559
  0
LINE
  8
_0-3______1
  6
CONTINUOUS
 62
    7
 10
53.162058386906466
 20
59.418821698572152
 11
52.518486989497916
 21
59.370514569677972
  0
LINE
  8
_0-3______1
  6
CONTINUOUS
 62
    7
 10
52.518486989497916
 20
59.660095515786104
 11
53.162058386906466
 21
59.724374107349888
  0
LINE
  8
_0-3______1
  6
CONTINUOUS
 62
    7
 10
49.606967893003606
 20
60.35184312846043
 11
48.947425032925459
 21
60.30353599956625
  0
LINE
  8
_0-3______1
  6
CONTINUOUS
 62
    7
 10
51.360425032322169
 20
57.070100290739163
 11
51.826739376823653
 21
57.070100290739163
  0
LINE
  8
_0-3______1
  6
CONTINUOUS
 62
    7
 10
47.805072711162367
 20
58.003121720627455
 11
48.271648882920765
 21
57.970916968031339
  0
LINE
  8
_0-3______1
  6
CONTINUOUS
 62
    7
 10
47.676515528034827
 20
57.568881215093668
 11
48.448644108570896
 21
57.359681236847329
  0
LINE
  8
_0-3______1
  6
CONTINUOUS
 62
    7
 10
51.247839311864134
 20
56.635728871576873
 11
52.582896494690203
 21
56.297971710203029
  0
LINE
  8
_0-3______1
  6
CONTINUOUS
 62
    7
 10
52.582896494690203
 20
56.764547881961363
 11
52.518486989497916
 21
56.764547881961363
  0
LINE
  8
_0-3______1
  6
CONTINUOUS
 62
    7
 10
52.212934580720109
 20
56.861031226121305
 11
51.601567935907703
 21
57.005821699175364
  0
LINE
  8
_0-3______1
  6
CONTINUOUS
 62
    7
 10
48.593434581625026
 20
57.794052656009619
 11
48.046477442004829
 21
57.906638376467527
  0
LINE
  8
_0-3______1
  6
CONTINUOUS
 62
    7
 10
52.212934580720109
 20
56.925309817685118
 11
51.714153656365625
 21
57.037895538143061
  0
LINE
  8
_0-3______1
  6
CONTINUOUS
 62
    7
 10
48.609406044294623
 20
57.826257408605649
 11
48.159063162462736
 21
57.954945505361735
  0
LINE
  8
_0-3______1
  6
CONTINUOUS
 62
    7
 10
52.518486989497916
 20
57.247095516389379
 11
52.341491763847728
 21
57.279300268985509
  0
LINE
  8
_0-3______1
  6
CONTINUOUS
 62
    7
 10
48.834839312467423
 20
58.196219322575672
 11
48.770429807275249
 21
58.196219322575672
  0
LINE
  8
_0-3______1
  6
CONTINUOUS
 62
    7
 10
48.046477442004829
 20
58.582283612843746
 11
48.64161079689076
 21
58.421390763491701
  0
LINE
  8
_0-3______1
  6
CONTINUOUS
 62
    7
 10
51.601567935907703
 20
57.649262182955546
 11
52.212934580720109
 21
57.488369333603373
  0
LINE
  8
_0-3______1
  6
CONTINUOUS
 62
    7
 10
52.888448903467932
 20
57.407988365741545
 11
52.518486989497916
 21
57.488369333603373
  0
LINE
  8
_0-3______1
  6
CONTINUOUS
 62
    7
 10
49.027806000787237
 20
58.405288387193607
 11
48.947425032925459
 21
58.421390763491701
  0
LINE
  8
_0-3______1
  6
CONTINUOUS
 62
    7
 10
52.212934580720109
 20
57.649262182955546
 11
51.601567935907703
 21
57.810155032307676
  0
LINE
  8
_0-3______1
  6
CONTINUOUS
 62
    7
 10
48.64161079689076
 20
58.582283612843746
 11
48.046477442004829
 21
58.743176462195862
  0
LINE
  8
_0-3______1
  6
CONTINUOUS
 62
    7
 10
52.212934580720109
 20
57.713671688147713
 11
51.714153656365625
 21
57.858331247573403
  0
LINE
  8
_0-3______1
  6
CONTINUOUS
 62
    7
 10
48.64161079689076
 20
58.646562204407545
 11
48.159063162462736
 21
58.791352677461674
  0
LINE
  8
_0-3______1
  6
CONTINUOUS
 62
    7
 10
53.628634558664807
 20
57.53667646249751
 11
53.886010752176858
 21
57.47226695730533
  0
LINE
  8
_0-3______1
  6
CONTINUOUS
 62
    7
 10
50.893848860563821
 20
58.292702666735615
 11
51.167196516745413
 21
58.244395537841484
  0
LINE
  8
_0-3______1
  6
CONTINUOUS
 62
    7
 10
54.465172644393149
 20
57.359681236847329
 11
54.722287010648358
 21
57.311374107953185
  0
LINE
  8
_0-3______1
  6
CONTINUOUS
 62
    7
 10
48.046477442004829
 20
59.386616945976016
 11
48.64161079689076
 21
59.225724096623878
  0
LINE
  8
_0-3______1
  6
CONTINUOUS
 62
    7
 10
51.601567935907703
 20
58.485800268683874
 11
52.212934580720109
 21
58.292702666735615
  0
LINE
  8
_0-3______1
  6
CONTINUOUS
 62
    7
 10
50.958258365756016
 20
58.743176462195862
 11
51.054610796287498
 21
58.727074085897904
  0
LINE
  8
_0-3______1
  6
CONTINUOUS
 62
    7
 10
54.465172644393149
 20
57.826257408605649
 11
54.641906042786495
 21
57.794052656009619
  0
LINE
  8
_0-3______1
  6
CONTINUOUS
 62
    7
 10
52.212934580720109
 20
58.485800268683874
 11
51.601567935907703
 21
58.630590741737961
  0
LINE
  8
_0-3______1
  6
CONTINUOUS
 62
    7
 10
48.64161079689076
 20
59.386616945976016
 11
48.046477442004829
 21
59.531407419030103
  0
LINE
  8
_0-3______1
  6
CONTINUOUS
 62
    7
 10
52.212934580720109
 20
58.550078860247652
 11
51.730386946292164
 21
58.662664580705602
  0
LINE
  8
_0-3______1
  6
CONTINUOUS
 62
    7
 10
48.64161079689076
 20
59.450895537539829
 11
48.159063162462736
 21
59.579714547924283
  0
LINE
  8
_0-3______1
  6
CONTINUOUS
 62
    7
 10
47.885715506281088
 20
58.292702666735615
 11
47.193967893606803
 21
58.630590741737961
  0
LINE
  8
_0-3______1
  6
CONTINUOUS
 62
    7
 10
51.424572710257486
 20
57.359681236847329
 11
50.765029850179346
 21
57.713540774519316
  0
LINE
  8
_0-3______1
  6
CONTINUOUS
 62
    7
 10
47.081382173148853
 20
58.341009795629816
 11
47.805072711162367
 21
58.003121720627455
  0
LINE
  8
_0-3______1
  6
CONTINUOUS
 62
    7
 10
50.652444129721324
 20
57.424090742039596
 11
51.360425032322169
 21
57.070100290739163
  0
LINE
  8
_0-3______1
  6
CONTINUOUS
 62
    7
 10
48.947425032925459
 20
60.593116945674389
 11
49.606967893003606
 21
60.625321698270511
  0
LINE
  8
_0-3______1
  6
CONTINUOUS
 62
    7
 10
48.046477442004829
 20
60.207052655406301
 11
48.64161079689076
 21
60.046159806054163
  0
LINE
  8
_0-3______1
  6
CONTINUOUS
 62
    7
 10
51.601567935907703
 20
59.27403122551803
 11
52.212934580720109
 21
59.113138376165864
  0
LINE
  8
_0-3______1
  6
CONTINUOUS
 62
    7
 10
52.888448903467932
 20
59.032757408304093
 11
52.518486989497916
 21
59.113138376165864
  0
LINE
  8
_0-3______1
  6
CONTINUOUS
 62
    7
 10
49.317386946895475
 20
59.933574085596234
 11
48.947425032925459
 21
60.046159806054163
  0
LINE
  8
_0-3______1
  6
CONTINUOUS
 62
    7
 10
49.317386946895475
 20
59.99785267716004
 11
49.445944130022987
 21
59.981750300861961
  0
LINE
  8
_0-3______1
  6
CONTINUOUS
 62
    7
 10
52.888448903467932
 20
59.097035999867892
 11
53.001034623925854
 21
59.048728870973676
  0
LINE
  8
_0-3______1
  6
CONTINUOUS
 62
    7
 10
52.212934580720109
 20
59.27403122551803
 11
51.665977441099976
 21
59.418821698572152
  0
LINE
  8
_0-3______1
  6
CONTINUOUS
 62
    7
 10
48.64161079689076
 20
60.207052655406301
 11
48.094653657270548
 21
60.35184312846043
  0
LINE
  8
_0-3______1
  6
CONTINUOUS
 62
    7
 10
52.212934580720109
 20
59.338309817081928
 11
51.730386946292164
 21
59.450895537539829
  0
LINE
  8
_0-3______1
  6
CONTINUOUS
 62
    7
 10
48.64161079689076
 20
60.271331246970078
 11
48.191267915058894
 21
60.384047881056517
  0
LINE
  8
_0-3______1
  6
CONTINUOUS
 62
    7
 10
48.770429807275249
 20
60.35184312846043
 11
48.947425032925459
 21
60.30353599956625
  0
LINE
  8
_0-3______1
  6
CONTINUOUS
 62
    7
 10
52.341491763847728
 20
59.418821698572152
 11
52.518486989497916
 21
59.370514569677972
  0
LINE
  8
_0-3______1
  6
CONTINUOUS
 62
    7
 10
53.45163933301459
 20
59.354412193379886
 11
53.242439354768329
 21
59.418821698572152
  0
LINE
  8
_0-3______1
  6
CONTINUOUS
 62
    7
 10
49.88031554918517
 20
60.271331246970078
 11
49.703320323535067
 21
60.319638375864308
  0
LINE
  8
_0-3______1
  6
CONTINUOUS
 62
    7
 10
49.88031554918517
 20
60.384047881056517
 11
50.073282237505069
 21
60.319638375864308
  0
LINE
  8
_0-3______1
  6
CONTINUOUS
 62
    7
 10
53.45163933301459
 20
59.450895537539829
 11
53.628634558664807
 21
59.418821698572152
  0
LINE
  8
_0-3______1
  6
CONTINUOUS
 62
    7
 10
48.046477442004829
 20
60.995283612240542
 11
48.64161079689076
 21
60.850493139186462
  0
LINE
  8
_0-3______1
  6
CONTINUOUS
 62
    7
 10
48.947425032925459
 20
60.770112171324605
 11
49.027806000787237
 21
60.754009795026519
  0
LINE
  8
_0-3______1
  6
CONTINUOUS
 62
    7
 10
51.601567935907703
 20
60.078364558650314
 11
52.212934580720109
 21
59.933574085596234
  0
LINE
  8
_0-3______1
  6
CONTINUOUS
 62
    7
 10
52.518486989497916
 20
59.837090741436306
 11
52.582896494690203
 21
59.837090741436306
  0
LINE
  8
_0-3______1
  6
CONTINUOUS
 62
    7
 10
50.073282237505069
 20
60.866595515484505
 11
50.314686968347459
 21
60.818288386590325
  0
LINE
  8
_0-3______1
  6
CONTINUOUS
 62
    7
 10
53.628634558664807
 20
59.965778838192364
 11
53.886010752176858
 21
59.901369333000119
  0
LINE
  8
_0-3______1
  6
CONTINUOUS
 62
    7
 10
51.199401269341557
 20
60.625321698270511
 11
51.247839311864134
 21
60.609219321972461
  0
LINE
  8
_0-3______1
  6
CONTINUOUS
 62
    7
 10
54.770725053170956
 20
59.692300268382226
 11
55.01186795675649
 21
59.643993139488025
  0
LINE
  8
_0-3______1
  6
CONTINUOUS
 62
    7
 10
47.676515528034827
 20
61.542240751860732
 11
48.400467893305219
 21
61.365245526210543
  0
LINE
  8
_0-3______1
  6
CONTINUOUS
 62
    7
 10
48.690048839413343
 20
61.300966934646709
 11
49.027806000787237
 21
61.204352676858392
  0
LINE
  8
_0-3______1
  6
CONTINUOUS
 62
    7
 10
51.247839311864134
 20
60.625321698270511
 11
51.971529849877697
 21
60.44832647262033
  0
LINE
  8
_0-3______1
  6
CONTINUOUS
 62
    7
 10
52.22890604338977
 20
60.367945504758438
 11
52.582896494690203
 21
60.287433623268186
  0
LINE
  8
_0-3______1
  6
CONTINUOUS
 62
    7
 10
52.775863183009989
 20
60.319638375864308
 11
52.438106021636045
 21
60.432224096322244
  0
LINE
  8
_0-3______1
  6
CONTINUOUS
 62
    7
 10
52.148525075527914
 20
60.480531225216424
 11
51.424572710257486
 21
60.689600289834317
  0
LINE
  8
_0-3______1
  6
CONTINUOUS
 62
    7
 10
49.220772689107037
 20
61.236557429454535
 11
48.866782237806646
 21
61.333040773614385
  0
LINE
  8
_0-3______1
  6
CONTINUOUS
 62
    7
 10
48.593434581625026
 20
61.413552655104723
 11
47.885715506281088
 21
61.606519343424559
  0
LINE
  8
_0-3______1
  6
CONTINUOUS
 62
    7
 10
49.060010753383374
 20
61.574445504456882
 11
49.252977441703173
 21
61.542240751860732
  0
LINE
  8
_0-3______1
  6
CONTINUOUS
 62
    7
 10
52.598867957359793
 20
60.673497913536266
 11
52.808067935606033
 21
60.625321698270511
  0
LINE
  8
_0-3______1
  6
CONTINUOUS
 62
    7
 10
50.893848860563821
 20
61.172278837890715
 11
51.103048838810082
 21
61.140074085294593
  0
LINE
  8
_0-3______1
  6
CONTINUOUS
 62
    7
 10
54.465172644393149
 20
60.271331246970078
 11
54.641906042786495
 21
60.22315503170438
  0
LINE
  8
_0-3______1
  6
CONTINUOUS
 62
    7
 10
54.722548837905222
 20
60.560912193078252
 11
53.901982214846456
 21
60.786214547622649
  0
LINE
  8
_0-3______1
  6
CONTINUOUS
 62
    7
 10
51.167196516745413
 20
61.49393362296653
 11
50.330658431017056
 21
61.703133601212869
  0
LINE
  8
_0-3______1
  6
CONTINUOUS
 62
    7
 10
50.073282237505069
 20
61.847924074266928
 11
50.459477441401532
 21
61.751309816478603
  0
LINE
  8
_0-3______1
  6
CONTINUOUS
 62
    7
 10
53.628634558664807
 20
60.91477173075026
 11
53.998596472634802
 21
60.818288386590325
  0
LINE
  8
_0-3______1
  6
CONTINUOUS
 62
    7
 10
38.072691745713541
 20
1.7803002828602361
 11
38.008282240521282
 21
1.4102074552618262
  0
LINE
  8
_0-3______1
  6
CONTINUOUS
 62
    7
 10
37.895696520063339
 20
1.8445788744240248
 11
37.831548842128008
 21
1.4746169604540342
  0
LINE
  8
_0-3______1
  6
CONTINUOUS
 62
    7
 10
37.60611557395513
 20
1.4102074552618262
 11
37.60611557395513
 21
1.5549979283158963
  0
LINE
  8
_0-3______1
  6
CONTINUOUS
 62
    7
 10
37.60611557395513
 20
1.4102074552618262
 11
37.60611557395513
 21
1.2976217348038119
  0
LINE
  8
_0-3______1
  6
CONTINUOUS
 62
    7
 10
39.263220282742317
 20
2.809805056908397
 11
39.504363186327851
 21
2.809805056908397
  0
LINE
  8
_0-3______1
  6
CONTINUOUS
 62
    7
 10
36.576610799906966
 20
0.477186025373544
 11
36.850220283345543
 21
0.4610836490754763
  0
LINE
  8
_0-3______1
  6
CONTINUOUS
 62
    7
 10
31.84722505890181
 20
1.7158907776680508
 11
32.007986994625568
 21
1.6516121861042337
  0
LINE
  8
_0-3______1
  6
CONTINUOUS
 62
    7
 10
31.589848865389804
 20
1.9571645948820446
 11
31.84722505890181
 21
1.7158907776680508
  0
LINE
  8
_0-3______1
  6
CONTINUOUS
 62
    7
 10
31.509467897527955
 20
2.3111550461823755
 11
31.589848865389804
 21
1.9571645948820446
  0
LINE
  8
_0-3______1
  6
CONTINUOUS
 62
    7
 10
38.265658434033369
 20
1.3137241111018854
 11
38.314096476555953
 21
1.3137241111018854
  0
LINE
  8
_0-3______1
  6
CONTINUOUS
 62
    7
 10
41.016677422060866
 20
0.0750193588074069
 11
41.097058389922744
 21
0.0750193588074069
  0
LINE
  8
_0-3______1
  6
CONTINUOUS
 62
    7
 10
33.101901273865984
 20
37.766100295565188
 11
33.101901273865984
 21
37.894788392321182
  0
LINE
  8
_0-3______1
  6
CONTINUOUS
 62
    7
 10
32.844525080353904
 20
38.457847908239458
 11
32.796348865088177
 21
38.087885994269456
  0
LINE
  8
_0-3______1
  6
CONTINUOUS
 62
    7
 10
32.667529854703709
 20
38.506155037133652
 11
32.619353639437968
 21
38.13606220953519
  0
LINE
  8
_0-3______1
  6
CONTINUOUS
 62
    7
 10
32.394182198522024
 20
38.071783617971377
 11
32.394182198522024
 21
38.216574091025457
  0
LINE
  8
_0-3______1
  6
CONTINUOUS
 62
    7
 10
32.394182198522024
 20
38.071783617971377
 11
32.394182198522024
 21
37.959197897513427
  0
LINE
  8
_0-3______1
  6
CONTINUOUS
 62
    7
 10
35.193115574558412
 20
40.500885993666223
 11
34.903534628450267
 21
40.533090746262303
  0
LINE
  8
_0-3______1
  6
CONTINUOUS
 62
    7
 10
31.557644112793685
 20
36.366633607547023
 11
31.509467897527955
 21
36.060950285140756
  0
LINE
  8
_0-3______1
  6
CONTINUOUS
 62
    7
 10
31.702434585847744
 20
36.575702672164887
 11
31.557644112793685
 21
36.366633607547023
  0
LINE
  8
_0-3______1
  6
CONTINUOUS
 62
    7
 10
31.91163456409409
 20
36.688288392622837
 11
31.702434585847744
 21
36.575702672164887
  0
LINE
  8
_0-3______1
  6
CONTINUOUS
 62
    7
 10
34.276196520968199
 20
38.763531230645661
 11
34.228020305702479
 21
38.538228876101343
  0
LINE
  8
_0-3______1
  6
CONTINUOUS
 62
    7
 10
34.646158434938208
 20
39.053112176753878
 11
34.276196520968199
 21
38.763531230645661
  0
LINE
  8
_0-3______1
  6
CONTINUOUS
 62
    7
 10
34.228020305702479
 20
38.538228876101343
 11
34.195815553106307
 21
38.425643155643314
  0
LINE
  8
_0-3______1
  6
CONTINUOUS
 62
    7
 10
33.069696521269854
 20
37.991271736481131
 11
33.101901273865984
 21
37.991271736481131
  0
LINE
  8
_0-3______1
  6
CONTINUOUS
 62
    7
 10
33.407715509900576
 20
40.227407423856093
 11
33.311101252112238
 21
40.179100294961962
  0
LINE
  8
_0-3______1
  6
CONTINUOUS
 62
    7
 10
38.314096476555953
 20
1.2333431432400233
 11
38.314096476555953
 21
1.3781336162940931
  0
LINE
  8
_0-3______1
  6
CONTINUOUS
 62
    7
 10
38.314096476555953
 20
1.2333431432400233
 11
38.314096476555953
 21
1.1046550464840323
  0
LINE
  8
_0-3______1
  6
CONTINUOUS
 62
    7
 10
42.834282239314796
 20
0.7667669714816725
 11
42.946867959772796
 21
1.1689336380478152
  0
LINE
  8
_0-3______1
  6
CONTINUOUS
 62
    7
 10
42.496525077940909
 20
0.5254931542676616
 11
42.834282239314796
 21
0.7667669714816725
  0
LINE
  8
_0-3______1
  6
CONTINUOUS
 62
    7
 10
33.101901273865984
 20
37.894788392321182
 11
33.101901273865984
 21
38.039578865375248
  0
LINE
  8
_0-3______1
  6
CONTINUOUS
 62
    7
 10
52.695482215148132
 20
44.232971713219321
 11
52.759891720340335
 21
44.2490740895173
  0
LINE
  8
_0-3______1
  6
CONTINUOUS
 62
    7
 10
52.824301225532579
 20
45.133788390511477
 11
52.518486989497916
 21
45.262476487267442
  0
LINE
  8
_0-3______1
  6
CONTINUOUS
 62
    7
 10
51.360425032322169
 20
45.262476487267442
 11
51.054610796287498
 21
45.133788390511477
  0
LINE
  8
_0-3______1
  6
CONTINUOUS
 62
    7
 10
52.196701290793648
 20
45.342988368757737
 11
51.665977441099976
 21
45.342988368757737
  0
LINE
  8
_0-3______1
  6
CONTINUOUS
 62
    7
 10
52.438106021636045
 20
45.021202670053448
 11
52.357725053774153
 21
45.005100293755483
  0
LINE
  8
_0-3______1
  6
CONTINUOUS
 62
    7
 10
52.438106021636045
 20
45.021202670053448
 11
52.518486989497916
 21
45.037305046351527
  0
LINE
  8
_0-3______1
  6
CONTINUOUS
 62
    7
 10
52.357725053774153
 20
45.310783616161665
 11
52.196701290793648
 21
45.342988368757737
  0
LINE
  8
_0-3______1
  6
CONTINUOUS
 62
    7
 10
51.505215505376214
 20
45.310783616161665
 11
51.360425032322169
 21
45.262476487267442
  0
LINE
  8
_0-3______1
  6
CONTINUOUS
 62
    7
 10
51.665977441099976
 20
45.342988368757737
 11
51.505215505376214
 21
45.310783616161665
  0
LINE
  8
_0-3______1
  6
CONTINUOUS
 62
    7
 10
52.518486989497916
 20
45.262476487267442
 11
52.357725053774153
 21
45.310783616161665
  0
LINE
  8
_0-3______1
  6
CONTINUOUS
 62
    7
 10
42.786106024049033
 20
38.425643155643314
 11
42.448348862675189
 21
38.618740757591581
  0
LINE
  8
_0-3______1
  6
CONTINUOUS
 62
    7
 10
42.898691744507033
 20
38.248647929993105
 11
42.786106024049033
 21
38.425643155643314
  0
LINE
  8
_0-3______1
  6
CONTINUOUS
 62
    7
 10
42.946867959772796
 20
37.975300273811534
 11
42.898691744507033
 21
38.248647929993105
  0
LINE
  8
_0-3______1
  6
CONTINUOUS
 62
    7
 10
43.140096475349466
 20
49.81499791625091
 11
43.156067938019063
 21
49.831100292548967
  0
LINE
  8
_0-3______1
  6
CONTINUOUS
 62
    7
 10
43.284886948403518
 20
49.863305045145047
 11
43.156067938019063
 21
49.831100292548967
  0
LINE
  8
_0-3______1
  6
CONTINUOUS
 62
    7
 10
43.526029851989051
 20
0.3968050575116649
 11
44.346596475047797
 21
0.6219764984276026
  0
LINE
  8
_0-3______1
  6
CONTINUOUS
 62
    7
 10
42.383939357482966
 20
0.4932884016716059
 11
42.786106024049033
 21
0.3968050575116649
  0
LINE
  8
_0-3______1
  6
CONTINUOUS
 62
    7
 10
44.813172646806144
 20
7.539321711542005
 11
45.520891722150104
 21
7.7161860235637336
  0
LINE
  8
_0-3______1
  6
CONTINUOUS
 62
    7
 10
45.987467893908445
 20
10.611864571016955
 11
47.901686968950763
 21
11.094412205444861
  0
LINE
  8
_0-3______1
  6
CONTINUOUS
 62
    7
 10
47.901686968950763
 20
17.577385999397087
 11
45.987467893908445
 21
17.078605075042613
  0
LINE
  8
_0-3______1
  6
CONTINUOUS
 62
    7
 10
35.289729832346758
 20
40.468681241070122
 11
35.289729832346758
 21
45.809433626887689
  0
LINE
  8
_0-3______1
  6
CONTINUOUS
 62
    7
 10
35.450491768070485
 20
45.729052659025818
 11
35.450491768070485
 21
48.656805045446653
  0
LINE
  8
_0-3______1
  6
CONTINUOUS
 62
    7
 10
38.169306003501895
 20
46.468976486965801
 11
38.169306003501895
 21
46.790762185670097
  0
LINE
  8
_0-3______1
  6
CONTINUOUS
 62
    7
 10
42.786106024049033
 20
46.581562207423815
 11
42.786106024049033
 21
43.830805046653175
  0
LINE
  8
_0-3______1
  6
CONTINUOUS
 62
    7
 10
43.526029851989051
 20
46.581562207423815
 11
43.526029851989051
 21
45.133788390511477
  0
LINE
  8
_0-3______1
  6
CONTINUOUS
 62
    7
 10
43.526029851989051
 20
3.6463431426368063
 11
43.526029851989051
 21
15.309176473054363
  0
LINE
  8
_0-3______1
  6
CONTINUOUS
 62
    7
 10
44.813172646806144
 20
1.3942359925921666
 11
44.813172646806144
 21
7.539321711542005
  0
LINE
  8
_0-3______1
  6
CONTINUOUS
 62
    7
 10
45.778267915662099
 20
42.769095520008868
 11
45.778267915662099
 21
43.750424078791298
  0
LINE
  8
_0-3______1
  6
CONTINUOUS
 62
    7
 10
45.987467893908445
 20
8.5045478940264427
 11
45.987467893908445
 21
10.611864571016955
  0
LINE
  8
_0-3______1
  6
CONTINUOUS
 62
    7
 10
45.987467893908445
 20
17.078605075042613
 11
45.987467893908445
 21
36.366633607547023
  0
LINE
  8
_0-3______1
  6
CONTINUOUS
 62
    7
 10
46.244844087420439
 20
45.182095519405607
 11
46.244844087420439
 21
44.216869336921242
  0
LINE
  8
_0-3______1
  6
CONTINUOUS
 62
    7
 10
45.987467893908445
 20
36.366633607547023
 11
50.974229828425614
 21
37.653514575107245
  0
LINE
  8
_0-3______1
  6
CONTINUOUS
 62
    7
 10
48.014272689408685
 20
42.881681240466811
 11
48.014272689408685
 21
43.042574089818949
  0
LINE
  8
_0-3______1
  6
CONTINUOUS
 62
    7
 10
48.368263140709089
 20
11.866540785981023
 11
48.368263140709089
 21
17.03042885977688
  0
LINE
  8
_0-3______1
  6
CONTINUOUS
 62
    7
 10
48.609406044294623
 20
47.900778841208592
 11
48.609406044294623
 21
44.828105068105266
  0
LINE
  8
_0-3______1
  6
CONTINUOUS
 62
    7
 10
51.44080600018404
 20
38.425643155643314
 11
51.44080600018404
 21
41.755562208630344
  0
LINE
  8
_0-3______1
  6
CONTINUOUS
 62
    7
 10
51.939325097281568
 20
42.592100294358687
 11
53.821601246984613
 21
43.074778842415071
  0
LINE
  8
_0-3______1
  6
CONTINUOUS
 62
    7
 10
52.824301225532579
 20
42.592100294358687
 11
52.824301225532579
 21
42.817271735274623
  0
LINE
  8
_0-3______1
  6
CONTINUOUS
 62
    7
 10
48.609406044294623
 20
43.042574089818949
 11
48.014272689408685
 21
42.881681240466811
  0
LINE
  8
_0-3______1
  6
CONTINUOUS
 62
    7
 10
45.778267915662099
 20
42.769095520008868
 11
47.77286795856628
 21
43.299950283331022
  0
LINE
  8
_0-3______1
  6
CONTINUOUS
 62
    7
 10
46.72739172184847
 20
43.686014573599088
 11
48.143091699793139
 21
44.055976487569119
  0
LINE
  8
_0-3______1
  6
CONTINUOUS
 62
    7
 10
43.526029851989051
 20
43.830805046653175
 11
45.279486991307706
 21
44.297381218411509
  0
LINE
  8
_0-3______1
  6
CONTINUOUS
 62
    7
 10
43.992606023747399
 20
44.602933627189316
 11
46.244844087420439
 21
45.182095519405607
  0
LINE
  8
_0-3______1
  6
CONTINUOUS
 62
    7
 10
37.847520304797605
 20
43.975595519707213
 11
38.780672648314294
 21
43.734321702493219
  0
LINE
  8
_0-3______1
  6
CONTINUOUS
 62
    7
 10
48.738225054679106
 20
43.155159810276928
 11
50.974229828425614
 21
42.592100294358687
  0
LINE
  8
_0-3______1
  6
CONTINUOUS
 62
    7
 10
38.523034627545357
 20
44.602933627189316
 11
38.90922983144192
 21
44.69954788497764
  0
LINE
  8
_0-3______1
  6
CONTINUOUS
 62
    7
 10
40.421282239918057
 20
46.227702669751899
 11
37.831548842128008
 21
46.887245529830047
  0
LINE
  8
_0-3______1
  6
CONTINUOUS
 62
    7
 10
37.075391724261458
 20
46.340288390209821
 11
37.220182197315509
 21
46.356390766507879
  0
LINE
  8
_0-3______1
  6
CONTINUOUS
 62
    7
 10
49.075982216052964
 20
49.847202668846968
 11
47.032944130626269
 21
49.316347905524815
  0
LINE
  8
_0-3______1
  6
CONTINUOUS
 62
    7
 10
46.132258366962525
 20
49.091176464608871
 11
45.987467893908445
 21
49.058971712012806
  0
LINE
  8
_0-3______1
  6
CONTINUOUS
 62
    7
 10
43.493825099392929
 20
49.89550979774117
 11
43.156067938019063
 21
49.782924077283234
  0
LINE
  8
_0-3______1
  6
CONTINUOUS
 62
    7
 10
42.448348862675189
 20
49.975890765603047
 11
43.043482217561113
 21
50.136783614955164
  0
LINE
  8
_0-3______1
  6
CONTINUOUS
 62
    7
 10
35.675925036243306
 20
49.058971712012806
 11
44.33036318512135
 21
51.3110788620574
  0
LINE
  8
_0-3______1
  6
CONTINUOUS
 62
    7
 10
48.239444130324628
 20
48.463838357126882
 11
45.987467893908445
 21
49.058971712012806
  0
LINE
  8
_0-3______1
  6
CONTINUOUS
 62
    7
 10
43.156067938019063
 20
49.782924077283234
 11
42.448348862675189
 21
49.975890765603047
  0
LINE
  8
_0-3______1
  6
CONTINUOUS
 62
    7
 10
44.459182195505825
 20
51.3110788620574
 11
49.075982216052964
 21
50.104578862359041
  0
LINE
  8
_0-3______1
  6
CONTINUOUS
 62
    7
 10
37.590144111285539
 20
46.517283615860016
 11
37.236153659985135
 21
46.645971712616017
  0
LINE
  8
_0-3______1
  6
CONTINUOUS
 62
    7
 10
38.169306003501895
 20
46.468976486965801
 11
37.590144111285539
 21
46.517283615860016
  0
LINE
  8
_0-3______1
  6
CONTINUOUS
 62
    7
 10
37.477558390827618
 20
46.887245529830047
 11
38.169306003501895
 21
46.790762185670097
  0
LINE
  8
_0-3______1
  6
CONTINUOUS
 62
    7
 10
53.210234602172193
 20
44.474245530433329
 11
53.113882171640697
 21
44.602933627189316
  0
LINE
  8
_0-3______1
  6
CONTINUOUS
 62
    7
 10
50.765029850179346
 20
44.602933627189316
 11
50.652444129721324
 21
44.474245530433329
  0
LINE
  8
_0-3______1
  6
CONTINUOUS
 62
    7
 10
53.08167741904461
 20
43.991697896005292
 11
52.888448903467932
 21
43.927288390813089
  0
LINE
  8
_0-3______1
  6
CONTINUOUS
 62
    7
 10
53.210234602172193
 20
44.152590745357429
 11
53.08167741904461
 21
43.991697896005292
  0
LINE
  8
_0-3______1
  6
CONTINUOUS
 62
    7
 10
50.716853634913619
 20
44.03987411127104
 11
50.652444129721324
 21
44.152590745357429
  0
LINE
  8
_0-3______1
  6
CONTINUOUS
 62
    7
 10
50.893848860563821
 20
43.943390767111204
 11
50.716853634913619
 21
44.03987411127104
  0
LINE
  8
_0-3______1
  6
CONTINUOUS
 62
    7
 10
51.328220279726033
 20
43.846907422951254
 11
50.893848860563821
 21
43.943390767111204
  0
LINE
  8
_0-3______1
  6
CONTINUOUS
 62
    7
 10
51.986023124771464
 20
43.812630209495637
 11
51.328220279726033
 21
43.846907422951254
  0
LINE
  8
_0-3______1
  6
CONTINUOUS
 62
    7
 10
52.759891720340335
 20
43.911186014515032
 11
51.986023124771464
 21
43.812630209495637
  0
LINE
  8
_0-3______1
  6
CONTINUOUS
 62
    7
 10
52.405901269039965
 20
44.152590745357429
 11
52.759891720340335
 21
44.216869336921242
  0
LINE
  8
_0-3______1
  6
CONTINUOUS
 62
    7
 10
51.328220279726033
 20
44.168562208027026
 11
52.405901269039965
 21
44.152590745357429
  0
LINE
  8
_0-3______1
  6
CONTINUOUS
 62
    7
 10
50.78365138694619
 20
44.321302967295367
 11
51.328220279726033
 21
44.168562208027026
  0
LINE
  8
_0-3______1
  6
CONTINUOUS
 62
    7
 10
50.652444129721324
 20
44.474245530433329
 11
50.78365138694619
 21
44.321302967295367
  0
LINE
  8
_0-3______1
  6
CONTINUOUS
 62
    7
 10
53.113882171640697
 20
44.329455057379164
 11
53.210234602172193
 21
44.474245530433329
  0
LINE
  8
_0-3______1
  6
CONTINUOUS
 62
    7
 10
52.888448903467932
 20
44.2490740895173
 11
53.113882171640697
 21
44.329455057379164
  0
LINE
  8
_0-3______1
  6
CONTINUOUS
 62
    7
 10
38.23371550869409
 20
2.4237407666403841
 11
38.024515530447829
 21
2.3111550461823755
  0
LINE
  8
_0-3______1
  6
CONTINUOUS
 62
    7
 10
38.49109170220617
 20
0.4932884016716059
 11
38.732234605791703
 21
0.4932884016716059
  0
LINE
  8
_0-3______1
  6
CONTINUOUS
 62
    7
 10
39.102196519761698
 20
0.6380788747256759
 11
38.90922983144192
 21
0.5415955305657235
  0
LINE
  8
_0-3______1
  6
CONTINUOUS
 62
    7
 10
39.263220282742317
 20
0.863381229270027
 11
39.102196519761698
 21
0.6380788747256759
  0
LINE
  8
_0-3______1
  6
CONTINUOUS
 62
    7
 10
39.343953080980604
 20
1.2237332647023722
 11
39.263220282742317
 21
0.863381229270027
  0
LINE
  8
_0-3______1
  6
CONTINUOUS
 62
    7
 10
39.311396498008037
 20
1.6836860250718872
 11
39.343953080980604
 21
1.2237332647023722
  0
LINE
  8
_0-3______1
  6
CONTINUOUS
 62
    7
 10
39.150634562284289
 20
2.0537788526703653
 11
39.311396498008037
 21
1.6836860250718872
  0
LINE
  8
_0-3______1
  6
CONTINUOUS
 62
    7
 10
38.941434584038049
 20
2.3111550461823755
 11
39.150634562284289
 21
2.0537788526703653
  0
LINE
  8
_0-3______1
  6
CONTINUOUS
 62
    7
 10
38.635882175260214
 20
2.4720478955345015
 11
38.941434584038049
 21
2.3111550461823755
  0
LINE
  8
_0-3______1
  6
CONTINUOUS
 62
    7
 10
38.394477444417838
 20
2.4720478955345015
 11
38.635882175260214
 21
2.4720478955345015
  0
LINE
  8
_0-3______1
  6
CONTINUOUS
 62
    7
 10
38.539267917471896
 20
2.4076383903423224
 11
38.23371550869409
 21
2.4237407666403841
  0
LINE
  8
_0-3______1
  6
CONTINUOUS
 62
    7
 10
38.90922983144192
 20
2.1502621968302438
 11
38.539267917471896
 21
2.4076383903423224
  0
LINE
  8
_0-3______1
  6
CONTINUOUS
 62
    7
 10
39.150634562284289
 20
1.6194074335081041
 11
38.90922983144192
 21
2.1502621968302438
  0
LINE
  8
_0-3______1
  6
CONTINUOUS
 62
    7
 10
39.150634562284289
 20
0.9437621971319004
 11
39.150634562284289
 21
1.6194074335081041
  0
LINE
  8
_0-3______1
  6
CONTINUOUS
 62
    7
 10
38.957406046707646
 20
0.6219764984276026
 11
39.150634562284289
 21
0.9437621971319004
  0
LINE
  8
_0-3______1
  6
CONTINUOUS
 62
    7
 10
38.732234605791703
 20
0.4932884016716059
 11
38.957406046707646
 21
0.6219764984276026
  0
LINE
  8
_0-3______1
  6
CONTINUOUS
 62
    7
 10
37.155772692123314
 20
46.501181239561959
 11
37.847520304797605
 21
46.356390766507879
  0
LINE
  8
_0-3______1
  6
CONTINUOUS
 62
    7
 10
33.005548843334502
 20
39.085186015721547
 11
32.828553617684314
 21
38.988702671561605
  0
LINE
  8
_0-3______1
  6
CONTINUOUS
 62
    7
 10
33.294867962185798
 20
37.154864564381178
 11
33.504067940432058
 21
37.154864564381178
  0
LINE
  8
_0-3______1
  6
CONTINUOUS
 62
    7
 10
33.922467896924722
 20
37.347831252700978
 11
33.665091703412649
 21
37.219143155944984
  0
LINE
  8
_0-3______1
  6
CONTINUOUS
 62
    7
 10
34.083229832648399
 20
37.621309822511115
 11
33.922467896924722
 21
37.347831252700978
  0
LINE
  8
_0-3______1
  6
CONTINUOUS
 62
    7
 10
34.124164376459738
 20
37.995971203344126
 11
34.083229832648399
 21
37.621309822511115
  0
LINE
  8
_0-3______1
  6
CONTINUOUS
 62
    7
 10
34.088431060510736
 20
38.322557135010705
 11
34.124164376459738
 21
37.995971203344126
  0
LINE
  8
_0-3______1
  6
CONTINUOUS
 62
    7
 10
33.922467896924722
 20
38.747428854347682
 11
34.088431060510736
 21
38.322557135010705
  0
LINE
  8
_0-3______1
  6
CONTINUOUS
 62
    7
 10
33.713267918678405
 20
38.988702671561605
 11
33.922467896924722
 21
38.747428854347682
  0
LINE
  8
_0-3______1
  6
CONTINUOUS
 62
    7
 10
33.375510757304518
 20
39.149595520913735
 11
33.713267918678405
 21
38.988702671561605
  0
LINE
  8
_0-3______1
  6
CONTINUOUS
 62
    7
 10
33.182282241727798
 20
39.133493144615656
 11
33.375510757304518
 21
39.149595520913735
  0
LINE
  8
_0-3______1
  6
CONTINUOUS
 62
    7
 10
33.294867962185798
 20
39.085186015721547
 11
33.005548843334502
 21
39.085186015721547
  0
LINE
  8
_0-3______1
  6
CONTINUOUS
 62
    7
 10
33.592990055719227
 20
38.892329558051166
 11
33.294867962185798
 21
39.085186015721547
  0
LINE
  8
_0-3______1
  6
CONTINUOUS
 62
    7
 10
33.7776774238706
 20
38.666916972857344
 11
33.592990055719227
 21
38.892329558051166
  0
LINE
  8
_0-3______1
  6
CONTINUOUS
 62
    7
 10
33.954672649520788
 20
38.152164585833262
 11
33.7776774238706
 21
38.666916972857344
  0
LINE
  8
_0-3______1
  6
CONTINUOUS
 62
    7
 10
33.954672649520788
 20
37.733895542969051
 11
33.954672649520788
 21
38.152164585833262
  0
LINE
  8
_0-3______1
  6
CONTINUOUS
 62
    7
 10
33.84182510180591
 20
37.412240757893223
 11
33.954672649520788
 21
37.733895542969051
  0
LINE
  8
_0-3______1
  6
CONTINUOUS
 62
    7
 10
33.504067940432058
 20
37.154864564381178
 11
33.84182510180591
 21
37.412240757893223
  0
LINE
  8
_0-3______1
  6
CONTINUOUS
 62
    7
 10
38.072691745713541
 20
2.4880193582041956
 11
37.927901272659476
 21
2.262847917288167
  0
LINE
  8
_0-3______1
  6
CONTINUOUS
 62
    7
 10
38.362272691821673
 20
2.6328098312582657
 11
38.072691745713541
 21
2.4880193582041956
  0
LINE
  8
_0-3______1
  6
CONTINUOUS
 62
    7
 10
38.700029853195566
 20
2.6972193364504564
 11
38.474858412279708
 21
2.6650145838543269
  0
LINE
  8
_0-3______1
  6
CONTINUOUS
 62
    7
 10
38.90922983144192
 20
2.6328098312582657
 11
38.700029853195566
 21
2.6972193364504564
  0
LINE
  8
_0-3______1
  6
CONTINUOUS
 62
    7
 10
39.327367960677634
 20
2.2467455409901902
 11
38.90922983144192
 21
2.6328098312582657
  0
LINE
  8
_0-3______1
  6
CONTINUOUS
 62
    7
 10
39.536567938923987
 20
1.7803002828602361
 11
39.327367960677634
 21
2.2467455409901902
  0
LINE
  8
_0-3______1
  6
CONTINUOUS
 62
    7
 10
39.585005981446578
 20
1.3137241111018854
 11
39.536567938923987
 21
1.7803002828602361
  0
LINE
  8
_0-3______1
  6
CONTINUOUS
 62
    7
 10
38.732234605791703
 20
0.3323955523193944
 11
38.941434584038049
 21
0.3646003049155354
  0
LINE
  8
_0-3______1
  6
CONTINUOUS
 62
    7
 10
38.394477444417838
 20
0.4932884016716059
 11
38.732234605791703
 21
0.3323955523193944
  0
LINE
  8
_0-3______1
  6
CONTINUOUS
 62
    7
 10
39.557832470352224
 20
0.9464431019318908
 11
39.585005981446578
 21
1.3137241111018854
  0
LINE
  8
_0-3______1
  6
CONTINUOUS
 62
    7
 10
39.456186971062124
 20
0.6863860036197935
 11
39.557832470352224
 21
0.9464431019318908
  0
LINE
  8
_0-3______1
  6
CONTINUOUS
 62
    7
 10
39.263220282742317
 20
0.477186025373544
 11
39.456186971062124
 21
0.6863860036197935
  0
LINE
  8
_0-3______1
  6
CONTINUOUS
 62
    7
 10
39.069991767165561
 20
0.3968050575116649
 11
39.263220282742317
 21
0.477186025373544
  0
LINE
  8
_0-3______1
  6
CONTINUOUS
 62
    7
 10
38.684058390525969
 20
2.6328098312582657
 11
38.362272691821673
 21
2.6328098312582657
  0
LINE
  8
_0-3______1
  6
CONTINUOUS
 62
    7
 10
38.989610799303755
 20
2.4720478955345015
 11
38.684058390525969
 21
2.6328098312582657
  0
LINE
  8
_0-3______1
  6
CONTINUOUS
 62
    7
 10
39.246986992815778
 20
2.1502621968302438
 11
38.989610799303755
 21
2.4720478955345015
  0
LINE
  8
_0-3______1
  6
CONTINUOUS
 62
    7
 10
39.456186971062124
 20
1.6516121861042337
 11
39.246986992815778
 21
2.1502621968302438
  0
LINE
  8
_0-3______1
  6
CONTINUOUS
 62
    7
 10
39.456186971062124
 20
0.9276598208338043
 11
39.456186971062124
 21
1.6516121861042337
  0
LINE
  8
_0-3______1
  6
CONTINUOUS
 62
    7
 10
39.263220282742317
 20
0.5576979068638252
 11
39.456186971062124
 21
0.9276598208338043
  0
LINE
  8
_0-3______1
  6
CONTINUOUS
 62
    7
 10
39.069991767165561
 20
0.3968050575116649
 11
39.263220282742317
 21
0.5576979068638252
  0
LINE
  8
_0-3______1
  6
CONTINUOUS
 62
    7
 10
53.58019651614218
 20
43.782497917758953
 11
53.612401268738324
 21
43.895083638216981
  0
LINE
  8
_0-3______1
  6
CONTINUOUS
 62
    7
 10
53.462486666552401
 20
43.706366900558315
 11
53.58019651614218
 21
43.782497917758953
  0
LINE
  8
_0-3______1
  6
CONTINUOUS
 62
    7
 10
53.129853634310294
 20
43.589531229439153
 11
53.462486666552401
 21
43.706366900558315
  0
LINE
  8
_0-3______1
  6
CONTINUOUS
 62
    7
 10
52.615101247286248
 20
43.476814595352771
 11
53.129853634310294
 21
43.589531229439153
  0
LINE
  8
_0-3______1
  6
CONTINUOUS
 62
    7
 10
52.088735389551744
 20
43.441150028235505
 11
52.615101247286248
 21
43.476814595352771
  0
LINE
  8
_0-3______1
  6
CONTINUOUS
 62
    7
 10
51.263810774533823
 20
43.476814595352771
 11
52.088735389551744
 21
43.441150028235505
  0
LINE
  8
_0-3______1
  6
CONTINUOUS
 62
    7
 10
50.588034624529136
 20
43.621605068406829
 11
51.263810774533823
 21
43.476814595352771
  0
LINE
  8
_0-3______1
  6
CONTINUOUS
 62
    7
 10
50.395067936209344
 20
43.702116949897174
 11
50.588034624529136
 21
43.621605068406829
  0
LINE
  8
_0-3______1
  6
CONTINUOUS
 62
    7
 10
50.250277463155264
 20
43.895214551845392
 11
50.395067936209344
 21
43.702116949897174
  0
LINE
  8
_0-3______1
  6
CONTINUOUS
 62
    7
 10
50.346891720943596
 20
44.297250304783113
 11
50.250277463155264
 21
44.152590745357429
  0
LINE
  8
_0-3______1
  6
CONTINUOUS
 62
    7
 10
50.652444129721324
 20
44.409966938869502
 11
50.346891720943596
 21
44.297250304783113
  0
LINE
  8
_0-3______1
  6
CONTINUOUS
 62
    7
 10
53.516048838206864
 20
44.297381218411509
 11
53.210234602172193
 21
44.409966938869502
  0
LINE
  8
_0-3______1
  6
CONTINUOUS
 62
    7
 10
53.612401268738324
 20
44.152590745357429
 11
53.516048838206864
 21
44.297381218411509
  0
LINE
  8
_0-3______1
  6
CONTINUOUS
 62
    7
 10
53.58019651614218
 20
44.055976487569119
 11
53.612401268738324
 21
44.152590745357429
  0
LINE
  8
_0-3______1
  6
CONTINUOUS
 62
    7
 10
53.419434580418546
 20
43.927288390813089
 11
53.58019651614218
 21
44.055976487569119
  0
LINE
  8
_0-3______1
  6
CONTINUOUS
 62
    7
 10
53.129853634310294
 20
43.846907422951254
 11
53.419434580418546
 21
43.927288390813089
  0
LINE
  8
_0-3______1
  6
CONTINUOUS
 62
    7
 10
52.129347517402863
 20
43.71594106030647
 11
53.129853634310294
 21
43.846907422951254
  0
LINE
  8
_0-3______1
  6
CONTINUOUS
 62
    7
 10
51.056154021385048
 20
43.771429607545691
 11
52.129347517402863
 21
43.71594106030647
  0
LINE
  8
_0-3______1
  6
CONTINUOUS
 62
    7
 10
50.459477441401532
 20
43.927288390813089
 11
51.056154021385048
 21
43.771429607545691
  0
LINE
  8
_0-3______1
  6
CONTINUOUS
 62
    7
 10
50.250277463155264
 20
44.088181240165248
 11
50.459477441401532
 21
43.927288390813089
  0
LINE
  8
_0-3______1
  6
CONTINUOUS
 62
    7
 10
50.250277463155264
 20
44.152590745357429
 11
50.250277463155264
 21
44.088181240165248
  0
LINE
  8
_0-3______1
  6
CONTINUOUS
 62
    7
 10
32.94113933814225
 20
39.229976488775591
 11
32.715967897226314
 21
38.924424079997827
  0
LINE
  8
_0-3______1
  6
CONTINUOUS
 62
    7
 10
33.118134563792431
 20
39.310488370265894
 11
32.94113933814225
 21
39.229976488775591
  0
LINE
  8
_0-3______1
  6
CONTINUOUS
 62
    7
 10
33.504067940432058
 20
39.342562209233542
 11
33.246691746920042
 21
39.326590746563944
  0
LINE
  8
_0-3______1
  6
CONTINUOUS
 62
    7
 10
33.84182510180591
 20
39.213874112477548
 11
33.504067940432058
 21
39.342562209233542
  0
LINE
  8
_0-3______1
  6
CONTINUOUS
 62
    7
 10
34.163610800510263
 20
38.827809822209467
 11
33.84182510180591
 21
39.213874112477548
  0
LINE
  8
_0-3______1
  6
CONTINUOUS
 62
    7
 10
34.243991768372076
 20
38.634843133889667
 11
34.163610800510263
 21
38.827809822209467
  0
LINE
  8
_0-3______1
  6
CONTINUOUS
 62
    7
 10
33.375510757304518
 20
37.042147930294746
 11
33.713267918678405
 21
37.042147930294746
  0
LINE
  8
_0-3______1
  6
CONTINUOUS
 62
    7
 10
33.166310779058179
 20
37.154864564381178
 11
33.375510757304518
 21
37.042147930294746
  0
LINE
  8
_0-3______1
  6
CONTINUOUS
 62
    7
 10
34.018820327456126
 20
37.138762188083092
 11
34.163610800510263
 21
37.283552661137222
  0
LINE
  8
_0-3______1
  6
CONTINUOUS
 62
    7
 10
33.84182510180591
 20
37.074352682890904
 11
34.018820327456126
 21
37.138762188083092
  0
LINE
  8
_0-3______1
  6
CONTINUOUS
 62
    7
 10
34.035053617382665
 20
37.219143155944984
 11
34.195815553106307
 21
37.573133607245346
  0
LINE
  8
_0-3______1
  6
CONTINUOUS
 62
    7
 10
33.713267918678405
 20
37.042278843923228
 11
34.035053617382665
 21
37.219143155944984
  0
LINE
  8
_0-3______1
  6
CONTINUOUS
 62
    7
 10
33.375510757304518
 20
39.326590746563944
 11
33.118134563792431
 21
39.310488370265894
  0
LINE
  8
_0-3______1
  6
CONTINUOUS
 62
    7
 10
33.761444133944124
 20
39.149595520913735
 11
33.375510757304518
 21
39.326590746563944
  0
LINE
  8
_0-3______1
  6
CONTINUOUS
 62
    7
 10
34.083229832648399
 20
38.715224101751524
 11
33.761444133944124
 21
39.149595520913735
  0
LINE
  8
_0-3______1
  6
CONTINUOUS
 62
    7
 10
34.195815553106307
 20
38.377466940377587
 11
34.083229832648399
 21
38.715224101751524
  0
LINE
  8
_0-3______1
  6
CONTINUOUS
 62
    7
 10
38.137101250905737
 20
46.806864561968148
 11
37.541967896019791
 21
46.90334790612809
  0
LINE
  8
_0-3______1
  6
CONTINUOUS
 62
    7
 10
52.582896494690203
 20
41.819971713822532
 11
52.405901269039965
 21
41.755562208630344
  0
LINE
  8
_0-3______1
  6
CONTINUOUS
 62
    7
 10
52.598867957359793
 20
41.884381219014791
 11
52.582896494690203
 21
41.819971713822532
  0
LINE
  8
_0-3______1
  6
CONTINUOUS
 62
    7
 10
53.001034623925854
 20
44.329455057379164
 11
53.113882171640697
 21
44.474245530433329
  0
LINE
  8
_0-3______1
  6
CONTINUOUS
 62
    7
 10
52.759891720340335
 20
44.2490740895173
 11
53.001034623925854
 21
44.329455057379164
  0
LINE
  8
_0-3______1
  6
CONTINUOUS
 62
    7
 10
50.781263140105793
 20
44.393864562571459
 11
50.765029850179346
 21
44.474245530433329
  0
LINE
  8
_0-3______1
  6
CONTINUOUS
 62
    7
 10
50.942025075829555
 20
44.297381218411509
 11
50.781263140105793
 21
44.393864562571459
  0
LINE
  8
_0-3______1
  6
CONTINUOUS
 62
    7
 10
51.505215505376214
 20
44.168562208027026
 11
50.942025075829555
 21
44.297381218411509
  0
LINE
  8
_0-3______1
  6
CONTINUOUS
 62
    7
 10
52.341491763847728
 20
44.168562208027026
 11
51.505215505376214
 21
44.168562208027026
  0
LINE
  8
_0-3______1
  6
CONTINUOUS
 62
    7
 10
52.695482215148132
 20
44.232971713219321
 11
52.341491763847728
 21
44.168562208027026
  0
LINE
  8
_0-3______1
  6
CONTINUOUS
 62
    7
 10
51.34419174239563
 20
45.037305046351527
 11
51.505215505376214
 21
45.005100293755483
  0
LINE
  8
_0-3______1
  6
CONTINUOUS
 62
    7
 10
51.939325097281568
 20
45.262476487267442
 11
51.505215505376214
 21
45.005100293755483
  0
LINE
  8
_0-3______1
  6
CONTINUOUS
 62
    7
 10
52.357725053774153
 20
45.005100293755483
 11
51.939325097281568
 21
45.262476487267442
  0
LINE
  8
_0-3______1
  6
CONTINUOUS
 62
    7
 10
53.033239376521976
 20
44.908616949595533
 11
52.824301225532579
 21
45.133788390511477
  0
LINE
  8
_0-3______1
  6
CONTINUOUS
 62
    7
 10
53.113882171640697
 20
44.619036003487395
 11
53.033239376521976
 21
44.908616949595533
  0
LINE
  8
_0-3______1
  6
CONTINUOUS
 62
    7
 10
51.746358408961754
 20
45.310783616161665
 11
51.505215505376214
 21
45.310783616161665
  0
LINE
  8
_0-3______1
  6
CONTINUOUS
 62
    7
 10
51.392367957661442
 20
41.755562208630344
 11
51.263810774533823
 21
41.884381219014791
  0
LINE
  8
_0-3______1
  6
CONTINUOUS
 62
    7
 10
51.730386946292164
 20
41.707385993364582
 11
51.392367957661442
 21
41.755562208630344
  0
LINE
  8
_0-3______1
  6
CONTINUOUS
 62
    7
 10
52.405901269039965
 20
41.755562208630344
 11
51.730386946292164
 21
41.707385993364582
  0
LINE
  8
_0-3______1
  6
CONTINUOUS
 62
    7
 10
50.813467892701958
 20
44.876412196999375
 11
50.765029850179346
 21
44.619036003487395
  0
LINE
  8
_0-3______1
  6
CONTINUOUS
 62
    7
 10
51.054610796287498
 20
45.133788390511477
 11
50.813467892701958
 21
44.876412196999375
  0
LINE
  8
_0-3______1
  6
CONTINUOUS
 62
    7
 10
52.357725053774153
 20
45.310783616161665
 11
52.100348860262187
 21
45.310783616161665
  0
LINE
  8
_0-3______1
  6
CONTINUOUS
 62
    7
 10
51.939325097281568
 20
45.342988368757737
 11
51.665977441099976
 21
45.342988368757737
  0
LINE
  8
_0-3______1
  6
CONTINUOUS
 62
    7
 10
52.888448903467932
 20
45.069509798947649
 11
52.824301225532579
 21
45.133788390511477
  0
LINE
  8
_0-3______1
  6
CONTINUOUS
 62
    7
 10
52.888448903467932
 20
44.956924078489727
 11
52.888448903467932
 21
45.069509798947649
  0
LINE
  8
_0-3______1
  6
CONTINUOUS
 62
    7
 10
52.598867957359793
 20
44.844338358031713
 11
52.888448903467932
 21
44.956924078489727
  0
LINE
  8
_0-3______1
  6
CONTINUOUS
 62
    7
 10
52.277344085912368
 20
44.779928852839532
 11
52.598867957359793
 21
44.84420744440331
  0
LINE
  8
_0-3______1
  6
CONTINUOUS
 62
    7
 10
51.569363183311566
 20
44.779928852839532
 11
52.277344085912368
 21
44.779928852839532
  0
LINE
  8
_0-3______1
  6
CONTINUOUS
 62
    7
 10
51.119020301479736
 20
44.876412196999375
 11
51.569363183311566
 21
44.779928852839532
  0
LINE
  8
_0-3______1
  6
CONTINUOUS
 62
    7
 10
50.974229828425614
 20
44.988997917457404
 11
51.119020301479736
 21
44.876412196999375
  0
LINE
  8
_0-3______1
  6
CONTINUOUS
 62
    7
 10
50.974229828425614
 20
45.069509798947649
 11
50.974229828425614
 21
44.988997917457404
  0
LINE
  8
_0-3______1
  6
CONTINUOUS
 62
    7
 10
51.038639333617894
 20
45.1017145515438
 11
50.974229828425614
 21
45.069509798947649
  0
LINE
  8
_0-3______1
  6
CONTINUOUS
 62
    7
 10
52.985063161256257
 20
44.474245530433329
 11
53.113882171640697
 21
44.619036003487395
  0
LINE
  8
_0-3______1
  6
CONTINUOUS
 62
    7
 10
52.808067935606033
 20
44.409966938869502
 11
52.985063161256257
 21
44.474245530433329
  0
LINE
  8
_0-3______1
  6
CONTINUOUS
 62
    7
 10
51.907382171942373
 20
44.313352681081163
 11
52.808067935606033
 21
44.409966938869502
  0
LINE
  8
_0-3______1
  6
CONTINUOUS
 62
    7
 10
51.038639333617894
 20
44.409966938869502
 11
51.907382171942373
 21
44.313352681081163
  0
LINE
  8
_0-3______1
  6
CONTINUOUS
 62
    7
 10
50.813467892701958
 20
44.522552659327452
 11
51.038639333617894
 21
44.409966938869502
  0
LINE
  8
_0-3______1
  6
CONTINUOUS
 62
    7
 10
50.765029850179346
 20
44.619036003487395
 11
50.813467892701958
 21
44.522552659327452
  0
LINE
  8
_0-3______1
  6
CONTINUOUS
 62
    7
 10
52.196701290793648
 20
45.342988368757737
 11
51.939325097281568
 21
45.342988368757737
  0
LINE
  8
_0-3______1
  6
CONTINUOUS
 62
    7
 10
51.44080600018404
 20
45.149890766809527
 11
51.34419174239563
 21
45.037305046351527
  0
LINE
  8
_0-3______1
  6
CONTINUOUS
 62
    7
 10
51.746358408961754
 20
45.310783616161665
 11
51.44080600018404
 21
45.149890766809527
  0
LINE
  8
_0-3______1
  6
CONTINUOUS
 62
    7
 10
52.325520301178109
 20
45.214300272001744
 11
52.100348860262187
 21
45.310783616161665
  0
LINE
  8
_0-3______1
  6
CONTINUOUS
 62
    7
 10
52.518486989497916
 20
45.037305046351527
 11
52.325520301178109
 21
45.214300272001744
  0
LINE
  8
_0-3______1
  6
CONTINUOUS
 62
    7
 10
38.072691745713541
 20
0.8311764766738747
 11
38.008282240521282
 21
1.1689336380478152
  0
LINE
  8
_0-3______1
  6
CONTINUOUS
 62
    7
 10
37.60611557395513
 20
1.5549979283158963
 11
37.831548842128008
 21
1.4746169604540342
  0
LINE
  8
_0-3______1
  6
CONTINUOUS
 62
    7
 10
38.008282240521282
 20
1.4102074552618262
 11
38.314096476555953
 21
1.3781336162940931
  0
LINE
  8
_0-3______1
  6
CONTINUOUS
 62
    7
 10
38.2174822187676
 20
0.4932884016716059
 11
38.555239380141494
 21
0.4932884016716059
  0
LINE
  8
_0-3______1
  6
CONTINUOUS
 62
    7
 10
37.847520304797605
 20
0.7024883799178838
 11
38.2174822187676
 21
0.4932884016716059
  0
LINE
  8
_0-3______1
  6
CONTINUOUS
 62
    7
 10
37.638320326551288
 20
0.9437621971319004
 11
37.847520304797605
 21
0.7024883799178838
  0
LINE
  8
_0-3______1
  6
CONTINUOUS
 62
    7
 10
37.525734606093344
 20
1.4907193367521019
 11
37.638320326551288
 21
0.9437621971319004
  0
LINE
  8
_0-3______1
  6
CONTINUOUS
 62
    7
 10
37.541967896019791
 20
1.7803002828602361
 11
37.525734606093344
 21
1.4907193367521019
  0
LINE
  8
_0-3______1
  6
CONTINUOUS
 62
    7
 10
37.702729831743532
 20
2.0858526916380358
 11
37.541967896019791
 21
1.7803002828602361
  0
LINE
  8
_0-3______1
  6
CONTINUOUS
 62
    7
 10
37.847520304797605
 20
2.2306431646920943
 11
37.702729831743532
 21
2.0858526916380358
  0
LINE
  8
_0-3______1
  6
CONTINUOUS
 62
    7
 10
38.08892503564001
 20
2.327257422480443
 11
37.847520304797605
 21
2.2306431646920943
  0
LINE
  8
_0-3______1
  6
CONTINUOUS
 62
    7
 10
39.093652967245944
 20
1.6931010513302454
 11
39.150634562284289
 21
1.2976217348038119
  0
LINE
  8
_0-3______1
  6
CONTINUOUS
 62
    7
 10
38.844820326249625
 20
2.1502621968302438
 11
39.093652967245944
 21
1.6931010513302454
  0
LINE
  8
_0-3______1
  6
CONTINUOUS
 62
    7
 10
38.651853637929804
 20
2.3111550461823755
 11
38.844820326249625
 21
2.1502621968302438
  0
LINE
  8
_0-3______1
  6
CONTINUOUS
 62
    7
 10
38.442653659683543
 20
2.3915360140442545
 11
38.651853637929804
 21
2.3111550461823755
  0
LINE
  8
_0-3______1
  6
CONTINUOUS
 62
    7
 10
38.249686971363758
 20
2.3593312614481023
 11
38.442653659683543
 21
2.3915360140442545
  0
LINE
  8
_0-3______1
  6
CONTINUOUS
 62
    7
 10
39.150634562284289
 20
1.1046550464840323
 11
39.150634562284289
 21
1.2976217348038119
  0
LINE
  8
_0-3______1
  6
CONTINUOUS
 62
    7
 10
39.021815551899834
 20
0.7667669714816725
 11
39.150634562284289
 21
1.1046550464840323
  0
LINE
  8
_0-3______1
  6
CONTINUOUS
 62
    7
 10
38.844820326249625
 20
0.5899026594599433
 11
39.021815551899834
 21
0.7667669714816725
  0
LINE
  8
_0-3______1
  6
CONTINUOUS
 62
    7
 10
38.716263143122106
 20
0.5576979068638252
 11
38.844820326249625
 21
0.5899026594599433
  0
LINE
  8
_0-3______1
  6
CONTINUOUS
 62
    7
 10
38.442653659683543
 20
1.0724502938878631
 11
38.442653659683543
 21
1.2333431432400233
  0
LINE
  8
_0-3______1
  6
CONTINUOUS
 62
    7
 10
38.297863186629499
 20
0.7989717240778248
 11
38.442653659683543
 21
1.0724502938878631
  0
LINE
  8
_0-3______1
  6
CONTINUOUS
 62
    7
 10
38.153072713575362
 20
0.7185907562159571
 11
38.297863186629499
 21
0.7989717240778248
  0
LINE
  8
_0-3______1
  6
CONTINUOUS
 62
    7
 10
38.008282240521282
 20
0.7185907562159571
 11
38.153072713575362
 21
0.7185907562159571
  0
LINE
  8
_0-3______1
  6
CONTINUOUS
 62
    7
 10
37.702729831743532
 20
0.9437621971319004
 11
38.008282240521282
 21
0.7185907562159571
  0
LINE
  8
_0-3______1
  6
CONTINUOUS
 62
    7
 10
37.541967896019791
 20
1.4263098315598199
 11
37.702729831743532
 21
0.9437621971319004
  0
LINE
  8
_0-3______1
  6
CONTINUOUS
 62
    7
 10
37.60611557395513
 20
1.2976217348038119
 11
37.831548842128008
 21
1.2172407669419443
  0
LINE
  8
_0-3______1
  6
CONTINUOUS
 62
    7
 10
37.895696520063339
 20
0.863381229270027
 11
37.831548842128008
 21
1.2172407669419443
  0
LINE
  8
_0-3______1
  6
CONTINUOUS
 62
    7
 10
37.895696520063339
 20
0.863381229270027
 11
38.072691745713541
 21
0.8311764766738747
  0
LINE
  8
_0-3______1
  6
CONTINUOUS
 62
    7
 10
38.362272691821673
 20
2.327257422480443
 11
38.08892503564001
 21
2.327257422480443
  0
LINE
  8
_0-3______1
  6
CONTINUOUS
 62
    7
 10
38.700029853195566
 20
2.0858526916380358
 11
38.362272691821673
 21
2.327257422480443
  0
LINE
  8
_0-3______1
  6
CONTINUOUS
 62
    7
 10
38.90922983144192
 20
1.764197906562174
 11
38.700029853195566
 21
2.0858526916380358
  0
LINE
  8
_0-3______1
  6
CONTINUOUS
 62
    7
 10
38.989610799303755
 20
1.2494455195380967
 11
38.90922983144192
 21
1.764197906562174
  0
LINE
  8
_0-3______1
  6
CONTINUOUS
 62
    7
 10
38.008282240521282
 20
1.1689336380478152
 11
38.314096476555953
 21
1.1046550464840323
  0
LINE
  8
_0-3______1
  6
CONTINUOUS
 62
    7
 10
38.90922983144192
 20
0.7828693477797458
 11
38.989610799303755
 21
1.2494455195380967
  0
LINE
  8
_0-3______1
  6
CONTINUOUS
 62
    7
 10
38.780672648314294
 20
0.6219764984276026
 11
38.90922983144192
 21
0.7828693477797458
  0
LINE
  8
_0-3______1
  6
CONTINUOUS
 62
    7
 10
38.555239380141494
 20
0.4932884016716059
 11
38.780672648314294
 21
0.6219764984276026
  0
LINE
  8
_0-3______1
  6
CONTINUOUS
 62
    7
 10
38.072691745713541
 20
1.7803002828602361
 11
37.895696520063339
 21
1.8445788744240248
  0
LINE
  8
_0-3______1
  6
CONTINUOUS
 62
    7
 10
38.314096476555953
 20
1.3781336162940931
 11
38.265658434033369
 21
1.3459288636980205
  0
LINE
  8
_0-3______1
  6
CONTINUOUS
 62
    7
 10
37.670525079147396
 20
1.8445788744240248
 11
37.541967896019791
 21
1.4263098315598199
  0
LINE
  8
_0-3______1
  6
CONTINUOUS
 62
    7
 10
37.783110799605332
 20
1.925090755914306
 11
37.670525079147396
 21
1.8445788744240248
  0
LINE
  8
_0-3______1
  6
CONTINUOUS
 62
    7
 10
37.992310777851664
 20
1.9410622185839657
 11
37.783110799605332
 21
1.925090755914306
  0
LINE
  8
_0-3______1
  6
CONTINUOUS
 62
    7
 10
38.297863186629499
 20
1.7158907776680508
 11
37.992310777851664
 21
1.9410622185839657
  0
LINE
  8
_0-3______1
  6
CONTINUOUS
 62
    7
 10
38.442653659683543
 20
1.2976217348038119
 11
38.297863186629499
 21
1.7158907776680508
  0
LINE
  8
_0-3______1
  6
CONTINUOUS
 62
    7
 10
38.265658434033369
 20
1.3781336162940931
 11
38.265658434033369
 21
1.3459288636980205
  0
LINE
  8
_0-3______1
  6
CONTINUOUS
 62
    7
 10
32.844525080353904
 20
37.492621725755114
 11
32.796348865088177
 21
37.830509800757461
  0
LINE
  8
_0-3______1
  6
CONTINUOUS
 62
    7
 10
32.394182198522024
 20
38.216574091025457
 11
32.619353639437968
 21
38.13606220953519
  0
LINE
  8
_0-3______1
  6
CONTINUOUS
 62
    7
 10
32.796348865088177
 20
38.087885994269456
 11
33.101901273865984
 21
38.039578865375248
  0
LINE
  8
_0-3______1
  6
CONTINUOUS
 62
    7
 10
33.005548843334502
 20
37.154864564381178
 11
33.343306004708381
 21
37.186938403348826
  0
LINE
  8
_0-3______1
  6
CONTINUOUS
 62
    7
 10
32.571177424172234
 20
37.428343134191302
 11
33.005548843334502
 21
37.154864564381178
  0
LINE
  8
_0-3______1
  6
CONTINUOUS
 62
    7
 10
32.394182198522024
 20
37.685719327703296
 11
32.571177424172234
 21
37.428343134191302
  0
LINE
  8
_0-3______1
  6
CONTINUOUS
 62
    7
 10
32.297567940733693
 20
38.168266962131312
 11
32.394182198522024
 21
37.685719327703296
  0
LINE
  8
_0-3______1
  6
CONTINUOUS
 62
    7
 10
32.329772693329836
 20
38.457847908239458
 11
32.297567940733693
 21
38.168266962131312
  0
LINE
  8
_0-3______1
  6
CONTINUOUS
 62
    7
 10
32.474563166383895
 20
38.747428854347682
 11
32.329772693329836
 21
38.457847908239458
  0
LINE
  8
_0-3______1
  6
CONTINUOUS
 62
    7
 10
32.683763144630142
 20
38.924424079997827
 11
32.474563166383895
 21
38.747428854347682
  0
LINE
  8
_0-3______1
  6
CONTINUOUS
 62
    7
 10
32.876729832950033
 20
38.988702671561605
 11
32.683763144630142
 21
38.924424079997827
  0
LINE
  8
_0-3______1
  6
CONTINUOUS
 62
    7
 10
33.890263144328593
 20
38.296955058887313
 11
33.922467896924722
 21
37.959197897513427
  0
LINE
  8
_0-3______1
  6
CONTINUOUS
 62
    7
 10
33.7776774238706
 20
38.602638381293524
 11
33.890263144328593
 21
38.296955058887313
  0
LINE
  8
_0-3______1
  6
CONTINUOUS
 62
    7
 10
33.536272693028174
 20
38.908321703699713
 11
33.7776774238706
 21
38.602638381293524
  0
LINE
  8
_0-3______1
  6
CONTINUOUS
 62
    7
 10
33.246691746920042
 20
39.053112176753878
 11
33.536272693028174
 21
38.908321703699713
  0
LINE
  8
_0-3______1
  6
CONTINUOUS
 62
    7
 10
33.021520306004099
 20
39.053112176753878
 11
33.246691746920042
 21
39.053112176753878
  0
LINE
  8
_0-3______1
  6
CONTINUOUS
 62
    7
 10
33.84182510180591
 20
37.508724102053115
 11
33.922467896924722
 21
37.959197897513427
  0
LINE
  8
_0-3______1
  6
CONTINUOUS
 62
    7
 10
33.648858413486117
 20
37.283552661137222
 11
33.84182510180591
 21
37.508724102053115
  0
LINE
  8
_0-3______1
  6
CONTINUOUS
 62
    7
 10
33.488096477762454
 20
37.219143155944984
 11
33.648858413486117
 21
37.283552661137222
  0
LINE
  8
_0-3______1
  6
CONTINUOUS
 62
    7
 10
33.166310779058179
 20
37.589105069914972
 11
33.230720284250388
 21
37.894788392321182
  0
LINE
  8
_0-3______1
  6
CONTINUOUS
 62
    7
 10
33.069696521269854
 20
37.460547886787431
 11
33.166310779058179
 21
37.589105069914972
  0
LINE
  8
_0-3______1
  6
CONTINUOUS
 62
    7
 10
32.828553617684314
 20
37.380036005297107
 11
33.069696521269854
 21
37.460547886787431
  0
LINE
  8
_0-3______1
  6
CONTINUOUS
 62
    7
 10
32.635325102107565
 20
37.460547886787431
 11
32.828553617684314
 21
37.380036005297107
  0
LINE
  8
_0-3______1
  6
CONTINUOUS
 62
    7
 10
32.490534629053499
 20
37.605207446213058
 11
32.635325102107565
 21
37.460547886787431
  0
LINE
  8
_0-3______1
  6
CONTINUOUS
 62
    7
 10
32.377948908595577
 20
37.830509800757461
 11
32.490534629053499
 21
37.605207446213058
  0
LINE
  8
_0-3______1
  6
CONTINUOUS
 62
    7
 10
32.329772693329836
 20
38.120090746865593
 11
32.377948908595577
 21
37.830509800757461
  0
LINE
  8
_0-3______1
  6
CONTINUOUS
 62
    7
 10
32.394182198522024
 20
37.959197897513427
 11
32.619353639437968
 21
37.878686016023117
  0
LINE
  8
_0-3______1
  6
CONTINUOUS
 62
    7
 10
32.667529854703709
 20
37.524826478351166
 11
32.619353639437968
 21
37.878686016023117
  0
LINE
  8
_0-3______1
  6
CONTINUOUS
 62
    7
 10
32.667529854703709
 20
37.524826478351166
 11
32.844525080353904
 21
37.492621725755114
  0
LINE
  8
_0-3______1
  6
CONTINUOUS
 62
    7
 10
33.230720284250388
 20
38.972600295263526
 11
32.876729832950033
 21
38.988702671561605
  0
LINE
  8
_0-3______1
  6
CONTINUOUS
 62
    7
 10
33.488096477762454
 20
38.747428854347682
 11
33.230720284250388
 21
38.972600295263526
  0
LINE
  8
_0-3______1
  6
CONTINUOUS
 62
    7
 10
33.648858413486117
 20
38.506155037133652
 11
33.488096477762454
 21
38.747428854347682
  0
LINE
  8
_0-3______1
  6
CONTINUOUS
 62
    7
 10
33.7776774238706
 20
37.910890768619247
 11
33.648858413486117
 21
38.506155037133652
  0
LINE
  8
_0-3______1
  6
CONTINUOUS
 62
    7
 10
32.796348865088177
 20
37.830509800757461
 11
33.101901273865984
 21
37.766100295565188
  0
LINE
  8
_0-3______1
  6
CONTINUOUS
 62
    7
 10
33.761444133944124
 20
37.685719327703296
 11
33.7776774238706
 21
37.910890768619247
  0
LINE
  8
_0-3______1
  6
CONTINUOUS
 62
    7
 10
33.648858413486117
 20
37.412240757893223
 11
33.761444133944124
 21
37.685719327703296
  0
LINE
  8
_0-3______1
  6
CONTINUOUS
 62
    7
 10
33.471863187835986
 20
37.219143155944984
 11
33.648858413486117
 21
37.412240757893223
  0
LINE
  8
_0-3______1
  6
CONTINUOUS
 62
    7
 10
33.343306004708381
 20
37.186938403348826
 11
33.471863187835986
 21
37.219143155944984
  0
LINE
  8
_0-3______1
  6
CONTINUOUS
 62
    7
 10
32.844525080353904
 20
38.457847908239458
 11
32.667529854703709
 21
38.506155037133652
  0
LINE
  8
_0-3______1
  6
CONTINUOUS
 62
    7
 10
33.101901273865984
 20
38.039578865375248
 11
33.069696521269854
 21
38.007374112779182
  0
LINE
  8
_0-3______1
  6
CONTINUOUS
 62
    7
 10
32.458591703714298
 20
38.506155037133652
 11
32.329772693329836
 21
38.120090746865593
  0
LINE
  8
_0-3______1
  6
CONTINUOUS
 62
    7
 10
32.571177424172234
 20
38.602638381293524
 11
32.458591703714298
 21
38.506155037133652
  0
LINE
  8
_0-3______1
  6
CONTINUOUS
 62
    7
 10
32.748172649822429
 20
38.618740757591581
 11
32.571177424172234
 21
38.602638381293524
  0
LINE
  8
_0-3______1
  6
CONTINUOUS
 62
    7
 10
32.860758370280379
 20
38.586536004995445
 11
32.748172649822429
 21
38.618740757591581
  0
LINE
  8
_0-3______1
  6
CONTINUOUS
 62
    7
 10
33.069696521269854
 20
38.393438403047263
 11
32.860758370280379
 21
38.586536004995445
  0
LINE
  8
_0-3______1
  6
CONTINUOUS
 62
    7
 10
33.230720284250388
 20
37.975300273811534
 11
33.069696521269854
 21
38.393438403047263
  0
LINE
  8
_0-3______1
  6
CONTINUOUS
 62
    7
 10
33.069696521269854
 20
38.039578865375248
 11
33.037491768673718
 21
38.007374112779182
  0
LINE
  8
_0-3______1
  6
CONTINUOUS
 62
    7
 10
43.622644109777376
 20
49.863305045145047
 11
43.284886948403518
 21
49.863305045145047
  0
LINE
  8
_0-3______1
  6
CONTINUOUS
 62
    7
 10
42.946867959772796
 20
50.088476486060962
 11
43.20450598054174
 21
50.185090743849308
  0
LINE
  8
_0-3______1
  6
CONTINUOUS
 62
    7
 10
42.753901271452989
 20
49.911612174039227
 11
42.946867959772796
 21
50.088476486060962
  0
LINE
  8
_0-3______1
  6
CONTINUOUS
 62
    7
 10
46.019672646504588
 20
49.2037621850669
 11
45.746063163066047
 21
49.316347905524815
  0
LINE
  8
_0-3______1
  6
CONTINUOUS
 62
    7
 10
46.244844087420439
 20
48.994562206820547
 11
46.019672646504588
 21
49.2037621850669
  0
LINE
  8
_0-3______1
  6
CONTINUOUS
 62
    7
 10
47.193967893606803
 20
49.123381217205029
 11
47.370701292000149
 21
48.721214550638869
  0
LINE
  8
_0-3______1
  6
CONTINUOUS
 62
    7
 10
46.952563162764406
 20
49.428933625982815
 11
47.193967893606803
 21
49.123381217205029
  0
LINE
  8
_0-3______1
  6
CONTINUOUS
 62
    7
 10
46.662982216656246
 20
49.67020744319683
 11
46.952563162764406
 21
49.428933625982815
  0
LINE
  8
_0-3______1
  6
CONTINUOUS
 62
    7
 10
46.341196517951907
 20
49.782924077283234
 11
46.662982216656246
 21
49.67020744319683
  0
LINE
  8
_0-3______1
  6
CONTINUOUS
 62
    7
 10
43.783406045501124
 20
50.361955055871114
 11
44.217777464663349
 21
50.361955055871114
  0
LINE
  8
_0-3______1
  6
CONTINUOUS
 62
    7
 10
43.20450598054174
 20
50.185090743849308
 11
43.622644109777376
 21
50.185090743849308
  0
LINE
  8
_0-3______1
  6
CONTINUOUS
 62
    7
 10
46.196406044897849
 20
49.428933625982815
 11
46.630777464060138
 21
48.898078862660661
  0
LINE
  8
_0-3______1
  6
CONTINUOUS
 62
    7
 10
45.746063163066047
 20
49.638133604229097
 11
46.196406044897849
 21
49.428933625982815
  0
LINE
  8
_0-3______1
  6
CONTINUOUS
 62
    7
 10
35.884863187232689
 20
5.9467574215755752
 11
35.402315552804673
 21
6.3648955508113234
  0
LINE
  8
_0-3______1
  6
CONTINUOUS
 62
    7
 10
35.965505982351445
 20
5.8179384111911139
 11
35.884863187232689
 21
5.9467574215755752
  0
LINE
  8
_0-3______1
  6
CONTINUOUS
 62
    7
 10
35.965505982351445
 20
5.7214550670311759
 11
35.965505982351445
 21
5.8179384111911139
  0
LINE
  8
_0-3______1
  6
CONTINUOUS
 62
    7
 10
35.917067939828847
 20
5.7053526907331253
 11
35.965505982351445
 21
5.7214550670311759
  0
LINE
  8
_0-3______1
  6
CONTINUOUS
 62
    7
 10
34.855358413184547
 20
6.3809979271093829
 11
34.565777467076337
 21
6.5579931527595141
  0
LINE
  8
_0-3______1
  6
CONTINUOUS
 62
    7
 10
35.048325101504354
 20
6.1719288624915158
 11
34.855358413184547
 21
6.3809979271093829
  0
LINE
  8
_0-3______1
  6
CONTINUOUS
 62
    7
 10
35.126625450375911
 20
6.0269618749741314
 11
35.048325101504354
 21
6.1719288624915158
  0
LINE
  8
_0-3______1
  6
CONTINUOUS
 62
    7
 10
35.096763144026959
 20
5.9306550452775131
 11
35.126625450375911
 21
6.0269618749741314
  0
LINE
  8
_0-3______1
  6
CONTINUOUS
 62
    7
 10
34.195815553106307
 20
6.4132026797054609
 11
33.729239381348002
 21
6.7831645936755312
  0
LINE
  8
_0-3______1
  6
CONTINUOUS
 62
    7
 10
34.30840127356435
 20
6.2362074540553243
 11
34.195815553106307
 21
6.4132026797054609
  0
LINE
  8
_0-3______1
  6
CONTINUOUS
 62
    7
 10
34.260225058298602
 20
6.1558264861934653
 11
34.30840127356435
 21
6.2362074540553243
  0
LINE
  8
_0-3______1
  6
CONTINUOUS
 62
    7
 10
33.375510757304518
 20
6.6224026579518043
 11
32.908934585546092
 21
7.0084669482198825
  0
LINE
  8
_0-3______1
  6
CONTINUOUS
 62
    7
 10
33.471863187835986
 20
6.4776121848977262
 11
33.375510757304518
 21
6.6224026579518043
  0
LINE
  8
_0-3______1
  6
CONTINUOUS
 62
    7
 10
33.423686972570259
 20
6.3648955508113234
 11
33.471863187835986
 21
6.4776121848977262
  0
LINE
  8
_0-3______1
  6
CONTINUOUS
 62
    7
 10
33.182282241727798
 20
6.4132026797054609
 11
33.423686972570259
 21
6.3648955508113234
  0
LINE
  8
_0-3______1
  6
CONTINUOUS
 62
    7
 10
32.94113933814225
 20
6.5579931527595141
 11
33.182282241727798
 21
6.4132026797054609
  0
LINE
  8
_0-3______1
  6
CONTINUOUS
 62
    7
 10
32.571177424172234
 20
6.9279550667296155
 11
32.94113933814225
 21
6.5579931527595141
  0
LINE
  8
_0-3______1
  6
CONTINUOUS
 62
    7
 10
32.554944134245773
 20
7.0888479160816651
 11
32.571177424172234
 21
6.9279550667296155
  0
LINE
  8
_0-3______1
  6
CONTINUOUS
 62
    7
 10
34.035053617382665
 20
6.1880312387895122
 11
34.260225058298602
 21
6.1558264861934653
  0
LINE
  8
_0-3______1
  6
CONTINUOUS
 62
    7
 10
33.616653660890051
 20
6.4776121848977262
 11
34.035053617382665
 21
6.1880312387895122
  0
LINE
  8
_0-3______1
  6
CONTINUOUS
 62
    7
 10
33.423686972570259
 20
6.6866812495156127
 11
33.616653660890051
 21
6.4776121848977262
  0
LINE
  8
_0-3______1
  6
CONTINUOUS
 62
    7
 10
33.375510757304518
 20
6.8797788514638514
 11
33.423686972570259
 21
6.6866812495156127
  0
LINE
  8
_0-3______1
  6
CONTINUOUS
 62
    7
 10
34.935739381046346
 20
5.9467574215755752
 11
35.096763144026959
 21
5.9306550452775131
  0
LINE
  8
_0-3______1
  6
CONTINUOUS
 62
    7
 10
34.517601251810603
 20
6.1880312387895122
 11
34.935739381046346
 21
5.9467574215755752
  0
LINE
  8
_0-3______1
  6
CONTINUOUS
 62
    7
 10
34.195815553106307
 20
6.5579931527595141
 11
34.517601251810603
 21
6.1880312387895122
  0
LINE
  8
_0-3______1
  6
CONTINUOUS
 62
    7
 10
34.195815553106307
 20
6.6544764969194521
 11
34.195815553106307
 21
6.5579931527595141
  0
LINE
  8
_0-3______1
  6
CONTINUOUS
 62
    7
 10
35.659691746316788
 20
5.7858645722234545
 11
35.917067939828847
 21
5.7053526907331253
  0
LINE
  8
_0-3______1
  6
CONTINUOUS
 62
    7
 10
35.209348864484888
 20
6.1075193572992506
 11
35.659691746316788
 21
5.7858645722234545
  0
LINE
  8
_0-3______1
  6
CONTINUOUS
 62
    7
 10
35.048325101504354
 20
6.3167193355455939
 11
35.209348864484888
 21
6.1075193572992506
  0
LINE
  8
_0-3______1
  6
CONTINUOUS
 62
    7
 10
35.032353638834685
 20
6.4454074323015904
 11
35.048325101504354
 21
6.3167193355455939
  0
LINE
  8
_0-3______1
  6
CONTINUOUS
 62
    7
 10
38.90922983144192
 20
26.923702674577882
 11
38.957406046707646
 21
26.682428857363888
  0
LINE
  8
_0-3______1
  6
CONTINUOUS
 62
    7
 10
38.716263143122106
 20
27.068493147631962
 11
38.90922983144192
 21
26.923702674577882
  0
LINE
  8
_0-3______1
  6
CONTINUOUS
 62
    7
 10
31.992015531955964
 20
28.789745534354381
 11
32.072396499817749
 21
28.789745534354381
  0
LINE
  8
_0-3______1
  6
CONTINUOUS
 62
    7
 10
31.782815553709625
 20
28.612881222332664
 11
31.782815553709625
 21
28.500164588246264
  0
LINE
  8
_0-3______1
  6
CONTINUOUS
 62
    7
 10
31.943839316690159
 20
28.789745534354381
 11
31.782815553709625
 21
28.612881222332664
  0
LINE
  8
_0-3______1
  6
CONTINUOUS
 62
    7
 10
38.90922983144192
 20
12.542186022357241
 11
38.796644110983884
 21
12.494009807091523
  0
LINE
  8
_0-3______1
  6
CONTINUOUS
 62
    7
 10
38.957406046707646
 20
12.735283624305517
 11
38.90922983144192
 21
12.542186022357241
  0
LINE
  8
_0-3______1
  6
CONTINUOUS
 62
    7
 10
38.684058390525969
 20
12.477907430793444
 11
38.76443935838784
 21
12.477907430793444
  0
LINE
  8
_0-3______1
  6
CONTINUOUS
 62
    7
 10
31.84722505890181
 20
14.360052666868084
 11
32.024220284552023
 21
14.199159817515955
  0
LINE
  8
_0-3______1
  6
CONTINUOUS
 62
    7
 10
31.782815553709625
 20
14.585224107784022
 11
31.84722505890181
 21
14.360052666868084
  0
LINE
  8
_0-3______1
  6
CONTINUOUS
 62
    7
 10
38.90922983144192
 20
12.606595527549523
 11
38.90922983144192
 21
12.735283624305517
  0
LINE
  8
_0-3______1
  6
CONTINUOUS
 62
    7
 10
38.76443935838784
 20
12.477907430793444
 11
38.90922983144192
 21
12.606595527549523
  0
LINE
  8
_0-3______1
  6
CONTINUOUS
 62
    7
 10
32.024220284552023
 20
28.789745534354381
 11
31.943839316690159
 21
28.789745534354381
  0
LINE
  8
_0-3______1
  6
CONTINUOUS
 62
    7
 10
38.844820326249625
 20
26.939805050875879
 11
38.684058390525969
 21
27.068493147631962
  0
LINE
  8
_0-3______1
  6
CONTINUOUS
 62
    7
 10
38.90922983144192
 20
26.682428857363888
 11
38.844820326249625
 21
26.939805050875879
  0
LINE
  8
_0-3______1
  6
CONTINUOUS
 62
    7
 10
48.593434581625026
 20
60.609219321972461
 11
48.464615571240579
 21
60.769981257696195
  0
LINE
  8
_0-3______1
  6
CONTINUOUS
 62
    7
 10
48.513053613763169
 20
60.480531225216424
 11
48.593434581625026
 21
60.609219321972461
  0
LINE
  8
_0-3______1
  6
CONTINUOUS
 62
    7
 10
46.98476791536055
 20
58.196219322575672
 11
46.824005979636787
 21
58.13180981738347
  0
LINE
  8
_0-3______1
  6
CONTINUOUS
 62
    7
 10
47.129558388414615
 20
58.373214548225889
 11
46.98476791536055
 21
58.196219322575672
  0
LINE
  8
_0-3______1
  6
CONTINUOUS
 62
    7
 10
47.209939356276458
 20
58.646562204407545
 11
47.129558388414615
 21
58.373214548225889
  0
LINE
  8
_0-3______1
  6
CONTINUOUS
 62
    7
 10
47.193967893606803
 20
58.968347903111805
 11
47.209939356276458
 21
58.646562204407545
  0
LINE
  8
_0-3______1
  6
CONTINUOUS
 62
    7
 10
48.593434581625026
 20
59.804885988840226
 11
48.464615571240579
 21
59.96564792456391
  0
LINE
  8
_0-3______1
  6
CONTINUOUS
 62
    7
 10
48.513053613763169
 20
59.660095515786104
 11
48.593434581625026
 21
59.804885988840226
  0
LINE
  8
_0-3______1
  6
CONTINUOUS
 62
    7
 10
48.593434581625026
 20
58.984450279409863
 11
48.464615571240579
 21
59.145343128762022
  0
LINE
  8
_0-3______1
  6
CONTINUOUS
 62
    7
 10
48.513053613763169
 20
58.871864558951941
 11
48.593434581625026
 21
58.984450279409863
  0
LINE
  8
_0-3______1
  6
CONTINUOUS
 62
    7
 10
48.464615571240579
 20
58.341009795629816
 11
48.432672645901299
 21
58.341009795629816
  0
LINE
  8
_0-3______1
  6
CONTINUOUS
 62
    7
 10
48.464615571240579
 20
59.145343128762022
 11
48.432672645901299
 21
59.145343128762022
  0
LINE
  8
_0-3______1
  6
CONTINUOUS
 62
    7
 10
48.464615571240579
 20
59.965778838192364
 11
48.432672645901299
 21
59.965778838192364
  0
LINE
  8
_0-3______1
  6
CONTINUOUS
 62
    7
 10
48.464615571240579
 20
60.770112171324605
 11
48.432672645901299
 21
60.770112171324605
  0
LINE
  8
_0-3______1
  6
CONTINUOUS
 62
    7
 10
48.52902507643276
 20
58.324907419331737
 11
48.464615571240579
 21
58.341009795629816
  0
LINE
  8
_0-3______1
  6
CONTINUOUS
 62
    7
 10
48.593434581625026
 20
58.180116946277678
 11
48.52902507643276
 21
58.324907419331737
  0
LINE
  8
_0-3______1
  6
CONTINUOUS
 62
    7
 10
48.513053613763169
 20
58.035326473223613
 11
48.593434581625026
 21
58.180116946277678
  0
LINE
  8
_0-3______1
  6
CONTINUOUS
 62
    7
 10
47.129558388414615
 20
59.257928849220029
 11
47.193967893606803
 21
58.968347903111805
  0
LINE
  8
_0-3______1
  6
CONTINUOUS
 62
    7
 10
46.968534625434003
 20
59.515305042732052
 11
47.129558388414615
 21
59.257928849220029
  0
LINE
  8
_0-3______1
  6
CONTINUOUS
 62
    7
 10
46.647010753986592
 20
59.756578859946046
 11
46.968534625434003
 21
59.515305042732052
  0
LINE
  8
_0-3______1
  6
CONTINUOUS
 62
    7
 10
46.421839313070656
 20
59.756578859946046
 11
46.647010753986592
 21
59.756578859946046
  0
LINE
  8
_0-3______1
  6
CONTINUOUS
 62
    7
 10
38.780672648314294
 20
39.535659811181802
 11
38.844820326249625
 21
39.632143155341751
  0
LINE
  8
_0-3______1
  6
CONTINUOUS
 62
    7
 10
37.895696520063339
 20
44.715519347647238
 11
37.783110799605332
 21
44.63513837978536
  0
LINE
  8
_0-3______1
  6
CONTINUOUS
 62
    7
 10
38.008282240521282
 20
44.940821702191663
 11
37.895696520063339
 21
44.715519347647238
  0
LINE
  8
_0-3______1
  6
CONTINUOUS
 62
    7
 10
38.056720283043873
 20
45.133788390511477
 11
38.008282240521282
 21
44.940821702191663
  0
LINE
  8
_0-3______1
  6
CONTINUOUS
 62
    7
 10
38.024515530447829
 20
45.423369336619601
 11
38.056720283043873
 21
45.133788390511477
  0
LINE
  8
_0-3______1
  6
CONTINUOUS
 62
    7
 10
46.711158431922001
 20
58.09960506478734
 11
46.598572711464008
 21
58.083633602117743
  0
LINE
  8
_0-3______1
  6
CONTINUOUS
 62
    7
 10
46.888153657572133
 20
58.292702666735615
 11
46.711158431922001
 21
58.09960506478734
  0
LINE
  8
_0-3______1
  6
CONTINUOUS
 62
    7
 10
46.968534625434003
 20
58.550078860247652
 11
46.888153657572133
 21
58.292702666735615
  0
LINE
  8
_0-3______1
  6
CONTINUOUS
 62
    7
 10
46.968534625434003
 20
58.903938397919639
 11
46.968534625434003
 21
58.550078860247652
  0
LINE
  8
_0-3______1
  6
CONTINUOUS
 62
    7
 10
46.952563162764406
 20
59.531407419030103
 11
46.839977442306484
 21
59.643993139488025
  0
LINE
  8
_0-3______1
  6
CONTINUOUS
 62
    7
 10
39.005844089230237
 20
44.956924078489727
 11
38.86105361617615
 21
44.908616949595533
  0
LINE
  8
_0-3______1
  6
CONTINUOUS
 62
    7
 10
39.150634562284289
 20
45.133788390511477
 11
39.005844089230237
 21
44.956924078489727
  0
LINE
  8
_0-3______1
  6
CONTINUOUS
 62
    7
 10
39.231015530146173
 20
45.326885992459744
 11
39.150634562284289
 21
45.133788390511477
  0
LINE
  8
_0-3______1
  6
CONTINUOUS
 62
    7
 10
39.231015530146173
 20
45.729052659025818
 11
39.231015530146173
 21
45.326885992459744
  0
LINE
  8
_0-3______1
  6
CONTINUOUS
 62
    7
 10
37.943988115748617
 20
39.392241659973998
 11
38.780672648314294
 21
39.535659811181802
  0
LINE
  8
_0-3______1
  6
CONTINUOUS
 62
    7
 10
37.380944133039257
 20
39.471381219618024
 11
37.943988115748617
 21
39.392241659973998
  0
LINE
  8
_0-3______1
  6
CONTINUOUS
 62
    7
 10
37.172005982049804
 20
39.567864563777945
 11
37.380944133039257
 21
39.471381219618024
  0
LINE
  8
_0-3______1
  6
CONTINUOUS
 62
    7
 10
37.155772692123314
 20
39.632143155341751
 11
37.172005982049804
 21
39.567864563777945
  0
LINE
  8
_0-3______1
  6
CONTINUOUS
 62
    7
 10
48.303853635516816
 20
58.244395537841484
 11
48.223472667655017
 21
58.276600290437528
  0
LINE
  8
_0-3______1
  6
CONTINUOUS
 62
    7
 10
48.352029850782571
 20
58.13180981738347
 11
48.303853635516816
 21
58.244395537841484
  0
LINE
  8
_0-3______1
  6
CONTINUOUS
 62
    7
 10
48.271648882920765
 20
57.9710478816598
 11
48.352029850782571
 21
58.13180981738347
  0
LINE
  8
_0-3______1
  6
CONTINUOUS
 62
    7
 10
48.303853635516816
 20
60.673497913536266
 11
48.223472667655017
 21
60.705702666132368
  0
LINE
  8
_0-3______1
  6
CONTINUOUS
 62
    7
 10
48.352029850782571
 20
60.560912193078252
 11
48.303853635516816
 21
60.673497913536266
  0
LINE
  8
_0-3______1
  6
CONTINUOUS
 62
    7
 10
48.352029850782571
 20
60.480531225216424
 11
48.352029850782571
 21
60.560912193078252
  0
LINE
  8
_0-3______1
  6
CONTINUOUS
 62
    7
 10
48.271648882920765
 20
60.432224096322244
 11
48.352029850782571
 21
60.480531225216424
  0
LINE
  8
_0-3______1
  6
CONTINUOUS
 62
    7
 10
39.086225057092093
 20
46.179395540857676
 11
39.231015530146173
 21
45.729052659025818
  0
LINE
  8
_0-3______1
  6
CONTINUOUS
 62
    7
 10
38.90922983144192
 20
46.388595519104022
 11
39.086225057092093
 21
46.179395540857676
  0
LINE
  8
_0-3______1
  6
CONTINUOUS
 62
    7
 10
38.684058390525969
 20
46.517283615860016
 11
38.90922983144192
 21
46.388595519104022
  0
LINE
  8
_0-3______1
  6
CONTINUOUS
 62
    7
 10
38.442653659683543
 20
46.517283615860016
 11
38.684058390525969
 21
46.517283615860016
  0
LINE
  8
_0-3______1
  6
CONTINUOUS
 62
    7
 10
38.008282240521282
 20
45.616466938567875
 11
38.024515530447829
 21
45.423369336619601
  0
LINE
  8
_0-3______1
  6
CONTINUOUS
 62
    7
 10
37.847520304797605
 20
45.938121723643683
 11
38.008282240521282
 21
45.616466938567875
  0
LINE
  8
_0-3______1
  6
CONTINUOUS
 62
    7
 10
37.477558390827618
 20
46.227702669751899
 11
37.847520304797605
 21
45.938121723643683
  0
LINE
  8
_0-3______1
  6
CONTINUOUS
 62
    7
 10
37.236153659985135
 20
46.227702669751899
 11
37.477558390827618
 21
46.227702669751899
  0
LINE
  8
_0-3______1
  6
CONTINUOUS
 62
    7
 10
48.352029850782571
 20
58.968347903111805
 11
48.223472667655017
 21
59.097035999867892
  0
LINE
  8
_0-3______1
  6
CONTINUOUS
 62
    7
 10
48.352029850782571
 20
58.871864558951941
 11
48.352029850782571
 21
58.968347903111805
  0
LINE
  8
_0-3______1
  6
CONTINUOUS
 62
    7
 10
48.271648882920765
 20
58.807455053759696
 11
48.352029850782571
 21
58.871864558951941
  0
LINE
  8
_0-3______1
  6
CONTINUOUS
 62
    7
 10
48.545258366359292
 20
48.576424077584797
 11
48.64161079689076
 21
48.351121723040457
  0
LINE
  8
_0-3______1
  6
CONTINUOUS
 62
    7
 10
48.319825098186499
 20
48.817697894798812
 11
48.545258366359292
 21
48.576424077584797
  0
LINE
  8
_0-3______1
  6
CONTINUOUS
 62
    7
 10
48.159063162462736
 20
48.898078862660661
 11
48.319825098186499
 21
48.817697894798812
  0
LINE
  8
_0-3______1
  6
CONTINUOUS
 62
    7
 10
47.933891721546829
 20
48.898078862660661
 11
48.159063162462736
 21
48.898078862660661
  0
LINE
  8
_0-3______1
  6
CONTINUOUS
 62
    7
 10
48.223472667655017
 20
58.276600290437528
 11
48.191267915058894
 21
58.276600290437528
  0
LINE
  8
_0-3______1
  6
CONTINUOUS
 62
    7
 10
46.888153657572133
 20
59.209621720325799
 11
46.968534625434003
 21
58.903938397919639
  0
LINE
  8
_0-3______1
  6
CONTINUOUS
 62
    7
 10
46.647010753986592
 20
59.563481257997751
 11
46.888153657572133
 21
59.209621720325799
  0
LINE
  8
_0-3______1
  6
CONTINUOUS
 62
    7
 10
46.405606023144195
 20
59.692300268382226
 11
46.647010753986592
 21
59.563481257997751
  0
LINE
  8
_0-3______1
  6
CONTINUOUS
 62
    7
 10
46.180434582228258
 20
59.692300268382226
 11
46.405606023144195
 21
59.692300268382226
  0
LINE
  8
_0-3______1
  6
CONTINUOUS
 62
    7
 10
48.223472667655017
 20
59.097035999867892
 11
48.191267915058894
 21
59.097035999867892
  0
LINE
  8
_0-3______1
  6
CONTINUOUS
 62
    7
 10
48.223472667655017
 20
59.901369333000119
 11
48.191267915058894
 21
59.901369333000119
  0
LINE
  8
_0-3______1
  6
CONTINUOUS
 62
    7
 10
48.352029850782571
 20
59.756578859946046
 11
48.223472667655017
 21
59.901369333000119
  0
LINE
  8
_0-3______1
  6
CONTINUOUS
 62
    7
 10
48.271648882920765
 20
59.595686010593887
 11
48.352029850782571
 21
59.756578859946046
  0
LINE
  8
_0-3______1
  6
CONTINUOUS
 62
    7
 10
48.223472667655017
 20
60.705702666132368
 11
48.191267915058894
 21
60.705702666132368
  0
LINE
  8
_0-3______1
  6
CONTINUOUS
 62
    7
 10
52.100348860262187
 20
59.82098836513822
 11
52.035939355069956
 21
59.837090741436306
  0
LINE
  8
_0-3______1
  6
CONTINUOUS
 62
    7
 10
52.132553612858317
 20
59.724374107349888
 11
52.100348860262187
 21
59.82098836513822
  0
LINE
  8
_0-3______1
  6
CONTINUOUS
 62
    7
 10
52.116320322931784
 20
59.595686010593887
 11
52.132553612858317
 21
59.724374107349888
  0
LINE
  8
_0-3______1
  6
CONTINUOUS
 62
    7
 10
52.052172644996432
 20
59.563612171626232
 11
52.116320322931784
 21
59.595686010593887
  0
LINE
  8
_0-3______1
  6
CONTINUOUS
 62
    7
 10
50.636472667051727
 20
57.359681236847329
 11
50.395067936209344
 21
57.198788387495199
  0
LINE
  8
_0-3______1
  6
CONTINUOUS
 62
    7
 10
52.132553612858317
 20
58.903938397919639
 11
52.035939355069956
 21
59.048728870973676
  0
LINE
  8
_0-3______1
  6
CONTINUOUS
 62
    7
 10
52.100348860262187
 20
58.743176462195862
 11
52.132553612858317
 21
58.903938397919639
  0
LINE
  8
_0-3______1
  6
CONTINUOUS
 62
    7
 10
52.052172644996432
 20
58.743176462195862
 11
52.100348860262187
 21
58.743176462195862
  0
LINE
  8
_0-3______1
  6
CONTINUOUS
 62
    7
 10
52.132553612858317
 20
58.09960506478734
 11
52.035939355069956
 21
58.244395537841484
  0
LINE
  8
_0-3______1
  6
CONTINUOUS
 62
    7
 10
52.116320322931784
 20
57.9710478816598
 11
52.132553612858317
 21
58.09960506478734
  0
LINE
  8
_0-3______1
  6
CONTINUOUS
 62
    7
 10
52.052172644996432
 20
57.938843129063663
 11
52.116320322931784
 21
57.9710478816598
  0
LINE
  8
_0-3______1
  6
CONTINUOUS
 62
    7
 10
52.035939355069956
 20
57.424090742039596
 11
51.987763139804159
 21
57.424090742039596
  0
LINE
  8
_0-3______1
  6
CONTINUOUS
 62
    7
 10
52.035939355069956
 20
58.244395537841484
 11
51.987763139804159
 21
58.244395537841484
  0
LINE
  8
_0-3______1
  6
CONTINUOUS
 62
    7
 10
52.035939355069956
 20
59.048728870973676
 11
51.987763139804159
 21
59.048728870973676
  0
LINE
  8
_0-3______1
  6
CONTINUOUS
 62
    7
 10
52.035939355069956
 20
59.837090741436306
 11
51.987763139804159
 21
59.837090741436306
  0
LINE
  8
_0-3______1
  6
CONTINUOUS
 62
    7
 10
52.132553612858317
 20
57.279300268985509
 11
52.035939355069956
 21
57.424090742039596
  0
LINE
  8
_0-3______1
  6
CONTINUOUS
 62
    7
 10
52.100348860262187
 20
57.118407419633378
 11
52.132553612858317
 21
57.279300268985509
  0
LINE
  8
_0-3______1
  6
CONTINUOUS
 62
    7
 10
52.052172644996432
 20
57.118407419633378
 11
52.100348860262187
 21
57.118407419633378
  0
LINE
  8
_0-3______1
  6
CONTINUOUS
 62
    7
 10
50.781938802729087
 20
57.868272245542272
 11
50.636472667051727
 21
57.359681236847329
  0
LINE
  8
_0-3______1
  6
CONTINUOUS
 62
    7
 10
50.636472667051727
 20
58.437493139789652
 11
50.781938802729087
 21
57.868272245542272
  0
LINE
  8
_0-3______1
  6
CONTINUOUS
 62
    7
 10
50.298715505677869
 20
58.791352677461674
 11
50.636472667051727
 21
58.437493139789652
  0
LINE
  8
_0-3______1
  6
CONTINUOUS
 62
    7
 10
49.960696517047069
 20
58.82355743005774
 11
50.298715505677869
 21
58.791352677461674
  0
LINE
  8
_0-3______1
  6
CONTINUOUS
 62
    7
 10
40.743067938622346
 20
44.040005024899521
 11
40.566072712972129
 21
43.863009799249305
  0
LINE
  8
_0-3______1
  6
CONTINUOUS
 62
    7
 10
50.298715505677869
 20
57.198788387495199
 11
50.153925032623803
 21
57.150612172229437
  0
LINE
  8
_0-3______1
  6
CONTINUOUS
 62
    7
 10
50.395067936209344
 20
57.311505021581596
 11
50.298715505677869
 21
57.198788387495199
  0
LINE
  8
_0-3______1
  6
CONTINUOUS
 62
    7
 10
50.507653656667266
 20
58.598385989141804
 11
50.411301226135777
 21
58.710971709599818
  0
LINE
  8
_0-3______1
  6
CONTINUOUS
 62
    7
 10
38.941434584038049
 20
39.165697897211814
 11
38.957406046707646
 21
39.149595520913735
  0
LINE
  8
_0-3______1
  6
CONTINUOUS
 62
    7
 10
51.891148882015834
 20
57.247095516389379
 11
51.794534624227481
 21
57.359681236847329
  0
LINE
  8
_0-3______1
  6
CONTINUOUS
 62
    7
 10
51.891148882015834
 20
57.118407419633378
 11
51.891148882015834
 21
57.247095516389379
  0
LINE
  8
_0-3______1
  6
CONTINUOUS
 62
    7
 10
51.826739376823653
 20
57.070100290739163
 11
51.891148882015834
 21
57.118407419633378
  0
LINE
  8
_0-3______1
  6
CONTINUOUS
 62
    7
 10
40.871886949006829
 20
44.232971713219321
 11
40.743067938622346
 21
44.03987411127104
  0
LINE
  8
_0-3______1
  6
CONTINUOUS
 62
    7
 10
40.898560433004299
 20
44.448960303005151
 11
40.871886949006829
 21
44.232971713219321
  0
LINE
  8
_0-3______1
  6
CONTINUOUS
 62
    7
 10
40.890540063572608
 20
44.708625127866412
 11
40.898560433004299
 21
44.448960303005151
  0
LINE
  8
_0-3______1
  6
CONTINUOUS
 62
    7
 10
40.791505981144937
 20
45.021202670053448
 11
40.890540063572608
 21
44.708625127866412
  0
LINE
  8
_0-3______1
  6
CONTINUOUS
 62
    7
 10
40.550101250302532
 20
45.37506220772547
 11
40.791505981144937
 21
45.021202670053448
  0
LINE
  8
_0-3______1
  6
CONTINUOUS
 62
    7
 10
40.324929809386596
 20
45.48777884181186
 11
40.550101250302532
 21
45.37506220772547
  0
LINE
  8
_0-3______1
  6
CONTINUOUS
 62
    7
 10
40.099758368470674
 20
45.48777884181186
 11
40.324929809386596
 21
45.48777884181186
  0
LINE
  8
_0-3______1
  6
CONTINUOUS
 62
    7
 10
51.89203159016779
 20
58.029967795834388
 11
51.794534624227481
 21
58.164014569979578
  0
LINE
  8
_0-3______1
  6
CONTINUOUS
 62
    7
 10
51.875177419346244
 20
57.890536000169448
 11
51.89203159016779
 21
58.029967795834388
  0
LINE
  8
_0-3______1
  6
CONTINUOUS
 62
    7
 10
51.826739376823653
 20
57.874433623871461
 11
51.875177419346244
 21
57.890536000169448
  0
LINE
  8
_0-3______1
  6
CONTINUOUS
 62
    7
 10
48.834839312467423
 20
46.774659809372089
 11
48.609406044294623
 21
46.613766960019909
  0
LINE
  8
_0-3______1
  6
CONTINUOUS
 62
    7
 10
48.915220280329287
 20
46.90334790612809
 11
48.834839312467423
 21
46.774659809372089
  0
LINE
  8
_0-3______1
  6
CONTINUOUS
 62
    7
 10
48.979367958264646
 20
47.3216169489923
 11
48.915220280329287
 21
46.90334790612809
  0
LINE
  8
_0-3______1
  6
CONTINUOUS
 62
    7
 10
48.850810775137049
 20
47.788062207122188
 11
48.979367958264646
 21
47.3216169489923
  0
LINE
  8
_0-3______1
  6
CONTINUOUS
 62
    7
 10
48.593434581625026
 20
48.125950282124506
 11
48.850810775137049
 21
47.788062207122188
  0
LINE
  8
_0-3______1
  6
CONTINUOUS
 62
    7
 10
50.153925032623803
 20
47.482509798344459
 11
50.009134559569659
 21
47.064240755480228
  0
LINE
  8
_0-3______1
  6
CONTINUOUS
 62
    7
 10
50.073282237505069
 20
48.029466937964592
 11
50.153925032623803
 21
47.482509798344459
  0
LINE
  8
_0-3______1
  6
CONTINUOUS
 62
    7
 10
49.799934581323384
 20
48.415531228232659
 11
50.073282237505069
 21
48.029466937964592
  0
LINE
  8
_0-3______1
  6
CONTINUOUS
 62
    7
 10
49.574763140407434
 20
48.528116948690688
 11
49.799934581323384
 21
48.415531228232659
  0
LINE
  8
_0-3______1
  6
CONTINUOUS
 62
    7
 10
49.365563162161095
 20
48.528116948690688
 11
49.574763140407434
 21
48.528116948690688
  0
LINE
  8
_0-3______1
  6
CONTINUOUS
 62
    7
 10
51.794534624227481
 20
57.359681236847329
 11
51.746358408961754
 21
57.359681236847329
  0
LINE
  8
_0-3______1
  6
CONTINUOUS
 62
    7
 10
51.891148882015834
 20
59.676197892084183
 11
51.794534624227481
 21
59.772681236244104
  0
LINE
  8
_0-3______1
  6
CONTINUOUS
 62
    7
 10
51.875177419346244
 20
59.515305042732052
 11
51.891148882015834
 21
59.676197892084183
  0
LINE
  8
_0-3______1
  6
CONTINUOUS
 62
    7
 10
51.826739376823653
 20
59.499202666433945
 11
51.875177419346244
 21
59.515305042732052
  0
LINE
  8
_0-3______1
  6
CONTINUOUS
 62
    7
 10
50.009134559569659
 20
47.064240755480228
 11
49.767729828727248
 21
46.90334790612809
  0
LINE
  8
_0-3______1
  6
CONTINUOUS
 62
    7
 10
51.794534624227481
 20
58.164014569979578
 11
51.746358408961754
 21
58.164014569979578
  0
LINE
  8
_0-3______1
  6
CONTINUOUS
 62
    7
 10
50.534172351919096
 20
57.723401217938346
 11
50.395067936209344
 21
57.311374107953185
  0
LINE
  8
_0-3______1
  6
CONTINUOUS
 62
    7
 10
50.459477441401532
 20
58.260497914139478
 11
50.534172351919096
 21
57.723401217938346
  0
LINE
  8
_0-3______1
  6
CONTINUOUS
 62
    7
 10
50.169896495293408
 20
58.662664580705602
 11
50.459477441401532
 21
58.260497914139478
  0
LINE
  8
_0-3______1
  6
CONTINUOUS
 62
    7
 10
49.928491764450989
 20
58.791352677461674
 11
50.169896495293408
 21
58.662664580705602
  0
LINE
  8
_0-3______1
  6
CONTINUOUS
 62
    7
 10
49.719553613461514
 20
58.759278838493948
 11
49.928491764450989
 21
58.791352677461674
  0
LINE
  8
_0-3______1
  6
CONTINUOUS
 62
    7
 10
51.794534624227481
 20
58.984450279409863
 11
51.746358408961754
 21
58.984450279409863
  0
LINE
  8
_0-3______1
  6
CONTINUOUS
 62
    7
 10
51.891148882015834
 20
58.871864558951941
 11
51.794534624227481
 21
58.984450279409863
  0
LINE
  8
_0-3______1
  6
CONTINUOUS
 62
    7
 10
51.891148882015834
 20
58.743176462195862
 11
51.891148882015834
 21
58.871864558951941
  0
LINE
  8
_0-3______1
  6
CONTINUOUS
 62
    7
 10
51.826739376823653
 20
58.678766957003688
 11
51.891148882015834
 21
58.743176462195862
  0
LINE
  8
_0-3______1
  6
CONTINUOUS
 62
    7
 10
51.794534624227481
 20
59.772681236244104
 11
51.746358408961754
 21
59.772681236244104
  0
LINE
  8
_0-3______1
  6
CONTINUOUS
 62
    7
 10
40.598277465568266
 20
39.101288392019605
 11
40.598277465568266
 21
39.165697897211814
  0
LINE
  8
_0-3______1
  6
CONTINUOUS
 62
    7
 10
40.421282239918057
 20
39.020907424157734
 11
40.598277465568266
 21
39.101288392019605
  0
LINE
  8
_0-3______1
  6
CONTINUOUS
 62
    7
 10
39.831554901388749
 20
38.958192516471144
 11
40.421282239918057
 21
39.020907424157734
  0
LINE
  8
_0-3______1
  6
CONTINUOUS
 62
    7
 10
39.118429809688223
 20
39.020907424157734
 11
39.831554901388749
 21
38.958192516471144
  0
LINE
  8
_0-3______1
  6
CONTINUOUS
 62
    7
 10
38.957406046707646
 20
39.149595520913735
 11
39.118429809688223
 21
39.020907424157734
  0
LINE
  8
_0-3______1
  6
CONTINUOUS
 62
    7
 10
40.019115573351925
 20
38.634843133889667
 11
39.938734605490026
 21
38.602638381293524
  0
LINE
  8
_0-3______1
  6
CONTINUOUS
 62
    7
 10
40.550101250302532
 20
38.779633606943747
 11
40.566072712972129
 21
38.843912198507525
  0
LINE
  8
_0-3______1
  6
CONTINUOUS
 62
    7
 10
40.373106024652316
 20
38.715224101751524
 11
40.550101250302532
 21
38.779633606943747
  0
LINE
  8
_0-3______1
  6
CONTINUOUS
 62
    7
 10
38.619648885333774
 20
39.181800273509872
 11
38.780672648314294
 21
39.294385993967786
  0
LINE
  8
_0-3______1
  6
CONTINUOUS
 62
    7
 10
37.847520304797605
 20
39.149595520913735
 11
37.670525079147396
 21
39.101288392019605
  0
LINE
  8
_0-3______1
  6
CONTINUOUS
 62
    7
 10
38.330067939225543
 20
39.133493144615656
 11
37.847520304797605
 21
39.149595520913735
  0
LINE
  8
_0-3______1
  6
CONTINUOUS
 62
    7
 10
40.115729831140278
 20
38.667047886485797
 11
39.456186971062124
 21
38.667047886485797
  0
LINE
  8
_0-3______1
  6
CONTINUOUS
 62
    7
 10
35.193115574558412
 20
40.500885993666223
 11
35.032353638834685
 21
40.500885993666223
  0
LINE
  8
_0-3______1
  6
CONTINUOUS
 62
    7
 10
33.55250598295472
 20
40.227407423856093
 11
33.407715509900576
 21
40.227407423856093
  0
LINE
  8
_0-3______1
  6
CONTINUOUS
 62
    7
 10
42.946867959772796
 20
37.975300273811534
 11
42.770134561379443
 21
37.846481263427052
  0
LINE
  8
_0-3______1
  6
CONTINUOUS
 62
    7
 10
42.448348862675189
 20
38.618740757591581
 11
42.287325099694556
 21
38.618740757591581
  0
LINE
  8
_0-3______1
  6
CONTINUOUS
 62
    7
 10
42.946867959772796
 20
1.1689336380478152
 11
42.770134561379443
 21
1.0402455412918357
  0
LINE
  8
_0-3______1
  6
CONTINUOUS
 62
    7
 10
34.903534628450267
 20
40.533090746262303
 11
35.032353638834685
 21
40.500885993666223
  0
LINE
  8
_0-3______1
  6
CONTINUOUS
 62
    7
 10
41.338201293508284
 20
0.3164240896497858
 11
41.370406046104335
 21
0.6058741221295463
  0
LINE
  8
_0-3______1
  6
CONTINUOUS
 62
    7
 10
41.097058389922744
 20
0.0750193588074069
 11
41.338201293508284
 21
0.3164240896497858
  0
LINE
  8
_0-3______1
  6
CONTINUOUS
 62
    7
 10
42.737929808783313
 20
0.7667669714816725
 11
42.496525077940909
 21
0.5254931542676616
  0
LINE
  8
_0-3______1
  6
CONTINUOUS
 62
    7
 10
42.770134561379443
 20
1.0402455412918357
 11
42.737929808783313
 21
0.7667669714816725
  0
LINE
  8
_0-3______1
  6
CONTINUOUS
 62
    7
 10
42.737929808783313
 20
38.152164585833262
 11
42.770134561379443
 21
37.846612177055427
  0
LINE
  8
_0-3______1
  6
CONTINUOUS
 62
    7
 10
42.625344088325363
 20
38.377466940377587
 11
42.737929808783313
 21
38.152164585833262
  0
LINE
  8
_0-3______1
  6
CONTINUOUS
 62
    7
 10
42.496525077940909
 20
38.538228876101343
 11
42.625344088325363
 21
38.377466940377587
  0
LINE
  8
_0-3______1
  6
CONTINUOUS
 62
    7
 10
42.287325099694556
 20
38.618740757591581
 11
42.496525077940909
 21
38.538228876101343
  0
LINE
  8
_0-3______1
  6
CONTINUOUS
 62
    7
 10
38.442653659683543
 20
39.455278843319945
 11
37.670525079147396
 21
39.439176467021866
  0
LINE
  8
_0-3______1
  6
CONTINUOUS
 62
    7
 10
38.684058390525969
 20
39.390869338127722
 11
38.442653659683543
 21
39.455278843319945
  0
LINE
  8
_0-3______1
  6
CONTINUOUS
 62
    7
 10
38.780672648314294
 20
39.294385993967786
 11
38.684058390525969
 21
39.390869338127722
  0
LINE
  8
_0-3______1
  6
CONTINUOUS
 62
    7
 10
39.938734605490026
 20
38.554331252399393
 11
40.035348863278379
 21
38.538228876101343
  0
LINE
  8
_0-3______1
  6
CONTINUOUS
 62
    7
 10
39.938734605490026
 20
38.602638381293524
 11
39.938734605490026
 21
38.554331252399393
  0
LINE
  8
_0-3______1
  6
CONTINUOUS
 62
    7
 10
40.340901272056229
 20
38.972600295263526
 11
39.456186971062124
 21
38.988702671561605
  0
LINE
  8
_0-3______1
  6
CONTINUOUS
 62
    7
 10
40.566072712972129
 20
38.843912198507525
 11
40.340901272056229
 21
38.972600295263526
  0
LINE
  8
_0-3______1
  6
CONTINUOUS
 62
    7
 10
38.571472670068026
 20
38.908321703699713
 11
39.021815551899834
 21
38.908321703699713
  0
LINE
  8
_0-3______1
  6
CONTINUOUS
 62
    7
 10
41.097058389922744
 20
38.216574091025457
 11
40.904091701602852
 21
38.313057435185392
  0
LINE
  8
_0-3______1
  6
CONTINUOUS
 62
    7
 10
41.274053615572875
 20
37.991271736481131
 11
41.097058389922744
 21
38.216574091025457
  0
LINE
  8
_0-3______1
  6
CONTINUOUS
 62
    7
 10
41.370406046104335
 20
37.524826478351166
 11
41.274053615572875
 21
37.991271736481131
  0
LINE
  8
_0-3______1
  6
CONTINUOUS
 62
    7
 10
41.097058389922744
 20
0.0911217351054517
 11
40.936034626942124
 21
0.0268431435416403
  0
LINE
  8
_0-3______1
  6
CONTINUOUS
 62
    7
 10
41.177439357784557
 20
0.2198098318614654
 11
41.097058389922744
 21
0.0911217351054517
  0
LINE
  8
_0-3______1
  6
CONTINUOUS
 62
    7
 10
41.257820325646414
 20
0.5576979068638252
 11
41.177439357784557
 21
0.2198098318614654
  0
LINE
  8
_0-3______1
  6
CONTINUOUS
 62
    7
 10
41.20964411038068
 20
37.830509800757461
 11
41.257820325646414
 21
37.508724102053115
  0
LINE
  8
_0-3______1
  6
CONTINUOUS
 62
    7
 10
41.097058389922744
 20
38.055681241673312
 11
41.20964411038068
 21
37.830509800757461
  0
LINE
  8
_0-3______1
  6
CONTINUOUS
 62
    7
 10
40.791505981144937
 20
38.280852682589263
 11
41.097058389922744
 21
38.055681241673312
  0
LINE
  8
_0-3______1
  6
CONTINUOUS
 62
    7
 10
31.815020306305748
 20
28.966740760004576
 11
31.895401274167554
 21
28.966740760004576
  0
LINE
  8
_0-3______1
  6
CONTINUOUS
 62
    7
 10
33.246691746920042
 20
40.179100294961962
 11
33.423686972570259
 21
40.179100294961962
  0
LINE
  8
_0-3______1
  6
CONTINUOUS
 62
    7
 10
34.168005356236833
 20
37.296035048683414
 11
34.195815553106307
 21
37.685719327703296
  0
LINE
  8
_0-3______1
  6
CONTINUOUS
 62
    7
 10
34.018820327456126
 20
36.800874113080745
 11
34.168005356236833
 21
37.296035048683414
  0
LINE
  8
_0-3______1
  6
CONTINUOUS
 62
    7
 10
33.858058391732463
 20
36.591805048462888
 11
34.018820327456126
 21
36.800874113080745
  0
LINE
  8
_0-3______1
  6
CONTINUOUS
 62
    7
 10
33.665091703412649
 20
36.479219328004937
 11
33.858058391732463
 21
36.591805048462888
  0
LINE
  8
_0-3______1
  6
CONTINUOUS
 62
    7
 10
38.249686971363758
 20
3.0993860030165936
 11
38.024515530447829
 21
3.0993860030165936
  0
LINE
  8
_0-3______1
  6
CONTINUOUS
 62
    7
 10
38.957406046707646
 20
27.004214556068138
 11
39.005844089230237
 21
26.811116954119882
  0
LINE
  8
_0-3______1
  6
CONTINUOUS
 62
    7
 10
38.90922983144192
 20
27.116800276526092
 11
38.957406046707646
 21
27.004214556068138
  0
LINE
  8
_0-3______1
  6
CONTINUOUS
 62
    7
 10
38.780672648314294
 20
27.197181244387952
 11
38.90922983144192
 21
27.116800276526092
  0
LINE
  8
_0-3______1
  6
CONTINUOUS
 62
    7
 10
38.957406046707646
 20
12.349219334037441
 11
38.86105361617615
 21
12.300912205143227
  0
LINE
  8
_0-3______1
  6
CONTINUOUS
 62
    7
 10
39.005844089230237
 20
12.542186022357241
 11
38.957406046707646
 21
12.349219334037441
  0
LINE
  8
_0-3______1
  6
CONTINUOUS
 62
    7
 10
32.94113933814225
 20
5.8180693248195245
 11
32.748172649822429
 21
5.7858645722234545
  0
LINE
  8
_0-3______1
  6
CONTINUOUS
 62
    7
 10
33.488096477762454
 20
5.7536598196273054
 11
32.94113933814225
 21
5.8180693248195245
  0
LINE
  8
_0-3______1
  6
CONTINUOUS
 62
    7
 10
40.324929809386596
 20
3.2762503150383226
 11
40.083525078544113
 21
3.3567621965286039
  0
LINE
  8
_0-3______1
  6
CONTINUOUS
 62
    7
 10
40.469720282440633
 20
3.0188741215263466
 11
40.324929809386596
 21
3.2762503150383226
  0
LINE
  8
_0-3______1
  6
CONTINUOUS
 62
    7
 10
40.501925035036805
 20
2.5041217345021725
 11
40.469720282440633
 21
3.0188741215263466
  0
LINE
  8
_0-3______1
  6
CONTINUOUS
 62
    7
 10
31.830991768975345
 20
10.772757420369082
 11
31.734639338443863
 21
10.611864571016955
  0
LINE
  8
_0-3______1
  6
CONTINUOUS
 62
    7
 10
32.024220284552023
 20
10.901445517125095
 11
31.830991768975345
 21
10.772757420369082
  0
LINE
  8
_0-3______1
  6
CONTINUOUS
 62
    7
 10
32.249391725467959
 20
10.901445517125095
 11
32.024220284552023
 21
10.901445517125095
  0
LINE
  8
_0-3______1
  6
CONTINUOUS
 62
    7
 10
40.003144110682328
 20
0.2198098318614654
 11
40.051320325948069
 21
0.4129074338097155
  0
LINE
  8
_0-3______1
  6
CONTINUOUS
 62
    7
 10
39.810177422362528
 20
0.155531240297654
 11
40.003144110682328
 21
0.2198098318614654
  0
LINE
  8
_0-3______1
  6
CONTINUOUS
 62
    7
 10
38.008282240521282
 20
2.5524288633963863
 11
37.863491767467217
 21
2.2467455409901902
  0
LINE
  8
_0-3______1
  6
CONTINUOUS
 62
    7
 10
38.265658434033369
 20
2.7937026806103917
 11
38.008282240521282
 21
2.5524288633963863
  0
LINE
  8
_0-3______1
  6
CONTINUOUS
 62
    7
 10
38.410448907087435
 20
2.8581121858025824
 11
38.265658434033369
 21
2.7937026806103917
  0
LINE
  8
_0-3______1
  6
CONTINUOUS
 62
    7
 10
38.780672648314294
 20
2.8581121858025824
 11
38.410448907087435
 21
2.8581121858025824
  0
LINE
  8
_0-3______1
  6
CONTINUOUS
 62
    7
 10
32.329772693329836
 20
39.535659811181802
 11
32.281596478064102
 21
39.310488370265894
  0
LINE
  8
_0-3______1
  6
CONTINUOUS
 62
    7
 10
32.490534629053499
 20
39.567864563777945
 11
32.329772693329836
 21
39.535659811181802
  0
LINE
  8
_0-3______1
  6
CONTINUOUS
 62
    7
 10
33.84182510180591
 20
36.881385994571097
 11
34.099201295317997
 21
36.977869338730962
  0
LINE
  8
_0-3______1
  6
CONTINUOUS
 62
    7
 10
33.55250598295472
 20
36.897488370869148
 11
33.84182510180591
 21
36.881385994571097
  0
LINE
  8
_0-3______1
  6
CONTINUOUS
 62
    7
 10
35.096763144026959
 20
39.310488370265894
 11
34.726801230056928
 21
39.439176467021866
  0
LINE
  8
_0-3______1
  6
CONTINUOUS
 62
    7
 10
35.128967896623109
 20
39.181800273509872
 11
35.096763144026959
 21
39.310488370265894
  0
LINE
  8
_0-3______1
  6
CONTINUOUS
 62
    7
 10
35.032353638834685
 20
39.133493144615656
 11
35.128967896623109
 21
39.181800273509872
  0
LINE
  8
_0-3______1
  6
CONTINUOUS
 62
    7
 10
39.649153659381909
 20
37.749997919267102
 11
39.408010755796369
 21
37.894788392321182
  0
LINE
  8
_0-3______1
  6
CONTINUOUS
 62
    7
 10
39.777972669766385
 20
37.573133607245346
 11
39.649153659381909
 21
37.749997919267102
  0
LINE
  8
_0-3______1
  6
CONTINUOUS
 62
    7
 10
39.890558390224328
 20
37.122659811785091
 11
39.777972669766385
 21
37.573133607245346
  0
LINE
  8
_0-3______1
  6
CONTINUOUS
 62
    7
 10
34.871591703111008
 20
39.069214553051872
 11
34.646158434938208
 21
39.052981263125417
  0
LINE
  8
_0-3______1
  6
CONTINUOUS
 62
    7
 10
32.313801230660168
 20
36.768800274113097
 11
32.088367962487432
 21
36.768800274113097
  0
LINE
  8
_0-3______1
  6
CONTINUOUS
 62
    7
 10
32.136806005010037
 20
36.72049314521896
 11
31.91163456409409
 21
36.688288392622837
  0
LINE
  8
_0-3______1
  6
CONTINUOUS
 62
    7
 10
37.284591702507804
 20
0.6863860036197935
 11
37.043186971665328
 21
0.4932884016716059
  0
LINE
  8
_0-3______1
  6
CONTINUOUS
 62
    7
 10
37.364972670369582
 20
1.0241431649937454
 11
37.284591702507804
 21
0.6863860036197935
  0
LINE
  8
_0-3______1
  6
CONTINUOUS
 62
    7
 10
32.94113933814225
 20
35.642681242276602
 11
32.715967897226314
 21
35.707090747468797
  0
LINE
  8
_0-3______1
  6
CONTINUOUS
 62
    7
 10
33.262925036846518
 20
35.658783618574681
 11
32.94113933814225
 21
35.642681242276602
  0
LINE
  8
_0-3______1
  6
CONTINUOUS
 62
    7
 10
33.648858413486117
 20
35.819676467926811
 11
33.262925036846518
 21
35.658783618574681
  0
LINE
  8
_0-3______1
  6
CONTINUOUS
 62
    7
 10
33.922467896924722
 20
36.060950285140756
 11
33.648858413486117
 21
35.819676467926811
  0
LINE
  8
_0-3______1
  6
CONTINUOUS
 62
    7
 10
34.218679821267749
 20
36.54585347795355
 11
33.922467896924722
 21
36.060950285140756
  0
LINE
  8
_0-3______1
  6
CONTINUOUS
 62
    7
 10
34.324634563490797
 20
36.833078865676917
 11
34.218679821267749
 21
36.54585347795355
  0
LINE
  8
_0-3______1
  6
CONTINUOUS
 62
    7
 10
34.40501553135266
 20
37.540928854649245
 11
34.324634563490797
 21
36.833078865676917
  0
LINE
  8
_0-3______1
  6
CONTINUOUS
 62
    7
 10
39.777972669766385
 20
2.9706979062605914
 11
39.890558390224328
 21
3.3406598202306044
  0
LINE
  8
_0-3______1
  6
CONTINUOUS
 62
    7
 10
39.61694890678578
 20
2.8259074332064644
 11
39.777972669766385
 21
2.9706979062605914
  0
LINE
  8
_0-3______1
  6
CONTINUOUS
 62
    7
 10
39.504363186327851
 20
2.809805056908397
 11
39.61694890678578
 21
2.8259074332064644
  0
LINE
  8
_0-3______1
  6
CONTINUOUS
 62
    7
 10
40.003144110682328
 20
3.0349764978243119
 11
40.083525078544113
 21
3.3567621965286039
  0
LINE
  8
_0-3______1
  6
CONTINUOUS
 62
    7
 10
39.890558390224328
 20
2.9062884010683208
 11
40.003144110682328
 21
3.0349764978243119
  0
LINE
  8
_0-3______1
  6
CONTINUOUS
 62
    7
 10
39.713563164574083
 20
2.8259074332064644
 11
39.890558390224328
 21
2.9062884010683208
  0
LINE
  8
_0-3______1
  6
CONTINUOUS
 62
    7
 10
37.075391724261458
 20
0.6380788747256759
 11
37.155772692123314
 21
0.9919384123976158
  0
LINE
  8
_0-3______1
  6
CONTINUOUS
 62
    7
 10
36.962806003803543
 20
0.4932884016716059
 11
37.075391724261458
 21
0.6380788747256759
  0
LINE
  8
_0-3______1
  6
CONTINUOUS
 62
    7
 10
36.850220283345543
 20
0.4612145627038558
 11
36.962806003803543
 21
0.4932884016716059
  0
LINE
  8
_0-3______1
  6
CONTINUOUS
 62
    7
 10
31.815020306305748
 20
8.5849288618882333
 11
31.830991768975345
 21
8.5849288618882333
  0
LINE
  8
_0-3______1
  6
CONTINUOUS
 62
    7
 10
37.783110799605332
 20
3.0349764978243119
 11
38.024515530447829
 21
3.0993860030165936
  0
LINE
  8
_0-3______1
  6
CONTINUOUS
 62
    7
 10
37.477558390827618
 20
2.7937026806103917
 11
37.783110799605332
 21
3.0349764978243119
  0
LINE
  8
_0-3______1
  6
CONTINUOUS
 62
    7
 10
37.236153659985135
 20
2.3593312614481023
 11
37.477558390827618
 21
2.7937026806103917
  0
LINE
  8
_0-3______1
  6
CONTINUOUS
 62
    7
 10
37.155772692123314
 20
1.7319931539660218
 11
37.236153659985135
 21
2.3593312614481023
  0
LINE
  8
_0-3______1
  6
CONTINUOUS
 62
    7
 10
33.407715509900576
 20
36.414809822812671
 11
33.150339316388568
 21
36.447014575408836
  0
LINE
  8
_0-3______1
  6
CONTINUOUS
 62
    7
 10
33.665091703412649
 20
36.479219328004937
 11
33.407715509900576
 21
36.414809822812671
  0
LINE
  8
_0-3______1
  6
CONTINUOUS
 62
    7
 10
37.408588202879457
 20
2.2727566822507641
 11
37.364972670369582
 21
1.7803002828602361
  0
LINE
  8
_0-3______1
  6
CONTINUOUS
 62
    7
 10
37.557939358689474
 20
2.6650145838543269
 11
37.408588202879457
 21
2.2727566822507641
  0
LINE
  8
_0-3______1
  6
CONTINUOUS
 62
    7
 10
37.783110799605332
 20
2.9384931536644618
 11
37.557939358689474
 21
2.6650145838543269
  0
LINE
  8
_0-3______1
  6
CONTINUOUS
 62
    7
 10
38.104896498309685
 20
3.1154883793146553
 11
37.783110799605332
 21
2.9384931536644618
  0
LINE
  8
_0-3______1
  6
CONTINUOUS
 62
    7
 10
31.605820328059423
 20
2.1985693257244465
 11
31.509467897527955
 21
2.3111550461823755
  0
LINE
  8
_0-3______1
  6
CONTINUOUS
 62
    7
 10
31.702434585847744
 20
2.1824669494263733
 11
31.605820328059423
 21
2.1985693257244465
  0
LINE
  8
_0-3______1
  6
CONTINUOUS
 62
    7
 10
31.782815553709625
 20
1.8123741218279008
 11
32.007986994625568
 21
1.6516121861042337
  0
LINE
  8
_0-3______1
  6
CONTINUOUS
 62
    7
 10
31.702434585847744
 20
2.1824669494263733
 11
31.782815553709625
 21
1.8123741218279008
  0
LINE
  8
_0-3______1
  6
CONTINUOUS
 62
    7
 10
36.448053616779355
 20
0.5254931542676616
 11
36.576610799906966
 21
0.477186025373544
  0
LINE
  8
_0-3______1
  6
CONTINUOUS
 62
    7
 10
36.303263143725296
 20
0.7024883799178838
 11
36.448053616779355
 21
0.5254931542676616
  0
LINE
  8
_0-3______1
  6
CONTINUOUS
 62
    7
 10
36.238853638533122
 20
1.0080407886956835
 11
36.303263143725296
 21
0.7024883799178838
  0
LINE
  8
_0-3______1
  6
CONTINUOUS
 62
    7
 10
36.757218791047329
 20
0.9282286566898335
 11
37.155772692123314
 21
0.9919384123976158
  0
LINE
  8
_0-3______1
  6
CONTINUOUS
 62
    7
 10
36.238853638533122
 20
1.0080407886956835
 11
36.757218791047329
 21
0.9282286566898335
  0
LINE
  8
_0-3______1
  6
CONTINUOUS
 62
    7
 10
36.238853638533122
 20
1.7319931539660218
 11
37.155772692123314
 21
1.7319931539660218
  0
LINE
  8
_0-3______1
  6
CONTINUOUS
 62
    7
 10
38.08892503564001
 20
3.1475622182823315
 11
38.249686971363758
 21
3.0993860030165936
  0
LINE
  8
_0-3______1
  6
CONTINUOUS
 62
    7
 10
38.024515530447829
 20
3.2441764760706633
 11
38.08892503564001
 21
3.1475622182823315
  0
LINE
  8
_0-3______1
  6
CONTINUOUS
 62
    7
 10
37.944134562585944
 20
3.4210407880923812
 11
38.024515530447829
 21
3.2441764760706633
  0
LINE
  8
_0-3______1
  6
CONTINUOUS
 62
    7
 10
37.944134562585944
 20
3.5980360137426146
 11
37.944134562585944
 21
3.4210407880923812
  0
LINE
  8
_0-3______1
  6
CONTINUOUS
 62
    7
 10
39.038048841826367
 20
2.9868002825585904
 11
39.263220282742317
 21
2.809805056908397
  0
LINE
  8
_0-3______1
  6
CONTINUOUS
 62
    7
 10
38.957406046707646
 20
3.3567621965286039
 11
39.038048841826367
 21
2.9868002825585904
  0
LINE
  8
_0-3______1
  6
CONTINUOUS
 62
    7
 10
39.198810777550044
 20
3.2923526913364016
 11
39.890558390224328
 21
3.3406598202306044
  0
LINE
  8
_0-3______1
  6
CONTINUOUS
 62
    7
 10
38.957406046707646
 20
3.3567621965286039
 11
39.198810777550044
 21
3.2923526913364016
  0
LINE
  8
_0-3______1
  6
CONTINUOUS
 62
    7
 10
39.745767917170248
 20
37.074352682890904
 11
39.890558390224328
 21
37.122659811785091
  0
LINE
  8
_0-3______1
  6
CONTINUOUS
 62
    7
 10
39.150634562284289
 20
37.074352682890904
 11
39.745767917170248
 21
37.074352682890904
  0
LINE
  8
_0-3______1
  6
CONTINUOUS
 62
    7
 10
38.957406046707646
 20
37.122659811785091
 11
39.150634562284289
 21
37.074352682890904
  0
LINE
  8
_0-3______1
  6
CONTINUOUS
 62
    7
 10
39.102196519761698
 20
37.653514575107245
 11
39.408010755796369
 21
37.894788392321182
  0
LINE
  8
_0-3______1
  6
CONTINUOUS
 62
    7
 10
38.957406046707646
 20
37.122659811785091
 11
39.102196519761698
 21
37.653514575107245
  0
LINE
  8
_0-3______1
  6
CONTINUOUS
 62
    7
 10
34.67836318753433
 20
38.988702671561605
 11
34.871591703111008
 21
39.069083639423468
  0
LINE
  8
_0-3______1
  6
CONTINUOUS
 62
    7
 10
34.517601251810603
 20
38.779633606943747
 11
34.67836318753433
 21
38.988702671561605
  0
LINE
  8
_0-3______1
  6
CONTINUOUS
 62
    7
 10
34.437220283948797
 20
38.602638381293524
 11
34.517601251810603
 21
38.779633606943747
  0
LINE
  8
_0-3______1
  6
CONTINUOUS
 62
    7
 10
34.40501553135266
 20
38.296955058887313
 11
34.437220283948797
 21
38.602638381293524
  0
LINE
  8
_0-3______1
  6
CONTINUOUS
 62
    7
 10
34.276196520968199
 20
38.329159811483457
 11
34.195815553106307
 21
38.425643155643314
  0
LINE
  8
_0-3______1
  6
CONTINUOUS
 62
    7
 10
34.40501553135266
 20
38.296955058887313
 11
34.276196520968199
 21
38.329159811483457
  0
LINE
  8
_0-3______1
  6
CONTINUOUS
 62
    7
 10
34.260225058298602
 20
37.589105069914972
 11
34.195815553106307
 21
37.685719327703296
  0
LINE
  8
_0-3______1
  6
CONTINUOUS
 62
    7
 10
34.40501553135266
 20
37.540928854649245
 11
34.260225058298602
 21
37.589105069914972
  0
LINE
  8
_0-3______1
  6
CONTINUOUS
 62
    7
 10
32.957110800811847
 20
36.334428854950886
 11
33.150339316388568
 21
36.447014575408836
  0
LINE
  8
_0-3______1
  6
CONTINUOUS
 62
    7
 10
32.796348865088177
 20
36.093155037736857
 11
32.957110800811847
 21
36.334428854950886
  0
LINE
  8
_0-3______1
  6
CONTINUOUS
 62
    7
 10
32.715967897226314
 20
35.707090747468797
 11
32.796348865088177
 21
36.093155037736857
  0
LINE
  8
_0-3______1
  6
CONTINUOUS
 62
    7
 10
32.007986994625568
 20
36.656083640026672
 11
32.136806005010037
 21
36.72049314521896
  0
LINE
  8
_0-3______1
  6
CONTINUOUS
 62
    7
 10
31.782815553709625
 20
36.366633607547023
 11
32.007986994625568
 21
36.656083640026672
  0
LINE
  8
_0-3______1
  6
CONTINUOUS
 62
    7
 10
31.702434585847744
 20
35.948364564682812
 11
31.782815553709625
 21
36.366633607547023
  0
LINE
  8
_0-3______1
  6
CONTINUOUS
 62
    7
 10
31.702434585847744
 20
35.948364564682812
 11
31.509467897527955
 21
36.060950285140756
  0
LINE
  8
_0-3______1
  6
CONTINUOUS
 62
    7
 10
32.619353639437968
 20
39.986133606642092
 11
32.554944134245773
 21
39.937826477747961
  0
LINE
  8
_0-3______1
  6
CONTINUOUS
 62
    7
 10
32.748172649822429
 20
39.953928854046012
 11
32.619353639437968
 21
39.986133606642092
  0
LINE
  8
_0-3______1
  6
CONTINUOUS
 62
    7
 10
33.471863187835986
 20
36.607907424760967
 11
33.55250598295472
 21
36.897488370869148
  0
LINE
  8
_0-3______1
  6
CONTINUOUS
 62
    7
 10
33.327072714781856
 20
36.511424080601067
 11
33.471863187835986
 21
36.607907424760967
  0
LINE
  8
_0-3______1
  6
CONTINUOUS
 62
    7
 10
32.281596478064102
 20
39.310488370265894
 11
32.16901075760611
 21
39.374766961829671
  0
LINE
  8
_0-3______1
  6
CONTINUOUS
 62
    7
 10
32.571177424172234
 20
39.841343133588012
 11
32.748172649822429
 21
39.953928854046012
  0
LINE
  8
_0-3______1
  6
CONTINUOUS
 62
    7
 10
32.490534629053499
 20
39.567864563777945
 11
32.571177424172234
 21
39.841343133588012
  0
LINE
  8
_0-3______1
  6
CONTINUOUS
 62
    7
 10
34.501367961884149
 20
39.053112176753878
 11
34.565777467076337
 21
39.020907424157734
  0
LINE
  8
_0-3______1
  6
CONTINUOUS
 62
    7
 10
34.517601251810603
 20
39.229976488775591
 11
34.501367961884149
 21
39.053112176753878
  0
LINE
  8
_0-3______1
  6
CONTINUOUS
 62
    7
 10
34.726801230056928
 20
39.439176467021866
 11
34.517601251810603
 21
39.229976488775591
  0
LINE
  8
_0-3______1
  6
CONTINUOUS
 62
    7
 10
32.281596478064102
 20
37.219143155944984
 11
32.16901075760611
 21
37.283552661137222
  0
LINE
  8
_0-3______1
  6
CONTINUOUS
 62
    7
 10
32.313801230660168
 20
36.768800274113097
 11
32.281596478064102
 21
37.219143155944984
  0
LINE
  8
_0-3______1
  6
CONTINUOUS
 62
    7
 10
40.051320325948069
 20
0.4129074338097155
 11
40.501925035036805
 21
0.4129074338097155
  0
LINE
  8
_0-3______1
  6
CONTINUOUS
 62
    7
 10
39.826148885032119
 20
0.0107407672435897
 11
39.954967895416587
 21
-0.1018449532143279
  0
LINE
  8
_0-3______1
  6
CONTINUOUS
 62
    7
 10
39.810177422362528
 20
0.155531240297654
 11
39.826148885032119
 21
0.0107407672435897
  0
LINE
  8
_0-3______1
  6
CONTINUOUS
 62
    7
 10
37.364972670369582
 20
1.7803002828602361
 11
37.557939358689474
 21
1.7964026591583035
  0
LINE
  8
_0-3______1
  6
CONTINUOUS
 62
    7
 10
37.799344089531871
 20
0.6863860036197935
 11
37.364972670369582
 21
1.0241431649937454
  0
LINE
  8
_0-3______1
  6
CONTINUOUS
 62
    7
 10
40.051320325948069
 20
2.5041217345021725
 11
40.501925035036805
 21
2.5041217345021725
  0
LINE
  8
_0-3______1
  6
CONTINUOUS
 62
    7
 10
30.688901274469217
 20
9.5822288833403242
 11
30.737339316991793
 21
9.5340526680745636
  0
LINE
  8
_0-3______1
  6
CONTINUOUS
 62
    7
 10
30.688901274469217
 20
9.8397359904808024
 11
30.737339316991793
 21
9.8075312378846444
  0
LINE
  8
_0-3______1
  6
CONTINUOUS
 62
    7
 10
31.010686973173474
 20
10.386562216472534
 11
31.219886951419824
 21
10.386562216472534
  0
LINE
  8
_0-3______1
  6
CONTINUOUS
 62
    7
 10
36.431820326852929
 20
3.7267241104986173
 11
36.528434584641253
 21
3.6624455189348852
  0
LINE
  8
_0-3______1
  6
CONTINUOUS
 62
    7
 10
37.557939358689474
 20
3.6624455189348852
 11
37.944134562585944
 21
3.5980360137426146
  0
LINE
  8
_0-3______1
  6
CONTINUOUS
 62
    7
 10
37.172005982049804
 20
3.5819336374445472
 11
37.557939358689474
 21
3.6624455189348852
  0
LINE
  8
_0-3______1
  6
CONTINUOUS
 62
    7
 10
36.705429810291456
 20
3.2119717234745337
 11
37.172005982049804
 21
3.5819336374445472
  0
LINE
  8
_0-3______1
  6
CONTINUOUS
 62
    7
 10
36.383644111587174
 20
2.6489122075562364
 11
36.705429810291456
 21
3.2119717234745337
  0
LINE
  8
_0-3______1
  6
CONTINUOUS
 62
    7
 10
36.238853638533122
 20
1.7319931539660218
 11
36.383644111587174
 21
2.6489122075562364
  0
LINE
  8
_0-3______1
  6
CONTINUOUS
 62
    7
 10
33.327072714781856
 20
36.511424080601067
 11
33.729239381348002
 21
36.511424080601067
  0
LINE
  8
_0-3______1
  6
CONTINUOUS
 62
    7
 10
31.702434585847744
 20
28.870257415844652
 11
31.815020306305748
 21
28.966740760004576
  0
LINE
  8
_0-3______1
  6
CONTINUOUS
 62
    7
 10
31.654258370582014
 20
28.709364566492617
 11
31.702434585847744
 21
28.870257415844652
  0
LINE
  8
_0-3______1
  6
CONTINUOUS
 62
    7
 10
31.702434585847744
 20
14.247466946410084
 11
31.654258370582014
 21
14.44043363472994
  0
LINE
  8
_0-3______1
  6
CONTINUOUS
 62
    7
 10
31.895401274167554
 20
14.054369344461874
 11
31.702434585847744
 21
14.247466946410084
  0
LINE
  8
_0-3______1
  6
CONTINUOUS
 62
    7
 10
38.844820326249625
 20
12.300912205143227
 11
38.90922983144192
 21
12.300912205143227
  0
LINE
  8
_0-3______1
  6
CONTINUOUS
 62
    7
 10
31.782815553709625
 20
14.215262193814006
 11
31.975782242029403
 21
14.086574097057955
  0
LINE
  8
_0-3______1
  6
CONTINUOUS
 62
    7
 10
31.734639338443863
 20
14.456536011027957
 11
31.782815553709625
 21
14.215262193814006
  0
LINE
  8
_0-3______1
  6
CONTINUOUS
 62
    7
 10
31.702434585847744
 20
8.6492074534520444
 11
31.84722505890181
 21
8.4884455177283638
  0
LINE
  8
_0-3______1
  6
CONTINUOUS
 62
    7
 10
38.732234605791703
 20
2.9545955299625235
 11
38.780672648314294
 21
2.8581121858025824
  0
LINE
  8
_0-3______1
  6
CONTINUOUS
 62
    7
 10
39.922763142820429
 20
2.729424089046586
 11
40.051320325948069
 21
2.5041217345021725
  0
LINE
  8
_0-3______1
  6
CONTINUOUS
 62
    7
 10
39.697591701904493
 20
2.8259074332064644
 11
39.922763142820429
 21
2.729424089046586
  0
LINE
  8
_0-3______1
  6
CONTINUOUS
 62
    7
 10
31.766844091039935
 20
28.918433631110464
 11
31.734639338443863
 21
28.725466942790582
  0
LINE
  8
_0-3______1
  6
CONTINUOUS
 62
    7
 10
31.84722505890181
 20
28.966740760004576
 11
31.766844091039935
 21
28.918433631110464
  0
LINE
  8
_0-3______1
  6
CONTINUOUS
 62
    7
 10
31.123272693631403
 20
9.2927788508605751
 11
31.091067941035334
 21
9.5179502917765131
  0
LINE
  8
_0-3______1
  6
CONTINUOUS
 62
    7
 10
31.284034629355133
 20
9.1318860015084429
 11
31.123272693631403
 21
9.2927788508605751
  0
LINE
  8
_0-3______1
  6
CONTINUOUS
 62
    7
 10
37.863491767467217
 20
0.4612145627038558
 11
37.799344089531871
 21
0.6863860036197935
  0
LINE
  8
_0-3______1
  6
CONTINUOUS
 62
    7
 10
37.976339315182067
 20
0.4129074338097155
 11
37.863491767467217
 21
0.4612145627038558
  0
LINE
  8
_0-3______1
  6
CONTINUOUS
 62
    7
 10
38.86105361617615
 20
12.300912205143227
 11
38.780672648314294
 21
12.268707452547197
  0
LINE
  8
_0-3______1
  6
CONTINUOUS
 62
    7
 10
35.193115574558412
 20
8.9387883995601722
 11
35.289729832346758
 21
8.6332359907824436
  0
LINE
  8
_0-3______1
  6
CONTINUOUS
 62
    7
 10
35.048325101504354
 20
9.0193002810505245
 11
35.193115574558412
 21
8.9387883995601722
  0
LINE
  8
_0-3______1
  6
CONTINUOUS
 62
    7
 10
30.898101252715538
 20
9.9684240872368051
 11
31.091067941035334
 21
10.048805055098663
  0
LINE
  8
_0-3______1
  6
CONTINUOUS
 62
    7
 10
30.849925037449793
 20
9.7753264852885948
 11
30.898101252715538
 21
9.9684240872368051
  0
LINE
  8
_0-3______1
  6
CONTINUOUS
 62
    7
 10
30.962510757907712
 20
10.209697904450804
 11
31.091067941035334
 21
10.193595528152722
  0
LINE
  8
_0-3______1
  6
CONTINUOUS
 62
    7
 10
30.817720284853653
 20
10.113214560290883
 11
30.962510757907712
 21
10.209697904450804
  0
LINE
  8
_0-3______1
  6
CONTINUOUS
 62
    7
 10
30.737339316991793
 20
9.8075312378846444
 11
30.817720284853653
 21
10.113214560290883
  0
LINE
  8
_0-3______1
  6
CONTINUOUS
 62
    7
 10
35.337906047612499
 20
8.9387883995601722
 11
35.418548842731234
 21
8.6010312381862839
  0
LINE
  8
_0-3______1
  6
CONTINUOUS
 62
    7
 10
35.209348864484888
 20
9.0996812489123027
 11
35.337906047612499
 21
8.9387883995601722
  0
LINE
  8
_0-3______1
  6
CONTINUOUS
 62
    7
 10
35.048325101504354
 20
9.1800622167742016
 11
35.209348864484888
 21
9.0996812489123027
  0
LINE
  8
_0-3______1
  6
CONTINUOUS
 62
    7
 10
40.421282239918057
 20
0.0268431435416403
 11
40.501925035036805
 21
0.4129074338097155
  0
LINE
  8
_0-3______1
  6
CONTINUOUS
 62
    7
 10
40.180139336332516
 20
-0.1018449532143279
 11
40.421282239918057
 21
0.0268431435416403
  0
LINE
  8
_0-3______1
  6
CONTINUOUS
 62
    7
 10
35.675925036243306
 20
8.1183526901298944
 11
35.820715509297365
 21
7.9575907544062154
  0
LINE
  8
_0-3______1
  6
CONTINUOUS
 62
    7
 10
35.643720283647149
 20
8.3275526683762333
 11
35.675925036243306
 21
8.1183526901298944
  0
LINE
  8
_0-3______1
  6
CONTINUOUS
 62
    7
 10
32.201215510202225
 20
3.9198217124468728
 11
32.329772693329836
 21
3.8232074546585526
  0
LINE
  8
_0-3______1
  6
CONTINUOUS
 62
    7
 10
32.088367962487432
 20
4.1288907770647514
 11
32.201215510202225
 21
3.9198217124468728
  0
LINE
  8
_0-3______1
  6
CONTINUOUS
 62
    7
 10
31.992015531955964
 20
4.8367407660370931
 11
32.088367962487432
 21
4.1288907770647514
  0
LINE
  8
_0-3______1
  6
CONTINUOUS
 62
    7
 10
31.091067941035334
 20
9.855707453150405
 11
31.187682198823662
 21
9.904014582044594
  0
LINE
  8
_0-3______1
  6
CONTINUOUS
 62
    7
 10
31.091067941035334
 20
9.7753264852885948
 11
31.091067941035334
 21
9.855707453150405
  0
LINE
  8
_0-3______1
  6
CONTINUOUS
 62
    7
 10
36.206648885936985
 20
2.9868002825585904
 11
36.367672648917576
 21
3.2441764760706633
  0
LINE
  8
_0-3______1
  6
CONTINUOUS
 62
    7
 10
32.329772693329836
 20
4.000202680308746
 11
32.377948908595577
 21
3.9841003040106844
  0
LINE
  8
_0-3______1
  6
CONTINUOUS
 62
    7
 10
32.329772693329836
 20
4.2897836264168836
 11
32.329772693329836
 21
4.000202680308746
  0
LINE
  8
_0-3______1
  6
CONTINUOUS
 62
    7
 10
32.458591703714298
 20
4.8367407660370931
 11
32.329772693329836
 21
4.2897836264168836
  0
LINE
  8
_0-3______1
  6
CONTINUOUS
 62
    7
 10
32.796348865088177
 20
5.6732788517654544
 11
33.037491768673718
 21
5.6732788517654544
  0
LINE
  8
_0-3______1
  6
CONTINUOUS
 62
    7
 10
32.136806005010037
 20
10.69224553887882
 11
31.943839316690159
 21
10.69224553887882
  0
LINE
  8
_0-3______1
  6
CONTINUOUS
 62
    7
 10
36.33546789632144
 20
9.5822288833403242
 11
36.142239380744797
 21
9.6466383885325158
  0
LINE
  8
_0-3______1
  6
CONTINUOUS
 62
    7
 10
36.49622983204511
 20
9.4053645713185912
 11
36.33546789632144
 21
9.5822288833403242
  0
LINE
  8
_0-3______1
  6
CONTINUOUS
 62
    7
 10
36.608815552503117
 20
9.1318860015084429
 11
36.49622983204511
 21
9.4053645713185912
  0
LINE
  8
_0-3______1
  6
CONTINUOUS
 62
    7
 10
36.625048842429599
 20
8.8745098079964446
 11
36.608815552503117
 21
9.1318860015084429
  0
LINE
  8
_0-3______1
  6
CONTINUOUS
 62
    7
 10
35.579310778454889
 20
8.9548907758582512
 11
35.643720283647149
 21
8.6010312381862839
  0
LINE
  8
_0-3______1
  6
CONTINUOUS
 62
    7
 10
35.450491768070485
 20
9.1800622167742016
 11
35.579310778454889
 21
8.9548907758582512
  0
LINE
  8
_0-3______1
  6
CONTINUOUS
 62
    7
 10
35.273758369677147
 20
9.3409550661263321
 11
35.450491768070485
 21
9.1800622167742016
  0
LINE
  8
_0-3______1
  6
CONTINUOUS
 62
    7
 10
35.177144111888815
 20
9.3570574424243826
 11
35.273758369677147
 21
9.3409550661263321
  0
LINE
  8
_0-3______1
  6
CONTINUOUS
 62
    7
 10
30.769282242331066
 20
9.2766764745625121
 11
30.737339316991793
 21
9.5340526680745636
  0
LINE
  8
_0-3______1
  6
CONTINUOUS
 62
    7
 10
30.962510757907712
 20
9.0513741200181723
 11
30.769282242331066
 21
9.2766764745625121
  0
LINE
  8
_0-3______1
  6
CONTINUOUS
 62
    7
 10
30.930306005311593
 20
9.1479883778064934
 11
30.849925037449793
 21
9.5179502917765131
  0
LINE
  8
_0-3______1
  6
CONTINUOUS
 62
    7
 10
31.091067941035334
 20
9.0193002810505245
 11
30.930306005311593
 21
9.1479883778064934
  0
LINE
  8
_0-3______1
  6
CONTINUOUS
 62
    7
 10
35.450491768070485
 20
8.0540740985660815
 11
35.659691746316788
 21
7.8448741203198411
  0
LINE
  8
_0-3______1
  6
CONTINUOUS
 62
    7
 10
35.418548842731234
 20
8.3275526683762333
 11
35.450491768070485
 21
8.0540740985660815
  0
LINE
  8
_0-3______1
  6
CONTINUOUS
 62
    7
 10
35.354139337539024
 20
8.0218693459699733
 11
35.498929810593076
 21
7.8770788729158943
  0
LINE
  8
_0-3______1
  6
CONTINUOUS
 62
    7
 10
35.289729832346758
 20
8.3597574209722918
 11
35.354139337539024
 21
8.0218693459699733
  0
LINE
  8
_0-3______1
  6
CONTINUOUS
 62
    7
 10
34.807182197918813
 20
39.101288392019605
 11
35.032353638834685
 21
39.133493144615656
  0
LINE
  8
_0-3______1
  6
CONTINUOUS
 62
    7
 10
36.448053616779355
 20
3.051078874122402
 11
36.528434584641253
 21
3.6624455189348852
  0
LINE
  8
_0-3______1
  6
CONTINUOUS
 62
    7
 10
36.33546789632144
 20
2.8581121858025824
 11
36.448053616779355
 21
3.051078874122402
  0
LINE
  8
_0-3______1
  6
CONTINUOUS
 62
    7
 10
36.190677423267388
 20
2.809805056908397
 11
36.33546789632144
 21
2.8581121858025824
  0
LINE
  8
_0-3______1
  6
CONTINUOUS
 62
    7
 10
36.431820326852929
 20
7.2819455180299233
 11
36.431820326852929
 21
7.3301217332956643
  0
LINE
  8
_0-3______1
  6
CONTINUOUS
 62
    7
 10
36.528434584641253
 20
7.2658431417318727
 11
36.431820326852929
 21
7.2819455180299233
  0
LINE
  8
_0-3______1
  6
CONTINUOUS
 62
    7
 10
36.206648885936985
 20
2.9868002825585904
 11
36.190677423267388
 21
2.809805056908397
  0
LINE
  8
_0-3______1
  6
CONTINUOUS
 62
    7
 10
32.377948908595577
 20
3.9841003040106844
 11
32.329772693329836
 21
3.8232074546585526
  0
LINE
  8
_0-3______1
  6
CONTINUOUS
 62
    7
 10
32.458591703714298
 20
4.8367407660370931
 11
31.992015531955964
 21
4.8367407660370931
  0
LINE
  8
_0-3______1
  6
CONTINUOUS
 62
    7
 10
36.656991767768844
 20
7.4267359910840645
 11
36.625048842429599
 21
7.539321711542005
  0
LINE
  8
_0-3______1
  6
CONTINUOUS
 62
    7
 10
36.576610799906966
 20
7.3462241095937433
 11
36.656991767768844
 21
7.4267359910840645
  0
LINE
  8
_0-3______1
  6
CONTINUOUS
 62
    7
 10
35.788510756701235
 20
7.8770788729158943
 11
35.659691746316788
 21
7.8448741203198411
  0
LINE
  8
_0-3______1
  6
CONTINUOUS
 62
    7
 10
35.820715509297365
 20
7.9575907544062154
 11
35.788510756701235
 21
7.8770788729158943
  0
LINE
  8
_0-3______1
  6
CONTINUOUS
 62
    7
 10
35.643720283647149
 20
8.3275526683762333
 11
35.418548842731234
 21
8.3275526683762333
  0
LINE
  8
_0-3______1
  6
CONTINUOUS
 62
    7
 10
35.643720283647149
 20
8.6010312381862839
 11
35.418548842731234
 21
8.6010312381862839
  0
LINE
  8
_0-3______1
  6
CONTINUOUS
 62
    7
 10
35.064558391430808
 20
9.2766764745625121
 11
35.048325101504354
 21
9.1800622167742016
  0
LINE
  8
_0-3______1
  6
CONTINUOUS
 62
    7
 10
35.177144111888815
 20
9.3570574424243826
 11
35.064558391430808
 21
9.2766764745625121
  0
LINE
  8
_0-3______1
  6
CONTINUOUS
 62
    7
 10
31.139505983557946
 20
10.354488377504873
 11
31.091067941035334
 21
10.193595528152722
  0
LINE
  8
_0-3______1
  6
CONTINUOUS
 62
    7
 10
31.219886951419824
 20
10.386562216472534
 11
31.139505983557946
 21
10.354488377504873
  0
LINE
  8
_0-3______1
  6
CONTINUOUS
 62
    7
 10
35.289729832346758
 20
8.3597574209722918
 11
35.225320327154542
 21
8.3918312599399432
  0
LINE
  8
_0-3______1
  6
CONTINUOUS
 62
    7
 10
35.289729832346758
 20
8.6332359907824436
 11
35.225320327154542
 21
8.6653098297500915
  0
LINE
  8
_0-3______1
  6
CONTINUOUS
 62
    7
 10
35.048325101504354
 20
9.0193002810505245
 11
35.128967896623109
 21
8.8745098079964446
  0
LINE
  8
_0-3______1
  6
CONTINUOUS
 62
    7
 10
31.091067941035334
 20
10.048805055098663
 11
31.187682198823662
 21
9.904014582044594
  0
LINE
  8
_0-3______1
  6
CONTINUOUS
 62
    7
 10
30.849925037449793
 20
9.7753264852885948
 11
31.091067941035334
 21
9.7753264852885948
  0
LINE
  8
_0-3______1
  6
CONTINUOUS
 62
    7
 10
30.849925037449793
 20
9.5179502917765131
 11
31.091067941035334
 21
9.5179502917765131
  0
LINE
  8
_0-3______1
  6
CONTINUOUS
 62
    7
 10
31.235858414089417
 20
9.0513741200181723
 11
31.284034629355133
 21
9.1318860015084429
  0
LINE
  8
_0-3______1
  6
CONTINUOUS
 62
    7
 10
31.091067941035334
 20
9.0193002810505245
 11
31.235858414089417
 21
9.0513741200181723
  0
LINE
  8
_0-3______1
  6
CONTINUOUS
 62
    7
 10
32.217186972871829
 20
10.756655044071003
 11
32.136806005010037
 21
10.69224553887882
  0
LINE
  8
_0-3______1
  6
CONTINUOUS
 62
    7
 10
32.249391725467959
 20
10.901445517125095
 11
32.217186972871829
 21
10.756655044071003
  0
LINE
  8
_0-3______1
  6
CONTINUOUS
 62
    7
 10
36.271058391129223
 20
9.7592241089905158
 11
36.142239380744797
 21
9.6466383885325158
  0
LINE
  8
_0-3______1
  6
CONTINUOUS
 62
    7
 10
36.271058391129223
 20
9.8397359904808024
 11
36.271058391129223
 21
9.7592241089905158
  0
LINE
  8
_0-3______1
  6
CONTINUOUS
 62
    7
 10
36.882425035941644
 20
8.8745098079964446
 11
36.625048842429599
 21
8.8745098079964446
  0
LINE
  8
_0-3______1
  6
CONTINUOUS
 62
    7
 10
36.882425035941644
 20
7.539321711542005
 11
36.625048842429599
 21
7.539321711542005
  0
LINE
  8
_0-3______1
  6
CONTINUOUS
 62
    7
 10
36.625048842429599
 20
7.2336383891358231
 11
36.576610799906966
 21
7.3462241095937433
  0
LINE
  8
_0-3______1
  6
CONTINUOUS
 62
    7
 10
36.528434584641253
 20
7.2658431417318727
 11
36.367672648917576
 21
7.4106336147860024
  0
LINE
  8
_0-3______1
  6
CONTINUOUS
 62
    7
 10
36.801782240822924
 20
7.2819455180299233
 11
36.882425035941644
 21
7.539321711542005
  0
LINE
  8
_0-3______1
  6
CONTINUOUS
 62
    7
 10
36.625048842429599
 20
7.2336383891358231
 11
36.801782240822924
 21
7.2819455180299233
  0
LINE
  8
_0-3______1
  6
CONTINUOUS
 62
    7
 10
36.49622983204511
 20
9.7431217326924529
 11
36.271058391129223
 21
9.839605076852326
  0
LINE
  8
_0-3______1
  6
CONTINUOUS
 62
    7
 10
36.733795790806859
 20
9.4487368141458639
 11
36.49622983204511
 21
9.7431217326924529
  0
LINE
  8
_0-3______1
  6
CONTINUOUS
 62
    7
 10
36.882425035941644
 20
8.8745098079964446
 11
36.733795790806859
 21
9.4487368141458639
  0
LINE
  8
_0-3______1
  6
CONTINUOUS
 62
    7
 10
40.936034626942124
 20
43.348257412225145
 11
40.66268697076049
 21
43.36422887489482
  0
LINE
  8
_0-3______1
  6
CONTINUOUS
 62
    7
 10
53.966391720038736
 20
43.605633605737232
 11
53.821601246984613
 21
43.653809821002959
  0
LINE
  8
_0-3______1
  6
CONTINUOUS
 62
    7
 10
54.01456793530447
 20
43.525121724246958
 11
53.966391720038736
 21
43.605633605737232
  0
LINE
  8
_0-3______1
  6
CONTINUOUS
 62
    7
 10
49.188567936510992
 20
49.557621722738809
 11
49.075982216052964
 21
49.541519346440758
  0
LINE
  8
_0-3______1
  6
CONTINUOUS
 62
    7
 10
49.285182194299317
 20
49.670338356825233
 11
49.188567936510992
 21
49.557621722738809
  0
LINE
  8
_0-3______1
  6
CONTINUOUS
 62
    7
 10
43.284886948403518
 20
3.7106217342005268
 11
43.043482217561113
 21
3.7106217342005268
  0
LINE
  8
_0-3______1
  6
CONTINUOUS
 62
    7
 10
43.333063163669237
 20
44.84420744440331
 11
43.284886948403518
 21
45.182095519405607
  0
LINE
  8
_0-3______1
  6
CONTINUOUS
 62
    7
 10
43.461882174053734
 20
44.69954788497764
 11
43.333063163669237
 21
44.84420744440331
  0
LINE
  8
_0-3______1
  6
CONTINUOUS
 62
    7
 10
43.590439357181353
 20
44.667343132381539
 11
43.461882174053734
 21
44.69954788497764
  0
LINE
  8
_0-3______1
  6
CONTINUOUS
 62
    7
 10
43.075686970157257
 20
46.774659809372089
 11
43.156067938019063
 21
46.822966938266227
  0
LINE
  8
_0-3______1
  6
CONTINUOUS
 62
    7
 10
43.043482217561113
 20
46.645971712616017
 11
43.075686970157257
 21
46.774659809372089
  0
LINE
  8
_0-3______1
  6
CONTINUOUS
 62
    7
 10
43.284886948403518
 20
43.895214551845392
 11
43.043482217561113
 21
43.895214551845392
  0
LINE
  8
_0-3______1
  6
CONTINUOUS
 62
    7
 10
46.067848861770301
 20
43.927288390813089
 11
45.987467893908445
 21
44.281278842113458
  0
LINE
  8
_0-3______1
  6
CONTINUOUS
 62
    7
 10
46.293020302686259
 20
43.750424078791298
 11
46.067848861770301
 21
43.927288390813089
  0
LINE
  8
_0-3______1
  6
CONTINUOUS
 62
    7
 10
48.464615571240579
 20
43.428638380087015
 11
48.368263140709089
 21
43.106852681382748
  0
LINE
  8
_0-3______1
  6
CONTINUOUS
 62
    7
 10
48.609406044294623
 20
43.509019347948914
 11
48.464615571240579
 21
43.428638380087015
  0
LINE
  8
_0-3______1
  6
CONTINUOUS
 62
    7
 10
52.357725053774153
 20
43.155159810276928
 11
52.647305999882398
 21
43.23567169176723
  0
LINE
  8
_0-3______1
  6
CONTINUOUS
 62
    7
 10
51.794534624227481
 20
43.139057433978884
 11
52.357725053774153
 21
43.155159810276928
  0
LINE
  8
_0-3______1
  6
CONTINUOUS
 62
    7
 10
51.215634559268089
 20
43.23567169176723
 11
51.794534624227481
 21
43.139057433978884
  0
LINE
  8
_0-3______1
  6
CONTINUOUS
 62
    7
 10
43.20450598054174
 20
46.822966938266227
 11
43.156067938019063
 21
46.822966938266227
  0
LINE
  8
_0-3______1
  6
CONTINUOUS
 62
    7
 10
43.284886948403518
 20
46.645971712616017
 11
43.20450598054174
 21
46.822966938266227
  0
LINE
  8
_0-3______1
  6
CONTINUOUS
 62
    7
 10
38.523034627545357
 20
44.63513837978536
 11
38.49109170220617
 21
44.796031229137498
  0
LINE
  8
_0-3______1
  6
CONTINUOUS
 62
    7
 10
38.056720283043873
 20
44.040005024899521
 11
37.831548842128008
 21
44.136488369059386
  0
LINE
  8
_0-3______1
  6
CONTINUOUS
 62
    7
 10
37.39717742296574
 20
46.822966938266227
 11
37.557939358689474
 21
46.90334790612809
  0
LINE
  8
_0-3______1
  6
CONTINUOUS
 62
    7
 10
37.172005982049804
 20
46.581562207423815
 11
37.39717742296574
 21
46.822966938266227
  0
LINE
  8
_0-3______1
  6
CONTINUOUS
 62
    7
 10
37.043186971665328
 20
46.147321701890029
 11
37.172005982049804
 21
46.581562207423815
  0
LINE
  8
_0-3______1
  6
CONTINUOUS
 62
    7
 10
47.547696517650344
 20
43.36422887489482
 11
47.628339312769064
 21
43.36422887489482
  0
LINE
  8
_0-3______1
  6
CONTINUOUS
 62
    7
 10
45.038344087722088
 20
44.361659809975301
 11
45.231310776041894
 21
44.361659809975301
  0
LINE
  8
_0-3______1
  6
CONTINUOUS
 62
    7
 10
47.676515528034827
 20
17.641664590960904
 11
47.821306001088878
 21
17.641664590960904
  0
LINE
  8
_0-3______1
  6
CONTINUOUS
 62
    7
 10
37.622348863881676
 20
46.308214551242145
 11
37.46132510090105
 21
46.308214551242145
  0
LINE
  8
_0-3______1
  6
CONTINUOUS
 62
    7
 10
39.038048841826367
 20
44.956924078489727
 11
39.102196519761698
 21
44.715519347647238
  0
LINE
  8
_0-3______1
  6
CONTINUOUS
 62
    7
 10
48.738225054679106
 20
43.476945508981238
 11
48.609406044294623
 21
43.509019347948914
  0
LINE
  8
_0-3______1
  6
CONTINUOUS
 62
    7
 10
51.714153656365625
 20
42.849476487870753
 11
51.939325097281568
 21
42.913885993062934
  0
LINE
  8
_0-3______1
  6
CONTINUOUS
 62
    7
 10
51.199401269341557
 20
42.849476487870753
 11
51.714153656365625
 21
42.849476487870753
  0
LINE
  8
_0-3______1
  6
CONTINUOUS
 62
    7
 10
50.974229828425614
 20
42.913885993062934
 11
51.199401269341557
 21
42.849476487870753
  0
LINE
  8
_0-3______1
  6
CONTINUOUS
 62
    7
 10
53.966391720038736
 20
43.444740756385094
 11
54.01456793530447
 21
43.525121724246958
  0
LINE
  8
_0-3______1
  6
CONTINUOUS
 62
    7
 10
53.821601246984613
 20
43.396433627490957
 11
53.966391720038736
 21
43.444740756385094
  0
LINE
  8
_0-3______1
  6
CONTINUOUS
 62
    7
 10
52.969091698586659
 20
43.444740756385094
 11
52.872477440798335
 21
43.525121724246958
  0
LINE
  8
_0-3______1
  6
CONTINUOUS
 62
    7
 10
52.952858408660205
 20
43.316052659629101
 11
52.969091698586659
 21
43.444740756385094
  0
LINE
  8
_0-3______1
  6
CONTINUOUS
 62
    7
 10
52.663277462551982
 20
43.203466939171072
 11
52.952858408660205
 21
43.316052659629101
  0
LINE
  8
_0-3______1
  6
CONTINUOUS
 62
    7
 10
52.293315548581965
 20
43.139057433978884
 11
52.663277462551982
 21
43.203466939171072
  0
LINE
  8
_0-3______1
  6
CONTINUOUS
 62
    7
 10
51.360425032322169
 20
43.155159810276928
 11
52.293315548581965
 21
43.139057433978884
  0
LINE
  8
_0-3______1
  6
CONTINUOUS
 62
    7
 10
50.893848860563821
 20
43.348257412225145
 11
51.360425032322169
 21
43.155159810276928
  0
LINE
  8
_0-3______1
  6
CONTINUOUS
 62
    7
 10
50.893848860563821
 20
43.460843132683173
 11
50.893848860563821
 21
43.348257412225145
  0
LINE
  8
_0-3______1
  6
CONTINUOUS
 62
    7
 10
51.006434581021743
 20
43.525121724246958
 11
50.893848860563821
 21
43.460843132683173
  0
LINE
  8
_0-3______1
  6
CONTINUOUS
 62
    7
 10
37.220182197315509
 20
46.356390766507879
 11
37.39717742296574
 21
46.356390766507879
  0
LINE
  8
_0-3______1
  6
CONTINUOUS
 62
    7
 10
47.982067936812541
 20
43.219438401840755
 11
47.853510753685008
 21
43.299950283331022
  0
LINE
  8
_0-3______1
  6
CONTINUOUS
 62
    7
 10
48.014272689408685
 20
43.042574089818949
 11
47.982067936812541
 21
43.219438401840755
  0
LINE
  8
_0-3______1
  6
CONTINUOUS
 62
    7
 10
51.424572710257486
 20
38.152164585833262
 11
51.44080600018404
 21
38.425643155643314
  0
LINE
  8
_0-3______1
  6
CONTINUOUS
 62
    7
 10
51.311986989799543
 20
37.894788392321182
 11
51.424572710257486
 21
38.152164585833262
  0
LINE
  8
_0-3______1
  6
CONTINUOUS
 62
    7
 10
51.119020301479736
 20
37.701821704001382
 11
51.311986989799543
 21
37.894788392321182
  0
LINE
  8
_0-3______1
  6
CONTINUOUS
 62
    7
 10
50.974229828425614
 20
37.653514575107245
 11
51.119020301479736
 21
37.701821704001382
  0
LINE
  8
_0-3______1
  6
CONTINUOUS
 62
    7
 10
48.271648882920765
 20
17.448697902641083
 11
48.062448904674419
 21
17.577385999397087
  0
LINE
  8
_0-3______1
  6
CONTINUOUS
 62
    7
 10
48.352029850782571
 20
17.303907429586953
 11
48.271648882920765
 21
17.448697902641083
  0
LINE
  8
_0-3______1
  6
CONTINUOUS
 62
    7
 10
48.368263140709089
 20
17.03042885977688
 11
48.352029850782571
 21
17.303907429586953
  0
LINE
  8
_0-3______1
  6
CONTINUOUS
 62
    7
 10
48.352029850782571
 20
11.593062216170976
 11
48.368263140709089
 21
11.866540785981023
  0
LINE
  8
_0-3______1
  6
CONTINUOUS
 62
    7
 10
48.223472667655017
 20
11.335686022658898
 11
48.352029850782571
 21
11.593062216170976
  0
LINE
  8
_0-3______1
  6
CONTINUOUS
 62
    7
 10
47.901686968950763
 20
11.094412205444861
 11
48.223472667655017
 21
11.335686022658898
  0
LINE
  8
_0-3______1
  6
CONTINUOUS
 62
    7
 10
45.987467893908445
 20
8.2953479157801038
 11
45.987467893908445
 21
8.5044169803979663
  0
LINE
  8
_0-3______1
  6
CONTINUOUS
 62
    7
 10
45.874882173450509
 20
8.0057669696718623
 11
45.987467893908445
 21
8.2953479157801038
  0
LINE
  8
_0-3______1
  6
CONTINUOUS
 62
    7
 10
45.713858410469918
 20
7.8128002813520858
 11
45.874882173450509
 21
8.0057669696718623
  0
LINE
  8
_0-3______1
  6
CONTINUOUS
 62
    7
 10
45.520891722150104
 20
7.7161860235637336
 11
45.713858410469918
 21
7.8128002813520858
  0
LINE
  8
_0-3______1
  6
CONTINUOUS
 62
    7
 10
44.780967894210086
 20
1.0885526701859647
 11
44.813172646806144
 21
1.394105078963753
  0
LINE
  8
_0-3______1
  6
CONTINUOUS
 62
    7
 10
44.684353636421768
 20
0.8793526919396129
 11
44.780967894210086
 21
1.0885526701859647
  0
LINE
  8
_0-3______1
  6
CONTINUOUS
 62
    7
 10
44.539563163367603
 20
0.7024883799178838
 11
44.684353636421768
 21
0.8793526919396129
  0
LINE
  8
_0-3______1
  6
CONTINUOUS
 62
    7
 10
44.346596475047797
 20
0.6219764984276026
 11
44.539563163367603
 21
0.7024883799178838
  0
LINE
  8
_0-3______1
  6
CONTINUOUS
 62
    7
 10
45.697886947800313
 20
44.120385992761307
 11
45.440510754288219
 21
44.297381218411509
  0
LINE
  8
_0-3______1
  6
CONTINUOUS
 62
    7
 10
45.778267915662099
 20
43.750424078791298
 11
45.697886947800313
 21
44.120385992761307
  0
LINE
  8
_0-3______1
  6
CONTINUOUS
 62
    7
 10
43.526029851989051
 20
0.3968050575116649
 11
42.786106024049033
 21
0.3968050575116649
  0
LINE
  8
_0-3______1
  6
CONTINUOUS
 62
    7
 10
35.450491768070485
 20
45.922019347345589
 11
35.289729832346758
 21
45.809433626887689
  0
LINE
  8
_0-3______1
  6
CONTINUOUS
 62
    7
 10
35.659691746316788
 20
48.994562206820547
 11
35.804482219370833
 21
49.058971712012806
  0
LINE
  8
_0-3______1
  6
CONTINUOUS
 62
    7
 10
35.531134563189234
 20
48.833800271096869
 11
35.659691746316788
 21
48.994562206820547
  0
LINE
  8
_0-3______1
  6
CONTINUOUS
 62
    7
 10
35.450491768070485
 20
48.463838357126882
 11
35.531134563189234
 21
48.833800271096869
  0
LINE
  8
_0-3______1
  6
CONTINUOUS
 62
    7
 10
41.097058389922744
 20
43.444740756385094
 11
40.807477443814534
 21
43.299950283331022
  0
LINE
  8
_0-3______1
  6
CONTINUOUS
 62
    7
 10
41.338201293508284
 20
43.750424078791298
 11
41.097058389922744
 21
43.444740756385094
  0
LINE
  8
_0-3______1
  6
CONTINUOUS
 62
    7
 10
41.482991766562336
 20
44.216869336921242
 11
41.338201293508284
 21
43.750424078791298
  0
LINE
  8
_0-3______1
  6
CONTINUOUS
 62
    7
 10
41.482991766562336
 20
44.828105068105266
 11
41.482991766562336
 21
44.216869336921242
  0
LINE
  8
_0-3______1
  6
CONTINUOUS
 62
    7
 10
41.326599304907504
 20
45.315967664806401
 11
41.482991766562336
 21
44.828105068105266
  0
LINE
  8
_0-3______1
  6
CONTINUOUS
 62
    7
 10
41.048882174657017
 20
45.79333125058961
 11
41.326599304907504
 21
45.315967664806401
  0
LINE
  8
_0-3______1
  6
CONTINUOUS
 62
    7
 10
40.745212672050705
 20
46.064078340782089
 11
41.048882174657017
 21
45.79333125058961
  0
LINE
  8
_0-3______1
  6
CONTINUOUS
 62
    7
 10
40.421282239918057
 20
46.227702669751899
 11
40.745212672050705
 21
46.064078340782089
  0
LINE
  8
_0-3______1
  6
CONTINUOUS
 62
    7
 10
38.780672648314294
 20
44.876412196999375
 11
38.90922983144192
 21
44.69954788497764
  0
LINE
  8
_0-3______1
  6
CONTINUOUS
 62
    7
 10
37.44535363823146
 20
46.887245529830047
 11
37.831548842128008
 21
46.887245529830047
  0
LINE
  8
_0-3______1
  6
CONTINUOUS
 62
    7
 10
51.633772688503818
 20
42.527821702794867
 11
50.974229828425614
 21
42.592100294358687
  0
LINE
  8
_0-3______1
  6
CONTINUOUS
 62
    7
 10
51.939325097281568
 20
42.592100294358687
 11
51.633772688503818
 21
42.527821702794867
  0
LINE
  8
_0-3______1
  6
CONTINUOUS
 62
    7
 10
48.738225054679106
 20
43.155159810276928
 11
48.690048839413343
 21
43.155159810276928
  0
LINE
  8
_0-3______1
  6
CONTINUOUS
 62
    7
 10
53.998596472634802
 20
43.139057433978884
 11
53.821601246984613
 21
43.074647928786625
  0
LINE
  8
_0-3______1
  6
CONTINUOUS
 62
    7
 10
54.01456793530447
 20
43.203466939171072
 11
53.998596472634802
 21
43.139057433978884
  0
LINE
  8
_0-3______1
  6
CONTINUOUS
 62
    7
 10
49.237005979033583
 20
50.056271733464826
 11
49.075982216052964
 21
50.104578862359041
  0
LINE
  8
_0-3______1
  6
CONTINUOUS
 62
    7
 10
49.285182194299317
 20
49.975890765603047
 11
49.237005979033583
 21
50.056271733464826
  0
LINE
  8
_0-3______1
  6
CONTINUOUS
 62
    7
 10
43.831844088023729
 20
44.602933627189316
 11
43.992606023747399
 21
44.602933627189316
  0
LINE
  8
_0-3______1
  6
CONTINUOUS
 62
    7
 10
46.534425033528656
 20
43.686014573599088
 11
46.72739172184847
 21
43.686014573599088
  0
LINE
  8
_0-3______1
  6
CONTINUOUS
 62
    7
 10
43.526029851989051
 20
15.309176473054363
 11
42.946867959772796
 21
15.276971720458313
  0
LINE
  8
_0-3______1
  6
CONTINUOUS
 62
    7
 10
35.514901273262709
 20
48.96248836785287
 11
35.675925036243306
 21
49.058971712012806
  0
LINE
  8
_0-3______1
  6
CONTINUOUS
 62
    7
 10
35.450491768070485
 20
48.656805045446653
 11
35.514901273262709
 21
48.96248836785287
  0
LINE
  8
_0-3______1
  6
CONTINUOUS
 62
    7
 10
44.33036318512135
 20
51.3110788620574
 11
44.459182195505825
 21
51.3110788620574
  0
LINE
  8
_0-3______1
  6
CONTINUOUS
 62
    7
 10
48.593434581625026
 20
44.554757411923596
 11
48.609406044294623
 21
44.828105068105266
  0
LINE
  8
_0-3______1
  6
CONTINUOUS
 62
    7
 10
48.432672645901299
 20
44.232971713219321
 11
48.593434581625026
 21
44.554757411923596
  0
LINE
  8
_0-3______1
  6
CONTINUOUS
 62
    7
 10
48.143091699793139
 20
44.055976487569119
 11
48.432672645901299
 21
44.232971713219321
  0
LINE
  8
_0-3______1
  6
CONTINUOUS
 62
    7
 10
48.352029850782571
 20
48.447605067200335
 11
48.239444130324628
 21
48.4637074434984
  0
LINE
  8
_0-3______1
  6
CONTINUOUS
 62
    7
 10
48.52902507643276
 20
48.254638378880536
 11
48.352029850782571
 21
48.447605067200335
  0
LINE
  8
_0-3______1
  6
CONTINUOUS
 62
    7
 10
48.609406044294623
 20
47.900778841208592
 11
48.52902507643276
 21
48.254638378880536
  0
LINE
  8
_0-3______1
  6
CONTINUOUS
 62
    7
 10
52.695482215148132
 20
42.463412197602672
 11
52.534720279424391
 21
42.431207445006542
  0
LINE
  8
_0-3______1
  6
CONTINUOUS
 62
    7
 10
52.824301225532579
 20
42.592100294358687
 11
52.695482215148132
 21
42.463412197602672
  0
LINE
  8
_0-3______1
  6
CONTINUOUS
 62
    7
 10
52.293315548581965
 20
42.366928853442737
 11
52.534720279424391
 21
42.431207445006542
  0
LINE
  8
_0-3______1
  6
CONTINUOUS
 62
    7
 10
51.569363183311566
 20
42.366928853442737
 11
52.293315548581965
 21
42.366928853442737
  0
LINE
  8
_0-3______1
  6
CONTINUOUS
 62
    7
 10
51.167196516745413
 20
42.463412197602672
 11
51.569363183311566
 21
42.366928853442737
  0
LINE
  8
_0-3______1
  6
CONTINUOUS
 62
    7
 10
51.054610796287498
 20
42.575997918060622
 11
51.167196516745413
 21
42.463412197602672
  0
LINE
  8
_0-3______1
  6
CONTINUOUS
 62
    7
 10
43.526029851989051
 20
3.6463431426368063
 11
42.946867959772796
 21
3.6141383900406652
  0
LINE
  8
_0-3______1
  6
CONTINUOUS
 62
    7
 10
46.357429807878468
 20
43.782497917758953
 11
46.534425033528656
 21
43.686014573599088
  0
LINE
  8
_0-3______1
  6
CONTINUOUS
 62
    7
 10
46.260815550090129
 20
43.975595519707213
 11
46.357429807878468
 21
43.782497917758953
  0
LINE
  8
_0-3______1
  6
CONTINUOUS
 62
    7
 10
46.244844087420439
 20
44.216869336921242
 11
46.260815550090129
 21
43.975595519707213
  0
LINE
  8
_0-3______1
  6
CONTINUOUS
 62
    7
 10
43.622644109777376
 20
44.715519347647238
 11
43.831844088023729
 21
44.602933627189316
  0
LINE
  8
_0-3______1
  6
CONTINUOUS
 62
    7
 10
43.526029851989051
 20
44.940821702191663
 11
43.622644109777376
 21
44.715519347647238
  0
LINE
  8
_0-3______1
  6
CONTINUOUS
 62
    7
 10
43.526029851989051
 20
45.133788390511477
 11
43.526029851989051
 21
44.940821702191663
  0
LINE
  8
_0-3______1
  6
CONTINUOUS
 62
    7
 10
43.381239378935007
 20
47.01593362658604
 11
43.156067938019063
 21
47.160724099640106
  0
LINE
  8
_0-3______1
  6
CONTINUOUS
 62
    7
 10
43.526029851989051
 20
46.581562207423815
 11
43.381239378935007
 21
47.01593362658604
  0
LINE
  8
_0-3______1
  6
CONTINUOUS
 62
    7
 10
47.853510753685008
 20
43.299950283331022
 11
47.77286795856628
 21
43.299950283331022
  0
LINE
  8
_0-3______1
  6
CONTINUOUS
 62
    7
 10
48.64161079689076
 20
43.155159810276928
 11
48.609406044294623
 21
43.042574089818949
  0
LINE
  8
_0-3______1
  6
CONTINUOUS
 62
    7
 10
48.690048839413343
 20
43.155159810276928
 11
48.64161079689076
 21
43.155159810276928
  0
LINE
  8
_0-3______1
  6
CONTINUOUS
 62
    7
 10
45.440510754288219
 20
44.297381218411509
 11
45.279486991307706
 21
44.297381218411509
  0
LINE
  8
_0-3______1
  6
CONTINUOUS
 62
    7
 10
42.946867959772796
 20
47.032036002884091
 11
43.156067938019063
 21
47.160724099640106
  0
LINE
  8
_0-3______1
  6
CONTINUOUS
 62
    7
 10
42.786106024049033
 20
46.581562207423815
 11
42.946867959772796
 21
47.032036002884091
  0
LINE
  8
_0-3______1
  6
CONTINUOUS
 62
    7
 10
40.807477443814534
 20
43.299950283331022
 11
40.421282239918057
 21
43.299950283331022
  0
LINE
  8
_0-3______1
  6
CONTINUOUS
 62
    7
 10
35.289729832346758
 20
45.809433626887689
 11
35.450491768070485
 21
45.729052659025818
  0
LINE
  8
_0-3______1
  6
CONTINUOUS
 62
    7
 10
43.333063163669237
 20
43.782497917758953
 11
42.786106024049033
 21
43.830805046653175
  0
LINE
  8
_0-3______1
  6
CONTINUOUS
 62
    7
 10
43.526029851989051
 20
43.830805046653175
 11
43.333063163669237
 21
43.782497917758953
  0
LINE
  8
_0-3______1
  6
CONTINUOUS
 62
    7
 10
49.075982216052964
 20
49.847202668846968
 11
49.285182194299317
 21
49.975890765603047
  0
LINE
  8
_0-3______1
  6
CONTINUOUS
 62
    7
 10
48.062448904674419
 20
17.577385999397087
 11
47.901686968950763
 21
17.577385999397087
  0
LINE
  8
_0-3______1
  6
CONTINUOUS
 62
    7
 10
37.155772692123314
 20
46.774659809372089
 11
37.44535363823146
 21
46.887245529830047
  0
LINE
  8
_0-3______1
  6
CONTINUOUS
 62
    7
 10
37.010982219069263
 20
46.613766960019909
 11
37.155772692123314
 21
46.774659809372089
  0
LINE
  8
_0-3______1
  6
CONTINUOUS
 62
    7
 10
36.850220283345543
 20
46.324186013911742
 11
37.010982219069263
 21
46.613766960019909
  0
LINE
  8
_0-3______1
  6
CONTINUOUS
 62
    7
 10
36.769839315483637
 20
46.002531228835949
 11
36.850220283345543
 21
46.324186013911742
  0
LINE
  8
_0-3______1
  6
CONTINUOUS
 62
    7
 10
35.675925036243306
 20
49.058971712012806
 11
35.804482219370833
 21
49.058971712012806
  0
TEXT
  8
_0-2_SC0931
 62
    7
 10
2.7881533870798649
 20
69.657692444630158
 40
4.5
 41
1
 50
0
  1
DALI対応ユニット
  0
TEXT
  8
_0-2_SC0931
 62
    7
 10
2.7881533870798592
 20
-14.342307555369837
 40
4.5
 41
1
 50
0
  1
三菱　SC0931
  0
INSERT
  2
-002-SPECSC0931
  8
_0-0_0
 10
55.01186795675649
 20
-6.1630709141484665
 41
1
 42
1
 50
0
  0
ENDSEC
  0
EOF
