  0
SECTION
  2
HEADER
  9
$ACADVER
  1
AC1009
  9
$DWGCODEPAGE
  3
dos932
  9
$INSBASE
 10
0.0
 20
0.0
 30
0.0
  9
$EXTMIN
 10
-5.797886002550086
 20
-7.945760997079844
 30
0.0
  9
$EXTMAX
 10
85.81681637532952
 20
81.91682942276742
 30
0.0
  9
$LIMMIN
 10
0.0
 20
0.0
  9
$LIMMAX
 10
12.0
 20
9.0
  9
$ORTHOMODE
 70
     0
  9
$REGENMODE
 70
     1
  9
$FILLMODE
 70
     1
  9
$QTEXTMODE
 70
     0
  9
$MIRRTEXT
 70
     1
  9
$DRAGMODE
 70
     2
  9
$LTSCALE
 40
100.0
  9
$OSMODE
 70
    37
  9
$ATTMODE
 70
     1
  9
$TEXTSIZE
 40
0.2
  9
$TRACEWID
 40
1.0
  9
$TEXTSTYLE
  7
STANDARD
  9
$CLAYER
  8
__
  9
$CELTYPE
  6
BYLAYER
  9
$CECOLOR
 62
   256
  9
$DIMSCALE
 40
1.0
  9
$DIMASZ
 40
0.18
  9
$DIMEXO
 40
0.0625
  9
$DIMDLI
 40
0.38
  9
$DIMRND
 40
0.0
  9
$DIMDLE
 40
0.0
  9
$DIMEXE
 40
0.18
  9
$DIMTP
 40
0.0
  9
$DIMTM
 40
0.0
  9
$DIMTXT
 40
0.18
  9
$DIMCEN
 40
0.09
  9
$DIMTSZ
 40
0.0
  9
$DIMTOL
 70
     0
  9
$DIMLIM
 70
     0
  9
$DIMTIH
 70
     1
  9
$DIMTOH
 70
     1
  9
$DIMSE1
 70
     0
  9
$DIMSE2
 70
     0
  9
$DIMTAD
 70
     0
  9
$DIMZIN
 70
     0
  9
$DIMBLK
  1

  9
$DIMASO
 70
     1
  9
$DIMSHO
 70
     1
  9
$DIMPOST
  1

  9
$DIMAPOST
  1

  9
$DIMALT
 70
     0
  9
$DIMALTD
 70
     2
  9
$DIMALTF
 40
25.4
  9
$DIMLFAC
 40
1.0
  9
$DIMTOFL
 70
     0
  9
$DIMTVP
 40
0.0
  9
$DIMTIX
 70
     0
  9
$DIMSOXD
 70
     0
  9
$DIMSAH
 70
     0
  9
$DIMBLK1
  1

  9
$DIMBLK2
  1

  9
$DIMSTYLE
  2
STANDARD
  9
$DIMCLRD
 70
     0
  9
$DIMCLRE
 70
     0
  9
$DIMCLRT
 70
     0
  9
$DIMTFAC
 40
1.0
  9
$DIMGAP
 40
0.09
  9
$LUNITS
 70
     2
  9
$LUPREC
 70
     2
  9
$SKETCHINC
 40
0.1
  9
$FILLETRAD
 40
0.5
  9
$AUNITS
 70
     0
  9
$AUPREC
 70
     2
  9
$MENU
  1
.
  9
$ELEVATION
 40
0.0
  9
$PELEVATION
 40
0.0
  9
$THICKNESS
 40
0.0
  9
$LIMCHECK
 70
     0
  9
$CHAMFERA
 40
0.0
  9
$CHAMFERB
 40
0.0
  9
$SKPOLY
 70
     0
  9
$TDCREATE
 40
2459031.75143191
  9
$TDUPDATE
 40
2459031.751462107
  9
$TDINDWG
 40
0.0000000116
  9
$TDUSRTIMER
 40
0.0000000116
  9
$USRTIMER
 70
     1
  9
$ANGBASE
 50
0.0
  9
$ANGDIR
 70
     0
  9
$PDMODE
 70
     1
  9
$PDSIZE
 40
-2.0
  9
$PLINEWID
 40
0.0
  9
$COORDS
 70
     1
  9
$SPLFRAME
 70
     0
  9
$SPLINETYPE
 70
     6
  9
$SPLINESEGS
 70
     8
  9
$ATTDIA
 70
     0
  9
$ATTREQ
 70
     1
  9
$HANDLING
 70
     1
  9
$HANDSEED
  5
5A6
  9
$SURFTAB1
 70
     6
  9
$SURFTAB2
 70
     6
  9
$SURFTYPE
 70
     6
  9
$SURFU
 70
     6
  9
$SURFV
 70
     6
  9
$UCSNAME
  2

  9
$UCSORG
 10
0.0
 20
0.0
 30
0.0
  9
$UCSXDIR
 10
1.0
 20
0.0
 30
0.0
  9
$UCSYDIR
 10
0.0
 20
1.0
 30
0.0
  9
$PUCSNAME
  2

  9
$PUCSORG
 10
0.0
 20
0.0
 30
0.0
  9
$PUCSXDIR
 10
1.0
 20
0.0
 30
0.0
  9
$PUCSYDIR
 10
0.0
 20
1.0
 30
0.0
  9
$USERI1
 70
     0
  9
$USERI2
 70
     0
  9
$USERI3
 70
     0
  9
$USERI4
 70
     0
  9
$USERI5
 70
     0
  9
$USERR1
 40
0.0
  9
$USERR2
 40
0.0
  9
$USERR3
 40
0.0
  9
$USERR4
 40
0.0
  9
$USERR5
 40
0.0
  9
$WORLDVIEW
 70
     1
  9
$SHADEDGE
 70
     3
  9
$SHADEDIF
 70
    70
  9
$TILEMODE
 70
     1
  9
$MAXACTVP
 70
    64
  9
$PLIMCHECK
 70
     0
  9
$PEXTMIN
 10
1.000000000000000E+20
 20
1.000000000000000E+20
 30
1.000000000000000E+20
  9
$PEXTMAX
 10
-1.000000000000000E+20
 20
-1.000000000000000E+20
 30
-1.000000000000000E+20
  9
$PLIMMIN
 10
-20.0
 20
-7.5
  9
$PLIMMAX
 10
277.0
 20
202.5
  9
$UNITMODE
 70
     0
  9
$VISRETAIN
 70
     1
  9
$PLINEGEN
 70
     0
  9
$PSLTSCALE
 70
     1
  0
ENDSEC
  0
SECTION
  2
TABLES
  0
TABLE
  2
VPORT
 70
     1
  0
VPORT
  2
*ACTIVE
 70
     0
 10
0.0
 20
0.0
 11
1.0
 21
1.0
 12
40.00946518638972
 22
36.98553421284379
 13
0.0
 23
0.0
 14
0.5
 24
0.5
 15
0.5
 25
0.5
 16
0.0
 26
0.0
 36
1.0
 17
0.0
 27
0.0
 37
0.0
 40
89.86259041984727
 41
1.019497679177134
 42
2000.0
 43
0.0
 44
0.0
 50
0.0
 51
0.0
 71
     0
 72
   100
 73
     1
 74
     3
 75
     0
 76
     0
 77
     0
 78
     0
  0
ENDTAB
  0
TABLE
  2
LTYPE
 70
     1
  0
LTYPE
  2
CONTINUOUS
 70
     0
  3
Solid line
 72
    65
 73
     0
 40
0.0
  0
ENDTAB
  0
TABLE
  2
LAYER
 70
     6
  0
LAYER
  2
0
 70
     0
 62
     7
  6
CONTINUOUS
  0
LAYER
  2
__
 70
     0
 62
     7
  6
CONTINUOUS
  0
LAYER
  2
06___PRT_ALL_SURFS
 70
     0
 62
     7
  6
CONTINUOUS
  0
LAYER
  2
0_COMPONENTS
 70
     0
 62
     7
  6
CONTINUOUS
  0
LAYER
  2
02___PRT_ALL_AXES
 70
     0
 62
     7
  6
CONTINUOUS
  0
ENDTAB
  0
TABLE
  2
STYLE
 70
     2
  0
STYLE
  2
STANDARD
 70
     0
 40
0.0
 41
1.0
 50
0.0
 71
     0
 42
0.2
  3
txt
  4
BIGFONT.SHX
  0
STYLE
  2
_______
 70
     0
 40
0.0
 41
1.0
 50
0.0
 71
     0
 42
0.2
  3

  4
ＭＳ ゴシック
  0
ENDTAB
  0
TABLE
  2
VIEW
 70
     0
  0
ENDTAB
  0
TABLE
  2
UCS
 70
     0
  0
ENDTAB
  0
TABLE
  2
APPID
 70
     3
  0
APPID
  2
ACAD
 70
     0
  0
APPID
  2
ACCMTRANSPARENCY
 70
     0
  0
APPID
  2
ACAECLAYERSTANDARD
 70
     0
  0
ENDTAB
  0
TABLE
  2
DIMSTYLE
 70
     1
  0
DIMSTYLE
  2
STANDARD
 70
     0
  3

  4

  5

  6

  7

 40
1.0
 41
0.18
 42
0.0625
 43
0.38
 44
0.18
 45
0.0
 46
0.0
 47
0.0
 48
0.0
140
0.18
141
0.09
142
0.0
143
25.4
144
1.0
145
0.0
146
1.0
147
0.09
 71
     0
 72
     0
 73
     1
 74
     1
 75
     0
 76
     0
 77
     0
 78
     0
170
     0
171
     2
172
     0
173
     0
174
     0
175
     0
176
     0
177
     0
178
     0
  0
ENDTAB
  0
ENDSEC
  0
SECTION
  2
BLOCKS
  0
BLOCK
  8
0
  2
$MODEL_SPACE
 70
     0
 10
0.0
 20
0.0
 30
0.0
  3
$MODEL_SPACE
  1

  0
ENDBLK
  5
21
  8
0
  0
BLOCK
 67
     1
  8
0
  2
$PAPER_SPACE
 70
     0
 10
0.0
 20
0.0
 30
0.0
  3
$PAPER_SPACE
  1

  0
ENDBLK
  5
1D
 67
     1
  8
0
  0
ENDSEC
  0
SECTION
  2
ENTITIES
  0
TEXT
  5
78
  8
0
 62
     1
 10
-5.797886002550086
 20
76.87499736169872
 30
0.0
 40
4.5
  1
赤外線調光ﾕﾆｯﾄ
  7
_______
  0
TEXT
  5
79
  8
0
 62
     1
 10
-5.797886002550086
 20
-7.12499763830121
 30
0.0
 40
4.5
  1
三菱　SC3100
  7
_______
  0
LINE
  5
7A
  8
0
  6
CONTINUOUS
 62
     1
 10
6.407619810329521
 20
34.49117230296443
 30
0.0
 11
6.407619810329521
 21
34.57777484336444
 31
0.0
  0
LINE
  5
7B
  8
0
  6
CONTINUOUS
 62
     1
 10
8.707113968829518
 20
35.89241850516441
 30
0.0
 11
8.707113968829518
 21
35.87076787006441
 31
0.0
  0
LINE
  5
7C
  8
0
  6
CONTINUOUS
 62
     1
 10
9.457113968829518
 20
36.54193755796442
 30
0.0
 11
9.457113968829518
 21
36.52028692286441
 31
0.0
  0
LINE
  5
7D
  8
0
  6
CONTINUOUS
 62
     1
 10
9.648979067929517
 20
34.13487430326441
 30
0.0
 11
9.648979067929517
 21
34.11322366816441
 31
0.0
  0
LINE
  5
7E
  8
0
  6
CONTINUOUS
 62
     1
 10
10.39897906792952
 20
34.78439335606441
 30
0.0
 11
10.39897906792952
 21
34.76274272096441
 31
0.0
  0
LINE
  5
7F
  8
0
  6
CONTINUOUS
 62
     1
 10
12.03678493492953
 20
32.86617230296443
 30
0.0
 11
12.03678493492953
 21
32.95277484336444
 31
0.0
  0
LINE
  5
80
  8
0
  6
CONTINUOUS
 62
     1
 10
8.465632512229519
 20
35.86006612456441
 30
0.0
 11
9.472202372629525
 21
33.9817811943644
 31
0.0
  0
LINE
  5
81
  8
0
  6
CONTINUOUS
 62
     1
 10
9.648979067929517
 20
34.11322366816441
 30
0.0
 11
8.707113968829518
 21
35.87076787006441
 31
0.0
  0
LINE
  5
82
  8
0
  6
CONTINUOUS
 62
     1
 10
9.648979067929517
 20
34.13487430326441
 30
0.0
 11
8.707113968829518
 21
35.89241850516441
 31
0.0
  0
LINE
  5
83
  8
0
  6
CONTINUOUS
 62
     1
 10
9.215632512229519
 20
36.50958517736441
 30
0.0
 11
10.22220237262952
 21
34.63130024716443
 31
0.0
  0
LINE
  5
84
  8
0
  6
CONTINUOUS
 62
     1
 10
10.39897906792952
 20
34.76274272096441
 30
0.0
 11
9.457113968829518
 21
36.52028692286441
 31
0.0
  0
LINE
  5
85
  8
0
  6
CONTINUOUS
 62
     1
 10
10.39897906792952
 20
34.78439335606441
 30
0.0
 11
9.457113968829518
 21
36.54193755796442
 31
0.0
  0
LINE
  5
86
  8
0
  6
CONTINUOUS
 62
     1
 10
15.92505685452952
 20
34.82591837466441
 30
0.0
 11
16.01416157862953
 21
34.79726649156441
 31
0.0
  0
LINE
  5
87
  8
0
  6
CONTINUOUS
 62
     1
 10
15.83193395952952
 20
34.86281899476441
 30
0.0
 11
15.92505685452952
 21
34.82591837466441
 31
0.0
  0
LINE
  5
88
  8
0
  6
CONTINUOUS
 62
     1
 10
15.74351418522951
 20
34.90575109986443
 30
0.0
 11
15.83193395952952
 21
34.86281899476441
 31
0.0
  0
LINE
  5
89
  8
0
  6
CONTINUOUS
 62
     1
 10
15.66135070152953
 20
34.95422912866442
 30
0.0
 11
15.74351418522951
 21
34.90575109986443
 31
0.0
  0
LINE
  5
8A
  8
0
  6
CONTINUOUS
 62
     1
 10
15.58675357622953
 20
35.00746611886441
 30
0.0
 11
15.66135070152953
 21
34.95422912866442
 31
0.0
  0
LINE
  5
8B
  8
0
  6
CONTINUOUS
 62
     1
 10
15.52078480302953
 20
35.0642976847644
 30
0.0
 11
15.58675357622953
 21
35.00746611886441
 31
0.0
  0
LINE
  5
8C
  8
0
  6
CONTINUOUS
 62
     1
 10
15.46361229922952
 20
35.12380377236443
 30
0.0
 11
15.52078480302953
 21
35.0642976847644
 31
0.0
  0
LINE
  5
8D
  8
0
  6
CONTINUOUS
 62
     1
 10
15.41476303762951
 20
35.18556758916444
 30
0.0
 11
15.46361229922952
 21
35.12380377236443
 31
0.0
  0
LINE
  5
8E
  8
0
  6
CONTINUOUS
 62
     1
 10
15.37383496962951
 20
35.24920109316443
 30
0.0
 11
15.41476303762951
 21
35.18556758916444
 31
0.0
  0
LINE
  5
8F
  8
0
  6
CONTINUOUS
 62
     1
 10
15.34046435122951
 20
35.31440103106442
 30
0.0
 11
15.37383496962951
 21
35.24920109316443
 31
0.0
  0
LINE
  5
90
  8
0
  6
CONTINUOUS
 62
     1
 10
15.31437407602952
 20
35.38089041706442
 30
0.0
 11
15.34046435122951
 21
35.31440103106442
 31
0.0
  0
LINE
  5
91
  8
0
  6
CONTINUOUS
 62
     1
 10
15.29535826362952
 20
35.44845180916442
 30
0.0
 11
15.31437407602952
 21
35.38089041706442
 31
0.0
  0
LINE
  5
92
  8
0
  6
CONTINUOUS
 62
     1
 10
15.28329840242952
 20
35.5169283978644
 30
0.0
 11
15.29535826362952
 21
35.44845180916442
 31
0.0
  0
LINE
  5
93
  8
0
  6
CONTINUOUS
 62
     1
 10
15.27905294052952
 20
35.56409217876441
 30
0.0
 11
15.28329840242952
 21
35.5169283978644
 31
0.0
  0
LINE
  5
94
  8
0
  6
CONTINUOUS
 62
     1
 10
15.27323038372953
 20
35.66901627956443
 30
0.0
 11
15.27905595012952
 21
35.56403559736444
 31
0.0
  0
LINE
  5
95
  8
0
  6
CONTINUOUS
 62
     1
 10
13.16406747172952
 20
34.6058068527644
 30
0.0
 11
13.16406747172952
 21
34.58415621776442
 31
0.0
  0
LINE
  5
96
  8
0
  6
CONTINUOUS
 62
     1
 10
13.91406747172952
 20
35.25532590566442
 30
0.0
 11
13.91406747172952
 21
35.23367527056442
 31
0.0
  0
LINE
  5
97
  8
0
  6
CONTINUOUS
 62
     1
 10
15.11319286972952
 20
43.21567778656441
 30
0.0
 11
15.05013367522952
 21
42.06241140286441
 31
0.0
  0
LINE
  5
98
  8
0
  6
CONTINUOUS
 62
     1
 10
13.21794691552952
 20
34.48361580696442
 30
0.0
 11
13.16406747172952
 21
34.58415621776442
 31
0.0
  0
LINE
  5
99
  8
0
  6
CONTINUOUS
 62
     1
 10
13.22877223302952
 20
34.48506612456441
 30
0.0
 11
13.16406747172952
 21
34.6058068527644
 31
0.0
  0
LINE
  5
9A
  8
06___PRT_ALL_SURFS
  6
CONTINUOUS
 62
     1
 10
17.09440417292953
 20
35.76276497666441
 30
0.0
 11
17.12455802962953
 21
35.7301415387644
 31
0.0
  0
LINE
  5
9B
  8
06___PRT_ALL_SURFS
  6
CONTINUOUS
 62
     1
 10
17.06015313142953
 20
35.80808566966442
 30
0.0
 11
17.09440417292953
 21
35.76276497666441
 31
0.0
  0
LINE
  5
9C
  8
06___PRT_ALL_SURFS
  6
CONTINUOUS
 62
     1
 10
17.02835510922952
 20
35.86093071876442
 30
0.0
 11
17.06015313142953
 21
35.80808566966442
 31
0.0
  0
LINE
  5
9D
  8
06___PRT_ALL_SURFS
  6
CONTINUOUS
 62
     1
 10
17.00026673952952
 20
35.92045773606444
 30
0.0
 11
17.02835510922952
 21
35.86093071876442
 31
0.0
  0
LINE
  5
9E
  8
06___PRT_ALL_SURFS
  6
CONTINUOUS
 62
     1
 10
16.97665708202952
 20
35.98561846806442
 30
0.0
 11
17.00026673952952
 21
35.92045773606444
 31
0.0
  0
LINE
  5
9F
  8
06___PRT_ALL_SURFS
  6
CONTINUOUS
 62
     1
 10
16.95791460802951
 20
36.0551569619644
 30
0.0
 11
16.97665708202952
 21
35.98561846806442
 31
0.0
  0
LINE
  5
A0
  8
06___PRT_ALL_SURFS
  6
CONTINUOUS
 62
     1
 10
16.94412482092952
 20
36.12761055266444
 30
0.0
 11
16.95791460802951
 21
36.0551569619644
 31
0.0
  0
LINE
  5
A1
  8
06___PRT_ALL_SURFS
  6
CONTINUOUS
 62
     1
 10
16.93512605762952
 20
36.20124846246441
 30
0.0
 11
16.94412482092952
 21
36.12761055266444
 31
0.0
  0
LINE
  5
A2
  8
06___PRT_ALL_SURFS
  6
CONTINUOUS
 62
     1
 10
16.93095638682952
 20
36.26320945126443
 30
0.0
 11
16.93512605762952
 21
36.20124846246441
 31
0.0
  0
LINE
  5
A3
  8
0
  6
CONTINUOUS
 62
     1
 10
15.84112858142953
 20
36.16083054566442
 30
0.0
 11
15.90298330632952
 21
35.04616618706441
 31
0.0
  0
LINE
  5
A4
  8
06___PRT_ALL_SURFS
  6
CONTINUOUS
 62
     1
 10
16.95522274622952
 20
36.33692767776441
 30
0.0
 11
16.95251116902952
 21
36.27588686976443
 31
0.0
  0
LINE
  5
A5
  8
0
  6
CONTINUOUS
 62
     1
 10
16.92775506022952
 20
43.84169647066442
 30
0.0
 11
16.93270874452952
 21
43.87825633206442
 31
0.0
  0
LINE
  5
A6
  8
06___PRT_ALL_SURFS
  6
CONTINUOUS
 62
     1
 10
16.96053187892952
 20
36.40680336296441
 30
0.0
 11
16.95522274622952
 21
36.33692767776441
 31
0.0
  0
LINE
  5
A7
  8
06___PRT_ALL_SURFS
  6
CONTINUOUS
 62
     1
 10
16.96807998912952
 20
36.47750985326442
 30
0.0
 11
16.96053187892952
 21
36.40680336296441
 31
0.0
  0
LINE
  5
A8
  8
06___PRT_ALL_SURFS
  6
CONTINUOUS
 62
     1
 10
16.97770422032951
 20
36.54851493186442
 30
0.0
 11
16.96807998912952
 21
36.47750985326442
 31
0.0
  0
LINE
  5
A9
  8
06___PRT_ALL_SURFS
  6
CONTINUOUS
 62
     1
 10
16.98800143022953
 20
36.61222935146444
 30
0.0
 11
16.97770422032951
 21
36.54851493186442
 31
0.0
  0
LINE
  5
AA
  8
0
  6
CONTINUOUS
 62
     1
 10
17.09015325912952
 20
37.2425176463644
 30
0.0
 11
16.98506182022952
 21
36.63746829096442
 31
0.0
  0
LINE
  5
AB
  8
06___PRT_ALL_SURFS
  6
CONTINUOUS
 62
     1
 10
16.98800138882953
 20
36.61222911336441
 30
0.0
 11
17.09877326362951
 21
37.24998278936442
 31
0.0
  0
LINE
  5
AC
  8
0
  6
CONTINUOUS
 62
     1
 10
13.96794691552952
 20
35.13313485986441
 30
0.0
 11
13.91406747172952
 21
35.23367527056442
 31
0.0
  0
LINE
  5
AD
  8
0
  6
CONTINUOUS
 62
     1
 10
13.97877223302952
 20
35.13458517736441
 30
0.0
 11
13.91406747172952
 21
35.25532590566442
 31
0.0
  0
LINE
  5
AE
  8
0
  6
CONTINUOUS
 62
     1
 10
18.77993535712952
 20
38.70591187016441
 30
0.0
 11
18.85790232562952
 21
37.37055345586444
 31
0.0
  0
LINE
  5
AF
  8
0
  6
CONTINUOUS
 62
     1
 10
18.78369397612951
 20
37.13210644066442
 30
0.0
 11
18.75569718462953
 21
38.68492099706444
 31
0.0
  0
LINE
  5
B0
  8
0
  6
CONTINUOUS
 62
     1
 10
21.04224019982952
 20
35.06499248376443
 30
0.0
 11
21.01953733342953
 21
33.5691442646644
 31
0.0
  0
LINE
  5
B1
  8
0
  6
CONTINUOUS
 62
     1
 10
18.87955296072951
 20
37.36430345586442
 30
0.0
 11
18.80985432532952
 21
35.27329493246444
 31
0.0
  0
LINE
  5
B2
  8
06___PRT_ALL_SURFS
  6
CONTINUOUS
 62
     1
 10
18.22715334772951
 20
36.24352410096444
 30
0.0
 11
18.59375504122951
 21
37.63185589106442
 31
0.0
  0
LINE
  5
B3
  8
06___PRT_ALL_SURFS
  6
CONTINUOUS
 62
     1
 10
18.53127824682952
 20
36.17620037806441
 30
0.0
 11
18.78369397612951
 21
37.13210644066442
 31
0.0
  0
LINE
  5
B4
  8
0
  6
CONTINUOUS
 62
     1
 10
18.85790232562952
 20
37.37055345586444
 30
0.0
 11
18.54538523832952
 21
36.18704171826442
 31
0.0
  0
LINE
  5
B5
  8
0
  6
CONTINUOUS
 62
     1
 10
18.87955296072951
 20
37.36430345586442
 30
0.0
 11
18.56703587342952
 21
36.18079171826443
 31
0.0
  0
LINE
  5
B6
  8
0
  6
CONTINUOUS
 62
     1
 10
22.45915699072953
 20
43.07881381146441
 30
0.0
 11
22.45915699072953
 21
43.03551254126442
 31
0.0
  0
LINE
  5
B7
  8
0
  6
CONTINUOUS
 62
     1
 10
22.78391651722953
 20
42.98506381146441
 30
0.0
 11
22.78391651722953
 21
42.94176254126442
 31
0.0
  0
LINE
  5
B8
  8
0
  6
CONTINUOUS
 62
     1
 10
23.00042286812952
 20
42.92256381146441
 30
0.0
 11
23.00042286812952
 21
42.87926254126442
 31
0.0
  0
LINE
  5
B9
  8
0
  6
CONTINUOUS
 62
     1
 10
22.40743345782951
 20
35.24789369926444
 30
0.0
 11
22.38473059142953
 21
33.75204548016441
 31
0.0
  0
LINE
  5
BA
  8
0
  6
CONTINUOUS
 62
     1
 10
23.29700330822952
 20
34.65750987266441
 30
0.0
 11
23.31548863362951
 21
34.99558118036441
 31
0.0
  0
LINE
  5
BB
  8
0
  6
CONTINUOUS
 62
     1
 10
23.99611032742952
 20
43.94141341986442
 30
0.0
 11
23.88976471912952
 21
42.28349902176441
 31
0.0
  0
LINE
  5
BC
  8
0
  6
CONTINUOUS
 62
     1
 10
22.45915699072953
 20
43.07881381146441
 30
0.0
 11
22.39216969262952
 21
42.52080110956442
 31
0.0
  0
LINE
  5
BD
  8
0
  6
CONTINUOUS
 62
     1
 10
22.45915699072953
 20
43.03551254126442
 30
0.0
 11
22.39758235142952
 21
42.52258797446441
 31
0.0
  0
LINE
  5
BE
  8
0
  6
CONTINUOUS
 62
     1
 10
22.77342653582951
 20
42.15419647066442
 30
0.0
 11
22.77838022012952
 21
42.19075633206442
 31
0.0
  0
LINE
  5
BF
  8
0
  6
CONTINUOUS
 62
     1
 10
16.93381004502953
 20
43.88494614866441
 30
0.0
 11
16.93270890712952
 21
43.87825753146441
 31
0.0
  0
LINE
  5
C0
  8
0
  6
CONTINUOUS
 62
     1
 10
16.93824206892953
 20
43.90136160346442
 30
0.0
 11
16.93381004502953
 21
43.88494614866441
 31
0.0
  0
LINE
  5
C1
  8
0
  6
CONTINUOUS
 62
     1
 10
16.94497539202952
 20
43.91690118806441
 30
0.0
 11
16.93824206892953
 21
43.90136160346442
 31
0.0
  0
LINE
  5
C2
  8
0
  6
CONTINUOUS
 62
     1
 10
16.95387031062953
 20
43.93124309796441
 30
0.0
 11
16.94497539202952
 21
43.91690118806441
 31
0.0
  0
LINE
  5
C3
  8
0
  6
CONTINUOUS
 62
     1
 10
16.96473178972951
 20
43.94408277966441
 30
0.0
 11
16.95387031062953
 21
43.93124309796441
 31
0.0
  0
LINE
  5
C4
  8
0
  6
CONTINUOUS
 62
     1
 10
16.97147848872953
 20
43.95042373996442
 30
0.0
 11
16.96473178972951
 21
43.94408277966441
 31
0.0
  0
LINE
  5
C5
  8
0
  6
CONTINUOUS
 62
     1
 10
15.11872775512953
 20
43.28046311826442
 30
0.0
 11
15.11319130282952
 21
43.21564664926441
 31
0.0
  0
LINE
  5
C6
  8
0
  6
CONTINUOUS
 62
     1
 10
15.13275404012953
 20
43.36862509766442
 30
0.0
 11
15.11872775512953
 21
43.28046311826442
 31
0.0
  0
LINE
  5
C7
  8
0
  6
CONTINUOUS
 62
     1
 10
15.15414208202952
 20
43.45540710106442
 30
0.0
 11
15.13275404012953
 21
43.36862509766442
 31
0.0
  0
LINE
  5
C8
  8
0
  6
CONTINUOUS
 62
     1
 10
15.18279353672952
 20
43.54032048926442
 30
0.0
 11
15.15414208202952
 21
43.45540710106442
 31
0.0
  0
LINE
  5
C9
  8
0
  6
CONTINUOUS
 62
     1
 10
15.21859147272951
 20
43.62287651406442
 30
0.0
 11
15.18279353672952
 21
43.54032048926442
 31
0.0
  0
LINE
  5
CA
  8
0
  6
CONTINUOUS
 62
     1
 10
15.26139003322952
 20
43.70257644316442
 30
0.0
 11
15.21859147272951
 21
43.62287651406442
 31
0.0
  0
LINE
  5
CB
  8
0
  6
CONTINUOUS
 62
     1
 10
15.31102590712952
 20
43.77894183416441
 30
0.0
 11
15.26139003322952
 21
43.70257644316442
 31
0.0
  0
LINE
  5
CC
  8
0
  6
CONTINUOUS
 62
     1
 10
15.36730896922953
 20
43.85149687216442
 30
0.0
 11
15.31102590712952
 21
43.77894183416441
 31
0.0
  0
LINE
  5
CD
  8
0
  6
CONTINUOUS
 62
     1
 10
15.43000973602952
 20
43.91976493996442
 30
0.0
 11
15.36730896922953
 21
43.85149687216442
 31
0.0
  0
LINE
  5
CE
  8
0
  6
CONTINUOUS
 62
     1
 10
15.49042454512951
 20
43.97605072356441
 30
0.0
 11
15.43000973602952
 21
43.91976493996442
 31
0.0
  0
LINE
  5
CF
  8
0
  6
CONTINUOUS
 62
     1
 10
26.40268836212952
 20
53.42634840296442
 30
0.0
 11
15.49044753662952
 21
43.97607063586442
 31
0.0
  0
LINE
  5
D0
  8
0
  6
CONTINUOUS
 62
     1
 10
27.05734203282952
 20
53.53644486076442
 30
0.0
 11
16.14510120762952
 21
44.08616709386442
 31
0.0
  0
LINE
  5
D1
  8
0
  6
CONTINUOUS
 62
     1
 10
16.97148186482951
 20
43.95042677316442
 30
0.0
 11
20.74239524642952
 21
47.21613355716441
 31
0.0
  0
LINE
  5
D2
  8
0
  6
CONTINUOUS
 62
     1
 10
20.90761981032952
 20
47.13514319826442
 30
0.0
 11
6.407619810329521
 21
34.57777484336444
 31
0.0
  0
LINE
  5
D3
  8
06___PRT_ALL_SURFS
  6
CONTINUOUS
 62
     1
 10
17.49028268542952
 20
35.36910110436443
 30
0.0
 11
17.12458070552952
 21
35.73011914936441
 31
0.0
  0
LINE
  5
D4
  8
0
  6
CONTINUOUS
 62
     1
 10
18.59016864682951
 20
35.01944430076443
 30
0.0
 11
18.28136243922953
 21
35.37266373726442
 31
0.0
  0
LINE
  5
D5
  8
0
  6
CONTINUOUS
 62
     1
 10
18.80985432532952
 20
35.27329493246444
 30
0.0
 11
18.59046517892952
 21
35.52423713746441
 31
0.0
  0
LINE
  5
D6
  8
0
  6
CONTINUOUS
 62
     1
 10
20.75367094602953
 20
47.22470398606441
 30
0.0
 11
20.74239382022952
 21
47.21613224386442
 31
0.0
  0
LINE
  5
D7
  8
0
  6
CONTINUOUS
 62
     1
 10
20.76883035532953
 20
47.23315010226442
 30
0.0
 11
20.75367094602953
 21
47.22470398606441
 31
0.0
  0
LINE
  5
D8
  8
0
  6
CONTINUOUS
 62
     1
 10
20.78523513062953
 20
47.23919075816441
 30
0.0
 11
20.76883035532953
 21
47.23315010226442
 31
0.0
  0
LINE
  5
D9
  8
0
  6
CONTINUOUS
 62
     1
 10
20.80253864652951
 20
47.24265774106442
 30
0.0
 11
20.78523513062953
 21
47.23919075816441
 31
0.0
  0
LINE
  5
DA
  8
0
  6
CONTINUOUS
 62
     1
 10
20.82040142152951
 20
47.24343346196441
 30
0.0
 11
20.80253864652951
 21
47.24265774106442
 31
0.0
  0
LINE
  5
DB
  8
0
  6
CONTINUOUS
 62
     1
 10
20.83842876382951
 20
47.24144610056442
 30
0.0
 11
20.82040142152951
 21
47.24343346196441
 31
0.0
  0
LINE
  5
DC
  8
0
  6
CONTINUOUS
 62
     1
 10
20.85621796222952
 20
47.23668891186442
 30
0.0
 11
20.83842876382951
 21
47.24144610056442
 31
0.0
  0
LINE
  5
DD
  8
0
  6
CONTINUOUS
 62
     1
 10
20.87338529962952
 20
47.22920858416441
 30
0.0
 11
20.85621796222952
 21
47.23668891186442
 31
0.0
  0
LINE
  5
DE
  8
0
  6
CONTINUOUS
 62
     1
 10
20.88940711542952
 20
47.21919920416441
 30
0.0
 11
20.87338529962952
 21
47.22920858416441
 31
0.0
  0
LINE
  5
DF
  8
0
  6
CONTINUOUS
 62
     1
 10
20.90386792132952
 20
47.20692215456442
 30
0.0
 11
20.88940711542952
 21
47.21919920416441
 31
0.0
  0
LINE
  5
E0
  8
0
  6
CONTINUOUS
 62
     1
 10
20.91644776032952
 20
47.19263644276442
 30
0.0
 11
20.90386792132952
 21
47.20692215456442
 31
0.0
  0
LINE
  5
E1
  8
0
  6
CONTINUOUS
 62
     1
 10
20.92678489092953
 20
47.17672243246442
 30
0.0
 11
20.91644776032952
 21
47.19263644276442
 31
0.0
  0
LINE
  5
E2
  8
0
  6
CONTINUOUS
 62
     1
 10
20.93457925862953
 20
47.15965285856441
 30
0.0
 11
20.92678489092953
 21
47.17672243246442
 31
0.0
  0
LINE
  5
E3
  8
0
  6
CONTINUOUS
 62
     1
 10
20.93964426682952
 20
47.14196783836442
 30
0.0
 11
20.93457925862953
 21
47.15965285856441
 31
0.0
  0
LINE
  5
E4
  8
0
  6
CONTINUOUS
 62
     1
 10
20.94095528202952
 20
47.13440854786442
 30
0.0
 11
20.93964426682952
 21
47.14196783836442
 31
0.0
  0
LINE
  5
E5
  8
0
  6
CONTINUOUS
 62
     1
 10
20.94225786832952
 20
47.12514405216442
 30
0.0
 11
20.94095602562952
 21
47.13440326266442
 31
0.0
  0
LINE
  5
E6
  8
0
  6
CONTINUOUS
 62
     1
 10
26.19148863402953
 20
43.58909571226442
 30
0.0
 11
26.18424489482952
 21
43.69844092056442
 31
0.0
  0
LINE
  5
E7
  8
0
  6
CONTINUOUS
 62
     1
 10
25.74249089262952
 20
43.43727677516442
 30
0.0
 11
25.75009928202952
 21
41.74646669146442
 31
0.0
  0
LINE
  5
E8
  8
0
  6
CONTINUOUS
 62
     1
 10
26.00197318102951
 20
41.62307816896441
 30
0.0
 11
25.99389641322952
 21
43.41797582946442
 31
0.0
  0
LINE
  5
E9
  8
0
  6
CONTINUOUS
 62
     1
 10
25.37568531782952
 20
44.69062324816441
 30
0.0
 11
25.37443768492952
 21
44.43277830276442
 31
0.0
  0
LINE
  5
EA
  8
0
  6
CONTINUOUS
 62
     1
 10
25.18643929202952
 20
44.86027392156441
 30
0.0
 11
25.17919555292951
 21
44.74734495746442
 31
0.0
  0
LINE
  5
EB
  8
0
  6
CONTINUOUS
 62
     1
 10
27.08026523492953
 20
44.76845795606442
 30
0.0
 11
26.98824348542952
 21
44.56735874056442
 31
0.0
  0
LINE
  5
EC
  8
0
  6
CONTINUOUS
 62
     1
 10
25.34547440382951
 20
45.26924893276441
 30
0.0
 11
25.24530212352951
 21
45.07050257286441
 31
0.0
  0
LINE
  5
ED
  8
0
  6
CONTINUOUS
 62
     1
 10
27.13908085472951
 20
44.40973464776442
 30
0.0
 11
27.17192901742952
 21
43.91388725046441
 31
0.0
  0
LINE
  5
EE
  8
0
  6
CONTINUOUS
 62
     1
 10
27.44179542892952
 20
43.83598352776441
 30
0.0
 11
27.37457385942952
 21
44.85070208546442
 31
0.0
  0
LINE
  5
EF
  8
02___PRT_ALL_AXES
  6
CONTINUOUS
 62
     1
 10
27.66497920352953
 20
33.73999140466444
 30
0.0
 11
27.66539193512952
 21
33.73317424166441
 31
0.0
  0
LINE
  5
F0
  8
0
  6
CONTINUOUS
 62
     1
 10
26.94097038792953
 20
44.35378442136442
 30
0.0
 11
26.94148863402953
 21
44.23861476506441
 31
0.0
  0
LINE
  5
F1
  8
0
  6
CONTINUOUS
 62
     1
 10
22.77948152052952
 20
42.19744614866441
 30
0.0
 11
22.77838038262952
 21
42.19075753146441
 31
0.0
  0
LINE
  5
F2
  8
0
  6
CONTINUOUS
 62
     1
 10
22.78391354442952
 20
42.21386160346442
 30
0.0
 11
22.77948152052952
 21
42.19744614866441
 31
0.0
  0
LINE
  5
F3
  8
0
  6
CONTINUOUS
 62
     1
 10
22.79064686762952
 20
42.22940118806441
 30
0.0
 11
22.78391354442952
 21
42.21386160346442
 31
0.0
  0
LINE
  5
F4
  8
0
  6
CONTINUOUS
 62
     1
 10
22.79954178612952
 20
42.24374309796441
 30
0.0
 11
22.79064686762952
 21
42.22940118806441
 31
0.0
  0
LINE
  5
F5
  8
0
  6
CONTINUOUS
 62
     1
 10
22.81040326532951
 20
42.25658277966441
 30
0.0
 11
22.79954178612952
 21
42.24374309796441
 31
0.0
  0
LINE
  5
F6
  8
0
  6
CONTINUOUS
 62
     1
 10
22.81714996422951
 20
42.26292373996442
 30
0.0
 11
22.81040326532951
 21
42.25658277966441
 31
0.0
  0
LINE
  5
F7
  8
0
  6
CONTINUOUS
 62
     1
 10
25.51052948122953
 20
45.44984087366441
 30
0.0
 11
25.41860514292952
 21
45.37023206146442
 31
0.0
  0
LINE
  5
F8
  8
0
  6
CONTINUOUS
 62
     1
 10
24.22002823632951
 20
44.33223401196442
 30
0.0
 11
24.12810389812952
 21
44.25262519986441
 31
0.0
  0
LINE
  5
F9
  8
0
  6
CONTINUOUS
 62
     1
 10
24.71604782442952
 20
44.65833860686442
 30
0.0
 11
24.70887362492952
 21
44.65212556796442
 31
0.0
  0
LINE
  5
FA
  8
0
  6
CONTINUOUS
 62
     1
 10
23.15063266512952
 20
43.30264931156442
 30
0.0
 11
22.78391651722953
 21
42.98506381146441
 31
0.0
  0
LINE
  5
FB
  8
0
  6
CONTINUOUS
 62
     1
 10
24.81585376382952
 20
44.70147181566442
 30
0.0
 11
24.74130491642953
 21
44.63691062006441
 31
0.0
  0
LINE
  5
FC
  8
0
  6
CONTINUOUS
 62
     1
 10
23.17601391702952
 20
43.28132885026442
 30
0.0
 11
22.78391651722953
 21
42.94176254126442
 31
0.0
  0
LINE
  5
FD
  8
0
  6
CONTINUOUS
 62
     1
 10
23.00042286812952
 20
42.92256381146441
 30
0.0
 11
23.29838212882953
 21
43.18060410046442
 31
0.0
  0
LINE
  5
FE
  8
0
  6
CONTINUOUS
 62
     1
 10
24.90527888872953
 20
44.57221751576442
 30
0.0
 11
25.18341261322952
 21
44.81308838686442
 31
0.0
  0
LINE
  5
FF
  8
0
  6
CONTINUOUS
 62
     1
 10
12.03678493492953
 20
32.95277484336444
 30
0.0
 11
23.60802970662952
 21
42.97376676906441
 31
0.0
  0
LINE
  5
100
  8
0
  6
CONTINUOUS
 62
     1
 10
25.31317275382952
 20
44.45046396496441
 30
0.0
 11
25.37478142742953
 21
44.50381864146442
 31
0.0
  0
LINE
  5
101
  8
0
  6
CONTINUOUS
 62
     1
 10
22.81715334042951
 20
42.26292677316442
 30
0.0
 11
23.62628252222953
 21
42.96365319956442
 31
0.0
  0
LINE
  5
102
  8
0
  6
CONTINUOUS
 62
     1
 10
25.33562097362952
 20
44.44398372216442
 30
0.0
 11
25.37465547592953
 21
44.47778859286441
 31
0.0
  0
LINE
  5
103
  8
0
  6
CONTINUOUS
 62
     1
 10
12.03678493492953
 20
32.86617230296443
 30
0.0
 11
22.77498928102952
 21
42.16573005776442
 31
0.0
  0
LINE
  5
104
  8
0
  6
CONTINUOUS
 62
     1
 10
23.00310102082952
 20
42.11328061926442
 30
0.0
 11
23.85020356182952
 21
42.84689293946441
 31
0.0
  0
LINE
  5
105
  8
0
  6
CONTINUOUS
 62
     1
 10
27.24258028882952
 20
44.94984087366441
 30
0.0
 11
27.15065595052951
 21
44.87023206146442
 31
0.0
  0
LINE
  5
106
  8
0
  6
CONTINUOUS
 62
     1
 10
25.95207904392953
 20
43.83223401196442
 30
0.0
 11
25.86015470562953
 21
43.75262519986441
 31
0.0
  0
LINE
  5
107
  8
0
  6
CONTINUOUS
 62
     1
 10
25.99389641322952
 20
43.41797582946442
 30
0.0
 11
26.19148863402953
 21
43.58909571226442
 31
0.0
  0
LINE
  5
108
  8
0
  6
CONTINUOUS
 62
     1
 10
26.94148863402953
 20
44.23861476506441
 30
0.0
 11
27.13908085472951
 21
44.40973464776442
 31
0.0
  0
LINE
  5
109
  8
0
  6
CONTINUOUS
 62
     1
 10
34.30780732292952
 20
49.91130462616442
 30
0.0
 11
29.82992194212952
 21
46.03334213106442
 31
0.0
  0
LINE
  5
10A
  8
0
  6
CONTINUOUS
 62
     1
 10
28.02714630432952
 20
44.47209263146442
 30
0.0
 11
27.43370200802951
 21
43.95815479516442
 31
0.0
  0
LINE
  5
10B
  8
0
  6
CONTINUOUS
 62
     1
 10
34.31068470972951
 20
49.77603153876441
 30
0.0
 11
29.94922991232951
 21
45.99890088676442
 31
0.0
  0
LINE
  5
10C
  8
0
  6
CONTINUOUS
 62
     1
 10
28.14645427462952
 20
44.43765138716442
 30
0.0
 11
27.44922991232951
 21
43.83383737726442
 31
0.0
  0
LINE
  5
10D
  8
0
  6
CONTINUOUS
 62
     1
 10
26.00197318102951
 20
41.62307816896441
 30
0.0
 11
25.56183718112952
 21
41.24190921196441
 31
0.0
  0
LINE
  5
10E
  8
0
  6
CONTINUOUS
 62
     1
 10
26.03983366772951
 20
41.61214878786441
 30
0.0
 11
26.39464922632952
 21
41.91942807526442
 31
0.0
  0
LINE
  5
10F
  8
0_COMPONENTS
  6
CONTINUOUS
 62
     1
 10
80.21810364312952
 20
27.35278175706443
 30
0.0
 11
80.28172111112953
 21
27.36311474036441
 31
0.0
  0
LINE
  5
110
  8
0_COMPONENTS
  6
CONTINUOUS
 62
     1
 10
80.11911406872952
 20
27.34151296596443
 30
0.0
 11
80.21810364312952
 21
27.35278175706443
 31
0.0
  0
LINE
  5
111
  8
0
  6
CONTINUOUS
 62
     1
 10
6.407619810329521
 20
34.49117230296443
 30
0.0
 11
12.03678493492953
 21
32.86617230296443
 31
0.0
  0
LINE
  5
112
  8
0
  6
CONTINUOUS
 62
     1
 10
6.407619810329521
 20
34.57777484336444
 30
0.0
 11
12.03678493492953
 21
32.95277484336444
 31
0.0
  0
LINE
  5
113
  8
06___PRT_ALL_SURFS
  6
CONTINUOUS
 62
     1
 10
34.66433240982951
 20
29.94757045476442
 30
0.0
 11
34.68482867502952
 21
29.9408559783644
 31
0.0
  0
LINE
  5
114
  8
06___PRT_ALL_SURFS
  6
CONTINUOUS
 62
     1
 10
34.63222016252952
 20
29.9615170809644
 30
0.0
 11
34.66433240982951
 21
29.94757045476442
 31
0.0
  0
LINE
  5
115
  8
06___PRT_ALL_SURFS
  6
CONTINUOUS
 62
     1
 10
34.60153547782951
 20
29.9792824130644
 30
0.0
 11
34.63222016252952
 21
29.9615170809644
 31
0.0
  0
LINE
  5
116
  8
06___PRT_ALL_SURFS
  6
CONTINUOUS
 62
     1
 10
34.57276680882953
 20
30.0006791507644
 30
0.0
 11
34.60153547782951
 21
29.9792824130644
 31
0.0
  0
LINE
  5
117
  8
06___PRT_ALL_SURFS
  6
CONTINUOUS
 62
     1
 10
34.55312948402951
 20
30.01852894786441
 30
0.0
 11
34.57276680882953
 21
30.0006791507644
 31
0.0
  0
LINE
  5
118
  8
06___PRT_ALL_SURFS
  6
CONTINUOUS
 62
     1
 10
34.55311019172953
 20
30.01854799026441
 30
0.0
 11
33.57906337742952
 21
30.98011914936441
 31
0.0
  0
LINE
  5
119
  8
06___PRT_ALL_SURFS
  6
CONTINUOUS
 62
     1
 10
34.73584511112952
 20
30.62266373726442
 30
0.0
 11
35.53148364662951
 21
29.71259461206441
 31
0.0
  0
LINE
  5
11A
  8
06___PRT_ALL_SURFS
  6
CONTINUOUS
 62
     1
 10
35.04494785082952
 20
30.77423713746441
 30
0.0
 11
35.84058638632952
 21
29.86416801236442
 31
0.0
  0
LINE
  5
11B
  8
06___PRT_ALL_SURFS
  6
CONTINUOUS
 62
     1
 10
33.54931098712953
 20
31.01226340496441
 30
0.0
 11
33.57903909312952
 21
30.98014312706442
 31
0.0
  0
LINE
  5
11C
  8
06___PRT_ALL_SURFS
  6
CONTINUOUS
 62
     1
 10
33.51502196452952
 20
31.05751546146442
 30
0.0
 11
33.54931098712953
 21
31.01226340496441
 31
0.0
  0
LINE
  5
11D
  8
06___PRT_ALL_SURFS
  6
CONTINUOUS
 62
     1
 10
33.48316549852953
 20
31.11031826016441
 30
0.0
 11
33.51502196452952
 21
31.05751546146442
 31
0.0
  0
LINE
  5
11E
  8
06___PRT_ALL_SURFS
  6
CONTINUOUS
 62
     1
 10
33.45501166992952
 20
31.16982643046441
 30
0.0
 11
33.48316549852953
 21
31.11031826016441
 31
0.0
  0
LINE
  5
11F
  8
06___PRT_ALL_SURFS
  6
CONTINUOUS
 62
     1
 10
33.43133795442952
 20
31.23498793216442
 30
0.0
 11
33.45501166992952
 21
31.16982643046441
 31
0.0
  0
LINE
  5
120
  8
06___PRT_ALL_SURFS
  6
CONTINUOUS
 62
     1
 10
33.41253825662952
 20
31.3045399278644
 30
0.0
 11
33.43133795442952
 21
31.23498793216442
 31
0.0
  0
LINE
  5
121
  8
06___PRT_ALL_SURFS
  6
CONTINUOUS
 62
     1
 10
33.39870024752952
 20
31.37701185386442
 30
0.0
 11
33.41253825662952
 21
31.3045399278644
 31
0.0
  0
LINE
  5
122
  8
06___PRT_ALL_SURFS
  6
CONTINUOUS
 62
     1
 10
33.38966217182951
 20
31.45066433906442
 30
0.0
 11
33.39870024752952
 21
31.37701185386442
 31
0.0
  0
LINE
  5
123
  8
06___PRT_ALL_SURFS
  6
CONTINUOUS
 62
     1
 10
33.38543906232951
 20
31.5132092145644
 30
0.0
 11
33.38966217182951
 21
31.45066433906442
 31
0.0
  0
LINE
  5
124
  8
0
  6
CONTINUOUS
 62
     1
 10
35.19880374122951
 20
34.56588606656442
 30
0.0
 11
35.31238499752952
 21
32.62055345586444
 31
0.0
  0
LINE
  5
125
  8
0
  6
CONTINUOUS
 62
     1
 10
35.19880374122951
 20
34.56588606656442
 30
0.0
 11
35.23817664802952
 21
32.38210644066442
 31
0.0
  0
LINE
  5
126
  8
0
  6
CONTINUOUS
 62
     1
 10
33.62671130822952
 20
32.92289188986442
 30
0.0
 11
33.70649013652952
 21
34.99667989726441
 31
0.0
  0
LINE
  5
127
  8
06___PRT_ALL_SURFS
  6
CONTINUOUS
 62
     1
 10
33.40967379882952
 20
31.58639672416442
 30
0.0
 11
33.40699382892953
 21
31.52588657846442
 31
0.0
  0
LINE
  5
128
  8
06___PRT_ALL_SURFS
  6
CONTINUOUS
 62
     1
 10
33.41496566372952
 20
31.65626984876442
 30
0.0
 11
33.40967379882952
 21
31.58639672416442
 31
0.0
  0
LINE
  5
129
  8
06___PRT_ALL_SURFS
  6
CONTINUOUS
 62
     1
 10
33.42249667362952
 20
31.72696604726443
 30
0.0
 11
33.41496566372952
 21
31.65626984876442
 31
0.0
  0
LINE
  5
12A
  8
06___PRT_ALL_SURFS
  6
CONTINUOUS
 62
     1
 10
33.43210313022952
 20
31.79795390316443
 30
0.0
 11
33.42249667362952
 21
31.72696604726443
 31
0.0
  0
LINE
  5
12B
  8
06___PRT_ALL_SURFS
  6
CONTINUOUS
 62
     1
 10
33.44248409982953
 20
31.86222933816441
 30
0.0
 11
33.43210313022952
 21
31.79795390316443
 31
0.0
  0
LINE
  5
12C
  8
0
  6
CONTINUOUS
 62
     1
 10
33.62879480082952
 20
32.97705064446441
 30
0.0
 11
33.43954449212953
 21
31.88746829096442
 31
0.0
  0
LINE
  5
12D
  8
06___PRT_ALL_SURFS
  6
CONTINUOUS
 62
     1
 10
33.44248406082951
 20
31.86222911346442
 30
0.0
 11
33.63803992612952
 21
32.98811483316442
 31
0.0
  0
LINE
  5
12E
  8
0
  6
CONTINUOUS
 62
     1
 10
23.29351575152953
 20
34.61743367446442
 30
0.0
 11
23.29700557472952
 21
34.65755351236442
 31
0.0
  0
LINE
  5
12F
  8
0
  6
CONTINUOUS
 62
     1
 10
23.28360040942951
 20
34.55845028556442
 30
0.0
 11
23.29351575152953
 21
34.61743367446442
 31
0.0
  0
LINE
  5
130
  8
0
  6
CONTINUOUS
 62
     1
 10
23.26805569212952
 20
34.50036783716442
 30
0.0
 11
23.28360040942951
 21
34.55845028556442
 31
0.0
  0
LINE
  5
131
  8
0
  6
CONTINUOUS
 62
     1
 10
23.24685263952952
 20
34.4433662580644
 30
0.0
 11
23.26805569212952
 21
34.50036783716442
 31
0.0
  0
LINE
  5
132
  8
0
  6
CONTINUOUS
 62
     1
 10
23.21991976502952
 20
34.38767311606441
 30
0.0
 11
23.24685263952952
 21
34.4433662580644
 31
0.0
  0
LINE
  5
133
  8
0
  6
CONTINUOUS
 62
     1
 10
23.18715362312952
 20
34.33355538076441
 30
0.0
 11
23.21991976502952
 21
34.38767311606441
 31
0.0
  0
LINE
  5
134
  8
0
  6
CONTINUOUS
 62
     1
 10
23.14841010592951
 20
34.2812903343644
 30
0.0
 11
23.18715362312952
 21
34.33355538076441
 31
0.0
  0
LINE
  5
135
  8
0
  6
CONTINUOUS
 62
     1
 10
23.10352874382951
 20
34.23119913006443
 30
0.0
 11
23.14841010592951
 21
34.2812903343644
 31
0.0
  0
LINE
  5
136
  8
0
  6
CONTINUOUS
 62
     1
 10
23.05828928722951
 20
34.18873393346442
 30
0.0
 11
23.10352874382951
 21
34.23119913006443
 31
0.0
  0
LINE
  5
137
  8
0
  6
CONTINUOUS
 62
     1
 10
22.40743345782951
 20
35.24789369926444
 30
0.0
 11
22.41593820072953
 21
35.25525902266443
 31
0.0
  0
LINE
  5
138
  8
0
  6
CONTINUOUS
 62
     1
 10
23.05827620272953
 20
34.1887226012644
 30
0.0
 11
22.27930850442952
 21
33.5141167857644
 31
0.0
  0
LINE
  5
139
  8
06___PRT_ALL_SURFS
  6
CONTINUOUS
 62
     1
 10
18.49533508942952
 20
35.87531339106442
 30
0.0
 11
18.50795509292952
 21
35.88277833916442
 31
0.0
  0
LINE
  5
13A
  8
0_COMPONENTS
  6
CONTINUOUS
 62
     1
 10
80.96515032492952
 20
27.17830064706442
 30
0.0
 11
79.96922111112953
 21
27.1843423906644
 31
0.0
  0
LINE
  5
13B
  8
0_COMPONENTS
  6
CONTINUOUS
 62
     1
 10
81.14015032492952
 20
27.3298550927644
 30
0.0
 11
80.14422111112953
 21
27.3358968364644
 31
0.0
  0
LINE
  5
13C
  8
06___PRT_ALL_SURFS
  6
CONTINUOUS
 62
     1
 10
35.84820082302952
 20
29.73591412616443
 30
0.0
 11
35.87716268122952
 21
29.75881325926443
 31
0.0
  0
LINE
  5
13D
  8
06___PRT_ALL_SURFS
  6
CONTINUOUS
 62
     1
 10
35.81319878962952
 20
29.7135943269644
 30
0.0
 11
35.84820082302952
 21
29.73591412616443
 31
0.0
  0
LINE
  5
13E
  8
06___PRT_ALL_SURFS
  6
CONTINUOUS
 62
     1
 10
35.77753024802952
 20
29.69621571106441
 30
0.0
 11
35.81319878962952
 21
29.7135943269644
 31
0.0
  0
LINE
  5
13F
  8
06___PRT_ALL_SURFS
  6
CONTINUOUS
 62
     1
 10
35.74142514252952
 20
29.68360455746441
 30
0.0
 11
35.77753024802952
 21
29.69621571106441
 31
0.0
  0
LINE
  5
140
  8
06___PRT_ALL_SURFS
  6
CONTINUOUS
 62
     1
 10
35.70523142322952
 20
29.67562400586442
 30
0.0
 11
35.74142514252952
 21
29.68360455746441
 31
0.0
  0
LINE
  5
141
  8
06___PRT_ALL_SURFS
  6
CONTINUOUS
 62
     1
 10
35.66929216732953
 20
29.67211247276441
 30
0.0
 11
35.70523142322952
 21
29.67562400586442
 31
0.0
  0
LINE
  5
142
  8
06___PRT_ALL_SURFS
  6
CONTINUOUS
 62
     1
 10
35.63383145372953
 20
29.67290480996442
 30
0.0
 11
35.66929216732953
 21
29.67211247276441
 31
0.0
  0
LINE
  5
143
  8
06___PRT_ALL_SURFS
  6
CONTINUOUS
 62
     1
 10
35.59905048092952
 20
29.67788464796442
 30
0.0
 11
35.63383145372953
 21
29.67290480996442
 31
0.0
  0
LINE
  5
144
  8
06___PRT_ALL_SURFS
  6
CONTINUOUS
 62
     1
 10
35.57673125592953
 20
29.68338582656443
 30
0.0
 11
35.59905048092952
 21
29.67788464796442
 31
0.0
  0
LINE
  5
145
  8
0
  6
CONTINUOUS
 62
     1
 10
22.22455079992952
 20
33.47069885946442
 30
0.0
 11
22.27929104172952
 21
33.51410166386441
 31
0.0
  0
LINE
  5
146
  8
0
  6
CONTINUOUS
 62
     1
 10
22.15507191342952
 20
33.42515671386442
 30
0.0
 11
22.22455079992952
 21
33.47069885946442
 31
0.0
  0
LINE
  5
147
  8
0
  6
CONTINUOUS
 62
     1
 10
22.07866364412952
 20
33.38456538216442
 30
0.0
 11
22.15507191342952
 21
33.42515671386442
 31
0.0
  0
LINE
  5
148
  8
0
  6
CONTINUOUS
 62
     1
 10
21.99692784332953
 20
33.34981549316441
 30
0.0
 11
22.07866364412952
 21
33.38456538216442
 31
0.0
  0
LINE
  5
149
  8
0
  6
CONTINUOUS
 62
     1
 10
21.91174010632952
 20
33.32138039066442
 30
0.0
 11
21.99692784332953
 21
33.34981549316441
 31
0.0
  0
LINE
  5
14A
  8
0
  6
CONTINUOUS
 62
     1
 10
21.82496204932951
 20
33.29932212406442
 30
0.0
 11
21.91174010632952
 21
33.32138039066442
 31
0.0
  0
LINE
  5
14B
  8
0
  6
CONTINUOUS
 62
     1
 10
21.73744954482953
 20
33.28326822286442
 30
0.0
 11
21.82496204932951
 21
33.29932212406442
 31
0.0
  0
LINE
  5
14C
  8
0
  6
CONTINUOUS
 62
     1
 10
21.64973784322953
 20
33.2728436546644
 30
0.0
 11
21.73744954482953
 21
33.28326822286442
 31
0.0
  0
LINE
  5
14D
  8
0
  6
CONTINUOUS
 62
     1
 10
21.56199852852953
 20
33.2677451740644
 30
0.0
 11
21.64973784322953
 21
33.2728436546644
 31
0.0
  0
LINE
  5
14E
  8
0
  6
CONTINUOUS
 62
     1
 10
21.47421672352952
 20
33.26781587926442
 30
0.0
 11
21.56199852852953
 21
33.2677451740644
 31
0.0
  0
LINE
  5
14F
  8
0
  6
CONTINUOUS
 62
     1
 10
21.38643319572952
 20
33.27306117146443
 30
0.0
 11
21.47421672352952
 21
33.26781587926442
 31
0.0
  0
LINE
  5
150
  8
0
  6
CONTINUOUS
 62
     1
 10
21.29876538372952
 20
33.28362922986443
 30
0.0
 11
21.38643319572952
 21
33.27306117146443
 31
0.0
  0
LINE
  5
151
  8
0
  6
CONTINUOUS
 62
     1
 10
21.21135591082952
 20
33.29981582586441
 30
0.0
 11
21.29876538372952
 21
33.28362922986443
 31
0.0
  0
LINE
  5
152
  8
0
  6
CONTINUOUS
 62
     1
 10
21.13070283232952
 20
33.32024825656441
 30
0.0
 11
21.21135591082952
 21
33.29981582586441
 31
0.0
  0
LINE
  5
153
  8
0
  6
CONTINUOUS
 62
     1
 10
21.13070999112952
 20
33.3202461896644
 30
0.0
 11
16.01415596392953
 21
34.7972681121644
 31
0.0
  0
LINE
  5
154
  8
06___PRT_ALL_SURFS
  6
CONTINUOUS
 62
     1
 10
35.57675394132951
 20
29.68337918806444
 30
0.0
 11
34.68480035732952
 21
29.94086400896441
 31
0.0
  0
LINE
  5
155
  8
0
  6
CONTINUOUS
 62
     1
 10
18.59016864682951
 20
35.01944430076443
 30
0.0
 11
17.58537196592951
 21
35.30950411786441
 31
0.0
  0
LINE
  5
156
  8
06___PRT_ALL_SURFS
  6
CONTINUOUS
 62
     1
 10
18.17571230842952
 20
35.83435101596442
 30
0.0
 11
17.05611624742951
 21
36.15755055966443
 31
0.0
  0
LINE
  5
157
  8
06___PRT_ALL_SURFS
  6
CONTINUOUS
 62
     1
 10
33.51059892102953
 20
31.40755055916443
 30
0.0
 11
34.63019498212952
 21
31.08435101556441
 31
0.0
  0
LINE
  5
158
  8
06___PRT_ALL_SURFS
  6
CONTINUOUS
 62
     1
 10
18.17925934722952
 20
35.84776081716441
 30
0.0
 11
17.07756918662952
 21
36.16579137256443
 31
0.0
  0
LINE
  5
159
  8
06___PRT_ALL_SURFS
  6
CONTINUOUS
 62
     1
 10
33.53205185852951
 20
31.41579137256443
 30
0.0
 11
34.63374201912953
 21
31.09776081716441
 31
0.0
  0
LINE
  5
15A
  8
06___PRT_ALL_SURFS
  6
CONTINUOUS
 62
     1
 10
18.51750944902952
 20
35.8800202340644
 30
0.0
 11
18.50795509292952
 21
35.88277833916442
 31
0.0
  0
LINE
  5
15B
  8
06___PRT_ALL_SURFS
  6
CONTINUOUS
 62
     1
 10
34.96243776482953
 20
31.13277833916442
 30
0.0
 11
34.97199211942953
 21
31.1300202345644
 31
0.0
  0
LINE
  5
15C
  8
0
  6
CONTINUOUS
 62
     1
 10
37.86684654562953
 20
39.93727677516441
 30
0.0
 11
37.87445493502952
 21
38.24646669146441
 31
0.0
  0
LINE
  5
15D
  8
0
  6
CONTINUOUS
 62
     1
 10
37.50004097082953
 20
41.19062324816443
 30
0.0
 11
37.49879333792953
 21
40.93277830276443
 31
0.0
  0
LINE
  5
15E
  8
0
  6
CONTINUOUS
 62
     1
 10
35.31242517842952
 20
31.96597449456442
 30
0.0
 11
35.33403563262952
 21
32.61430345586442
 31
0.0
  0
LINE
  5
15F
  8
0
  6
CONTINUOUS
 62
     1
 10
36.12046598042951
 20
40.4414134198644
 30
0.0
 11
36.01412037212953
 21
38.78349902176441
 31
0.0
  0
LINE
  5
160
  8
06___PRT_ALL_SURFS
  6
CONTINUOUS
 62
     1
 10
37.31079494502953
 20
41.36027392156441
 30
0.0
 11
37.30355120592952
 21
41.24734495746443
 31
0.0
  0
LINE
  5
161
  8
06___PRT_ALL_SURFS
  6
CONTINUOUS
 62
     1
 10
36.91921804762953
 20
30.94857930686442
 30
0.0
 11
36.92879849742951
 21
31.06575712316442
 31
0.0
  0
LINE
  5
162
  8
06___PRT_ALL_SURFS
  6
CONTINUOUS
 62
     1
 10
35.04823771312952
 20
32.88185589106442
 30
0.0
 11
34.68163601962952
 21
31.49352410096444
 31
0.0
  0
LINE
  5
163
  8
06___PRT_ALL_SURFS
  6
CONTINUOUS
 62
     1
 10
35.23817664802952
 20
32.38210644066442
 30
0.0
 11
34.98576091872951
 21
31.42620037806441
 31
0.0
  0
LINE
  5
164
  8
0
  6
CONTINUOUS
 62
     1
 10
35.31238499752952
 20
32.62055345586444
 30
0.0
 11
34.99986791022951
 21
31.43704171826442
 31
0.0
  0
LINE
  5
165
  8
0
  6
CONTINUOUS
 62
     1
 10
35.33403563262952
 20
32.61430345586442
 30
0.0
 11
35.02151854532951
 21
31.43079171826443
 31
0.0
  0
LINE
  5
166
  8
06___PRT_ALL_SURFS
  6
CONTINUOUS
 62
     1
 10
37.46983005682952
 20
41.76924893276441
 30
0.0
 11
37.36965777652952
 21
41.57050257286441
 31
0.0
  0
LINE
  5
167
  8
0
  6
CONTINUOUS
 62
     1
 10
22.39216969262952
 20
42.52080110956442
 30
0.0
 11
23.32518239452952
 21
42.82881381146441
 31
0.0
  0
LINE
  5
168
  8
0_COMPONENTS
  6
CONTINUOUS
 62
     1
 10
82.80624016392952
 20
29.19474532226442
 30
0.0
 11
83.29015032492953
 21
29.19180971086442
 31
0.0
  0
LINE
  5
169
  8
0_COMPONENTS
  6
CONTINUOUS
 62
     1
 10
82.72458757622952
 20
29.34785673506443
 30
0.0
 11
83.46515032492952
 21
29.34336415656443
 31
0.0
  0
LINE
  5
16A
  8
0
  6
CONTINUOUS
 62
     1
 10
42.55140885502952
 20
29.98410669646441
 30
0.0
 11
42.62186950262952
 21
30.04045723736442
 31
0.0
  0
LINE
  5
16B
  8
0
  6
CONTINUOUS
 62
     1
 10
42.47176156352952
 20
29.93020665976442
 30
0.0
 11
42.55140885502952
 21
29.98410669646441
 31
0.0
  0
LINE
  5
16C
  8
0
  6
CONTINUOUS
 62
     1
 10
42.39116306432952
 20
29.88445035606443
 30
0.0
 11
42.47176156352952
 21
29.93020665976442
 31
0.0
  0
LINE
  5
16D
  8
0
  6
CONTINUOUS
 62
     1
 10
42.30891916912952
 20
29.8455113716644
 30
0.0
 11
42.39116306432952
 21
29.88445035606443
 31
0.0
  0
LINE
  5
16E
  8
0
  6
CONTINUOUS
 62
     1
 10
42.22416288842952
 20
29.81252516286443
 30
0.0
 11
42.30891916912952
 21
29.8455113716644
 31
0.0
  0
LINE
  5
16F
  8
0
  6
CONTINUOUS
 62
     1
 10
42.13565995642952
 20
29.7849596911644
 30
0.0
 11
42.22416288842952
 21
29.81252516286443
 31
0.0
  0
LINE
  5
170
  8
0
  6
CONTINUOUS
 62
     1
 10
42.04239698102952
 20
29.76279050066441
 30
0.0
 11
42.13565995642952
 21
29.7849596911644
 31
0.0
  0
LINE
  5
171
  8
0
  6
CONTINUOUS
 62
     1
 10
41.94424564572952
 20
29.74647849156443
 30
0.0
 11
42.04239698102952
 21
29.76279050066441
 31
0.0
  0
LINE
  5
172
  8
0
  6
CONTINUOUS
 62
     1
 10
41.84171455482952
 20
29.73666178196441
 30
0.0
 11
41.94424564572952
 21
29.74647849156443
 31
0.0
  0
LINE
  5
173
  8
0
  6
CONTINUOUS
 62
     1
 10
41.73706081642952
 20
29.73396853216443
 30
0.0
 11
41.84171455482952
 21
29.73666178196441
 31
0.0
  0
LINE
  5
174
  8
0
  6
CONTINUOUS
 62
     1
 10
41.63278246452952
 20
29.73856906556441
 30
0.0
 11
41.73706081642952
 21
29.73396853216443
 31
0.0
  0
LINE
  5
175
  8
0
  6
CONTINUOUS
 62
     1
 10
41.53097848162952
 20
29.75020184626442
 30
0.0
 11
41.63278246452952
 21
29.73856906556441
 31
0.0
  0
LINE
  5
176
  8
0
  6
CONTINUOUS
 62
     1
 10
41.43357851642952
 20
29.76823890746442
 30
0.0
 11
41.53097848162952
 21
29.75020184626442
 31
0.0
  0
LINE
  5
177
  8
0
  6
CONTINUOUS
 62
     1
 10
41.34856477942952
 20
29.78988049706442
 30
0.0
 11
41.43357851642952
 21
29.76823890746442
 31
0.0
  0
LINE
  5
178
  8
06___PRT_ALL_SURFS
  6
CONTINUOUS
 62
     1
 10
18.56703587342952
 20
36.18079171826443
 30
0.0
 11
18.54538523832952
 21
36.18704171826442
 31
0.0
  0
LINE
  5
179
  8
06___PRT_ALL_SURFS
  6
CONTINUOUS
 62
     1
 10
16.99203553562953
 20
36.63545515276442
 30
0.0
 11
16.98506182022952
 21
36.63746829096442
 31
0.0
  0
LINE
  5
17A
  8
06___PRT_ALL_SURFS
  6
CONTINUOUS
 62
     1
 10
33.43954449212953
 20
31.88746829096442
 30
0.0
 11
33.44651820752952
 21
31.88545515276442
 31
0.0
  0
LINE
  5
17B
  8
06___PRT_ALL_SURFS
  6
CONTINUOUS
 62
     1
 10
34.99986791022951
 20
31.43704171826442
 30
0.0
 11
35.02151854532951
 21
31.43079171826443
 31
0.0
  0
LINE
  5
17C
  8
0
  6
CONTINUOUS
 62
     1
 10
41.34855683492952
 20
29.7898827901644
 30
0.0
 11
35.49860366332952
 21
31.47861880936441
 31
0.0
  0
LINE
  5
17D
  8
0
  6
CONTINUOUS
 62
     1
 10
33.47023397142952
 20
32.06415870316442
 30
0.0
 11
29.21523410622953
 21
33.2924713619644
 31
0.0
  0
LINE
  5
17E
  8
0
  6
CONTINUOUS
 62
     1
 10
28.11654848292952
 20
33.60963458216443
 30
0.0
 11
22.32539403822952
 21
35.28139687096441
 31
0.0
  0
LINE
  5
17F
  8
0
  6
CONTINUOUS
 62
     1
 10
28.11619060442952
 20
33.60973794816442
 30
0.0
 11
28.11525339272953
 21
33.61000844296441
 31
0.0
  0
LINE
  5
180
  8
0
  6
CONTINUOUS
 62
     1
 10
18.87955296072951
 20
37.36430345586442
 30
0.0
 11
18.85790232562952
 21
37.37055345586444
 31
0.0
  0
LINE
  5
181
  8
0
  6
CONTINUOUS
 62
     1
 10
35.31238499752952
 20
32.62055345586444
 30
0.0
 11
35.33403563262952
 21
32.61430345586442
 31
0.0
  0
LINE
  5
182
  8
06___PRT_ALL_SURFS
  6
CONTINUOUS
 62
     1
 10
18.59375504122951
 20
37.63185589106442
 30
0.0
 11
17.80323051512951
 21
37.86006066496444
 31
0.0
  0
LINE
  5
183
  8
06___PRT_ALL_SURFS
  6
CONTINUOUS
 62
     1
 10
33.82263837182953
 20
33.23565594586441
 30
0.0
 11
35.04823771312952
 21
32.88185589106442
 31
0.0
  0
LINE
  5
184
  8
06___PRT_ALL_SURFS
  6
CONTINUOUS
 62
     1
 10
38.31584428692952
 20
40.08909571226442
 30
0.0
 11
38.30860054782951
 21
40.19844092056442
 31
0.0
  0
LINE
  5
185
  8
0
  6
CONTINUOUS
 62
     1
 10
39.26343650772952
 20
40.90973464776442
 30
0.0
 11
39.29628467032953
 21
40.4138872504644
 31
0.0
  0
LINE
  5
186
  8
0
  6
CONTINUOUS
 62
     1
 10
39.56615108182953
 20
40.3359835277644
 30
0.0
 11
39.49892951242953
 21
41.35070208546441
 31
0.0
  0
LINE
  5
187
  8
0
  6
CONTINUOUS
 62
     1
 10
38.12632883392952
 20
38.12307816896441
 30
0.0
 11
38.11825206622953
 21
39.91797582946444
 31
0.0
  0
LINE
  5
188
  8
06___PRT_ALL_SURFS
  6
CONTINUOUS
 62
     1
 10
39.06532604092952
 20
40.85378442136442
 30
0.0
 11
39.06584428692952
 21
40.7386147650644
 31
0.0
  0
LINE
  5
189
  8
06___PRT_ALL_SURFS
  6
CONTINUOUS
 62
     1
 10
39.20462088792952
 20
41.26845795606442
 30
0.0
 11
39.11259913842952
 21
41.0673587405644
 31
0.0
  0
LINE
  5
18A
  8
06___PRT_ALL_SURFS
  6
CONTINUOUS
 62
     1
 10
37.63488513422952
 20
41.94984087366441
 30
0.0
 11
37.54296079592953
 21
41.87023206146442
 31
0.0
  0
LINE
  5
18B
  8
06___PRT_ALL_SURFS
  6
CONTINUOUS
 62
     1
 10
36.34438388932952
 20
40.8322340119644
 30
0.0
 11
36.25245955112952
 21
40.75262519986441
 31
0.0
  0
LINE
  5
18C
  8
06___PRT_ALL_SURFS
  6
CONTINUOUS
 62
     1
 10
39.36693594172952
 20
41.44984087366441
 30
0.0
 11
39.27501160352952
 21
41.37023206146441
 31
0.0
  0
LINE
  5
18D
  8
06___PRT_ALL_SURFS
  6
CONTINUOUS
 62
     1
 10
38.07643469692951
 20
40.3322340119644
 30
0.0
 11
37.98451035862952
 21
40.25262519986441
 31
0.0
  0
LINE
  5
18E
  8
06___PRT_ALL_SURFS
  6
CONTINUOUS
 62
     1
 10
38.11825206622953
 20
39.91797582946444
 30
0.0
 11
38.31584428692952
 21
40.08909571226442
 31
0.0
  0
LINE
  5
18F
  8
06___PRT_ALL_SURFS
  6
CONTINUOUS
 62
     1
 10
39.06584428692952
 20
40.7386147650644
 30
0.0
 11
39.26343650772952
 21
40.90973464776442
 31
0.0
  0
LINE
  5
190
  8
0
  6
CONTINUOUS
 62
     1
 10
19.29928493492952
 20
39.15568179796443
 30
0.0
 11
41.16500326732952
 21
32.84359261536443
 31
0.0
  0
LINE
  5
191
  8
0
  6
CONTINUOUS
 62
     1
 10
19.48678493492952
 20
39.3180615611644
 30
0.0
 11
41.16500326732952
 21
33.06009896636442
 31
0.0
  0
LINE
  5
192
  8
0
  6
CONTINUOUS
 62
     1
 10
41.13260246392952
 20
35.31584704866444
 30
0.0
 11
41.16500326732952
 21
33.06009896636442
 31
0.0
  0
LINE
  5
193
  8
0
  6
CONTINUOUS
 62
     1
 10
42.84379991642952
 20
35.21684959916442
 30
0.0
 11
42.87149483982952
 21
33.2887254856644
 31
0.0
  0
LINE
  5
194
  8
0_COMPONENTS
  6
CONTINUOUS
 62
     1
 10
42.38838192382952
 20
37.08036825706441
 30
0.0
 11
42.38838192382952
 21
35.34831744956441
 31
0.0
  0
LINE
  5
195
  8
0
  6
CONTINUOUS
 62
     1
 10
41.16500326732952
 20
32.84359261536443
 30
0.0
 11
41.12621151952952
 21
30.28767894006441
 31
0.0
  0
LINE
  5
196
  8
0
  6
CONTINUOUS
 62
     1
 10
42.87149483982952
 20
33.07221913476442
 30
0.0
 11
42.83270309202952
 21
30.51630545946441
 31
0.0
  0
LINE
  5
197
  8
0
  6
CONTINUOUS
 62
     1
 10
38.12632883392952
 20
38.12307816896441
 30
0.0
 11
37.68619283412951
 21
37.74190921196441
 31
0.0
  0
LINE
  5
198
  8
0
  6
CONTINUOUS
 62
     1
 10
38.16418932072952
 20
38.11214878786441
 30
0.0
 11
38.51900487932951
 21
38.41942807526442
 31
0.0
  0
LINE
  5
199
  8
0
  6
CONTINUOUS
 62
     1
 10
22.31520667852952
 20
35.28408845006442
 30
0.0
 11
22.32538887402953
 21
35.28139841326441
 31
0.0
  0
LINE
  5
19A
  8
0
  6
CONTINUOUS
 62
     1
 10
22.30527378342953
 20
35.28614577906441
 30
0.0
 11
22.31520667852952
 21
35.28408845006442
 31
0.0
  0
LINE
  5
19B
  8
0
  6
CONTINUOUS
 62
     1
 10
22.29929404132952
 20
35.28699511676442
 30
0.0
 11
22.30527378342953
 21
35.28614577906441
 31
0.0
  0
LINE
  5
19C
  8
0
  6
CONTINUOUS
 62
     1
 10
22.29767199752952
 20
35.28713345296441
 30
0.0
 11
22.29929404132952
 21
35.28699511676442
 31
0.0
  0
LINE
  5
19D
  8
0
  6
CONTINUOUS
 62
     1
 10
22.29906088792953
 20
35.28712680946441
 30
0.0
 11
22.29767199752952
 21
35.28713345296441
 31
0.0
  0
LINE
  5
19E
  8
0_COMPONENTS
  6
CONTINUOUS
 62
     1
 10
79.41454804342952
 20
28.14183152786441
 30
0.0
 11
79.34957246672953
 21
28.1603234838644
 31
0.0
  0
LINE
  5
19F
  8
0_COMPONENTS
  6
CONTINUOUS
 62
     1
 10
79.49408019252952
 20
28.11992053086442
 30
0.0
 11
79.41454804342952
 21
28.14183152786441
 31
0.0
  0
LINE
  5
1A0
  8
0_COMPONENTS
  6
CONTINUOUS
 62
     1
 10
79.58126961712952
 20
28.09673417466442
 30
0.0
 11
79.49408019252952
 21
28.11992053086442
 31
0.0
  0
LINE
  5
1A1
  8
0_COMPONENTS
  6
CONTINUOUS
 62
     1
 10
79.67545158762952
 20
28.07245540356442
 30
0.0
 11
79.58126961712952
 21
28.09673417466442
 31
0.0
  0
LINE
  5
1A2
  8
0_COMPONENTS
  6
CONTINUOUS
 62
     1
 10
79.77581175782952
 20
28.04726115736443
 30
0.0
 11
79.67545158762952
 21
28.07245540356442
 31
0.0
  0
LINE
  5
1A3
  8
0_COMPONENTS
  6
CONTINUOUS
 62
     1
 10
79.88195647062952
 20
28.02129560436441
 30
0.0
 11
79.77581175782952
 21
28.04726115736443
 31
0.0
  0
LINE
  5
1A4
  8
0_COMPONENTS
  6
CONTINUOUS
 62
     1
 10
79.99387087622952
 20
27.99457283556441
 30
0.0
 11
79.88195647062952
 21
28.02129560436441
 31
0.0
  0
LINE
  5
1A5
  8
0_COMPONENTS
  6
CONTINUOUS
 62
     1
 10
80.11144555902952
 20
27.96699017576444
 30
0.0
 11
79.99387087622952
 21
27.99457283556441
 31
0.0
  0
LINE
  5
1A6
  8
0_COMPONENTS
  6
CONTINUOUS
 62
     1
 10
80.23430877402951
 20
27.93861878976443
 30
0.0
 11
80.11144555902952
 21
27.96699017576444
 31
0.0
  0
LINE
  5
1A7
  8
0_COMPONENTS
  6
CONTINUOUS
 62
     1
 10
80.31807297462952
 20
27.91946966846442
 30
0.0
 11
80.23430877402951
 21
27.93861878976443
 31
0.0
  0
LINE
  5
1A8
  8
0_COMPONENTS
  6
CONTINUOUS
 62
     1
 10
79.82686450712951
 20
28.48468882486443
 30
0.0
 11
79.74957261902952
 21
28.50673360146442
 31
0.0
  0
LINE
  5
1A9
  8
0_COMPONENTS
  6
CONTINUOUS
 62
     1
 10
79.91589170462952
 20
28.45996566486443
 30
0.0
 11
79.82686450712951
 21
28.48468882486443
 31
0.0
  0
LINE
  5
1AA
  8
0_COMPONENTS
  6
CONTINUOUS
 62
     1
 10
80.01017648802951
 20
28.4344719950644
 30
0.0
 11
79.91589170462952
 21
28.45996566486443
 31
0.0
  0
LINE
  5
1AB
  8
0_COMPONENTS
  6
CONTINUOUS
 62
     1
 10
80.10957171552953
 20
28.40816806606441
 30
0.0
 11
80.01017648802951
 21
28.4344719950644
 31
0.0
  0
LINE
  5
1AC
  8
0_COMPONENTS
  6
CONTINUOUS
 62
     1
 10
80.21394386932953
 20
28.38104666086443
 30
0.0
 11
80.10957171552953
 21
28.40816806606441
 31
0.0
  0
LINE
  5
1AD
  8
0_COMPONENTS
  6
CONTINUOUS
 62
     1
 10
80.32355571402952
 20
28.35308958296443
 30
0.0
 11
80.21394386932953
 21
28.38104666086443
 31
0.0
  0
LINE
  5
1AE
  8
0_COMPONENTS
  6
CONTINUOUS
 62
     1
 10
80.43864408152952
 20
28.32417145926442
 30
0.0
 11
80.32355571402952
 21
28.35308958296443
 31
0.0
  0
LINE
  5
1AF
  8
0_COMPONENTS
  6
CONTINUOUS
 62
     1
 10
80.55934576342952
 20
28.2941859588644
 30
0.0
 11
80.43864408152952
 21
28.32417145926442
 31
0.0
  0
LINE
  5
1B0
  8
0_COMPONENTS
  6
CONTINUOUS
 62
     1
 10
80.70844124322952
 20
28.25753850596442
 30
0.0
 11
80.55934576342952
 21
28.2941859588644
 31
0.0
  0
LINE
  5
1B1
  8
0_COMPONENTS
  6
CONTINUOUS
 62
     1
 10
80.02494096812953
 20
27.33577926186442
 30
0.0
 11
80.11911406872952
 21
27.34151296596443
 31
0.0
  0
LINE
  5
1B2
  8
0_COMPONENTS
  6
CONTINUOUS
 62
     1
 10
79.93545518382952
 20
27.33542322816442
 30
0.0
 11
80.02494096812953
 21
27.33577926186442
 31
0.0
  0
LINE
  5
1B3
  8
0_COMPONENTS
  6
CONTINUOUS
 62
     1
 10
79.85040176292952
 20
27.3402093718644
 30
0.0
 11
79.93545518382952
 21
27.33542322816442
 31
0.0
  0
LINE
  5
1B4
  8
0_COMPONENTS
  6
CONTINUOUS
 62
     1
 10
79.76929171442953
 20
27.34993845396443
 30
0.0
 11
79.85040176292952
 21
27.3402093718644
 31
0.0
  0
LINE
  5
1B5
  8
0_COMPONENTS
  6
CONTINUOUS
 62
     1
 10
79.69163650872952
 20
27.36450833506441
 30
0.0
 11
79.76929171442953
 21
27.34993845396443
 31
0.0
  0
LINE
  5
1B6
  8
0_COMPONENTS
  6
CONTINUOUS
 62
     1
 10
79.62476437172953
 20
27.3815674661644
 30
0.0
 11
79.69163650872952
 21
27.36450833506441
 31
0.0
  0
LINE
  5
1B7
  8
0_COMPONENTS
  6
CONTINUOUS
 62
     1
 10
46.97835054332952
 20
36.10493338406442
 30
0.0
 11
46.99021736392952
 21
36.11117419506442
 31
0.0
  0
LINE
  5
1B8
  8
0_COMPONENTS
  6
CONTINUOUS
 62
     1
 10
46.88565812502952
 20
36.06472874356442
 30
0.0
 11
46.97835054332952
 21
36.10493338406442
 31
0.0
  0
LINE
  5
1B9
  8
0_COMPONENTS
  6
CONTINUOUS
 62
     1
 10
46.79119295482952
 20
36.0318689881644
 30
0.0
 11
46.88565812502952
 21
36.06472874356442
 31
0.0
  0
LINE
  5
1BA
  8
0_COMPONENTS
  6
CONTINUOUS
 62
     1
 10
46.69583114292952
 20
36.00644644406444
 30
0.0
 11
46.79119295482952
 21
36.0318689881644
 31
0.0
  0
LINE
  5
1BB
  8
0_COMPONENTS
  6
CONTINUOUS
 62
     1
 10
46.60009240492952
 20
35.9883950000644
 30
0.0
 11
46.69583114292952
 21
36.00644644406444
 31
0.0
  0
LINE
  5
1BC
  8
0_COMPONENTS
  6
CONTINUOUS
 62
     1
 10
46.50362990392952
 20
35.9775631638644
 30
0.0
 11
46.60009240492952
 21
35.9883950000644
 31
0.0
  0
LINE
  5
1BD
  8
0_COMPONENTS
  6
CONTINUOUS
 62
     1
 10
46.40582339602952
 20
35.97400857946442
 30
0.0
 11
46.50362990392952
 21
35.9775631638644
 31
0.0
  0
LINE
  5
1BE
  8
0_COMPONENTS
  6
CONTINUOUS
 62
     1
 10
46.30713124932952
 20
35.97779821846441
 30
0.0
 11
46.40582339602952
 21
35.97400857946442
 31
0.0
  0
LINE
  5
1BF
  8
0_COMPONENTS
  6
CONTINUOUS
 62
     1
 10
46.20874456672952
 20
35.98876849946441
 30
0.0
 11
46.30713124932952
 21
35.97779821846441
 31
0.0
  0
LINE
  5
1C0
  8
0_COMPONENTS
  6
CONTINUOUS
 62
     1
 10
46.11179457252952
 20
36.00668003406443
 30
0.0
 11
46.20874456672952
 21
35.98876849946441
 31
0.0
  0
LINE
  5
1C1
  8
0_COMPONENTS
  6
CONTINUOUS
 62
     1
 10
46.02956774312952
 20
36.02764593556444
 30
0.0
 11
46.11179457252952
 21
36.00668003406443
 31
0.0
  0
LINE
  5
1C2
  8
0
  6
CONTINUOUS
 62
     1
 10
21.43221987792953
 20
41.00285764326443
 30
0.0
 11
41.13260246392952
 21
35.31584704866444
 31
0.0
  0
LINE
  5
1C3
  8
0_COMPONENTS
  6
CONTINUOUS
 62
     1
 10
42.38838192382952
 20
35.34831744956441
 30
0.0
 11
44.12043273142952
 21
34.84831744956441
 31
0.0
  0
LINE
  5
1C4
  8
0_COMPONENTS
  6
CONTINUOUS
 62
     1
 10
80.64864397452952
 20
24.9241826917644
 30
0.0
 11
79.86922111112952
 21
25.14918269176442
 31
0.0
  0
LINE
  5
1C5
  8
0
  6
CONTINUOUS
 62
     1
 10
16.23655181532952
 20
43.91551793666441
 30
0.0
 11
16.95157554432953
 21
43.70910836536441
 31
0.0
  0
LINE
  5
1C6
  8
0
  6
CONTINUOUS
 62
     1
 10
22.65574066892952
 20
42.06245773036441
 30
0.0
 11
41.63229787742952
 21
36.58439752396441
 31
0.0
  0
LINE
  5
1C7
  8
0
  6
CONTINUOUS
 62
     1
 10
23.67857500602952
 20
41.78556017386441
 30
0.0
 11
25.56183718112952
 21
41.24190921196441
 31
0.0
  0
LINE
  5
1C8
  8
0
  6
CONTINUOUS
 62
     1
 10
16.97738645092952
 20
43.79523925606442
 30
0.0
 11
17.02134681872951
 21
43.78254899096441
 31
0.0
  0
LINE
  5
1C9
  8
0
  6
CONTINUOUS
 62
     1
 10
22.82305792652951
 20
42.10773925606442
 30
0.0
 11
22.86701829432951
 21
42.09504899096441
 31
0.0
  0
LINE
  5
1CA
  8
0_COMPONENTS
  6
CONTINUOUS
 62
     1
 10
81.94228788842952
 20
25.09922261656442
 30
0.0
 11
80.78614397392953
 21
25.43297261666441
 31
0.0
  0
LINE
  5
1CB
  8
0_COMPONENTS
  6
CONTINUOUS
 62
     1
 10
80.38883635342953
 20
25.69200301566443
 30
0.0
 11
80.64864397452952
 21
25.61700301566444
 31
0.0
  0
LINE
  5
1CC
  8
0_COMPONENTS
  6
CONTINUOUS
 62
     1
 10
83.25431637532952
 20
24.91532833236442
 30
0.0
 11
81.94228788842952
 21
25.29407833236442
 31
0.0
  0
LINE
  5
1CD
  8
0_COMPONENTS
  6
CONTINUOUS
 62
     1
 10
80.78614397452952
 20
25.73608150786441
 30
0.0
 11
80.52633635342951
 21
25.81108150786443
 31
0.0
  0
LINE
  5
1CE
  8
0
  6
CONTINUOUS
 62
     1
 10
26.00197318102951
 20
41.62307816896441
 30
0.0
 11
26.03983366772951
 21
41.61214878786441
 31
0.0
  0
LINE
  5
1CF
  8
0
  6
CONTINUOUS
 62
     1
 10
38.12632883392952
 20
38.12307816896441
 30
0.0
 11
38.16418932072952
 21
38.11214878786441
 31
0.0
  0
LINE
  5
1D0
  8
0
  6
CONTINUOUS
 62
     1
 10
23.88976471912952
 20
42.28349902176441
 30
0.0
 11
25.75009928202952
 21
41.74646669146442
 31
0.0
  0
LINE
  5
1D1
  8
0_COMPONENTS
  6
CONTINUOUS
 62
     1
 10
45.72155622972952
 20
36.1165612005644
 30
0.0
 11
46.02957356952952
 21
36.02764425346442
 31
0.0
  0
LINE
  5
1D2
  8
0_COMPONENTS
  6
CONTINUOUS
 62
     1
 10
44.12043273142952
 20
36.58036825706441
 30
0.0
 11
42.38838192382952
 21
37.08036825706441
 31
0.0
  0
LINE
  5
1D3
  8
0
  6
CONTINUOUS
 62
     1
 10
23.25520644192952
 20
42.80571285876442
 30
0.0
 11
23.00042286812952
 21
42.87926254126442
 31
0.0
  0
LINE
  5
1D4
  8
0
  6
CONTINUOUS
 62
     1
 10
22.78391651722953
 20
42.94176254126442
 30
0.0
 11
22.45915699072953
 21
43.03551254126442
 31
0.0
  0
LINE
  5
1D5
  8
0
  6
CONTINUOUS
 62
     1
 10
26.00012716932952
 20
42.03331678316442
 30
0.0
 11
26.39464922632952
 21
41.91942807526442
 31
0.0
  0
LINE
  5
1D6
  8
0
  6
CONTINUOUS
 62
     1
 10
38.12448282232953
 20
38.53331678316442
 30
0.0
 11
38.51900487932951
 21
38.41942807526442
 31
0.0
  0
LINE
  5
1D7
  8
0
  6
CONTINUOUS
 62
     1
 10
23.32518239452952
 20
42.82881381146441
 30
0.0
 11
23.00042286812952
 21
42.92256381146441
 31
0.0
  0
LINE
  5
1D8
  8
0
  6
CONTINUOUS
 62
     1
 10
22.78391651722953
 20
42.98506381146441
 30
0.0
 11
22.45915699072953
 21
43.07881381146441
 31
0.0
  0
LINE
  5
1D9
  8
0_COMPONENTS
  6
CONTINUOUS
 62
     1
 10
83.11681637532952
 20
25.57567270276442
 30
0.0
 11
80.38883635342953
 21
26.36317270276442
 31
0.0
  0
LINE
  5
1DA
  8
0_COMPONENTS
  6
CONTINUOUS
 62
     1
 10
25.99950910182952
 20
42.17066972786442
 30
0.0
 11
36.04537017422952
 21
39.27067943066442
 31
0.0
  0
LINE
  5
1DB
  8
0_COMPONENTS
  6
CONTINUOUS
 62
     1
 10
38.12386475482953
 20
38.67066972786441
 30
0.0
 11
42.69949410502952
 21
37.34979930936441
 31
0.0
  0
LINE
  5
1DC
  8
0_COMPONENTS
  6
CONTINUOUS
 62
     1
 10
45.61418919162952
 20
36.50839931296443
 30
0.0
 11
79.20982020542952
 21
26.81017600826442
 31
0.0
  0
LINE
  5
1DD
  8
0_COMPONENTS
  6
CONTINUOUS
 62
     1
 10
80.38883635342953
 20
26.66628159496443
 30
0.0
 11
83.11681637532952
 21
25.87878159496441
 31
0.0
  0
LINE
  5
1DE
  8
0_COMPONENTS
  6
CONTINUOUS
 62
     1
 10
45.12043273142952
 20
36.91114277546441
 30
0.0
 11
45.20790483732952
 21
36.88589175356444
 31
0.0
  0
LINE
  5
1DF
  8
0_COMPONENTS
  6
CONTINUOUS
 62
     1
 10
80.48883635392951
 20
26.75288413426441
 30
0.0
 11
81.18165667642953
 21
26.55288413446442
 31
0.0
  0
LINE
  5
1E0
  8
0_COMPONENTS
  6
CONTINUOUS
 62
     1
 10
83.25431637532952
 20
25.99786008706442
 30
0.0
 11
81.21915667652952
 21
26.5853600870644
 31
0.0
  0
LINE
  5
1E1
  8
0_COMPONENTS
  6
CONTINUOUS
 62
     1
 10
46.10529432672952
 20
39.17792027286441
 30
0.0
 11
46.10655841872952
 21
39.16591733206442
 31
0.0
  0
LINE
  5
1E2
  8
0_COMPONENTS
  6
CONTINUOUS
 62
     1
 10
46.10655841872952
 20
39.16591733206442
 30
0.0
 11
46.10771948102952
 21
39.1541514862644
 31
0.0
  0
LINE
  5
1E3
  8
0_COMPONENTS
  6
CONTINUOUS
 62
     1
 10
46.10771948102952
 20
39.1541514862644
 30
0.0
 11
46.10879122812952
 21
39.14256070726444
 31
0.0
  0
LINE
  5
1E4
  8
0_COMPONENTS
  6
CONTINUOUS
 62
     1
 10
46.10879122812952
 20
39.14256070726444
 30
0.0
 11
46.10978273152952
 21
39.13111648876443
 31
0.0
  0
LINE
  5
1E5
  8
0_COMPONENTS
  6
CONTINUOUS
 62
     1
 10
46.10978273152952
 20
39.13111648876443
 30
0.0
 11
46.11070192142952
 21
39.11978827906441
 31
0.0
  0
LINE
  5
1E6
  8
0_COMPONENTS
  6
CONTINUOUS
 62
     1
 10
46.11070192142952
 20
39.11978827906441
 30
0.0
 11
46.11155569462952
 21
39.10854380596442
 31
0.0
  0
LINE
  5
1E7
  8
0_COMPONENTS
  6
CONTINUOUS
 62
     1
 10
46.11155569462952
 20
39.10854380596442
 30
0.0
 11
46.11235000762952
 21
39.09734929286444
 31
0.0
  0
LINE
  5
1E8
  8
0_COMPONENTS
  6
CONTINUOUS
 62
     1
 10
46.11235000762952
 20
39.09734929286444
 30
0.0
 11
46.11308850712952
 21
39.0861922842644
 31
0.0
  0
LINE
  5
1E9
  8
0_COMPONENTS
  6
CONTINUOUS
 62
     1
 10
46.11308850712952
 20
39.0861922842644
 30
0.0
 11
46.11377267722952
 21
39.07508891096441
 31
0.0
  0
LINE
  5
1EA
  8
0_COMPONENTS
  6
CONTINUOUS
 62
     1
 10
46.11377267722952
 20
39.07508891096441
 30
0.0
 11
46.11470112402952
 21
39.05855797706442
 31
0.0
  0
LINE
  5
1EB
  8
0_COMPONENTS
  6
CONTINUOUS
 62
     1
 10
46.11470112402952
 20
39.05855797706442
 30
0.0
 11
46.11551782312952
 21
39.04220614486442
 31
0.0
  0
LINE
  5
1EC
  8
0_COMPONENTS
  6
CONTINUOUS
 62
     1
 10
46.11551782312952
 20
39.04220614486442
 30
0.0
 11
46.11622911832952
 21
39.02606494836442
 31
0.0
  0
LINE
  5
1ED
  8
0_COMPONENTS
  6
CONTINUOUS
 62
     1
 10
46.11622911832952
 20
39.02606494836442
 30
0.0
 11
46.11684133022952
 21
39.01016366106441
 31
0.0
  0
LINE
  5
1EE
  8
0_COMPONENTS
  6
CONTINUOUS
 62
     1
 10
46.11684133022952
 20
39.01016366106441
 30
0.0
 11
46.11736072192952
 21
38.99452965756441
 31
0.0
  0
LINE
  5
1EF
  8
0_COMPONENTS
  6
CONTINUOUS
 62
     1
 10
46.11736072192952
 20
38.99452965756441
 30
0.0
 11
46.11779347572952
 21
38.97918876526441
 31
0.0
  0
LINE
  5
1F0
  8
0_COMPONENTS
  6
CONTINUOUS
 62
     1
 10
46.11779347572952
 20
38.97918876526441
 30
0.0
 11
46.11814568062952
 21
38.96416560086442
 31
0.0
  0
LINE
  5
1F1
  8
0_COMPONENTS
  6
CONTINUOUS
 62
     1
 10
46.11814568062952
 20
38.96416560086442
 30
0.0
 11
46.11842335622952
 21
38.94948207716442
 31
0.0
  0
LINE
  5
1F2
  8
0_COMPONENTS
  6
CONTINUOUS
 62
     1
 10
46.11842335622952
 20
38.94948207716442
 30
0.0
 11
46.11868833312952
 21
38.93042293656441
 31
0.0
  0
LINE
  5
1F3
  8
0_COMPONENTS
  6
CONTINUOUS
 62
     1
 10
46.11868833312952
 20
38.93042293656441
 30
0.0
 11
46.11884526652952
 21
38.9119106451644
 31
0.0
  0
LINE
  5
1F4
  8
0
  6
CONTINUOUS
 62
     1
 10
45.72314380692952
 20
36.47694682466442
 30
0.0
 11
45.72445142382952
 21
36.18635551026441
 31
0.0
  0
LINE
  5
1F5
  8
0_COMPONENTS
  6
CONTINUOUS
 62
     1
 10
46.11884526652952
 20
38.9119106451644
 30
0.0
 11
46.11890544132952
 21
38.89389243186443
 31
0.0
  0
LINE
  5
1F6
  8
0_COMPONENTS
  6
CONTINUOUS
 62
     1
 10
44.12043273142952
 20
34.84831744956441
 30
0.0
 11
44.12043273142952
 21
36.58036825706441
 31
0.0
  0
LINE
  5
1F7
  8
0_COMPONENTS
  6
CONTINUOUS
 62
     1
 10
45.12043273142952
 20
35.71434285326441
 30
0.0
 11
45.12043273142952
 21
37.4463936608644
 31
0.0
  0
LINE
  5
1F8
  8
0_COMPONENTS
  6
CONTINUOUS
 62
     1
 10
46.11890544132952
 20
38.89389243186443
 30
0.0
 11
46.11887816222952
 21
38.87631411126441
 31
0.0
  0
LINE
  5
1F9
  8
0_COMPONENTS
  6
CONTINUOUS
 62
     1
 10
46.11887816222952
 20
38.87631411126441
 30
0.0
 11
46.11877106622952
 21
38.85913119356442
 31
0.0
  0
LINE
  5
1FA
  8
0_COMPONENTS
  6
CONTINUOUS
 62
     1
 10
46.11877106622952
 20
38.85913119356442
 30
0.0
 11
46.11859058682952
 21
38.84231261726441
 31
0.0
  0
LINE
  5
1FB
  8
0_COMPONENTS
  6
CONTINUOUS
 62
     1
 10
46.11859058682952
 20
38.84231261726441
 30
0.0
 11
46.11826997792952
 21
38.82175418706441
 31
0.0
  0
LINE
  5
1FC
  8
0_COMPONENTS
  6
CONTINUOUS
 62
     1
 10
46.11826997792952
 20
38.82175418706441
 30
0.0
 11
46.11785172852952
 21
38.80165270456442
 31
0.0
  0
LINE
  5
1FD
  8
0_COMPONENTS
  6
CONTINUOUS
 62
     1
 10
46.11785172852952
 20
38.80165270456442
 30
0.0
 11
46.11734240592952
 21
38.78194198286442
 31
0.0
  0
LINE
  5
1FE
  8
0_COMPONENTS
  6
CONTINUOUS
 62
     1
 10
46.11734240592952
 20
38.78194198286442
 30
0.0
 11
46.11674673722952
 21
38.76255520796443
 31
0.0
  0
LINE
  5
1FF
  8
0_COMPONENTS
  6
CONTINUOUS
 62
     1
 10
46.11674673722952
 20
38.76255520796443
 30
0.0
 11
46.11606775912952
 21
38.7434252537644
 31
0.0
  0
LINE
  5
200
  8
0_COMPONENTS
  6
CONTINUOUS
 62
     1
 10
46.11606775912952
 20
38.7434252537644
 30
0.0
 11
46.11530694132952
 21
38.72448495326441
 31
0.0
  0
LINE
  5
201
  8
0_COMPONENTS
  6
CONTINUOUS
 62
     1
 10
46.11530694132952
 20
38.72448495326441
 30
0.0
 11
46.11446525562952
 21
38.7056879262644
 31
0.0
  0
LINE
  5
202
  8
0_COMPONENTS
  6
CONTINUOUS
 62
     1
 10
46.11446525562952
 20
38.7056879262644
 30
0.0
 11
46.11354491392952
 21
38.68703189846443
 31
0.0
  0
LINE
  5
203
  8
0_COMPONENTS
  6
CONTINUOUS
 62
     1
 10
46.11354491392952
 20
38.68703189846443
 30
0.0
 11
46.11254822112952
 21
38.66851989446442
 31
0.0
  0
LINE
  5
204
  8
0_COMPONENTS
  6
CONTINUOUS
 62
     1
 10
46.11254822112952
 20
38.66851989446442
 30
0.0
 11
46.11147736602952
 21
38.65015461076442
 31
0.0
  0
LINE
  5
205
  8
0_COMPONENTS
  6
CONTINUOUS
 62
     1
 10
46.11147736602952
 20
38.65015461076442
 30
0.0
 11
46.11033442832952
 21
38.63193845926443
 31
0.0
  0
LINE
  5
206
  8
0_COMPONENTS
  6
CONTINUOUS
 62
     1
 10
46.11033442832952
 20
38.63193845926443
 30
0.0
 11
46.10912138452952
 21
38.61387360786441
 31
0.0
  0
LINE
  5
207
  8
0_COMPONENTS
  6
CONTINUOUS
 62
     1
 10
46.10912138452952
 20
38.61387360786441
 30
0.0
 11
46.10840883772952
 21
38.60378114946442
 31
0.0
  0
LINE
  5
208
  8
06___PRT_ALL_SURFS
  6
CONTINUOUS
 62
     1
 10
36.91415107172952
 20
30.90428706606443
 30
0.0
 11
36.91921897512952
 21
30.94859066476442
 31
0.0
  0
LINE
  5
209
  8
06___PRT_ALL_SURFS
  6
CONTINUOUS
 62
     1
 10
36.90513621772952
 20
30.85430008526441
 30
0.0
 11
36.91415107172952
 21
30.90428706606443
 31
0.0
  0
LINE
  5
20A
  8
06___PRT_ALL_SURFS
  6
CONTINUOUS
 62
     1
 10
36.89295216132952
 20
30.80486389086443
 30
0.0
 11
36.90513621772952
 21
30.85430008526441
 31
0.0
  0
LINE
  5
20B
  8
06___PRT_ALL_SURFS
  6
CONTINUOUS
 62
     1
 10
36.87783359862952
 20
30.75626649276441
 30
0.0
 11
36.89295216132952
 21
30.80486389086443
 31
0.0
  0
LINE
  5
20C
  8
06___PRT_ALL_SURFS
  6
CONTINUOUS
 62
     1
 10
36.85994724132952
 20
30.70881182426442
 30
0.0
 11
36.87783359862952
 21
30.75626649276441
 31
0.0
  0
LINE
  5
20D
  8
06___PRT_ALL_SURFS
  6
CONTINUOUS
 62
     1
 10
36.83940338832952
 20
30.66283152216442
 30
0.0
 11
36.85994724132952
 21
30.70881182426442
 31
0.0
  0
LINE
  5
20E
  8
06___PRT_ALL_SURFS
  6
CONTINUOUS
 62
     1
 10
36.81622781252952
 20
30.61862844616442
 30
0.0
 11
36.83940338832952
 21
30.66283152216442
 31
0.0
  0
LINE
  5
20F
  8
06___PRT_ALL_SURFS
  6
CONTINUOUS
 62
     1
 10
36.79031709282953
 20
30.57645615386443
 30
0.0
 11
36.81622781252952
 21
30.61862844616442
 31
0.0
  0
LINE
  5
210
  8
06___PRT_ALL_SURFS
  6
CONTINUOUS
 62
     1
 10
36.76141581572952
 20
30.53657630696441
 30
0.0
 11
36.79031709282953
 21
30.57645615386443
 31
0.0
  0
LINE
  5
211
  8
06___PRT_ALL_SURFS
  6
CONTINUOUS
 62
     1
 10
36.72903042422952
 20
30.49925825136441
 30
0.0
 11
36.76141581572952
 21
30.53657630696441
 31
0.0
  0
LINE
  5
212
  8
06___PRT_ALL_SURFS
  6
CONTINUOUS
 62
     1
 10
36.69809979622951
 20
30.4697656617644
 30
0.0
 11
36.72903042422952
 21
30.49925825136441
 31
0.0
  0
LINE
  5
213
  8
0
  6
CONTINUOUS
 62
     1
 10
42.93199515062952
 20
39.36434803816442
 30
0.0
 11
43.62921951292952
 21
39.96816204806441
 31
0.0
  0
LINE
  5
214
  8
0
  6
CONTINUOUS
 62
     1
 10
45.43199515062952
 20
41.52941154766442
 30
0.0
 11
49.90988053152952
 21
45.40737404276442
 31
0.0
  0
LINE
  5
215
  8
0_COMPONENTS
  6
CONTINUOUS
 62
     1
 10
44.41314145032952
 20
39.06507922616441
 30
0.0
 11
44.38814145032952
 21
39.04342859106441
 31
0.0
  0
LINE
  5
216
  8
0_COMPONENTS
  6
CONTINUOUS
 62
     1
 10
43.38838192382952
 20
37.9463936608644
 30
0.0
 11
42.38838192382952
 21
37.08036825706441
 31
0.0
  0
LINE
  5
217
  8
0
  6
CONTINUOUS
 62
     1
 10
41.97359619192952
 20
36.63012282786443
 30
0.0
 11
42.38838192382952
 21
36.98933780886441
 31
0.0
  0
LINE
  5
218
  8
0
  6
CONTINUOUS
 62
     1
 10
44.89659016002952
 20
39.16150985936443
 30
0.0
 11
45.27832878562952
 21
39.49210520676442
 31
0.0
  0
LINE
  5
219
  8
0
  6
CONTINUOUS
 62
     1
 10
47.05725831202952
 20
41.03270336816442
 30
0.0
 11
52.88583701712952
 21
46.08040059476441
 31
0.0
  0
LINE
  5
21A
  8
0_COMPONENTS
  6
CONTINUOUS
 62
     1
 10
45.49567320502952
 20
38.75257922616441
 30
0.0
 11
45.47067320502952
 21
38.73092859106441
 31
0.0
  0
LINE
  5
21B
  8
0
  6
CONTINUOUS
 62
     1
 10
9.472202372629525
 20
33.9817811943644
 30
0.0
 11
13.22877223302952
 21
34.48506612456441
 31
0.0
  0
LINE
  5
21C
  8
0
  6
CONTINUOUS
 62
     1
 10
13.16406747172952
 20
34.58415621776442
 30
0.0
 11
9.648979067929517
 21
34.11322366816441
 31
0.0
  0
LINE
  5
21D
  8
0
  6
CONTINUOUS
 62
     1
 10
13.16406747172952
 20
34.6058068527644
 30
0.0
 11
9.648979067929517
 21
34.13487430326441
 31
0.0
  0
LINE
  5
21E
  8
0
  6
CONTINUOUS
 62
     1
 10
10.22220237262952
 20
34.63130024716443
 30
0.0
 11
13.97877223302952
 21
35.13458517736441
 31
0.0
  0
LINE
  5
21F
  8
0
  6
CONTINUOUS
 62
     1
 10
13.91406747172952
 20
35.23367527056442
 30
0.0
 11
10.39897906792952
 21
34.76274272096441
 31
0.0
  0
LINE
  5
220
  8
0
  6
CONTINUOUS
 62
     1
 10
13.91406747172952
 20
35.25532590566442
 30
0.0
 11
10.39897906792952
 21
34.78439335606441
 31
0.0
  0
LINE
  5
221
  8
0
  6
CONTINUOUS
 62
     1
 10
53.73305477142952
 20
36.99850084906441
 30
0.0
 11
50.89114055912952
 21
37.24905392526441
 31
0.0
  0
LINE
  5
222
  8
0_COMPONENTS
  6
CONTINUOUS
 62
     1
 10
80.16195495022951
 20
27.49348328476444
 30
0.0
 11
80.28172111112953
 21
27.4661625048644
 31
0.0
  0
LINE
  5
223
  8
0_COMPONENTS
  6
CONTINUOUS
 62
     1
 10
80.03524091372952
 20
27.5226945620644
 30
0.0
 11
80.16195495022951
 21
27.49348328476444
 31
0.0
  0
LINE
  5
224
  8
0_COMPONENTS
  6
CONTINUOUS
 62
     1
 10
79.91409842552952
 20
27.55098807266441
 30
0.0
 11
80.03524091372952
 21
27.5226945620644
 31
0.0
  0
LINE
  5
225
  8
0_COMPONENTS
  6
CONTINUOUS
 62
     1
 10
79.79918740522952
 20
27.57835273656443
 30
0.0
 11
79.91409842552952
 21
27.55098807266441
 31
0.0
  0
LINE
  5
226
  8
0_COMPONENTS
  6
CONTINUOUS
 62
     1
 10
79.69007884252952
 20
27.60488540196442
 30
0.0
 11
79.79918740522952
 21
27.57835273656443
 31
0.0
  0
LINE
  5
227
  8
0_COMPONENTS
  6
CONTINUOUS
 62
     1
 10
79.58626945062952
 20
27.63075097606443
 30
0.0
 11
79.69007884252952
 21
27.60488540196442
 31
0.0
  0
LINE
  5
228
  8
0_COMPONENTS
  6
CONTINUOUS
 62
     1
 10
79.48731033752952
 20
27.65616824106442
 30
0.0
 11
79.58626945062952
 21
27.63075097606443
 31
0.0
  0
LINE
  5
229
  8
0_COMPONENTS
  6
CONTINUOUS
 62
     1
 10
79.39306200282952
 20
27.68116207106442
 30
0.0
 11
79.48731033752952
 21
27.65616824106442
 31
0.0
  0
LINE
  5
22A
  8
0_COMPONENTS
  6
CONTINUOUS
 62
     1
 10
79.30336122172952
 20
27.70571423156443
 30
0.0
 11
79.39306200282952
 21
27.68116207106442
 31
0.0
  0
LINE
  5
22B
  8
0_COMPONENTS
  6
CONTINUOUS
 62
     1
 10
79.22476407222952
 20
27.72797771416444
 30
0.0
 11
79.30336122172952
 21
27.70571423156443
 31
0.0
  0
LINE
  5
22C
  8
0_COMPONENTS
  6
CONTINUOUS
 62
     1
 10
79.86922111112952
 20
27.09773985026442
 30
0.0
 11
80.38883635342953
 21
26.94773985026441
 31
0.0
  0
LINE
  5
22D
  8
0_COMPONENTS
  6
CONTINUOUS
 62
     1
 10
83.36681637532952
 20
26.19632424246441
 30
0.0
 11
83.52931637532951
 21
26.1494145330644
 31
0.0
  0
LINE
  5
22E
  8
0_COMPONENTS
  6
CONTINUOUS
 62
     1
 10
79.96922111112953
 20
27.1843423906644
 30
0.0
 11
80.48883635392951
 21
27.03434239056443
 31
0.0
  0
LINE
  5
22F
  8
0_COMPONENTS
  6
CONTINUOUS
 62
     1
 10
83.25431637532952
 20
26.27931834336442
 30
0.0
 11
81.21915667642952
 21
26.86681834336443
 31
0.0
  0
LINE
  5
230
  8
0_COMPONENTS
  6
CONTINUOUS
 62
     1
 10
83.36681637532952
 20
26.37674620126441
 30
0.0
 11
81.33165667642952
 21
26.96424620126442
 31
0.0
  0
LINE
  5
231
  8
0_COMPONENTS
  6
CONTINUOUS
 62
     1
 10
45.12043273142952
 20
37.4463936608644
 30
0.0
 11
43.38838192382952
 21
37.9463936608644
 31
0.0
  0
LINE
  5
232
  8
0_COMPONENTS
  6
CONTINUOUS
 62
     1
 10
81.18165667642953
 20
27.11580064686441
 30
0.0
 11
80.96515032542952
 21
27.17830064686441
 31
0.0
  0
LINE
  5
233
  8
0_COMPONENTS
  6
CONTINUOUS
 62
     1
 10
81.14015032542952
 20
27.32985509256443
 30
0.0
 11
81.35665667642952
 21
27.26735509256443
 31
0.0
  0
LINE
  5
234
  8
0_COMPONENTS
  6
CONTINUOUS
 62
     1
 10
80.93124016392952
 20
27.70048803126443
 30
0.0
 11
80.28172111112953
 21
27.88798803126443
 31
0.0
  0
LINE
  5
235
  8
06___PRT_ALL_SURFS
  6
CONTINUOUS
 62
     1
 10
38.14704943422953
 20
40.35555119216443
 30
0.0
 11
36.41244420112952
 21
40.85628859126442
 31
0.0
  0
LINE
  5
236
  8
0
  6
CONTINUOUS
 62
     1
 10
26.02269378122952
 20
43.85555119216441
 30
0.0
 11
24.28808854812952
 21
44.35628859126442
 31
0.0
  0
LINE
  5
237
  8
0_COMPONENTS
  6
CONTINUOUS
 62
     1
 10
25.03171488252951
 20
44.53171385386442
 30
0.0
 11
44.29462546362952
 21
38.97099054916441
 31
0.0
  0
LINE
  5
238
  8
0_COMPONENTS
  6
CONTINUOUS
 62
     1
 10
46.16888938792952
 20
38.4299371585644
 30
0.0
 11
79.76452040162953
 21
28.73171385386442
 31
0.0
  0
LINE
  5
239
  8
0
  6
CONTINUOUS
 62
     1
 10
25.17919555292951
 20
44.74734495746442
 30
0.0
 11
26.94148863402953
 21
44.23861476506441
 31
0.0
  0
LINE
  5
23A
  8
06___PRT_ALL_SURFS
  6
CONTINUOUS
 62
     1
 10
37.30355120592952
 20
41.24734495746443
 30
0.0
 11
39.06584428692952
 21
40.7386147650644
 31
0.0
  0
LINE
  5
23B
  8
0_COMPONENTS
  6
CONTINUOUS
 62
     1
 10
44.78756408272952
 20
39.19298297686441
 30
0.0
 11
45.87009583742952
 21
38.88048297686441
 31
0.0
  0
LINE
  5
23C
  8
0_COMPONENTS
  6
CONTINUOUS
 62
     1
 10
85.56681637532952
 20
27.82733875256443
 30
0.0
 11
85.40431637532951
 21
27.87424846196441
 31
0.0
  0
LINE
  5
23D
  8
0_COMPONENTS
  6
CONTINUOUS
 62
     1
 10
46.02957356952952
 20
39.2752395176644
 30
0.0
 11
39.51177715042952
 21
41.15676527626442
 31
0.0
  0
LINE
  5
23E
  8
0_COMPONENTS
  6
CONTINUOUS
 62
     1
 10
37.45969933312952
 20
41.74914911636442
 30
0.0
 11
27.38742149742953
 21
44.65676527626442
 31
0.0
  0
LINE
  5
23F
  8
06___PRT_ALL_SURFS
  6
CONTINUOUS
 62
     1
 10
39.43755483332953
 20
41.47315685456442
 30
0.0
 11
37.70294129172953
 21
41.97389665216441
 31
0.0
  0
LINE
  5
240
  8
0
  6
CONTINUOUS
 62
     1
 10
27.31319918032952
 20
44.97315685456442
 30
0.0
 11
25.57858563872952
 21
45.47389665216441
 31
0.0
  0
LINE
  5
241
  8
0_COMPONENTS
  6
CONTINUOUS
 62
     1
 10
83.53165667642952
 20
28.86950208956441
 30
0.0
 11
85.56681637532952
 21
28.28200208956443
 31
0.0
  0
LINE
  5
242
  8
0_COMPONENTS
  6
CONTINUOUS
 62
     1
 10
85.81681637532952
 20
28.21705018516442
 30
0.0
 11
85.67931637532952
 21
28.25674301616442
 31
0.0
  0
LINE
  5
243
  8
0_COMPONENTS
  6
CONTINUOUS
 62
     1
 10
79.85168593522953
 20
26.50790753896442
 30
0.0
 11
79.86922111112952
 21
26.49038565916442
 31
0.0
  0
LINE
  5
244
  8
0_COMPONENTS
  6
CONTINUOUS
 62
     1
 10
79.80967671182952
 20
26.55594364646441
 30
0.0
 11
79.85168593522953
 21
26.50790753896442
 31
0.0
  0
LINE
  5
245
  8
0_COMPONENTS
  6
CONTINUOUS
 62
     1
 10
79.77471750262951
 20
26.60057823736443
 30
0.0
 11
79.80967671182952
 21
26.55594364646441
 31
0.0
  0
LINE
  5
246
  8
0_COMPONENTS
  6
CONTINUOUS
 62
     1
 10
79.74530206022952
 20
26.6411469384644
 30
0.0
 11
79.77471750262951
 21
26.60057823736443
 31
0.0
  0
LINE
  5
247
  8
0_COMPONENTS
  6
CONTINUOUS
 62
     1
 10
79.71986295262953
 20
26.6779525026644
 30
0.0
 11
79.74530206022952
 21
26.6411469384644
 31
0.0
  0
LINE
  5
248
  8
0_COMPONENTS
  6
CONTINUOUS
 62
     1
 10
79.69737534262953
 20
26.71107334516441
 30
0.0
 11
79.71986295262953
 21
26.6779525026644
 31
0.0
  0
LINE
  5
249
  8
0_COMPONENTS
  6
CONTINUOUS
 62
     1
 10
79.67690378442953
 20
26.74085884656441
 30
0.0
 11
79.69737534262953
 21
26.71107334516441
 31
0.0
  0
LINE
  5
24A
  8
0_COMPONENTS
  6
CONTINUOUS
 62
     1
 10
79.65761743012952
 20
26.76790241086442
 30
0.0
 11
79.67690378442953
 21
26.74085884656441
 31
0.0
  0
LINE
  5
24B
  8
0_COMPONENTS
  6
CONTINUOUS
 62
     1
 10
79.63902444112952
 20
26.79249143506442
 30
0.0
 11
79.65761743012952
 21
26.76790241086442
 31
0.0
  0
LINE
  5
24C
  8
0_COMPONENTS
  6
CONTINUOUS
 62
     1
 10
79.62070167992952
 20
26.81488677776443
 30
0.0
 11
79.63902444112952
 21
26.79249143506442
 31
0.0
  0
LINE
  5
24D
  8
0_COMPONENTS
  6
CONTINUOUS
 62
     1
 10
79.60194328502952
 20
26.83570632116442
 30
0.0
 11
79.62070167992952
 21
26.81488677776443
 31
0.0
  0
LINE
  5
24E
  8
0_COMPONENTS
  6
CONTINUOUS
 62
     1
 10
79.58196561032952
 20
26.85570984166444
 30
0.0
 11
79.60194328502952
 21
26.83570632116442
 31
0.0
  0
LINE
  5
24F
  8
0_COMPONENTS
  6
CONTINUOUS
 62
     1
 10
79.56060289162951
 20
26.87492341986442
 30
0.0
 11
79.58196561032952
 21
26.85570984166444
 31
0.0
  0
LINE
  5
250
  8
0_COMPONENTS
  6
CONTINUOUS
 62
     1
 10
79.53777922572952
 20
26.89324971006442
 30
0.0
 11
79.56060289162951
 21
26.87492341986442
 31
0.0
  0
LINE
  5
251
  8
0_COMPONENTS
  6
CONTINUOUS
 62
     1
 10
79.51278146542953
 20
26.91106282636443
 30
0.0
 11
79.53777922572952
 21
26.89324971006442
 31
0.0
  0
LINE
  5
252
  8
0_COMPONENTS
  6
CONTINUOUS
 62
     1
 10
79.48507368832952
 20
26.92863657676443
 30
0.0
 11
79.51278146542953
 21
26.91106282636443
 31
0.0
  0
LINE
  5
253
  8
0_COMPONENTS
  6
CONTINUOUS
 62
     1
 10
79.45472574782953
 20
26.9457966409644
 30
0.0
 11
79.48507368832952
 21
26.92863657676443
 31
0.0
  0
LINE
  5
254
  8
0_COMPONENTS
  6
CONTINUOUS
 62
     1
 10
79.42174618992952
 20
26.9624657606644
 30
0.0
 11
79.45472574782953
 21
26.9457966409644
 31
0.0
  0
LINE
  5
255
  8
0_COMPONENTS
  6
CONTINUOUS
 62
     1
 10
79.38642194272953
 20
26.97848114126444
 30
0.0
 11
79.42174618992952
 21
26.9624657606644
 31
0.0
  0
LINE
  5
256
  8
0_COMPONENTS
  6
CONTINUOUS
 62
     1
 10
79.34887575382952
 20
26.99377038876443
 30
0.0
 11
79.38642194272953
 21
26.97848114126444
 31
0.0
  0
LINE
  5
257
  8
0_COMPONENTS
  6
CONTINUOUS
 62
     1
 10
79.30874140842953
 20
27.00851984436443
 30
0.0
 11
79.34887575382952
 21
26.99377038876443
 31
0.0
  0
LINE
  5
258
  8
0_COMPONENTS
  6
CONTINUOUS
 62
     1
 10
79.26576764312952
 20
27.02279311716441
 30
0.0
 11
79.30874140842953
 21
27.00851984436443
 31
0.0
  0
LINE
  5
259
  8
0_COMPONENTS
  6
CONTINUOUS
 62
     1
 10
79.22476382292952
 20
27.03515746316444
 30
0.0
 11
79.26576764312952
 21
27.02279311716441
 31
0.0
  0
LINE
  5
25A
  8
0
  6
CONTINUOUS
 62
     1
 10
26.02520978302952
 20
43.85475313236442
 30
0.0
 11
26.02267665682952
 21
43.85555444766442
 31
0.0
  0
LINE
  5
25B
  8
06___PRT_ALL_SURFS
  6
CONTINUOUS
 62
     1
 10
38.14956543602952
 20
40.35475313236444
 30
0.0
 11
38.14703230982951
 21
40.35555444766442
 31
0.0
  0
LINE
  5
25C
  8
0
  6
CONTINUOUS
 62
     1
 10
26.12538206332951
 20
43.82009882916442
 30
0.0
 11
26.02520978302952
 21
43.85475313236442
 31
0.0
  0
LINE
  5
25D
  8
06___PRT_ALL_SURFS
  6
CONTINUOUS
 62
     1
 10
38.24973771632952
 20
40.32009882916444
 30
0.0
 11
38.14956543602952
 21
40.35475313236444
 31
0.0
  0
LINE
  5
25E
  8
0_COMPONENTS
  6
CONTINUOUS
 62
     1
 10
45.16334509702952
 20
36.99472659546441
 30
0.0
 11
45.20714002742952
 21
36.88755320816441
 31
0.0
  0
LINE
  5
25F
  8
0_COMPONENTS
  6
CONTINUOUS
 62
     1
 10
46.08539555352952
 20
39.31348218646443
 30
0.0
 11
46.08665300202952
 21
39.30668602446443
 31
0.0
  0
LINE
  5
260
  8
0_COMPONENTS
  6
CONTINUOUS
 62
     1
 10
46.08413671772952
 20
39.32011735726442
 30
0.0
 11
46.08539555352952
 21
39.31348218646443
 31
0.0
  0
LINE
  5
261
  8
0_COMPONENTS
  6
CONTINUOUS
 62
     1
 10
46.08288060752952
 20
39.32657400966443
 30
0.0
 11
46.08413671772952
 21
39.32011735726442
 31
0.0
  0
LINE
  5
262
  8
0_COMPONENTS
  6
CONTINUOUS
 62
     1
 10
46.08162931892952
 20
39.33284524756442
 30
0.0
 11
46.08288060752952
 21
39.32657400966443
 31
0.0
  0
LINE
  5
263
  8
0_COMPONENTS
  6
CONTINUOUS
 62
     1
 10
46.08038701882952
 20
39.3389136452644
 30
0.0
 11
46.08162931892952
 21
39.33284524756442
 31
0.0
  0
LINE
  5
264
  8
0_COMPONENTS
  6
CONTINUOUS
 62
     1
 10
46.07916017182952
 20
39.34475129596441
 30
0.0
 11
46.08038701882952
 21
39.3389136452644
 31
0.0
  0
LINE
  5
265
  8
0_COMPONENTS
  6
CONTINUOUS
 62
     1
 10
46.07795757322952
 20
39.35032086876441
 30
0.0
 11
46.07916017182952
 21
39.34475129596441
 31
0.0
  0
LINE
  5
266
  8
0_COMPONENTS
  6
CONTINUOUS
 62
     1
 10
46.07678982352952
 20
39.35557916336441
 30
0.0
 11
46.07795757322952
 21
39.35032086876441
 31
0.0
  0
LINE
  5
267
  8
0_COMPONENTS
  6
CONTINUOUS
 62
     1
 10
46.07566766782952
 20
39.36048518996441
 30
0.0
 11
46.07678982352952
 21
39.35557916336441
 31
0.0
  0
LINE
  5
268
  8
0_COMPONENTS
  6
CONTINUOUS
 62
     1
 10
46.07460842242952
 20
39.36497328186442
 30
0.0
 11
46.07566766782952
 21
39.36048518996441
 31
0.0
  0
LINE
  5
269
  8
0_COMPONENTS
  6
CONTINUOUS
 62
     1
 10
46.07363168582952
 20
39.36897489076441
 30
0.0
 11
46.07460842242952
 21
39.36497328186442
 31
0.0
  0
LINE
  5
26A
  8
0_COMPONENTS
  6
CONTINUOUS
 62
     1
 10
46.07275990332952
 20
39.37241849176442
 30
0.0
 11
46.07363168582952
 21
39.36897489076441
 31
0.0
  0
LINE
  5
26B
  8
0_COMPONENTS
  6
CONTINUOUS
 62
     1
 10
46.07202334572952
 20
39.3752142955644
 30
0.0
 11
46.07275990332952
 21
39.37241849176442
 31
0.0
  0
LINE
  5
26C
  8
0_COMPONENTS
  6
CONTINUOUS
 62
     1
 10
46.07144481312952
 20
39.37731678896441
 30
0.0
 11
46.07202334572952
 21
39.3752142955644
 31
0.0
  0
LINE
  5
26D
  8
0_COMPONENTS
  6
CONTINUOUS
 62
     1
 10
46.07100714572952
 20
39.37883253936442
 30
0.0
 11
46.07144481312952
 21
39.37731678896441
 31
0.0
  0
LINE
  5
26E
  8
0_COMPONENTS
  6
CONTINUOUS
 62
     1
 10
46.07063364432952
 20
39.38006329106443
 30
0.0
 11
46.07100714572952
 21
39.37883253936442
 31
0.0
  0
LINE
  5
26F
  8
0_COMPONENTS
  6
CONTINUOUS
 62
     1
 10
46.07041726192952
 20
39.38074154136442
 30
0.0
 11
46.07063364432952
 21
39.38006329106443
 31
0.0
  0
LINE
  5
270
  8
0_COMPONENTS
  6
CONTINUOUS
 62
     1
 10
46.08665300202952
 20
39.30668602446443
 30
0.0
 11
46.08913633752952
 21
39.2927481312644
 31
0.0
  0
LINE
  5
271
  8
0_COMPONENTS
  6
CONTINUOUS
 62
     1
 10
46.08913633752952
 20
39.2927481312644
 30
0.0
 11
46.09154031592952
 21
39.27855531696443
 31
0.0
  0
LINE
  5
272
  8
0_COMPONENTS
  6
CONTINUOUS
 62
     1
 10
46.09154031592952
 20
39.27855531696443
 30
0.0
 11
46.09383252802952
 21
39.26431121576442
 31
0.0
  0
LINE
  5
273
  8
0_COMPONENTS
  6
CONTINUOUS
 62
     1
 10
46.09383252802952
 20
39.26431121576442
 30
0.0
 11
46.09599266822952
 21
39.25017108936441
 31
0.0
  0
LINE
  5
274
  8
0_COMPONENTS
  6
CONTINUOUS
 62
     1
 10
46.09599266822952
 20
39.25017108936441
 30
0.0
 11
46.09800950592952
 21
39.23625034716443
 31
0.0
  0
LINE
  5
275
  8
0_COMPONENTS
  6
CONTINUOUS
 62
     1
 10
46.09800950592952
 20
39.23625034716443
 30
0.0
 11
46.09987629122952
 21
39.22264843036442
 31
0.0
  0
LINE
  5
276
  8
0_COMPONENTS
  6
CONTINUOUS
 62
     1
 10
46.09987629122952
 20
39.22264843036442
 30
0.0
 11
46.10159449122952
 21
39.2094153926644
 31
0.0
  0
LINE
  5
277
  8
0_COMPONENTS
  6
CONTINUOUS
 62
     1
 10
46.10159449122952
 20
39.2094153926644
 30
0.0
 11
46.10317226362952
 21
39.19655058186441
 31
0.0
  0
LINE
  5
278
  8
0_COMPONENTS
  6
CONTINUOUS
 62
     1
 10
46.10461816462952
 20
39.18404407366441
 30
0.0
 11
46.10529432672952
 21
39.17792027286441
 31
0.0
  0
LINE
  5
279
  8
0_COMPONENTS
  6
CONTINUOUS
 62
     1
 10
46.10317226362952
 20
39.19655058186441
 30
0.0
 11
46.10461816462952
 21
39.18404407366441
 31
0.0
  0
LINE
  5
27A
  8
0
  6
CONTINUOUS
 62
     1
 10
49.72711864222953
 20
45.74841237106442
 30
0.0
 11
49.71638008852952
 21
45.61706986716442
 31
0.0
  0
LINE
  5
27B
  8
0_COMPONENTS
  6
CONTINUOUS
 62
     1
 10
46.73991478732952
 20
41.15117169646442
 30
0.0
 11
46.65652199732952
 21
41.17598356086441
 31
0.0
  0
LINE
  5
27C
  8
0_COMPONENTS
  6
CONTINUOUS
 62
     1
 10
46.82972255782952
 20
41.12221528576441
 30
0.0
 11
46.73991478732952
 21
41.15117169646442
 31
0.0
  0
LINE
  5
27D
  8
0_COMPONENTS
  6
CONTINUOUS
 62
     1
 10
46.92352258782952
 20
41.08864923866443
 30
0.0
 11
46.82972255782952
 21
41.12221528576441
 31
0.0
  0
LINE
  5
27E
  8
0_COMPONENTS
  6
CONTINUOUS
 62
     1
 10
47.02037036032952
 20
41.04972057636442
 30
0.0
 11
46.92352258782952
 21
41.08864923866443
 31
0.0
  0
LINE
  5
27F
  8
0_COMPONENTS
  6
CONTINUOUS
 62
     1
 10
47.11882899012952
 20
41.00429948546443
 30
0.0
 11
47.02037036032952
 21
41.04972057636442
 31
0.0
  0
LINE
  5
280
  8
0_COMPONENTS
  6
CONTINUOUS
 62
     1
 10
47.21695766032952
 20
40.95199269936441
 30
0.0
 11
47.11882899012952
 21
41.00429948546443
 31
0.0
  0
LINE
  5
281
  8
0_COMPONENTS
  6
CONTINUOUS
 62
     1
 10
47.31253352462952
 20
40.89288664426442
 30
0.0
 11
47.21695766032952
 21
40.95199269936441
 31
0.0
  0
LINE
  5
282
  8
0_COMPONENTS
  6
CONTINUOUS
 62
     1
 10
47.40281428332952
 20
40.82817878186441
 30
0.0
 11
47.31253352462952
 21
40.89288664426442
 31
0.0
  0
LINE
  5
283
  8
0_COMPONENTS
  6
CONTINUOUS
 62
     1
 10
47.48643110552952
 20
40.7593198214644
 30
0.0
 11
47.40281428332952
 21
40.82817878186441
 31
0.0
  0
LINE
  5
284
  8
0_COMPONENTS
  6
CONTINUOUS
 62
     1
 10
47.56412284592952
 20
40.68608622196442
 30
0.0
 11
47.48643110552952
 21
40.7593198214644
 31
0.0
  0
LINE
  5
285
  8
0_COMPONENTS
  6
CONTINUOUS
 62
     1
 10
47.63672372702952
 20
40.6074529149644
 30
0.0
 11
47.56412284592952
 21
40.68608622196442
 31
0.0
  0
LINE
  5
286
  8
0_COMPONENTS
  6
CONTINUOUS
 62
     1
 10
47.70461267692952
 20
40.5231932385644
 30
0.0
 11
47.63672372702952
 21
40.6074529149644
 31
0.0
  0
LINE
  5
287
  8
0_COMPONENTS
  6
CONTINUOUS
 62
     1
 10
47.76780819972952
 20
40.43311193516442
 30
0.0
 11
47.70461267692952
 21
40.5231932385644
 31
0.0
  0
LINE
  5
288
  8
0_COMPONENTS
  6
CONTINUOUS
 62
     1
 10
47.82593102452952
 20
40.3369447886644
 30
0.0
 11
47.76780819972952
 21
40.43311193516442
 31
0.0
  0
LINE
  5
289
  8
0_COMPONENTS
  6
CONTINUOUS
 62
     1
 10
47.87881197702952
 20
40.23461126096441
 30
0.0
 11
47.82593102452952
 21
40.3369447886644
 31
0.0
  0
LINE
  5
28A
  8
0_COMPONENTS
  6
CONTINUOUS
 62
     1
 10
47.92626691382952
 20
40.12605282806442
 30
0.0
 11
47.87881197702952
 21
40.23461126096441
 31
0.0
  0
LINE
  5
28B
  8
0_COMPONENTS
  6
CONTINUOUS
 62
     1
 10
47.96816136132952
 20
40.01149703446441
 30
0.0
 11
47.92626691382952
 21
40.12605282806442
 31
0.0
  0
LINE
  5
28C
  8
0_COMPONENTS
  6
CONTINUOUS
 62
     1
 10
48.00473426142952
 20
39.89130087836443
 30
0.0
 11
47.96816136132952
 21
40.01149703446441
 31
0.0
  0
LINE
  5
28D
  8
0_COMPONENTS
  6
CONTINUOUS
 62
     1
 10
48.03615144192952
 20
39.76496772756443
 30
0.0
 11
48.00473426142952
 21
39.89130087836443
 31
0.0
  0
LINE
  5
28E
  8
0_COMPONENTS
  6
CONTINUOUS
 62
     1
 10
48.06198184292952
 20
39.63308574566443
 30
0.0
 11
48.03615144192952
 21
39.76496772756443
 31
0.0
  0
LINE
  5
28F
  8
0_COMPONENTS
  6
CONTINUOUS
 62
     1
 10
48.08212146022952
 20
39.49732143736443
 30
0.0
 11
48.06198184292952
 21
39.63308574566443
 31
0.0
  0
LINE
  5
290
  8
0_COMPONENTS
  6
CONTINUOUS
 62
     1
 10
48.09715890192952
 20
39.35932321846443
 30
0.0
 11
48.08212146022952
 21
39.49732143736443
 31
0.0
  0
LINE
  5
291
  8
0_COMPONENTS
  6
CONTINUOUS
 62
     1
 10
48.10808886842952
 20
39.21939440296441
 30
0.0
 11
48.09715890192952
 21
39.35932321846443
 31
0.0
  0
LINE
  5
292
  8
0_COMPONENTS
  6
CONTINUOUS
 62
     1
 10
48.11521499702952
 20
39.07668889176441
 30
0.0
 11
48.10808886842952
 21
39.21939440296441
 31
0.0
  0
LINE
  5
293
  8
0_COMPONENTS
  6
CONTINUOUS
 62
     1
 10
48.11851047252952
 20
38.9309090921644
 30
0.0
 11
48.11521499702952
 21
39.07668889176441
 31
0.0
  0
LINE
  5
294
  8
0_COMPONENTS
  6
CONTINUOUS
 62
     1
 10
48.11788930072952
 20
38.78168859966442
 30
0.0
 11
48.11851047252952
 21
38.9309090921644
 31
0.0
  0
LINE
  5
295
  8
0_COMPONENTS
  6
CONTINUOUS
 62
     1
 10
48.11320054252952
 20
38.62863497196443
 30
0.0
 11
48.11788930072952
 21
38.78168859966442
 31
0.0
  0
LINE
  5
296
  8
0_COMPONENTS
  6
CONTINUOUS
 62
     1
 10
48.10421808652952
 20
38.47144614966442
 30
0.0
 11
48.11320054252952
 21
38.62863497196443
 31
0.0
  0
LINE
  5
297
  8
0_COMPONENTS
  6
CONTINUOUS
 62
     1
 10
48.09062923462952
 20
38.30983208206442
 30
0.0
 11
48.10421808652952
 21
38.47144614966442
 31
0.0
  0
LINE
  5
298
  8
0_COMPONENTS
  6
CONTINUOUS
 62
     1
 10
48.07216385062952
 20
38.14464053776442
 30
0.0
 11
48.09062923462952
 21
38.30983208206442
 31
0.0
  0
LINE
  5
299
  8
0_COMPONENTS
  6
CONTINUOUS
 62
     1
 10
48.04863638372952
 20
37.9777978022644
 30
0.0
 11
48.07216385062952
 21
38.14464053776442
 31
0.0
  0
LINE
  5
29A
  8
0_COMPONENTS
  6
CONTINUOUS
 62
     1
 10
48.03374276882952
 20
37.89160035786441
 30
0.0
 11
48.04863638372952
 21
37.9777978022644
 31
0.0
  0
LINE
  5
29B
  8
0_COMPONENTS
  6
CONTINUOUS
 62
     1
 10
45.49567320502952
 20
38.23296398386444
 30
0.0
 11
45.47067320502952
 21
38.21131334876443
 31
0.0
  0
LINE
  5
29C
  8
06___PRT_ALL_SURFS
  6
CONTINUOUS
 62
     1
 10
35.87717902242952
 20
29.75882740896444
 30
0.0
 11
36.69813141222951
 21
30.46979303386442
 31
0.0
  0
LINE
  5
29D
  8
0
  6
CONTINUOUS
 62
     1
 10
47.97421092762952
 20
39.99161524726443
 30
0.0
 11
53.75133486162952
 21
44.99475133496442
 31
0.0
  0
LINE
  5
29E
  8
0_COMPONENTS
  6
CONTINUOUS
 62
     1
 10
45.12043273142952
 20
37.4463936608644
 30
0.0
 11
44.12043273142952
 21
36.58036825706441
 31
0.0
  0
LINE
  5
29F
  8
0_COMPONENTS
  6
CONTINUOUS
 62
     1
 10
45.12043273142952
 20
36.60895809556442
 30
0.0
 11
45.28268616432952
 21
36.7494736903644
 31
0.0
  0
LINE
  5
2A0
  8
0_COMPONENTS
  6
CONTINUOUS
 62
     1
 10
45.12043273142952
 20
36.08934285326441
 30
0.0
 11
45.49567320502952
 21
36.41431063596443
 31
0.0
  0
LINE
  5
2A1
  8
0_COMPONENTS
  6
CONTINUOUS
 62
     1
 10
45.12043273142952
 20
35.71434285326441
 30
0.0
 11
44.12043273142952
 21
34.84831744956441
 31
0.0
  0
LINE
  5
2A2
  8
0
  6
CONTINUOUS
 62
     1
 10
45.70015613862952
 20
35.97191167816442
 30
0.0
 11
45.83077632232952
 21
36.08503207556441
 31
0.0
  0
LINE
  5
2A3
  8
0
  6
CONTINUOUS
 62
     1
 10
42.87149483982952
 20
33.2887254856644
 30
0.0
 11
45.48912379772952
 21
35.55565866096441
 31
0.0
  0
LINE
  5
2A4
  8
0
  6
CONTINUOUS
 62
     1
 10
48.14826339182952
 20
37.85854110156441
 30
0.0
 11
53.87225630602953
 21
42.81566437646441
 31
0.0
  0
LINE
  5
2A5
  8
0
  6
CONTINUOUS
 62
     1
 10
53.33054306862952
 20
42.32208483256441
 30
0.0
 11
50.08054306862952
 21
39.50750227026441
 31
0.0
  0
LINE
  5
2A6
  8
0
  6
CONTINUOUS
 62
     1
 10
53.87225630602953
 20
42.59915802546442
 30
0.0
 11
53.49687557292953
 21
42.27406877446441
 31
0.0
  0
LINE
  5
2A7
  8
0
  6
CONTINUOUS
 62
     1
 10
50.24687557292953
 20
39.45948621216442
 30
0.0
 11
48.33576339182952
 21
37.80441451386443
 31
0.0
  0
LINE
  5
2A8
  8
0
  6
CONTINUOUS
 62
     1
 10
46.23575795872952
 20
35.98575646076441
 30
0.0
 11
42.87149483982952
 21
33.07221913476442
 31
0.0
  0
LINE
  5
2A9
  8
0_COMPONENTS
  6
CONTINUOUS
 62
     1
 10
45.52822328862952
 20
38.25870172816443
 30
0.0
 11
45.62239738422952
 21
38.3260468883644
 31
0.0
  0
LINE
  5
2AA
  8
06___PRT_ALL_SURFS
  6
CONTINUOUS
 62
     1
 10
34.94981776132951
 20
31.12531339106442
 30
0.0
 11
34.96243776482953
 21
31.13277833916442
 31
0.0
  0
LINE
  5
2AB
  8
0
  6
CONTINUOUS
 62
     1
 10
8.707113968829518
 20
35.87076787006441
 30
0.0
 11
8.476457829729526
 21
35.83986580696441
 31
0.0
  0
LINE
  5
2AC
  8
0
  6
CONTINUOUS
 62
     1
 10
8.707113968829518
 20
35.89241850516441
 30
0.0
 11
8.465632512229519
 21
35.86006612456441
 31
0.0
  0
LINE
  5
2AD
  8
0
  6
CONTINUOUS
 62
     1
 10
9.457113968829518
 20
36.52028692286441
 30
0.0
 11
9.226457829729526
 21
36.48938485986443
 31
0.0
  0
LINE
  5
2AE
  8
0
  6
CONTINUOUS
 62
     1
 10
9.457113968829518
 20
36.54193755796442
 30
0.0
 11
9.215632512229519
 21
36.50958517736441
 31
0.0
  0
LINE
  5
2AF
  8
0_COMPONENTS
  6
CONTINUOUS
 62
     1
 10
83.64415667642952
 20
28.96692994746442
 30
0.0
 11
85.67931637532952
 21
28.37942994746442
 31
0.0
  0
LINE
  5
2B0
  8
0
  6
CONTINUOUS
 62
     1
 10
23.63451632572952
 20
46.34795597966442
 30
0.0
 11
20.90761981032952
 21
47.13514319826442
 31
0.0
  0
LINE
  5
2B1
  8
0_COMPONENTS
  6
CONTINUOUS
 62
     1
 10
82.80624016392952
 20
29.32428566336441
 30
0.0
 11
82.15672111112953
 21
29.51178566336441
 31
0.0
  0
LINE
  5
2B2
  8
0_COMPONENTS
  6
CONTINUOUS
 62
     1
 10
83.29015032542952
 20
29.19180971066442
 30
0.0
 11
83.50665667642951
 21
29.12930971066442
 31
0.0
  0
LINE
  5
2B3
  8
0_COMPONENTS
  6
CONTINUOUS
 62
     1
 10
82.87780745522952
 20
29.34692723606443
 30
0.0
 11
82.56922111112952
 21
29.43600844056442
 31
0.0
  0
LINE
  5
2B4
  8
0_COMPONENTS
  6
CONTINUOUS
 62
     1
 10
83.68165667642953
 20
29.2808641563644
 30
0.0
 11
83.46515032542952
 21
29.3433641563644
 31
0.0
  0
LINE
  5
2B5
  8
0
  6
CONTINUOUS
 62
     1
 10
50.24687557292953
 20
39.45948621216442
 30
0.0
 11
50.08054306862952
 21
39.50750227026441
 31
0.0
  0
LINE
  5
2B6
  8
0_COMPONENTS
  6
CONTINUOUS
 62
     1
 10
46.65652199732952
 20
41.17598356086441
 30
0.0
 11
27.53171488252951
 21
46.69677736336442
 31
0.0
  0
LINE
  5
2B7
  8
0_COMPONENTS
  6
CONTINUOUS
 62
     1
 10
83.52931637532951
 20
26.49582469426443
 30
0.0
 11
80.93124016392952
 21
27.41902977476443
 31
0.0
  0
LINE
  5
2B8
  8
0_COMPONENTS
  6
CONTINUOUS
 62
     1
 10
81.36874016392952
 20
27.79791588926443
 30
0.0
 11
82.23476556752952
 21
27.49018086256442
 31
0.0
  0
LINE
  5
2B9
  8
0_COMPONENTS
  6
CONTINUOUS
 62
     1
 10
85.40431637532951
 20
28.11962232636441
 30
0.0
 11
82.80624016392952
 21
29.0428274068644
 31
0.0
  0
LINE
  5
2BA
  8
0
  6
CONTINUOUS
 62
     1
 10
50.25237552962952
 20
39.12570541136441
 30
0.0
 11
50.24687557292953
 21
39.45948621216442
 31
0.0
  0
LINE
  5
2BB
  8
0
  6
CONTINUOUS
 62
     1
 10
50.25237552962952
 20
39.12570541136441
 30
0.0
 11
50.21273164202952
 21
37.26258045156442
 31
0.0
  0
LINE
  5
2BC
  8
0
  6
CONTINUOUS
 62
     1
 10
50.72651845362952
 20
37.1142629746644
 30
0.0
 11
50.73012278842953
 21
37.28365418596442
 31
0.0
  0
LINE
  5
2BD
  8
0
  6
CONTINUOUS
 62
     1
 10
53.88836920472951
 20
40.17129866456443
 30
0.0
 11
53.89389555372952
 21
40.23602818026441
 31
0.0
  0
LINE
  5
2BE
  8
0
  6
CONTINUOUS
 62
     1
 10
53.87436716632952
 20
40.08321988866442
 30
0.0
 11
53.88836920472951
 21
40.17129866456443
 31
0.0
  0
LINE
  5
2BF
  8
0
  6
CONTINUOUS
 62
     1
 10
53.85301729892952
 20
39.99651708856442
 30
0.0
 11
53.87436716632952
 21
40.08321988866442
 31
0.0
  0
LINE
  5
2C0
  8
0
  6
CONTINUOUS
 62
     1
 10
53.82441779802951
 20
39.91167848066442
 30
0.0
 11
53.85301729892952
 21
39.99651708856442
 31
0.0
  0
LINE
  5
2C1
  8
0
  6
CONTINUOUS
 62
     1
 10
53.78868491572952
 20
39.82919032556441
 30
0.0
 11
53.82441779802951
 21
39.91167848066442
 31
0.0
  0
LINE
  5
2C2
  8
0
  6
CONTINUOUS
 62
     1
 10
53.74596402172952
 20
39.74955041176443
 30
0.0
 11
53.78868491572952
 21
39.82919032556441
 31
0.0
  0
LINE
  5
2C3
  8
0
  6
CONTINUOUS
 62
     1
 10
53.69641835142951
 20
39.67323644366442
 30
0.0
 11
53.74596402172952
 21
39.74955041176443
 31
0.0
  0
LINE
  5
2C4
  8
0
  6
CONTINUOUS
 62
     1
 10
53.64023734302953
 20
39.60072279756443
 30
0.0
 11
53.69641835142951
 21
39.67323644366442
 31
0.0
  0
LINE
  5
2C5
  8
0
  6
CONTINUOUS
 62
     1
 10
53.57764969702951
 20
39.53248462106441
 30
0.0
 11
53.64023734302953
 21
39.60072279756443
 31
0.0
  0
LINE
  5
2C6
  8
0
  6
CONTINUOUS
 62
     1
 10
53.55321653512952
 20
39.50970502326442
 30
0.0
 11
53.57764969702951
 21
39.53248462106441
 31
0.0
  0
LINE
  5
2C7
  8
0
  6
CONTINUOUS
 62
     1
 10
48.97135157262952
 20
35.5392700107644
 30
0.0
 11
42.62185891812952
 21
30.04044807076443
 31
0.0
  0
LINE
  5
2C8
  8
0
  6
CONTINUOUS
 62
     1
 10
53.49687557292953
 20
42.27406877446441
 30
0.0
 11
53.33054306862952
 21
42.32208483256441
 31
0.0
  0
LINE
  5
2C9
  8
0
  6
CONTINUOUS
 62
     1
 10
53.52258909362952
 20
39.5279552049644
 30
0.0
 11
55.37751685782952
 21
38.42264679146442
 31
0.0
  0
LINE
  5
2CA
  8
0
  6
CONTINUOUS
 62
     1
 10
53.15184525022953
 20
46.31993952026441
 30
0.0
 11
53.07172702722951
 21
46.34579600746441
 31
0.0
  0
LINE
  5
2CB
  8
0
  6
CONTINUOUS
 62
     1
 10
53.23962213262952
 20
46.28489407216442
 30
0.0
 11
53.15184525022953
 21
46.31993952026441
 31
0.0
  0
LINE
  5
2CC
  8
0
  6
CONTINUOUS
 62
     1
 10
53.32697200642951
 20
46.24214581126442
 30
0.0
 11
53.23962213262952
 21
46.28489407216442
 31
0.0
  0
LINE
  5
2CD
  8
0
  6
CONTINUOUS
 62
     1
 10
53.41203542032952
 20
46.19175253186442
 30
0.0
 11
53.32697200642951
 21
46.24214581126442
 31
0.0
  0
LINE
  5
2CE
  8
0
  6
CONTINUOUS
 62
     1
 10
53.49315340272952
 20
46.13408325076442
 30
0.0
 11
53.41203542032952
 21
46.19175253186442
 31
0.0
  0
LINE
  5
2CF
  8
0
  6
CONTINUOUS
 62
     1
 10
53.56870595292952
 20
46.06998417736442
 30
0.0
 11
53.49315340272952
 21
46.13408325076442
 31
0.0
  0
LINE
  5
2D0
  8
0
  6
CONTINUOUS
 62
     1
 10
53.63769143042953
 20
46.00031206306441
 30
0.0
 11
53.56870595292952
 21
46.06998417736442
 31
0.0
  0
LINE
  5
2D1
  8
0
  6
CONTINUOUS
 62
     1
 10
53.69971509962951
 20
45.92562406766442
 30
0.0
 11
53.63769143042953
 21
46.00031206306441
 31
0.0
  0
LINE
  5
2D2
  8
0
  6
CONTINUOUS
 62
     1
 10
53.75444516962952
 20
45.84651836356441
 30
0.0
 11
53.69971509962951
 21
45.92562406766442
 31
0.0
  0
LINE
  5
2D3
  8
0
  6
CONTINUOUS
 62
     1
 10
53.80164479492952
 20
45.76355836476442
 30
0.0
 11
53.75444516962952
 21
45.84651836356441
 31
0.0
  0
LINE
  5
2D4
  8
0
  6
CONTINUOUS
 62
     1
 10
53.84112155052952
 20
45.67729613906442
 30
0.0
 11
53.80164479492952
 21
45.76355836476442
 31
0.0
  0
LINE
  5
2D5
  8
0
  6
CONTINUOUS
 62
     1
 10
53.87270434732952
 20
45.58830470446442
 30
0.0
 11
53.84112155052952
 21
45.67729613906442
 31
0.0
  0
LINE
  5
2D6
  8
0
  6
CONTINUOUS
 62
     1
 10
53.89625254312952
 20
45.49715054896441
 30
0.0
 11
53.87270434732952
 21
45.58830470446442
 31
0.0
  0
LINE
  5
2D7
  8
0
  6
CONTINUOUS
 62
     1
 10
53.91164873912952
 20
45.40439723146442
 30
0.0
 11
53.89625254312952
 21
45.49715054896441
 31
0.0
  0
LINE
  5
2D8
  8
0
  6
CONTINUOUS
 62
     1
 10
53.91769976982953
 20
45.33570079466442
 30
0.0
 11
53.91164873912952
 21
45.40439723146442
 31
0.0
  0
LINE
  5
2D9
  8
0
  6
CONTINUOUS
 62
     1
 10
53.91769796042952
 20
45.33573608396442
 30
0.0
 11
54.03924165832952
 21
43.14543569336442
 31
0.0
  0
LINE
  5
2DA
  8
0
  6
CONTINUOUS
 62
     1
 10
53.33054306862952
 20
42.32208483256441
 30
0.0
 11
53.29992783002952
 21
40.25272108426444
 31
0.0
  0
LINE
  5
2DB
  8
0
  6
CONTINUOUS
 62
     1
 10
54.03925566192952
 20
42.89446297626442
 30
0.0
 11
53.89389400662952
 21
40.23599719726442
 31
0.0
  0
LINE
  5
2DC
  8
0
  6
CONTINUOUS
 62
     1
 10
53.46673771412952
 20
41.90942472006442
 30
0.0
 11
53.49687557292953
 21
42.27406877446441
 31
0.0
  0
LINE
  5
2DD
  8
0
  6
CONTINUOUS
 62
     1
 10
49.71638008852952
 20
45.61706986716442
 30
0.0
 11
34.99276136652952
 21
49.86741248346442
 31
0.0
  0
LINE
  5
2DE
  8
0
  6
CONTINUOUS
 62
     1
 10
49.72711864222953
 20
45.74841237106442
 30
0.0
 11
34.98988397972951
 21
50.00268557086441
 31
0.0
  0
LINE
  5
2DF
  8
0
  6
CONTINUOUS
 62
     1
 10
52.79438640942952
 20
46.25104975196442
 30
0.0
 11
27.39864034732952
 21
53.58217016456442
 31
0.0
  0
LINE
  5
2E0
  8
0
  6
CONTINUOUS
 62
     1
 10
53.07173650752952
 20
46.34579327106442
 30
0.0
 11
27.67599044502953
 21
53.67691368376441
 31
0.0
  0
LINE
  5
2E1
  8
0_COMPONENTS
  6
CONTINUOUS
 62
     1
 10
82.23476556752952
 20
27.49018086256442
 30
0.0
 11
81.36874016392952
 21
27.94947033476441
 31
0.0
  0
LINE
  5
2E2
  8
0_COMPONENTS
  6
CONTINUOUS
 62
     1
 10
83.23476556752952
 20
28.35620626626442
 30
0.0
 11
82.36874016392952
 21
28.81549573856441
 31
0.0
  0
LINE
  5
2E3
  8
0
  6
CONTINUOUS
 62
     1
 10
55.78658337032952
 20
37.84256630676441
 30
0.0
 11
55.75136508162952
 21
36.96934003946441
 31
0.0
  0
LINE
  5
2E4
  8
0
  6
CONTINUOUS
 62
     1
 10
26.47471797292951
 20
53.48385329216441
 30
0.0
 11
26.40267771212953
 21
53.42633917956442
 31
0.0
  0
LINE
  5
2E5
  8
0
  6
CONTINUOUS
 62
     1
 10
26.55513592622953
 20
53.53804170156442
 30
0.0
 11
26.47471797292951
 21
53.48385329216441
 31
0.0
  0
LINE
  5
2E6
  8
0
  6
CONTINUOUS
 62
     1
 10
26.63647106992951
 20
53.58394190656441
 30
0.0
 11
26.55513592622953
 21
53.53804170156442
 31
0.0
  0
LINE
  5
2E7
  8
0
  6
CONTINUOUS
 62
     1
 10
26.71951949742953
 20
53.62295150386441
 30
0.0
 11
26.63647106992951
 21
53.58394190656441
 31
0.0
  0
LINE
  5
2E8
  8
0
  6
CONTINUOUS
 62
     1
 10
26.80527130352952
 20
53.65596988186442
 30
0.0
 11
26.71951949742953
 21
53.62295150386441
 31
0.0
  0
LINE
  5
2E9
  8
0
  6
CONTINUOUS
 62
     1
 10
26.89510513802952
 20
53.68352744656443
 30
0.0
 11
26.80527130352952
 21
53.65596988186442
 31
0.0
  0
LINE
  5
2EA
  8
0
  6
CONTINUOUS
 62
     1
 10
26.98973954092952
 20
53.70551748336442
 30
0.0
 11
26.89510513802952
 21
53.68352744656443
 31
0.0
  0
LINE
  5
2EB
  8
0
  6
CONTINUOUS
 62
     1
 10
27.08808161862953
 20
53.72131702106441
 30
0.0
 11
26.98973954092952
 21
53.70551748336442
 31
0.0
  0
LINE
  5
2EC
  8
0
  6
CONTINUOUS
 62
     1
 10
27.18885715252952
 20
53.73048879446441
 30
0.0
 11
27.08808161862953
 21
53.72131702106441
 31
0.0
  0
LINE
  5
2ED
  8
0
  6
CONTINUOUS
 62
     1
 10
27.29082047002953
 20
53.73279352056443
 30
0.0
 11
27.18885715252952
 21
53.73048879446441
 31
0.0
  0
LINE
  5
2EE
  8
0
  6
CONTINUOUS
 62
     1
 10
27.39251536542952
 20
53.7281677430644
 30
0.0
 11
27.29082047002953
 21
53.73279352056443
 31
0.0
  0
LINE
  5
2EF
  8
0
  6
CONTINUOUS
 62
     1
 10
27.49258721182952
 20
53.71674136446441
 30
0.0
 11
27.39251536542952
 21
53.7281677430644
 31
0.0
  0
LINE
  5
2F0
  8
0
  6
CONTINUOUS
 62
     1
 10
27.58979898152953
 20
53.69881599176441
 30
0.0
 11
27.49258721182952
 21
53.71674136446441
 31
0.0
  0
LINE
  5
2F1
  8
0
  6
CONTINUOUS
 62
     1
 10
27.67598715952951
 20
53.67691463216443
 30
0.0
 11
27.58979898152953
 21
53.69881599176441
 31
0.0
  0
LINE
  5
2F2
  8
0_COMPONENTS
  6
CONTINUOUS
 62
     1
 10
79.41252076722952
 20
27.44828784916442
 30
0.0
 11
79.34956737982952
 21
27.46750462876443
 31
0.0
  0
LINE
  5
2F3
  8
0_COMPONENTS
  6
CONTINUOUS
 62
     1
 10
79.48029305542953
 20
27.42506530496442
 30
0.0
 11
79.41252076722952
 21
27.44828784916442
 31
0.0
  0
LINE
  5
2F4
  8
0_COMPONENTS
  6
CONTINUOUS
 62
     1
 10
79.54607560442952
 20
27.39948268526442
 30
0.0
 11
79.48029305542953
 21
27.42506530496442
 31
0.0
  0
LINE
  5
2F5
  8
0_COMPONENTS
  6
CONTINUOUS
 62
     1
 10
79.60979349562952
 20
27.37132411096442
 30
0.0
 11
79.54607560442952
 21
27.39948268526442
 31
0.0
  0
LINE
  5
2F6
  8
0_COMPONENTS
  6
CONTINUOUS
 62
     1
 10
79.67145677732952
 20
27.34019730926443
 30
0.0
 11
79.60979349562952
 21
27.37132411096442
 31
0.0
  0
LINE
  5
2F7
  8
0_COMPONENTS
  6
CONTINUOUS
 62
     1
 10
79.73090692442952
 20
27.30578675366442
 30
0.0
 11
79.67145677732952
 21
27.34019730926443
 31
0.0
  0
LINE
  5
2F8
  8
0_COMPONENTS
  6
CONTINUOUS
 62
     1
 10
79.78791107052952
 20
27.26782010906442
 30
0.0
 11
79.73090692442952
 21
27.30578675366442
 31
0.0
  0
LINE
  5
2F9
  8
0_COMPONENTS
  6
CONTINUOUS
 62
     1
 10
79.84268139772952
 20
27.22576950096442
 30
0.0
 11
79.78791107052952
 21
27.26782010906442
 31
0.0
  0
LINE
  5
2FA
  8
0_COMPONENTS
  6
CONTINUOUS
 62
     1
 10
79.89558664932952
 20
27.17867878586443
 30
0.0
 11
79.84268139772952
 21
27.22576950096442
 31
0.0
  0
LINE
  5
2FB
  8
0_COMPONENTS
  6
CONTINUOUS
 62
     1
 10
79.92619287632952
 20
27.14707884626441
 30
0.0
 11
79.89558664932952
 21
27.17867878586443
 31
0.0
  0
LINE
  5
2FC
  8
0_COMPONENTS
  6
CONTINUOUS
 62
     1
 10
82.15672111112953
 20
29.51178566336441
 30
0.0
 11
80.28172111112953
 21
27.88798803126443
 31
0.0
  0
LINE
  5
2FD
  8
0_COMPONENTS
  6
CONTINUOUS
 62
     1
 10
82.56922111112952
 20
29.43600844056442
 30
0.0
 11
82.53172111112953
 21
29.4035324878644
 31
0.0
  0
LINE
  5
2FE
  8
0_COMPONENTS
  6
CONTINUOUS
 62
     1
 10
79.86922111112952
 20
27.09773985026442
 30
0.0
 11
80.14422111112953
 21
27.33589683636441
 31
0.0
  0
LINE
  5
2FF
  8
0_COMPONENTS
  6
CONTINUOUS
 62
     1
 10
79.86922111112952
 20
25.14918269176442
 30
0.0
 11
79.86922111112952
 21
27.09773985026442
 31
0.0
  0
LINE
  5
300
  8
0_COMPONENTS
  6
CONTINUOUS
 62
     1
 10
82.80624016392952
 20
29.32428566336441
 30
0.0
 11
80.93124016392952
 21
27.70048803126443
 31
0.0
  0
LINE
  5
301
  8
0_COMPONENTS
  6
CONTINUOUS
 62
     1
 10
81.36874016392952
 20
27.9494703348644
 30
0.0
 11
82.36874016392952
 21
28.81549573866442
 31
0.0
  0
LINE
  5
302
  8
0_COMPONENTS
  6
CONTINUOUS
 62
     1
 10
80.93124016392952
 20
27.41902977506442
 30
0.0
 11
81.36874016332952
 21
27.79791588866442
 31
0.0
  0
LINE
  5
303
  8
0_COMPONENTS
  6
CONTINUOUS
 62
     1
 10
82.47727497132952
 20
28.75793519336443
 30
0.0
 11
82.80624016392952
 21
29.04282740716442
 31
0.0
  0
LINE
  5
304
  8
0_COMPONENTS
  6
CONTINUOUS
 62
     1
 10
80.48883635342952
 20
27.03434239066442
 30
0.0
 11
80.38883635342953
 21
26.94773985026441
 31
0.0
  0
LINE
  5
305
  8
0_COMPONENTS
  6
CONTINUOUS
 62
     1
 10
83.46515032542952
 20
29.3433641563644
 30
0.0
 11
83.29015032542952
 21
29.19180971066442
 31
0.0
  0
LINE
  5
306
  8
0_COMPONENTS
  6
CONTINUOUS
 62
     1
 10
81.14015032542952
 20
27.32985509256443
 30
0.0
 11
80.96515032542952
 21
27.17830064686441
 31
0.0
  0
LINE
  5
307
  8
0_COMPONENTS
  6
CONTINUOUS
 62
     1
 10
80.38883635342953
 20
26.66628159406443
 30
0.0
 11
80.48883635342952
 21
26.75288413446444
 31
0.0
  0
LINE
  5
308
  8
0_COMPONENTS
  6
CONTINUOUS
 62
     1
 10
81.35665667642952
 20
27.26735509256443
 30
0.0
 11
81.18165667642953
 21
27.11580064686441
 31
0.0
  0
LINE
  5
309
  8
0_COMPONENTS
  6
CONTINUOUS
 62
     1
 10
83.50665667642951
 20
29.12930971066442
 30
0.0
 11
83.68165667642953
 21
29.2808641563644
 31
0.0
  0
LINE
  5
30A
  8
0_COMPONENTS
  6
CONTINUOUS
 62
     1
 10
81.33165667642952
 20
26.96424620136443
 30
0.0
 11
81.21915667632952
 21
26.86681834336443
 31
0.0
  0
LINE
  5
30B
  8
0_COMPONENTS
  6
CONTINUOUS
 62
     1
 10
83.53165667642952
 20
28.86950208976444
 30
0.0
 11
83.64415667642952
 21
28.9669299476644
 31
0.0
  0
LINE
  5
30C
  8
0_COMPONENTS
  6
CONTINUOUS
 62
     1
 10
83.23476556772953
 20
28.35620626616443
 30
0.0
 11
82.23476556772953
 21
27.49018086236441
 31
0.0
  0
LINE
  5
30D
  8
0_COMPONENTS
  6
CONTINUOUS
 62
     1
 10
81.21915667632952
 20
26.58536008726443
 30
0.0
 11
81.18165667642953
 21
26.55288413466442
 31
0.0
  0
LINE
  5
30E
  8
0_COMPONENTS
  6
CONTINUOUS
 62
     1
 10
80.38883635342953
 20
25.69200301476442
 30
0.0
 11
80.52633635342951
 21
25.81108150786443
 31
0.0
  0
LINE
  5
30F
  8
0_COMPONENTS
  6
CONTINUOUS
 62
     1
 10
80.64864397452952
 20
25.61700301476444
 30
0.0
 11
80.78614397452952
 21
25.73608150786441
 31
0.0
  0
LINE
  5
310
  8
0_COMPONENTS
  6
CONTINUOUS
 62
     1
 10
81.12364397452951
 20
25.33554475856442
 30
0.0
 11
80.64864397452952
 21
24.9241826917644
 31
0.0
  0
LINE
  5
311
  8
0_COMPONENTS
  6
CONTINUOUS
 62
     1
 10
80.28172111112953
 20
27.88798803126443
 30
0.0
 11
80.28172111112953
 21
27.33506270116442
 31
0.0
  0
LINE
  5
312
  8
0_COMPONENTS
  6
CONTINUOUS
 62
     1
 10
80.38883635342953
 20
26.94773985026441
 30
0.0
 11
80.38883635342953
 21
26.66628159496443
 31
0.0
  0
LINE
  5
313
  8
0_COMPONENTS
  6
CONTINUOUS
 62
     1
 10
80.38883635342953
 20
26.36317270276442
 30
0.0
 11
80.38883635342953
 21
25.69200301566443
 31
0.0
  0
LINE
  5
314
  8
0_COMPONENTS
  6
CONTINUOUS
 62
     1
 10
80.48883635392951
 20
27.03434239056443
 30
0.0
 11
80.48883635392951
 21
26.75288413426441
 31
0.0
  0
LINE
  5
315
  8
0_COMPONENTS
  6
CONTINUOUS
 62
     1
 10
80.52633635342951
 20
25.81108150786443
 30
0.0
 11
80.52633635342951
 21
26.32347987176442
 31
0.0
  0
LINE
  5
316
  8
0_COMPONENTS
  6
CONTINUOUS
 62
     1
 10
80.64864397452952
 20
25.61700301566444
 30
0.0
 11
80.64864397452952
 21
24.9241826917644
 31
0.0
  0
LINE
  5
317
  8
0_COMPONENTS
  6
CONTINUOUS
 62
     1
 10
80.78614397392953
 20
25.43297261666441
 30
0.0
 11
80.78614397392953
 21
25.73608150786441
 31
0.0
  0
LINE
  5
318
  8
0_COMPONENTS
  6
CONTINUOUS
 62
     1
 10
80.93124016392952
 20
27.41902977476443
 30
0.0
 11
80.93124016392952
 21
27.70048803126443
 31
0.0
  0
LINE
  5
319
  8
0_COMPONENTS
  6
CONTINUOUS
 62
     1
 10
81.18165667642953
 20
26.55288413466442
 30
0.0
 11
81.18165667642953
 21
27.11580064686441
 31
0.0
  0
LINE
  5
31A
  8
0_COMPONENTS
  6
CONTINUOUS
 62
     1
 10
81.21915667632952
 20
26.86681834336443
 30
0.0
 11
81.21915667632952
 21
26.58536008726443
 31
0.0
  0
LINE
  5
31B
  8
0_COMPONENTS
  6
CONTINUOUS
 62
     1
 10
81.35665667642952
 20
27.26735509256443
 30
0.0
 11
81.35665667642952
 21
26.95702932286443
 31
0.0
  0
LINE
  5
31C
  8
0_COMPONENTS
  6
CONTINUOUS
 62
     1
 10
81.36874016392952
 20
27.94947033476441
 30
0.0
 11
81.36874016392952
 21
27.79791588926443
 31
0.0
  0
LINE
  5
31D
  8
0_COMPONENTS
  6
CONTINUOUS
 62
     1
 10
81.94228788842952
 20
25.29407833236442
 30
0.0
 11
81.94228788842952
 21
25.09922261656442
 31
0.0
  0
LINE
  5
31E
  8
0_COMPONENTS
  6
CONTINUOUS
 62
     1
 10
82.80624016392952
 20
29.0428274068644
 30
0.0
 11
82.80624016392952
 21
29.32428566336441
 31
0.0
  0
LINE
  5
31F
  8
0_COMPONENTS
  6
CONTINUOUS
 62
     1
 10
83.25431637552953
 20
26.27931834346441
 30
0.0
 11
83.36681637642953
 21
26.37674620216441
 31
0.0
  0
LINE
  5
320
  8
0_COMPONENTS
  6
CONTINUOUS
 62
     1
 10
85.56681637422952
 20
28.28200208866443
 30
0.0
 11
85.67931637512952
 21
28.3794299473644
 31
0.0
  0
LINE
  5
321
  8
0_COMPONENTS
  6
CONTINUOUS
 62
     1
 10
83.52931637532951
 20
26.49582469426443
 30
0.0
 11
85.40431637532951
 21
28.11962232636441
 31
0.0
  0
LINE
  5
322
  8
0_COMPONENTS
  6
CONTINUOUS
 62
     1
 10
81.94228788862952
 20
25.0992226164644
 30
0.0
 11
82.11103788862953
 21
25.24536440336442
 31
0.0
  0
LINE
  5
323
  8
0_COMPONENTS
  6
CONTINUOUS
 62
     1
 10
85.81681637532952
 20
28.21705018426442
 30
0.0
 11
85.67931637532952
 21
28.09797169126441
 31
0.0
  0
LINE
  5
324
  8
0_COMPONENTS
  6
CONTINUOUS
 62
     1
 10
83.11681637532952
 20
25.8787815945644
 30
0.0
 11
83.25431637552953
 21
25.99786008776442
 31
0.0
  0
LINE
  5
325
  8
0_COMPONENTS
  6
CONTINUOUS
 62
     1
 10
83.52931637532951
 20
26.14941453276441
 30
0.0
 11
85.40431637532951
 21
27.77321216486442
 31
0.0
  0
LINE
  5
326
  8
0_COMPONENTS
  6
CONTINUOUS
 62
     1
 10
83.36681637642953
 20
25.92208286566441
 30
0.0
 11
85.56681637422952
 21
27.82733875206443
 31
0.0
  0
LINE
  5
327
  8
0_COMPONENTS
  6
CONTINUOUS
 62
     1
 10
83.25431637532952
 20
25.69475119576441
 30
0.0
 11
83.11681637532952
 21
25.57567270276442
 31
0.0
  0
LINE
  5
328
  8
0_COMPONENTS
  6
CONTINUOUS
 62
     1
 10
85.67931637532952
 20
27.79486279996442
 30
0.0
 11
85.81681637532952
 21
27.91394129296444
 31
0.0
  0
LINE
  5
329
  8
0_COMPONENTS
  6
CONTINUOUS
 62
     1
 10
83.25431637532952
 20
24.91532833236442
 30
0.0
 11
85.67931637532952
 21
27.01543993656443
 31
0.0
  0
LINE
  5
32A
  8
0_COMPONENTS
  6
CONTINUOUS
 62
     1
 10
83.11681637532952
 20
25.87878159496441
 30
0.0
 11
83.11681637532952
 21
25.57567270276442
 31
0.0
  0
LINE
  5
32B
  8
0_COMPONENTS
  6
CONTINUOUS
 62
     1
 10
83.25431637532952
 20
25.69475119576441
 30
0.0
 11
83.25431637532952
 21
24.91532833236442
 31
0.0
  0
LINE
  5
32C
  8
0_COMPONENTS
  6
CONTINUOUS
 62
     1
 10
83.25431637552953
 20
25.99786008776442
 30
0.0
 11
83.25431637552953
 21
26.27931834346441
 31
0.0
  0
LINE
  5
32D
  8
0_COMPONENTS
  6
CONTINUOUS
 62
     1
 10
83.36681637532952
 20
25.92208286426441
 30
0.0
 11
83.36681637532952
 21
26.37674620126441
 31
0.0
  0
LINE
  5
32E
  8
0_COMPONENTS
  6
CONTINUOUS
 62
     1
 10
83.50665667642951
 20
29.12930971066442
 30
0.0
 11
83.50665667642951
 21
28.79394014176441
 31
0.0
  0
LINE
  5
32F
  8
0_COMPONENTS
  6
CONTINUOUS
 62
     1
 10
83.52931637532951
 20
26.1494145330644
 30
0.0
 11
83.52931637532951
 21
26.49582469426443
 31
0.0
  0
LINE
  5
330
  8
0_COMPONENTS
  6
CONTINUOUS
 62
     1
 10
83.53165667642952
 20
28.78505659676441
 30
0.0
 11
83.53165667642952
 21
28.86950208956441
 31
0.0
  0
LINE
  5
331
  8
0_COMPONENTS
  6
CONTINUOUS
 62
     1
 10
83.68165667642953
 20
28.95610462996441
 30
0.0
 11
83.68165667642953
 21
29.2808641563644
 31
0.0
  0
LINE
  5
332
  8
0_COMPONENTS
  6
CONTINUOUS
 62
     1
 10
85.40431637532951
 20
27.77321216516444
 30
0.0
 11
85.40431637532951
 21
28.11962232636441
 31
0.0
  0
LINE
  5
333
  8
0_COMPONENTS
  6
CONTINUOUS
 62
     1
 10
85.56681637532952
 20
28.28200208956443
 30
0.0
 11
85.56681637532952
 21
27.82733875256443
 31
0.0
  0
LINE
  5
334
  8
0_COMPONENTS
  6
CONTINUOUS
 62
     1
 10
85.67931637532952
 20
28.37942994746442
 30
0.0
 11
85.67931637532952
 21
28.09797169126441
 31
0.0
  0
LINE
  5
335
  8
0_COMPONENTS
  6
CONTINUOUS
 62
     1
 10
85.67931637512952
 20
27.79486279916441
 30
0.0
 11
85.67931637512952
 21
27.0154399363644
 31
0.0
  0
LINE
  5
336
  8
0_COMPONENTS
  6
CONTINUOUS
 62
     1
 10
85.81681637532952
 20
27.91394129296444
 30
0.0
 11
85.81681637532952
 21
28.21705018516442
 31
0.0
  0
LINE
  5
337
  8
0_COMPONENTS
  6
CONTINUOUS
 62
     1
 10
43.81193415932979
 20
38.00251240078236
 30
0.0
 11
43.77550748952952
 21
37.8345675555644
 31
0.0
  0
LINE
  5
338
  8
0_COMPONENTS
  6
CONTINUOUS
 62
     1
 10
43.97528951466564
 20
38.49363027254594
 30
0.0
 11
43.81193415932979
 21
38.00251240078236
 31
0.0
  0
LINE
  5
339
  8
0_COMPONENTS
  6
CONTINUOUS
 62
     1
 10
44.2582351690095
 20
38.93092645155966
 30
0.0
 11
43.97528951466564
 21
38.49363027254594
 31
0.0
  0
LINE
  5
33A
  8
0_COMPONENTS
  6
CONTINUOUS
 62
     1
 10
44.38814145032952
 20
39.04342859106441
 30
0.0
 11
44.2582351690095
 21
38.93092645155966
 31
0.0
  0
LINE
  5
33B
  8
0_COMPONENTS
  6
CONTINUOUS
 62
     1
 10
45.1297848701158
 20
37.55370891835966
 30
0.0
 11
45.11311026512952
 21
37.44789411246441
 31
0.0
  0
LINE
  5
33C
  8
0_COMPONENTS
  6
CONTINUOUS
 62
     1
 10
45.21966521349115
 20
37.86395491258781
 30
0.0
 11
45.1297848701158
 21
37.55370891835966
 31
0.0
  0
LINE
  5
33D
  8
0_COMPONENTS
  6
CONTINUOUS
 62
     1
 10
45.38969766864679
 20
38.1411864771822
 30
0.0
 11
45.21966521349115
 21
37.86395491258781
 31
0.0
  0
LINE
  5
33E
  8
0_COMPONENTS
  6
CONTINUOUS
 62
     1
 10
45.47067320502951
 20
38.21131334876441
 30
0.0
 11
45.38969766864679
 21
38.1411864771822
 31
0.0
  0
LINE
  5
33F
  8
0_COMPONENTS
  6
CONTINUOUS
 62
     1
 10
45.57246448999689
 20
36.48767593896423
 30
0.0
 11
45.59596276602952
 21
36.51414017586441
 31
0.0
  0
LINE
  5
340
  8
0_COMPONENTS
  6
CONTINUOUS
 62
     1
 10
45.52242630690908
 20
36.43747950174341
 30
0.0
 11
45.57246448999689
 21
36.48767593896423
 31
0.0
  0
LINE
  5
341
  8
0_COMPONENTS
  6
CONTINUOUS
 62
     1
 10
45.49567320502951
 20
36.41431063596443
 30
0.0
 11
45.52242630690908
 21
36.43747950174341
 31
0.0
  0
LINE
  5
342
  8
0_COMPONENTS
  6
CONTINUOUS
 62
     1
 10
45.93630332575972
 20
38.86137313674422
 30
0.0
 11
45.87007410952952
 21
38.88048893966439
 31
0.0
  0
LINE
  5
343
  8
0_COMPONENTS
  6
CONTINUOUS
 62
     1
 10
46.08322794079102
 20
38.70703625634562
 30
0.0
 11
45.93630332575972
 21
38.86137313674422
 31
0.0
  0
LINE
  5
344
  8
0_COMPONENTS
  6
CONTINUOUS
 62
     1
 10
46.1387861204064
 20
38.50445227019915
 30
0.0
 11
46.08322794079102
 21
38.70703625634562
 31
0.0
  0
LINE
  5
345
  8
0_COMPONENTS
  6
CONTINUOUS
 62
     1
 10
46.15012993692952
 20
38.4364593231644
 30
0.0
 11
46.1387861204064
 21
38.50445227019915
 31
0.0
  0
LINE
  5
346
  8
0_COMPONENTS
  6
CONTINUOUS
 62
     1
 10
44.4909224803855
 20
39.13243957423725
 30
0.0
 11
44.41314145032952
 21
39.06507922616441
 31
0.0
  0
LINE
  5
347
  8
0_COMPONENTS
  6
CONTINUOUS
 62
     1
 10
44.6886832276149
 20
39.22152274522054
 30
0.0
 11
44.4909224803855
 21
39.13243957423725
 31
0.0
  0
LINE
  5
348
  8
0_COMPONENTS
  6
CONTINUOUS
 62
     1
 10
44.78754235472952
 20
39.19298893966439
 30
0.0
 11
44.6886832276149
 21
39.22152274522054
 31
0.0
  0
LINE
  5
349
  8
0_COMPONENTS
  6
CONTINUOUS
 62
     1
 10
45.50378741605601
 20
38.23999109679903
 30
0.0
 11
45.49567320502951
 21
38.23296398386444
 31
0.0
  0
LINE
  5
34A
  8
0_COMPONENTS
  6
CONTINUOUS
 62
     1
 10
45.52063752656256
 20
38.25331868270496
 30
0.0
 11
45.50378741605601
 21
38.23999109679903
 31
0.0
  0
LINE
  5
34B
  8
0_COMPONENTS
  6
CONTINUOUS
 62
     1
 10
45.52939131912953
 20
38.25953091666443
 30
0.0
 11
45.52063752656256
 21
38.25331868270496
 31
0.0
  0
LINE
  5
34C
  8
0_COMPONENTS
  6
CONTINUOUS
 62
     1
 10
44.89446591416455
 20
37.69001240078236
 30
0.0
 11
44.85803924422952
 21
37.5220675555644
 31
0.0
  0
LINE
  5
34D
  8
0_COMPONENTS
  6
CONTINUOUS
 62
     1
 10
45.05782126933975
 20
38.18113027254597
 30
0.0
 11
44.89446591416455
 21
37.69001240078236
 31
0.0
  0
LINE
  5
34E
  8
0_COMPONENTS
  6
CONTINUOUS
 62
     1
 10
45.34076692370952
 20
38.61842645155966
 30
0.0
 11
45.05782126933975
 21
38.18113027254597
 31
0.0
  0
LINE
  5
34F
  8
0_COMPONENTS
  6
CONTINUOUS
 62
     1
 10
45.47067320502951
 20
38.73092859106438
 30
0.0
 11
45.34076692370952
 21
38.61842645155966
 31
0.0
  0
LINE
  5
350
  8
0_COMPONENTS
  6
CONTINUOUS
 62
     1
 10
45.57345423508551
 20
38.81993957423725
 30
0.0
 11
45.49567320502951
 21
38.75257922616441
 31
0.0
  0
LINE
  5
351
  8
0_COMPONENTS
  6
CONTINUOUS
 62
     1
 10
45.77121498169836
 20
38.90902274522054
 30
0.0
 11
45.57345423508551
 21
38.81993957423725
 31
0.0
  0
LINE
  5
352
  8
0_COMPONENTS
  6
CONTINUOUS
 62
     1
 10
45.87007410952952
 20
38.88048893966439
 30
0.0
 11
45.77121498169836
 21
38.90902274522054
 31
0.0
  0
LINE
  5
353
  8
0
  6
CONTINUOUS
 62
     1
 10
37.0531455160713
 20
49.92021163299736
 30
0.0
 11
37.05631241902952
 21
49.92483879756443
 31
0.0
  0
LINE
  5
354
  8
0
  6
CONTINUOUS
 62
     1
 10
37.04505456711463
 20
49.91234517966868
 30
0.0
 11
37.0531455160713
 21
49.92021163299736
 31
0.0
  0
LINE
  5
355
  8
0
  6
CONTINUOUS
 62
     1
 10
37.04081597372951
 20
49.90867445026441
 30
0.0
 11
37.04505456711463
 21
49.91234517966868
 31
0.0
  0
LINE
  5
356
  8
0
  6
CONTINUOUS
 62
     1
 10
36.99346850565854
 20
49.8679540032556
 30
0.0
 11
37.04081597372951
 21
49.90867445026441
 31
0.0
  0
LINE
  5
357
  8
0
  6
CONTINUOUS
 62
     1
 10
36.8137309462646
 20
49.80515049863885
 30
0.0
 11
36.99346850565854
 21
49.8679540032556
 31
0.0
  0
LINE
  5
358
  8
0
  6
CONTINUOUS
 62
     1
 10
36.56384082728945
 20
49.78165382451745
 30
0.0
 11
36.8137309462646
 21
49.80515049863885
 31
0.0
  0
LINE
  5
359
  8
0
  6
CONTINUOUS
 62
     1
 10
36.3170681245321
 20
49.81124297449142
 30
0.0
 11
36.56384082728945
 21
49.78165382451745
 31
0.0
  0
LINE
  5
35A
  8
0
  6
CONTINUOUS
 62
     1
 10
36.12952618445649
 20
49.87344599710686
 30
0.0
 11
36.3170681245321
 21
49.81124297449142
 31
0.0
  0
LINE
  5
35B
  8
0
  6
CONTINUOUS
 62
     1
 10
36.09502800082953
 20
49.92550186036442
 30
0.0
 11
36.12952618445649
 21
49.87344599710686
 31
0.0
  0
LINE
  5
35C
  8
0
  6
CONTINUOUS
 62
     1
 10
38.35218362177129
 20
49.54521163299741
 30
0.0
 11
38.35535052472952
 21
49.54983879756441
 31
0.0
  0
LINE
  5
35D
  8
0
  6
CONTINUOUS
 62
     1
 10
38.34409267281464
 20
49.53734517966865
 30
0.0
 11
38.35218362177129
 21
49.54521163299741
 31
0.0
  0
LINE
  5
35E
  8
0
  6
CONTINUOUS
 62
     1
 10
38.33985407942951
 20
49.53367445026441
 30
0.0
 11
38.34409267281464
 21
49.53734517966865
 31
0.0
  0
LINE
  5
35F
  8
0
  6
CONTINUOUS
 62
     1
 10
38.29250661135855
 20
49.49295400325563
 30
0.0
 11
38.33985407942951
 21
49.53367445026441
 31
0.0
  0
LINE
  5
360
  8
0
  6
CONTINUOUS
 62
     1
 10
38.11276905197956
 20
49.43015049863888
 30
0.0
 11
38.29250661135855
 21
49.49295400325563
 31
0.0
  0
LINE
  5
361
  8
0
  6
CONTINUOUS
 62
     1
 10
37.86287893290474
 20
49.40665382451743
 30
0.0
 11
38.11276905197956
 21
49.43015049863888
 31
0.0
  0
LINE
  5
362
  8
0
  6
CONTINUOUS
 62
     1
 10
37.61610623021878
 20
49.43624297449142
 30
0.0
 11
37.86287893290474
 21
49.40665382451743
 31
0.0
  0
LINE
  5
363
  8
0
  6
CONTINUOUS
 62
     1
 10
37.4285642901564
 20
49.49844599710686
 30
0.0
 11
37.61610623021878
 21
49.43624297449142
 31
0.0
  0
LINE
  5
364
  8
0
  6
CONTINUOUS
 62
     1
 10
37.39406610652952
 20
49.55050186036442
 30
0.0
 11
37.4285642901564
 21
49.49844599710686
 31
0.0
  0
LINE
  5
365
  8
0
  6
CONTINUOUS
 62
     1
 10
39.65122172724033
 20
49.17021163299741
 30
0.0
 11
39.65438863042952
 21
49.17483879756442
 31
0.0
  0
LINE
  5
366
  8
0
  6
CONTINUOUS
 62
     1
 10
39.64313077840359
 20
49.16234517966866
 30
0.0
 11
39.65122172724033
 21
49.17021163299741
 31
0.0
  0
LINE
  5
367
  8
0
  6
CONTINUOUS
 62
     1
 10
39.63889218512952
 20
49.15867445026441
 30
0.0
 11
39.64313077840359
 21
49.16234517966866
 31
0.0
  0
LINE
  5
368
  8
0
  6
CONTINUOUS
 62
     1
 10
39.59154471705855
 20
49.11795400325563
 30
0.0
 11
39.63889218512952
 21
49.15867445026441
 31
0.0
  0
LINE
  5
369
  8
0
  6
CONTINUOUS
 62
     1
 10
39.41180715762549
 20
49.05515049863889
 30
0.0
 11
39.59154471705855
 21
49.11795400325563
 31
0.0
  0
LINE
  5
36A
  8
0
  6
CONTINUOUS
 62
     1
 10
39.16191703859116
 20
49.03165382451742
 30
0.0
 11
39.41180715762549
 21
49.05515049863889
 31
0.0
  0
LINE
  5
36B
  8
0
  6
CONTINUOUS
 62
     1
 10
38.91514433592116
 20
49.06124297449138
 30
0.0
 11
39.16191703859116
 21
49.03165382451742
 31
0.0
  0
LINE
  5
36C
  8
0
  6
CONTINUOUS
 62
     1
 10
38.72760239585651
 20
49.12344599710684
 30
0.0
 11
38.91514433592116
 21
49.06124297449138
 31
0.0
  0
LINE
  5
36D
  8
0
  6
CONTINUOUS
 62
     1
 10
38.69310421222951
 20
49.17550186036441
 30
0.0
 11
38.72760239585651
 21
49.12344599710684
 31
0.0
  0
LINE
  5
36E
  8
0
  6
CONTINUOUS
 62
     1
 10
40.95025983294033
 20
48.79521163299736
 30
0.0
 11
40.95342673612952
 21
48.79983879756442
 31
0.0
  0
LINE
  5
36F
  8
0
  6
CONTINUOUS
 62
     1
 10
40.94216888410358
 20
48.78734517966865
 30
0.0
 11
40.95025983294033
 21
48.79521163299736
 31
0.0
  0
LINE
  5
370
  8
0
  6
CONTINUOUS
 62
     1
 10
40.93793029082951
 20
48.7836744502644
 30
0.0
 11
40.94216888410358
 21
48.78734517966865
 31
0.0
  0
LINE
  5
371
  8
0
  6
CONTINUOUS
 62
     1
 10
40.89058282215836
 20
48.74295400325562
 30
0.0
 11
40.93793029082951
 21
48.7836744502644
 31
0.0
  0
LINE
  5
372
  8
0
  6
CONTINUOUS
 62
     1
 10
40.71084526346301
 20
48.68015049863894
 30
0.0
 11
40.89058282215836
 21
48.74295400325562
 31
0.0
  0
LINE
  5
373
  8
0
  6
CONTINUOUS
 62
     1
 10
40.46095514431204
 20
48.65665382451738
 30
0.0
 11
40.71084526346301
 21
48.68015049863894
 31
0.0
  0
LINE
  5
374
  8
0
  6
CONTINUOUS
 62
     1
 10
40.21418244135829
 20
48.68624297449142
 30
0.0
 11
40.46095514431204
 21
48.65665382451738
 31
0.0
  0
LINE
  5
375
  8
0
  6
CONTINUOUS
 62
     1
 10
40.02664050265801
 20
48.74844599710684
 30
0.0
 11
40.21418244135829
 21
48.68624297449142
 31
0.0
  0
LINE
  5
376
  8
0
  6
CONTINUOUS
 62
     1
 10
39.99214231782952
 20
48.80050186036442
 30
0.0
 11
40.02664050265801
 21
48.74844599710684
 31
0.0
  0
LINE
  5
377
  8
0
  6
CONTINUOUS
 62
     1
 10
41.13605620765955
 20
35.49014183730458
 30
0.0
 11
41.13260246392953
 21
35.31584704866444
 31
0.0
  0
LINE
  5
378
  8
0
  6
CONTINUOUS
 62
     1
 10
41.24332551734034
 20
36.00526231353084
 30
0.0
 11
41.13605620765955
 21
35.49014183730458
 31
0.0
  0
LINE
  5
379
  8
0
  6
CONTINUOUS
 62
     1
 10
41.50051753725612
 20
36.47027240147992
 30
0.0
 11
41.24332551734034
 21
36.00526231353084
 31
0.0
  0
LINE
  5
37A
  8
0
  6
CONTINUOUS
 62
     1
 10
41.63229787742952
 20
36.58439752396444
 30
0.0
 11
41.50051753725612
 21
36.47027240147992
 31
0.0
  0
LINE
  5
37B
  8
0
  6
CONTINUOUS
 62
     1
 10
42.29752723802351
 20
36.48043894749571
 30
0.0
 11
42.38869633352952
 21
36.40432868366443
 31
0.0
  0
LINE
  5
37C
  8
0
  6
CONTINUOUS
 62
     1
 10
42.08769969265507
 20
36.59718398450838
 30
0.0
 11
42.29752723802351
 21
36.48043894749571
 31
0.0
  0
LINE
  5
37D
  8
0
  6
CONTINUOUS
 62
     1
 10
41.97359619192953
 20
36.6301228278644
 30
0.0
 11
42.08769969265507
 21
36.59718398450838
 31
0.0
  0
LINE
  5
37E
  8
0
  6
CONTINUOUS
 62
     1
 10
26.53328469465197
 20
53.53944684793365
 30
0.0
 11
26.40268837222952
 21
53.42634839126441
 31
0.0
  0
LINE
  5
37F
  8
0
  6
CONTINUOUS
 62
     1
 10
26.89135780638878
 20
53.58436037955616
 30
0.0
 11
26.53328469465197
 21
53.53944684793365
 31
0.0
  0
LINE
  5
380
  8
0
  6
CONTINUOUS
 62
     1
 10
27.05734203282952
 20
53.53644486076442
 30
0.0
 11
26.89135780638878
 21
53.58436037955616
 31
0.0
  0
LINE
  5
381
  8
0
  6
CONTINUOUS
 62
     1
 10
15.62104386871955
 20
44.08916908093086
 30
0.0
 11
15.49044754682953
 21
43.97607062416441
 31
0.0
  0
LINE
  5
382
  8
0
  6
CONTINUOUS
 62
     1
 10
15.97911698125009
 20
44.13408261263851
 30
0.0
 11
15.62104386871955
 21
44.08916908093086
 31
0.0
  0
LINE
  5
383
  8
0
  6
CONTINUOUS
 62
     1
 10
16.14510120762952
 20
44.0861670938644
 30
0.0
 11
15.97911698125009
 21
44.13408261263851
 31
0.0
  0
LINE
  5
384
  8
0
  6
CONTINUOUS
 62
     1
 10
16.20670296752847
 20
43.92413464480944
 30
0.0
 11
16.23655181532952
 21
43.91551793666441
 31
0.0
  0
LINE
  5
385
  8
0
  6
CONTINUOUS
 62
     1
 10
16.11307876241915
 20
43.96728303696993
 30
0.0
 11
16.20670296752847
 21
43.92413464480944
 31
0.0
  0
LINE
  5
386
  8
0
  6
CONTINUOUS
 62
     1
 10
16.12161634062068
 20
44.06582840161316
 30
0.0
 11
16.11307876241915
 21
43.96728303696993
 31
0.0
  0
LINE
  5
387
  8
0
  6
CONTINUOUS
 62
     1
 10
16.14510120762952
 20
44.0861670938644
 30
0.0
 11
16.12161634062068
 21
44.06582840161316
 31
0.0
  0
LINE
  5
388
  8
0
  6
CONTINUOUS
 62
     1
 10
27.12451227621692
 20
53.5946154032145
 30
0.0
 11
27.05734203282952
 21
53.53644486076442
 31
0.0
  0
LINE
  5
389
  8
0
  6
CONTINUOUS
 62
     1
 10
27.31326876670761
 20
53.60681457363165
 30
0.0
 11
27.12451227621692
 21
53.5946154032145
 31
0.0
  0
LINE
  5
38A
  8
0
  6
CONTINUOUS
 62
     1
 10
27.39864034732952
 20
53.58217016456439
 30
0.0
 11
27.31326876670761
 21
53.60681457363165
 31
0.0
  0
LINE
  5
38B
  8
0
  6
CONTINUOUS
 62
     1
 10
52.82423525723057
 20
46.2424330438194
 30
0.0
 11
52.79438640942952
 21
46.2510497519644
 31
0.0
  0
LINE
  5
38C
  8
0
  6
CONTINUOUS
 62
     1
 10
52.91785946233991
 20
46.19928465158135
 30
0.0
 11
52.82423525723057
 21
46.2424330438194
 31
0.0
  0
LINE
  5
38D
  8
0
  6
CONTINUOUS
 62
     1
 10
52.90932188413838
 20
46.10073928701571
 30
0.0
 11
52.91785946233991
 21
46.19928465158135
 31
0.0
  0
LINE
  5
38E
  8
0
  6
CONTINUOUS
 62
     1
 10
52.88583701712952
 20
46.08040059476441
 30
0.0
 11
52.90932188413838
 21
46.10073928701571
 31
0.0
  0
LINE
  5
38F
  8
0
  6
CONTINUOUS
 62
     1
 10
41.90642594854206
 20
36.57195228541445
 30
0.0
 11
41.97359619192953
 21
36.6301228278644
 31
0.0
  0
LINE
  5
390
  8
0
  6
CONTINUOUS
 62
     1
 10
41.71766945776677
 20
36.55975311518191
 30
0.0
 11
41.90642594854206
 21
36.57195228541445
 31
0.0
  0
LINE
  5
391
  8
0
  6
CONTINUOUS
 62
     1
 10
41.63229787742952
 20
36.58439752396444
 30
0.0
 11
41.71766945776677
 21
36.55975311518191
 31
0.0
  0
LINE
  5
392
  8
0
  6
CONTINUOUS
 62
     1
 10
53.92311546545412
 20
45.23798952356381
 30
0.0
 11
53.91769962392952
 21
45.33570346446442
 31
0.0
  0
LINE
  5
393
  8
0
  6
CONTINUOUS
 62
     1
 10
53.82348448543361
 20
45.06087075238446
 30
0.0
 11
53.92311546545412
 21
45.23798952356381
 31
0.0
  0
LINE
  5
394
  8
0
  6
CONTINUOUS
 62
     1
 10
53.75133486162952
 20
44.99475133496443
 30
0.0
 11
53.82348448543361
 21
45.06087075238446
 31
0.0
  0
LINE
  5
395
  8
0
  6
CONTINUOUS
 62
     1
 10
27.60275575166077
 20
53.69805434750455
 30
0.0
 11
27.67598714752953
 21
53.67691459046441
 31
0.0
  0
LINE
  5
396
  8
0
  6
CONTINUOUS
 62
     1
 10
27.45625843302368
 20
53.63206889068701
 30
0.0
 11
27.60275575166077
 21
53.69805434750455
 31
0.0
  0
LINE
  5
397
  8
0
  6
CONTINUOUS
 62
     1
 10
27.39864034732952
 20
53.58217016456439
 30
0.0
 11
27.45625843302368
 21
53.63206889068701
 31
0.0
  0
LINE
  5
398
  8
0
  6
CONTINUOUS
 62
     1
 10
52.99849642823445
 20
46.36693275984497
 30
0.0
 11
53.07172701522953
 21
46.34579596596441
 31
0.0
  0
LINE
  5
399
  8
0
  6
CONTINUOUS
 62
     1
 10
52.85200328637417
 20
46.30094743126151
 30
0.0
 11
52.99849642823445
 21
46.36693275984497
 31
0.0
  0
LINE
  5
39A
  8
0
  6
CONTINUOUS
 62
     1
 10
52.79438640942952
 20
46.2510497519644
 30
0.0
 11
52.85200328637417
 21
46.30094743126151
 31
0.0
  0
LINE
  5
39B
  8
0
  6
CONTINUOUS
 62
     1
 10
35.90581491924465
 20
50.26319512556148
 30
0.0
 11
35.94729370872952
 21
50.29911681086443
 31
0.0
  0
LINE
  5
39C
  8
0
  6
CONTINUOUS
 62
     1
 10
35.81944636618498
 20
50.10836942961492
 30
0.0
 11
35.90581491924465
 21
50.26319512556148
 31
0.0
  0
LINE
  5
39D
  8
0
  6
CONTINUOUS
 62
     1
 10
35.95047423857788
 20
49.91416567409351
 30
0.0
 11
35.81944636618498
 21
50.10836942961492
 31
0.0
  0
LINE
  5
39E
  8
0
  6
CONTINUOUS
 62
     1
 10
36.15008479960218
 20
49.81740683874426
 30
0.0
 11
35.95047423857788
 21
49.91416567409351
 31
0.0
  0
LINE
  5
39F
  8
0
  6
CONTINUOUS
 62
     1
 10
36.41768108633232
 20
49.75325243585112
 30
0.0
 11
36.15008479960218
 21
49.81740683874426
 31
0.0
  0
LINE
  5
3A0
  8
0
  6
CONTINUOUS
 62
     1
 10
36.80460755984608
 20
49.75477396513624
 30
0.0
 11
36.41768108633232
 21
49.75325243585112
 31
0.0
  0
LINE
  5
3A1
  8
0
  6
CONTINUOUS
 62
     1
 10
37.12152181261409
 20
49.86435519413621
 30
0.0
 11
36.80460755984608
 21
49.75477396513624
 31
0.0
  0
LINE
  5
3A2
  8
0
  6
CONTINUOUS
 62
     1
 10
37.20447939142953
 20
49.93619856466442
 30
0.0
 11
37.12152181261409
 21
49.86435519413621
 31
0.0
  0
LINE
  5
3A3
  8
0
  6
CONTINUOUS
 62
     1
 10
37.24595818072616
 20
49.97212024996733
 30
0.0
 11
37.20447939142953
 21
49.93619856466442
 31
0.0
  0
LINE
  5
3A4
  8
0
  6
CONTINUOUS
 62
     1
 10
37.33232673402949
 20
50.12694594592075
 30
0.0
 11
37.24595818072616
 21
49.97212024996733
 31
0.0
  0
LINE
  5
3A5
  8
0
  6
CONTINUOUS
 62
     1
 10
37.20129886150946
 20
50.32114970137525
 30
0.0
 11
37.33232673402949
 21
50.12694594592075
 31
0.0
  0
LINE
  5
3A6
  8
0
  6
CONTINUOUS
 62
     1
 10
37.00168830056516
 20
50.41790853667716
 30
0.0
 11
37.20129886150946
 21
50.32114970137525
 31
0.0
  0
LINE
  5
3A7
  8
0
  6
CONTINUOUS
 62
     1
 10
36.7340920138239
 20
50.48206293961289
 30
0.0
 11
37.00168830056516
 21
50.41790853667716
 31
0.0
  0
LINE
  5
3A8
  8
0
  6
CONTINUOUS
 62
     1
 10
36.34716554030757
 20
50.48054141034652
 30
0.0
 11
36.7340920138239
 21
50.48206293961289
 31
0.0
  0
LINE
  5
3A9
  8
0
  6
CONTINUOUS
 62
     1
 10
36.03025128721916
 20
50.37096018139252
 30
0.0
 11
36.34716554030757
 21
50.48054141034652
 31
0.0
  0
LINE
  5
3AA
  8
0
  6
CONTINUOUS
 62
     1
 10
35.94729370872952
 20
50.29911681086443
 30
0.0
 11
36.03025128721916
 21
50.37096018139252
 31
0.0
  0
LINE
  5
3AB
  8
0
  6
CONTINUOUS
 62
     1
 10
15.74165573072311
 20
42.8303300983553
 30
0.0
 11
15.73709639962952
 21
42.65735860856442
 31
0.0
  0
LINE
  5
3AC
  8
0
  6
CONTINUOUS
 62
     1
 10
15.84970962467766
 20
43.34121277795323
 30
0.0
 11
15.74165573072311
 21
42.8303300983553
 31
0.0
  0
LINE
  5
3AD
  8
0
  6
CONTINUOUS
 62
     1
 10
16.10575224385713
 20
43.8022421849968
 30
0.0
 11
15.84970962467766
 21
43.34121277795323
 31
0.0
  0
LINE
  5
3AE
  8
0
  6
CONTINUOUS
 62
     1
 10
16.23655181532952
 20
43.91551793666441
 30
0.0
 11
16.10575224385713
 21
43.8022421849968
 31
0.0
  0
LINE
  5
3AF
  8
0
  6
CONTINUOUS
 62
     1
 10
37.20485302503289
 20
49.88819512556151
 30
0.0
 11
37.24633181432952
 21
49.92411681086442
 31
0.0
  0
LINE
  5
3B0
  8
0
  6
CONTINUOUS
 62
     1
 10
37.11848447178991
 20
49.7333694296149
 30
0.0
 11
37.20485302503289
 21
49.88819512556151
 31
0.0
  0
LINE
  5
3B1
  8
0
  6
CONTINUOUS
 62
     1
 10
37.2495123442915
 20
49.5391656740935
 30
0.0
 11
37.11848447178991
 21
49.7333694296149
 31
0.0
  0
LINE
  5
3B2
  8
0
  6
CONTINUOUS
 62
     1
 10
37.44912290531553
 20
49.44240683874429
 30
0.0
 11
37.2495123442915
 21
49.5391656740935
 31
0.0
  0
LINE
  5
3B3
  8
0
  6
CONTINUOUS
 62
     1
 10
37.71671919189549
 20
49.37825243585114
 30
0.0
 11
37.44912290531553
 21
49.44240683874429
 31
0.0
  0
LINE
  5
3B4
  8
0
  6
CONTINUOUS
 62
     1
 10
38.10364566556541
 20
49.37977396513617
 30
0.0
 11
37.71671919189549
 21
49.37825243585114
 31
0.0
  0
LINE
  5
3B5
  8
0
  6
CONTINUOUS
 62
     1
 10
38.4205599183141
 20
49.48935519413624
 30
0.0
 11
38.10364566556541
 21
49.37977396513617
 31
0.0
  0
LINE
  5
3B6
  8
0
  6
CONTINUOUS
 62
     1
 10
38.50351749712952
 20
49.56119856466441
 30
0.0
 11
38.4205599183141
 21
49.48935519413624
 31
0.0
  0
LINE
  5
3B7
  8
0
  6
CONTINUOUS
 62
     1
 10
38.54499628642616
 20
49.59712024996732
 30
0.0
 11
38.50351749712952
 21
49.56119856466441
 31
0.0
  0
LINE
  5
3B8
  8
0
  6
CONTINUOUS
 62
     1
 10
38.63136483973875
 20
49.7519459459208
 30
0.0
 11
38.54499628642616
 21
49.59712024996732
 31
0.0
  0
LINE
  5
3B9
  8
0
  6
CONTINUOUS
 62
     1
 10
38.50033696713561
 20
49.94614970137528
 30
0.0
 11
38.63136483973875
 21
49.7519459459208
 31
0.0
  0
LINE
  5
3BA
  8
0
  6
CONTINUOUS
 62
     1
 10
38.30072640627716
 20
50.0429085366771
 30
0.0
 11
38.50033696713561
 21
49.94614970137528
 31
0.0
  0
LINE
  5
3BB
  8
0
  6
CONTINUOUS
 62
     1
 10
38.03313011952301
 20
50.10706293961294
 30
0.0
 11
38.30072640627716
 21
50.0429085366771
 31
0.0
  0
LINE
  5
3BC
  8
0
  6
CONTINUOUS
 62
     1
 10
37.64620364595326
 20
50.10554141034649
 30
0.0
 11
38.03313011952301
 21
50.10706293961294
 31
0.0
  0
LINE
  5
3BD
  8
0
  6
CONTINUOUS
 62
     1
 10
37.32928939314495
 20
49.99596018139258
 30
0.0
 11
37.64620364595326
 21
50.10554141034649
 31
0.0
  0
LINE
  5
3BE
  8
0
  6
CONTINUOUS
 62
     1
 10
37.24633181432952
 20
49.92411681086442
 30
0.0
 11
37.32928939314495
 21
49.99596018139258
 31
0.0
  0
LINE
  5
3BF
  8
0
  6
CONTINUOUS
 62
     1
 10
38.50389113073288
 20
49.51319512556148
 30
0.0
 11
38.54536992002951
 21
49.54911681086442
 31
0.0
  0
LINE
  5
3C0
  8
0
  6
CONTINUOUS
 62
     1
 10
38.4175225774899
 20
49.3583694296149
 30
0.0
 11
38.50389113073288
 21
49.51319512556148
 31
0.0
  0
LINE
  5
3C1
  8
0
  6
CONTINUOUS
 62
     1
 10
38.54855044999148
 20
49.16416567409348
 30
0.0
 11
38.4175225774899
 21
49.3583694296149
 31
0.0
  0
LINE
  5
3C2
  8
0
  6
CONTINUOUS
 62
     1
 10
38.74816101101554
 20
49.06740683874429
 30
0.0
 11
38.54855044999148
 21
49.16416567409348
 31
0.0
  0
LINE
  5
3C3
  8
0
  6
CONTINUOUS
 62
     1
 10
39.0157572975955
 20
49.00325243585105
 30
0.0
 11
38.74816101101554
 21
49.06740683874429
 31
0.0
  0
LINE
  5
3C4
  8
0
  6
CONTINUOUS
 62
     1
 10
39.4026837712654
 20
49.00477396513618
 30
0.0
 11
39.0157572975955
 21
49.00325243585105
 31
0.0
  0
LINE
  5
3C5
  8
0
  6
CONTINUOUS
 62
     1
 10
39.71959802401412
 20
49.11435519413627
 30
0.0
 11
39.4026837712654
 21
49.00477396513618
 31
0.0
  0
LINE
  5
3C6
  8
0
  6
CONTINUOUS
 62
     1
 10
39.80255560282953
 20
49.18619856466444
 30
0.0
 11
39.71959802401412
 21
49.11435519413627
 31
0.0
  0
LINE
  5
3C7
  8
0
  6
CONTINUOUS
 62
     1
 10
39.84403439212616
 20
49.22212024996733
 30
0.0
 11
39.80255560282953
 21
49.18619856466444
 31
0.0
  0
LINE
  5
3C8
  8
0
  6
CONTINUOUS
 62
     1
 10
39.93040294536917
 20
49.37694594592078
 30
0.0
 11
39.84403439212616
 21
49.22212024996733
 31
0.0
  0
LINE
  5
3C9
  8
0
  6
CONTINUOUS
 62
     1
 10
39.79937507286753
 20
49.57114970137528
 30
0.0
 11
39.93040294536917
 21
49.37694594592078
 31
0.0
  0
LINE
  5
3CA
  8
0
  6
CONTINUOUS
 62
     1
 10
39.5997645118435
 20
49.66790853667712
 30
0.0
 11
39.79937507286753
 21
49.57114970137528
 31
0.0
  0
LINE
  5
3CB
  8
0
  6
CONTINUOUS
 62
     1
 10
39.33216822526353
 20
49.73206293961294
 30
0.0
 11
39.5997645118435
 21
49.66790853667712
 31
0.0
  0
LINE
  5
3CC
  8
0
  6
CONTINUOUS
 62
     1
 10
38.94524175159364
 20
49.73054141034649
 30
0.0
 11
39.33216822526353
 21
49.73206293961294
 31
0.0
  0
LINE
  5
3CD
  8
0
  6
CONTINUOUS
 62
     1
 10
38.62832749884493
 20
49.62096018139252
 30
0.0
 11
38.94524175159364
 21
49.73054141034649
 31
0.0
  0
LINE
  5
3CE
  8
0
  6
CONTINUOUS
 62
     1
 10
38.54536992002951
 20
49.54911681086442
 30
0.0
 11
38.62832749884493
 21
49.62096018139252
 31
0.0
  0
LINE
  5
3CF
  8
0
  6
CONTINUOUS
 62
     1
 10
39.80292923643287
 20
49.13819512556151
 30
0.0
 11
39.84440802572952
 21
49.1741168108644
 31
0.0
  0
LINE
  5
3D0
  8
0
  6
CONTINUOUS
 62
     1
 10
39.71656068312032
 20
48.98336942961491
 30
0.0
 11
39.80292923643287
 21
49.13819512556151
 31
0.0
  0
LINE
  5
3D1
  8
0
  6
CONTINUOUS
 62
     1
 10
39.84758855572341
 20
48.78916567409348
 30
0.0
 11
39.71656068312032
 21
48.98336942961491
 31
0.0
  0
LINE
  5
3D2
  8
0
  6
CONTINUOUS
 62
     1
 10
40.04719911658182
 20
48.69240683874429
 30
0.0
 11
39.84758855572341
 21
48.78916567409348
 31
0.0
  0
LINE
  5
3D3
  8
0
  6
CONTINUOUS
 62
     1
 10
40.31479540333609
 20
48.62825243585111
 30
0.0
 11
40.04719911658182
 21
48.69240683874429
 31
0.0
  0
LINE
  5
3D4
  8
0
  6
CONTINUOUS
 62
     1
 10
40.70172187690579
 20
48.62977396513617
 30
0.0
 11
40.31479540333609
 21
48.62825243585111
 31
0.0
  0
LINE
  5
3D5
  8
0
  6
CONTINUOUS
 62
     1
 10
41.01863612971411
 20
48.73935519413621
 30
0.0
 11
40.70172187690579
 21
48.62977396513617
 31
0.0
  0
LINE
  5
3D6
  8
0
  6
CONTINUOUS
 62
     1
 10
41.10159370852952
 20
48.81119856466444
 30
0.0
 11
41.01863612971411
 21
48.73935519413621
 31
0.0
  0
LINE
  5
3D7
  8
0
  6
CONTINUOUS
 62
     1
 10
41.14307249782615
 20
48.84712024996729
 30
0.0
 11
41.10159370852952
 21
48.81119856466444
 31
0.0
  0
LINE
  5
3D8
  8
0
  6
CONTINUOUS
 62
     1
 10
41.22944105106964
 20
49.00194594592078
 30
0.0
 11
41.14307249782615
 21
48.84712024996729
 31
0.0
  0
LINE
  5
3D9
  8
0
  6
CONTINUOUS
 62
     1
 10
41.09841317856475
 20
49.19614970137528
 30
0.0
 11
41.22944105106964
 21
49.00194594592078
 31
0.0
  0
LINE
  5
3DA
  8
0
  6
CONTINUOUS
 62
     1
 10
40.89880261755971
 20
49.29290853667709
 30
0.0
 11
41.09841317856475
 21
49.19614970137528
 31
0.0
  0
LINE
  5
3DB
  8
0
  6
CONTINUOUS
 62
     1
 10
40.63120633082511
 20
49.35706293961293
 30
0.0
 11
40.89880261755971
 21
49.29290853667709
 31
0.0
  0
LINE
  5
3DC
  8
0
  6
CONTINUOUS
 62
     1
 10
40.24427985732163
 20
49.35554141034649
 30
0.0
 11
40.63120633082511
 21
49.35706293961293
 31
0.0
  0
LINE
  5
3DD
  8
0
  6
CONTINUOUS
 62
     1
 10
39.92736560454492
 20
49.24596018139258
 30
0.0
 11
40.24427985732163
 21
49.35554141034649
 31
0.0
  0
LINE
  5
3DE
  8
0
  6
CONTINUOUS
 62
     1
 10
39.84440802572952
 20
49.1741168108644
 30
0.0
 11
39.92736560454492
 21
49.24596018139258
 31
0.0
  0
LINE
  5
3DF
  8
0
  6
CONTINUOUS
 62
     1
 10
15.62224158235018
 20
42.68390792630154
 30
0.0
 11
15.72827520292952
 21
42.64971236346443
 31
0.0
  0
LINE
  5
3E0
  8
0
  6
CONTINUOUS
 62
     1
 10
15.31289959772698
 20
42.82178834395508
 30
0.0
 11
15.62224158235018
 21
42.68390792630154
 31
0.0
  0
LINE
  5
3E1
  8
0
  6
CONTINUOUS
 62
     1
 10
15.10711511177415
 20
43.10440406112006
 30
0.0
 11
15.31289959772698
 21
42.82178834395508
 31
0.0
  0
LINE
  5
3E2
  8
0
  6
CONTINUOUS
 62
     1
 10
15.11319145512952
 20
43.2156494800644
 30
0.0
 11
15.10711511177415
 21
43.10440406112006
 31
0.0
  0
LINE
  5
3E3
  8
0
  6
CONTINUOUS
 62
     1
 10
40.02946518273923
 20
48.90926865396153
 30
0.0
 11
40.05762515872952
 21
48.93365590866442
 31
0.0
  0
LINE
  5
3E4
  8
0
  6
CONTINUOUS
 62
     1
 10
39.99092176849425
 20
48.84192849603649
 30
0.0
 11
40.02946518273923
 21
48.90926865396153
 31
0.0
  0
LINE
  5
3E5
  8
0
  6
CONTINUOUS
 62
     1
 10
39.99370171872953
 20
48.80478022176443
 30
0.0
 11
39.99092176849425
 21
48.84192849603649
 31
0.0
  0
LINE
  5
3E6
  8
0
  6
CONTINUOUS
 62
     1
 10
38.73042707703922
 20
49.28426865396156
 30
0.0
 11
38.75858705302952
 21
49.30865590866442
 31
0.0
  0
LINE
  5
3E7
  8
0
  6
CONTINUOUS
 62
     1
 10
38.69188366279425
 20
49.21692849603649
 30
0.0
 11
38.73042707703922
 21
49.28426865396156
 31
0.0
  0
LINE
  5
3E8
  8
0
  6
CONTINUOUS
 62
     1
 10
38.69466361302952
 20
49.1797802217644
 30
0.0
 11
38.69188366279425
 21
49.21692849603649
 31
0.0
  0
LINE
  5
3E9
  8
0
  6
CONTINUOUS
 62
     1
 10
37.43138897160412
 20
49.65926865396155
 30
0.0
 11
37.45954894732952
 21
49.68365590866441
 31
0.0
  0
LINE
  5
3EA
  8
0
  6
CONTINUOUS
 62
     1
 10
37.39284555709428
 20
49.5919284960365
 30
0.0
 11
37.43138897160412
 21
49.65926865396155
 31
0.0
  0
LINE
  5
3EB
  8
0
  6
CONTINUOUS
 62
     1
 10
37.39562550732951
 20
49.55478022176442
 30
0.0
 11
37.39284555709428
 21
49.5919284960365
 31
0.0
  0
LINE
  5
3EC
  8
0
  6
CONTINUOUS
 62
     1
 10
36.13235086573923
 20
50.03426865396153
 30
0.0
 11
36.16051084172952
 21
50.05865590866443
 31
0.0
  0
LINE
  5
3ED
  8
0
  6
CONTINUOUS
 62
     1
 10
36.09380745139428
 20
49.96692849603647
 30
0.0
 11
36.13235086573923
 21
50.03426865396153
 31
0.0
  0
LINE
  5
3EE
  8
0
  6
CONTINUOUS
 62
     1
 10
36.09658740162952
 20
49.92978022176442
 30
0.0
 11
36.09380745139428
 21
49.96692849603647
 31
0.0
  0
LINE
  5
3EF
  8
0
  6
CONTINUOUS
 62
     1
 10
20.94125997820127
 20
47.13224074146092
 30
0.0
 11
20.94095584842952
 21
47.13440323816441
 31
0.0
  0
LINE
  5
3F0
  8
0
  6
CONTINUOUS
 62
     1
 10
20.941173265668
 20
47.12784170553211
 30
0.0
 11
20.94125997820127
 21
47.13224074146092
 31
0.0
  0
LINE
  5
3F1
  8
0
  6
CONTINUOUS
 62
     1
 10
20.94080736422953
 20
47.12568879986443
 30
0.0
 11
20.941173265668
 21
47.12784170553211
 31
0.0
  0
LINE
  5
3F2
  8
0
  6
CONTINUOUS
 62
     1
 10
42.10942151887773
 20
35.24453313811796
 30
0.0
 11
42.42116664232952
 21
35.33857641816442
 31
0.0
  0
LINE
  5
3F3
  8
0
  6
CONTINUOUS
 62
     1
 10
41.4477367503364
 20
35.23387423572902
 30
0.0
 11
42.10942151887773
 21
35.24453313811796
 31
0.0
  0
LINE
  5
3F4
  8
0
  6
CONTINUOUS
 62
     1
 10
41.13260246392953
 20
35.31584704866444
 30
0.0
 11
41.4477367503364
 21
35.23387423572902
 31
0.0
  0
LINE
  5
3F5
  8
0
  6
CONTINUOUS
 62
     1
 10
40.95925485989629
 20
48.86410581144052
 30
0.0
 11
40.95183639102953
 21
48.79991082716441
 31
0.0
  0
LINE
  5
3F6
  8
0
  6
CONTINUOUS
 62
     1
 10
40.80632371468624
 20
49.00651269928687
 30
0.0
 11
40.95925485989629
 21
48.86410581144052
 31
0.0
  0
LINE
  5
3F7
  8
0
  6
CONTINUOUS
 62
     1
 10
40.48682984513232
 20
49.07128669193463
 30
0.0
 11
40.80632371468624
 21
49.00651269928687
 31
0.0
  0
LINE
  5
3F8
  8
0
  6
CONTINUOUS
 62
     1
 10
40.15532475232905
 20
49.01826623898879
 30
0.0
 11
40.48682984513232
 21
49.07128669193463
 31
0.0
  0
LINE
  5
3F9
  8
0
  6
CONTINUOUS
 62
     1
 10
40.05762515872952
 20
48.93365590866442
 30
0.0
 11
40.15532475232905
 21
49.01826623898879
 31
0.0
  0
LINE
  5
3FA
  8
0
  6
CONTINUOUS
 62
     1
 10
39.66021675381286
 20
49.23910581144052
 30
0.0
 11
39.65279828542951
 21
49.17491082716441
 31
0.0
  0
LINE
  5
3FB
  8
0
  6
CONTINUOUS
 62
     1
 10
39.50728560905856
 20
49.38151269928693
 30
0.0
 11
39.66021675381286
 21
49.23910581144052
 31
0.0
  0
LINE
  5
3FC
  8
0
  6
CONTINUOUS
 62
     1
 10
39.18779173954107
 20
49.4462866919346
 30
0.0
 11
39.50728560905856
 21
49.38151269928693
 31
0.0
  0
LINE
  5
3FD
  8
0
  6
CONTINUOUS
 62
     1
 10
38.85628664662906
 20
49.39326623898879
 30
0.0
 11
39.18779173954107
 21
49.4462866919346
 31
0.0
  0
LINE
  5
3FE
  8
0
  6
CONTINUOUS
 62
     1
 10
38.75858705302952
 20
49.30865590866442
 30
0.0
 11
38.85628664662906
 21
49.39326623898879
 31
0.0
  0
LINE
  5
3FF
  8
0
  6
CONTINUOUS
 62
     1
 10
38.36117864859634
 20
49.61410581144051
 30
0.0
 11
38.35376017972952
 21
49.54991082716441
 31
0.0
  0
LINE
  5
400
  8
0
  6
CONTINUOUS
 62
     1
 10
38.20824750325224
 20
49.75651269928694
 30
0.0
 11
38.36117864859634
 21
49.61410581144051
 31
0.0
  0
LINE
  5
401
  8
0
  6
CONTINUOUS
 62
     1
 10
37.88875363381474
 20
49.82128669193457
 30
0.0
 11
38.20824750325224
 21
49.75651269928694
 31
0.0
  0
LINE
  5
402
  8
0
  6
CONTINUOUS
 62
     1
 10
37.55724854161758
 20
49.76826623898879
 30
0.0
 11
37.88875363381474
 21
49.82128669193457
 31
0.0
  0
LINE
  5
403
  8
0
  6
CONTINUOUS
 62
     1
 10
37.45954894732952
 20
49.68365590866441
 30
0.0
 11
37.55724854161758
 21
49.76826623898879
 31
0.0
  0
LINE
  5
404
  8
0
  6
CONTINUOUS
 62
     1
 10
37.06214054289633
 20
49.98910581144051
 30
0.0
 11
37.05472207402951
 21
49.92491082716441
 31
0.0
  0
LINE
  5
405
  8
0
  6
CONTINUOUS
 62
     1
 10
36.90920939758499
 20
50.1315126992869
 30
0.0
 11
37.06214054289633
 21
49.98910581144051
 31
0.0
  0
LINE
  5
406
  8
0
  6
CONTINUOUS
 62
     1
 10
36.5897155281605
 20
50.19628669193463
 30
0.0
 11
36.90920939758499
 21
50.1315126992869
 31
0.0
  0
LINE
  5
407
  8
0
  6
CONTINUOUS
 62
     1
 10
36.25821043532912
 20
50.1432662389888
 30
0.0
 11
36.5897155281605
 21
50.19628669193463
 31
0.0
  0
LINE
  5
408
  8
0
  6
CONTINUOUS
 62
     1
 10
36.16051084172952
 20
50.05865590866443
 30
0.0
 11
36.25821043532912
 21
50.1432662389888
 31
0.0
  0
LINE
  5
409
  8
06___PRT_ALL_SURFS
  6
CONTINUOUS
 62
     1
 10
33.39812785264698
 20
31.55727909228403
 30
0.0
 11
33.40856155672952
 21
31.56852649956443
 31
0.0
  0
LINE
  5
40A
  8
06___PRT_ALL_SURFS
  6
CONTINUOUS
 62
     1
 10
33.38476526981555
 20
31.52853606047847
 30
0.0
 11
33.39812785264698
 21
31.55727909228403
 31
0.0
  0
LINE
  5
40B
  8
06___PRT_ALL_SURFS
  6
CONTINUOUS
 62
     1
 10
33.38543921412952
 20
31.51320921616443
 30
0.0
 11
33.38476526981555
 21
31.52853606047847
 31
0.0
  0
LINE
  5
40C
  8
0
  6
CONTINUOUS
 62
     1
 10
54.93241556999963
 20
37.79133482943169
 30
0.0
 11
54.93371225822952
 21
37.85569129026442
 31
0.0
  0
LINE
  5
40D
  8
0
  6
CONTINUOUS
 62
     1
 10
54.86226575824713
 20
37.67814266953471
 30
0.0
 11
54.93241556999963
 21
37.79133482943169
 31
0.0
  0
LINE
  5
40E
  8
0
  6
CONTINUOUS
 62
     1
 10
54.81360697272952
 20
37.63600292516443
 30
0.0
 11
54.86226575824713
 21
37.67814266953471
 31
0.0
  0
LINE
  5
40F
  8
0
  6
CONTINUOUS
 62
     1
 10
55.79033185958735
 20
37.93553388876163
 30
0.0
 11
55.78658364022952
 21
37.84257371786441
 31
0.0
  0
LINE
  5
410
  8
0
  6
CONTINUOUS
 62
     1
 10
55.68087907524985
 20
38.19992271205538
 30
0.0
 11
55.79033185958735
 21
37.93553388876163
 31
0.0
  0
LINE
  5
411
  8
0
  6
CONTINUOUS
 62
     1
 10
55.4574393333064
 20
38.37502284277181
 30
0.0
 11
55.68087907524985
 21
38.19992271205538
 31
0.0
  0
LINE
  5
412
  8
0
  6
CONTINUOUS
 62
     1
 10
55.37751685782952
 20
38.42264679146442
 30
0.0
 11
55.4574393333064
 21
38.37502284277181
 31
0.0
  0
LINE
  5
413
  8
0
  6
CONTINUOUS
 62
     1
 10
53.3052979870142
 20
39.85797939956234
 30
0.0
 11
53.30979647682952
 21
39.94869878986444
 31
0.0
  0
LINE
  5
414
  8
0
  6
CONTINUOUS
 62
     1
 10
53.35464049938351
 20
39.67648167943474
 30
0.0
 11
53.3052979870142
 21
39.85797939956234
 31
0.0
  0
LINE
  5
415
  8
0
  6
CONTINUOUS
 62
     1
 10
53.41823085822952
 20
39.6116240625644
 30
0.0
 11
53.35464049938351
 21
39.67648167943474
 31
0.0
  0
LINE
  5
416
  8
0
  6
CONTINUOUS
 62
     1
 10
29.26069072646527
 20
32.60971754918563
 30
0.0
 11
28.74379750522952
 21
32.75893178976443
 31
0.0
  0
LINE
  5
417
  8
0
  6
CONTINUOUS
 62
     1
 10
30.35788382254128
 20
32.63215119316081
 30
0.0
 11
29.26069072646527
 21
32.60971754918563
 31
0.0
  0
LINE
  5
418
  8
0
  6
CONTINUOUS
 62
     1
 10
30.86340313992952
 20
32.81625364126444
 30
0.0
 11
30.35788382254128
 21
32.63215119316081
 31
0.0
  0
LINE
  5
419
  8
0
  6
CONTINUOUS
 62
     1
 10
27.67706386109313
 20
33.54047585603811
 30
0.0
 11
27.66539272182952
 21
33.73316149496443
 31
0.0
  0
LINE
  5
41A
  8
0
  6
CONTINUOUS
 62
     1
 10
28.0173626305163
 20
33.04707747943695
 30
0.0
 11
27.67706386109313
 21
33.54047585603811
 31
0.0
  0
LINE
  5
41B
  8
0
  6
CONTINUOUS
 62
     1
 10
28.55833184557385
 20
32.81247112117467
 30
0.0
 11
28.0173626305163
 21
33.04707747943695
 31
0.0
  0
LINE
  5
41C
  8
0
  6
CONTINUOUS
 62
     1
 10
28.74379750522952
 20
32.75893178976443
 30
0.0
 11
28.55833184557385
 21
32.81247112117467
 31
0.0
  0
LINE
  5
41D
  8
0
  6
CONTINUOUS
 62
     1
 10
54.66368853678787
 20
36.06765343028931
 30
0.0
 11
54.44979836012952
 21
36.03895936646441
 31
0.0
  0
LINE
  5
41E
  8
0
  6
CONTINUOUS
 62
     1
 10
55.18812011813765
 20
36.21716028170025
 30
0.0
 11
54.66368853678787
 21
36.06765343028931
 31
0.0
  0
LINE
  5
41F
  8
0
  6
CONTINUOUS
 62
     1
 10
55.6199421800778
 20
36.55610023421158
 30
0.0
 11
55.18812011813765
 21
36.21716028170025
 31
0.0
  0
LINE
  5
420
  8
0
  6
CONTINUOUS
 62
     1
 10
55.74701675018459
 20
36.86152454338708
 30
0.0
 11
55.6199421800778
 21
36.55610023421158
 31
0.0
  0
LINE
  5
421
  8
0
  6
CONTINUOUS
 62
     1
 10
55.75136508162952
 20
36.96934003946441
 30
0.0
 11
55.74701675018459
 21
36.86152454338708
 31
0.0
  0
LINE
  5
422
  8
0
  6
CONTINUOUS
 62
     1
 10
54.72367039422876
 20
37.5581155633183
 30
0.0
 11
54.81360697272952
 21
37.63600292516443
 31
0.0
  0
LINE
  5
423
  8
0
  6
CONTINUOUS
 62
     1
 10
54.3853739789985
 20
37.42790471130346
 30
0.0
 11
54.72367039422876
 21
37.5581155633183
 31
0.0
  0
LINE
  5
424
  8
0
  6
CONTINUOUS
 62
     1
 10
53.90753540144473
 20
37.40164516803418
 30
0.0
 11
54.3853739789985
 21
37.42790471130346
 31
0.0
  0
LINE
  5
425
  8
0
  6
CONTINUOUS
 62
     1
 10
53.43680807544943
 20
37.49362340477498
 30
0.0
 11
53.90753540144473
 21
37.40164516803418
 31
0.0
  0
LINE
  5
426
  8
0
  6
CONTINUOUS
 62
     1
 10
53.14256635807972
 20
37.73673008139957
 30
0.0
 11
53.43680807544943
 21
37.49362340477498
 31
0.0
  0
LINE
  5
427
  8
0
  6
CONTINUOUS
 62
     1
 10
53.14016603542952
 20
37.85568077626442
 30
0.0
 11
53.14256635807972
 21
37.73673008139957
 31
0.0
  0
LINE
  5
428
  8
06___PRT_ALL_SURFS
  6
CONTINUOUS
 62
     1
 10
33.41984258970562
 20
31.73211700143847
 30
0.0
 11
33.41818270382952
 21
31.68815726036442
 31
0.0
  0
LINE
  5
429
  8
06___PRT_ALL_SURFS
  6
CONTINUOUS
 62
     1
 10
33.42866283920694
 20
31.81975466706223
 30
0.0
 11
33.41984258970562
 21
31.73211700143847
 31
0.0
  0
LINE
  5
42A
  8
06___PRT_ALL_SURFS
  6
CONTINUOUS
 62
     1
 10
33.43552255092951
 20
31.8632076118644
 30
0.0
 11
33.42866283920694
 21
31.81975466706223
 31
0.0
  0
LINE
  5
42B
  8
06___PRT_ALL_SURFS
  6
CONTINUOUS
 62
     1
 10
16.96536511762125
 20
36.48212366714185
 30
0.0
 11
16.96369924452952
 21
36.43816649386443
 31
0.0
  0
LINE
  5
42C
  8
06___PRT_ALL_SURFS
  6
CONTINUOUS
 62
     1
 10
16.97418061355576
 20
36.56975673990738
 30
0.0
 11
16.96536511762125
 21
36.48212366714185
 31
0.0
  0
LINE
  5
42D
  8
06___PRT_ALL_SURFS
  6
CONTINUOUS
 62
     1
 10
16.98103987562952
 20
36.61320738726442
 30
0.0
 11
16.97418061355576
 21
36.56975673990738
 31
0.0
  0
LINE
  5
42E
  8
06___PRT_ALL_SURFS
  6
CONTINUOUS
 62
     1
 10
16.9302825660763
 20
36.27853820004444
 30
0.0
 11
16.93095653852953
 21
36.26320945296439
 31
0.0
  0
LINE
  5
42F
  8
06___PRT_ALL_SURFS
  6
CONTINUOUS
 62
     1
 10
16.94364851390208
 20
36.30728419359991
 30
0.0
 11
16.9302825660763
 21
36.27853820004444
 31
0.0
  0
LINE
  5
430
  8
06___PRT_ALL_SURFS
  6
CONTINUOUS
 62
     1
 10
16.95408426502952
 20
36.31853229686439
 30
0.0
 11
16.94364851390208
 21
36.30728419359991
 31
0.0
  0
LINE
  5
431
  8
0
  6
CONTINUOUS
 62
     1
 10
53.32095687463396
 20
40.04148876761028
 30
0.0
 11
53.32986225892952
 21
40.07129891556443
 31
0.0
  0
LINE
  5
432
  8
0
  6
CONTINUOUS
 62
     1
 10
53.31133732544559
 20
39.97977251790357
 30
0.0
 11
53.32095687463396
 21
40.04148876761028
 31
0.0
  0
LINE
  5
433
  8
0
  6
CONTINUOUS
 62
     1
 10
53.30979647682952
 20
39.94869878986444
 30
0.0
 11
53.31133732544559
 21
39.97977251790357
 31
0.0
  0
LINE
  5
434
  8
0
  6
CONTINUOUS
 62
     1
 10
53.35064339045094
 20
38.16267696011042
 30
0.0
 11
53.26027119202952
 21
38.0844123407644
 31
0.0
  0
LINE
  5
435
  8
0
  6
CONTINUOUS
 62
     1
 10
53.69073578656835
 20
38.29296438275205
 30
0.0
 11
53.35064339045094
 21
38.16267696011042
 31
0.0
  0
LINE
  5
436
  8
0
  6
CONTINUOUS
 62
     1
 10
54.17121655400803
 20
38.31945410918911
 30
0.0
 11
53.69073578656835
 21
38.29296438275205
 31
0.0
  0
LINE
  5
437
  8
0
  6
CONTINUOUS
 62
     1
 10
54.58354106464479
 20
38.23200891612311
 30
0.0
 11
54.17121655400803
 21
38.31945410918911
 31
0.0
  0
LINE
  5
438
  8
0
  6
CONTINUOUS
 62
     1
 10
54.84492601042278
 20
38.07750991322368
 30
0.0
 11
54.58354106464479
 21
38.23200891612311
 31
0.0
  0
LINE
  5
439
  8
0
  6
CONTINUOUS
 62
     1
 10
54.93491640451185
 20
37.91545475163974
 30
0.0
 11
54.84492601042278
 21
38.07750991322368
 31
0.0
  0
LINE
  5
43A
  8
0
  6
CONTINUOUS
 62
     1
 10
54.93371225822952
 20
37.85569129026442
 30
0.0
 11
54.93491640451185
 21
37.91545475163974
 31
0.0
  0
LINE
  5
43B
  8
0
  6
CONTINUOUS
 62
     1
 10
54.0324327092469
 20
36.97210664509024
 30
0.0
 11
53.73305477142952
 21
36.99850084906441
 31
0.0
  0
LINE
  5
43C
  8
0
  6
CONTINUOUS
 62
     1
 10
54.78731095339144
 20
37.03199756739727
 30
0.0
 11
54.0324327092469
 21
36.97210664509024
 31
0.0
  0
LINE
  5
43D
  8
0
  6
CONTINUOUS
 62
     1
 10
55.4898863755859
 20
37.32457456559982
 30
0.0
 11
54.78731095339144
 21
37.03199756739727
 31
0.0
  0
LINE
  5
43E
  8
0
  6
CONTINUOUS
 62
     1
 10
55.78052958397288
 20
37.69242612626772
 30
0.0
 11
55.4898863755859
 21
37.32457456559982
 31
0.0
  0
LINE
  5
43F
  8
0
  6
CONTINUOUS
 62
     1
 10
55.78658364022952
 20
37.84257371786441
 30
0.0
 11
55.78052958397288
 21
37.69242612626772
 31
0.0
  0
LINE
  5
440
  8
0
  6
CONTINUOUS
 62
     1
 10
42.82799045383989
 20
30.38271357726526
 30
0.0
 11
42.83270309202952
 21
30.51630545946441
 31
0.0
  0
LINE
  5
441
  8
0
  6
CONTINUOUS
 62
     1
 10
42.72291658734313
 20
30.12797001700361
 30
0.0
 11
42.82799045383989
 21
30.38271357726526
 31
0.0
  0
LINE
  5
442
  8
0
  6
CONTINUOUS
 62
     1
 10
42.62186949252952
 20
30.04045724906442
 30
0.0
 11
42.72291658734313
 21
30.12797001700361
 31
0.0
  0
LINE
  5
443
  8
0
  6
CONTINUOUS
 62
     1
 10
28.24410669915835
 20
33.57282804146814
 30
0.0
 11
28.11619044072951
 21
33.60973796346443
 31
0.0
  0
LINE
  5
444
  8
0
  6
CONTINUOUS
 62
     1
 10
28.5010684485907
 20
33.5029803429978
 30
0.0
 11
28.24410669915835
 21
33.57282804146814
 31
0.0
  0
LINE
  5
445
  8
0
  6
CONTINUOUS
 62
     1
 10
28.62898034892953
 20
33.46605532036443
 30
0.0
 11
28.5010684485907
 21
33.5029803429978
 31
0.0
  0
LINE
  5
446
  8
0
  6
CONTINUOUS
 62
     1
 10
28.77584673317432
 20
33.42365873371384
 30
0.0
 11
28.62898034892953
 21
33.46605532036443
 31
0.0
  0
LINE
  5
447
  8
0
  6
CONTINUOUS
 62
     1
 10
29.06841072952737
 20
33.33486858074772
 30
0.0
 11
28.77584673317432
 21
33.42365873371384
 31
0.0
  0
LINE
  5
448
  8
0
  6
CONTINUOUS
 62
     1
 10
29.21527364312954
 20
33.29245997316443
 30
0.0
 11
29.06841072952737
 21
33.33486858074772
 31
0.0
  0
LINE
  5
449
  8
0
  6
CONTINUOUS
 62
     1
 10
41.12769424437556
 20
30.21542068657052
 30
0.0
 11
41.12621151952953
 21
30.28767894006441
 31
0.0
  0
LINE
  5
44A
  8
0
  6
CONTINUOUS
 62
     1
 10
41.15203905605873
 20
29.997774337744
 30
0.0
 11
41.12769424437556
 21
30.21542068657052
 31
0.0
  0
LINE
  5
44B
  8
0
  6
CONTINUOUS
 62
     1
 10
41.27911903155146
 20
29.80992886568581
 30
0.0
 11
41.15203905605873
 21
29.997774337744
 31
0.0
  0
LINE
  5
44C
  8
0
  6
CONTINUOUS
 62
     1
 10
41.34855684702952
 20
29.78988283186442
 30
0.0
 11
41.27911903155146
 21
29.80992886568581
 31
0.0
  0
LINE
  5
44D
  8
06___PRT_ALL_SURFS
  6
CONTINUOUS
 62
     1
 10
17.0348692239768
 20
36.17811778756047
 30
0.0
 11
17.07756918662952
 21
36.16579137256443
 31
0.0
  0
LINE
  5
44E
  8
06___PRT_ALL_SURFS
  6
CONTINUOUS
 62
     1
 10
16.95124337426618
 20
36.23146142751565
 30
0.0
 11
17.0348692239768
 21
36.17811778756047
 31
0.0
  0
LINE
  5
44F
  8
06___PRT_ALL_SURFS
  6
CONTINUOUS
 62
     1
 10
16.95251121792953
 20
36.27588686916442
 30
0.0
 11
16.95124337426618
 21
36.23146142751565
 31
0.0
  0
LINE
  5
450
  8
06___PRT_ALL_SURFS
  6
CONTINUOUS
 62
     1
 10
17.0144526748557
 20
36.16957779354044
 30
0.0
 11
17.05611624742951
 21
36.15755055966443
 31
0.0
  0
LINE
  5
451
  8
06___PRT_ALL_SURFS
  6
CONTINUOUS
 62
     1
 10
16.93286135792489
 20
36.21988648774195
 30
0.0
 11
17.0144526748557
 21
36.16957779354044
 31
0.0
  0
LINE
  5
452
  8
06___PRT_ALL_SURFS
  6
CONTINUOUS
 62
     1
 10
16.93095653852953
 20
36.26320945296439
 30
0.0
 11
16.93286135792489
 21
36.21988648774195
 31
0.0
  0
LINE
  5
453
  8
0
  6
CONTINUOUS
 62
     1
 10
53.13882208965025
 20
37.92228152552198
 30
0.0
 11
53.14016603542952
 21
37.85568077626442
 31
0.0
  0
LINE
  5
454
  8
0
  6
CONTINUOUS
 62
     1
 10
53.20991550859988
 20
38.04080303966126
 30
0.0
 11
53.13882208965025
 21
37.92228152552198
 31
0.0
  0
LINE
  5
455
  8
0
  6
CONTINUOUS
 62
     1
 10
53.26027119202952
 20
38.0844123407644
 30
0.0
 11
53.20991550859988
 21
38.04080303966126
 31
0.0
  0
LINE
  5
456
  8
0
  6
CONTINUOUS
 62
     1
 10
15.90372446803566
 20
35.01004683841012
 30
0.0
 11
15.90298330632952
 21
35.04616618706441
 31
0.0
  0
LINE
  5
457
  8
0
  6
CONTINUOUS
 62
     1
 10
15.91591240197975
 20
34.90115698525474
 30
0.0
 11
15.90372446803566
 21
35.01004683841012
 31
0.0
  0
LINE
  5
458
  8
0
  6
CONTINUOUS
 62
     1
 10
15.97944651903707
 20
34.80728864655828
 30
0.0
 11
15.91591240197975
 21
34.90115698525474
 31
0.0
  0
LINE
  5
459
  8
0
  6
CONTINUOUS
 62
     1
 10
16.01415600752952
 20
34.79726826306441
 30
0.0
 11
15.97944651903707
 21
34.80728864655828
 31
0.0
  0
LINE
  5
45A
  8
0
  6
CONTINUOUS
 62
     1
 10
50.67532714805091
 20
37.30268223014505
 30
0.0
 11
50.73012278842951
 21
37.28365418596442
 31
0.0
  0
LINE
  5
45B
  8
0
  6
CONTINUOUS
 62
     1
 10
50.51320929661996
 20
37.36527048453556
 30
0.0
 11
50.67532714805091
 21
37.30268223014505
 31
0.0
  0
LINE
  5
45C
  8
0
  6
CONTINUOUS
 62
     1
 10
50.35220036067902
 20
37.43492834752652
 30
0.0
 11
50.51320929661996
 21
37.36527048453556
 31
0.0
  0
LINE
  5
45D
  8
0
  6
CONTINUOUS
 62
     1
 10
50.29473131992953
 20
37.44279841856442
 30
0.0
 11
50.35220036067902
 21
37.43492834752652
 31
0.0
  0
LINE
  5
45E
  8
0
  6
CONTINUOUS
 62
     1
 10
21.02027847616984
 20
33.53302584040162
 30
0.0
 11
21.01953733342953
 21
33.5691442646644
 31
0.0
  0
LINE
  5
45F
  8
0
  6
CONTINUOUS
 62
     1
 10
21.03246605222778
 20
33.42413897804337
 30
0.0
 11
21.02027847616984
 21
33.53302584040162
 31
0.0
  0
LINE
  5
460
  8
0
  6
CONTINUOUS
 62
     1
 10
21.09599507220719
 20
33.3302712922677
 30
0.0
 11
21.03246605222778
 21
33.42413897804337
 31
0.0
  0
LINE
  5
461
  8
0
  6
CONTINUOUS
 62
     1
 10
21.13070287592952
 20
33.32024840756443
 30
0.0
 11
21.09599507220719
 21
33.3302712922677
 31
0.0
  0
LINE
  5
462
  8
0
  6
CONTINUOUS
 62
     1
 10
22.38237421101793
 20
33.68524780318137
 30
0.0
 11
22.38473059142953
 21
33.75204548016441
 31
0.0
  0
LINE
  5
463
  8
0
  6
CONTINUOUS
 62
     1
 10
22.32983477931398
 20
33.55787267364522
 30
0.0
 11
22.38237421101793
 21
33.68524780318137
 31
0.0
  0
LINE
  5
464
  8
0
  6
CONTINUOUS
 62
     1
 10
22.27930845792952
 20
33.51411683946444
 30
0.0
 11
22.32983477931398
 21
33.55787267364522
 31
0.0
  0
LINE
  5
465
  8
0
  6
CONTINUOUS
 62
     1
 10
21.21234307039686
 20
35.01009731931657
 30
0.0
 11
21.04224019982952
 21
35.06499248376443
 31
0.0
  0
LINE
  5
466
  8
0
  6
CONTINUOUS
 62
     1
 10
21.75191332356613
 20
34.96102528670824
 30
0.0
 11
21.21234307039686
 21
35.01009731931657
 31
0.0
  0
LINE
  5
467
  8
0
  6
CONTINUOUS
 62
     1
 10
22.27614615612234
 20
35.12660021209297
 30
0.0
 11
21.75191332356613
 21
34.96102528670824
 31
0.0
  0
LINE
  5
468
  8
0
  6
CONTINUOUS
 62
     1
 10
22.40743345782951
 20
35.24789369926444
 30
0.0
 11
22.27614615612234
 21
35.12660021209297
 31
0.0
  0
LINE
  5
469
  8
0
  6
CONTINUOUS
 62
     1
 10
22.0125021723986
 20
35.80533164006462
 30
0.0
 11
22.10304872282951
 21
35.77919302076444
 31
0.0
  0
LINE
  5
46A
  8
0
  6
CONTINUOUS
 62
     1
 10
21.72878200351339
 20
35.84151971447139
 30
0.0
 11
22.0125021723986
 21
35.80533164006462
 31
0.0
  0
LINE
  5
46B
  8
0
  6
CONTINUOUS
 62
     1
 10
21.35908641708903
 20
35.73061234260035
 30
0.0
 11
21.72878200351339
 21
35.84151971447139
 31
0.0
  0
LINE
  5
46C
  8
0
  6
CONTINUOUS
 62
     1
 10
21.10341130469629
 20
35.4411469682891
 30
0.0
 11
21.35908641708903
 21
35.73061234260035
 31
0.0
  0
LINE
  5
46D
  8
0
  6
CONTINUOUS
 62
     1
 10
21.04367081652009
 20
35.1592254851648
 30
0.0
 11
21.10341130469629
 21
35.4411469682891
 31
0.0
  0
LINE
  5
46E
  8
0
  6
CONTINUOUS
 62
     1
 10
21.04224019982952
 20
35.06499248376443
 30
0.0
 11
21.04367081652009
 21
35.1592254851648
 31
0.0
  0
LINE
  5
46F
  8
06___PRT_ALL_SURFS
  6
CONTINUOUS
 62
     1
 10
34.9468204450276
 20
31.20121653378735
 30
0.0
 11
34.94981776132951
 21
31.12531339106442
 31
0.0
  0
LINE
  5
470
  8
06___PRT_ALL_SURFS
  6
CONTINUOUS
 62
     1
 10
34.96636725599433
 20
31.35275545428618
 30
0.0
 11
34.9468204450276
 21
31.20121653378735
 31
0.0
  0
LINE
  5
471
  8
06___PRT_ALL_SURFS
  6
CONTINUOUS
 62
     1
 10
34.98576091872951
 20
31.42620037806441
 30
0.0
 11
34.96636725599433
 21
31.35275545428618
 31
0.0
  0
LINE
  5
472
  8
06___PRT_ALL_SURFS
  6
CONTINUOUS
 62
     1
 10
34.63141482247094
 20
31.19761952242519
 30
0.0
 11
34.63374205382951
 21
31.09776080716441
 31
0.0
  0
LINE
  5
473
  8
06___PRT_ALL_SURFS
  6
CONTINUOUS
 62
     1
 10
34.65720786366008
 20
31.39667140748278
 30
0.0
 11
34.63141482247094
 21
31.19761952242519
 31
0.0
  0
LINE
  5
474
  8
06___PRT_ALL_SURFS
  6
CONTINUOUS
 62
     1
 10
34.68163601962952
 20
31.49352410096444
 30
0.0
 11
34.65720786366008
 21
31.39667140748278
 31
0.0
  0
LINE
  5
475
  8
06___PRT_ALL_SURFS
  6
CONTINUOUS
 62
     1
 10
35.9107302346865
 20
29.8576142698347
 30
0.0
 11
35.92972524122952
 21
29.87406423256442
 31
0.0
  0
LINE
  5
476
  8
06___PRT_ALL_SURFS
  6
CONTINUOUS
 62
     1
 10
35.85712549735284
 20
29.84525057700012
 30
0.0
 11
35.9107302346865
 21
29.8576142698347
 31
0.0
  0
LINE
  5
477
  8
06___PRT_ALL_SURFS
  6
CONTINUOUS
 62
     1
 10
35.84058638632953
 20
29.86416801236442
 30
0.0
 11
35.85712549735284
 21
29.84525057700012
 31
0.0
  0
LINE
  5
478
  8
06___PRT_ALL_SURFS
  6
CONTINUOUS
 62
     1
 10
34.98392998244286
 20
30.8440320000411
 30
0.0
 11
35.04494785082952
 21
30.77423713746441
 31
0.0
  0
LINE
  5
479
  8
06___PRT_ALL_SURFS
  6
CONTINUOUS
 62
     1
 10
34.96623709360529
 20
31.0375441400582
 30
0.0
 11
34.98392998244286
 21
30.8440320000411
 31
0.0
  0
LINE
  5
47A
  8
06___PRT_ALL_SURFS
  6
CONTINUOUS
 62
     1
 10
34.97205517912951
 20
31.13006793696442
 30
0.0
 11
34.96623709360529
 21
31.0375441400582
 31
0.0
  0
LINE
  5
47B
  8
06___PRT_ALL_SURFS
  6
CONTINUOUS
 62
     1
 10
34.97610900426376
 20
31.20624929032468
 30
0.0
 11
34.97205517912951
 21
31.13006793696442
 31
0.0
  0
LINE
  5
47C
  8
06___PRT_ALL_SURFS
  6
CONTINUOUS
 62
     1
 10
35.00204130755364
 20
31.35703082545959
 30
0.0
 11
34.97610900426376
 21
31.20624929032468
 31
0.0
  0
LINE
  5
47D
  8
06___PRT_ALL_SURFS
  6
CONTINUOUS
 62
     1
 10
35.02151854532951
 20
31.43079171826443
 30
0.0
 11
35.00204130755364
 21
31.35703082545959
 31
0.0
  0
LINE
  5
47E
  8
06___PRT_ALL_SURFS
  6
CONTINUOUS
 62
     1
 10
34.71568258295815
 20
31.05967286317548
 30
0.0
 11
34.63019498212952
 21
31.08435101556441
 31
0.0
  0
LINE
  5
47F
  8
06___PRT_ALL_SURFS
  6
CONTINUOUS
 62
     1
 10
34.90473083334112
 20
31.07177025148999
 30
0.0
 11
34.71568258295815
 21
31.05967286317548
 31
0.0
  0
LINE
  5
480
  8
06___PRT_ALL_SURFS
  6
CONTINUOUS
 62
     1
 10
34.97199211942953
 20
31.13002023456443
 30
0.0
 11
34.90473083334112
 21
31.07177025148999
 31
0.0
  0
LINE
  5
481
  8
06___PRT_ALL_SURFS
  6
CONTINUOUS
 62
     1
 10
33.38734418709204
 20
31.46988631455466
 30
0.0
 11
33.38543921412952
 21
31.51320921616443
 31
0.0
  0
LINE
  5
482
  8
06___PRT_ALL_SURFS
  6
CONTINUOUS
 62
     1
 10
33.4689354017018
 20
31.41957777536786
 30
0.0
 11
33.38734418709204
 21
31.46988631455466
 31
0.0
  0
LINE
  5
483
  8
06___PRT_ALL_SURFS
  6
CONTINUOUS
 62
     1
 10
33.51059892102953
 20
31.40755055916443
 30
0.0
 11
33.4689354017018
 21
31.41957777536786
 31
0.0
  0
LINE
  5
484
  8
06___PRT_ALL_SURFS
  6
CONTINUOUS
 62
     1
 10
34.65538873036954
 20
30.71281571805312
 30
0.0
 11
34.73584511112952
 21
30.62266373726442
 31
0.0
  0
LINE
  5
485
  8
06___PRT_ALL_SURFS
  6
CONTINUOUS
 62
     1
 10
34.62539452306761
 20
30.96361350189821
 30
0.0
 11
34.65538873036954
 21
30.71281571805312
 31
0.0
  0
LINE
  5
486
  8
06___PRT_ALL_SURFS
  6
CONTINUOUS
 62
     1
 10
34.63019463982951
 20
31.08435110066441
 30
0.0
 11
34.62539452306761
 21
30.96361350189821
 31
0.0
  0
LINE
  5
487
  8
06___PRT_ALL_SURFS
  6
CONTINUOUS
 62
     1
 10
35.56366828433491
 20
29.68715981111495
 30
0.0
 11
35.57672977942951
 21
29.68338626006442
 31
0.0
  0
LINE
  5
488
  8
06___PRT_ALL_SURFS
  6
CONTINUOUS
 62
     1
 10
35.54063637982324
 20
29.70254126351347
 30
0.0
 11
35.56366828433491
 21
29.68715981111495
 31
0.0
  0
LINE
  5
489
  8
06___PRT_ALL_SURFS
  6
CONTINUOUS
 62
     1
 10
35.53148364662951
 20
29.71259461206441
 30
0.0
 11
35.54063637982324
 21
29.70254126351347
 31
0.0
  0
LINE
  5
48A
  8
0
  6
CONTINUOUS
 62
     1
 10
22.10453143413633
 20
35.70693542929152
 30
0.0
 11
22.10304872282951
 21
35.77919302076444
 31
0.0
  0
LINE
  5
48B
  8
0
  6
CONTINUOUS
 62
     1
 10
22.12887610932302
 20
35.48929163325786
 30
0.0
 11
22.10453143413633
 21
35.70693542929152
 31
0.0
  0
LINE
  5
48C
  8
0
  6
CONTINUOUS
 62
     1
 10
22.25595179636014
 20
35.30144461683031
 30
0.0
 11
22.12887610932302
 21
35.48929163325786
 31
0.0
  0
LINE
  5
48D
  8
0
  6
CONTINUOUS
 62
     1
 10
22.32538886612952
 20
35.28139838586441
 30
0.0
 11
22.25595179636014
 21
35.30144461683031
 31
0.0
  0
LINE
  5
48E
  8
06___PRT_ALL_SURFS
  6
CONTINUOUS
 62
     1
 10
34.71163254014938
 20
31.0752757560596
 30
0.0
 11
34.63374201912951
 21
31.09776081716441
 31
0.0
  0
LINE
  5
48F
  8
06___PRT_ALL_SURFS
  6
CONTINUOUS
 62
     1
 10
34.88004014468412
 20
31.08403875701256
 30
0.0
 11
34.71163254014938
 21
31.0752757560596
 31
0.0
  0
LINE
  5
490
  8
06___PRT_ALL_SURFS
  6
CONTINUOUS
 62
     1
 10
34.94981776132951
 20
31.12531339106442
 30
0.0
 11
34.88004014468412
 21
31.08403875701256
 31
0.0
  0
LINE
  5
491
  8
06___PRT_ALL_SURFS
  6
CONTINUOUS
 62
     1
 10
33.40572627571044
 20
31.48146119720886
 30
0.0
 11
33.40699387472952
 21
31.5258865781644
 31
0.0
  0
LINE
  5
492
  8
06___PRT_ALL_SURFS
  6
CONTINUOUS
 62
     1
 10
33.48935196217408
 20
31.42811777150104
 30
0.0
 11
33.40572627571044
 21
31.48146119720886
 31
0.0
  0
LINE
  5
493
  8
06___PRT_ALL_SURFS
  6
CONTINUOUS
 62
     1
 10
33.53205185852951
 20
31.41579137256443
 30
0.0
 11
33.48935196217408
 21
31.42811777150104
 31
0.0
  0
LINE
  5
494
  8
06___PRT_ALL_SURFS
  6
CONTINUOUS
 62
     1
 10
18.51188464619341
 20
36.10275543876946
 30
0.0
 11
18.53127824682952
 21
36.17620037806441
 31
0.0
  0
LINE
  5
495
  8
06___PRT_ALL_SURFS
  6
CONTINUOUS
 62
     1
 10
18.49233754920704
 20
35.95121652407417
 30
0.0
 11
18.51188464619341
 21
36.10275543876946
 31
0.0
  0
LINE
  5
496
  8
06___PRT_ALL_SURFS
  6
CONTINUOUS
 62
     1
 10
18.49533508942952
 20
35.87531339106445
 30
0.0
 11
18.49233754920704
 21
35.95121652407417
 31
0.0
  0
LINE
  5
497
  8
06___PRT_ALL_SURFS
  6
CONTINUOUS
 62
     1
 10
18.20272528676537
 20
36.14667138537587
 30
0.0
 11
18.22715334772951
 21
36.24352410096444
 31
0.0
  0
LINE
  5
498
  8
06___PRT_ALL_SURFS
  6
CONTINUOUS
 62
     1
 10
18.17693190043566
 20
35.94761952079011
 30
0.0
 11
18.20272528676537
 21
36.14667138537587
 31
0.0
  0
LINE
  5
499
  8
06___PRT_ALL_SURFS
  6
CONTINUOUS
 62
     1
 10
18.17925936282953
 20
35.8477608126644
 30
0.0
 11
18.17693190043566
 21
35.94761952079011
 31
0.0
  0
LINE
  5
49A
  8
06___PRT_ALL_SURFS
  6
CONTINUOUS
 62
     1
 10
18.51172623119889
 20
35.78752562315739
 30
0.0
 11
18.51754396652953
 21
35.88004321996442
 31
0.0
  0
LINE
  5
49B
  8
06___PRT_ALL_SURFS
  6
CONTINUOUS
 62
     1
 10
18.52945129186401
 20
35.59402723242593
 30
0.0
 11
18.51172623119889
 21
35.78752562315739
 31
0.0
  0
LINE
  5
49C
  8
06___PRT_ALL_SURFS
  6
CONTINUOUS
 62
     1
 10
18.59046517892952
 20
35.52423713746441
 30
0.0
 11
18.52945129186401
 21
35.59402723242593
 31
0.0
  0
LINE
  5
49D
  8
06___PRT_ALL_SURFS
  6
CONTINUOUS
 62
     1
 10
18.52159816092238
 20
35.95623151309039
 30
0.0
 11
18.51754396652953
 21
35.88004321996442
 31
0.0
  0
LINE
  5
49E
  8
06___PRT_ALL_SURFS
  6
CONTINUOUS
 62
     1
 10
18.54755686135849
 20
36.10702410611597
 30
0.0
 11
18.52159816092238
 21
35.95623151309039
 31
0.0
  0
LINE
  5
49F
  8
06___PRT_ALL_SURFS
  6
CONTINUOUS
 62
     1
 10
18.56703587342952
 20
36.18079171826443
 30
0.0
 11
18.54755686135849
 21
36.10702410611597
 31
0.0
  0
LINE
  5
4A0
  8
06___PRT_ALL_SURFS
  6
CONTINUOUS
 62
     1
 10
18.45024816151599
 20
35.82177025052934
 30
0.0
 11
18.51750944902952
 21
35.8800202340644
 31
0.0
  0
LINE
  5
4A1
  8
06___PRT_ALL_SURFS
  6
CONTINUOUS
 62
     1
 10
18.26119990952586
 20
35.80967285962925
 30
0.0
 11
18.45024816151599
 21
35.82177025052934
 31
0.0
  0
LINE
  5
4A2
  8
06___PRT_ALL_SURFS
  6
CONTINUOUS
 62
     1
 10
18.17571230842952
 20
35.83435101596442
 30
0.0
 11
18.26119990952586
 21
35.80967285962925
 31
0.0
  0
LINE
  5
4A3
  8
06___PRT_ALL_SURFS
  6
CONTINUOUS
 62
     1
 10
18.17091195350125
 20
35.71361349492688
 30
0.0
 11
18.17571197312952
 21
35.83435109916442
 31
0.0
  0
LINE
  5
4A4
  8
06___PRT_ALL_SURFS
  6
CONTINUOUS
 62
     1
 10
18.20090601696259
 20
35.4628156832523
 30
0.0
 11
18.17091195350125
 21
35.71361349492688
 31
0.0
  0
LINE
  5
4A5
  8
06___PRT_ALL_SURFS
  6
CONTINUOUS
 62
     1
 10
18.28136243922953
 20
35.37266373726442
 30
0.0
 11
18.20090601696259
 21
35.4628156832523
 31
0.0
  0
LINE
  5
4A6
  8
06___PRT_ALL_SURFS
  6
CONTINUOUS
 62
     1
 10
18.42555747208046
 20
35.83403875540674
 30
0.0
 11
18.49533508942952
 21
35.87531339106445
 31
0.0
  0
LINE
  5
4A7
  8
06___PRT_ALL_SURFS
  6
CONTINUOUS
 62
     1
 10
18.25714987100028
 20
35.8252757609186
 30
0.0
 11
18.42555747208046
 21
35.83403875540674
 31
0.0
  0
LINE
  5
4A8
  8
06___PRT_ALL_SURFS
  6
CONTINUOUS
 62
     1
 10
18.17925934722952
 20
35.84776081716441
 30
0.0
 11
18.25714987100028
 21
35.8252757609186
 31
0.0
  0
LINE
  5
4A9
  8
0_COMPONENTS
  6
CONTINUOUS
 62
     1
 10
79.85166175235204
 20
28.70655908524364
 30
0.0
 11
79.76451736672952
 21
28.73171470986443
 31
0.0
  0
LINE
  5
4AA
  8
0_COMPONENTS
  6
CONTINUOUS
 62
     1
 10
79.94378050470372
 20
28.5362354000587
 30
0.0
 11
79.85166175235204
 21
28.70655908524364
 31
0.0
  0
LINE
  5
4AB
  8
0_COMPONENTS
  6
CONTINUOUS
 62
     1
 10
79.96330337912953
 20
28.44765884126443
 30
0.0
 11
79.94378050470372
 21
28.5362354000587
 31
0.0
  0
LINE
  5
4AC
  8
0_COMPONENTS
  6
CONTINUOUS
 62
     1
 10
45.47614143929644
 20
36.54825026647043
 30
0.0
 11
45.61418919162952
 21
36.50839931296443
 31
0.0
  0
LINE
  5
4AD
  8
0_COMPONENTS
  6
CONTINUOUS
 62
     1
 10
45.26149194936291
 20
36.75454512928016
 30
0.0
 11
45.47614143929644
 21
36.54825026647043
 31
0.0
  0
LINE
  5
4AE
  8
0_COMPONENTS
  6
CONTINUOUS
 62
     1
 10
45.20714002742952
 20
36.88755320816441
 30
0.0
 11
45.26149194936291
 21
36.75454512928016
 31
0.0
  0
LINE
  5
4AF
  8
0_COMPONENTS
  6
CONTINUOUS
 62
     1
 10
45.73927262489256
 20
38.40962594197151
 30
0.0
 11
45.62239738422952
 21
38.3260468883644
 31
0.0
  0
LINE
  5
4B0
  8
0_COMPONENTS
  6
CONTINUOUS
 62
     1
 10
46.03084163645635
 20
38.46978811186392
 30
0.0
 11
45.73927262489256
 21
38.40962594197151
 31
0.0
  0
LINE
  5
4B1
  8
0_COMPONENTS
  6
CONTINUOUS
 62
     1
 10
46.16888938792951
 20
38.4299371585644
 30
0.0
 11
46.03084163645635
 21
38.46978811186392
 31
0.0
  0
LINE
  5
4B2
  8
0_COMPONENTS
  6
CONTINUOUS
 62
     1
 10
22.50436218496299
 20
44.84539686618444
 30
0.0
 11
22.50436482572952
 21
44.65346453716441
 31
0.0
  0
LINE
  5
4B3
  8
0_COMPONENTS
  6
CONTINUOUS
 62
     1
 10
22.64256223812276
 20
45.41248429835575
 30
0.0
 11
22.50436218496299
 21
44.84539686618444
 31
0.0
  0
LINE
  5
4B4
  8
0_COMPONENTS
  6
CONTINUOUS
 62
     1
 10
23.12529354537135
 20
46.02344309861279
 30
0.0
 11
22.64256223812276
 21
45.41248429835575
 31
0.0
  0
LINE
  5
4B5
  8
0_COMPONENTS
  6
CONTINUOUS
 62
     1
 10
23.77179137417457
 20
46.44681185453697
 30
0.0
 11
23.12529354537135
 21
46.02344309861279
 31
0.0
  0
LINE
  5
4B6
  8
0_COMPONENTS
  6
CONTINUOUS
 62
     1
 10
24.67374300858197
 20
46.78463504305266
 30
0.0
 11
23.77179137417457
 21
46.44681185453697
 31
0.0
  0
LINE
  5
4B7
  8
0_COMPONENTS
  6
CONTINUOUS
 62
     1
 10
26.01514639528972
 20
46.95224830588766
 30
0.0
 11
24.67374300858197
 21
46.78463504305266
 31
0.0
  0
LINE
  5
4B8
  8
0_COMPONENTS
  6
CONTINUOUS
 62
     1
 10
27.16290964853472
 20
46.80324226395111
 30
0.0
 11
26.01514639528972
 21
46.95224830588766
 31
0.0
  0
LINE
  5
4B9
  8
0_COMPONENTS
  6
CONTINUOUS
 62
     1
 10
27.53171488252951
 20
46.69677736336442
 30
0.0
 11
27.16290964853472
 21
46.80324226395111
 31
0.0
  0
LINE
  5
4BA
  8
0_COMPONENTS
  6
CONTINUOUS
 62
     1
 10
24.99284381501913
 20
44.54293496454818
 30
0.0
 11
25.03171488252951
 21
44.53171385386443
 31
0.0
  0
LINE
  5
4BB
  8
0_COMPONENTS
  6
CONTINUOUS
 62
     1
 10
24.87726799406286
 20
44.58019174614495
 30
0.0
 11
24.99284381501913
 21
44.54293496454818
 31
0.0
  0
LINE
  5
4BC
  8
0_COMPONENTS
  6
CONTINUOUS
 62
     1
 10
24.72715665040479
 20
44.64107095643169
 30
0.0
 11
24.87726799406286
 21
44.58019174614495
 31
0.0
  0
LINE
  5
4BD
  8
0_COMPONENTS
  6
CONTINUOUS
 62
     1
 10
24.60171466824121
 20
44.70646977078508
 30
0.0
 11
24.72715665040479
 21
44.64107095643169
 31
0.0
  0
LINE
  5
4BE
  8
0_COMPONENTS
  6
CONTINUOUS
 62
     1
 10
24.52578192967061
 20
44.75839325557533
 30
0.0
 11
24.60171466824121
 21
44.70646977078508
 31
0.0
  0
LINE
  5
4BF
  8
0_COMPONENTS
  6
CONTINUOUS
 62
     1
 10
24.48780855466615
 20
44.78843744141892
 30
0.0
 11
24.52578192967061
 21
44.75839325557533
 31
0.0
  0
LINE
  5
4C0
  8
0_COMPONENTS
  6
CONTINUOUS
 62
     1
 10
24.46183638497649
 20
44.81781007289929
 30
0.0
 11
24.48780855466615
 21
44.78843744141892
 31
0.0
  0
LINE
  5
4C1
  8
0_COMPONENTS
  6
CONTINUOUS
 62
     1
 10
24.46707053952952
 20
44.80915512096442
 30
0.0
 11
24.46183638497649
 21
44.81781007289929
 31
0.0
  0
LINE
  5
4C2
  8
0_COMPONENTS
  6
CONTINUOUS
 62
     1
 10
24.81908038048213
 20
44.7081229714433
 30
0.0
 11
24.70532481512952
 21
44.65347554356441
 31
0.0
  0
LINE
  5
4C3
  8
0_COMPONENTS
  6
CONTINUOUS
 62
     1
 10
25.0600338151221
 20
44.78604777650469
 30
0.0
 11
24.81908038048213
 21
44.7081229714433
 31
0.0
  0
LINE
  5
4C4
  8
0_COMPONENTS
  6
CONTINUOUS
 62
     1
 10
25.18301652432953
 20
44.81436602626442
 30
0.0
 11
25.0600338151221
 21
44.78604777650469
 31
0.0
  0
LINE
  5
4C5
  8
0_COMPONENTS
  6
CONTINUOUS
 62
     1
 10
23.64304920943576
 20
42.93757921221334
 30
0.0
 11
23.92360366142952
 21
42.81153130106443
 31
0.0
  0
LINE
  5
4C6
  8
0_COMPONENTS
  6
CONTINUOUS
 62
     1
 10
22.86400340066187
 20
43.46813863855313
 30
0.0
 11
23.64304920943576
 21
42.93757921221334
 31
0.0
  0
LINE
  5
4C7
  8
0_COMPONENTS
  6
CONTINUOUS
 62
     1
 10
22.50436905753341
 20
44.34589523377215
 30
0.0
 11
22.86400340066187
 21
43.46813863855313
 31
0.0
  0
LINE
  5
4C8
  8
0_COMPONENTS
  6
CONTINUOUS
 62
     1
 10
22.50436482572952
 20
44.65346453716441
 30
0.0
 11
22.50436905753341
 21
44.34589523377215
 31
0.0
  0
LINE
  5
4C9
  8
0_COMPONENTS
  6
CONTINUOUS
 62
     1
 10
79.44169320917284
 20
26.8629365789885
 30
0.0
 11
79.50142332242952
 21
26.91761502506441
 31
0.0
  0
LINE
  5
4CA
  8
0_COMPONENTS
  6
CONTINUOUS
 62
     1
 10
79.28762447049344
 20
26.78771657962602
 30
0.0
 11
79.44169320917284
 21
26.8629365789885
 31
0.0
  0
LINE
  5
4CB
  8
0_COMPONENTS
  6
CONTINUOUS
 62
     1
 10
79.20982324032953
 20
26.81017515226441
 30
0.0
 11
79.28762447049344
 21
26.78771657962602
 31
0.0
  0
LINE
  5
4CC
  8
0_COMPONENTS
  6
CONTINUOUS
 62
     1
 10
79.1367924576248
 20
26.83125665860931
 30
0.0
 11
79.20982324032953
 21
26.81017515226441
 31
0.0
  0
LINE
  5
4CD
  8
0_COMPONENTS
  6
CONTINUOUS
 62
     1
 10
79.00783019903257
 20
27.03270098208472
 30
0.0
 11
79.1367924576248
 21
26.83125665860931
 31
0.0
  0
LINE
  5
4CE
  8
0_COMPONENTS
  6
CONTINUOUS
 62
     1
 10
78.98717030352952
 20
27.26191956478297
 30
0.0
 11
79.00783019903257
 21
27.03270098208472
 31
0.0
  0
LINE
  5
4CF
  8
0_COMPONENTS
  6
CONTINUOUS
 62
     1
 10
78.98717030352952
 20
27.33793222916441
 30
0.0
 11
78.98717030352952
 21
27.26191956478297
 31
0.0
  0
LINE
  5
4D0
  8
0_COMPONENTS
  6
CONTINUOUS
 62
     1
 10
79.60342270254672
 20
27.38772927931416
 30
0.0
 11
79.62476439582952
 21
27.38156755046441
 31
0.0
  0
LINE
  5
4D1
  8
0_COMPONENTS
  6
CONTINUOUS
 62
     1
 10
79.58255109685066
 20
27.43085039820718
 30
0.0
 11
79.60342270254672
 21
27.38772927931416
 31
0.0
  0
LINE
  5
4D2
  8
0_COMPONENTS
  6
CONTINUOUS
 62
     1
 10
79.57859201662951
 20
27.45270813036441
 30
0.0
 11
79.58255109685066
 21
27.43085039820718
 31
0.0
  0
LINE
  5
4D3
  8
0_COMPONENTS
  6
CONTINUOUS
 62
     1
 10
79.57066305186332
 20
27.496483247475
 30
0.0
 11
79.57859201662951
 21
27.45270813036441
 31
0.0
  0
LINE
  5
4D4
  8
0_COMPONENTS
  6
CONTINUOUS
 62
     1
 10
79.58203394055529
 20
27.58601338936367
 30
0.0
 11
79.57066305186332
 21
27.496483247475
 31
0.0
  0
LINE
  5
4D5
  8
0_COMPONENTS
  6
CONTINUOUS
 62
     1
 10
79.59470596132952
 20
27.62865784096442
 30
0.0
 11
79.58203394055529
 21
27.58601338936367
 31
0.0
  0
LINE
  5
4D6
  8
0_COMPONENTS
  6
CONTINUOUS
 62
     1
 10
79.56674546253348
 20
28.13305633848492
 30
0.0
 11
79.60031531212952
 21
28.0914974760644
 31
0.0
  0
LINE
  5
4D7
  8
0_COMPONENTS
  6
CONTINUOUS
 62
     1
 10
79.5757270484334
 20
28.24755237399071
 30
0.0
 11
79.56674546253348
 21
28.13305633848492
 31
0.0
  0
LINE
  5
4D8
  8
0_COMPONENTS
  6
CONTINUOUS
 62
     1
 10
79.58866781412952
 20
28.29938489666441
 30
0.0
 11
79.5757270484334
 21
28.24755237399071
 31
0.0
  0
LINE
  5
4D9
  8
0_COMPONENTS
  6
CONTINUOUS
 62
     1
 10
79.19621038856506
 20
27.73622223333223
 30
0.0
 11
79.22476407232952
 21
27.72797771436441
 31
0.0
  0
LINE
  5
4DA
  8
0_COMPONENTS
  6
CONTINUOUS
 62
     1
 10
79.16860058685725
 20
27.82987979198074
 30
0.0
 11
79.19621038856506
 21
27.73622223333223
 31
0.0
  0
LINE
  5
4DB
  8
0_COMPONENTS
  6
CONTINUOUS
 62
     1
 10
79.18035045813349
 20
27.91802287266754
 30
0.0
 11
79.16860058685725
 21
27.82987979198074
 31
0.0
  0
LINE
  5
4DC
  8
0_COMPONENTS
  6
CONTINUOUS
 62
     1
 10
79.18720047962952
 20
27.94694279926441
 30
0.0
 11
79.18035045813349
 21
27.91802287266754
 31
0.0
  0
LINE
  5
4DD
  8
0_COMPONENTS
  6
CONTINUOUS
 62
     1
 10
79.20179681360555
 20
27.04178862801845
 30
0.0
 11
79.22476382692952
 21
27.03515747736444
 31
0.0
  0
LINE
  5
4DE
  8
0_COMPONENTS
  6
CONTINUOUS
 62
     1
 10
79.17197111458964
 20
27.11276346134414
 30
0.0
 11
79.20179681360555
 21
27.04178862801845
 31
0.0
  0
LINE
  5
4DF
  8
0_COMPONENTS
  6
CONTINUOUS
 62
     1
 10
79.17532698960348
 20
27.18461717917472
 30
0.0
 11
79.17197111458964
 21
27.11276346134414
 31
0.0
  0
LINE
  5
4E0
  8
0_COMPONENTS
  6
CONTINUOUS
 62
     1
 10
79.17859201672951
 20
27.20829829946442
 30
0.0
 11
79.17532698960348
 21
27.18461717917472
 31
0.0
  0
LINE
  5
4E1
  8
0_COMPONENTS
  6
CONTINUOUS
 62
     1
 10
79.18430457810705
 20
27.24973129428145
 30
0.0
 11
79.17859201672951
 21
27.20829829946442
 31
0.0
  0
LINE
  5
4E2
  8
0_COMPONENTS
  6
CONTINUOUS
 62
     1
 10
79.21963994411053
 20
27.36856546446089
 30
0.0
 11
79.18430457810705
 21
27.24973129428145
 31
0.0
  0
LINE
  5
4E3
  8
0_COMPONENTS
  6
CONTINUOUS
 62
     1
 10
79.30938110584962
 20
27.4790972904913
 30
0.0
 11
79.21963994411053
 21
27.36856546446089
 31
0.0
  0
LINE
  5
4E4
  8
0_COMPONENTS
  6
CONTINUOUS
 62
     1
 10
79.34956737572954
 20
27.46750461426441
 30
0.0
 11
79.30938110584962
 21
27.4790972904913
 31
0.0
  0
LINE
  5
4E5
  8
0_COMPONENTS
  6
CONTINUOUS
 62
     1
 10
45.12067320502953
 20
37.19149435011761
 30
0.0
 11
45.12067320502953
 21
37.25868540466442
 31
0.0
  0
LINE
  5
4E6
  8
0_COMPONENTS
  6
CONTINUOUS
 62
     1
 10
45.13792867030679
 20
37.05692507919028
 30
0.0
 11
45.12067320502953
 21
37.19149435011761
 31
0.0
  0
LINE
  5
4E7
  8
0_COMPONENTS
  6
CONTINUOUS
 62
     1
 10
45.16334514622952
 20
36.99472668266444
 30
0.0
 11
45.13792867030679
 21
37.05692507919028
 31
0.0
  0
LINE
  5
4E8
  8
0_COMPONENTS
  6
CONTINUOUS
 62
     1
 10
24.6418484216131
 20
44.32021013573785
 30
0.0
 11
24.60334670402952
 21
44.26573832176442
 31
0.0
  0
LINE
  5
4E9
  8
0_COMPONENTS
  6
CONTINUOUS
 62
     1
 10
24.77359522621356
 20
44.47404034799624
 30
0.0
 11
24.6418484216131
 21
44.32021013573785
 31
0.0
  0
LINE
  5
4EA
  8
0_COMPONENTS
  6
CONTINUOUS
 62
     1
 10
24.96762691491539
 20
44.55021502085677
 30
0.0
 11
24.77359522621356
 21
44.47404034799624
 31
0.0
  0
LINE
  5
4EB
  8
0_COMPONENTS
  6
CONTINUOUS
 62
     1
 10
25.03171487712953
 20
44.53171383526441
 30
0.0
 11
24.96762691491539
 21
44.55021502085677
 31
0.0
  0
LINE
  5
4EC
  8
0_COMPONENTS
  6
CONTINUOUS
 62
     1
 10
45.12067320502953
 20
37.3866868426623
 30
0.0
 11
45.12067320502953
 21
37.25868540466442
 31
0.0
  0
LINE
  5
4ED
  8
0_COMPONENTS
  6
CONTINUOUS
 62
     1
 10
45.19341118833331
 20
37.76631622672065
 30
0.0
 11
45.12067320502953
 21
37.3866868426623
 31
0.0
  0
LINE
  5
4EE
  8
0_COMPONENTS
  6
CONTINUOUS
 62
     1
 10
45.37327029146392
 20
38.11089270637464
 30
0.0
 11
45.19341118833331
 21
37.76631622672065
 31
0.0
  0
LINE
  5
4EF
  8
0_COMPONENTS
  6
CONTINUOUS
 62
     1
 10
45.46298980152953
 20
38.20218771006441
 30
0.0
 11
45.37327029146392
 21
38.11089270637464
 31
0.0
  0
LINE
  5
4F0
  8
0_COMPONENTS
  6
CONTINUOUS
 62
     1
 10
79.1954922735638
 20
27.98194970716185
 30
0.0
 11
79.18720047962952
 21
27.94694279926441
 31
0.0
  0
LINE
  5
4F1
  8
0_COMPONENTS
  6
CONTINUOUS
 62
     1
 10
79.2324344361698
 20
28.08233862356079
 30
0.0
 11
79.1954922735638
 21
27.98194970716185
 31
0.0
  0
LINE
  5
4F2
  8
0_COMPONENTS
  6
CONTINUOUS
 62
     1
 10
79.31500788479954
 20
28.17029981263968
 30
0.0
 11
79.2324344361698
 21
28.08233862356079
 31
0.0
  0
LINE
  5
4F3
  8
0_COMPONENTS
  6
CONTINUOUS
 62
     1
 10
79.34957246672953
 20
28.16032348366443
 30
0.0
 11
79.31500788479954
 21
28.17029981263968
 31
0.0
  0
LINE
  5
4F4
  8
0_COMPONENTS
  6
CONTINUOUS
 62
     1
 10
78.98717030352952
 20
27.55414535300795
 30
0.0
 11
78.98717030352952
 21
27.33793222916441
 31
0.0
  0
LINE
  5
4F5
  8
0_COMPONENTS
  6
CONTINUOUS
 62
     1
 10
79.11087566849095
 20
28.08665482631207
 30
0.0
 11
78.98717030352952
 21
27.55414535300795
 31
0.0
  0
LINE
  5
4F6
  8
0_COMPONENTS
  6
CONTINUOUS
 62
     1
 10
79.3545834385945
 20
28.51067888944749
 30
0.0
 11
79.11087566849095
 21
28.08665482631207
 31
0.0
  0
LINE
  5
4F7
  8
0_COMPONENTS
  6
CONTINUOUS
 62
     1
 10
79.55099710959747
 20
28.70123940962947
 30
0.0
 11
79.3545834385945
 21
28.51067888944749
 31
0.0
  0
LINE
  5
4F8
  8
0_COMPONENTS
  6
CONTINUOUS
 62
     1
 10
79.71258452841995
 20
28.74670595620117
 30
0.0
 11
79.55099710959747
 21
28.70123940962947
 31
0.0
  0
LINE
  5
4F9
  8
0_COMPONENTS
  6
CONTINUOUS
 62
     1
 10
79.76451736672952
 20
28.73171470986443
 30
0.0
 11
79.71258452841995
 21
28.74670595620117
 31
0.0
  0
LINE
  5
4FA
  8
0_COMPONENTS
  6
CONTINUOUS
 62
     1
 10
79.59719474067111
 20
28.33353837113847
 30
0.0
 11
79.58866781412952
 21
28.29938489666441
 31
0.0
  0
LINE
  5
4FB
  8
0_COMPONENTS
  6
CONTINUOUS
 62
     1
 10
79.63424306750697
 20
28.4314976883733
 30
0.0
 11
79.59719474067111
 21
28.33353837113847
 31
0.0
  0
LINE
  5
4FC
  8
0_COMPONENTS
  6
CONTINUOUS
 62
     1
 10
79.71575118456332
 20
28.51649468885185
 30
0.0
 11
79.63424306750697
 21
28.4314976883733
 31
0.0
  0
LINE
  5
4FD
  8
0_COMPONENTS
  6
CONTINUOUS
 62
     1
 10
79.74957260372953
 20
28.50673354776441
 30
0.0
 11
79.71575118456332
 21
28.51649468885185
 31
0.0
  0
LINE
  5
4FE
  8
0_COMPONENTS
  6
CONTINUOUS
 62
     1
 10
45.96907697250739
 20
36.04511080870222
 30
0.0
 11
46.02956774842953
 21
36.02764595426439
 31
0.0
  0
LINE
  5
4FF
  8
0_COMPONENTS
  6
CONTINUOUS
 62
     1
 10
45.84833873890442
 20
36.19979840153999
 30
0.0
 11
45.96907697250739
 21
36.04511080870222
 31
0.0
  0
LINE
  5
500
  8
0_COMPONENTS
  6
CONTINUOUS
 62
     1
 10
45.81565164054428
 20
36.38828516534073
 30
0.0
 11
45.84833873890442
 21
36.19979840153999
 31
0.0
  0
LINE
  5
501
  8
0_COMPONENTS
  6
CONTINUOUS
 62
     1
 10
45.81080532052951
 20
36.4510599082644
 30
0.0
 11
45.81565164054428
 21
36.38828516534073
 31
0.0
  0
LINE
  5
502
  8
0
  6
CONTINUOUS
 62
     1
 10
42.65052413460613
 20
33.09735924141737
 30
0.0
 11
42.87149483984255
 21
33.28872548564377
 31
0.0
  0
LINE
  5
503
  8
0
  6
CONTINUOUS
 62
     1
 10
41.5477357557027
 20
32.94961361364469
 30
0.0
 11
42.65052413460613
 21
33.09735924141737
 31
0.0
  0
LINE
  5
504
  8
0
  6
CONTINUOUS
 62
     1
 10
41.16500326726903
 20
33.06009896626617
 30
0.0
 11
41.5477357557027
 21
32.94961361364469
 31
0.0
  0
LINE
  5
505
  8
0
  6
CONTINUOUS
 62
     1
 10
45.72514543145267
 20
36.03212641373906
 30
0.0
 11
45.72445142388466
 21
36.18635551024627
 31
0.0
  0
LINE
  5
506
  8
0
  6
CONTINUOUS
 62
     1
 10
45.57516811971071
 20
35.63017522964739
 30
0.0
 11
45.72514543145267
 21
36.03212641373906
 31
0.0
  0
LINE
  5
507
  8
0
  6
CONTINUOUS
 62
     1
 10
45.48912379774473
 20
35.55565866098445
 30
0.0
 11
45.57516811971071
 21
35.63017522964739
 31
0.0
  0
LINE
  5
508
  8
0
  6
CONTINUOUS
 62
     1
 10
54.0439586601717
 20
43.06040706427967
 30
0.0
 11
54.03924430579757
 21
43.14538798339467
 31
0.0
  0
LINE
  5
509
  8
0
  6
CONTINUOUS
 62
     1
 10
53.95731609974106
 20
42.88932831858759
 30
0.0
 11
54.0439586601717
 21
43.06040706427967
 31
0.0
  0
LINE
  5
50A
  8
0
  6
CONTINUOUS
 62
     1
 10
53.87225630604011
 20
42.81566437640355
 30
0.0
 11
53.95731609974106
 21
42.88932831858759
 31
0.0
  0
LINE
  5
50B
  8
0
  6
CONTINUOUS
 62
     1
 10
25.52864163704177
 20
45.46552646065285
 30
0.0
 11
25.51052948119644
 21
45.44984087357439
 31
0.0
  0
LINE
  5
50C
  8
0
  6
CONTINUOUS
 62
     1
 10
25.56413705757478
 20
45.47806841321513
 30
0.0
 11
25.52864163704177
 21
45.46552646065285
 31
0.0
  0
LINE
  5
50D
  8
0
  6
CONTINUOUS
 62
     1
 10
25.57859936814521
 20
45.47389268871595
 30
0.0
 11
25.56413705757478
 21
45.47806841321513
 31
0.0
  0
LINE
  5
50E
  8
0
  6
CONTINUOUS
 62
     1
 10
25.36153134666725
 20
45.30110663775314
 30
0.0
 11
25.34547440377722
 21
45.26924893277989
 31
0.0
  0
LINE
  5
50F
  8
0
  6
CONTINUOUS
 62
     1
 10
25.39979249416052
 20
45.35393982975759
 30
0.0
 11
25.36153134666725
 21
45.30110663775314
 31
0.0
  0
LINE
  5
510
  8
0
  6
CONTINUOUS
 62
     1
 10
25.41860514289641
 20
45.37023206147441
 30
0.0
 11
25.39979249416052
 21
45.35393982975759
 31
0.0
  0
LINE
  5
511
  8
0
  6
CONTINUOUS
 62
     1
 10
25.18952612968843
 20
44.90839732411534
 30
0.0
 11
25.18643929207983
 21
44.86027392160209
 31
0.0
  0
LINE
  5
512
  8
0
  6
CONTINUOUS
 62
     1
 10
25.2219321688803
 20
45.02413551978164
 30
0.0
 11
25.18952612968843
 21
44.90839732411534
 31
0.0
  0
LINE
  5
513
  8
0
  6
CONTINUOUS
 62
     1
 10
25.2453021235772
 20
45.0705025727799
 30
0.0
 11
25.2219321688803
 21
45.02413551978164
 31
0.0
  0
LINE
  5
514
  8
0
  6
CONTINUOUS
 62
     1
 10
24.23813717560731
 20
44.34791681336571
 30
0.0
 11
24.22002823639643
 21
44.33223401197442
 31
0.0
  0
LINE
  5
515
  8
0
  6
CONTINUOUS
 62
     1
 10
24.27362646821395
 20
44.36046019396173
 30
0.0
 11
24.23813717560731
 21
44.34791681336571
 31
0.0
  0
LINE
  5
516
  8
0
  6
CONTINUOUS
 62
     1
 10
24.28808738861528
 20
44.3562889250657
 30
0.0
 11
24.27362646821395
 21
44.36046019396173
 31
0.0
  0
LINE
  5
517
  8
0
  6
CONTINUOUS
 62
     1
 10
24.00096054313892
 20
44.01702766011559
 30
0.0
 11
23.99611032747983
 21
43.9414134199021
 31
0.0
  0
LINE
  5
518
  8
0
  6
CONTINUOUS
 62
     1
 10
24.08508173712289
 20
44.21536691544779
 30
0.0
 11
24.00096054313892
 21
44.01702766011559
 31
0.0
  0
LINE
  5
519
  8
0
  6
CONTINUOUS
 62
     1
 10
24.12810389809644
 20
44.25262519977441
 30
0.0
 11
24.08508173712289
 21
44.21536691544779
 31
0.0
  0
LINE
  5
51A
  8
0
  6
CONTINUOUS
 62
     1
 10
26.14875201810491
 20
43.81201406256861
 30
0.0
 11
26.1253820634041
 21
43.82009882908908
 31
0.0
  0
LINE
  5
51B
  8
0
  6
CONTINUOUS
 62
     1
 10
26.18115805729975
 20
43.74503714604889
 30
0.0
 11
26.14875201810491
 21
43.81201406256861
 31
0.0
  0
LINE
  5
51C
  8
0
  6
CONTINUOUS
 62
     1
 10
26.18424489490694
 20
43.69844092057475
 30
0.0
 11
26.18115805729975
 21
43.74503714604889
 31
0.0
  0
LINE
  5
51D
  8
06___PRT_ALL_SURFS
  6
CONTINUOUS
 62
     1
 10
36.3624928286073
 20
40.84791681336571
 30
0.0
 11
36.34438388939643
 21
40.83223401197441
 31
0.0
  0
LINE
  5
51E
  8
06___PRT_ALL_SURFS
  6
CONTINUOUS
 62
     1
 10
36.39798212121396
 20
40.86046019396176
 30
0.0
 11
36.3624928286073
 21
40.84791681336571
 31
0.0
  0
LINE
  5
51F
  8
06___PRT_ALL_SURFS
  6
CONTINUOUS
 62
     1
 10
36.41244304161528
 20
40.85628892506574
 30
0.0
 11
36.39798212121396
 21
40.86046019396176
 31
0.0
  0
LINE
  5
520
  8
06___PRT_ALL_SURFS
  6
CONTINUOUS
 62
     1
 10
36.12531619613891
 20
40.51702766011559
 30
0.0
 11
36.12046598047982
 21
40.44141341990209
 31
0.0
  0
LINE
  5
521
  8
06___PRT_ALL_SURFS
  6
CONTINUOUS
 62
     1
 10
36.20943739012287
 20
40.71536691544779
 30
0.0
 11
36.12531619613891
 21
40.51702766011559
 31
0.0
  0
LINE
  5
522
  8
06___PRT_ALL_SURFS
  6
CONTINUOUS
 62
     1
 10
36.25245955109644
 20
40.75262519977443
 30
0.0
 11
36.20943739012287
 21
40.71536691544779
 31
0.0
  0
LINE
  5
523
  8
06___PRT_ALL_SURFS
  6
CONTINUOUS
 62
     1
 10
37.65299729004175
 20
41.96552646065288
 30
0.0
 11
37.63488513419642
 21
41.94984087357439
 31
0.0
  0
LINE
  5
524
  8
06___PRT_ALL_SURFS
  6
CONTINUOUS
 62
     1
 10
37.68849271057476
 20
41.97806841321513
 30
0.0
 11
37.65299729004175
 21
41.96552646065288
 31
0.0
  0
LINE
  5
525
  8
06___PRT_ALL_SURFS
  6
CONTINUOUS
 62
     1
 10
37.70295502114519
 20
41.97389268871595
 30
0.0
 11
37.68849271057476
 21
41.97806841321513
 31
0.0
  0
LINE
  5
526
  8
06___PRT_ALL_SURFS
  6
CONTINUOUS
 62
     1
 10
37.48588699966726
 20
41.80110663775315
 30
0.0
 11
37.46983005677721
 21
41.76924893277989
 31
0.0
  0
LINE
  5
527
  8
06___PRT_ALL_SURFS
  6
CONTINUOUS
 62
     1
 10
37.52414814716052
 20
41.85393982975759
 30
0.0
 11
37.48588699966726
 21
41.80110663775315
 31
0.0
  0
LINE
  5
528
  8
06___PRT_ALL_SURFS
  6
CONTINUOUS
 62
     1
 10
37.54296079589642
 20
41.87023206147441
 30
0.0
 11
37.52414814716052
 21
41.85393982975759
 31
0.0
  0
LINE
  5
529
  8
06___PRT_ALL_SURFS
  6
CONTINUOUS
 62
     1
 10
37.31388178268844
 20
41.40839732411534
 30
0.0
 11
37.31079494507983
 21
41.3602739216021
 31
0.0
  0
LINE
  5
52A
  8
06___PRT_ALL_SURFS
  6
CONTINUOUS
 62
     1
 10
37.3462878218803
 20
41.52413551978167
 30
0.0
 11
37.31388178268844
 21
41.40839732411534
 31
0.0
  0
LINE
  5
52B
  8
06___PRT_ALL_SURFS
  6
CONTINUOUS
 62
     1
 10
37.36965777657721
 20
41.5705025727799
 30
0.0
 11
37.3462878218803
 21
41.52413551978167
 31
0.0
  0
LINE
  5
52C
  8
06___PRT_ALL_SURFS
  6
CONTINUOUS
 62
     1
 10
38.27310767100491
 20
40.31201406256861
 30
0.0
 11
38.24973771630411
 21
40.32009882908906
 31
0.0
  0
LINE
  5
52D
  8
06___PRT_ALL_SURFS
  6
CONTINUOUS
 62
     1
 10
38.30551371019976
 20
40.2450371460489
 30
0.0
 11
38.27310767100491
 21
40.31201406256861
 31
0.0
  0
LINE
  5
52E
  8
06___PRT_ALL_SURFS
  6
CONTINUOUS
 62
     1
 10
38.30860054780695
 20
40.19844092057477
 30
0.0
 11
38.30551371019976
 21
40.2450371460489
 31
0.0
  0
LINE
  5
52F
  8
0
  6
CONTINUOUS
 62
     1
 10
23.88200437401187
 20
42.16251623744978
 30
0.0
 11
23.8897647190538
 21
42.28349902181978
 31
0.0
  0
LINE
  5
530
  8
0
  6
CONTINUOUS
 62
     1
 10
23.74741046364593
 20
41.8451734288321
 30
0.0
 11
23.88200437401187
 21
42.16251623744978
 31
0.0
  0
LINE
  5
531
  8
0
  6
CONTINUOUS
 62
     1
 10
23.67857500608041
 20
41.78556017388888
 30
0.0
 11
23.74741046364593
 21
41.8451734288321
 31
0.0
  0
LINE
  5
532
  8
0
  6
CONTINUOUS
 62
     1
 10
36.00636002701188
 20
38.66251623744978
 30
0.0
 11
36.0141203720538
 21
38.78349902181978
 31
0.0
  0
LINE
  5
533
  8
0
  6
CONTINUOUS
 62
     1
 10
35.87176611664593
 20
38.34517342883208
 30
0.0
 11
36.00636002701188
 21
38.66251623744978
 31
0.0
  0
LINE
  5
534
  8
0
  6
CONTINUOUS
 62
     1
 10
35.8029306590804
 20
38.28556017388888
 30
0.0
 11
35.87176611664593
 21
38.34517342883208
 31
0.0
  0
LINE
  5
535
  8
06___PRT_ALL_SURFS
  6
CONTINUOUS
 62
     1
 10
39.40995810275328
 20
41.48709915793684
 30
0.0
 11
39.36693594176809
 21
41.44984087360109
 31
0.0
  0
LINE
  5
536
  8
06___PRT_ALL_SURFS
  6
CONTINUOUS
 62
     1
 10
39.49407929675439
 20
41.42391673783865
 30
0.0
 11
39.40995810275328
 21
41.48709915793684
 31
0.0
  0
LINE
  5
537
  8
06___PRT_ALL_SURFS
  6
CONTINUOUS
 62
     1
 10
39.49892951240807
 20
41.35070208545784
 30
0.0
 11
39.49407929675439
 21
41.42391673783865
 31
0.0
  0
LINE
  5
538
  8
06___PRT_ALL_SURFS
  6
CONTINUOUS
 62
     1
 10
38.09454363618548
 20
40.34791681339695
 30
0.0
 11
38.07643469697064
 21
40.33223401200328
 31
0.0
  0
LINE
  5
539
  8
06___PRT_ALL_SURFS
  6
CONTINUOUS
 62
     1
 10
38.13135681675539
 20
40.36007802045967
 30
0.0
 11
38.09454363618548
 21
40.34791681339695
 31
0.0
  0
LINE
  5
53A
  8
06___PRT_ALL_SURFS
  6
CONTINUOUS
 62
     1
 10
38.14703271896664
 20
40.35555601652507
 30
0.0
 11
38.13135681675539
 21
40.36007802045967
 31
0.0
  0
LINE
  5
53B
  8
0
  6
CONTINUOUS
 62
     1
 10
27.28560244975327
 20
44.98709915793685
 30
0.0
 11
27.2425802887681
 21
44.94984087360109
 31
0.0
  0
LINE
  5
53C
  8
0
  6
CONTINUOUS
 62
     1
 10
27.36972364375438
 20
44.92391673783868
 30
0.0
 11
27.28560244975327
 21
44.98709915793685
 31
0.0
  0
LINE
  5
53D
  8
0
  6
CONTINUOUS
 62
     1
 10
27.37457385940806
 20
44.85070208545788
 30
0.0
 11
27.36972364375438
 21
44.92391673783868
 31
0.0
  0
LINE
  5
53E
  8
0
  6
CONTINUOUS
 62
     1
 10
25.97018798318547
 20
43.84791681339695
 30
0.0
 11
25.95207904397063
 21
43.83223401200328
 31
0.0
  0
LINE
  5
53F
  8
0
  6
CONTINUOUS
 62
     1
 10
26.00700116375536
 20
43.86007802045967
 30
0.0
 11
25.97018798318547
 21
43.84791681339695
 31
0.0
  0
LINE
  5
540
  8
0
  6
CONTINUOUS
 62
     1
 10
26.02267706596663
 20
43.85555601652507
 30
0.0
 11
26.00700116375536
 21
43.86007802045967
 31
0.0
  0
LINE
  5
541
  8
0
  6
CONTINUOUS
 62
     1
 10
26.94074954332054
 20
44.40286266952579
 30
0.0
 11
26.94097038800197
 21
44.35378442137119
 31
0.0
  0
LINE
  5
542
  8
0
  6
CONTINUOUS
 62
     1
 10
26.96677503021282
 20
44.52044277201243
 30
0.0
 11
26.94074954332054
 21
44.40286266952579
 31
0.0
  0
LINE
  5
543
  8
0
  6
CONTINUOUS
 62
     1
 10
26.98824348547953
 20
44.56735874062517
 30
0.0
 11
26.96677503021282
 21
44.52044277201243
 31
0.0
  0
LINE
  5
544
  8
0
  6
CONTINUOUS
 62
     1
 10
27.09501570260456
 20
44.80069280802863
 30
0.0
 11
27.08026523497952
 21
44.76845795612518
 31
0.0
  0
LINE
  5
545
  8
0
  6
CONTINUOUS
 62
     1
 10
27.13184330183061
 20
44.85393982978403
 30
0.0
 11
27.09501570260456
 21
44.80069280802863
 31
0.0
  0
LINE
  5
546
  8
0
  6
CONTINUOUS
 62
     1
 10
27.15065595057064
 20
44.8702320615033
 30
0.0
 11
27.13184330183061
 21
44.85393982978403
 31
0.0
  0
LINE
  5
547
  8
0
  6
CONTINUOUS
 62
     1
 10
25.74214388881751
 20
43.51439132342446
 30
0.0
 11
25.74249089260196
 21
43.4372767751712
 31
0.0
  0
LINE
  5
548
  8
0
  6
CONTINUOUS
 62
     1
 10
25.81713254468769
 20
43.71536691547104
 30
0.0
 11
25.74214388881751
 21
43.51439132342446
 31
0.0
  0
LINE
  5
549
  8
0
  6
CONTINUOUS
 62
     1
 10
25.86015470567065
 20
43.75262519980329
 30
0.0
 11
25.81713254468769
 21
43.71536691547104
 31
0.0
  0
LINE
  5
54A
  8
06___PRT_ALL_SURFS
  6
CONTINUOUS
 62
     1
 10
37.86649954181752
 20
40.01439132342446
 30
0.0
 11
37.86684654560196
 21
39.9372767751712
 31
0.0
  0
LINE
  5
54B
  8
06___PRT_ALL_SURFS
  6
CONTINUOUS
 62
     1
 10
37.94148819768768
 20
40.21536691547107
 30
0.0
 11
37.86649954181752
 21
40.01439132342446
 31
0.0
  0
LINE
  5
54C
  8
06___PRT_ALL_SURFS
  6
CONTINUOUS
 62
     1
 10
37.98451035867063
 20
40.2526251998033
 30
0.0
 11
37.94148819768768
 21
40.21536691547107
 31
0.0
  0
LINE
  5
54D
  8
06___PRT_ALL_SURFS
  6
CONTINUOUS
 62
     1
 10
39.06510519622051
 20
40.90286266952577
 30
0.0
 11
39.06532604090197
 21
40.85378442137119
 31
0.0
  0
LINE
  5
54E
  8
06___PRT_ALL_SURFS
  6
CONTINUOUS
 62
     1
 10
39.09113068311281
 20
41.02044277201242
 30
0.0
 11
39.06510519622051
 21
40.90286266952577
 31
0.0
  0
LINE
  5
54F
  8
06___PRT_ALL_SURFS
  6
CONTINUOUS
 62
     1
 10
39.11259913837952
 20
41.06735874062517
 30
0.0
 11
39.09113068311281
 21
41.02044277201242
 31
0.0
  0
LINE
  5
550
  8
06___PRT_ALL_SURFS
  6
CONTINUOUS
 62
     1
 10
39.21937135550456
 20
41.30069280802863
 30
0.0
 11
39.20462088787953
 21
41.26845795612522
 31
0.0
  0
LINE
  5
551
  8
06___PRT_ALL_SURFS
  6
CONTINUOUS
 62
     1
 10
39.25619895473062
 20
41.35393982978403
 30
0.0
 11
39.21937135550456
 21
41.30069280802863
 31
0.0
  0
LINE
  5
552
  8
06___PRT_ALL_SURFS
  6
CONTINUOUS
 62
     1
 10
39.27501160347065
 20
41.37023206150329
 30
0.0
 11
39.25619895473062
 21
41.35393982978403
 31
0.0
  0
LINE
  5
553
  8
0
  6
CONTINUOUS
 62
     1
 10
25.7506544880748
 20
41.62308341424014
 30
0.0
 11
25.75009928199938
 21
41.74646669145328
 31
0.0
  0
LINE
  5
554
  8
0
  6
CONTINUOUS
 62
     1
 10
25.63067263872864
 20
41.30152246692714
 30
0.0
 11
25.7506544880748
 21
41.62308341424014
 31
0.0
  0
LINE
  5
555
  8
0
  6
CONTINUOUS
 62
     1
 10
25.56183718116185
 20
41.24190921198149
 30
0.0
 11
25.63067263872864
 21
41.30152246692714
 31
0.0
  0
LINE
  5
556
  8
0
  6
CONTINUOUS
 62
     1
 10
37.8750101410748
 20
38.12308341424017
 30
0.0
 11
37.87445493499939
 21
38.24646669145326
 31
0.0
  0
LINE
  5
557
  8
0
  6
CONTINUOUS
 62
     1
 10
37.75502829172865
 20
37.80152246692714
 30
0.0
 11
37.8750101410748
 21
38.12308341424017
 31
0.0
  0
LINE
  5
558
  8
0
  6
CONTINUOUS
 62
     1
 10
37.68619283416186
 20
37.74190921198149
 30
0.0
 11
37.75502829172865
 21
37.80152246692714
 31
0.0
  0
LINE
  5
559
  8
0
  6
CONTINUOUS
 62
     1
 10
49.80285297126478
 20
45.59210729606158
 30
0.0
 11
49.71638008849607
 21
45.61706986712248
 31
0.0
  0
LINE
  5
55A
  8
0
  6
CONTINUOUS
 62
     1
 10
49.93127212833775
 20
45.50523253257207
 30
0.0
 11
49.80285297126478
 21
45.59210729606158
 31
0.0
  0
LINE
  5
55B
  8
0
  6
CONTINUOUS
 62
     1
 10
49.9535376216089
 20
45.45663426648056
 30
0.0
 11
49.93127212833775
 21
45.50523253257207
 31
0.0
  0
LINE
  5
55C
  8
0
  6
CONTINUOUS
 62
     1
 10
22.8001785931596
 20
42.11434395068834
 30
0.0
 11
22.82305792650121
 21
42.10773925605247
 31
0.0
  0
LINE
  5
55D
  8
0
  6
CONTINUOUS
 62
     1
 10
22.77164570677715
 20
42.14104349470497
 30
0.0
 11
22.8001785931596
 21
42.11434395068834
 31
0.0
  0
LINE
  5
55E
  8
0
  6
CONTINUOUS
 62
     1
 10
22.77342475355813
 20
42.15418331600195
 30
0.0
 11
22.77164570677715
 21
42.14104349470497
 31
0.0
  0
LINE
  5
55F
  8
0
  6
CONTINUOUS
 62
     1
 10
22.9854238612705
 20
42.09797175007066
 30
0.0
 11
23.00310102079054
 21
42.11328061927641
 31
0.0
  0
LINE
  5
560
  8
0
  6
CONTINUOUS
 62
     1
 10
22.89763603268855
 20
42.08621041120271
 30
0.0
 11
22.9854238612705
 21
42.09797175007066
 31
0.0
  0
LINE
  5
561
  8
0
  6
CONTINUOUS
 62
     1
 10
22.86701829427345
 20
42.09504899096876
 30
0.0
 11
22.89763603268855
 21
42.08621041120271
 31
0.0
  0
LINE
  5
562
  8
0
  6
CONTINUOUS
 62
     1
 10
16.9545071176596
 20
43.80184395068835
 30
0.0
 11
16.97738645100119
 21
43.79523925605247
 31
0.0
  0
LINE
  5
563
  8
0
  6
CONTINUOUS
 62
     1
 10
16.92597423127715
 20
43.82854349470496
 30
0.0
 11
16.9545071176596
 21
43.80184395068835
 31
0.0
  0
LINE
  5
564
  8
0
  6
CONTINUOUS
 62
     1
 10
16.92775327805813
 20
43.84168331600192
 30
0.0
 11
16.92597423127715
 21
43.82854349470496
 31
0.0
  0
LINE
  5
565
  8
0
  6
CONTINUOUS
 62
     1
 10
17.02134681877344
 20
43.78254899096876
 30
0.0
 11
17.03306493895897
 21
43.77965781157809
 31
0.0
  0
LINE
  5
566
  8
0
  6
CONTINUOUS
 62
     1
 10
49.88021117682615
 20
45.70421836310453
 30
0.0
 11
49.72711864218721
 21
45.74841237112506
 31
0.0
  0
LINE
  5
567
  8
0
  6
CONTINUOUS
 62
     1
 10
49.99826854763492
 20
45.48392031014134
 30
0.0
 11
49.88021117682615
 21
45.70421836310453
 31
0.0
  0
LINE
  5
568
  8
0
  6
CONTINUOUS
 62
     1
 10
49.90988053155816
 20
45.40737404282349
 30
0.0
 11
49.99826854763492
 21
45.48392031014134
 31
0.0
  0
LINE
  5
569
  8
0
  6
CONTINUOUS
 62
     1
 10
34.39619533910025
 20
49.98785089349943
 30
0.0
 11
34.30780732300882
 21
49.9113046261938
 31
0.0
  0
LINE
  5
56A
  8
0
  6
CONTINUOUS
 62
     1
 10
34.8367914450865
 20
50.04687957885938
 30
0.0
 11
34.39619533910025
 21
49.98785089349943
 31
0.0
  0
LINE
  5
56B
  8
0
  6
CONTINUOUS
 62
     1
 10
34.98988397972332
 20
50.00268557081303
 30
0.0
 11
34.8367914450865
 21
50.04687957885938
 31
0.0
  0
LINE
  5
56C
  8
0
  6
CONTINUOUS
 62
     1
 10
34.39907272590024
 20
49.85257780609942
 30
0.0
 11
34.31068470980881
 21
49.77603153879383
 31
0.0
  0
LINE
  5
56D
  8
0
  6
CONTINUOUS
 62
     1
 10
34.8396688318865
 20
49.91160649145937
 30
0.0
 11
34.39907272590024
 21
49.85257780609942
 31
0.0
  0
LINE
  5
56E
  8
0
  6
CONTINUOUS
 62
     1
 10
34.9927613665233
 20
49.86741248341301
 30
0.0
 11
34.8396688318865
 21
49.91160649145937
 31
0.0
  0
LINE
  5
56F
  8
0
  6
CONTINUOUS
 62
     1
 10
50.27001490735994
 20
38.27805168696827
 30
0.0
 11
50.29473132000082
 21
37.44279841852128
 31
0.0
  0
LINE
  5
570
  8
0
  6
CONTINUOUS
 62
     1
 10
50.25237552968976
 20
39.12570541103028
 30
0.0
 11
50.27001490735994
 21
38.27805168696827
 31
0.0
  0
LINE
  5
571
  8
0
  6
CONTINUOUS
 62
     1
 10
53.49606688532153
 20
39.54375917345706
 30
0.0
 11
53.52258909362033
 21
39.52795520494251
 31
0.0
  0
LINE
  5
572
  8
0
  6
CONTINUOUS
 62
     1
 10
53.44325640604691
 20
39.58609979428456
 30
0.0
 11
53.49606688532153
 21
39.54375917345706
 31
0.0
  0
LINE
  5
573
  8
0
  6
CONTINUOUS
 62
     1
 10
53.41823085825494
 20
39.61162406261107
 30
0.0
 11
53.44325640604691
 21
39.58609979428456
 31
0.0
  0
LINE
  5
574
  8
0
  6
CONTINUOUS
 62
     1
 10
54.0578387823079
 20
42.91467376911896
 30
0.0
 11
54.02080923437592
 21
43.01982835241679
 31
0.0
  0
LINE
  5
575
  8
0
  6
CONTINUOUS
 62
     1
 10
53.97909242521078
 20
42.69168081864503
 30
0.0
 11
54.0578387823079
 21
42.91467376911896
 31
0.0
  0
LINE
  5
576
  8
0
  6
CONTINUOUS
 62
     1
 10
53.87225630604011
 20
42.59915802540357
 30
0.0
 11
53.97909242521078
 21
42.69168081864503
 31
0.0
  0
LINE
  5
577
  8
0
  6
CONTINUOUS
 62
     1
 10
35.40939743140441
 20
31.50437212166619
 30
0.0
 11
35.49858785148402
 21
31.4786233739226
 31
0.0
  0
LINE
  5
578
  8
0
  6
CONTINUOUS
 62
     1
 10
35.30605639039797
 20
31.77490633408527
 30
0.0
 11
35.40939743140441
 21
31.50437212166619
 31
0.0
  0
LINE
  5
579
  8
0
  6
CONTINUOUS
 62
     1
 10
35.31242517841031
 20
31.96597449455507
 30
0.0
 11
35.30605639039797
 21
31.77490633408527
 31
0.0
  0
LINE
  5
57A
  8
0
  6
CONTINUOUS
 62
     1
 10
17.5614737494426
 20
35.31640293877385
 30
0.0
 11
17.58537196598969
 21
35.30950411789817
 31
0.0
  0
LINE
  5
57B
  8
0
  6
CONTINUOUS
 62
     1
 10
17.51286687193111
 20
35.34682792586631
 30
0.0
 11
17.5614737494426
 21
35.31640293877385
 31
0.0
  0
LINE
  5
57C
  8
0
  6
CONTINUOUS
 62
     1
 10
17.4904954477764
 20
35.36889112216178
 30
0.0
 11
17.51286687193111
 21
35.34682792586631
 31
0.0
  0
LINE
  5
57D
  8
06___PRT_ALL_SURFS
  6
CONTINUOUS
 62
     1
 10
33.65929424928197
 20
33.11016713939824
 30
0.0
 11
33.63816587555098
 21
32.98883947886057
 31
0.0
  0
LINE
  5
57E
  8
06___PRT_ALL_SURFS
  6
CONTINUOUS
 62
     1
 10
33.76542892763791
 20
33.25217088990451
 30
0.0
 11
33.65929424928197
 21
33.11016713939824
 31
0.0
  0
LINE
  5
57F
  8
06___PRT_ALL_SURFS
  6
CONTINUOUS
 62
     1
 10
33.82263837186127
 20
33.23565594589181
 30
0.0
 11
33.76542892763791
 21
33.25217088990451
 31
0.0
  0
LINE
  5
580
  8
0
  6
CONTINUOUS
 62
     1
 10
50.80975938423362
 20
37.26136091590436
 30
0.0
 11
50.89114055911668
 21
37.24905392530542
 31
0.0
  0
LINE
  5
581
  8
0
  6
CONTINUOUS
 62
     1
 10
50.73012278840812
 20
37.28365418596277
 30
0.0
 11
50.80975938423362
 21
37.26136091590436
 31
0.0
  0
LINE
  5
582
  8
0
  6
CONTINUOUS
 62
     1
 10
42.65052413460613
 20
32.88085289051736
 30
0.0
 11
42.87149483984255
 21
33.07221913474376
 31
0.0
  0
LINE
  5
583
  8
0
  6
CONTINUOUS
 62
     1
 10
41.5477357557027
 20
32.73310726274465
 30
0.0
 11
42.65052413460613
 21
32.88085289051736
 31
0.0
  0
LINE
  5
584
  8
0
  6
CONTINUOUS
 62
     1
 10
41.16500326726903
 20
32.84359261536619
 30
0.0
 11
41.5477357557027
 21
32.73310726274465
 31
0.0
  0
LINE
  5
585
  8
0
  6
CONTINUOUS
 62
     1
 10
53.31452511381515
 20
40.11614858206596
 30
0.0
 11
53.3298622588906
 21
40.07129891554609
 31
0.0
  0
LINE
  5
586
  8
0
  6
CONTINUOUS
 62
     1
 10
53.29927472334145
 20
40.20857589820542
 30
0.0
 11
53.31452511381515
 21
40.11614858206596
 31
0.0
  0
LINE
  5
587
  8
0
  6
CONTINUOUS
 62
     1
 10
53.29992783008444
 20
40.25272108434214
 30
0.0
 11
53.29927472334145
 21
40.20857589820542
 31
0.0
  0
LINE
  5
588
  8
0
  6
CONTINUOUS
 62
     1
 10
53.3939867207899
 20
40.98349063866917
 30
0.0
 11
53.32986225874369
 21
40.07129891583173
 31
0.0
  0
LINE
  5
589
  8
0
  6
CONTINUOUS
 62
     1
 10
53.46673771394376
 20
41.90942472012964
 30
0.0
 11
53.3939867207899
 21
40.98349063866917
 31
0.0
  0
LINE
  5
58A
  8
0
  6
CONTINUOUS
 62
     1
 10
41.82475470372341
 20
32.97596646161787
 30
0.0
 11
41.88916009782378
 21
32.97808776862203
 31
0.0
  0
LINE
  5
58B
  8
0
  6
CONTINUOUS
 62
     1
 10
41.76022228357493
 20
32.97662253269669
 30
0.0
 11
41.82475470372341
 21
32.97596646161787
 31
0.0
  0
LINE
  5
58C
  8
0
  6
CONTINUOUS
 62
     1
 10
18.80608671756107
 20
35.1602640237812
 30
0.0
 11
18.80985432537778
 21
35.27329493241612
 31
0.0
  0
LINE
  5
58D
  8
0
  6
CONTINUOUS
 62
     1
 10
18.66541994954741
 20
34.99772112084364
 30
0.0
 11
18.80608671756107
 21
35.1602640237812
 31
0.0
  0
LINE
  5
58E
  8
0
  6
CONTINUOUS
 62
     1
 10
18.59016864689302
 20
35.01944430074983
 30
0.0
 11
18.66541994954741
 21
34.99772112084364
 31
0.0
  0
LINE
  5
58F
  8
06___PRT_ALL_SURFS
  6
CONTINUOUS
 62
     1
 10
34.96021969656562
 20
31.20370946678642
 30
0.0
 11
34.9624377649013
 21
31.13277833908793
 31
0.0
  0
LINE
  5
590
  8
06___PRT_ALL_SURFS
  6
CONTINUOUS
 62
     1
 10
34.9793783911957
 20
31.35944728483145
 30
0.0
 11
34.96021969656562
 21
31.20370946678642
 31
0.0
  0
LINE
  5
591
  8
06___PRT_ALL_SURFS
  6
CONTINUOUS
 62
     1
 10
34.99986791026227
 20
31.43704171820568
 30
0.0
 11
34.9793783911957
 21
31.35944728483145
 31
0.0
  0
LINE
  5
592
  8
06___PRT_ALL_SURFS
  6
CONTINUOUS
 62
     1
 10
35.11789995994023
 20
32.86174613255773
 30
0.0
 11
35.04823771304008
 21
32.88185589105433
 31
0.0
  0
LINE
  5
593
  8
06___PRT_ALL_SURFS
  6
CONTINUOUS
 62
     1
 10
35.23508806208625
 20
32.55341182689577
 30
0.0
 11
35.11789995994023
 21
32.86174613255773
 31
0.0
  0
LINE
  5
594
  8
06___PRT_ALL_SURFS
  6
CONTINUOUS
 62
     1
 10
35.23817664802425
 20
32.3821064406917
 30
0.0
 11
35.23508806208625
 21
32.55341182689577
 31
0.0
  0
LINE
  5
595
  8
06___PRT_ALL_SURFS
  6
CONTINUOUS
 62
     1
 10
18.50573702456563
 20
35.95370946678642
 30
0.0
 11
18.5079550929013
 21
35.88277833908793
 31
0.0
  0
LINE
  5
596
  8
06___PRT_ALL_SURFS
  6
CONTINUOUS
 62
     1
 10
18.52489571919568
 20
36.10944728483145
 30
0.0
 11
18.50573702456563
 21
35.95370946678642
 31
0.0
  0
LINE
  5
597
  8
06___PRT_ALL_SURFS
  6
CONTINUOUS
 62
     1
 10
18.54538523826226
 20
36.18704171820568
 30
0.0
 11
18.52489571919568
 21
36.10944728483145
 31
0.0
  0
LINE
  5
598
  8
06___PRT_ALL_SURFS
  6
CONTINUOUS
 62
     1
 10
18.66341728804022
 20
37.61174613255773
 30
0.0
 11
18.59375504114007
 21
37.6318558910543
 31
0.0
  0
LINE
  5
599
  8
06___PRT_ALL_SURFS
  6
CONTINUOUS
 62
     1
 10
18.78060539018625
 20
37.30341182689577
 30
0.0
 11
18.66341728804022
 21
37.61174613255773
 31
0.0
  0
LINE
  5
59A
  8
06___PRT_ALL_SURFS
  6
CONTINUOUS
 62
     1
 10
18.78369397612424
 20
37.1321064406917
 30
0.0
 11
18.78060539018625
 21
37.30341182689577
 31
0.0
  0
VIEWPORT
  5
59B
 67
     1
  8
0
 10
128.5
 20
97.5
 30
0.0
 40
314.226
 41
222.18
 68
     1
 69
     1
1001
ACAD
1000
MVIEW
1002
{
1070
    16
1010
0.0
1020
0.0
1030
0.0
1010
0.0
1020
0.0
1030
1.0
1040
0.0
1040
222.18
1040
128.5
1040
97.5
1040
50.0
1040
0.0
1040
0.0
1070
     0
1070
   100
1070
     0
1070
     3
1070
     0
1070
     0
1070
     0
1070
     0
1040
0.0
1040
0.0
1040
0.0
1040
10.0
1040
10.0
1040
10.0
1040
10.0
1070
     0
1002
{
1002
}
1002
}
  0
ENDSEC
  0
EOF
