  0
SECTION
  2
HEADER
  9
$ACADVER
  1
AC1009
  9
$DWGCODEPAGE
  3
dos932
  9
$INSBASE
 10
0
 20
0
 30
0
  9
$EXTMIN
 10
5.4540126688768913
 20
5.3517050957777421
 30
0
  9
$EXTMAX
 10
92.413807109633126
 20
95.618553754902791
 30
0
  9
$LIMMIN
 10
0
 20
0
  9
$LIMMAX
 10
297
 20
210
  9
$SNAPMODE
 70
0
  9
$SNAPUNIT
 10
1
 20
1
  9
$SNAPBASE
 10
0
 20
0
  9
$SNAPANG
 50
0
  9
$SNAPSTYLE
 70
0
  9
$SNAPISOPAIR
 70
0
  9
$ORTHOMODE
 70
0
  9
$REGENMODE
 70
1
  9
$FILLMODE
 70
1
  9
$QTEXTMODE
 70
0
  9
$MIRRTEXT
 70
1
  9
$LTSCALE
 40
1
  9
$OSMODE
 70
182
  9
$ATTMODE
 70
1
  9
$TEXTSIZE
 40
0.2
  9
$TRACEWID
 40
0.05
  9
$TEXTSTYLE
  7
STANDARD
  9
$CLAYER
  8
LAY-1
  9
$CELTYPE
  6
CONTINUOUS
  9
$CECOLOR
 62
256
  9
$DIMSCALE
 40
1
  9
$DIMASZ
 40
0.18
  9
$DIMEXO
 40
0.0625
  9
$DIMDLI
 40
0.38
  9
$DIMRND
 40
0
  9
$DIMDLE
 40
0
  9
$DIMEXE
 40
0.18
  9
$DIMTP
 40
0
  9
$DIMTM
 40
0
  9
$DIMTXT
 40
0.18
  9
$DIMCEN
 40
0.09
  9
$DIMTSZ
 40
0
  9
$DIMTOL
 70
0
  9
$DIMLIM
 70
0
  9
$DIMTIH
 70
1
  9
$DIMTOH
 70
1
  9
$DIMSE1
 70
0
  9
$DIMSE2
 70
0
  9
$DIMTAD
 70
0
  9
$DIMZIN
 70
0
  9
$DIMBLK
  1

  9
$DIMASO
 70
1
  9
$DIMSHO
 70
1
  9
$DIMPOST
  1

  9
$DIMAPOST
  1

  9
$DIMALT
 70
0
  9
$DIMALTD
 70
2
  9
$DIMALTF
 40
25.4
  9
$DIMLFAC
 40
1
  9
$DIMTOFL
 70
0
  9
$DIMTVP
 40
0
  9
$DIMTIX
 70
0
  9
$DIMSOXD
 70
0
  9
$DIMSAH
 70
0
  9
$DIMBLK1
  1

  9
$DIMBLK2
  1

  9
$DIMSTYLE
  2
STANDARD
  9
$DIMCLRD
 70
0
  9
$DIMCLRE
 70
0
  9
$DIMCLRT
 70
0
  9
$DIMTFAC
 40
1
  9
$DIMGAP
 40
0.09
  9
$LUNITS
 70
2
  9
$LUPREC
 70
4
  9
$SKETCHINC
 40
0.1
  9
$FILLETRAD
 40
0
  9
$AUNITS
 70
0
  9
$AUPREC
 70
0
  9
$MENU
  1
.
  9
$ELEVATION
 40
0
  9
$PELEVATION
 40
0
  9
$THICKNESS
 40
0
  9
$LIMCHECK
 70
0
  9
$CHAMFERA
 40
0
  9
$CHAMFERB
 40
0
  9
$SKPOLY
 70
0
  9
$TDCREATE
 40
2451711
  9
$TDUPDATE
 40
2453108.4450782407
  9
$TDINDWG
 40
0.0011976851851851851
  9
$TDUSRTIMER
 40
0.0011976851851851851
  9
$USRTIMER
 70
1
  9
$ANGBASE
 50
0
  9
$ANGDIR
 70
0
  9
$PDMODE
 70
0
  9
$PDSIZE
 40
0
  9
$PLINEWID
 40
0
  9
$SPLFRAME
 70
0
  9
$SPLINETYPE
 70
6
  9
$SPLINESEGS
 70
8
  9
$HANDLING
 70
1
  9
$HANDSEED
  5
112
  9
$SURFTAB1
 70
6
  9
$SURFTAB2
 70
6
  9
$SURFTYPE
 70
6
  9
$SURFU
 70
6
  9
$SURFV
 70
6
  9
$UCSORG
 10
0
 20
0
 30
0
  9
$UCSXDIR
 10
1
 20
0
 30
0
  9
$UCSYDIR
 10
0
 20
1
 30
0
  9
$PUCSORG
 10
0
 20
0
 30
0
  9
$PUCSXDIR
 10
1
 20
0
 30
0
  9
$PUCSYDIR
 10
0
 20
1
 30
0
  9
$USERI1
 70
0
  9
$USERI2
 70
0
  9
$USERI3
 70
0
  9
$USERI4
 70
0
  9
$USERI5
 70
0
  9
$USERR1
 40
0
  9
$USERR2
 40
0
  9
$USERR3
 40
0
  9
$USERR4
 40
0
  9
$USERR5
 40
0
  9
$WORLDVIEW
 70
1
  9
$SHADEDGE
 70
3
  9
$SHADEDIF
 70
70
  9
$TILEMODE
 70
1
  9
$MAXACTVP
 70
64
  9
$PINSBASE
 10
0
 20
0
 30
0
  9
$PLIMCHECK
 70
0
  9
$PEXTMIN
 10
1E+20
 20
1E+20
 30
1E+20
  9
$PEXTMAX
 10
-1E+20
 20
-1E+20
 30
-1E+20
  9
$PLIMMAX
 10
12
 20
9
  9
$PLIMMIN
 10
0
 20
0
  9
$UNITMODE
 70
0
  9
$VISRETAIN
 70
1
  9
$PLINEGEN
 70
0
  9
$PSLTSCALE
 70
1
  9
$TREEDEPTH
 70
3020
  9
$DRAGMODE
 70
     2
  9
$BLIPMODE
 70
     0
  9
$COORDS
 70
     1
  9
$ATTDIA
 70
     0
  9
$ATTREQ
 70
     1
  0
ENDSEC
  0
SECTION
  2
TABLES
  0
TABLE
  2
VPORT
  5
106
 70
1
  0
VPORT
  5
DA
  2
*ACTIVE
 70
0
 10
0
 20
0
 11
1
 21
1
 12
148.5
 22
105
 13
0
 23
0
 14
1
 24
1
 15
0
 25
0
 16
0
 26
0
 36
1
 17
0
 27
0
 37
0
 40
212.35578766443049
 41
1.750922509225092
 42
50
 43
0
 44
0
 50
0
 51
0
 71
0
 72
100
 73
1
 74
1
 75
0
 76
0
 77
0
 78
0
  0
ENDTAB
  0
TABLE
  2
LTYPE
  5
107
 70
7
  0
LTYPE
  5
D2
  2
CONTINUOUS
  3
実線
 70
0
 72
65
 73
0
 40
0
  0
LTYPE
  5
D3
  2
DASHED
  3
破線
 70
0
 72
65
 73
2
 40
3.8
 49
3
 49
-0.8
  0
LTYPE
  5
D4
  2
DOT
  3
点線
 70
0
 72
65
 73
2
 40
2
 49
1
 49
-1
  0
LTYPE
  5
D5
  2
DASHDOT
  3
一点鎖線
 70
0
 72
65
 73
4
 40
25.6
 49
20
 49
-2
 49
1.6
 49
-2
  0
LTYPE
  5
D6
  2
DIVIDE
  3
二点鎖線
 70
0
 72
65
 73
6
 40
31.199999999999996
 49
20
 49
-2.399999999999999
 49
2
 49
-2.399999999999999
 49
2
 49
-2.399999999999999
  0
LTYPE
  5
D7
  2
ByBlock
  3

 70
64
 72
65
 73
0
 40
0
  0
LTYPE
  5
D8
  2
ByLayer
  3

 70
64
 72
65
 73
0
 40
0
  0
ENDTAB
  0
TABLE
  2
LAYER
  5
108
 70
3
  0
LAYER
  5
AB
 70
0
  2
0
 62
7
  6
CONTINUOUS
  0
LAYER
  5
AC
 70
0
  2
LAY-1
 62
7
  6
CONTINUOUS
  0
LAYER
  5
AD
 70
0
  2
SPEC
 62
7
  6
CONTINUOUS
  0
ENDTAB
  0
TABLE
  2
STYLE
  5
109
 70
5
  0
STYLE
  5
CD
  2
STANDARD
 70
0
 40
0
 41
1
 50
0
 71
0
 42
0.2
  3
txt.shx
  4
extfont2.shx
  0
STYLE
  5
CE
  2
EXCADSTD
 70
0
 40
0
 41
1
 50
0
 71
0
 42
0.2
  3
monotxt
  4
extfont
  0
STYLE
  5
CF
  2
EXCADVERT
 70
4
 40
0
 41
1
 50
0
 71
0
 42
0.286885
  3
monotxt
  4
extfont
  0
STYLE
  5
D0
  2
EXCADSTD2
 70
0
 40
0
 41
1
 50
0
 71
0
 42
0.2
  3
monotxt
  0
STYLE
  5
D1
  2
EXCADVERT2
 70
4
 40
0
 41
1
 50
0
 71
0
 42
0.286885
  3
monotxt
  0
ENDTAB
  0
TABLE
  2
APPID
  5
10C
 70
2
  0
APPID
  5
10D
  2
ACAD
 70
0
  0
APPID
  5
110
  2
ACAD_MLEADERVER
 70
64
  0
ENDTAB
  0
TABLE
  2
DIMSTYLE
  5
10E
 70
1
  0
DIMSTYLE
105
D9
  2
STANDARD
 70
0
  3

  4

  5

  6

  7

 40
1
 41
0.18
 42
0.0625
 43
0.38
 44
0.18
 45
0
 46
0
 47
0
 48
0
140
0.18
141
0.09
142
0
143
25.4
144
1
145
0
146
1
147
0.09
 71
0
 72
0
 73
1
 74
1
 75
0
 76
0
 77
0
 78
0
170
0
171
2
172
0
173
0
174
0
175
0
176
0
177
0
178
0
  0
ENDTAB
  0
ENDSEC
  0
SECTION
  2
BLOCKS
  0
BLOCK
  5
AF
  8
0
  2
$MODEL_SPACE
 70
0
 10
0
 20
0
 30
0
  3
$MODEL_SPACE
  0
ENDBLK
  5
20
  8
0
  0
BLOCK
  5
B1
  8
0
 67
1
  2
$PAPER_SPACE
 70
0
 10
0
 20
0
 30
0
  3
$PAPER_SPACE
  0
ENDBLK
  5
1C
  8
0
  0
BLOCK
  5
B3
  8
0
  2
_EX_NORM
 70
0
 10
0
 20
0
 30
0
  3
_EX_NORM
  0
LINE
  5
32
  8
0
  6
ByBlock
 62
0
 10
0
 20
0
 30
0
 11
-1
 21
0
 31
0
  0
LINE
  5
33
  8
0
  6
ByBlock
 62
0
 10
0
 20
0
 30
0
 11
-0.96076892200000008
 21
0.277350098
 31
0
  0
LINE
  5
34
  8
0
  6
ByBlock
 62
0
 10
0
 20
0
 30
0
 11
-0.96076892200000008
 21
-0.277350098
 31
0
  0
ENDBLK
  5
35
  8
0
  0
BLOCK
  5
B5
  8
0
  2
_EX_BNORM
 70
0
 10
0
 20
0
 30
0
  3
_EX_BNORM
  0
LINE
  5
38
  8
0
  6
ByBlock
 62
0
 10
0
 20
0
 30
0
 11
-1
 21
0
 31
0
  0
LINE
  5
39
  8
0
  6
ByBlock
 62
0
 10
0
 20
0
 30
0
 11
-0.96076892200000008
 21
0.277350098
 31
0
  0
LINE
  5
3A
  8
0
  6
ByBlock
 62
0
 10
0
 20
0
 30
0
 11
-0.96076892200000008
 21
-0.277350098
 31
0
  0
LINE
  5
3B
  8
0
  6
ByBlock
 62
0
 10
0
 20
0
 30
0
 11
-0.96076892200000008
 21
0.138767504
 31
0
  0
LINE
  5
3C
  8
0
  6
ByBlock
 62
0
 10
0
 20
0
 30
0
 11
-0.96076892200000008
 21
-0.138767504
 31
0
  0
LINE
  5
3D
  8
0
  6
ByBlock
 62
0
 10
-0.96076892200000008
 20
0.277350098
 30
0
 11
-0.96076892200000008
 21
-0.277350098
 31
0
  0
ENDBLK
  5
3E
  8
0
  0
BLOCK
  5
B7
  8
0
  2
_EX_BCIR
 70
0
 10
0
 20
0
 30
0
  3
_EX_BCIR
  0
LINE
  5
41
  8
0
  6
ByBlock
 62
0
 10
0
 20
0
 30
0
 11
-1
 21
0
 31
0
  0
CIRCLE
  5
42
  8
0
  6
ByBlock
 62
0
 10
0
 20
0
 30
0
 40
0.5
  0
CIRCLE
  5
43
  8
0
  6
ByBlock
 62
0
 10
0
 20
0
 30
0
 40
0.25
  0
ENDBLK
  5
44
  8
0
  0
BLOCK
  5
B9
  8
0
  2
_EX_RCIVIL
 70
0
 10
0
 20
0
 30
0
  3
_EX_RCIVIL
  0
LINE
  5
47
  8
0
  6
ByBlock
 62
0
 10
0
 20
0
 30
0
 11
-1
 21
0
 31
0
  0
LINE
  5
48
  8
0
  6
ByBlock
 62
0
 10
-1
 20
-0.25
 30
0
 11
0
 21
-0.25
 31
0
  0
LINE
  5
49
  8
0
  6
ByBlock
 62
0
 10
-1
 20
-0.125
 30
0
 11
0
 21
-0.125
 31
0
  0
ENDBLK
  5
4A
  8
0
  0
BLOCK
  5
BB
  8
0
  2
_EX_SLANT
 70
0
 10
0
 20
0
 30
0
  3
_EX_SLANT
  0
LINE
  5
4D
  8
0
  6
ByBlock
 62
0
 10
0
 20
0
 30
0
 11
-1
 21
0
 31
0
  0
LINE
  5
4E
  8
0
  6
ByBlock
 62
0
 10
0.70710678099999991
 20
0.70710678099999991
 30
0
 11
-0.70710678099999991
 21
-0.70710678099999991
 31
0
  0
ENDBLK
  5
4F
  8
0
  0
BLOCK
  5
BD
  8
0
  2
_EX_NONE
 70
0
 10
0
 20
0
 30
0
  3
_EX_NONE
  0
LINE
  5
52
  8
0
  6
ByBlock
 62
0
 10
0
 20
0
 30
0
 11
-1
 21
0
 31
0
  0
ENDBLK
  5
53
  8
0
  0
BLOCK
  5
BF
  8
0
  2
_EX_WCIR
 70
0
 10
0
 20
0
 30
0
  3
_EX_WCIR
  0
LINE
  5
56
  8
0
  6
ByBlock
 62
0
 10
0
 20
0
 30
0
 11
-1
 21
0
 31
0
  0
ENDBLK
  5
57
  8
0
  0
BLOCK
  5
C1
  8
0
  2
_EX_CIVIL
 70
0
 10
0
 20
0
 30
0
  3
_EX_CIVIL
  0
LINE
  5
5A
  8
0
  6
ByBlock
 62
0
 10
0
 20
0
 30
0
 11
-1
 21
0
 31
0
  0
LINE
  5
5B
  8
0
  6
ByBlock
 62
0
 10
-1
 20
0.25
 30
0
 11
0
 21
0.25
 31
0
  0
LINE
  5
5C
  8
0
  6
ByBlock
 62
0
 10
-1
 20
0.125
 30
0
 11
0
 21
0.125
 31
0
  0
ENDBLK
  5
5D
  8
0
  0
BLOCK
  5
C3
  8
0
  2
SPECSET00Y09
 70
64
 10
0
 20
0
 30
0
  3
SPECSET00Y09
  0
ENDBLK
  5
C4
  8
0
  0
BLOCK
  5
C6
  8
0
  2
*MODEL_SPACE
 70
64
 10
0
 20
0
 30
0
  3
*MODEL_SPACE
  0
ENDBLK
  5
C9
  8
0
  0
BLOCK
  5
CB
  8
0
 67
1
  2
*PAPER_SPACE
 70
64
 10
0
 20
0
 30
0
  3
*PAPER_SPACE
  0
ENDBLK
  5
CC
  8
0
  0
ENDSEC
  0
SECTION
  2
ENTITIES
  0
LINE
  5
5E
  8
LAY-1
  6
CONTINUOUS
 62
7
 10
46.391991032469988
 20
41.2066183756376
 30
0
 11
32.98785820747
 21
33.2509274506376
 31
0
  0
LINE
  5
5F
  8
LAY-1
  6
CONTINUOUS
 62
7
 10
79.24213698247
 20
32.6012884756376
 30
0
 11
15.70746745747
 21
50.5313182006376
 31
0
  0
LINE
  5
60
  8
LAY-1
  6
CONTINUOUS
 62
7
 10
79.34513598247
 20
33.0649150756376
 30
0
 11
78.76477053247
 21
32.7429605506376
 31
0
  0
LINE
  5
61
  8
LAY-1
  6
CONTINUOUS
 62
7
 10
79.34513598247
 20
33.0649150756376
 30
0
 11
79.315481732469991
 21
33.073388125637592
 31
0
  0
LINE
  5
62
  8
LAY-1
  6
CONTINUOUS
 62
7
 10
21.35815248247
 20
51.5095294006376
 30
0
 11
21.35815248247
 21
49.6443383506376
 31
0
  0
LINE
  5
63
  8
LAY-1
  6
CONTINUOUS
 62
7
 10
28.87543360747
 20
49.3052125756376
 30
0
 11
28.87543360747
 21
47.49654415063759
 31
0
  0
LINE
  5
64
  8
LAY-1
  6
CONTINUOUS
 62
7
 10
79.34513598247
 20
33.0649150756376
 30
0
 11
79.34513598247
 21
34.7481607006376
 31
0
  0
LINE
  5
65
  8
LAY-1
  6
CONTINUOUS
 62
7
 10
68.23218940747
 20
38.6177524756376
 30
0
 11
72.73840990747
 21
37.2877230256376
 31
0
  0
LINE
  5
66
  8
LAY-1
  6
CONTINUOUS
 62
7
 10
74.48048950747
 20
36.7735402756376
 30
0
 11
78.23584900747
 21
35.6651311006376
 31
0
  0
LINE
  5
67
  8
LAY-1
  6
CONTINUOUS
 62
7
 10
24.86692428247
 20
51.417192250637591
 30
0
 11
29.97313960747
 21
49.910070925637591
 31
0
  0
LINE
  5
68
  8
LAY-1
  6
CONTINUOUS
 62
7
 10
32.15594320747
 20
49.265807050637591
 30
0
 11
37.80644298247
 21
47.5980383506376
 31
0
  0
LINE
  5
69
  8
LAY-1
  6
CONTINUOUS
 62
7
 10
46.685623682469988
 20
44.977312300637593
 30
0
 11
52.096130657469992
 21
43.3803775006376
 31
0
  0
LINE
  5
6A
  8
LAY-1
  6
CONTINUOUS
 62
7
 10
54.07273533247
 20
42.7969739506376
 30
0
 11
59.09025438247
 21
41.316032725637612
 31
0
  0
LINE
  5
6B
  8
LAY-1
  6
CONTINUOUS
 62
7
 10
61.122858707469987
 20
40.7161006006376
 30
0
 11
66.47271340747
 21
39.1370695006376
 31
0
  0
LINE
  5
6C
  8
LAY-1
  6
CONTINUOUS
 62
7
 10
36.77606253247
 20
47.016537175637588
 30
0
 11
36.77606253247
 21
45.227560825637589
 31
0
  0
LINE
  5
6D
  8
LAY-1
  6
CONTINUOUS
 62
7
 10
43.688130482469987
 20
44.9963959006376
 30
0
 11
43.688130482469987
 21
43.2495895756376
 31
0
  0
LINE
  5
6E
  8
LAY-1
  6
CONTINUOUS
 62
7
 10
51.119997107469992
 20
42.8367086506376
 30
0
 11
51.119997107469992
 21
41.121662725637613
 31
0
  0
LINE
  5
6F
  8
LAY-1
  6
CONTINUOUS
 62
7
 10
58.041641057469988
 20
40.8090106006376
 30
0
 11
58.041641057469988
 21
39.1162374256376
 31
0
  0
LINE
  5
70
  8
LAY-1
  6
CONTINUOUS
 62
7
 10
65.58487428247
 20
38.6113756006376
 30
0
 11
65.58487428247
 21
36.9779978506376
 31
0
  0
LINE
  5
71
  8
LAY-1
  6
CONTINUOUS
 62
7
 10
71.78675928247
 20
36.7404631756376
 30
0
 11
71.78675928247
 21
35.2291295506376
 31
0
  0
LINE
  5
72
  8
LAY-1
  6
CONTINUOUS
 62
7
 10
77.31095703247
 20
35.2047934006376
 30
0
 11
77.31095703247
 21
33.6473111506376
 31
0
  0
LINE
  5
73
  8
LAY-1
  6
CONTINUOUS
 62
7
 10
39.80335960747
 20
47.00899607563759
 30
0
 11
44.62414030747
 21
45.51022810063759
 31
0
  0
LINE
  5
74
  8
LAY-1
  6
CONTINUOUS
 62
7
 10
15.47966553247
 20
52.2418639756376
 30
0
 11
15.47966553247
 21
52.0006884256376
 31
0
  0
LINE
  5
75
  8
LAY-1
  6
CONTINUOUS
 62
7
 10
13.88768688247
 20
50.4015235006376
 30
0
 11
79.24213698247
 21
32.2115053756376
 31
0
  0
LINE
  5
76
  8
LAY-1
  6
CONTINUOUS
 62
7
 10
13.88545533247
 20
50.3982289006376
 30
0
 11
13.88545533247
 21
51.1173451756376
 31
0
  0
LINE
  5
77
  8
LAY-1
  6
CONTINUOUS
 62
7
 10
79.24213698247
 20
32.2115053756376
 30
0
 11
79.40651643247
 21
32.1721554256376
 31
0
  0
LINE
  5
78
  8
LAY-1
  6
CONTINUOUS
 62
7
 10
46.391991032469988
 20
41.2066183756376
 30
0
 11
13.88768688247
 21
50.4015235006376
 31
0
  0
LINE
  5
79
  8
LAY-1
  6
CONTINUOUS
 62
7
 10
46.391991032469988
 20
41.2066183756376
 30
0
 11
13.88768688247
 21
50.4015235006376
 31
0
  0
LINE
  5
7A
  8
LAY-1
  6
CONTINUOUS
 62
7
 10
46.391991032469988
 20
41.2066183756376
 30
0
 11
46.565571707469992
 21
41.3083377256376
 31
0
  0
LINE
  5
7B
  8
LAY-1
  6
CONTINUOUS
 62
7
 10
16.5620755244064
 20
50.9994833552604
 30
0
 11
79.31859250747
 21
33.0745637506376
 31
0
  0
LINE
  5
7C
  8
LAY-1
  6
CONTINUOUS
 62
7
 10
19.9654349574819
 20
52.8638868834583
 30
0
 11
22.54445358247
 21
52.1026785256376
 31
0
  0
LINE
  5
7D
  8
LAY-1
  6
CONTINUOUS
 62
7
 10
15.47774605747
 20
52.2200529256376
 30
0
 11
15.47774605747
 21
57.3699999999996
 31
0
  0
LINE
  5
7E
  8
LAY-1
  6
CONTINUOUS
 62
7
 10
71.299999999999983
 20
37.099999999999589
 30
0
 11
71.299999999999983
 21
32.5239999999996
 31
0
  0
LINE
  5
7F
  8
LAY-1
  6
CONTINUOUS
 62
7
 10
71.588000000000008
 20
32.2359999999996
 30
0
 11
71.588000000000008
 21
31.5159999999996
 31
0
  0
LINE
  5
80
  8
LAY-1
  6
CONTINUOUS
 62
7
 10
71.012
 20
32.2359999999996
 30
0
 11
71.012
 21
31.5159999999996
 31
0
  0
ARC
  5
81
  8
LAY-1
  6
CONTINUOUS
 62
7
 10
71.299999999999983
 20
32.2359999999996
 30
0
 40
0.288000000000006
 50
0
 51
180
  0
ARC
  5
82
  8
LAY-1
  6
CONTINUOUS
 62
7
 10
71.299999999999983
 20
31.5159999999996
 30
0
 40
0.288000000000002
 50
180
 51
0
  0
CIRCLE
  5
83
  8
LAY-1
  6
CONTINUOUS
 62
7
 10
71.299999999999983
 20
31.5159999999996
 30
0
 40
0.152839785396353
  0
LINE
  5
84
  8
LAY-1
  6
CONTINUOUS
 62
7
 10
13.88545533247
 20
51.1177342006376
 30
0
 11
25.033928577984
 21
57.2004002153726
 31
0
  0
LINE
  5
85
  8
LAY-1
  6
CONTINUOUS
 62
7
 10
25.033928577984
 20
57.2004002153726
 30
0
 11
25.033928577984
 21
56.3948477153726
 31
0
  0
LINE
  5
86
  8
LAY-1
  6
CONTINUOUS
 62
7
 10
25.033928577984
 20
56.3948477153726
 30
0
 11
13.88545533247
 21
50.400323650637588
 31
0
  0
LINE
  5
87
  8
LAY-1
  6
CONTINUOUS
 62
7
 10
25.033928577984
 20
57.2004002153726
 30
0
 11
88.559935527984
 21
37.9566572903726
 31
0
  0
LINE
  5
88
  8
LAY-1
  6
CONTINUOUS
 62
7
 10
88.559935527984
 20
37.9566572903726
 30
0
 11
88.559935527984
 21
37.1770910903726
 31
0
  0
LINE
  5
89
  8
LAY-1
  6
CONTINUOUS
 62
7
 10
88.559935527984
 20
37.1770910903726
 30
0
 11
25.025266002984
 21
56.4063973403726
 31
0
  0
LINE
  5
8A
  8
LAY-1
  6
CONTINUOUS
 62
7
 10
79.40651643247
 20
32.1721554256376
 30
0
 11
88.559935527984
 21
37.1770910903726
 31
0
  0
LINE
  5
8B
  8
LAY-1
  6
CONTINUOUS
 62
7
 10
72.059110977984
 20
56.2764701153726
 30
0
 11
57.199125477984
 21
47.456693390372592
 31
0
  0
LINE
  5
8C
  8
LAY-1
  6
CONTINUOUS
 62
7
 10
15.70746745747
 20
50.5313182006376
 30
0
 11
25.155194652984
 21
55.7567583653726
 31
0
  0
LINE
  5
8D
  8
LAY-1
  6
CONTINUOUS
 62
7
 10
25.155194652984
 20
55.7567583653726
 30
0
 11
87.260657577984
 21
37.0471624403726
 31
0
  0
LINE
  5
8E
  8
LAY-1
  6
CONTINUOUS
 62
7
 10
87.260657577984
 20
37.0471624403726
 30
0
 11
79.24213698247
 21
32.6012884756376
 31
0
  0
LINE
  5
8F
  8
LAY-1
  6
CONTINUOUS
 62
7
 10
86.245903677984
 20
36.9054818153726
 30
0
 11
86.806964652984007
 21
37.1632671653726
 31
0
  0
LINE
  5
90
  8
LAY-1
  6
CONTINUOUS
 62
7
 10
27.361620477984
 20
54.6230568653726
 30
0
 11
21.35815248247
 21
51.5095294006376
 31
0
  0
LINE
  5
91
  8
LAY-1
  6
CONTINUOUS
 62
7
 10
21.35815248247
 20
49.6443383506376
 30
0
 11
29.678978277984
 21
53.9448067403726
 31
0
  0
LINE
  5
92
  8
LAY-1
  6
CONTINUOUS
 62
7
 10
34.596298452984
 20
52.418741465372591
 30
0
 11
28.87543360747
 21
49.3052125756376
 31
0
  0
LINE
  5
93
  8
LAY-1
  6
CONTINUOUS
 62
7
 10
28.87543360747
 20
47.49654415063759
 30
0
 11
36.857135052984
 21
51.797011115372591
 31
0
  0
LINE
  5
94
  8
LAY-1
  6
CONTINUOUS
 62
7
 10
42.38455615298399
 20
50.1035838653726
 30
0
 11
36.77606253247
 21
47.016537175637588
 31
0
  0
LINE
  5
95
  8
LAY-1
  6
CONTINUOUS
 62
7
 10
36.77606253247
 20
45.227560825637589
 30
0
 11
44.357690952983987
 21
49.5247973153726
 31
0
  0
LINE
  5
96
  8
LAY-1
  6
CONTINUOUS
 62
7
 10
49.275558327984
 20
48.0448250903726
 30
0
 11
43.688130482469987
 21
44.9963959006376
 31
0
  0
LINE
  5
97
  8
LAY-1
  6
CONTINUOUS
 62
7
 10
43.688130482469987
 20
43.2495895756376
 30
0
 11
51.212925627984
 21
47.4731435903726
 31
0
  0
LINE
  5
98
  8
LAY-1
  6
CONTINUOUS
 62
7
 10
56.580384777984
 20
45.8216170403726
 30
0
 11
51.119997107469992
 21
42.8367086506376
 31
0
  0
LINE
  5
99
  8
LAY-1
  6
CONTINUOUS
 62
7
 10
51.119997107469992
 20
41.121662725637613
 30
0
 11
58.549512477984
 21
45.24993554037259
 31
0
  0
LINE
  5
9A
  8
LAY-1
  6
CONTINUOUS
 62
7
 10
63.695476752984
 20
43.7031764153726
 30
0
 11
58.041641057469988
 21
40.8090106006376
 31
0
  0
LINE
  5
9B
  8
LAY-1
  6
CONTINUOUS
 62
7
 10
58.041641057469988
 20
39.1162374256376
 30
0
 11
65.625831627984
 21
43.1092207403726
 31
0
  0
LINE
  5
9C
  8
LAY-1
  6
CONTINUOUS
 62
7
 10
65.58487428247
 20
36.9779978506376
 30
0
 11
72.515713752984
 21
41.03037659037259
 31
0
  0
LINE
  5
9D
  8
LAY-1
  6
CONTINUOUS
 62
7
 10
77.31095703247
 20
33.6473111506376
 30
0
 11
84.399360177984
 21
37.4736563903726
 31
0
  0
LINE
  5
9E
  8
LAY-1
  6
CONTINUOUS
 62
7
 10
71.77246368247
 20
36.7324760506376
 30
0
 11
77.131921452984
 21
39.66565266537259
 31
0
  0
LINE
  5
9F
  8
LAY-1
  6
CONTINUOUS
 62
7
 10
77.29697350747
 20
35.1742813006376
 30
0
 11
82.656431277984
 21
37.9658043653726
 31
0
  0
LINE
  5
A0
  8
LAY-1
  6
CONTINUOUS
 62
7
 10
65.58133885747
 20
38.5929916756376
 30
0
 11
70.821526977983993
 21
41.55927959037259
 31
0
  0
LINE
  5
A1
  8
LAY-1
  6
CONTINUOUS
 62
7
 10
71.78840800747
 20
35.2320166006376
 30
0
 11
78.815353752984
 21
39.153229790372592
 31
0
  0
LINE
  5
A2
  8
LAY-1
  6
CONTINUOUS
 62
7
 10
24.6120581981277
 20
55.4592213162776
 30
0
 11
86.262512052984
 21
36.9078544403726
 31
0
  0
LINE
  5
A3
  8
LAY-1
  6
CONTINUOUS
 62
7
 10
24.675905877984
 20
62.881242165372591
 30
0
 11
62.089322202984
 21
50.3979603653726
 31
0
  0
LINE
  5
A4
  8
LAY-1
  6
CONTINUOUS
 62
7
 10
24.675905877984
 20
62.881242165373
 30
0
 11
24.675905877984
 21
57.0069214946014
 31
0
  0
LINE
  5
A5
  8
LAY-1
  6
CONTINUOUS
 62
7
 10
15.47774605747
 20
57.3699999999996
 30
0
 11
24.675905877984
 21
62.881242165372591
 31
0
  0
TEXT
  5
A6
  8
LAY-1
  6
CONTINUOUS
 62
7
 10
5
 20
6.0000000000000089
 30
0
 40
4.5
  1
三菱　ＹＢＨ４００２ＡＦ＋Ｌ４８０２Ｆ
 41
0.8403821656050956
 72
5
 11
86
 21
6.0000000000000089
 31
0
  7
EXCADSTD
  0
TEXT
  5
A7
  8
LAY-1
  6
CONTINUOUS
 62
7
 10
5
 20
90
 30
0
 40
4.5
  1
ＦＨＦ３２Ｗ×２　   埋込下面ルーバー付
 41
0.82846461484959144
 72
5
 11
92.75
 21
90
 31
0
  7
EXCADSTD
  0
TEXT
  5
A8
  8
LAY-1
  6
CONTINUOUS
 62
7
 10
4.9999999999999929
 20
83
 30
0
 40
4.5
  1
（ＦＬ４０Ｗ×２）
 41
1.005640243902439
 72
5
 11
45.499999999999993
 21
83
 31
0
  7
EXCADSTD
  0
TEXT
  5
A9
  8
LAY-1
  6
CONTINUOUS
 62
7
 10
52.3
 20
83
 30
0
 40
4.5
  1
（ＥＧインバータ）
 41
0.92837039121868814
 72
5
 11
92.799999999999983
 21
83
 31
0
  7
EXCADSTD
  0
TEXT
  5
AA
  8
LAY-1
  6
CONTINUOUS
 62
7
 10
52.3
 20
76
 30
0
 40
4.5
  1
電池内蔵形
 41
0.650687971593431
 72
5
 11
74.8
 21
76
 31
0
  7
EXCADSTD
  0
INSERT
  5
C7
  8
0
  2
SPECSET00Y09
 10
92.803436733087764
 20
5.9857182693501718
 30
0
 41
1
 42
1
 43
1
 50
0
  0
ENDSEC
999
Created By CadLib version 4.0.36.7
999
CadLib website: www.woutware.com
  0
EOF
