  0
SECTION
  2
HEADER
  9
$ACADVER
  1
AC1009
  9
$DWGCODEPAGE
  3
dos932
  9
$INSBASE
 10
0
 20
0
 30
0
  9
$EXTMIN
 10
5.4699529688620867
 20
5.3517050957777421
 30
0
  9
$EXTMAX
 10
146.79795361527968
 20
95.618553754902791
 30
0
  9
$LIMMIN
 10
0
 20
0
  9
$LIMMAX
 10
297
 20
210
  9
$SNAPMODE
 70
0
  9
$SNAPUNIT
 10
1
 20
1
  9
$SNAPBASE
 10
0
 20
0
  9
$SNAPANG
 50
0
  9
$SNAPSTYLE
 70
0
  9
$SNAPISOPAIR
 70
0
  9
$ORTHOMODE
 70
0
  9
$REGENMODE
 70
1
  9
$FILLMODE
 70
1
  9
$QTEXTMODE
 70
0
  9
$MIRRTEXT
 70
1
  9
$LTSCALE
 40
1
  9
$OSMODE
 70
0
  9
$ATTMODE
 70
1
  9
$TEXTSIZE
 40
0.2
  9
$TRACEWID
 40
0.05
  9
$TEXTSTYLE
  7
STANDARD
  9
$CLAYER
  8
LAY-1
  9
$CELTYPE
  6
CONTINUOUS
  9
$CECOLOR
 62
256
  9
$DIMSCALE
 40
1
  9
$DIMASZ
 40
0.18
  9
$DIMEXO
 40
0.0625
  9
$DIMDLI
 40
0.38
  9
$DIMRND
 40
0
  9
$DIMDLE
 40
0
  9
$DIMEXE
 40
0.18
  9
$DIMTP
 40
0
  9
$DIMTM
 40
0
  9
$DIMTXT
 40
0.18
  9
$DIMCEN
 40
0.09
  9
$DIMTSZ
 40
0
  9
$DIMTOL
 70
0
  9
$DIMLIM
 70
0
  9
$DIMTIH
 70
1
  9
$DIMTOH
 70
1
  9
$DIMSE1
 70
0
  9
$DIMSE2
 70
0
  9
$DIMTAD
 70
0
  9
$DIMZIN
 70
0
  9
$DIMBLK
  1

  9
$DIMASO
 70
1
  9
$DIMSHO
 70
1
  9
$DIMPOST
  1

  9
$DIMAPOST
  1

  9
$DIMALT
 70
0
  9
$DIMALTD
 70
2
  9
$DIMALTF
 40
25.4
  9
$DIMLFAC
 40
1
  9
$DIMTOFL
 70
0
  9
$DIMTVP
 40
0
  9
$DIMTIX
 70
0
  9
$DIMSOXD
 70
0
  9
$DIMSAH
 70
0
  9
$DIMBLK1
  1

  9
$DIMBLK2
  1

  9
$DIMSTYLE
  2
STANDARD
  9
$DIMCLRD
 70
0
  9
$DIMCLRE
 70
0
  9
$DIMCLRT
 70
0
  9
$DIMTFAC
 40
1
  9
$DIMGAP
 40
0.09
  9
$LUNITS
 70
2
  9
$LUPREC
 70
4
  9
$SKETCHINC
 40
0.1
  9
$FILLETRAD
 40
0
  9
$AUNITS
 70
0
  9
$AUPREC
 70
0
  9
$MENU
  1
.
  9
$ELEVATION
 40
0
  9
$PELEVATION
 40
0
  9
$THICKNESS
 40
0
  9
$LIMCHECK
 70
0
  9
$CHAMFERA
 40
0.5
  9
$CHAMFERB
 40
0.5
  9
$SKPOLY
 70
0
  9
$TDCREATE
 40
2451711.2259264351
  9
$TDUPDATE
 40
2451711.2259264351
  9
$TDINDWG
 40
0
  9
$TDUSRTIMER
 40
1.1574074074074074E-08
  9
$USRTIMER
 70
1
  9
$ANGBASE
 50
0
  9
$ANGDIR
 70
1
  9
$PDMODE
 70
0
  9
$PDSIZE
 40
0
  9
$PLINEWID
 40
0
  9
$SPLFRAME
 70
0
  9
$SPLINETYPE
 70
6
  9
$SPLINESEGS
 70
8
  9
$HANDLING
 70
0
  9
$HANDSEED
  5
D1
  9
$SURFTAB1
 70
6
  9
$SURFTAB2
 70
6
  9
$SURFTYPE
 70
6
  9
$SURFU
 70
6
  9
$SURFV
 70
6
  9
$UCSORG
 10
0
 20
0
 30
0
  9
$UCSXDIR
 10
1
 20
0
 30
0
  9
$UCSYDIR
 10
0
 20
1
 30
0
  9
$PUCSORG
 10
0
 20
0
 30
0
  9
$PUCSXDIR
 10
1
 20
0
 30
0
  9
$PUCSYDIR
 10
0
 20
1
 30
0
  9
$USERI1
 70
0
  9
$USERI2
 70
0
  9
$USERI3
 70
0
  9
$USERI4
 70
0
  9
$USERI5
 70
0
  9
$USERR1
 40
0
  9
$USERR2
 40
0
  9
$USERR3
 40
0
  9
$USERR4
 40
0
  9
$USERR5
 40
0
  9
$WORLDVIEW
 70
1
  9
$SHADEDGE
 70
3
  9
$SHADEDIF
 70
70
  9
$TILEMODE
 70
1
  9
$MAXACTVP
 70
48
  9
$PINSBASE
 10
0
 20
0
 30
0
  9
$PLIMCHECK
 70
0
  9
$PEXTMIN
 10
1E+20
 20
1E+20
 30
1E+20
  9
$PEXTMAX
 10
-1E+20
 20
-1E+20
 30
-1E+20
  9
$PLIMMAX
 10
0
 20
0
  9
$PLIMMIN
 10
0
 20
0
  9
$UNITMODE
 70
0
  9
$VISRETAIN
 70
1
  9
$PLINEGEN
 70
1
  9
$PSLTSCALE
 70
1
  9
$TREEDEPTH
 70
3020
  0
ENDSEC
  0
SECTION
  2
TABLES
  0
TABLE
  2
LTYPE
 70
7
  0
LTYPE
  2
CONTINUOUS
  3
実線
 70
64
 72
65
 73
0
 40
0
  0
LTYPE
  2
DASHED
  3
破線
 70
64
 72
65
 73
2
 40
3.8
 49
3
 49
-0.8
  0
LTYPE
  2
DOT
  3
点線
 70
64
 72
65
 73
2
 40
2
 49
1
 49
-1
  0
LTYPE
  2
DASHDOT
  3
一点鎖線
 70
64
 72
65
 73
4
 40
25.6
 49
20
 49
-2
 49
1.6
 49
-2
  0
LTYPE
  2
DIVIDE
  3
二点鎖線
 70
64
 72
65
 73
6
 40
31.199999999999996
 49
20
 49
-2.4
 49
2
 49
-2.4
 49
2
 49
-2.4
  0
LTYPE
  2
ByBlock
  3

 70
64
 72
65
 73
0
 40
0
  0
LTYPE
  2
ByLayer
  3

 70
64
 72
65
 73
0
 40
0
  0
ENDTAB
  0
TABLE
  2
LAYER
 70
3
  0
LAYER
 70
0
  2
0
 62
7
  6
CONTINUOUS
  0
LAYER
 70
64
  2
LAY-1
 62
7
  6
CONTINUOUS
  0
LAYER
 70
0
  2
SPEC
 62
7
  6
CONTINUOUS
  0
ENDTAB
  0
TABLE
  2
STYLE
 70
5
  0
STYLE
  2
STANDARD
 70
0
 40
0
 41
1
 50
0
 71
0
 42
0.2
  3
txt.shx
  4
extfont2.shx
  0
STYLE
  2
EXCADSTD
 70
64
 40
0
 41
1
 50
0
 71
0
 42
0.2
  3
monotxt
  4
extfont
  0
STYLE
  2
EXCADVERT
 70
68
 40
0
 41
1
 50
0
 71
0
 42
0.286885
  3
monotxt
  4
extfont
  0
STYLE
  2
EXCADSTD2
 70
64
 40
0
 41
1
 50
0
 71
0
 42
0.2
  3
monotxt
  0
STYLE
  2
EXCADVERT2
 70
68
 40
0
 41
1
 50
0
 71
0
 42
0.286885
  3
monotxt
  0
ENDTAB
  0
TABLE
  2
APPID
 70
2
  0
APPID
  2
ACAD
 70
64
  0
APPID
  2
ACAD_MLEADERVER
 70
64
  0
ENDTAB
  0
TABLE
  2
DIMSTYLE
 70
1
  0
DIMSTYLE
  2
STANDARD
 70
0
  3

  4

  5

  6

  7

 40
1
 41
0.18
 42
0.0625
 43
0.38
 44
0.18
 45
0
 46
0
 47
0
 48
0
140
0.18
141
0.09
142
0
143
25.4
144
1
145
0
146
1
147
0.09
 71
0
 72
0
 73
1
 74
1
 75
0
 76
0
 77
0
 78
0
170
0
171
2
172
0
173
0
174
0
175
0
176
0
177
0
178
0
  0
ENDTAB
  0
ENDSEC
  0
SECTION
  2
BLOCKS
  0
BLOCK
  8
0
  2
_EX_NORM
 70
64
 10
0
 20
0
 30
0
  3
_EX_NORM
  0
LINE
  8
0
  6
ByBlock
 62
0
 10
0
 20
0
 30
0
 11
-1
 21
0
 31
0
  0
LINE
  8
0
  6
ByBlock
 62
0
 10
0
 20
0
 30
0
 11
-0.960768922
 21
0.277350098
 31
0
  0
LINE
  8
0
  6
ByBlock
 62
0
 10
0
 20
0
 30
0
 11
-0.960768922
 21
-0.277350098
 31
0
  0
ENDBLK
  8
0
  0
BLOCK
  8
0
  2
_EX_BNORM
 70
64
 10
0
 20
0
 30
0
  3
_EX_BNORM
  0
LINE
  8
0
  6
ByBlock
 62
0
 10
0
 20
0
 30
0
 11
-1
 21
0
 31
0
  0
LINE
  8
0
  6
ByBlock
 62
0
 10
0
 20
0
 30
0
 11
-0.960768922
 21
0.277350098
 31
0
  0
LINE
  8
0
  6
ByBlock
 62
0
 10
0
 20
0
 30
0
 11
-0.960768922
 21
-0.277350098
 31
0
  0
LINE
  8
0
  6
ByBlock
 62
0
 10
0
 20
0
 30
0
 11
-0.960768922
 21
0.138767504
 31
0
  0
LINE
  8
0
  6
ByBlock
 62
0
 10
0
 20
0
 30
0
 11
-0.960768922
 21
-0.138767504
 31
0
  0
LINE
  8
0
  6
ByBlock
 62
0
 10
-0.960768922
 20
0.277350098
 30
0
 11
-0.960768922
 21
-0.277350098
 31
0
  0
ENDBLK
  8
0
  0
BLOCK
  8
0
  2
_EX_BCIR
 70
64
 10
0
 20
0
 30
0
  3
_EX_BCIR
  0
LINE
  8
0
  6
ByBlock
 62
0
 10
0
 20
0
 30
0
 11
-1
 21
0
 31
0
  0
CIRCLE
  8
0
  6
ByBlock
 62
0
 10
0
 20
0
 30
0
 40
0.5
  0
CIRCLE
  8
0
  6
ByBlock
 62
0
 10
0
 20
0
 30
0
 40
0.25
  0
ENDBLK
  8
0
  0
BLOCK
  8
0
  2
_EX_RCIVIL
 70
64
 10
0
 20
0
 30
0
  3
_EX_RCIVIL
  0
LINE
  8
0
  6
ByBlock
 62
0
 10
0
 20
0
 30
0
 11
-1
 21
0
 31
0
  0
LINE
  8
0
  6
ByBlock
 62
0
 10
-1
 20
-0.25
 30
0
 11
0
 21
-0.25
 31
0
  0
LINE
  8
0
  6
ByBlock
 62
0
 10
-1
 20
-0.125
 30
0
 11
0
 21
-0.125
 31
0
  0
ENDBLK
  8
0
  0
BLOCK
  8
0
  2
_EX_SLANT
 70
64
 10
0
 20
0
 30
0
  3
_EX_SLANT
  0
LINE
  8
0
  6
ByBlock
 62
0
 10
0
 20
0
 30
0
 11
-1
 21
0
 31
0
  0
LINE
  8
0
  6
ByBlock
 62
0
 10
0.707106781
 20
0.707106781
 30
0
 11
-0.707106781
 21
-0.707106781
 31
0
  0
ENDBLK
  8
0
  0
BLOCK
  8
0
  2
_EX_NONE
 70
64
 10
0
 20
0
 30
0
  3
_EX_NONE
  0
LINE
  8
0
  6
ByBlock
 62
0
 10
0
 20
0
 30
0
 11
-1
 21
0
 31
0
  0
ENDBLK
  8
0
  0
BLOCK
  8
0
  2
_EX_WCIR
 70
64
 10
0
 20
0
 30
0
  3
_EX_WCIR
  0
LINE
  8
0
  6
ByBlock
 62
0
 10
0
 20
0
 30
0
 11
-1
 21
0
 31
0
  0
ENDBLK
  8
0
  0
BLOCK
  8
0
  2
_EX_CIVIL
 70
64
 10
0
 20
0
 30
0
  3
_EX_CIVIL
  0
LINE
  8
0
  6
ByBlock
 62
0
 10
0
 20
0
 30
0
 11
-1
 21
0
 31
0
  0
LINE
  8
0
  6
ByBlock
 62
0
 10
-1
 20
0.25
 30
0
 11
0
 21
0.25
 31
0
  0
LINE
  8
0
  6
ByBlock
 62
0
 10
-1
 20
0.125
 30
0
 11
0
 21
0.125
 31
0
  0
ENDBLK
  8
0
  0
BLOCK
  8
0
  2
SPECSET00Y62
 70
64
 10
0
 20
0
 30
0
  3
SPECSET00Y62
  0
TEXT
  8
SPEC
 10
0
 20
0
 30
0
 40
1.5
  1
Hf/FL(28mm管)共用ｼﾘｰｽﾞ ﾌｧｲﾝﾍﾞｰｽ ｼｽﾃﾑ天井 32W×2
  7
STANDARD
  0
TEXT
  8
SPEC
 10
0
 20
-3
 30
0
 40
1.5
  1
100V~254V共用ﾀｲﾌﾟ Hf
  7
STANDARD
  0
TEXT
  8
SPEC
 10
0
 20
-6
 30
0
 40
1.5
  1
本体:鋼板･白色仕上
  7
STANDARD
  0
TEXT
  8
SPEC
 10
0
 20
-9
 30
0
 40
1.5
  1
反射板:鋼板･白色仕上
  7
STANDARD
  0
ENDBLK
  8
0
  0
BLOCK
  8
0
  2
*MODEL_SPACE
 70
64
 10
0
 20
0
 30
0
  3
*MODEL_SPACE
  0
ENDBLK
  8
0
  0
BLOCK
  8
0
 67
1
  2
*PAPER_SPACE
 70
64
 10
0
 20
0
 30
0
  3
*PAPER_SPACE
  0
ENDBLK
  8
0
  0
ENDSEC
  0
SECTION
  2
ENTITIES
  0
TEXT
  8
LAY-1
  6
CONTINUOUS
 62
7
 10
52.3
 20
83
 30
0
 40
4.5
  1
（ＥＧインバータ）
 41
0.92837039121868836
 72
5
 11
92.8
 21
83
 31
0
  7
EXCADSTD
  0
LINE
  8
LAY-1
  6
CONTINUOUS
 62
7
 10
46.6520269858121
 20
41.5156037151782
 30
0
 11
34.5883074433121
 21
34.3554818826782
 31
0
  0
LINE
  8
LAY-1
  6
CONTINUOUS
 62
7
 10
76.3098574408121
 20
34.1880707451782
 30
0
 11
76.2831686158121
 21
34.1956964901782
 31
0
  0
LINE
  8
LAY-1
  6
CONTINUOUS
 62
7
 10
24.1215722908121
 20
50.7882236376782
 30
0
 11
24.1215722908121
 21
49.1095516926782
 31
0
  0
LINE
  8
LAY-1
  6
CONTINUOUS
 62
7
 10
30.8871253033121
 20
48.8043384951782
 30
0
 11
30.8871253033121
 21
47.1765369126782
 31
0
  0
LINE
  8
LAY-1
  6
CONTINUOUS
 62
7
 10
76.3098574408121
 20
34.1880707451782
 30
0
 11
76.3098574408121
 21
35.7029918076782
 31
0
  0
LINE
  8
LAY-1
  6
CONTINUOUS
 62
7
 10
66.3082055233121
 20
39.1856244051782
 30
0
 11
70.3638039733121
 21
37.9885979001782
 31
0
  0
LINE
  8
LAY-1
  6
CONTINUOUS
 62
7
 10
71.9316756133121
 20
37.5258334251782
 30
0
 11
75.3114991633121
 21
36.5282651676782
 31
0
  0
LINE
  8
LAY-1
  6
CONTINUOUS
 62
7
 10
27.2794669108121
 20
50.7051202026782
 30
0
 11
31.8750607033121
 21
49.3487110101782
 31
0
  0
LINE
  8
LAY-1
  6
CONTINUOUS
 62
7
 10
33.8395839433121
 20
48.7688735226782
 30
0
 11
38.9250337408121
 21
47.2678816926782
 31
0
  0
LINE
  8
LAY-1
  6
CONTINUOUS
 62
7
 10
46.9162963708121
 20
44.9092282476782
 30
0
 11
51.7857526483121
 21
43.4719869276782
 31
0
  0
LINE
  8
LAY-1
  6
CONTINUOUS
 62
7
 10
53.5646968558121
 20
42.9469237326782
 30
0
 11
58.0804640008121
 21
41.6140766301782
 31
0
  0
LINE
  8
LAY-1
  6
CONTINUOUS
 62
7
 10
59.9098078933121
 20
41.0741377176782
 30
0
 11
64.7246771233121
 21
39.6530097276782
 31
0
  0
LINE
  8
LAY-1
  6
CONTINUOUS
 62
7
 10
37.9976913358121
 20
46.7445306351783
 30
0
 11
37.9976913358121
 21
45.1344519201783
 31
0
  0
LINE
  8
LAY-1
  6
CONTINUOUS
 62
7
 10
44.2185524908121
 20
44.9264034876782
 30
0
 11
44.2185524908121
 21
43.3542777951782
 31
0
  0
LINE
  8
LAY-1
  6
CONTINUOUS
 62
7
 10
50.9072324533121
 20
42.9826849626782
 30
0
 11
50.9072324533121
 21
41.4391436301782
 31
0
  0
LINE
  8
LAY-1
  6
CONTINUOUS
 62
7
 10
57.1367120083121
 20
41.1577567176782
 30
0
 11
57.1367120083121
 21
39.6342608601782
 31
0
  0
LINE
  8
LAY-1
  6
CONTINUOUS
 62
7
 10
63.9256219108121
 20
39.1798852176782
 30
0
 11
63.9256219108121
 21
37.7098452426782
 31
0
  0
LINE
  8
LAY-1
  6
CONTINUOUS
 62
7
 10
69.5073184108121
 20
37.4960640351782
 30
0
 11
69.5073184108121
 21
36.1358637726782
 31
0
  0
LINE
  8
LAY-1
  6
CONTINUOUS
 62
7
 10
74.4790963858121
 20
36.1139612376782
 30
0
 11
74.4790963858121
 21
34.7122272126782
 31
0
  0
LINE
  8
LAY-1
  6
CONTINUOUS
 62
7
 10
40.7222587033121
 20
46.7377436451782
 30
0
 11
45.0609613333121
 21
45.3888524676782
 31
0
  0
LINE
  8
LAY-1
  6
CONTINUOUS
 62
7
 10
76.2171583408121
 20
33.4200020151782
 30
0
 11
76.3650998458121
 21
33.3845870601782
 31
0
  0
LINE
  8
LAY-1
  6
CONTINUOUS
 62
7
 10
46.6520269858121
 20
41.5156037151782
 30
0
 11
46.8082495933121
 21
41.6071511301783
 31
0
  0
LINE
  8
LAY-1
  6
CONTINUOUS
 62
7
 10
22.8681265183228
 20
52.0071453722169
 30
0
 11
25.1892432808121
 21
51.3220578501782
 31
0
  0
LINE
  8
LAY-1
  6
CONTINUOUS
 62
7
 10
17.398153193304
 20
49.7910183439463
 30
0
 11
17.3961448558121
 21
49.7899384626782
 31
0
  0
LINE
  8
LAY-1
  6
CONTINUOUS
 62
7
 10
17.3961448558121
 20
49.7880531876782
 30
0
 11
17.3961448558121
 21
49.7915864678665
 31
0
  0
LINE
  8
LAY-1
  6
CONTINUOUS
 62
7
 10
14.9629613111927
 20
51.7122258259383
 30
0
 11
81.2213572275051
 21
32.7870770600868
 31
0
  0
LINE
  8
LAY-1
  6
CONTINUOUS
 62
7
 10
14.6417630407181
 20
50.5582007889256
 30
0
 11
81.0250649830881
 21
32.0818236840548
 31
0
  0
TEXT
  8
LAY-1
  6
CONTINUOUS
 62
7
 10
5
 20
6.00000000000001
 30
0
 40
4.5
  1
三菱　ＹＳ４０６２＋Ｌ４９０２
 41
0.87522388059701473
 72
5
 11
72.5
 21
6.00000000000001
 31
0
  7
EXCADSTD
  0
LINE
  8
LAY-1
  6
CONTINUOUS
 62
7
 10
31.4564275327837
 20
54.7369313036257
 30
0
 11
24.1215722908121
 21
50.7882236376782
 31
0
  0
LINE
  8
LAY-1
  6
CONTINUOUS
 62
7
 10
24.1215722908121
 20
49.1095516926782
 30
0
 11
33.5420495527837
 21
54.1265061911257
 31
0
  0
LINE
  8
LAY-1
  6
CONTINUOUS
 62
7
 10
37.9676377102837
 20
52.7530474436257
 30
0
 11
30.8871253033121
 21
48.8043384951782
 31
0
  0
LINE
  8
LAY-1
  6
CONTINUOUS
 62
7
 10
30.8871253033121
 20
47.1765369126782
 30
0
 11
40.0023906502837
 21
52.1934901286257
 31
0
  0
LINE
  8
LAY-1
  6
CONTINUOUS
 62
7
 10
44.9770696402837
 20
50.6694056036257
 30
0
 11
37.9976913358121
 21
46.7445306351783
 31
0
  0
LINE
  8
LAY-1
  6
CONTINUOUS
 62
7
 10
37.9976913358121
 20
45.1344519201783
 30
0
 11
46.7528909602837
 21
50.1484977086257
 31
0
  0
LINE
  8
LAY-1
  6
CONTINUOUS
 62
7
 10
51.1789715977837
 20
48.8165227061257
 30
0
 11
44.2185524908121
 21
44.9264034876782
 31
0
  0
LINE
  8
LAY-1
  6
CONTINUOUS
 62
7
 10
44.2185524908121
 20
43.3542777951782
 30
0
 11
52.9226021677837
 21
48.3020093561257
 31
0
  0
LINE
  8
LAY-1
  6
CONTINUOUS
 62
7
 10
57.7533154027837
 20
46.8156354611257
 30
0
 11
50.9072324533121
 21
42.9826849626782
 31
0
  0
LINE
  8
LAY-1
  6
CONTINUOUS
 62
7
 10
50.9072324533121
 20
41.4391436301782
 30
0
 11
59.5255303327837
 21
46.3011221111257
 31
0
  0
LINE
  8
LAY-1
  6
CONTINUOUS
 62
7
 10
64.1568981802837
 20
44.9090388986257
 30
0
 11
57.1367120083121
 21
41.1577567176782
 31
0
  0
LINE
  8
LAY-1
  6
CONTINUOUS
 62
7
 10
57.1367120083121
 20
39.6342608601782
 30
0
 11
65.8942175677837
 21
44.3744787911257
 31
0
  0
LINE
  8
LAY-1
  6
CONTINUOUS
 62
7
 10
63.9256219108121
 20
37.7098452426782
 30
0
 11
72.0951114802837
 21
42.5035190561257
 31
0
  0
LINE
  8
LAY-1
  6
CONTINUOUS
 62
7
 10
74.4790963858121
 20
34.7122272126782
 30
0
 11
82.7903932627837
 21
39.3024708761257
 31
0
  0
LINE
  8
LAY-1
  6
CONTINUOUS
 62
7
 10
69.4944523708121
 20
37.4888756226782
 30
0
 11
76.2496984102837
 21
41.2752675236257
 31
0
  0
LINE
  8
LAY-1
  6
CONTINUOUS
 62
7
 10
74.4665112133121
 20
36.0865003476782
 30
0
 11
81.2217572527837
 21
39.7454040536257
 31
0
  0
LINE
  8
LAY-1
  6
CONTINUOUS
 62
7
 10
63.9224400283121
 20
39.1633396851782
 30
0
 11
70.5703433827837
 21
42.9795317561257
 31
0
  0
LINE
  8
LAY-1
  6
CONTINUOUS
 62
7
 10
69.5088022633121
 20
36.1384621176782
 30
0
 11
77.7647874802837
 21
40.8140869361257
 31
0
  0
LINE
  8
LAY-1
  6
CONTINUOUS
 62
7
 10
26.3789889759832
 20
60.5753344374724
 30
0
 11
60.0510636684832
 21
49.3403808174724
 31
0
  0
LINE
  8
LAY-1
  6
CONTINUOUS
 62
7
 10
19.8002637832983
 20
50.3305644131621
 30
0
 11
28.9848419598402
 21
55.4885704108155
 31
0
  0
LINE
  8
LAY-1
  6
CONTINUOUS
 62
7
 10
18.0958731476797
 20
50.8173834175785
 30
0
 11
27.3753526758147
 21
55.9728851939814
 31
0
  0
LINE
  8
LAY-1
  6
CONTINUOUS
 62
7
 10
84.4522824127837
 20
38.7911137586257
 30
0
 11
84.4610061061773
 21
38.7951219510593
 31
0
  0
LINE
  8
LAY-1
  6
CONTINUOUS
 62
7
 10
84.902955023383
 20
38.662134179018
 30
0
 11
76.7475878770407
 21
34.0649038068826
 31
0
  0
LINE
  8
LAY-1
  6
CONTINUOUS
 62
7
 10
78.2758607444427
 20
33.6283886910182
 30
0
 11
86.4039170616043
 21
38.2104765561333
 31
0
  0
LINE
  8
LAY-1
  6
CONTINUOUS
 62
7
 10
26.3789889759832
 20
60.5753344374728
 30
0
 11
28.2655691969306
 21
57.0622704497841
 31
0
  0
LINE
  8
LAY-1
  6
CONTINUOUS
 62
7
 10
20.9922971949766
 20
59.1366492626965
 30
0
 11
90.2826934809449
 21
38.1653235230944
 31
0
  0
LINE
  8
LAY-1
  6
CONTINUOUS
 62
7
 10
21.0274922933852
 20
59.2529357743997
 30
0
 11
90.3178885793533
 21
38.2816100347976
 31
0
  0
LINE
  8
LAY-1
  6
CONTINUOUS
 62
7
 10
20.278339645304
 20
58.1084622127987
 30
0
 11
89.9730980676006
 21
37.1364668425205
 31
0
  0
LINE
  8
LAY-1
  6
CONTINUOUS
 62
7
 10
26.3789889759832
 20
60.5753344374728
 30
0
 11
23.3252499956723
 21
58.557499930066
 31
0
  0
LINE
  8
LAY-1
  6
CONTINUOUS
 62
7
 10
19.5454350648611
 20
56.0598925549175
 30
0
 11
18.33461949674
 21
50.9476446893769
 31
0
  0
LINE
  8
LAY-1
  6
CONTINUOUS
 62
7
 10
21.9049441288346
 20
57.6189972591908
 30
0
 11
19.5454350648611
 21
56.0598925549175
 31
0
  0
LINE
  8
LAY-1
  6
CONTINUOUS
 62
7
 10
71.6841689827837
 20
56.2250032286257
 30
0
 11
58.310182032784
 21
48.2872041761259
 31
0
  0
TEXT
  8
LAY-1
  6
CONTINUOUS
 62
7
 10
5
 20
83
 30
0
 40
4.5
  1
（ＦＬ４０Ｗ×２）
 41
1.005640243902439
 72
5
 11
45.5
 21
83
 31
0
  7
EXCADSTD
  0
TEXT
  8
LAY-1
  6
CONTINUOUS
 62
7
 10
5.0000000000000142
 20
90
 30
0
 40
4.5
  1
ＦＨＦ３２Ｗ×２　   埋込下面ルーバー付
 41
0.82846461484959122
 72
5
 11
92.75
 21
90
 31
0
  7
EXCADSTD
  0
INSERT
  8
0
  2
SPECSET00Y62
 10
92.8
 20
18.000000000000011
 30
0
 41
1
 42
1
 43
1
 50
0
  0
ENDSEC
999
Created By CadLib version 4.0.36.7
999
CadLib website: www.woutware.com
  0
EOF
