  0
SECTION
  2
HEADER
  9
$ACADVER
  1
AC1009
  9
$DWGCODEPAGE
  3
dos932
  9
$INSBASE
 10
0
 20
0
 30
0
  9
$EXTMIN
 10
5.4699529688620867
 20
5.3517050957777421
 30
0
  9
$EXTMAX
 10
146.74795361527967
 20
95.618553754902791
 30
0
  9
$LIMMIN
 10
0
 20
0
  9
$LIMMAX
 10
297
 20
210
  9
$SNAPMODE
 70
0
  9
$SNAPUNIT
 10
1
 20
1
  9
$SNAPBASE
 10
0
 20
0
  9
$SNAPANG
 50
0
  9
$SNAPSTYLE
 70
0
  9
$SNAPISOPAIR
 70
0
  9
$ORTHOMODE
 70
0
  9
$REGENMODE
 70
1
  9
$FILLMODE
 70
1
  9
$QTEXTMODE
 70
0
  9
$MIRRTEXT
 70
1
  9
$LTSCALE
 40
1
  9
$OSMODE
 70
0
  9
$ATTMODE
 70
1
  9
$TEXTSIZE
 40
0.2
  9
$TRACEWID
 40
0.05
  9
$TEXTSTYLE
  7
STANDARD
  9
$CLAYER
  8
LAY-1
  9
$CELTYPE
  6
CONTINUOUS
  9
$CECOLOR
 62
256
  9
$DIMSCALE
 40
1
  9
$DIMASZ
 40
0.18
  9
$DIMEXO
 40
0.0625
  9
$DIMDLI
 40
0.38
  9
$DIMRND
 40
0
  9
$DIMDLE
 40
0
  9
$DIMEXE
 40
0.18
  9
$DIMTP
 40
0
  9
$DIMTM
 40
0
  9
$DIMTXT
 40
0.18
  9
$DIMCEN
 40
0.09
  9
$DIMTSZ
 40
0
  9
$DIMTOL
 70
0
  9
$DIMLIM
 70
0
  9
$DIMTIH
 70
1
  9
$DIMTOH
 70
1
  9
$DIMSE1
 70
0
  9
$DIMSE2
 70
0
  9
$DIMTAD
 70
0
  9
$DIMZIN
 70
0
  9
$DIMBLK
  1

  9
$DIMASO
 70
1
  9
$DIMSHO
 70
1
  9
$DIMPOST
  1

  9
$DIMAPOST
  1

  9
$DIMALT
 70
0
  9
$DIMALTD
 70
2
  9
$DIMALTF
 40
25.4
  9
$DIMLFAC
 40
1
  9
$DIMTOFL
 70
0
  9
$DIMTVP
 40
0
  9
$DIMTIX
 70
0
  9
$DIMSOXD
 70
0
  9
$DIMSAH
 70
0
  9
$DIMBLK1
  1

  9
$DIMBLK2
  1

  9
$DIMSTYLE
  2
STANDARD
  9
$DIMCLRD
 70
0
  9
$DIMCLRE
 70
0
  9
$DIMCLRT
 70
0
  9
$DIMTFAC
 40
1
  9
$DIMGAP
 40
0.09
  9
$LUNITS
 70
2
  9
$LUPREC
 70
4
  9
$SKETCHINC
 40
0.1
  9
$FILLETRAD
 40
0
  9
$AUNITS
 70
0
  9
$AUPREC
 70
0
  9
$MENU
  1
.
  9
$ELEVATION
 40
0
  9
$PELEVATION
 40
0
  9
$THICKNESS
 40
0
  9
$LIMCHECK
 70
0
  9
$CHAMFERA
 40
0.5
  9
$CHAMFERB
 40
0.5
  9
$SKPOLY
 70
0
  9
$TDCREATE
 40
2451711.2260421761
  9
$TDUPDATE
 40
2451711.2260421761
  9
$TDINDWG
 40
0
  9
$TDUSRTIMER
 40
1.1574074074074074E-08
  9
$USRTIMER
 70
1
  9
$ANGBASE
 50
0
  9
$ANGDIR
 70
1
  9
$PDMODE
 70
0
  9
$PDSIZE
 40
0
  9
$PLINEWID
 40
0
  9
$SPLFRAME
 70
0
  9
$SPLINETYPE
 70
6
  9
$SPLINESEGS
 70
8
  9
$HANDLING
 70
0
  9
$HANDSEED
  5
185
  9
$SURFTAB1
 70
6
  9
$SURFTAB2
 70
6
  9
$SURFTYPE
 70
6
  9
$SURFU
 70
6
  9
$SURFV
 70
6
  9
$UCSORG
 10
0
 20
0
 30
0
  9
$UCSXDIR
 10
1
 20
0
 30
0
  9
$UCSYDIR
 10
0
 20
1
 30
0
  9
$PUCSORG
 10
0
 20
0
 30
0
  9
$PUCSXDIR
 10
1
 20
0
 30
0
  9
$PUCSYDIR
 10
0
 20
1
 30
0
  9
$USERI1
 70
0
  9
$USERI2
 70
0
  9
$USERI3
 70
0
  9
$USERI4
 70
0
  9
$USERI5
 70
0
  9
$USERR1
 40
0
  9
$USERR2
 40
0
  9
$USERR3
 40
0
  9
$USERR4
 40
0
  9
$USERR5
 40
0
  9
$WORLDVIEW
 70
1
  9
$SHADEDGE
 70
3
  9
$SHADEDIF
 70
70
  9
$TILEMODE
 70
1
  9
$MAXACTVP
 70
48
  9
$PINSBASE
 10
0
 20
0
 30
0
  9
$PLIMCHECK
 70
0
  9
$PEXTMIN
 10
1E+20
 20
1E+20
 30
1E+20
  9
$PEXTMAX
 10
-1E+20
 20
-1E+20
 30
-1E+20
  9
$PLIMMAX
 10
0
 20
0
  9
$PLIMMIN
 10
0
 20
0
  9
$UNITMODE
 70
0
  9
$VISRETAIN
 70
1
  9
$PLINEGEN
 70
1
  9
$PSLTSCALE
 70
1
  9
$TREEDEPTH
 70
3020
  0
ENDSEC
  0
SECTION
  2
TABLES
  0
TABLE
  2
LTYPE
 70
7
  0
LTYPE
  2
CONTINUOUS
  3
実線
 70
64
 72
65
 73
0
 40
0
  0
LTYPE
  2
DASHED
  3
破線
 70
64
 72
65
 73
2
 40
3.8
 49
3
 49
-0.8
  0
LTYPE
  2
DOT
  3
点線
 70
64
 72
65
 73
2
 40
2
 49
1
 49
-1
  0
LTYPE
  2
DASHDOT
  3
一点鎖線
 70
64
 72
65
 73
4
 40
25.6
 49
20
 49
-2
 49
1.6
 49
-2
  0
LTYPE
  2
DIVIDE
  3
二点鎖線
 70
64
 72
65
 73
6
 40
31.199999999999996
 49
20
 49
-2.4
 49
2
 49
-2.4
 49
2
 49
-2.4
  0
LTYPE
  2
ByBlock
  3

 70
64
 72
65
 73
0
 40
0
  0
LTYPE
  2
ByLayer
  3

 70
64
 72
65
 73
0
 40
0
  0
ENDTAB
  0
TABLE
  2
LAYER
 70
3
  0
LAYER
 70
0
  2
0
 62
7
  6
CONTINUOUS
  0
LAYER
 70
64
  2
LAY-1
 62
7
  6
CONTINUOUS
  0
LAYER
 70
0
  2
SPEC
 62
7
  6
CONTINUOUS
  0
ENDTAB
  0
TABLE
  2
STYLE
 70
5
  0
STYLE
  2
STANDARD
 70
0
 40
0
 41
1
 50
0
 71
0
 42
0.2
  3
txt.shx
  4
extfont2.shx
  0
STYLE
  2
EXCADSTD
 70
64
 40
0
 41
1
 50
0
 71
0
 42
0.2
  3
monotxt
  4
extfont
  0
STYLE
  2
EXCADVERT
 70
68
 40
0
 41
1
 50
0
 71
0
 42
0.286885
  3
monotxt
  4
extfont
  0
STYLE
  2
EXCADSTD2
 70
64
 40
0
 41
1
 50
0
 71
0
 42
0.2
  3
monotxt
  0
STYLE
  2
EXCADVERT2
 70
68
 40
0
 41
1
 50
0
 71
0
 42
0.286885
  3
monotxt
  0
ENDTAB
  0
TABLE
  2
APPID
 70
2
  0
APPID
  2
ACAD
 70
64
  0
APPID
  2
ACAD_MLEADERVER
 70
64
  0
ENDTAB
  0
TABLE
  2
DIMSTYLE
 70
1
  0
DIMSTYLE
  2
STANDARD
 70
0
  3

  4

  5

  6

  7

 40
1
 41
0.18
 42
0.0625
 43
0.38
 44
0.18
 45
0
 46
0
 47
0
 48
0
140
0.18
141
0.09
142
0
143
25.4
144
1
145
0
146
1
147
0.09
 71
0
 72
0
 73
1
 74
1
 75
0
 76
0
 77
0
 78
0
170
0
171
2
172
0
173
0
174
0
175
0
176
0
177
0
178
0
  0
ENDTAB
  0
ENDSEC
  0
SECTION
  2
BLOCKS
  0
BLOCK
  8
0
  2
_EX_NORM
 70
64
 10
0
 20
0
 30
0
  3
_EX_NORM
  0
LINE
  8
0
  6
ByBlock
 62
0
 10
0
 20
0
 30
0
 11
-1
 21
0
 31
0
  0
LINE
  8
0
  6
ByBlock
 62
0
 10
0
 20
0
 30
0
 11
-0.960768922
 21
0.277350098
 31
0
  0
LINE
  8
0
  6
ByBlock
 62
0
 10
0
 20
0
 30
0
 11
-0.960768922
 21
-0.277350098
 31
0
  0
ENDBLK
  8
0
  0
BLOCK
  8
0
  2
_EX_BNORM
 70
64
 10
0
 20
0
 30
0
  3
_EX_BNORM
  0
LINE
  8
0
  6
ByBlock
 62
0
 10
0
 20
0
 30
0
 11
-1
 21
0
 31
0
  0
LINE
  8
0
  6
ByBlock
 62
0
 10
0
 20
0
 30
0
 11
-0.960768922
 21
0.277350098
 31
0
  0
LINE
  8
0
  6
ByBlock
 62
0
 10
0
 20
0
 30
0
 11
-0.960768922
 21
-0.277350098
 31
0
  0
LINE
  8
0
  6
ByBlock
 62
0
 10
0
 20
0
 30
0
 11
-0.960768922
 21
0.138767504
 31
0
  0
LINE
  8
0
  6
ByBlock
 62
0
 10
0
 20
0
 30
0
 11
-0.960768922
 21
-0.138767504
 31
0
  0
LINE
  8
0
  6
ByBlock
 62
0
 10
-0.960768922
 20
0.277350098
 30
0
 11
-0.960768922
 21
-0.277350098
 31
0
  0
ENDBLK
  8
0
  0
BLOCK
  8
0
  2
_EX_BCIR
 70
64
 10
0
 20
0
 30
0
  3
_EX_BCIR
  0
LINE
  8
0
  6
ByBlock
 62
0
 10
0
 20
0
 30
0
 11
-1
 21
0
 31
0
  0
CIRCLE
  8
0
  6
ByBlock
 62
0
 10
0
 20
0
 30
0
 40
0.5
  0
CIRCLE
  8
0
  6
ByBlock
 62
0
 10
0
 20
0
 30
0
 40
0.25
  0
ENDBLK
  8
0
  0
BLOCK
  8
0
  2
_EX_RCIVIL
 70
64
 10
0
 20
0
 30
0
  3
_EX_RCIVIL
  0
LINE
  8
0
  6
ByBlock
 62
0
 10
0
 20
0
 30
0
 11
-1
 21
0
 31
0
  0
LINE
  8
0
  6
ByBlock
 62
0
 10
-1
 20
-0.25
 30
0
 11
0
 21
-0.25
 31
0
  0
LINE
  8
0
  6
ByBlock
 62
0
 10
-1
 20
-0.125
 30
0
 11
0
 21
-0.125
 31
0
  0
ENDBLK
  8
0
  0
BLOCK
  8
0
  2
_EX_SLANT
 70
64
 10
0
 20
0
 30
0
  3
_EX_SLANT
  0
LINE
  8
0
  6
ByBlock
 62
0
 10
0
 20
0
 30
0
 11
-1
 21
0
 31
0
  0
LINE
  8
0
  6
ByBlock
 62
0
 10
0.707106781
 20
0.707106781
 30
0
 11
-0.707106781
 21
-0.707106781
 31
0
  0
ENDBLK
  8
0
  0
BLOCK
  8
0
  2
_EX_NONE
 70
64
 10
0
 20
0
 30
0
  3
_EX_NONE
  0
LINE
  8
0
  6
ByBlock
 62
0
 10
0
 20
0
 30
0
 11
-1
 21
0
 31
0
  0
ENDBLK
  8
0
  0
BLOCK
  8
0
  2
_EX_WCIR
 70
64
 10
0
 20
0
 30
0
  3
_EX_WCIR
  0
LINE
  8
0
  6
ByBlock
 62
0
 10
0
 20
0
 30
0
 11
-1
 21
0
 31
0
  0
ENDBLK
  8
0
  0
BLOCK
  8
0
  2
_EX_CIVIL
 70
64
 10
0
 20
0
 30
0
  3
_EX_CIVIL
  0
LINE
  8
0
  6
ByBlock
 62
0
 10
0
 20
0
 30
0
 11
-1
 21
0
 31
0
  0
LINE
  8
0
  6
ByBlock
 62
0
 10
-1
 20
0.25
 30
0
 11
0
 21
0.25
 31
0
  0
LINE
  8
0
  6
ByBlock
 62
0
 10
-1
 20
0.125
 30
0
 11
0
 21
0.125
 31
0
  0
ENDBLK
  8
0
  0
BLOCK
  8
0
  2
SPECSET00Y63
 70
64
 10
0
 20
0
 30
0
  3
SPECSET00Y63
  0
TEXT
  8
SPEC
 10
0
 20
0
 30
0
 40
1.5
  1
Hf/FL(28mm管)共用ｼﾘｰｽﾞ ﾌｧｲﾝﾍﾞｰｽ ｼｽﾃﾑ天井 32W×2
  7
STANDARD
  0
TEXT
  8
SPEC
 10
0
 20
-3
 30
0
 40
1.5
  1
100V~254V共用ﾀｲﾌﾟ Hf
  7
STANDARD
  0
TEXT
  8
SPEC
 10
0
 20
-6
 30
0
 40
1.5
  1
本体:鋼板･白色仕上
  7
STANDARD
  0
TEXT
  8
SPEC
 10
0
 20
-9
 30
0
 40
1.5
  1
反射板:鋼板･白色仕上
  7
STANDARD
  0
ENDBLK
  8
0
  0
BLOCK
  8
0
  2
*MODEL_SPACE
 70
64
 10
0
 20
0
 30
0
  3
*MODEL_SPACE
  0
ENDBLK
  8
0
  0
BLOCK
  8
0
 67
1
  2
*PAPER_SPACE
 70
64
 10
0
 20
0
 30
0
  3
*PAPER_SPACE
  0
ENDBLK
  8
0
  0
ENDSEC
  0
SECTION
  2
ENTITIES
  0
TEXT
  8
LAY-1
  6
CONTINUOUS
 62
7
 10
52
 20
83
 30
0
 40
4.5
  1
（ＥＧインバータ）
 41
0.92837039121868836
 72
5
 11
92.5
 21
83
 31
0
  7
EXCADSTD
  0
LINE
  8
LAY-1
  6
CONTINUOUS
 62
7
 10
19.4564490701873
 20
52.7229091887627
 30
0
 11
71.6751416861551
 21
34.1111524419226
 31
0
  0
LINE
  8
LAY-1
  6
CONTINUOUS
 62
7
 10
81.6524998317113
 20
38.7726495941764
 30
0
 11
71.7363248165773
 21
33.9324213368624
 31
0
  0
LINE
  8
LAY-1
  6
CONTINUOUS
 62
7
 10
81.3583566817453
 20
38.8885720412351
 30
0
 11
71.6751416861551
 21
34.1111524419226
 31
0
  0
LINE
  8
LAY-1
  6
CONTINUOUS
 62
7
 10
23.498740582418
 20
51.292151371658
 30
0
 11
23.975740582418
 21
53.119151371658
 31
0
  0
LINE
  8
LAY-1
  6
CONTINUOUS
 62
7
 10
28.6483863169822
 20
54.314216342653
 30
0
 11
29.1253863169822
 21
56.141216342653
 31
0
  0
LINE
  8
LAY-1
  6
CONTINUOUS
 62
7
 10
27.6380728333968
 20
49.8068194966117
 30
0
 11
28.1150728333968
 21
51.6338194966117
 31
0
  0
LINE
  8
LAY-1
  6
CONTINUOUS
 62
7
 10
32.689170647295
 20
52.7710517089356
 30
0
 11
33.166170647295
 21
54.5980517089356
 31
0
  0
LINE
  8
LAY-1
  6
CONTINUOUS
 62
7
 10
31.787999550472
 20
48.3277049744722
 30
0
 11
32.264999550472
 21
50.1547049744722
 31
0
  0
LINE
  8
LAY-1
  6
CONTINUOUS
 62
7
 10
36.7299549776078
 20
51.2278870752182
 30
0
 11
37.2069549776078
 21
53.0548870752182
 31
0
  0
LINE
  8
LAY-1
  6
CONTINUOUS
 62
7
 10
35.9379262675473
 20
46.8485904523327
 30
0
 11
36.4149262675473
 21
48.6755904523327
 31
0
  0
LINE
  8
LAY-1
  6
CONTINUOUS
 62
7
 10
40.0878529846225
 20
45.3694759301932
 30
0
 11
40.5648529846224
 21
47.1964759301932
 31
0
  0
LINE
  8
LAY-1
  6
CONTINUOUS
 62
7
 10
44.1731604046694
 20
43.9133929811781
 30
0
 11
44.6501604046694
 21
45.7403929811782
 31
0
  0
LINE
  8
LAY-1
  6
CONTINUOUS
 62
7
 10
48.2657905725387
 20
42.4547000625455
 30
0
 11
48.7427905725387
 21
44.2817000625455
 31
0
  0
LINE
  8
LAY-1
  6
CONTINUOUS
 62
7
 10
52.0747631508458
 20
41.0971082207851
 30
0
 11
52.5517631508458
 21
42.924108220785
 31
0
  0
LINE
  8
LAY-1
  6
CONTINUOUS
 62
7
 10
56.045168195905
 20
39.6819787109652
 30
0
 11
56.522168195905
 21
41.5089787109652
 31
0
  0
LINE
  8
LAY-1
  6
CONTINUOUS
 62
7
 10
59.9990462802596
 20
38.2727397310876
 30
0
 11
60.4760462802596
 21
40.0997397310876
 31
0
  0
LINE
  8
LAY-1
  6
CONTINUOUS
 62
7
 10
64.0547358803589
 20
36.8272131486267
 30
0
 11
64.5317358803589
 21
38.6542131486267
 31
0
  0
LINE
  8
LAY-1
  6
CONTINUOUS
 62
7
 10
68.1458737718479
 20
35.3690521062936
 30
0
 11
68.6228737718479
 21
37.1960521062935
 31
0
  0
LINE
  8
LAY-1
  6
CONTINUOUS
 62
7
 10
72.5652166070754
 20
37.542497342398
 30
0
 11
73.0422166070754
 21
39.369497342398
 31
0
  0
LINE
  8
LAY-1
  6
CONTINUOUS
 62
7
 10
68.5601425954081
 20
39.0720243017711
 30
0
 11
69.0371425954081
 21
40.8990243017711
 31
0
  0
LINE
  8
LAY-1
  6
CONTINUOUS
 62
7
 10
64.5730724292472
 20
40.5946756411196
 30
0
 11
65.0500724292472
 21
42.4216756411196
 31
0
  0
LINE
  8
LAY-1
  6
CONTINUOUS
 62
7
 10
60.6382934939817
 20
42.0973571004708
 30
0
 11
61.1152934939817
 21
43.9243571004708
 31
0
  0
LINE
  8
LAY-1
  6
CONTINUOUS
 62
7
 10
56.6933146308701
 20
43.603933884747
 30
0
 11
57.1703146308701
 21
45.430933884747
 31
0
  0
LINE
  8
LAY-1
  6
CONTINUOUS
 62
7
 10
52.8301636752405
 20
45.0792608119274
 30
0
 11
53.3071636752405
 21
46.9062608119274
 31
0
  0
LINE
  8
LAY-1
  6
CONTINUOUS
 62
7
 10
48.8192022108506
 20
46.6110361736108
 30
0
 11
49.2962022108506
 21
48.4380361736108
 31
0
  0
LINE
  8
LAY-1
  6
CONTINUOUS
 62
7
 10
44.8115236382335
 20
48.1415578077835
 30
0
 11
45.2885236382335
 21
49.9685578077834
 31
0
  0
LINE
  8
LAY-1
  6
CONTINUOUS
 62
7
 10
40.7707393079206
 20
49.6847224415009
 30
0
 11
41.2477393079206
 21
51.5117224415008
 31
0
  0
LINE
  8
LAY-1
  6
CONTINUOUS
 62
7
 10
33.2843258101817
 20
56.7218410801058
 30
0
 11
33.9721291106552
 21
57.4384500163136
 31
0
  0
LINE
  8
LAY-1
  6
CONTINUOUS
 62
7
 10
37.2855403352135
 20
55.1554549417226
 30
0
 11
37.973343635687
 21
55.8720638779313
 31
0
  0
LINE
  8
LAY-1
  6
CONTINUOUS
 62
7
 10
41.2867548602453
 20
53.5890688033403
 30
0
 11
41.9745581607197
 21
54.305677739549
 31
0
  0
LINE
  8
LAY-1
  6
CONTINUOUS
 62
7
 10
45.2879693852771
 20
52.022682664958
 30
0
 11
45.9757726857515
 21
52.7392916011658
 31
0
  0
LINE
  8
LAY-1
  6
CONTINUOUS
 62
7
 10
49.289183910308
 20
50.4562965265757
 30
0
 11
49.9769872107833
 21
51.1729054627835
 31
0
  0
LINE
  8
LAY-1
  6
CONTINUOUS
 62
7
 10
53.2576168692563
 20
48.9027436392944
 30
0
 11
53.9782017358151
 21
49.6065193244012
 31
0
  0
LINE
  8
LAY-1
  6
CONTINUOUS
 62
7
 10
57.247986582173
 20
47.3406030026876
 30
0
 11
57.9794162608469
 21
48.0401331860189
 31
0
  0
LINE
  8
LAY-1
  6
CONTINUOUS
 62
7
 10
61.2182780201639
 20
45.7863225623606
 30
0
 11
61.9806307858787
 21
46.4737470476357
 31
0
  0
LINE
  8
LAY-1
  6
CONTINUOUS
 62
7
 10
65.2024079015672
 20
44.2266246804539
 30
0
 11
65.9818453109105
 21
44.9073609092534
 31
0
  0
LINE
  8
LAY-1
  6
CONTINUOUS
 62
7
 10
69.1844753546903
 20
42.6677341931651
 30
0
 11
69.9830598359423
 21
43.3409747708711
 31
0
  0
LINE
  8
LAY-1
  6
CONTINUOUS
 62
7
 10
73.1755266186143
 20
41.1053267445581
 30
0
 11
73.9842743609741
 21
41.7745886324888
 31
0
  0
LINE
  8
LAY-1
  6
CONTINUOUS
 62
7
 10
65.1593874961352
 20
37.1112992026733
 30
0
 11
64.0547358803588
 21
36.8272131486266
 31
0
  0
LINE
  8
LAY-1
  6
CONTINUOUS
 62
7
 10
61.0955416235873
 20
38.5615080605765
 30
0
 11
59.9990462802596
 21
38.2727397310877
 31
0
  0
LINE
  8
LAY-1
  6
CONTINUOUS
 62
7
 10
57.1243743619526
 20
39.9786439755827
 30
0
 11
56.0451681959051
 21
39.6819787109654
 31
0
  0
LINE
  8
LAY-1
  6
CONTINUOUS
 62
7
 10
53.1387135231509
 20
41.4009520143977
 30
0
 11
52.0747631508458
 21
41.0971082207852
 31
0
  0
LINE
  8
LAY-1
  6
CONTINUOUS
 62
7
 10
49.3004193093767
 20
42.7706713498808
 30
0
 11
48.2657905725383
 21
42.4547000625458
 31
0
  0
LINE
  8
LAY-1
  6
CONTINUOUS
 62
7
 10
45.2633600787977
 20
44.2113212267912
 30
0
 11
44.1731604046691
 21
43.9133929811786
 31
0
  0
LINE
  8
LAY-1
  6
CONTINUOUS
 62
7
 10
41.1493385386082
 20
45.6794355860219
 30
0
 11
40.0878529846229
 21
45.3694759301936
 31
0
  0
LINE
  8
LAY-1
  6
CONTINUOUS
 62
7
 10
32.8533270332204
 20
48.6399192627413
 30
0
 11
31.7879995504718
 21
48.3277049744726
 31
0
  0
LINE
  8
LAY-1
  6
CONTINUOUS
 62
7
 10
28.7053212805265
 20
50.120161101101
 30
0
 11
27.6380728333967
 21
49.8068194966121
 31
0
  0
LINE
  8
LAY-1
  6
CONTINUOUS
 62
7
 10
24.5573155278317
 20
51.6004029394616
 30
0
 11
23.498740582418
 21
51.292151371658
 31
0
  0
LINE
  8
LAY-1
  6
CONTINUOUS
 62
7
 10
69.0429379813733
 20
35.5449879400665
 30
0
 11
68.1458737718477
 21
35.3690521062932
 31
0
  0
LINE
  8
LAY-1
  6
CONTINUOUS
 62
7
 10
69.0429379813732
 20
35.5449879400665
 30
0
 11
77.1696373910266
 21
39.5417215666974
 31
0
  0
LINE
  8
LAY-1
  6
CONTINUOUS
 62
7
 10
65.1593874961353
 20
37.1112992026731
 30
0
 11
73.1755266186144
 21
41.1053267445579
 31
0
  0
LINE
  8
LAY-1
  6
CONTINUOUS
 62
7
 10
61.0955416235874
 20
38.5615080605762
 30
0
 11
69.1844753546904
 21
42.6677341931649
 31
0
  0
LINE
  8
LAY-1
  6
CONTINUOUS
 62
7
 10
57.1243743619527
 20
39.9786439755826
 30
0
 11
65.2024079015672
 21
44.2266246804539
 31
0
  0
LINE
  8
LAY-1
  6
CONTINUOUS
 62
7
 10
53.1387135231509
 20
41.4009520143978
 30
0
 11
61.218278020164
 21
45.7863225623604
 31
0
  0
LINE
  8
LAY-1
  6
CONTINUOUS
 62
7
 10
49.3004193093765
 20
42.7706713498811
 30
0
 11
57.2479865821732
 21
47.3406030026872
 31
0
  0
LINE
  8
LAY-1
  6
CONTINUOUS
 62
7
 10
45.2633600787977
 20
44.2113212267912
 30
0
 11
53.2576168692565
 21
48.9027436392941
 31
0
  0
LINE
  8
LAY-1
  6
CONTINUOUS
 62
7
 10
41.1493385386084
 20
45.6794355860216
 30
0
 11
49.2891839103081
 21
50.4562965265755
 31
0
  0
LINE
  8
LAY-1
  6
CONTINUOUS
 62
7
 10
32.8533270332203
 20
48.6399192627414
 30
0
 11
41.2867548602452
 21
53.5890688033405
 31
0
  0
LINE
  8
LAY-1
  6
CONTINUOUS
 62
7
 10
28.7053212805263
 20
50.1201611011013
 30
0
 11
37.2855403352134
 21
55.1554549417228
 31
0
  0
LINE
  8
LAY-1
  6
CONTINUOUS
 62
7
 10
24.5573155278318
 20
51.6004029394614
 30
0
 11
33.2843258101818
 21
56.7218410801057
 31
0
  0
LINE
  8
LAY-1
  6
CONTINUOUS
 62
7
 10
24.6579347314133
 20
55.8381590369503
 30
0
 11
28.6483863169821
 21
54.3142163426531
 31
0
  0
LINE
  8
LAY-1
  6
CONTINUOUS
 62
7
 10
28.9714555809866
 20
54.1908370623701
 30
0
 11
32.6891706472947
 21
52.7710517089358
 31
0
  0
LINE
  8
LAY-1
  6
CONTINUOUS
 62
7
 10
33.0122399112999
 20
52.6476724286525
 30
0
 11
36.7299549776081
 21
51.2278870752182
 31
0
  0
LINE
  8
LAY-1
  6
CONTINUOUS
 62
7
 10
37.0530242416125
 20
51.1045077949352
 30
0
 11
40.7707393079207
 21
49.6847224415009
 31
0
  0
LINE
  8
LAY-1
  6
CONTINUOUS
 62
7
 10
36.8625516871983
 20
47.0782338613319
 30
0
 11
45.287969385277
 21
52.0226826649582
 31
0
  0
LINE
  8
LAY-1
  6
CONTINUOUS
 62
7
 10
36.8625516871979
 20
47.0782338613318
 30
0
 11
35.9379262675469
 21
46.8485904523331
 31
0
  0
LINE
  8
LAY-1
  6
CONTINUOUS
 62
7
 10
41.0938085719251
 20
49.5613431612179
 30
0
 11
44.8115236382333
 21
48.1415578077836
 31
0
  0
LINE
  8
LAY-1
  6
CONTINUOUS
 62
7
 10
45.1345929022377
 20
48.0181785275006
 30
0
 11
48.8192022108505
 21
46.6110361736109
 31
0
  0
LINE
  8
LAY-1
  6
CONTINUOUS
 62
7
 10
49.142271474855
 20
46.4876568933279
 30
0
 11
52.8301636752404
 21
45.0792608119274
 31
0
  0
LINE
  8
LAY-1
  6
CONTINUOUS
 62
7
 10
53.1216764216796
 20
44.9679328805632
 30
0
 11
56.6933146308705
 21
43.6039338847469
 31
0
  0
LINE
  8
LAY-1
  6
CONTINUOUS
 62
7
 10
56.9892469697488
 20
43.4909181229542
 30
0
 11
60.6382934939822
 21
42.0973571004706
 31
0
  0
LINE
  8
LAY-1
  6
CONTINUOUS
 62
7
 10
60.9366689162479
 20
41.9834083317237
 30
0
 11
64.5730724292474
 21
40.5946756411195
 31
0
  0
LINE
  8
LAY-1
  6
CONTINUOUS
 62
7
 10
64.8741869687503
 20
40.4796808108899
 30
0
 11
68.5601425954082
 21
39.0720243017711
 31
0
  0
LINE
  8
LAY-1
  6
CONTINUOUS
 62
7
 10
72.8688023146973
 20
37.426558779731
 30
0
 11
75.9838332648372
 21
36.2369368642207
 31
0
  0
LINE
  8
LAY-1
  6
CONTINUOUS
 62
7
 10
68.8627115341686
 20
38.956474040389
 30
0
 11
72.5652166070755
 21
37.5424973423981
 31
0
  0
ARC
  8
LAY-1
  6
CONTINUOUS
 62
7
 10
30.5087333673981
 20
57.3144680793274
 30
0
 40
0.81954952335657
 50
232.762386352941
 51
8.05062043855474
  0
ARC
  8
LAY-1
  6
CONTINUOUS
 62
7
 10
34.4852178165444
 20
55.7335691181385
 30
0
 40
0.81954952335657
 50
232.76238635294004
 51
8.05062043855474
  0
ARC
  8
LAY-1
  6
CONTINUOUS
 62
7
 10
38.4617022656916
 20
54.1526701569496
 30
0
 40
0.81954952335657
 50
232.762386352941
 51
8.05062043855474
  0
ARC
  8
LAY-1
  6
CONTINUOUS
 62
7
 10
42.4381867148388
 20
52.5717711957616
 30
0
 40
0.81954952335657
 50
232.762386352941
 51
8.05062043855468
  0
ARC
  8
LAY-1
  6
CONTINUOUS
 62
7
 10
50.362176490455
 20
49.4214942702652
 30
0
 40
0.81954952335657
 50
232.76238635294004
 51
8.05062043855525
  0
ARC
  8
LAY-1
  6
CONTINUOUS
 62
7
 10
54.3118311447978
 20
47.8512618149509
 30
0
 40
0.81954952335657
 50
232.762386352941
 51
8.05062043855468
  0
ARC
  8
LAY-1
  6
CONTINUOUS
 62
7
 10
25.4464953056724
 20
54.3436982225791
 30
0
 40
0.81954952335657
 50
232.762386352941
 51
8.05062043855422
  0
ARC
  8
LAY-1
  6
CONTINUOUS
 62
7
 10
29.5442088107889
 20
52.8339424239286
 30
0
 40
0.81954952335657
 50
232.762386352941
 51
8.05062043855474
  0
ARC
  8
LAY-1
  6
CONTINUOUS
 62
7
 10
37.739635821021
 20
49.8144308266285
 30
0
 40
0.81954952335657
 50
232.76238635294004
 51
8.05062043855474
  0
ARC
  8
LAY-1
  6
CONTINUOUS
 62
7
 10
41.8373493261375
 20
48.3046750279789
 30
0
 40
0.81954952335657
 50
232.76238635294004
 51
8.05062043855468
  0
ARC
  8
LAY-1
  6
CONTINUOUS
 62
7
 10
45.8760064999179
 20
46.8166778609587
 30
0
 40
0.81954952335657
 50
232.762386352941
 51
8.05062043855468
  0
ARC
  8
LAY-1
  6
CONTINUOUS
 62
7
 10
49.9208481086214
 20
45.3264021094354
 30
0
 40
0.81954952335657
 50
232.762386352941
 51
8.0506204385542812
  0
ARC
  8
LAY-1
  6
CONTINUOUS
 62
7
 10
33.6897645255759
 20
51.3522627830251
 30
0
 40
0.81954952335657
 50
232.76238635294004
 51
8.05062043855474
  0
ARC
  8
LAY-1
  6
CONTINUOUS
 62
7
 10
73.7220848159013
 20
40.0920016670541
 30
0
 40
0.778572047188742
 50
232.762386352941
 51
359.613792032295
  0
ARC
  8
LAY-1
  6
CONTINUOUS
 62
7
 10
69.5643528661242
 20
38.0472174002151
 30
0
 40
0.778572047188742
 50
232.762386352941
 51
359.613792032229
  0
ARC
  8
LAY-1
  6
CONTINUOUS
 62
7
 10
65.8893921716631
 20
43.2484639329184
 30
0
 40
0.81954952335657
 50
232.762386352941
 51
1.06550446163607
  0
ARC
  8
LAY-1
  6
CONTINUOUS
 62
7
 10
61.5207945260274
 20
41.0107747183578
 30
0
 40
0.778572047188742
 50
232.76238635294004
 51
1.06550446169617
  0
ARC
  8
LAY-1
  6
CONTINUOUS
 62
7
 10
57.7311587187492
 20
42.5364262194697
 30
0
 40
0.81954952335657
 50
232.76238635294004
 51
2.71452047082409
  0
ARC
  8
LAY-1
  6
CONTINUOUS
 62
7
 10
58.1280682950858
 20
46.3340710843711
 30
0
 40
0.81954952335657
 50
232.76238635294004
 51
4.22145516421353
  0
ARC
  8
LAY-1
  6
CONTINUOUS
 62
7
 10
46.414671163986
 20
50.9908722345727
 30
0
 40
0.81954952335657
 50
232.762386352941
 51
320.502621933532
  0
ARC
  8
LAY-1
  6
CONTINUOUS
 62
7
 10
46.414671163986
 20
50.9908722345727
 30
0
 40
0.81954952335657
 50
321.786361402203
 51
8.05062043855422
  0
ARC
  8
LAY-1
  6
CONTINUOUS
 62
7
 10
62.014580800455
 20
44.7889415457148
 30
0
 40
0.81954952335657
 50
232.762386352941
 51
303.956137578162
  0
ARC
  8
LAY-1
  6
CONTINUOUS
 62
7
 10
62.014580800455
 20
44.7889415457148
 30
0
 40
0.81954952335657
 50
303.956137578162
 51
2.71452047082409
  0
ARC
  8
LAY-1
  6
CONTINUOUS
 62
7
 10
69.7855439735772
 20
41.6570205695274
 30
0
 40
0.778572047188742
 50
232.762386352941
 51
311.038553112812
  0
ARC
  8
LAY-1
  6
CONTINUOUS
 62
7
 10
69.7855439735772
 20
41.6570205695274
 30
0
 40
0.778572047188742
 50
311.038553112812
 51
0.207017782430071
  0
ARC
  8
LAY-1
  6
CONTINUOUS
 62
7
 10
53.703711681573
 20
43.9326491768224
 30
0
 40
0.81954952335657
 50
232.762386352941
 51
314.884262214675
  0
ARC
  8
LAY-1
  6
CONTINUOUS
 62
7
 10
53.703711681573
 20
43.9326491768224
 30
0
 40
0.81954952335657
 50
314.884262214675
 51
4.22145516421301
  0
LINE
  8
LAY-1
  6
CONTINUOUS
 62
7
 10
31.3202060038179
 20
57.4292443032401
 30
0
 11
32.3907832611734
 21
58.0575116045192
 31
0
  0
LINE
  8
LAY-1
  6
CONTINUOUS
 62
7
 10
29.1253863169822
 20
56.141216342653
 30
0
 11
30.0128060091672
 21
56.6619977914278
 31
0
  0
LINE
  8
LAY-1
  6
CONTINUOUS
 62
7
 10
26.2579679420925
 20
54.4584744464913
 30
0
 11
27.0514018290429
 21
54.9241004099356
 31
0
  0
LINE
  8
LAY-1
  6
CONTINUOUS
 62
7
 10
23.975740582418
 20
53.119151371658
 30
0
 11
24.9505679474417
 21
53.6912279346791
 31
0
  0
LINE
  8
LAY-1
  6
CONTINUOUS
 62
7
 10
35.2966904529644
 20
55.8483453420509
 30
0
 11
36.3919977862052
 21
56.4911254661366
 31
0
  0
LINE
  8
LAY-1
  6
CONTINUOUS
 62
7
 10
33.166170647295
 20
54.5980517089356
 30
0
 11
33.9892904583136
 21
55.0810988302386
 31
0
  0
LINE
  8
LAY-1
  6
CONTINUOUS
 62
7
 10
30.3556814472088
 20
52.9487186478412
 30
0
 11
31.0921861593558
 21
53.3809357762183
 31
0
  0
LINE
  8
LAY-1
  6
CONTINUOUS
 62
7
 10
28.1150728333968
 20
51.6338194966117
 30
0
 11
29.048281452558
 21
52.181472136029
 31
0
  0
LINE
  8
LAY-1
  6
CONTINUOUS
 62
7
 10
32.264999550472
 20
50.1547049744722
 30
0
 11
33.1938371673451
 21
50.6997924951252
 31
0
  0
LINE
  8
LAY-1
  6
CONTINUOUS
 62
7
 10
34.5012371619959
 20
51.4670390069375
 30
0
 11
35.1329704896686
 21
51.8377711425009
 31
0
  0
LINE
  8
LAY-1
  6
CONTINUOUS
 62
7
 10
37.2069549776078
 20
53.0548870752182
 30
0
 11
37.9657749074608
 21
53.5001998690497
 31
0
  0
LINE
  8
LAY-1
  6
CONTINUOUS
 62
7
 10
39.2731749021116
 20
54.267446380862
 30
0
 11
40.3932123112371
 21
54.9247393277541
 31
0
  0
LINE
  8
LAY-1
  6
CONTINUOUS
 62
7
 10
36.4149262675473
 20
48.6755904523327
 30
0
 11
37.2437084627902
 21
49.1619605387286
 31
0
  0
LINE
  8
LAY-1
  6
CONTINUOUS
 62
7
 10
38.551108457441
 20
49.9292070505409
 30
0
 11
39.1737548199814
 21
50.2946065087835
 31
0
  0
LINE
  8
LAY-1
  6
CONTINUOUS
 62
7
 10
41.2477393079207
 20
51.5117224415008
 30
0
 11
41.9422593566084
 21
51.9193009078612
 31
0
  0
LINE
  8
LAY-1
  6
CONTINUOUS
 62
7
 10
43.2496593512591
 20
52.6865474196734
 30
0
 11
44.3944268362689
 21
53.3583531893716
 31
0
  0
LINE
  8
LAY-1
  6
CONTINUOUS
 62
7
 10
45.2885236382335
 20
49.9685578077834
 30
0
 11
45.9187438057555
 21
50.3384019466723
 31
0
  0
LINE
  8
LAY-1
  6
CONTINUOUS
 62
7
 10
42.6488219625577
 20
48.419451251891
 30
0
 11
43.2145391502943
 21
48.7514418750661
 31
0
  0
LINE
  8
LAY-1
  6
CONTINUOUS
 62
7
 10
40.5648529846224
 20
47.1964759301932
 30
0
 11
41.3414219679069
 21
47.6522047400788
 31
0
  0
LINE
  8
LAY-1
  6
CONTINUOUS
 62
7
 10
44.6501604046694
 20
45.7403929811782
 30
0
 11
45.3800791416873
 21
46.1642075730584
 31
0
  0
LINE
  8
LAY-1
  6
CONTINUOUS
 62
7
 10
46.6910083912563
 20
46.9253757918109
 30
0
 11
47.2088228241796
 21
47.2260357165796
 31
0
  0
LINE
  8
LAY-1
  6
CONTINUOUS
 62
7
 10
49.2962022108506
 20
48.4380361736108
 30
0
 11
49.8662491322241
 21
48.7690239823655
 31
0
  0
LINE
  8
LAY-1
  6
CONTINUOUS
 62
7
 10
51.1771783817931
 20
49.5301922011179
 30
0
 11
52.3836930046468
 21
50.230733886856
 31
0
  0
LINE
  8
LAY-1
  6
CONTINUOUS
 62
7
 10
55.1455874032706
 20
47.9633730700081
 30
0
 11
56.3728567384722
 21
48.6690653641336
 31
0
  0
LINE
  8
LAY-1
  6
CONTINUOUS
 62
7
 10
53.3071636752405
 20
46.9062608119274
 30
0
 11
53.8159037865671
 21
47.1987915270509
 31
0
  0
LINE
  8
LAY-1
  6
CONTINUOUS
 62
7
 10
50.7390093975212
 20
45.4295460990856
 30
0
 11
51.2075195969551
 21
45.6989442075337
 31
0
  0
LINE
  8
LAY-1
  6
CONTINUOUS
 62
7
 10
48.7427905725387
 20
44.2817000625455
 30
0
 11
49.4249207503906
 21
44.6739318215355
 31
0
  0
LINE
  8
LAY-1
  6
CONTINUOUS
 62
7
 10
54.5210377525569
 20
43.9929775691747
 30
0
 11
54.9974701950567
 21
44.2515722993988
 31
0
  0
LINE
  8
LAY-1
  6
CONTINUOUS
 62
7
 10
52.5517631508458
 20
42.924108220785
 30
0
 11
53.2077843233425
 21
43.280178888922
 31
0
  0
LINE
  8
LAY-1
  6
CONTINUOUS
 62
7
 10
58.9453943660696
 20
46.3943994767237
 30
0
 11
60.3021765553977
 21
47.130824398547
 31
0
  0
LINE
  8
LAY-1
  6
CONTINUOUS
 62
7
 10
57.1703146308701
 20
45.430933884747
 30
0
 11
57.6321409368552
 21
45.681600796471
 31
0
  0
LINE
  8
LAY-1
  6
CONTINUOUS
 62
7
 10
62.8332107111397
 20
44.8277550815841
 30
0
 11
64.2636700957438
 21
45.579988138689
 31
0
  0
LINE
  8
LAY-1
  6
CONTINUOUS
 62
7
 10
61.1152934939817
 20
43.9243571004708
 30
0
 11
61.5186534422243
 21
44.1364712578148
 31
0
  0
LINE
  8
LAY-1
  6
CONTINUOUS
 62
7
 10
58.549788629434
 20
42.5752397553388
 30
0
 11
58.9019850154044
 21
42.7604486238822
 31
0
  0
LINE
  8
LAY-1
  6
CONTINUOUS
 62
7
 10
56.522168195905
 20
41.5089787109652
 30
0
 11
57.2352313605186
 21
41.8839559315695
 31
0
  0
LINE
  8
LAY-1
  6
CONTINUOUS
 62
7
 10
62.2992319494996
 20
41.0252526464436
 30
0
 11
62.7913967898215
 21
41.2750927608582
 31
0
  0
LINE
  8
LAY-1
  6
CONTINUOUS
 62
7
 10
60.4760462802596
 20
40.0997397310876
 30
0
 11
61.0496635357081
 21
40.390927944853
 31
0
  0
LINE
  8
LAY-1
  6
CONTINUOUS
 62
7
 10
66.7087999858442
 20
43.2637038572186
 30
0
 11
68.2203685883308
 21
44.031029032954
 31
0
  0
LINE
  8
LAY-1
  6
CONTINUOUS
 62
7
 10
65.0500724292472
 20
42.4216756411196
 30
0
 11
65.3934648134325
 21
42.5959936450181
 31
0
  0
LINE
  8
LAY-1
  6
CONTINUOUS
 62
7
 10
70.5641109387223
 20
41.6598336547027
 30
0
 11
72.1979540141789
 21
42.4738931592579
 31
0
  0
LINE
  8
LAY-1
  6
CONTINUOUS
 62
7
 10
69.0371425954081
 20
40.8990243017711
 30
0
 11
69.3144129832579
 21
41.0371737960227
 31
0
  0
LINE
  8
LAY-1
  6
CONTINUOUS
 62
7
 10
66.4788845812461
 20
39.6243766426309
 30
0
 11
66.7543781860187
 21
39.7616408577677
 31
0
  0
LINE
  8
LAY-1
  6
CONTINUOUS
 62
7
 10
64.5317358803589
 20
38.6542131486267
 30
0
 11
65.1401111566046
 21
38.9573350845114
 31
0
  0
LINE
  8
LAY-1
  6
CONTINUOUS
 62
7
 10
68.6228737718479
 20
37.1960521062935
 30
0
 11
69.0932218758052
 21
37.4273706267097
 31
0
  0
LINE
  8
LAY-1
  6
CONTINUOUS
 62
7
 10
70.3429072258978
 20
38.0419693967209
 30
0
 11
70.7426117660886
 21
38.2385452137863
 31
0
  0
ARC
  8
LAY-1
  6
CONTINUOUS
 62
7
 10
65.7368440507302
 20
39.4574193631413
 30
0
 40
0.778572047188742
 50
219.964254868123
 51
12.680248273339
  0
LINE
  8
LAY-1
  6
CONTINUOUS
 62
7
 10
74.5006391756751
 20
40.0867536635603
 30
0
 11
76.1826526518936
 21
40.9139726219561
 31
0
  0
LINE
  8
LAY-1
  6
CONTINUOUS
 62
7
 10
73.0422166070755
 20
39.369497342398
 30
0
 11
73.2509538255821
 21
39.472154893549
 31
0
  0
LINE
  8
LAY-1
  6
CONTINUOUS
 62
7
 10
47.2261438004062
 20
51.1056484584847
 30
0
 11
48.3956413613007
 21
51.7919670509892
 31
0
  0
LINE
  8
LAY-1
  6
CONTINUOUS
 62
7
 10
19.2999629764373
 20
52.6446655512627
 30
0
 11
29.9709145856238
 21
59.004836154696
 31
0
  0
ARC
  8
LAY-1
  6
CONTINUOUS
 62
7
 10
73.0469106023558
 20
36.7376943882087
 30
0
 40
0.596024021953982
 50
249.912309293279
 51
301.0471873706
  0
ARC
  8
LAY-1
  6
CONTINUOUS
 62
7
 10
72.8965574709824
 20
36.9426909087902
 30
0
 40
0.849510832480002
 50
302.604582044101
 51
355.089670745055
  0
ARC
  8
LAY-1
  6
CONTINUOUS
 62
7
 10
72.6159015261374
 20
36.8779274180336
 30
0
 40
0.596024021953982
 50
249.91230929328197
 51
301.0471873706
  0
ARC
  8
LAY-1
  6
CONTINUOUS
 62
7
 10
72.465548394764
 20
37.0829239386151
 30
0
 40
0.849510832480002
 50
302.604582044098
 51
355.089670745056
  0
ARC
  8
LAY-1
  6
CONTINUOUS
 62
7
 10
73.1128262579496
 20
36.7109577131586
 30
0
 40
0.655626424149381
 50
249.912309293281
 51
301.047187370601
  0
ARC
  8
LAY-1
  6
CONTINUOUS
 62
7
 10
72.9474378134388
 20
36.9364538857982
 30
0
 40
0.934461915728002
 50
302.6045820441
 51
355.089670745055
  0
ARC
  8
LAY-1
  6
CONTINUOUS
 62
7
 10
72.8138480376213
 20
36.9869381221425
 30
0
 40
1.07258701018993
 50
353.013160253881
 51
2.00969326576118
  0
ARC
  8
LAY-1
  6
CONTINUOUS
 62
7
 10
73.0324198825526
 20
36.3149262449281
 30
0
 40
0.263121193500871
 50
207.931987276104
 51
236.61810703046498
  0
ARC
  8
LAY-1
  6
CONTINUOUS
 62
7
 10
73.7789332317728
 20
36.4931445066774
 30
0
 40
0.655626424149381
 50
249.912309293281
 51
301.047187370599
  0
ARC
  8
LAY-1
  6
CONTINUOUS
 62
7
 10
73.6135447872621
 20
36.718640679317
 30
0
 40
0.934461915728002
 50
302.604582044098
 51
355.089670745055
  0
ARC
  8
LAY-1
  6
CONTINUOUS
 62
7
 10
73.4799550114446
 20
36.7691249156613
 30
0
 40
1.07258701018993
 50
353.013160253881
 51
2.00969326576038
  0
LINE
  8
LAY-1
  6
CONTINUOUS
 62
7
 10
72.8778129011919
 20
36.0982769048716
 30
0
 11
73.5537079874074
 21
35.8772630410948
 31
0
  0
ARC
  8
LAY-1
  6
CONTINUOUS
 62
7
 10
77.1059106023558
 20
38.6726943882087
 30
0
 40
0.596024021953982
 50
249.912309293279
 51
301.047187370598
  0
ARC
  8
LAY-1
  6
CONTINUOUS
 62
7
 10
76.9555574709824
 20
38.8776909087902
 30
0
 40
0.849510832480002
 50
302.6045820441
 51
355.089670745055
  0
ARC
  8
LAY-1
  6
CONTINUOUS
 62
7
 10
76.8341122202392
 20
38.9235856691032
 30
0
 40
0.975079100172661
 50
353.013160253881
 51
30.201742401183804
  0
ARC
  8
LAY-1
  6
CONTINUOUS
 62
7
 10
76.524548394764
 20
39.0179239386151
 30
0
 40
0.849510832480002
 50
302.604582044098
 51
355.089670745055
  0
ARC
  8
LAY-1
  6
CONTINUOUS
 62
7
 10
76.4031031440208
 20
39.0638186989281
 30
0
 40
0.975079100172661
 50
353.013160253881
 51
30.201742401183395
  0
ARC
  8
LAY-1
  6
CONTINUOUS
 62
7
 10
77.1718262579496
 20
38.6459577131586
 30
0
 40
0.655626424149381
 50
249.91230929328197
 51
301.047187370602
  0
ARC
  8
LAY-1
  6
CONTINUOUS
 62
7
 10
77.0064378134388
 20
38.8714538857982
 30
0
 40
0.934461915728002
 50
302.6045820441
 51
355.089670745055
  0
ARC
  8
LAY-1
  6
CONTINUOUS
 62
7
 10
76.8728480376213
 20
38.9219381221425
 30
0
 40
1.07258701018993
 50
353.01316025388
 51
2.0096932657607804
  0
ARC
  8
LAY-1
  6
CONTINUOUS
 62
7
 10
77.0914198825526
 20
38.2499262449281
 30
0
 40
0.263121193500871
 50
207.93198727610502
 51
236.618107030468
  0
ARC
  8
LAY-1
  6
CONTINUOUS
 62
7
 10
77.8379332317729
 20
38.4281445066774
 30
0
 40
0.655626424149381
 50
249.912309293281
 51
301.047187370599
  0
ARC
  8
LAY-1
  6
CONTINUOUS
 62
7
 10
77.6725447872621
 20
38.653640679317
 30
0
 40
0.934461915728002
 50
302.60458204409906
 51
355.089670745055
  0
ARC
  8
LAY-1
  6
CONTINUOUS
 62
7
 10
77.5389550114446
 20
38.7041249156613
 30
0
 40
1.07258701018993
 50
353.013160253881
 51
2.00969326576043
  0
LINE
  8
LAY-1
  6
CONTINUOUS
 62
7
 10
78.610882282418
 20
38.7417390110395
 30
0
 11
78.610882282418
 21
39.9706827988946
 31
0
  0
ARC
  8
LAY-1
  6
CONTINUOUS
 62
7
 10
72.7751122202392
 20
36.9885856691032
 30
0
 40
0.975079100172661
 50
353.013160253881
 51
5.53341252163169
  0
ARC
  8
LAY-1
  6
CONTINUOUS
 62
7
 10
72.3441031440208
 20
37.1288186989281
 30
0
 40
0.975079100172661
 50
353.013160253881
 51
7.07024624938762
  0
LINE
  8
LAY-1
  6
CONTINUOUS
 62
7
 10
76.9543978329917
 20
38.0275267318039
 30
0
 11
77.6127079874075
 21
37.8122630410948
 31
0
  0
ARC
  8
LAY-1
  6
CONTINUOUS
 62
7
 10
76.6749015261374
 20
38.8129274180336
 30
0
 40
0.596024021953982
 50
265.836398613192
 51
301.047187370599
  0
LINE
  8
LAY-1
  6
CONTINUOUS
 62
7
 10
76.3596111474965
 20
36.4223348567699
 30
0
 11
76.8044206963509
 21
38.1260393552125
 31
0
  0
LINE
  8
LAY-1
  6
CONTINUOUS
 62
7
 10
77.1696373910267
 20
39.5417215666973
 30
0
 11
77.9859288032681
 21
40.2085618689029
 31
0
  0
LINE
  8
LAY-1
  6
CONTINUOUS
 62
7
 10
77.9447753085948
 20
38.9595522175207
 30
0
 11
77.9447753085948
 21
40.162803571658
 31
0
  0
LINE
  8
LAY-1
  6
CONTINUOUS
 62
7
 10
77.9704573137869
 20
40.1800981351841
 30
0
 11
78.6108822824181
 21
39.9706827988945
 31
0
  0
ARC
  8
LAY-1
  6
CONTINUOUS
 62
7
 10
77.0533114548167
 20
39.0614691416022
 30
0
 40
0.716327605390112
 50
29.489873406131903
 51
64.3048743461184
  0
LINE
  8
LAY-1
  6
CONTINUOUS
 62
7
 10
71.7578239007603
 20
34.1519454670438
 30
0
 11
72.1139613534983
 21
36.4452548217961
 31
0
  0
LINE
  8
LAY-1
  6
CONTINUOUS
 62
7
 10
71.3886537584454
 20
36.7035481318039
 30
0
 11
72.8389011999565
 21
36.1689744712862
 31
0
  0
LINE
  8
LAY-1
  6
CONTINUOUS
 62
7
 10
67.3758203505123
 20
38.1827129850043
 30
0
 11
69.8026119981239
 21
37.2881767443294
 31
0
  0
LINE
  8
LAY-1
  6
CONTINUOUS
 62
7
 10
63.3196106673159
 20
39.6778667057478
 30
0
 11
66.0049829613327
 21
38.6880154183221
 31
0
  0
LINE
  8
LAY-1
  6
CONTINUOUS
 62
7
 10
59.3513971723221
 20
41.1405842758783
 30
0
 11
61.7627753355025
 21
40.2517295779235
 31
0
  0
LINE
  8
LAY-1
  6
CONTINUOUS
 62
7
 10
55.3252324202212
 20
42.6246631770179
 30
0
 11
57.8183321184038
 21
41.7056852195015
 31
0
  0
LINE
  8
LAY-1
  6
CONTINUOUS
 62
7
 10
51.4320889043509
 20
44.0597093082019
 30
0
 11
53.9339505310859
 21
43.1375016285805
 31
0
  0
LINE
  8
LAY-1
  6
CONTINUOUS
 62
7
 10
47.4638754093571
 20
45.5224268783323
 30
0
 11
50.1246389228914
 21
44.5416465987132
 31
0
  0
LINE
  8
LAY-1
  6
CONTINUOUS
 62
7
 10
43.4364387871699
 20
47.0069746017076
 30
0
 11
46.1009614461424
 21
46.0248086687993
 31
0
  0
LINE
  8
LAY-1
  6
CONTINUOUS
 62
7
 10
39.3819061091483
 20
48.5015101639429
 30
0
 11
42.0693605434285
 21
47.5108913817363
 31
0
  0
LINE
  8
LAY-1
  6
CONTINUOUS
 62
7
 10
35.2060065338892
 20
50.0407826067027
 30
0
 11
37.9797801511971
 21
49.0183458323913
 31
0
  0
LINE
  8
LAY-1
  6
CONTINUOUS
 62
7
 10
31.1297857182359
 20
51.5433126027096
 30
0
 11
33.8055575811128
 21
50.5570001166429
 31
0
  0
LINE
  8
LAY-1
  6
CONTINUOUS
 62
7
 10
27.0777403155662
 20
53.0369313338914
 30
0
 11
29.747265757653
 21
52.0529213321673
 31
0
  0
LINE
  8
LAY-1
  6
CONTINUOUS
 62
7
 10
22.6786718085754
 20
54.6584657612857
 30
0
 11
25.723588280904
 21
53.5360834022535
 31
0
  0
LINE
  8
LAY-1
  6
CONTINUOUS
 62
7
 10
29.6294883025475
 20
58.7816097747951
 30
0
 11
32.049961887825
 21
57.8128087721784
 31
0
  0
LINE
  8
LAY-1
  6
CONTINUOUS
 62
7
 10
27.7761275497304
 20
57.6441272699185
 30
0
 11
30.6739683430188
 21
56.4920006164558
 31
0
  0
LINE
  8
LAY-1
  6
CONTINUOUS
 62
7
 10
32.0638531869104
 20
55.9394087081633
 30
0
 11
34.6152522098605
 21
54.9250207456611
 31
0
  0
LINE
  8
LAY-1
  6
CONTINUOUS
 62
7
 10
33.7256690930472
 20
57.142102497842
 30
0
 11
36.0142691130372
 21
56.22608424115
 31
0
  0
LINE
  8
LAY-1
  6
CONTINUOUS
 62
7
 10
35.9730143189714
 20
54.3852002287468
 30
0
 11
38.5927089301144
 21
53.3436592329748
 31
0
  0
LINE
  8
LAY-1
  6
CONTINUOUS
 62
7
 10
37.6751018320327
 20
55.5613315195635
 30
0
 11
39.9359759995684
 21
54.6564106092006
 31
0
  0
LINE
  8
LAY-1
  6
CONTINUOUS
 62
7
 10
41.6519700377134
 20
53.9695794226299
 30
0
 11
43.9016211041437
 21
53.0691505883918
 31
0
  0
LINE
  8
LAY-1
  6
CONTINUOUS
 62
7
 10
39.9494215712694
 20
52.804255964657
 30
0
 11
42.5690575356241
 21
51.762738285738
 31
0
  0
LINE
  8
LAY-1
  6
CONTINUOUS
 62
7
 10
45.6288382433945
 20
52.3778273256961
 30
0
 11
47.867266208719
 21
51.4818905675831
 31
0
  0
LINE
  8
LAY-1
  6
CONTINUOUS
 62
7
 10
43.9258288235682
 20
51.2233117005668
 30
0
 11
46.5454060992757
 21
50.1818173551432
 31
0
  0
LINE
  8
LAY-1
  6
CONTINUOUS
 62
7
 10
47.902236075866
 20
49.6423674364771
 30
0
 11
50.4927764890957
 21
48.6124175980089
 31
0
  0
LINE
  8
LAY-1
  6
CONTINUOUS
 62
7
 10
49.6057064490739
 20
50.786075228763
 30
0
 11
51.8162920893867
 21
49.9012824354305
 31
0
  0
LINE
  8
LAY-1
  6
CONTINUOUS
 62
7
 10
53.5638387406822
 20
49.2018222313645
 30
0
 11
55.7662919459555
 21
48.320284466828
 31
0
  0
LINE
  8
LAY-1
  6
CONTINUOUS
 62
7
 10
51.8460650056827
 20
48.0743756968127
 30
0
 11
54.4422960919632
 21
47.0421633544439
 31
0
  0
LINE
  8
LAY-1
  6
CONTINUOUS
 62
7
 10
57.53297685062
 20
47.6131641258512
 30
0
 11
59.6383136638996
 21
46.7704974560073
 31
0
  0
LINE
  8
LAY-1
  6
CONTINUOUS
 62
7
 10
55.7942112579549
 20
46.5046674714516
 30
0
 11
58.2584027134287
 21
45.5249515872451
 31
0
  0
LINE
  8
LAY-1
  6
CONTINUOUS
 62
7
 10
59.6888954059574
 20
44.9562147668984
 30
0
 11
62.1447822465508
 21
43.979800640391
 31
0
  0
LINE
  8
LAY-1
  6
CONTINUOUS
 62
7
 10
61.4884768237091
 20
46.0299647209548
 30
0
 11
63.5501542171852
 21
45.2047728502313
 31
0
  0
LINE
  8
LAY-1
  6
CONTINUOUS
 62
7
 10
65.4511703995938
 20
44.4438860573697
 30
0
 11
67.4542805219948
 21
43.6421358929649
 31
0
  0
LINE
  8
LAY-1
  6
CONTINUOUS
 62
7
 10
63.6864547179784
 20
43.3668608441969
 30
0
 11
66.0194610058811
 21
42.4393016997421
 31
0
  0
LINE
  8
LAY-1
  6
CONTINUOUS
 62
7
 10
69.4928983412059
 20
42.8261736782905
 30
0
 11
71.3850163922927
 21
42.0688483862023
 31
0
  0
LINE
  8
LAY-1
  6
CONTINUOUS
 62
7
 10
67.5420141931823
 20
41.8339633690557
 30
0
 11
69.9171538168289
 21
40.8896528077452
 31
0
  0
LINE
  8
LAY-1
  6
CONTINUOUS
 62
7
 10
71.488663730245
 20
40.2648502093344
 30
0
 11
73.8535624421637
 21
39.3246112407025
 31
0
  0
LINE
  8
LAY-1
  6
CONTINUOUS
 62
7
 10
73.3765926871594
 20
41.2717146670036
 30
0
 11
75.3246444305865
 21
40.4920017655033
 31
0
  0
LINE
  8
LAY-1
  6
CONTINUOUS
 62
7
 10
75.443139994314
 20
38.6926252910879
 30
0
 11
76.9012014232735
 21
38.1129276629156
 31
0
  0
LINE
  8
LAY-1
  6
CONTINUOUS
 62
7
 10
22.3236685499406
 20
61.9985622126607
 30
0
 11
89.8990760913291
 21
35.544299136742
 31
0
  0
LINE
  8
LAY-1
  6
CONTINUOUS
 62
7
 10
22.9282412956836
 20
63.5211252220287
 30
0
 11
90.3738976349508
 21
36.740095214979
 31
0
  0
LINE
  8
LAY-1
  6
CONTINUOUS
 62
7
 10
17.5249804055234
 20
53.2780792012124
 30
0
 11
28.2581620171219
 21
59.6753405390514
 31
0
  0
LINE
  8
LAY-1
  6
CONTINUOUS
 62
7
 10
73.2018508995296
 20
33.4094391732565
 30
0
 11
83.0603417091347
 21
38.2215109366427
 31
0
  0
LINE
  8
LAY-1
  6
CONTINUOUS
 62
7
 10
23.0310641363925
 20
63.7800754557008
 30
0
 11
90.4767204756602
 21
36.9990454486509
 31
0
  0
LINE
  8
LAY-1
  6
CONTINUOUS
 62
7
 10
67.2987795704461
 20
58.4638550512509
 30
0
 11
54.5421302843528
 21
51.2677973659504
 31
0
  0
LINE
  8
LAY-1
  6
CONTINUOUS
 62
7
 10
20.1355011292007
 20
59.5130194731404
 30
0
 11
19.151740582418
 21
54.2476714770326
 31
0
  0
LINE
  8
LAY-1
  6
CONTINUOUS
 62
7
 10
27.1954173121292
 20
63.8936435134991
 30
0
 11
28.9302310071248
 21
61.4376597456814
 31
0
  0
LINE
  8
LAY-1
  6
CONTINUOUS
 62
7
 10
27.1954173121292
 20
63.8936435134991
 30
0
 11
55.9600976909438
 21
51.8838271331824
 31
0
  0
LINE
  8
LAY-1
  6
CONTINUOUS
 62
7
 10
20.1355011292007
 20
59.5130194731404
 30
0
 11
23.4381299921487
 21
61.5622754442519
 31
0
  0
LINE
  8
LAY-1
  6
CONTINUOUS
 62
7
 10
25.4587949280202
 20
62.8160825952479
 30
0
 11
27.1954173121292
 21
63.8936435134991
 31
0
  0
LINE
  8
LAY-1
  6
CONTINUOUS
 62
7
 10
79.0274803332428
 20
31.3305268147184
 30
0
 11
13.5382330408118
 21
54.7007749736047
 31
0
  0
LINE
  8
LAY-1
  6
CONTINUOUS
 62
7
 10
13.1773506716338
 20
53.6894928272666
 30
0
 11
78.6665979640651
 21
30.3192446683803
 31
0
  0
TEXT
  8
LAY-1
  6
CONTINUOUS
 62
7
 10
5
 20
6.00000000000001
 30
0
 40
4.5
  1
三菱　ＹＳ４０６２＋Ｌ４９１２
 41
0.87522388059701473
 72
5
 11
72.5
 21
6.00000000000001
 31
0
  7
EXCADSTD
  0
LINE
  8
LAY-1
  6
CONTINUOUS
 62
7
 10
34.573905826986
 20
40.0036721363811
 30
0
 11
41.1435007006268
 21
43.7095969932564
 31
0
  0
TEXT
  8
LAY-1
  6
CONTINUOUS
 62
7
 10
5.0000000000000142
 20
90
 30
0
 40
4.5
  1
ＦＨＦ３２Ｗ×２　   埋込下面ルーバー付
 41
0.82846461484959122
 72
5
 11
92.75
 21
90
 31
0
  7
EXCADSTD
  0
TEXT
  8
LAY-1
  6
CONTINUOUS
 62
7
 10
5
 20
83
 30
0
 40
4.5
  1
（ＦＬ４０Ｗ×２）
 41
1.005640243902439
 72
5
 11
45.5
 21
83
 31
0
  7
EXCADSTD
  0
INSERT
  8
0
  2
SPECSET00Y63
 10
92.75
 20
18.000000000000011
 30
0
 41
1
 42
1
 43
1
 50
0
  0
ENDSEC
999
Created By CadLib version 4.0.36.7
999
CadLib website: www.woutware.com
  0
EOF
