  0
SECTION
  2
HEADER
  9
$ACADVER
  1
AC1009
  9
$DWGCODEPAGE
  3
dos932
  9
$INSBASE
 10
0
 20
0
 30
0
  9
$EXTMIN
 10
5.4554195381507959
 20
5.3517050957777421
 30
0
  9
$EXTMAX
 10
122.68744670873124
 20
95.618553754902791
 30
0
  9
$LIMMIN
 10
0
 20
0
  9
$LIMMAX
 10
297
 20
210
  9
$SNAPMODE
 70
0
  9
$SNAPUNIT
 10
1
 20
1
  9
$SNAPBASE
 10
0
 20
0
  9
$SNAPANG
 50
0
  9
$SNAPSTYLE
 70
0
  9
$SNAPISOPAIR
 70
0
  9
$ORTHOMODE
 70
0
  9
$REGENMODE
 70
1
  9
$FILLMODE
 70
1
  9
$QTEXTMODE
 70
0
  9
$MIRRTEXT
 70
1
  9
$LTSCALE
 40
1
  9
$OSMODE
 70
0
  9
$ATTMODE
 70
1
  9
$TEXTSIZE
 40
0.2
  9
$TRACEWID
 40
0.05
  9
$TEXTSTYLE
  7
STANDARD
  9
$CLAYER
  8
LAY-1
  9
$CELTYPE
  6
CONTINUOUS
  9
$CECOLOR
 62
256
  9
$DIMSCALE
 40
1
  9
$DIMASZ
 40
0.18
  9
$DIMEXO
 40
0.0625
  9
$DIMDLI
 40
0.38
  9
$DIMRND
 40
0
  9
$DIMDLE
 40
0
  9
$DIMEXE
 40
0.18
  9
$DIMTP
 40
0
  9
$DIMTM
 40
0
  9
$DIMTXT
 40
0.18
  9
$DIMCEN
 40
0.09
  9
$DIMTSZ
 40
0
  9
$DIMTOL
 70
0
  9
$DIMLIM
 70
0
  9
$DIMTIH
 70
1
  9
$DIMTOH
 70
1
  9
$DIMSE1
 70
0
  9
$DIMSE2
 70
0
  9
$DIMTAD
 70
0
  9
$DIMZIN
 70
0
  9
$DIMBLK
  1

  9
$DIMASO
 70
1
  9
$DIMSHO
 70
1
  9
$DIMPOST
  1

  9
$DIMAPOST
  1

  9
$DIMALT
 70
0
  9
$DIMALTD
 70
2
  9
$DIMALTF
 40
25.4
  9
$DIMLFAC
 40
1
  9
$DIMTOFL
 70
0
  9
$DIMTVP
 40
0
  9
$DIMTIX
 70
0
  9
$DIMSOXD
 70
0
  9
$DIMSAH
 70
0
  9
$DIMBLK1
  1

  9
$DIMBLK2
  1

  9
$DIMSTYLE
  2
STANDARD
  9
$DIMCLRD
 70
0
  9
$DIMCLRE
 70
0
  9
$DIMCLRT
 70
0
  9
$DIMTFAC
 40
1
  9
$DIMGAP
 40
0.09
  9
$LUNITS
 70
2
  9
$LUPREC
 70
4
  9
$SKETCHINC
 40
0.1
  9
$FILLETRAD
 40
0
  9
$AUNITS
 70
0
  9
$AUPREC
 70
0
  9
$MENU
  1
.
  9
$ELEVATION
 40
0
  9
$PELEVATION
 40
0
  9
$THICKNESS
 40
0
  9
$LIMCHECK
 70
0
  9
$CHAMFERA
 40
0.5
  9
$CHAMFERB
 40
0.5
  9
$SKPOLY
 70
0
  9
$TDCREATE
 40
2451711.2277782871
  9
$TDUPDATE
 40
2451711.2277782871
  9
$TDINDWG
 40
0
  9
$TDUSRTIMER
 40
1.1574074074074074E-08
  9
$USRTIMER
 70
1
  9
$ANGBASE
 50
0
  9
$ANGDIR
 70
1
  9
$PDMODE
 70
0
  9
$PDSIZE
 40
0
  9
$PLINEWID
 40
0
  9
$SPLFRAME
 70
0
  9
$SPLINETYPE
 70
6
  9
$SPLINESEGS
 70
8
  9
$HANDLING
 70
0
  9
$HANDSEED
  5
160
  9
$SURFTAB1
 70
6
  9
$SURFTAB2
 70
6
  9
$SURFTYPE
 70
6
  9
$SURFU
 70
6
  9
$SURFV
 70
6
  9
$UCSORG
 10
0
 20
0
 30
0
  9
$UCSXDIR
 10
1
 20
0
 30
0
  9
$UCSYDIR
 10
0
 20
1
 30
0
  9
$PUCSORG
 10
0
 20
0
 30
0
  9
$PUCSXDIR
 10
1
 20
0
 30
0
  9
$PUCSYDIR
 10
0
 20
1
 30
0
  9
$USERI1
 70
0
  9
$USERI2
 70
0
  9
$USERI3
 70
0
  9
$USERI4
 70
0
  9
$USERI5
 70
0
  9
$USERR1
 40
0
  9
$USERR2
 40
0
  9
$USERR3
 40
0
  9
$USERR4
 40
0
  9
$USERR5
 40
0
  9
$WORLDVIEW
 70
1
  9
$SHADEDGE
 70
3
  9
$SHADEDIF
 70
70
  9
$TILEMODE
 70
1
  9
$MAXACTVP
 70
48
  9
$PINSBASE
 10
0
 20
0
 30
0
  9
$PLIMCHECK
 70
0
  9
$PEXTMIN
 10
1E+20
 20
1E+20
 30
1E+20
  9
$PEXTMAX
 10
-1E+20
 20
-1E+20
 30
-1E+20
  9
$PLIMMAX
 10
0
 20
0
  9
$PLIMMIN
 10
0
 20
0
  9
$UNITMODE
 70
0
  9
$VISRETAIN
 70
1
  9
$PLINEGEN
 70
1
  9
$PSLTSCALE
 70
1
  9
$TREEDEPTH
 70
3020
  0
ENDSEC
  0
SECTION
  2
TABLES
  0
TABLE
  2
LTYPE
 70
7
  0
LTYPE
  2
CONTINUOUS
  3
実線
 70
64
 72
65
 73
0
 40
0
  0
LTYPE
  2
DASHED
  3
破線
 70
64
 72
65
 73
2
 40
3.8
 49
3
 49
-0.8
  0
LTYPE
  2
DOT
  3
点線
 70
64
 72
65
 73
2
 40
2
 49
1
 49
-1
  0
LTYPE
  2
DASHDOT
  3
一点鎖線
 70
64
 72
65
 73
4
 40
25.6
 49
20
 49
-2
 49
1.6
 49
-2
  0
LTYPE
  2
DIVIDE
  3
二点鎖線
 70
64
 72
65
 73
6
 40
31.199999999999996
 49
20
 49
-2.4
 49
2
 49
-2.4
 49
2
 49
-2.4
  0
LTYPE
  2
ByBlock
  3

 70
64
 72
65
 73
0
 40
0
  0
LTYPE
  2
ByLayer
  3

 70
64
 72
65
 73
0
 40
0
  0
ENDTAB
  0
TABLE
  2
LAYER
 70
3
  0
LAYER
 70
0
  2
0
 62
7
  6
CONTINUOUS
  0
LAYER
 70
64
  2
LAY-1
 62
7
  6
CONTINUOUS
  0
LAYER
 70
0
  2
SPEC
 62
7
  6
CONTINUOUS
  0
ENDTAB
  0
TABLE
  2
STYLE
 70
5
  0
STYLE
  2
STANDARD
 70
0
 40
0
 41
1
 50
0
 71
0
 42
0.2
  3
txt.shx
  4
extfont2.shx
  0
STYLE
  2
EXCADSTD
 70
64
 40
0
 41
1
 50
0
 71
0
 42
0.2
  3
monotxt
  4
extfont
  0
STYLE
  2
EXCADVERT
 70
68
 40
0
 41
1
 50
0
 71
0
 42
0.286885
  3
monotxt
  4
extfont
  0
STYLE
  2
EXCADSTD2
 70
64
 40
0
 41
1
 50
0
 71
0
 42
0.2
  3
monotxt
  0
STYLE
  2
EXCADVERT2
 70
68
 40
0
 41
1
 50
0
 71
0
 42
0.286885
  3
monotxt
  0
ENDTAB
  0
TABLE
  2
APPID
 70
2
  0
APPID
  2
ACAD
 70
64
  0
APPID
  2
ACAD_MLEADERVER
 70
64
  0
ENDTAB
  0
TABLE
  2
DIMSTYLE
 70
1
  0
DIMSTYLE
  2
STANDARD
 70
0
  3

  4

  5

  6

  7

 40
1
 41
0.18
 42
0.0625
 43
0.38
 44
0.18
 45
0
 46
0
 47
0
 48
0
140
0.18
141
0.09
142
0
143
25.4
144
1
145
0
146
1
147
0.09
 71
0
 72
0
 73
1
 74
1
 75
0
 76
0
 77
0
 78
0
170
0
171
2
172
0
173
0
174
0
175
0
176
0
177
0
178
0
  0
ENDTAB
  0
ENDSEC
  0
SECTION
  2
BLOCKS
  0
BLOCK
  8
0
  2
_EX_NORM
 70
64
 10
0
 20
0
 30
0
  3
_EX_NORM
  0
LINE
  8
0
  6
ByBlock
 62
0
 10
0
 20
0
 30
0
 11
-1
 21
0
 31
0
  0
LINE
  8
0
  6
ByBlock
 62
0
 10
0
 20
0
 30
0
 11
-0.960768922
 21
0.277350098
 31
0
  0
LINE
  8
0
  6
ByBlock
 62
0
 10
0
 20
0
 30
0
 11
-0.960768922
 21
-0.277350098
 31
0
  0
ENDBLK
  8
0
  0
BLOCK
  8
0
  2
_EX_BNORM
 70
64
 10
0
 20
0
 30
0
  3
_EX_BNORM
  0
LINE
  8
0
  6
ByBlock
 62
0
 10
0
 20
0
 30
0
 11
-1
 21
0
 31
0
  0
LINE
  8
0
  6
ByBlock
 62
0
 10
0
 20
0
 30
0
 11
-0.960768922
 21
0.277350098
 31
0
  0
LINE
  8
0
  6
ByBlock
 62
0
 10
0
 20
0
 30
0
 11
-0.960768922
 21
-0.277350098
 31
0
  0
LINE
  8
0
  6
ByBlock
 62
0
 10
0
 20
0
 30
0
 11
-0.960768922
 21
0.138767504
 31
0
  0
LINE
  8
0
  6
ByBlock
 62
0
 10
0
 20
0
 30
0
 11
-0.960768922
 21
-0.138767504
 31
0
  0
LINE
  8
0
  6
ByBlock
 62
0
 10
-0.960768922
 20
0.277350098
 30
0
 11
-0.960768922
 21
-0.277350098
 31
0
  0
ENDBLK
  8
0
  0
BLOCK
  8
0
  2
_EX_BCIR
 70
64
 10
0
 20
0
 30
0
  3
_EX_BCIR
  0
LINE
  8
0
  6
ByBlock
 62
0
 10
0
 20
0
 30
0
 11
-1
 21
0
 31
0
  0
CIRCLE
  8
0
  6
ByBlock
 62
0
 10
0
 20
0
 30
0
 40
0.5
  0
CIRCLE
  8
0
  6
ByBlock
 62
0
 10
0
 20
0
 30
0
 40
0.25
  0
ENDBLK
  8
0
  0
BLOCK
  8
0
  2
_EX_RCIVIL
 70
64
 10
0
 20
0
 30
0
  3
_EX_RCIVIL
  0
LINE
  8
0
  6
ByBlock
 62
0
 10
0
 20
0
 30
0
 11
-1
 21
0
 31
0
  0
LINE
  8
0
  6
ByBlock
 62
0
 10
-1
 20
-0.25
 30
0
 11
0
 21
-0.25
 31
0
  0
LINE
  8
0
  6
ByBlock
 62
0
 10
-1
 20
-0.125
 30
0
 11
0
 21
-0.125
 31
0
  0
ENDBLK
  8
0
  0
BLOCK
  8
0
  2
_EX_SLANT
 70
64
 10
0
 20
0
 30
0
  3
_EX_SLANT
  0
LINE
  8
0
  6
ByBlock
 62
0
 10
0
 20
0
 30
0
 11
-1
 21
0
 31
0
  0
LINE
  8
0
  6
ByBlock
 62
0
 10
0.707106781
 20
0.707106781
 30
0
 11
-0.707106781
 21
-0.707106781
 31
0
  0
ENDBLK
  8
0
  0
BLOCK
  8
0
  2
_EX_NONE
 70
64
 10
0
 20
0
 30
0
  3
_EX_NONE
  0
LINE
  8
0
  6
ByBlock
 62
0
 10
0
 20
0
 30
0
 11
-1
 21
0
 31
0
  0
ENDBLK
  8
0
  0
BLOCK
  8
0
  2
_EX_WCIR
 70
64
 10
0
 20
0
 30
0
  3
_EX_WCIR
  0
LINE
  8
0
  6
ByBlock
 62
0
 10
0
 20
0
 30
0
 11
-1
 21
0
 31
0
  0
ENDBLK
  8
0
  0
BLOCK
  8
0
  2
_EX_CIVIL
 70
64
 10
0
 20
0
 30
0
  3
_EX_CIVIL
  0
LINE
  8
0
  6
ByBlock
 62
0
 10
0
 20
0
 30
0
 11
-1
 21
0
 31
0
  0
LINE
  8
0
  6
ByBlock
 62
0
 10
-1
 20
0.25
 30
0
 11
0
 21
0.25
 31
0
  0
LINE
  8
0
  6
ByBlock
 62
0
 10
-1
 20
0.125
 30
0
 11
0
 21
0.125
 31
0
  0
ENDBLK
  8
0
  0
BLOCK
  8
0
  2
SPECSET00Y97
 70
64
 10
0
 20
0
 30
0
  3
SPECSET00Y97
  0
TEXT
  8
SPEC
 10
0
 20
0
 30
0
 40
1.5
  1
蓄電池内蔵形 32形×2
  7
STANDARD
  0
TEXT
  8
SPEC
 10
0
 20
-3
 30
0
 40
1.5
  1
100V~254V共用ﾀｲﾌﾟ eHf
  7
STANDARD
  0
TEXT
  8
SPEC
 10
0
 20
-6
 30
0
 40
1.5
  1
本体:鋼板･白色仕上
  7
STANDARD
  0
TEXT
  8
SPEC
 10
0
 20
-9
 30
0
 40
1.5
  1
反射板:鋼板･白色仕上
  7
STANDARD
  0
TEXT
  8
SPEC
 10
0
 20
-12
 30
0
 40
1.5
  1
二種ﾋﾞﾆﾙ絶縁電線 ﾆｶﾄﾞ蓄電池
  7
STANDARD
  0
ENDBLK
  8
0
  0
BLOCK
  8
0
  2
*MODEL_SPACE
 70
64
 10
0
 20
0
 30
0
  3
*MODEL_SPACE
  0
ENDBLK
  8
0
  0
BLOCK
  8
0
 67
1
  2
*PAPER_SPACE
 70
64
 10
0
 20
0
 30
0
  3
*PAPER_SPACE
  0
ENDBLK
  8
0
  0
ENDSEC
  0
SECTION
  2
ENTITIES
  0
LINE
  8
LAY-1
  6
CONTINUOUS
 62
7
 10
86.6467626345229
 20
37.9523498688888
 30
0
 11
28.1425275105064
 21
61.1829589464311
 31
0
  0
LINE
  8
LAY-1
  6
CONTINUOUS
 62
7
 10
14.7210536739104
 20
53.2467355328941
 30
0
 11
74.5728347505825
 21
32.0404070640258
 31
0
  0
LINE
  8
LAY-1
  6
CONTINUOUS
 62
7
 10
85.4795750547703
 20
37.8333844694649
 30
0
 11
74.4616028157326
 21
32.4553530724493
 31
0
  0
LINE
  8
LAY-1
  6
CONTINUOUS
 62
7
 10
86.6467626345229
 20
37.9523498688888
 30
0
 11
74.5728347505825
 21
32.0404070640258
 31
0
  0
LINE
  8
LAY-1
  6
CONTINUOUS
 62
7
 10
85.1527493325859
 20
37.962187188419
 30
0
 11
74.3936215597079
 21
32.6539431891829
 31
0
  0
LINE
  8
LAY-1
  6
CONTINUOUS
 62
7
 10
34.6856044279214
 20
46.8066520896386
 30
0
 11
35.2156044279214
 21
48.8366520896386
 31
0
  0
LINE
  8
LAY-1
  6
CONTINUOUS
 62
7
 10
39.2966341135605
 20
45.1631915094836
 30
0
 11
39.8266341135605
 21
47.1931915094836
 31
0
  0
LINE
  8
LAY-1
  6
CONTINUOUS
 62
7
 10
43.8358645802793
 20
43.5453215661335
 30
0
 11
44.3658645802793
 21
45.5753215661335
 31
0
  0
LINE
  8
LAY-1
  6
CONTINUOUS
 62
7
 10
48.3832314334674
 20
41.9245516565417
 30
0
 11
48.9132314334674
 21
43.9545516565417
 31
0
  0
LINE
  8
LAY-1
  6
CONTINUOUS
 62
7
 10
52.615423187142
 20
40.4161162768079
 30
0
 11
53.145423187142
 21
42.4461162768078
 31
0
  0
LINE
  8
LAY-1
  6
CONTINUOUS
 62
7
 10
57.0269843483189
 20
38.8437501547858
 30
0
 11
57.5569843483189
 21
40.8737501547858
 31
0
  0
LINE
  8
LAY-1
  6
CONTINUOUS
 62
7
 10
61.420182219824
 20
37.2779290660329
 30
0
 11
61.950182219824
 21
39.3079290660329
 31
0
  0
LINE
  8
LAY-1
  6
CONTINUOUS
 62
7
 10
65.9265039977121
 20
35.6717884188541
 30
0
 11
66.4565039977121
 21
37.7017884188541
 31
0
  0
LINE
  8
LAY-1
  6
CONTINUOUS
 62
7
 10
70.4722127660332
 20
34.0516094829284
 30
0
 11
71.0022127660332
 21
36.0816094829283
 31
0
  0
LINE
  8
LAY-1
  6
CONTINUOUS
 62
7
 10
75.3825936940638
 20
36.4665486341556
 30
0
 11
75.9125936940638
 21
38.4965486341556
 31
0
  0
LINE
  8
LAY-1
  6
CONTINUOUS
 62
7
 10
70.9325114588779
 20
38.166023033459
 30
0
 11
71.4625114588779
 21
40.196023033459
 31
0
  0
LINE
  8
LAY-1
  6
CONTINUOUS
 62
7
 10
66.5024334964769
 20
39.8578578549573
 30
0
 11
67.0324334964769
 21
41.8878578549573
 31
0
  0
LINE
  8
LAY-1
  6
CONTINUOUS
 62
7
 10
62.1304569017375
 20
41.5275039209031
 30
0
 11
62.6604569017375
 21
43.5575039209031
 31
0
  0
LINE
  8
LAY-1
  6
CONTINUOUS
 62
7
 10
57.7471470538357
 20
43.2014781256544
 30
0
 11
58.2771470538357
 21
45.2314781256544
 31
0
  0
LINE
  8
LAY-1
  6
CONTINUOUS
 62
7
 10
53.4547571031361
 20
44.840730266966
 30
0
 11
53.9847571031361
 21
46.870730266966
 31
0
  0
LINE
  8
LAY-1
  6
CONTINUOUS
 62
7
 10
48.998133253814
 20
46.5427028910587
 30
0
 11
49.528133253814
 21
48.5727028910587
 31
0
  0
LINE
  8
LAY-1
  6
CONTINUOUS
 62
7
 10
44.5451570620172
 20
48.2432824845839
 30
0
 11
45.0751570620172
 21
50.2732824845838
 31
0
  0
LINE
  8
LAY-1
  6
CONTINUOUS
 62
7
 10
40.0553966950029
 20
49.957909855381
 30
0
 11
40.5853966950029
 21
51.9879098553809
 31
0
  0
LINE
  8
LAY-1
  6
CONTINUOUS
 62
7
 10
45.074541225399
 20
52.555643437
 30
0
 11
45.838767114815
 21
53.351875588342
 31
0
  0
LINE
  8
LAY-1
  6
CONTINUOUS
 62
7
 10
49.5203351421
 20
50.815214394353
 30
0
 11
50.284561031517
 21
51.611446545695
 31
0
  0
LINE
  8
LAY-1
  6
CONTINUOUS
 62
7
 10
53.929705096487
 20
49.089044519596
 30
0
 11
54.730354948219
 21
49.871017503048
 31
0
  0
LINE
  8
LAY-1
  6
CONTINUOUS
 62
7
 10
58.36344922195
 20
47.353332701144
 30
0
 11
59.176148864921
 21
48.130588460401
 31
0
  0
LINE
  8
LAY-1
  6
CONTINUOUS
 62
7
 10
62.774884153051
 20
45.626354434114
 30
0
 11
63.621942781623
 21
46.390159417753
 31
0
  0
LINE
  8
LAY-1
  6
CONTINUOUS
 62
7
 10
67.201695132388
 20
43.893356787551
 30
0
 11
68.067736698325
 21
44.649730375106
 31
0
  0
LINE
  8
LAY-1
  6
CONTINUOUS
 62
7
 10
71.626214524747
 20
42.161256246119
 30
0
 11
72.513530615027
 21
42.909301332459
 31
0
  0
LINE
  8
LAY-1
  6
CONTINUOUS
 62
7
 10
76.060715929107
 20
40.425247969889
 30
0
 11
76.959324531729
 21
41.168872289812
 31
0
  0
LINE
  8
LAY-1
  6
CONTINUOUS
 62
7
 10
67.153894681908
 20
35.987439590017
 30
0
 11
65.926503997712
 21
35.671788418854
 31
0
  0
LINE
  8
LAY-1
  6
CONTINUOUS
 62
7
 10
62.638510379077
 20
37.598782765465
 30
0
 11
61.420182219824
 21
37.277929066033
 31
0
  0
LINE
  8
LAY-1
  6
CONTINUOUS
 62
7
 10
58.226102310594
 20
39.173378226583
 30
0
 11
57.026984348319
 21
38.843750154786
 31
0
  0
LINE
  8
LAY-1
  6
CONTINUOUS
 62
7
 10
53.797590267481
 20
40.753720491933
 30
0
 11
52.615423187142
 21
40.416116276808
 31
0
  0
LINE
  8
LAY-1
  6
CONTINUOUS
 62
7
 10
49.532818918843
 20
42.275630864692
 30
0
 11
48.383231433467
 21
41.924551656542
 31
0
  0
LINE
  8
LAY-1
  6
CONTINUOUS
 62
7
 10
45.047197551533
 20
43.876352950148
 30
0
 11
43.835864580279
 21
43.545321566134
 31
0
  0
LINE
  8
LAY-1
  6
CONTINUOUS
 62
7
 10
40.476062506878
 20
45.507591127071
 30
0
 11
39.296634113561
 21
45.163191509484
 31
0
  0
LINE
  8
LAY-1
  6
CONTINUOUS
 62
7
 10
71.468950776617
 20
34.2470937426761
 30
0
 11
70.472212766033
 21
34.051609482928
 31
0
  0
LINE
  8
LAY-1
  6
CONTINUOUS
 62
7
 10
71.4689507766169
 20
34.2470937426761
 30
0
 11
80.4986167873429
 21
38.6879088833771
 31
0
  0
LINE
  8
LAY-1
  6
CONTINUOUS
 62
7
 10
67.1538946819081
 20
35.9874395900168
 30
0
 11
76.0607159291071
 21
40.4252479698887
 31
0
  0
LINE
  8
LAY-1
  6
CONTINUOUS
 62
7
 10
62.6385103790771
 20
37.5987827654647
 30
0
 11
71.6262145247471
 21
42.1612562461188
 31
0
  0
LINE
  8
LAY-1
  6
CONTINUOUS
 62
7
 10
58.2261023105941
 20
39.1733782265828
 30
0
 11
67.201695132388
 21
43.893356787551
 31
0
  0
LINE
  8
LAY-1
  6
CONTINUOUS
 62
7
 10
53.797590267481
 20
40.7537204919331
 30
0
 11
62.7748841530511
 21
45.6263544341138
 31
0
  0
LINE
  8
LAY-1
  6
CONTINUOUS
 62
7
 10
49.5328189188428
 20
42.2756308646923
 30
0
 11
58.3634492219502
 21
47.3533327011436
 31
0
  0
LINE
  8
LAY-1
  6
CONTINUOUS
 62
7
 10
45.047197551533
 20
43.876352950148
 30
0
 11
53.9297050964872
 21
49.0890445195957
 31
0
  0
LINE
  8
LAY-1
  6
CONTINUOUS
 62
7
 10
40.4760625068782
 20
45.5075911270707
 30
0
 11
49.5203351421001
 21
50.8152143943528
 31
0
  0
LINE
  8
LAY-1
  6
CONTINUOUS
 62
7
 10
35.9246021768828
 20
51.5354491369746
 30
0
 11
40.055396695003
 21
49.957909855381
 31
0
  0
LINE
  8
LAY-1
  6
CONTINUOUS
 62
7
 10
35.7129660053115
 20
47.061811432971
 30
0
 11
45.0745412253989
 21
52.5556434370002
 31
0
  0
LINE
  8
LAY-1
  6
CONTINUOUS
 62
7
 10
35.712966005311
 20
47.0618114329709
 30
0
 11
34.685604427921
 21
46.806652089639
 31
0
  0
LINE
  8
LAY-1
  6
CONTINUOUS
 62
7
 10
40.4143625438968
 20
49.8208217661777
 30
0
 11
44.545157062017
 21
48.243282484584
 31
0
  0
LINE
  8
LAY-1
  6
CONTINUOUS
 62
7
 10
44.9041229109108
 20
48.1061943953807
 30
0
 11
48.9981332538139
 21
46.5427028910588
 31
0
  0
LINE
  8
LAY-1
  6
CONTINUOUS
 62
7
 10
49.3570991027078
 20
46.4056148018554
 30
0
 11
53.454757103136
 21
44.840730266966
 31
0
  0
LINE
  8
LAY-1
  6
CONTINUOUS
 62
7
 10
53.7786601547351
 20
44.7170325654502
 30
0
 11
57.7471470538361
 21
43.2014781256543
 31
0
  0
LINE
  8
LAY-1
  6
CONTINUOUS
 62
7
 10
58.0759607637009
 20
43.0759050569957
 30
0
 11
62.130456901738
 21
41.5275039209029
 31
0
  0
LINE
  8
LAY-1
  6
CONTINUOUS
 62
7
 10
62.4619851486999
 20
41.4008941778508
 30
0
 11
66.5024334964771
 21
39.8578578549573
 31
0
  0
LINE
  8
LAY-1
  6
CONTINUOUS
 62
7
 10
66.8370052070359
 20
39.7300858213688
 30
0
 11
70.932511458878
 21
38.166023033459
 31
0
  0
LINE
  8
LAY-1
  6
CONTINUOUS
 62
7
 10
75.719911146977
 20
36.33772800897
 30
0
 11
79.1810566471324
 21
35.0159258806252
 31
0
  0
LINE
  8
LAY-1
  6
CONTINUOUS
 62
7
 10
71.2686991686118
 20
38.0376338541455
 30
0
 11
75.3825936940639
 21
36.4665486341556
 31
0
  0
ARC
  8
LAY-1
  6
CONTINUOUS
 62
7
 10
41.9081160360231
 20
53.1657418045595
 30
0
 40
0.9106105815073
 50
232.762386352941
 51
8.05062043855474
  0
ARC
  8
LAY-1
  6
CONTINUOUS
 62
7
 10
50.7125491200411
 20
49.6654341095635
 30
0
 40
0.9106105815073
 50
232.762386352941
 51
8.05062043855474
  0
ARC
  8
LAY-1
  6
CONTINUOUS
 62
7
 10
55.1010542915331
 20
47.9207313814365
 30
0
 40
0.9106105815073
 50
232.762386352941
 51
8.05062043855474
  0
ARC
  8
LAY-1
  6
CONTINUOUS
 62
7
 10
36.6875039317811
 20
50.1020302833005
 30
0
 40
0.9106105815073
 50
232.762386352941
 51
8.05062043855474
  0
ARC
  8
LAY-1
  6
CONTINUOUS
 62
7
 10
41.2405189374661
 20
48.4245238403565
 30
0
 40
0.9106105815073
 50
232.762386352941
 51
8.05062043855474
  0
ARC
  8
LAY-1
  6
CONTINUOUS
 62
7
 10
45.7279157972221
 20
46.7711936547785
 30
0
 40
0.9106105815073
 50
232.762386352941
 51
8.05062043855474
  0
ARC
  8
LAY-1
  6
CONTINUOUS
 62
7
 10
50.2221842513371
 20
45.1153317086415
 30
0
 40
0.9106105815073
 50
232.762386352941
 51
8.05062043855474
  0
ARC
  8
LAY-1
  6
CONTINUOUS
 62
7
 10
76.6680028149814
 20
39.2993312171068
 30
0
 40
0.865080052431935
 50
232.762386352941
 51
359.613792032295
  0
ARC
  8
LAY-1
  6
CONTINUOUS
 62
7
 10
72.0483006485624
 20
37.0273486983968
 30
0
 40
0.865080052431935
 50
232.762386352941
 51
359.613792032229
  0
ARC
  8
LAY-1
  6
CONTINUOUS
 62
7
 10
67.9650109880501
 20
42.8065115125115
 30
0
 40
0.9106105815073
 50
232.762386352941
 51
1.06550446163624
  0
ARC
  8
LAY-1
  6
CONTINUOUS
 62
7
 10
63.1110136040104
 20
40.3201901629998
 30
0
 40
0.865080052431935
 50
232.76238635294004
 51
1.06550446169571
  0
ARC
  8
LAY-1
  6
CONTINUOUS
 62
7
 10
58.9003071514791
 20
42.0153584975685
 30
0
 40
0.9106105815073
 50
232.762386352941
 51
2.71452047082409
  0
ARC
  8
LAY-1
  6
CONTINUOUS
 62
7
 10
59.3413177918531
 20
46.2349639030145
 30
0
 40
0.9106105815073
 50
232.762386352941
 51
4.22145516421342
  0
ARC
  8
LAY-1
  6
CONTINUOUS
 62
7
 10
46.3264320906311
 20
51.4091874032385
 30
0
 40
0.9106105815073
 50
232.762386352941
 51
320.502621933532
  0
ARC
  8
LAY-1
  6
CONTINUOUS
 62
7
 10
46.3264320906311
 20
51.4091874032385
 30
0
 40
0.9106105815073
 50
321.786361402203
 51
8.05062043855474
  0
ARC
  8
LAY-1
  6
CONTINUOUS
 62
7
 10
63.6596650200411
 20
44.5181533045075
 30
0
 40
0.9106105815073
 50
232.762386352941
 51
303.956137578161
  0
ARC
  8
LAY-1
  6
CONTINUOUS
 62
7
 10
63.6596650200411
 20
44.5181533045075
 30
0
 40
0.9106105815073
 50
303.956137578161
 51
2.71452047082409
  0
ARC
  8
LAY-1
  6
CONTINUOUS
 62
7
 10
72.2940685457324
 20
41.0382411087438
 30
0
 40
0.865080052431935
 50
232.762386352941
 51
311.038553112812
  0
ARC
  8
LAY-1
  6
CONTINUOUS
 62
7
 10
72.2940685457324
 20
41.0382411087438
 30
0
 40
0.865080052431935
 50
311.038553112812
 51
0.207017782429784
  0
ARC
  8
LAY-1
  6
CONTINUOUS
 62
7
 10
54.4253659990611
 20
43.5667173390715
 30
0
 40
0.9106105815073
 50
232.762386352941
 51
314.884262214675
  0
ARC
  8
LAY-1
  6
CONTINUOUS
 62
7
 10
54.4253659990611
 20
43.5667173390715
 30
0
 40
0.9106105815073
 50
314.884262214675
 51
4.22145516421342
  0
LINE
  8
LAY-1
  6
CONTINUOUS
 62
7
 10
35.2156044279214
 20
48.8366520896386
 30
0
 11
36.1364735337469
 21
49.3770632967451
 31
0
  0
LINE
  8
LAY-1
  6
CONTINUOUS
 62
7
 10
37.58914019447
 20
50.229559420981
 30
0
 11
38.2809694861816
 21
50.6355588190283
 31
0
  0
LINE
  8
LAY-1
  6
CONTINUOUS
 62
7
 10
40.585396695003
 20
51.9879098553809
 30
0
 11
41.3570856379893
 21
52.4407748180035
 31
0
  0
LINE
  8
LAY-1
  6
CONTINUOUS
 62
7
 10
42.8097522987124
 20
53.2932709422394
 30
0
 11
44.0817161709454
 21
54.0397217974596
 31
0
  0
LINE
  8
LAY-1
  6
CONTINUOUS
 62
7
 10
45.0751570620172
 20
50.2732824845838
 30
0
 11
45.7754016925972
 21
50.6842204166826
 31
0
  0
LINE
  8
LAY-1
  6
CONTINUOUS
 62
7
 10
42.1421552001552
 20
48.5520529780367
 30
0
 11
42.7707298531959
 21
48.9209314482312
 31
0
  0
LINE
  8
LAY-1
  6
CONTINUOUS
 62
7
 10
39.8266341135605
 20
47.1931915094836
 30
0
 11
40.6894885394321
 21
47.6995568538009
 31
0
  0
LINE
  8
LAY-1
  6
CONTINUOUS
 62
7
 10
44.3658645802793
 20
45.5753215661335
 30
0
 11
45.1768853991882
 21
46.0462266682227
 31
0
  0
LINE
  8
LAY-1
  6
CONTINUOUS
 62
7
 10
46.6334734542648
 20
46.8919691335032
 30
0
 11
47.2088228241796
 21
47.2260357165796
 31
0
  0
LINE
  8
LAY-1
  6
CONTINUOUS
 62
7
 10
49.528133253814
 20
48.5727028910587
 30
0
 11
50.1615187220068
 21
48.9404671230083
 31
0
  0
LINE
  8
LAY-1
  6
CONTINUOUS
 62
7
 10
51.6181067770834
 20
49.7862095882888
 30
0
 11
52.9586785802542
 21
50.5645892391089
 31
0
  0
LINE
  8
LAY-1
  6
CONTINUOUS
 62
7
 10
56.0274501342806
 20
48.0452994426112
 30
0
 11
57.3910827289491
 21
48.8294019916395
 31
0
  0
LINE
  8
LAY-1
  6
CONTINUOUS
 62
7
 10
53.9847571031361
 20
46.870730266966
 30
0
 11
54.550023893499
 21
47.195764394881
 31
0
  0
LINE
  8
LAY-1
  6
CONTINUOUS
 62
7
 10
51.1312523501147
 20
45.2299361415862
 30
0
 11
51.6518192383745
 21
45.5292673731952
 31
0
  0
LINE
  8
LAY-1
  6
CONTINUOUS
 62
7
 10
48.9132314334674
 20
43.9545516565417
 30
0
 11
49.6711538533029
 21
44.3903647220861
 31
0
  0
LINE
  8
LAY-1
  6
CONTINUOUS
 62
7
 10
55.3335060779322
 20
43.6337488861297
 30
0
 11
55.8628754584875
 21
43.9210763641564
 31
0
  0
LINE
  8
LAY-1
  6
CONTINUOUS
 62
7
 10
53.145423187142
 20
42.4461162768078
 30
0
 11
53.8743356010273
 21
42.8417503525155
 31
0
  0
LINE
  8
LAY-1
  6
CONTINUOUS
 62
7
 10
60.249457870724
 20
46.301995450073
 30
0
 11
61.7569936366441
 21
47.12024536321
 31
0
  0
LINE
  8
LAY-1
  6
CONTINUOUS
 62
7
 10
58.2771470538357
 20
45.2314781256544
 30
0
 11
58.7902873938191
 21
45.5099969164588
 31
0
  0
LINE
  8
LAY-1
  6
CONTINUOUS
 62
7
 10
64.5692538096908
 20
44.5612794554734
 30
0
 11
66.1586531259176
 21
45.3970939633678
 31
0
  0
LINE
  8
LAY-1
  6
CONTINUOUS
 62
7
 10
62.6604569017375
 20
43.5575039209031
 30
0
 11
63.108634622007
 21
43.793186317952
 31
0
  0
LINE
  8
LAY-1
  6
CONTINUOUS
 62
7
 10
59.8098959411289
 20
42.0584846485342
 30
0
 11
60.2012252588738
 21
42.2642722802491
 31
0
  0
LINE
  8
LAY-1
  6
CONTINUOUS
 62
7
 10
57.5569843483189
 20
40.8737501547858
 30
0
 11
58.3492767534451
 21
41.2903915110128
 31
0
  0
LINE
  8
LAY-1
  6
CONTINUOUS
 62
7
 10
63.9759440745351
 20
40.3362767497617
 30
0
 11
64.522793897115
 21
40.6138768768891
 31
0
  0
LINE
  8
LAY-1
  6
CONTINUOUS
 62
7
 10
61.950182219824
 20
39.3079290660329
 30
0
 11
62.5875347258779
 21
39.6314715257722
 31
0
  0
LINE
  8
LAY-1
  6
CONTINUOUS
 62
7
 10
68.875464114918
 20
42.823444761734
 30
0
 11
70.5549847843476
 21
43.6760282903289
 31
0
  0
LINE
  8
LAY-1
  6
CONTINUOUS
 62
7
 10
67.0324334964769
 20
41.8878578549573
 30
0
 11
67.4139805900161
 21
42.0815445259557
 31
0
  0
LINE
  8
LAY-1
  6
CONTINUOUS
 62
7
 10
73.1591429514492
 20
41.0413667589386
 30
0
 11
74.974524146401
 21
41.9458773195555
 31
0
  0
LINE
  8
LAY-1
  6
CONTINUOUS
 62
7
 10
71.4625114588779
 20
40.196023033459
 30
0
 11
71.7705896675998
 21
40.3495224715163
 31
0
  0
LINE
  8
LAY-1
  6
CONTINUOUS
 62
7
 10
68.6200025542534
 20
38.7797478566365
 30
0
 11
68.9261065595563
 21
38.932263651233
 31
0
  0
LINE
  8
LAY-1
  6
CONTINUOUS
 62
7
 10
66.4565039977121
 20
37.7017884188541
 30
0
 11
67.132476526874
 21
38.0385905698371
 31
0
  0
LINE
  8
LAY-1
  6
CONTINUOUS
 62
7
 10
71.0022127660332
 20
36.0816094829283
 30
0
 11
71.5248217704302
 21
36.3386300611685
 31
0
  0
LINE
  8
LAY-1
  6
CONTINUOUS
 62
7
 10
72.9133610483109
 20
37.0215175834032
 30
0
 11
73.3574772040784
 21
37.2399351579203
 31
0
  0
ARC
  8
LAY-1
  6
CONTINUOUS
 62
7
 10
67.7955130759024
 20
38.5942397683148
 30
0
 40
0.865080052431935
 50
219.964254868123
 51
12.6802482733391
  0
LINE
  8
LAY-1
  6
CONTINUOUS
 62
7
 10
77.5330632147301
 20
39.2935001021137
 30
0
 11
79.4019670771951
 21
40.212632278109
 31
0
  0
LINE
  8
LAY-1
  6
CONTINUOUS
 62
7
 10
75.9125936940639
 20
38.4965486341556
 30
0
 11
76.1445239368491
 21
38.6106125798789
 31
0
  0
LINE
  8
LAY-1
  6
CONTINUOUS
 62
7
 10
47.2280683533203
 20
51.5367165409186
 30
0
 11
48.5275100876474
 21
52.2992927548124
 31
0
  0
ARC
  8
LAY-1
  6
CONTINUOUS
 62
7
 10
75.9178092443753
 20
35.5723231295008
 30
0
 40
0.662248913282202
 50
249.912309293279
 51
301.047187370599
  0
ARC
  8
LAY-1
  6
CONTINUOUS
 62
7
 10
75.750750209516
 20
35.800097041258
 30
0
 40
0.94390092497778
 50
302.6045820441
 51
355.089670745055
  0
ARC
  8
LAY-1
  6
CONTINUOUS
 62
7
 10
75.4389102707993
 20
35.728137607084
 30
0
 40
0.662248913282202
 50
249.91230929328197
 51
301.047187370599
  0
ARC
  8
LAY-1
  6
CONTINUOUS
 62
7
 10
75.27185123594
 20
35.9559115188412
 30
0
 40
0.94390092497778
 50
302.604582044098
 51
355.089670745056
  0
ARC
  8
LAY-1
  6
CONTINUOUS
 62
7
 10
75.9910488617018
 20
35.5426157127785
 30
0
 40
0.728473804610423
 50
249.912309293281
 51
301.047187370601
  0
ARC
  8
LAY-1
  6
CONTINUOUS
 62
7
 10
75.8072839233565
 20
35.7931670157114
 30
0
 40
1.03829101747556
 50
302.6045820441
 51
355.089670745055
  0
ARC
  8
LAY-1
  6
CONTINUOUS
 62
7
 10
75.6588508391148
 20
35.8492606116494
 30
0
 40
1.19176334465548
 50
353.01316025388
 51
2.00969326576112
  0
ARC
  8
LAY-1
  6
CONTINUOUS
 62
7
 10
75.901708444594
 20
35.1025807480779
 30
0
 40
0.292356881667634
 50
207.931987276103
 51
236.61810703046498
  0
ARC
  8
LAY-1
  6
CONTINUOUS
 62
7
 10
76.7311677215054
 20
35.3006010389105
 30
0
 40
0.728473804610423
 50
249.91230929327998
 51
301.047187370598
  0
ARC
  8
LAY-1
  6
CONTINUOUS
 62
7
 10
76.5474027831601
 20
35.5511523418434
 30
0
 40
1.03829101747556
 50
302.604582044098
 51
355.089670745055
  0
ARC
  8
LAY-1
  6
CONTINUOUS
 62
7
 10
76.3989696989184
 20
35.6072459377814
 30
0
 40
1.19176334465548
 50
353.013160253881
 51
2.00969326576043
  0
LINE
  8
LAY-1
  6
CONTINUOUS
 62
7
 10
75.7299229097488
 20
34.8618592591262
 30
0
 11
76.4809174499883
 21
34.6162882993742
 31
0
  0
ARC
  8
LAY-1
  6
CONTINUOUS
 62
7
 10
80.4278092443754
 20
37.7223231295008
 30
0
 40
0.662248913282202
 50
249.912309293279
 51
301.047187370599
  0
ARC
  8
LAY-1
  6
CONTINUOUS
 62
7
 10
80.260750209516
 20
37.950097041258
 30
0
 40
0.94390092497778
 50
302.6045820441
 51
355.089670745055
  0
ARC
  8
LAY-1
  6
CONTINUOUS
 62
7
 10
80.1258110420236
 20
38.0010912193835
 30
0
 40
1.08342122241407
 50
353.013160253881
 51
30.2017424011843
  0
ARC
  8
LAY-1
  6
CONTINUOUS
 62
7
 10
79.78185123594
 20
38.1059115188412
 30
0
 40
0.94390092497778
 50
302.604582044098
 51
355.089670745056
  0
ARC
  8
LAY-1
  6
CONTINUOUS
 62
7
 10
79.6469120684475
 20
38.1569056969667
 30
0
 40
1.08342122241407
 50
353.013160253881
 51
30.2017424011836
  0
ARC
  8
LAY-1
  6
CONTINUOUS
 62
7
 10
80.5010488617018
 20
37.6926157127785
 30
0
 40
0.728473804610423
 50
249.912309293281
 51
301.047187370601
  0
ARC
  8
LAY-1
  6
CONTINUOUS
 62
7
 10
80.3172839233565
 20
37.9431670157114
 30
0
 40
1.03829101747556
 50
302.6045820441
 51
355.089670745055
  0
ARC
  8
LAY-1
  6
CONTINUOUS
 62
7
 10
80.1688508391148
 20
37.9992606116494
 30
0
 40
1.19176334465548
 50
353.01316025388
 51
2.00969326576112
  0
ARC
  8
LAY-1
  6
CONTINUOUS
 62
7
 10
80.411708444594
 20
37.2525807480779
 30
0
 40
0.292356881667634
 50
207.931987276103
 51
236.61810703046498
  0
ARC
  8
LAY-1
  6
CONTINUOUS
 62
7
 10
81.2411677215054
 20
37.4506010389104
 30
0
 40
0.728473804610423
 50
249.91230929327998
 51
301.047187370598
  0
ARC
  8
LAY-1
  6
CONTINUOUS
 62
7
 10
81.0574027831601
 20
37.7011523418434
 30
0
 40
1.03829101747556
 50
302.604582044098
 51
355.089670745055
  0
ARC
  8
LAY-1
  6
CONTINUOUS
 62
7
 10
80.9089696989184
 20
37.7572459377814
 30
0
 40
1.19176334465548
 50
353.013160253881
 51
2.00969326576043
  0
LINE
  8
LAY-1
  6
CONTINUOUS
 62
7
 10
82.1
 20
37.7990393770906
 30
0
 11
82.1
 21
39.1645324747073
 31
0
  0
ARC
  8
LAY-1
  6
CONTINUOUS
 62
7
 10
75.6158110420236
 20
35.8510912193835
 30
0
 40
1.08342122241407
 50
353.013160253881
 51
5.53341252163152
  0
ARC
  8
LAY-1
  6
CONTINUOUS
 62
7
 10
75.1369120684475
 20
36.0069056969667
 30
0
 40
1.08342122241407
 50
353.013160253881
 51
7.07024624938762
  0
LINE
  8
LAY-1
  6
CONTINUOUS
 62
7
 10
80.2594617228597
 20
37.0054701779399
 30
0
 11
80.9909174499883
 21
36.7662882993742
 31
0
  0
ARC
  8
LAY-1
  6
CONTINUOUS
 62
7
 10
79.9489102707993
 20
37.878137607084
 30
0
 40
0.662248913282202
 50
265.836398613192
 51
301.047187370599
  0
LINE
  8
LAY-1
  6
CONTINUOUS
 62
7
 10
79.598587627865
 20
35.2219236501243
 30
0
 11
80.0928204599255
 21
37.1149286483938
 31
0
  0
LINE
  8
LAY-1
  6
CONTINUOUS
 62
7
 10
80.498616787343
 20
38.687908883377
 30
0
 11
81.405607245389
 21
39.4288425524944
 31
0
  0
LINE
  8
LAY-1
  6
CONTINUOUS
 62
7
 10
81.3598811401964
 20
38.0410540509586
 30
0
 11
81.3598811401964
 21
39.378
 31
0
  0
LINE
  8
LAY-1
  6
CONTINUOUS
 62
7
 10
81.388416701521
 20
39.3972161816956
 30
0
 11
82.1000000000001
 21
39.1645324747072
 31
0
  0
ARC
  8
LAY-1
  6
CONTINUOUS
 62
7
 10
80.3693657471097
 20
38.1542950777158
 30
0
 40
0.795919561544569
 50
29.489873406131604
 51
64.3048743461193
  0
LINE
  8
LAY-1
  6
CONTINUOUS
 62
7
 10
74.485490687047
 20
32.6992687726509
 30
0
 11
74.881198967867
 21
35.2473902779312
 31
0
  0
LINE
  8
LAY-1
  6
CONTINUOUS
 62
7
 10
74.0753016400305
 20
35.5343828446066
 30
0
 11
75.6866876861539
 21
34.940412110698
 31
0
  0
LINE
  8
LAY-1
  6
CONTINUOUS
 62
7
 10
69.6165978534382
 20
37.1778993481626
 30
0
 11
72.313033017451
 21
36.1839701918571
 31
0
  0
LINE
  8
LAY-1
  6
CONTINUOUS
 62
7
 10
65.1096982054421
 20
38.8391812600998
 30
0
 11
68.0934451987941
 21
37.7393464962934
 31
0
  0
LINE
  8
LAY-1
  6
CONTINUOUS
 62
7
 10
60.7005720998934
 20
40.4644230046892
 30
0
 11
63.3798811700939
 21
39.4768066736283
 31
0
  0
LINE
  8
LAY-1
  6
CONTINUOUS
 62
7
 10
56.2270557086703
 20
42.113399561511
 30
0
 11
58.9971664844286
 21
41.0923129420483
 31
0
  0
LINE
  8
LAY-1
  6
CONTINUOUS
 62
7
 10
51.9013406910365
 20
43.7078952628265
 30
0
 11
54.6811869429643
 21
42.6832200632473
 31
0
  0
LINE
  8
LAY-1
  6
CONTINUOUS
 62
7
 10
47.4922145854879
 20
45.3331370074159
 30
0
 11
50.4486184894149
 21
44.2433811411724
 31
0
  0
LINE
  8
LAY-1
  6
CONTINUOUS
 62
7
 10
43.0172850052799
 20
46.9826344778329
 30
0
 11
45.9778657374716
 21
45.8913389968237
 31
0
  0
LINE
  8
LAY-1
  6
CONTINUOUS
 62
7
 10
38.512248696367
 20
48.6432295469832
 30
0
 11
41.4983091789006
 21
47.5425420111981
 31
0
  0
LINE
  8
LAY-1
  6
CONTINUOUS
 62
7
 10
33.8723602794124
 20
50.3535322611608
 30
0
 11
36.9543309653101
 21
49.2174914008148
 31
0
  0
LINE
  8
LAY-1
  6
CONTINUOUS
 62
7
 10
39.1428214320571
 20
53.4240582144433
 30
0
 11
42.0535280591179
 21
52.2668163489778
 31
0
  0
LINE
  8
LAY-1
  6
CONTINUOUS
 62
7
 10
45.453284401085
 20
52.9502486155979
 30
0
 11
47.9404265847789
 21
51.9547633288057
 31
0
  0
LINE
  8
LAY-1
  6
CONTINUOUS
 62
7
 10
43.5610517123892
 20
51.6674534765654
 30
0
 11
46.4716931298419
 21
50.5102375372058
 31
0
  0
LINE
  8
LAY-1
  6
CONTINUOUS
 62
7
 10
47.97928199272
 20
49.9108487386879
 30
0
 11
50.8576602296419
 21
48.7664600292787
 31
0
  0
LINE
  8
LAY-1
  6
CONTINUOUS
 62
7
 10
49.8720268518399
 20
51.1816351745611
 30
0
 11
52.3282331188541
 21
50.1985320708583
 31
0
  0
LINE
  8
LAY-1
  6
CONTINUOUS
 62
7
 10
54.2699516202936
 20
49.4213540663406
 30
0
 11
56.717121848375
 21
48.4418676613
 31
0
  0
LINE
  8
LAY-1
  6
CONTINUOUS
 62
7
 10
52.3613141369608
 20
48.1686356946163
 30
0
 11
55.2460153439391
 21
47.0217330919843
 31
0
  0
LINE
  8
LAY-1
  6
CONTINUOUS
 62
7
 10
58.68010507578
 20
47.6561783935481
 30
0
 11
61.0193682016462
 21
46.7198820937214
 31
0
  0
LINE
  8
LAY-1
  6
CONTINUOUS
 62
7
 10
56.7481433061521
 20
46.4245154442152
 30
0
 11
59.4861338122341
 21
45.3359422395412
 31
0
  0
LINE
  8
LAY-1
  6
CONTINUOUS
 62
7
 10
61.075570137266
 20
44.704012439156
 30
0
 11
63.8043332934809
 21
43.6191078541478
 31
0
  0
LINE
  8
LAY-1
  6
CONTINUOUS
 62
7
 10
63.075105045879
 20
45.8970679436631
 30
0
 11
65.3658577052969
 21
44.9801880873037
 31
0
  0
LINE
  8
LAY-1
  6
CONTINUOUS
 62
7
 10
67.4780979079732
 20
44.1347583174574
 30
0
 11
69.703775821752
 21
43.2439248014521
 31
0
  0
LINE
  8
LAY-1
  6
CONTINUOUS
 62
7
 10
65.5173027061782
 20
42.9380636361543
 30
0
 11
68.109531914959
 21
41.9074423645379
 31
0
  0
LINE
  8
LAY-1
  6
CONTINUOUS
 62
7
 10
71.9689067319865
 20
42.3373001184805
 30
0
 11
74.071260122083
 21
41.4958275717159
 31
0
  0
LINE
  8
LAY-1
  6
CONTINUOUS
 62
7
 10
69.801257678627
 20
41.2348442193308
 30
0
 11
72.440301704901
 21
40.1856102623191
 31
0
  0
LINE
  8
LAY-1
  6
CONTINUOUS
 62
7
 10
74.1864238309189
 20
39.4913851529738
 30
0
 11
76.8140890663841
 21
38.4466751878272
 31
0
  0
LINE
  8
LAY-1
  6
CONTINUOUS
 62
7
 10
76.2841226719349
 20
40.6101234392728
 30
0
 11
78.4486246090761
 21
39.7437757709393
 31
0
  0
LINE
  8
LAY-1
  6
CONTINUOUS
 62
7
 10
78.5802863465511
 20
37.7444685771443
 30
0
 11
80.2003546009505
 21
37.1003601013973
 31
0
  0
LINE
  8
LAY-1
  6
CONTINUOUS
 62
7
 10
28.142527510506
 20
65.98
 30
0
 11
86.6467626345229
 21
41.5533381335324
 31
0
  0
LINE
  8
LAY-1
  6
CONTINUOUS
 62
7
 10
86.6467626345229
 20
41.553338133532
 30
0
 11
86.6467626345229
 21
37.952349868889
 31
0
  0
LINE
  8
LAY-1
  6
CONTINUOUS
 62
7
 10
28.1425275105064
 20
65.98
 30
0
 11
28.1425275105064
 21
61.182958946431
 31
0
  0
LINE
  8
LAY-1
  6
CONTINUOUS
 62
7
 10
26.055418274435
 20
66.535599358358
 30
0
 11
26.055418274435
 21
64.7661327674122
 31
0
  0
LINE
  8
LAY-1
  6
CONTINUOUS
 62
7
 10
26.055418274435
 20
66.535599358358
 30
0
 11
27.8154791245216
 21
65.8007395459301
 31
0
  0
LINE
  8
LAY-1
  6
CONTINUOUS
 62
7
 10
28.1425275105064
 20
61.1829589464311
 30
0
 11
14.7210536739104
 21
53.2467355328941
 31
0
  0
LINE
  8
LAY-1
  6
CONTINUOUS
 62
7
 10
14.7210536739104
 20
57.5599999999999
 30
0
 11
14.7210536739104
 21
53.246735532894
 31
0
  0
LINE
  8
LAY-1
  6
CONTINUOUS
 62
7
 10
28.142527510506
 20
65.98
 30
0
 11
14.7210536739104
 21
57.5599999999999
 31
0
  0
LINE
  8
LAY-1
  6
CONTINUOUS
 62
7
 10
30.2788506939797
 20
48.2222449534507
 30
0
 11
41.7484238362004
 21
54.9531536434838
 31
0
  0
LINE
  8
LAY-1
  6
CONTINUOUS
 62
7
 10
41.7484238362
 20
54.953153643484
 30
0
 11
85.4795750547703
 21
37.8333844694649
 31
0
  0
LINE
  8
LAY-1
  6
CONTINUOUS
 62
7
 10
30.4432363300012
 20
48.3187145162054
 30
0
 11
74.3936215597079
 21
32.6539431891829
 31
0
  0
LINE
  8
LAY-1
  6
CONTINUOUS
 62
7
 10
74.4616028157326
 20
32.4553530724493
 30
0
 11
30.2788506939799
 21
48.2222449534506
 31
0
  0
LINE
  8
LAY-1
  6
CONTINUOUS
 62
7
 10
41.2216040776726
 20
54.6439899416802
 30
0
 11
43.5341542463619
 21
53.7183855741487
 31
0
  0
LINE
  8
LAY-1
  6
CONTINUOUS
 62
7
 10
16.034287
 20
60.039470303461
 30
0
 11
26.0554182744345
 21
66.5355993583575
 31
0
  0
LINE
  8
LAY-1
  6
CONTINUOUS
 62
7
 10
16.034287
 20
58.3838606832823
 30
0
 11
16.034287
 21
60.039470303461
 31
0
  0
LINE
  8
LAY-1
  6
CONTINUOUS
 62
7
 10
38.637829878712
 20
41.95548789339
 30
0
 11
38.637829878712
 21
42.72548789339
 31
0
  0
LINE
  8
LAY-1
  6
CONTINUOUS
 62
7
 10
37.924109093652
 20
41.95548789339
 30
0
 11
37.924109093652
 21
42.72548789339
 31
0
  0
ARC
  8
LAY-1
  6
CONTINUOUS
 62
7
 10
38.280969486182
 20
42.72548789339
 30
0
 40
0.356860392529999
 50
0
 51
180
  0
ARC
  8
LAY-1
  6
CONTINUOUS
 62
7
 10
38.280969486182
 20
41.95548789339
 30
0
 40
0.356860392529999
 50
180
 51
0
  0
CIRCLE
  8
LAY-1
  6
CONTINUOUS
 62
7
 10
38.280969486182
 20
41.95548789339
 30
0
 40
0.268459144171452
  0
LINE
  8
LAY-1
  6
CONTINUOUS
 62
7
 10
38.280969486182
 20
54.8
 30
0
 11
38.280969486182
 21
43.08234828592
 31
0
  0
TEXT
  8
LAY-1
  6
CONTINUOUS
 62
7
 10
52
 20
83
 30
0
 40
4.5
  1
（ＥＧインバータ）
 41
0.92837039121868836
 72
5
 11
92.5
 21
83
 31
0
  7
EXCADSTD
  0
TEXT
  8
LAY-1
  6
CONTINUOUS
 62
7
 10
5
 20
6.00000000000001
 30
0
 40
4.5
  1
三菱　ＹＸＨ４０２２ＡＦ＋Ｌ４８６２Ａ
 41
0.84298629524326718
 72
5
 11
86
 21
6.00000000000001
 31
0
  7
EXCADSTD
  0
TEXT
  8
LAY-1
  6
CONTINUOUS
 62
7
 10
5
 20
90
 30
0
 40
4.5
  1
ＦＨＦ３２Ｗ×２　  直付下面ルーバー付
 41
0.820756106903969
 72
5
 11
90.5
 21
90
 31
0
  7
EXCADSTD
  0
TEXT
  8
LAY-1
  6
CONTINUOUS
 62
7
 10
5
 20
83
 30
0
 40
4.5
  1
（ＦＬ４０Ｗ×２）
 41
1.005640243902439
 72
5
 11
45.5
 21
83
 31
0
  7
EXCADSTD
  0
INSERT
  8
0
  2
SPECSET00Y97
 10
92.5
 20
21.000000000000011
 30
0
 41
1
 42
1
 43
1
 50
0
  0
ENDSEC
999
Created By CadLib version 4.0.36.7
999
CadLib website: www.woutware.com
  0
EOF
