  0
SECTION
  2
HEADER
  9
$ACADVER
  1
AC1009
  9
$DWGCODEPAGE
  3
dos932
  9
$INSBASE
 10
0
 20
0
 30
0
  9
$EXTMIN
 10
5.4607566071402065
 20
5.3517050957777332
 30
0
  9
$EXTMAX
 10
111.97674651161626
 20
95.618553754902791
 30
0
  9
$LIMMIN
 10
0
 20
0
  9
$LIMMAX
 10
297
 20
210
  9
$SNAPMODE
 70
0
  9
$SNAPUNIT
 10
1
 20
1
  9
$SNAPBASE
 10
0
 20
0
  9
$SNAPANG
 50
0
  9
$SNAPSTYLE
 70
0
  9
$SNAPISOPAIR
 70
0
  9
$ORTHOMODE
 70
0
  9
$REGENMODE
 70
1
  9
$FILLMODE
 70
1
  9
$QTEXTMODE
 70
0
  9
$MIRRTEXT
 70
1
  9
$LTSCALE
 40
1
  9
$OSMODE
 70
37
  9
$ATTMODE
 70
1
  9
$TEXTSIZE
 40
0.2
  9
$TRACEWID
 40
0.05
  9
$TEXTSTYLE
  7
STANDARD
  9
$CLAYER
  8
LAY-1
  9
$CELTYPE
  6
CONTINUOUS
  9
$CECOLOR
 62
256
  9
$DIMSCALE
 40
1
  9
$DIMASZ
 40
0.18
  9
$DIMEXO
 40
0.0625
  9
$DIMDLI
 40
0.38
  9
$DIMRND
 40
0
  9
$DIMDLE
 40
0
  9
$DIMEXE
 40
0.18
  9
$DIMTP
 40
0
  9
$DIMTM
 40
0
  9
$DIMTXT
 40
0.18
  9
$DIMCEN
 40
0.09
  9
$DIMTSZ
 40
0
  9
$DIMTOL
 70
0
  9
$DIMLIM
 70
0
  9
$DIMTIH
 70
1
  9
$DIMTOH
 70
1
  9
$DIMSE1
 70
0
  9
$DIMSE2
 70
0
  9
$DIMTAD
 70
0
  9
$DIMZIN
 70
0
  9
$DIMBLK
  1

  9
$DIMASO
 70
1
  9
$DIMSHO
 70
1
  9
$DIMPOST
  1

  9
$DIMAPOST
  1

  9
$DIMALT
 70
0
  9
$DIMALTD
 70
2
  9
$DIMALTF
 40
25.4
  9
$DIMLFAC
 40
1
  9
$DIMTOFL
 70
0
  9
$DIMTVP
 40
0
  9
$DIMTIX
 70
0
  9
$DIMSOXD
 70
0
  9
$DIMSAH
 70
0
  9
$DIMBLK1
  1

  9
$DIMBLK2
  1

  9
$DIMSTYLE
  2
STANDARD
  9
$DIMCLRD
 70
0
  9
$DIMCLRE
 70
0
  9
$DIMCLRT
 70
0
  9
$DIMTFAC
 40
1
  9
$DIMGAP
 40
0.09
  9
$LUNITS
 70
2
  9
$LUPREC
 70
4
  9
$SKETCHINC
 40
0.1
  9
$FILLETRAD
 40
0
  9
$AUNITS
 70
0
  9
$AUPREC
 70
0
  9
$MENU
  1
.
  9
$ELEVATION
 40
0
  9
$PELEVATION
 40
0
  9
$THICKNESS
 40
0
  9
$LIMCHECK
 70
0
  9
$CHAMFERA
 40
0
  9
$CHAMFERB
 40
0
  9
$SKPOLY
 70
0
  9
$TDCREATE
 40
2451711
  9
$TDUPDATE
 40
2454300.4854261228
  9
$TDINDWG
 40
0.00573949074074074
  9
$TDUSRTIMER
 40
0.00573949074074074
  9
$USRTIMER
 70
1
  9
$ANGBASE
 50
0
  9
$ANGDIR
 70
0
  9
$PDMODE
 70
0
  9
$PDSIZE
 40
0
  9
$PLINEWID
 40
0
  9
$SPLFRAME
 70
0
  9
$SPLINETYPE
 70
6
  9
$SPLINESEGS
 70
8
  9
$HANDLING
 70
1
  9
$HANDSEED
  5
7A8
  9
$SURFTAB1
 70
6
  9
$SURFTAB2
 70
6
  9
$SURFTYPE
 70
6
  9
$SURFU
 70
6
  9
$SURFV
 70
6
  9
$UCSORG
 10
0
 20
0
 30
0
  9
$UCSXDIR
 10
1
 20
0
 30
0
  9
$UCSYDIR
 10
0
 20
1
 30
0
  9
$PUCSORG
 10
0
 20
0
 30
0
  9
$PUCSXDIR
 10
1
 20
0
 30
0
  9
$PUCSYDIR
 10
0
 20
1
 30
0
  9
$USERI1
 70
0
  9
$USERI2
 70
0
  9
$USERI3
 70
0
  9
$USERI4
 70
0
  9
$USERI5
 70
0
  9
$USERR1
 40
0
  9
$USERR2
 40
0
  9
$USERR3
 40
0
  9
$USERR4
 40
0
  9
$USERR5
 40
0
  9
$WORLDVIEW
 70
1
  9
$SHADEDGE
 70
3
  9
$SHADEDIF
 70
70
  9
$TILEMODE
 70
1
  9
$MAXACTVP
 70
64
  9
$PINSBASE
 10
0
 20
0
 30
0
  9
$PLIMCHECK
 70
0
  9
$PEXTMIN
 10
1E+20
 20
1E+20
 30
1E+20
  9
$PEXTMAX
 10
-1E+20
 20
-1E+20
 30
-1E+20
  9
$PLIMMAX
 10
12
 20
9
  9
$PLIMMIN
 10
0
 20
0
  9
$UNITMODE
 70
0
  9
$VISRETAIN
 70
1
  9
$PLINEGEN
 70
0
  9
$PSLTSCALE
 70
1
  9
$TREEDEPTH
 70
3020
  9
$DRAGMODE
 70
     2
  9
$BLIPMODE
 70
     0
  9
$COORDS
 70
     0
  9
$ATTDIA
 70
     0
  9
$ATTREQ
 70
     1
  0
ENDSEC
  0
SECTION
  2
TABLES
  0
TABLE
  2
VPORT
  5
79C
 70
1
  0
VPORT
  5
770
  2
*ACTIVE
 70
0
 10
0
 20
0
 11
1
 21
1
 12
141.68360851701661
 22
123.5136562524257
 13
0
 23
0
 14
1
 24
1
 15
0
 25
0
 16
0
 26
0
 36
1
 17
0
 27
0
 37
0
 40
318.09827661197482
 41
1.7574074074074071
 42
50
 43
0
 44
0
 50
0
 51
0
 71
0
 72
100
 73
1
 74
1
 75
0
 76
0
 77
0
 78
0
  0
ENDTAB
  0
TABLE
  2
LTYPE
  5
79D
 70
7
  0
LTYPE
  5
768
  2
CONTINUOUS
  3
実線
 70
0
 72
65
 73
0
 40
0
  0
LTYPE
  5
769
  2
DASHED
  3
破線
 70
0
 72
65
 73
2
 40
3.8
 49
3
 49
-0.8
  0
LTYPE
  5
76A
  2
DOT
  3
点線
 70
0
 72
65
 73
2
 40
2
 49
1
 49
-1
  0
LTYPE
  5
76B
  2
DASHDOT
  3
一点鎖線
 70
0
 72
65
 73
4
 40
25.6
 49
20
 49
-2
 49
1.6
 49
-2
  0
LTYPE
  5
76C
  2
DIVIDE
  3
二点鎖線
 70
0
 72
65
 73
6
 40
31.199999999999996
 49
20
 49
-2.399999999999999
 49
2
 49
-2.399999999999999
 49
2
 49
-2.399999999999999
  0
LTYPE
  5
76D
  2
ByBlock
  3

 70
64
 72
65
 73
0
 40
0
  0
LTYPE
  5
76E
  2
ByLayer
  3

 70
64
 72
65
 73
0
 40
0
  0
ENDTAB
  0
TABLE
  2
LAYER
  5
79E
 70
7
  0
LAYER
  5
73C
 70
0
  2
0
 62
7
  6
CONTINUOUS
  0
LAYER
  5
73D
 70
0
  2
LAY-1
 62
7
  6
CONTINUOUS
  0
LAYER
  5
73E
 70
0
  2
2
 62
5
  6
CONTINUOUS
  0
LAYER
  5
73F
 70
0
  2
3
 62
6
  6
CONTINUOUS
  0
LAYER
  5
740
 70
0
  2
20
 62
2
  6
CONTINUOUS
  0
LAYER
  5
741
 70
0
  2
70
 62
3
  6
CONTINUOUS
  0
LAYER
  5
742
 70
0
  2
SPEC
 62
7
  6
CONTINUOUS
  0
ENDTAB
  0
TABLE
  2
STYLE
  5
79F
 70
6
  0
STYLE
  5
762
  2
STANDARD
 70
0
 40
0
 41
1
 50
0
 71
0
 42
0.2
  3
txt.shx
  4
extfont2.shx
  0
STYLE
  5
763
  2
EXCADSTD
 70
0
 40
0
 41
1
 50
0
 71
0
 42
0.2
  3
monotxt
  4
extfont
  0
STYLE
  5
764
  2
EXCADVERT
 70
4
 40
0
 41
1
 50
0
 71
0
 42
0.286885
  3
monotxt
  4
extfont
  0
STYLE
  5
765
  2
EXCADSTD2
 70
0
 40
0
 41
1
 50
0
 71
0
 42
0.2
  3
monotxt
  0
STYLE
  5
766
  2
EXCADVERT2
 70
4
 40
0
 41
1
 50
0
 71
0
 42
0.286885
  3
monotxt
  0
STYLE
  5
767
  2
ZU_SHPTB00003
 70
0
 40
0
 41
1
 50
0
 71
0
 42
0
  3
MONOTXT
  4
BIGFONT
  0
ENDTAB
  0
TABLE
  2
APPID
  5
7A2
 70
2
  0
APPID
  5
7A3
  2
ACAD
 70
0
  0
APPID
  5
7A6
  2
ACAD_MLEADERVER
 70
64
  0
ENDTAB
  0
TABLE
  2
DIMSTYLE
  5
7A4
 70
1
  0
DIMSTYLE
105
76F
  2
STANDARD
 70
0
  3

  4

  5

  6

  7

 40
1
 41
0.18
 42
0.0625
 43
0.38
 44
0.18
 45
0
 46
0
 47
0
 48
0
140
0.18
141
0.09
142
0
143
25.4
144
1
145
0
146
1
147
0.09
 71
0
 72
0
 73
1
 74
1
 75
0
 76
0
 77
0
 78
0
170
0
171
2
172
0
173
0
174
0
175
0
176
0
177
0
178
0
  0
ENDTAB
  0
ENDSEC
  0
SECTION
  2
BLOCKS
  0
BLOCK
  5
744
  8
0
  2
$MODEL_SPACE
 70
0
 10
0
 20
0
 30
0
  3
$MODEL_SPACE
  0
ENDBLK
  5
20
  8
0
  0
BLOCK
  5
746
  8
0
 67
1
  2
$PAPER_SPACE
 70
0
 10
0
 20
0
 30
0
  3
$PAPER_SPACE
  0
ENDBLK
  5
1C
  8
0
  0
BLOCK
  5
748
  8
0
  2
_EX_NORM
 70
0
 10
0
 20
0
 30
0
  3
_EX_NORM
  0
LINE
  5
31
  8
0
  6
ByBlock
 62
0
 10
0
 20
0
 30
0
 11
-1
 21
0
 31
0
  0
LINE
  5
32
  8
0
  6
ByBlock
 62
0
 10
0
 20
0
 30
0
 11
-0.96076892200000008
 21
0.277350098
 31
0
  0
LINE
  5
33
  8
0
  6
ByBlock
 62
0
 10
0
 20
0
 30
0
 11
-0.96076892200000008
 21
-0.277350098
 31
0
  0
ENDBLK
  5
34
  8
0
  0
BLOCK
  5
74A
  8
0
  2
_EX_BNORM
 70
0
 10
0
 20
0
 30
0
  3
_EX_BNORM
  0
LINE
  5
37
  8
0
  6
ByBlock
 62
0
 10
0
 20
0
 30
0
 11
-1
 21
0
 31
0
  0
LINE
  5
38
  8
0
  6
ByBlock
 62
0
 10
0
 20
0
 30
0
 11
-0.96076892200000008
 21
0.277350098
 31
0
  0
LINE
  5
39
  8
0
  6
ByBlock
 62
0
 10
0
 20
0
 30
0
 11
-0.96076892200000008
 21
-0.277350098
 31
0
  0
LINE
  5
3A
  8
0
  6
ByBlock
 62
0
 10
0
 20
0
 30
0
 11
-0.96076892200000008
 21
0.138767504
 31
0
  0
LINE
  5
3B
  8
0
  6
ByBlock
 62
0
 10
0
 20
0
 30
0
 11
-0.96076892200000008
 21
-0.138767504
 31
0
  0
LINE
  5
3C
  8
0
  6
ByBlock
 62
0
 10
-0.96076892200000008
 20
0.277350098
 30
0
 11
-0.96076892200000008
 21
-0.277350098
 31
0
  0
ENDBLK
  5
3D
  8
0
  0
BLOCK
  5
74C
  8
0
  2
_EX_BCIR
 70
0
 10
0
 20
0
 30
0
  3
_EX_BCIR
  0
LINE
  5
40
  8
0
  6
ByBlock
 62
0
 10
0
 20
0
 30
0
 11
-1
 21
0
 31
0
  0
CIRCLE
  5
41
  8
0
  6
ByBlock
 62
0
 10
0
 20
0
 30
0
 40
0.5
  0
CIRCLE
  5
42
  8
0
  6
ByBlock
 62
0
 10
0
 20
0
 30
0
 40
0.25
  0
ENDBLK
  5
43
  8
0
  0
BLOCK
  5
74E
  8
0
  2
_EX_RCIVIL
 70
0
 10
0
 20
0
 30
0
  3
_EX_RCIVIL
  0
LINE
  5
46
  8
0
  6
ByBlock
 62
0
 10
0
 20
0
 30
0
 11
-1
 21
0
 31
0
  0
LINE
  5
47
  8
0
  6
ByBlock
 62
0
 10
-1
 20
-0.25
 30
0
 11
0
 21
-0.25
 31
0
  0
LINE
  5
48
  8
0
  6
ByBlock
 62
0
 10
-1
 20
-0.125
 30
0
 11
0
 21
-0.125
 31
0
  0
ENDBLK
  5
49
  8
0
  0
BLOCK
  5
750
  8
0
  2
_EX_SLANT
 70
0
 10
0
 20
0
 30
0
  3
_EX_SLANT
  0
LINE
  5
4C
  8
0
  6
ByBlock
 62
0
 10
0
 20
0
 30
0
 11
-1
 21
0
 31
0
  0
LINE
  5
4D
  8
0
  6
ByBlock
 62
0
 10
0.70710678099999991
 20
0.70710678099999991
 30
0
 11
-0.70710678099999991
 21
-0.70710678099999991
 31
0
  0
ENDBLK
  5
4E
  8
0
  0
BLOCK
  5
752
  8
0
  2
_EX_NONE
 70
0
 10
0
 20
0
 30
0
  3
_EX_NONE
  0
LINE
  5
51
  8
0
  6
ByBlock
 62
0
 10
0
 20
0
 30
0
 11
-1
 21
0
 31
0
  0
ENDBLK
  5
52
  8
0
  0
BLOCK
  5
754
  8
0
  2
_EX_WCIR
 70
0
 10
0
 20
0
 30
0
  3
_EX_WCIR
  0
LINE
  5
55
  8
0
  6
ByBlock
 62
0
 10
0
 20
0
 30
0
 11
-1
 21
0
 31
0
  0
ENDBLK
  5
56
  8
0
  0
BLOCK
  5
756
  8
0
  2
_EX_CIVIL
 70
0
 10
0
 20
0
 30
0
  3
_EX_CIVIL
  0
LINE
  5
59
  8
0
  6
ByBlock
 62
0
 10
0
 20
0
 30
0
 11
-1
 21
0
 31
0
  0
LINE
  5
5A
  8
0
  6
ByBlock
 62
0
 10
-1
 20
0.25
 30
0
 11
0
 21
0.25
 31
0
  0
LINE
  5
5B
  8
0
  6
ByBlock
 62
0
 10
-1
 20
0.125
 30
0
 11
0
 21
0.125
 31
0
  0
ENDBLK
  5
5C
  8
0
  0
BLOCK
  5
758
  8
0
  2
SPECSET07008
 70
64
 10
0
 20
0
 30
0
  3
SPECSET07008
  0
ENDBLK
  5
759
  8
0
  0
BLOCK
  5
75B
  8
0
  2
*MODEL_SPACE
 70
64
 10
0
 20
0
 30
0
  3
*MODEL_SPACE
  0
ENDBLK
  5
75E
  8
0
  0
BLOCK
  5
760
  8
0
 67
1
  2
*PAPER_SPACE
 70
64
 10
0
 20
0
 30
0
  3
*PAPER_SPACE
  0
ENDBLK
  5
761
  8
0
  0
ENDSEC
  0
SECTION
  2
ENTITIES
  0
TEXT
  5
95
  8
LAY-1
  6
CONTINUOUS
 62
7
 10
45.499999999999993
 20
6
 30
0
 40
4.5
  1
三菱　ＹＳ４０４１＋Ｌ４２９１
 41
0.88235294117647078
  7
EXCADSTD
  0
TEXT
  5
96
  8
LAY-1
  6
CONTINUOUS
 62
7
 10
5
 20
90
 30
0
 40
4.5
  1
ＦＨＦ３２Ｗ×１  　 埋込下面開放形
 41
0.81225265157511473
 72
5
 11
83.75
 21
90
 31
0
  7
EXCADSTD
  0
LINE
  5
34B
  8
70
  6
CONTINUOUS
 62
0
 10
57.8062962181792
 20
37.174772580621052
 30
0
 11
19.81341421817919
 21
51.003050580621057
 31
0
  0
LINE
  5
34C
  8
70
  6
CONTINUOUS
 62
0
 10
57.33069121817919
 20
36.775692580621048
 30
0
 11
58.038332218179193
 21
37.369474580621059
 31
0
  0
LINE
  5
34D
  8
70
  6
CONTINUOUS
 62
0
 10
19.81341421817919
 20
51.003050580621057
 30
0
 11
19.753401218179189
 21
51.343400580621072
 31
0
  0
LINE
  5
34E
  8
70
  6
CONTINUOUS
 62
0
 10
32.136044218179187
 20
54.90968658062107
 30
0
 11
24.54227321817919
 21
57.673593580621059
 31
0
  0
LINE
  5
34F
  8
70
  6
CONTINUOUS
 62
0
 10
26.2519572181792
 20
55.559725580621063
 30
0
 11
24.54227321817919
 21
57.673593580621059
 31
0
  0
LINE
  5
350
  8
70
  6
CONTINUOUS
 62
0
 10
63.296842218179187
 20
43.568084580621061
 30
0
 11
34.3061712181792
 21
54.119825580621047
 31
0
  0
LINE
  5
351
  8
70
  6
CONTINUOUS
 62
0
 10
25.54883621817919
 20
55.81564158062104
 30
0
 11
25.488823218179189
 21
56.155990580621079
 31
0
  0
LINE
  5
352
  8
70
  6
CONTINUOUS
 62
0
 10
63.5417182181792
 20
41.987362580621067
 30
0
 11
25.54883621817919
 21
55.81564158062104
 31
0
  0
LINE
  5
353
  8
70
  6
CONTINUOUS
 62
0
 10
63.305837218179192
 20
41.789435580621067
 30
0
 11
64.013479218179185
 21
42.38321758062105
 31
0
  0
LINE
  5
354
  8
70
  6
CONTINUOUS
 62
0
 10
21.9298862181792
 20
53.169687580621073
 30
0
 11
21.307434218179189
 21
56.699784580621071
 31
0
  0
LINE
  5
355
  8
70
  6
CONTINUOUS
 62
0
 10
24.274924218179191
 20
59.18980458062105
 30
0
 11
24.8973762181792
 21
55.65970758062106
 31
0
  0
LINE
  5
356
  8
70
  6
CONTINUOUS
 62
0
 10
19.753401218179189
 20
51.343400580621072
 30
0
 11
25.488823218179189
 21
56.155990580621079
 31
0
  0
LINE
  5
357
  8
70
  6
CONTINUOUS
 62
0
 10
20.512691218179182
 20
50.743909580621072
 30
0
 11
26.2519572181792
 21
55.559725580621063
 31
0
  0
LINE
  5
358
  8
70
  6
CONTINUOUS
 62
0
 10
19.8095702181792
 20
50.999825580621057
 30
0
 11
25.54883621817919
 21
55.81564158062104
 31
0
  0
LINE
  5
359
  8
70
  6
CONTINUOUS
 62
0
 10
20.512691218179182
 20
50.743909580621072
 30
0
 11
26.2519572181792
 21
55.559725580621063
 31
0
  0
LINE
  5
35A
  8
70
  6
CONTINUOUS
 62
0
 10
19.81341421817919
 20
51.003050580621057
 30
0
 11
25.54883621817919
 21
55.81564158062104
 31
0
  0
LINE
  5
35B
  8
70
  6
CONTINUOUS
 62
0
 10
21.307434218179189
 20
56.699784580621071
 30
0
 11
24.274924218179191
 21
59.18980458062105
 31
0
  0
LINE
  5
35C
  8
70
  6
CONTINUOUS
 62
0
 10
21.6760582181792
 20
54.609215580621068
 30
0
 11
21.1339782181792
 21
52.50184158062104
 31
0
  0
LINE
  5
35D
  8
70
  6
CONTINUOUS
 62
0
 10
31.000644218179179
 20
56.741842580621046
 30
0
 11
24.274924218179191
 21
59.18980458062105
 31
0
  0
LINE
  5
35E
  8
70
  6
CONTINUOUS
 62
0
 10
63.659658218179167
 20
42.086326580621062
 30
0
 11
63.401872218179193
 21
43.548303580621059
 31
0
  0
LINE
  5
35F
  8
70
  6
CONTINUOUS
 62
0
 10
63.305837218179192
 20
41.789435580621067
 30
0
 11
64.013479218179185
 21
42.38321758062105
 31
0
  0
LINE
  5
360
  8
70
  6
CONTINUOUS
 62
0
 10
63.3477442181792
 20
44.085631580621069
 30
0
 11
63.276980218179169
 21
44.026253580621052
 31
0
  0
LINE
  5
361
  8
70
  6
CONTINUOUS
 62
0
 10
63.437254218179191
 20
43.57799258062105
 30
0
 11
63.366490218179187
 21
43.518614580621069
 31
0
  0
LINE
  5
362
  8
70
  6
CONTINUOUS
 62
0
 10
63.301386218179168
 20
43.542309580621058
 30
0
 11
63.2359372181792
 21
43.913489580621068
 31
0
  0
LINE
  5
363
  8
70
  6
CONTINUOUS
 62
0
 10
63.4782972181792
 20
43.690755580621058
 30
0
 11
63.412848218179192
 21
44.061935580621061
 31
0
  0
ARC
  5
364
  8
70
  6
CONTINUOUS
 62
0
 10
63.354114218179177
 20
43.934327580621058
 30
0
 40
0.12
 50
130
 51
190.0000000000002
  0
ARC
  5
365
  8
70
  6
CONTINUOUS
 62
0
 10
63.373455218179167
 20
44.054989580621061
 30
0
 40
0.04
 50
10.00000000000021
 51
130
  0
ARC
  5
366
  8
70
  6
CONTINUOUS
 62
0
 10
63.340779218179193
 20
43.549255580621058
 30
0
 40
0.04
 50
190.0000000000002
 51
310.00000000000011
  0
ARC
  5
367
  8
70
  6
CONTINUOUS
 62
0
 10
63.36012021817919
 20
43.669917580621053
 30
0
 40
0.12
 50
310.00000000000011
 51
10.00000000000021
  0
LINE
  5
368
  8
70
  6
CONTINUOUS
 62
0
 10
63.327098218179181
 20
43.511668580621048
 30
0
 11
63.4139032181792
 21
43.480073580621053
 31
0
  0
LINE
  5
369
  8
70
  6
CONTINUOUS
 62
0
 10
31.020356218179181
 20
56.63005158062105
 30
0
 11
30.480414218179192
 21
59.692213580621058
 31
0
  0
LINE
  5
36A
  8
70
  6
CONTINUOUS
 62
0
 10
33.110278218179189
 20
56.295052580621061
 30
0
 11
32.650541218179171
 21
58.902352580621049
 31
0
  0
LINE
  5
36B
  8
70
  6
CONTINUOUS
 62
0
 10
30.480414218179192
 20
59.692213580621058
 30
0
 11
32.650541218179171
 21
58.902352580621049
 31
0
  0
LINE
  5
36C
  8
70
  6
CONTINUOUS
 62
0
 10
30.480414218179192
 20
59.692213580621058
 30
0
 11
28.185433218179181
 21
57.76649558062104
 31
0
  0
LINE
  5
36D
  8
70
  6
CONTINUOUS
 62
0
 10
31.020356218179181
 20
56.63005158062105
 30
0
 11
31.888407218179189
 21
56.314106580621051
 31
0
  0
LINE
  5
36E
  8
70
  6
CONTINUOUS
 62
0
 10
31.020356218179181
 20
56.63005158062105
 30
0
 11
31.80820221817919
 21
56.768969580621047
 31
0
  0
LINE
  5
36F
  8
70
  6
CONTINUOUS
 62
0
 10
31.80820221817919
 20
56.768969580621047
 30
0
 11
33.978329218179169
 21
55.979108580621073
 31
0
  0
LINE
  5
370
  8
70
  6
CONTINUOUS
 62
0
 10
31.80820221817919
 20
56.768969580621047
 30
0
 11
32.1877352181792
 21
54.616534580621057
 31
0
  0
LINE
  5
371
  8
70
  6
CONTINUOUS
 62
0
 10
33.978329218179169
 20
55.979108580621073
 30
0
 11
34.3578622181792
 21
53.82667258062105
 31
0
  0
LINE
  5
372
  8
70
  6
CONTINUOUS
 62
0
 10
32.1877352181792
 20
54.616534580621057
 30
0
 11
34.3578622181792
 21
53.82667258062105
 31
0
  0
LINE
  5
373
  8
70
  6
CONTINUOUS
 62
0
 10
80.829805218179189
 20
38.605510580621072
 30
0
 11
80.992137218179209
 21
37.684880580621069
 31
0
  0
LINE
  5
374
  8
70
  6
CONTINUOUS
 62
0
 10
80.829805218179189
 20
38.605510580621072
 30
0
 11
77.264683218179186
 21
39.903109580621063
 31
0
  0
LINE
  5
375
  8
70
  6
CONTINUOUS
 62
0
 10
82.928299218179177
 20
34.647443580621051
 30
0
 11
77.6607942181792
 21
30.227482580621071
 31
0
  0
LINE
  5
376
  8
70
  6
CONTINUOUS
 62
0
 10
77.0519592181792
 20
30.87475058062105
 30
0
 11
76.9518382181792
 21
30.485521580621061
 31
0
  0
LINE
  5
377
  8
70
  6
CONTINUOUS
 62
0
 10
74.2265052181792
 20
41.008915580621078
 30
0
 11
34.038822218179178
 21
55.63603658062106
 31
0
  0
LINE
  5
378
  8
70
  6
CONTINUOUS
 62
0
 10
86.378296218179173
 20
34.243089580621067
 30
0
 11
64.013479218179185
 21
42.38321758062105
 31
0
  0
LINE
  5
379
  8
70
  6
CONTINUOUS
 62
0
 10
85.6706542181792
 20
33.64930858062106
 30
0
 11
63.305837218179192
 21
41.789435580621067
 31
0
  0
LINE
  5
37A
  8
70
  6
CONTINUOUS
 62
0
 10
85.837700218179165
 20
35.488747580621052
 30
0
 11
77.508505218179181
 21
38.520326580621052
 31
0
  0
LINE
  5
37B
  8
70
  6
CONTINUOUS
 62
0
 10
85.766689218179167
 20
35.408175580621062
 30
0
 11
77.528556218179176
 21
38.406610580621063
 31
0
  0
LINE
  5
37C
  8
70
  6
CONTINUOUS
 62
0
 10
85.751953218179182
 20
35.952449580621057
 30
0
 11
77.427015218179179
 21
38.98247958062106
 31
0
  0
LINE
  5
37D
  8
70
  6
CONTINUOUS
 62
0
 10
85.843114218179181
 20
35.550627580621047
 30
0
 11
85.7776652181792
 21
35.921807580621063
 31
0
  0
ARC
  5
37E
  8
70
  6
CONTINUOUS
 62
0
 10
85.7249372181792
 20
35.52978958062107
 30
0
 40
0.12
 50
310.00000000000011
 51
10.00000000000021
  0
LINE
  5
37F
  8
70
  6
CONTINUOUS
 62
0
 10
85.8020712181792
 20
35.43786458062106
 30
0
 11
85.766689218179167
 21
35.408175580621062
 31
0
  0
ARC
  5
380
  8
70
  6
CONTINUOUS
 62
0
 10
85.7382722181792
 20
35.914861580621057
 30
0
 40
0.04
 50
10.00000000000021
 51
69.999999999999915
  0
LINE
  5
381
  8
70
  6
CONTINUOUS
 62
0
 10
85.944270218179184
 20
34.401062580621073
 30
0
 11
85.766689218179167
 21
35.408175580621062
 31
0
  0
LINE
  5
382
  8
70
  6
CONTINUOUS
 62
0
 10
85.6706542181792
 20
33.64930858062106
 30
0
 11
86.378296218179173
 21
34.243089580621067
 31
0
  0
LINE
  5
383
  8
70
  6
CONTINUOUS
 62
0
 10
80.2152112181792
 20
29.297750580621049
 30
0
 11
58.038332218179193
 21
37.369474580621059
 31
0
  0
LINE
  5
384
  8
70
  6
CONTINUOUS
 62
0
 10
79.674615218179184
 20
30.543408580621058
 30
0
 11
78.5326442181792
 21
30.959051580621061
 31
0
  0
LINE
  5
385
  8
70
  6
CONTINUOUS
 62
0
 10
79.588868218179186
 20
31.00711058062106
 30
0
 11
78.892135218179192
 21
31.260700580621059
 31
0
  0
LINE
  5
386
  8
70
  6
CONTINUOUS
 62
0
 10
79.507569218179185
 20
28.703968580621058
 30
0
 11
57.33069121817919
 21
36.775692580621048
 31
0
  0
LINE
  5
387
  8
70
  6
CONTINUOUS
 62
0
 10
79.603604218179186
 20
30.462836580621051
 30
0
 11
78.444189218179176
 21
30.884828580621061
 31
0
  0
LINE
  5
388
  8
70
  6
CONTINUOUS
 62
0
 10
79.680029218179186
 20
30.60528858062106
 30
0
 11
79.614579218179188
 21
30.976468580621049
 31
0
  0
ARC
  5
389
  8
70
  6
CONTINUOUS
 62
0
 10
79.561852218179183
 20
30.584450580621048
 30
0
 40
0.12
 50
310.00000000000011
 51
10.00000000000021
  0
LINE
  5
38A
  8
70
  6
CONTINUOUS
 62
0
 10
79.638986218179184
 20
30.492525580621059
 30
0
 11
79.603604218179186
 21
30.462836580621051
 31
0
  0
ARC
  5
38B
  8
70
  6
CONTINUOUS
 62
0
 10
79.5751872181792
 20
30.96952258062106
 30
0
 40
0.04
 50
10.00000000000021
 51
69.999999999999915
  0
LINE
  5
38C
  8
70
  6
CONTINUOUS
 62
0
 10
79.781185218179175
 20
29.45572258062105
 30
0
 11
79.603604218179186
 21
30.462836580621051
 31
0
  0
LINE
  5
38D
  8
70
  6
CONTINUOUS
 62
0
 10
79.507569218179185
 20
28.703968580621058
 30
0
 11
80.2152112181792
 21
29.297750580621049
 31
0
  0
LINE
  5
38E
  8
70
  6
CONTINUOUS
 62
0
 10
75.338377218179176
 20
39.310188580621073
 30
0
 11
63.490327218179168
 21
43.622525580621051
 31
0
  0
LINE
  5
38F
  8
70
  6
CONTINUOUS
 62
0
 10
75.2568872181792
 20
39.772340580621069
 30
0
 11
63.4088372181792
 21
44.084678580621052
 31
0
  0
LINE
  5
390
  8
70
  6
CONTINUOUS
 62
0
 10
75.3584292181792
 20
39.196472580621062
 30
0
 11
63.401872218179193
 21
43.548303580621059
 31
0
  0
LINE
  5
391
  8
70
  6
CONTINUOUS
 62
0
 10
76.3361392181792
 20
40.562126580621047
 30
0
 11
75.87640221817918
 21
43.169425580621052
 31
0
  0
LINE
  5
392
  8
70
  6
CONTINUOUS
 62
0
 10
74.246216218179185
 20
40.897124580621053
 30
0
 11
75.11426721817918
 21
40.581180580621059
 31
0
  0
LINE
  5
393
  8
70
  6
CONTINUOUS
 62
0
 10
77.204190218179164
 20
40.246181580621062
 30
0
 11
77.58372221817919
 21
38.093745580621061
 31
0
  0
LINE
  5
394
  8
70
  6
CONTINUOUS
 62
0
 10
75.413595218179182
 20
38.88360758062106
 30
0
 11
77.58372221817919
 21
38.093745580621061
 31
0
  0
LINE
  5
395
  8
70
  6
CONTINUOUS
 62
0
 10
75.034063218179185
 20
41.036043580621048
 30
0
 11
75.413595218179182
 21
38.88360758062106
 31
0
  0
LINE
  5
396
  8
70
  6
CONTINUOUS
 62
0
 10
75.034063218179185
 20
41.036043580621048
 30
0
 11
77.204190218179164
 21
40.246181580621062
 31
0
  0
LINE
  5
397
  8
70
  6
CONTINUOUS
 62
0
 10
74.246216218179185
 20
40.897124580621053
 30
0
 11
75.034063218179185
 21
41.036043580621048
 31
0
  0
LINE
  5
398
  8
70
  6
CONTINUOUS
 62
0
 10
74.246216218179185
 20
40.897124580621053
 30
0
 11
73.7062752181792
 21
43.959287580621059
 31
0
  0
LINE
  5
399
  8
70
  6
CONTINUOUS
 62
0
 10
73.7062752181792
 20
43.959287580621059
 30
0
 11
75.87640221817918
 21
43.169425580621052
 31
0
  0
LINE
  5
39A
  8
70
  6
CONTINUOUS
 62
0
 10
73.7062752181792
 20
43.959287580621059
 30
0
 11
71.4112932181792
 21
42.033568580621051
 31
0
  0
LINE
  5
3C4
  8
2
  6
CONTINUOUS
 62
0
 10
77.3201742181792
 20
30.77712858062106
 30
0
 11
21.1023922181792
 21
51.238727580621052
 31
0
  0
LINE
  5
3C5
  8
2
  6
CONTINUOUS
 62
0
 10
78.6699812181792
 20
31.909751580621059
 30
0
 11
76.9663532181792
 21
30.480238580621059
 31
0
  0
LINE
  5
3C6
  8
2
  6
CONTINUOUS
 62
0
 10
81.880037218179211
 20
34.603308580621061
 30
0
 11
25.6622562181792
 21
55.06490758062106
 31
0
  0
LINE
  5
3C7
  8
2
  6
CONTINUOUS
 62
0
 10
63.305837218179192
 20
41.789435580621067
 30
0
 11
26.01607621817919
 21
55.361798580621048
 31
0
  0
LINE
  5
3C8
  8
2
  6
CONTINUOUS
 62
0
 10
23.100282218179188
 20
50.511555580621057
 30
0
 11
27.66014621817919
 21
54.337735580621072
 31
0
  0
LINE
  5
3C9
  8
2
  6
CONTINUOUS
 62
0
 10
25.1321362181792
 20
52.540746580621061
 30
0
 11
24.3096062181792
 21
52.908230580621058
 31
0
  0
POLYLINE
  5
3CA
  8
2
  6
CONTINUOUS
 62
0
 66
1
 70
8
  0
VERTEX
  5
430
  8
2
 62
0
 10
24.5373
 20
52.0492
 30
0
 70
32
  0
VERTEX
  5
431
  8
2
 62
0
 10
24.5354
 20
52.0579
 30
0
 70
32
  0
VERTEX
  5
432
  8
2
 62
0
 10
24.5327
 20
52.0664
 30
0
 70
32
  0
VERTEX
  5
433
  8
2
 62
0
 10
24.5294
 20
52.0748
 30
0
 70
32
  0
VERTEX
  5
434
  8
2
 62
0
 10
24.5252
 20
52.0829
 30
0
 70
32
  0
VERTEX
  5
435
  8
2
 62
0
 10
24.5204
 20
52.0909
 30
0
 70
32
  0
VERTEX
  5
436
  8
2
 62
0
 10
24.5149
 20
52.0986
 30
0
 70
32
  0
VERTEX
  5
437
  8
2
 62
0
 10
24.5087
 20
52.1061
 30
0
 70
32
  0
VERTEX
  5
438
  8
2
 62
0
 10
24.5018
 20
52.1133
 30
0
 70
32
  0
VERTEX
  5
439
  8
2
 62
0
 10
24.4942
 20
52.1202
 30
0
 70
32
  0
VERTEX
  5
43A
  8
2
 62
0
 10
24.486
 20
52.1268
 30
0
 70
32
  0
VERTEX
  5
43B
  8
2
 62
0
 10
24.4772
 20
52.1331
 30
0
 70
32
  0
VERTEX
  5
43C
  8
2
 62
0
 10
24.4678
 20
52.1391
 30
0
 70
32
  0
VERTEX
  5
43D
  8
2
 62
0
 10
24.4578
 20
52.1447
 30
0
 70
32
  0
VERTEX
  5
43E
  8
2
 62
0
 10
24.4473
 20
52.1499
 30
0
 70
32
  0
VERTEX
  5
43F
  8
2
 62
0
 10
24.4362
 20
52.1548
 30
0
 70
32
  0
VERTEX
  5
440
  8
2
 62
0
 10
24.4246
 20
52.1593
 30
0
 70
32
  0
VERTEX
  5
441
  8
2
 62
0
 10
24.4126
 20
52.1634
 30
0
 70
32
  0
VERTEX
  5
442
  8
2
 62
0
 10
24.4001
 20
52.1671
 30
0
 70
32
  0
VERTEX
  5
443
  8
2
 62
0
 10
24.3872
 20
52.1704
 30
0
 70
32
  0
VERTEX
  5
444
  8
2
 62
0
 10
24.3739
 20
52.1732
 30
0
 70
32
  0
VERTEX
  5
445
  8
2
 62
0
 10
24.3603
 20
52.1756
 30
0
 70
32
  0
VERTEX
  5
446
  8
2
 62
0
 10
24.3464
 20
52.1776
 30
0
 70
32
  0
VERTEX
  5
447
  8
2
 62
0
 10
24.3321
 20
52.1792
 30
0
 70
32
  0
VERTEX
  5
448
  8
2
 62
0
 10
24.3176
 20
52.1803
 30
0
 70
32
  0
VERTEX
  5
449
  8
2
 62
0
 10
24.303
 20
52.1809
 30
0
 70
32
  0
VERTEX
  5
44A
  8
2
 62
0
 10
24.2881
 20
52.1811
 30
0
 70
32
  0
VERTEX
  5
44B
  8
2
 62
0
 10
24.2731
 20
52.1809
 30
0
 70
32
  0
VERTEX
  5
44C
  8
2
 62
0
 10
24.2579
 20
52.1802
 30
0
 70
32
  0
VERTEX
  5
44D
  8
2
 62
0
 10
24.2427
 20
52.1791
 30
0
 70
32
  0
VERTEX
  5
44E
  8
2
 62
0
 10
24.2275
 20
52.1775
 30
0
 70
32
  0
VERTEX
  5
44F
  8
2
 62
0
 10
24.2123
 20
52.1755
 30
0
 70
32
  0
VERTEX
  5
450
  8
2
 62
0
 10
24.1971
 20
52.173
 30
0
 70
32
  0
VERTEX
  5
451
  8
2
 62
0
 10
24.182
 20
52.1701
 30
0
 70
32
  0
VERTEX
  5
452
  8
2
 62
0
 10
24.167
 20
52.1668
 30
0
 70
32
  0
VERTEX
  5
453
  8
2
 62
0
 10
24.1521
 20
52.1631
 30
0
 70
32
  0
VERTEX
  5
454
  8
2
 62
0
 10
24.1375
 20
52.159
 30
0
 70
32
  0
VERTEX
  5
455
  8
2
 62
0
 10
24.123
 20
52.1544
 30
0
 70
32
  0
VERTEX
  5
456
  8
2
 62
0
 10
24.1088
 20
52.1495
 30
0
 70
32
  0
VERTEX
  5
457
  8
2
 62
0
 10
24.0949
 20
52.1443
 30
0
 70
32
  0
VERTEX
  5
458
  8
2
 62
0
 10
24.0813
 20
52.1386
 30
0
 70
32
  0
VERTEX
  5
459
  8
2
 62
0
 10
24.0681
 20
52.1326
 30
0
 70
32
  0
VERTEX
  5
45A
  8
2
 62
0
 10
24.0552
 20
52.1263
 30
0
 70
32
  0
VERTEX
  5
45B
  8
2
 62
0
 10
24.0428
 20
52.1197
 30
0
 70
32
  0
VERTEX
  5
45C
  8
2
 62
0
 10
24.0308
 20
52.1127
 30
0
 70
32
  0
VERTEX
  5
45D
  8
2
 62
0
 10
24.0193
 20
52.1055
 30
0
 70
32
  0
VERTEX
  5
45E
  8
2
 62
0
 10
24.0083
 20
52.098
 30
0
 70
32
  0
VERTEX
  5
45F
  8
2
 62
0
 10
23.9979
 20
52.0903
 30
0
 70
32
  0
VERTEX
  5
460
  8
2
 62
0
 10
23.988
 20
52.0823
 30
0
 70
32
  0
VERTEX
  5
461
  8
2
 62
0
 10
23.9786
 20
52.0741
 30
0
 70
32
  0
VERTEX
  5
462
  8
2
 62
0
 10
23.9699
 20
52.0658
 30
0
 70
32
  0
VERTEX
  5
463
  8
2
 62
0
 10
23.9618
 20
52.0572
 30
0
 70
32
  0
VERTEX
  5
464
  8
2
 62
0
 10
23.9543
 20
52.0485
 30
0
 70
32
  0
VERTEX
  5
465
  8
2
 62
0
 10
23.9475
 20
52.0397
 30
0
 70
32
  0
VERTEX
  5
466
  8
2
 62
0
 10
23.9414
 20
52.0308
 30
0
 70
32
  0
VERTEX
  5
467
  8
2
 62
0
 10
23.936
 20
52.0217
 30
0
 70
32
  0
VERTEX
  5
468
  8
2
 62
0
 10
23.9312
 20
52.0127
 30
0
 70
32
  0
VERTEX
  5
469
  8
2
 62
0
 10
23.9272
 20
52.0035
 30
0
 70
32
  0
VERTEX
  5
46A
  8
2
 62
0
 10
23.9239
 20
51.9944
 30
0
 70
32
  0
VERTEX
  5
46B
  8
2
 62
0
 10
23.9214
 20
51.9852
 30
0
 70
32
  0
VERTEX
  5
46C
  8
2
 62
0
 10
23.9195
 20
51.9761
 30
0
 70
32
  0
VERTEX
  5
46D
  8
2
 62
0
 10
23.9185
 20
51.967
 30
0
 70
32
  0
VERTEX
  5
46E
  8
2
 62
0
 10
23.9182
 20
51.958
 30
0
 70
32
  0
VERTEX
  5
46F
  8
2
 62
0
 10
23.9186
 20
51.9491
 30
0
 70
32
  0
VERTEX
  5
470
  8
2
 62
0
 10
23.9197
 20
51.9403
 30
0
 70
32
  0
VERTEX
  5
471
  8
2
 62
0
 10
23.9217
 20
51.9316
 30
0
 70
32
  0
VERTEX
  5
472
  8
2
 62
0
 10
23.9243
 20
51.9231
 30
0
 70
32
  0
VERTEX
  5
473
  8
2
 62
0
 10
23.9277
 20
51.9147
 30
0
 70
32
  0
VERTEX
  5
474
  8
2
 62
0
 10
23.9318
 20
51.9066
 30
0
 70
32
  0
VERTEX
  5
475
  8
2
 62
0
 10
23.9366
 20
51.8986
 30
0
 70
32
  0
VERTEX
  5
476
  8
2
 62
0
 10
23.9422
 20
51.8909
 30
0
 70
32
  0
VERTEX
  5
477
  8
2
 62
0
 10
23.9484
 20
51.8834
 30
0
 70
32
  0
VERTEX
  5
478
  8
2
 62
0
 10
23.9553
 20
51.8762
 30
0
 70
32
  0
VERTEX
  5
479
  8
2
 62
0
 10
23.9628
 20
51.8693
 30
0
 70
32
  0
VERTEX
  5
47A
  8
2
 62
0
 10
23.971
 20
51.8627
 30
0
 70
32
  0
VERTEX
  5
47B
  8
2
 62
0
 10
23.9798
 20
51.8564
 30
0
 70
32
  0
VERTEX
  5
47C
  8
2
 62
0
 10
23.9893
 20
51.8504
 30
0
 70
32
  0
VERTEX
  5
47D
  8
2
 62
0
 10
23.9992
 20
51.8448
 30
0
 70
32
  0
VERTEX
  5
47E
  8
2
 62
0
 10
24.0098
 20
51.8395
 30
0
 70
32
  0
VERTEX
  5
47F
  8
2
 62
0
 10
24.0208
 20
51.8347
 30
0
 70
32
  0
VERTEX
  5
480
  8
2
 62
0
 10
24.0324
 20
51.8302
 30
0
 70
32
  0
VERTEX
  5
481
  8
2
 62
0
 10
24.0445
 20
51.8261
 30
0
 70
32
  0
VERTEX
  5
482
  8
2
 62
0
 10
24.0569
 20
51.8224
 30
0
 70
32
  0
VERTEX
  5
483
  8
2
 62
0
 10
24.0698
 20
51.8191
 30
0
 70
32
  0
VERTEX
  5
484
  8
2
 62
0
 10
24.0831
 20
51.8162
 30
0
 70
32
  0
VERTEX
  5
485
  8
2
 62
0
 10
24.0967
 20
51.8138
 30
0
 70
32
  0
VERTEX
  5
486
  8
2
 62
0
 10
24.1107
 20
51.8118
 30
0
 70
32
  0
VERTEX
  5
487
  8
2
 62
0
 10
24.1249
 20
51.8103
 30
0
 70
32
  0
VERTEX
  5
488
  8
2
 62
0
 10
24.1394
 20
51.8092
 30
0
 70
32
  0
VERTEX
  5
489
  8
2
 62
0
 10
24.1541
 20
51.8085
 30
0
 70
32
  0
VERTEX
  5
48A
  8
2
 62
0
 10
24.169
 20
51.8083
 30
0
 70
32
  0
VERTEX
  5
48B
  8
2
 62
0
 10
24.184
 20
51.8086
 30
0
 70
32
  0
VERTEX
  5
48C
  8
2
 62
0
 10
24.1991
 20
51.8093
 30
0
 70
32
  0
VERTEX
  5
48D
  8
2
 62
0
 10
24.2143
 20
51.8104
 30
0
 70
32
  0
VERTEX
  5
48E
  8
2
 62
0
 10
24.2295
 20
51.812
 30
0
 70
32
  0
VERTEX
  5
48F
  8
2
 62
0
 10
24.2448
 20
51.814
 30
0
 70
32
  0
VERTEX
  5
490
  8
2
 62
0
 10
24.26
 20
51.8165
 30
0
 70
32
  0
VERTEX
  5
491
  8
2
 62
0
 10
24.2751
 20
51.8193
 30
0
 70
32
  0
VERTEX
  5
492
  8
2
 62
0
 10
24.2901
 20
51.8226
 30
0
 70
32
  0
VERTEX
  5
493
  8
2
 62
0
 10
24.3049
 20
51.8264
 30
0
 70
32
  0
VERTEX
  5
494
  8
2
 62
0
 10
24.3196
 20
51.8305
 30
0
 70
32
  0
VERTEX
  5
495
  8
2
 62
0
 10
24.334
 20
51.835
 30
0
 70
32
  0
VERTEX
  5
496
  8
2
 62
0
 10
24.3482
 20
51.8399
 30
0
 70
32
  0
VERTEX
  5
497
  8
2
 62
0
 10
24.3622
 20
51.8452
 30
0
 70
32
  0
VERTEX
  5
498
  8
2
 62
0
 10
24.3757
 20
51.8509
 30
0
 70
32
  0
VERTEX
  5
499
  8
2
 62
0
 10
24.389
 20
51.8568
 30
0
 70
32
  0
VERTEX
  5
49A
  8
2
 62
0
 10
24.4018
 20
51.8632
 30
0
 70
32
  0
VERTEX
  5
49B
  8
2
 62
0
 10
24.4142
 20
51.8698
 30
0
 70
32
  0
VERTEX
  5
49C
  8
2
 62
0
 10
24.4262
 20
51.8767
 30
0
 70
32
  0
VERTEX
  5
49D
  8
2
 62
0
 10
24.4377
 20
51.884
 30
0
 70
32
  0
VERTEX
  5
49E
  8
2
 62
0
 10
24.4487
 20
51.8915
 30
0
 70
32
  0
VERTEX
  5
49F
  8
2
 62
0
 10
24.4592
 20
51.8992
 30
0
 70
32
  0
VERTEX
  5
4A0
  8
2
 62
0
 10
24.4691
 20
51.9072
 30
0
 70
32
  0
VERTEX
  5
4A1
  8
2
 62
0
 10
24.4784
 20
51.9154
 30
0
 70
32
  0
VERTEX
  5
4A2
  8
2
 62
0
 10
24.4872
 20
51.9237
 30
0
 70
32
  0
VERTEX
  5
4A3
  8
2
 62
0
 10
24.4953
 20
51.9323
 30
0
 70
32
  0
VERTEX
  5
4A4
  8
2
 62
0
 10
24.5027
 20
51.941
 30
0
 70
32
  0
VERTEX
  5
4A5
  8
2
 62
0
 10
24.5095
 20
51.9498
 30
0
 70
32
  0
VERTEX
  5
4A6
  8
2
 62
0
 10
24.5157
 20
51.9587
 30
0
 70
32
  0
VERTEX
  5
4A7
  8
2
 62
0
 10
24.5211
 20
51.9677
 30
0
 70
32
  0
VERTEX
  5
4A8
  8
2
 62
0
 10
24.5258
 20
51.9768
 30
0
 70
32
  0
VERTEX
  5
4A9
  8
2
 62
0
 10
24.5298
 20
51.9859
 30
0
 70
32
  0
VERTEX
  5
4AA
  8
2
 62
0
 10
24.5331
 20
51.9951
 30
0
 70
32
  0
VERTEX
  5
4AB
  8
2
 62
0
 10
24.5357
 20
52.0042
 30
0
 70
32
  0
VERTEX
  5
4AC
  8
2
 62
0
 10
24.5375
 20
52.0134
 30
0
 70
32
  0
VERTEX
  5
4AD
  8
2
 62
0
 10
24.5386
 20
52.0224
 30
0
 70
32
  0
VERTEX
  5
4AE
  8
2
 62
0
 10
24.5389
 20
52.0314
 30
0
 70
32
  0
VERTEX
  5
4AF
  8
2
 62
0
 10
24.5385
 20
52.0404
 30
0
 70
32
  0
VERTEX
  5
4B0
  8
2
 62
0
 10
24.5373
 20
52.0492
 30
0
 70
32
  0
SEQEND
  5
4B1
  8
0
  0
POLYLINE
  5
3CB
  8
2
  6
CONTINUOUS
 62
0
 66
1
 70
8
  0
VERTEX
  5
4B2
  8
2
 62
0
 10
24.4039
 20
52.8055
 30
0
 70
32
  0
VERTEX
  5
4B3
  8
2
 62
0
 10
24.4031
 20
52.8099
 30
0
 70
32
  0
VERTEX
  5
4B4
  8
2
 62
0
 10
24.402
 20
52.8142
 30
0
 70
32
  0
VERTEX
  5
4B5
  8
2
 62
0
 10
24.4008
 20
52.8185
 30
0
 70
32
  0
VERTEX
  5
4B6
  8
2
 62
0
 10
24.3994
 20
52.8227
 30
0
 70
32
  0
VERTEX
  5
4B7
  8
2
 62
0
 10
24.3978
 20
52.8269
 30
0
 70
32
  0
VERTEX
  5
4B8
  8
2
 62
0
 10
24.396
 20
52.8311
 30
0
 70
32
  0
VERTEX
  5
4B9
  8
2
 62
0
 10
24.394
 20
52.8352
 30
0
 70
32
  0
VERTEX
  5
4BA
  8
2
 62
0
 10
24.3919
 20
52.8393
 30
0
 70
32
  0
VERTEX
  5
4BB
  8
2
 62
0
 10
24.3896
 20
52.8433
 30
0
 70
32
  0
VERTEX
  5
4BC
  8
2
 62
0
 10
24.3871
 20
52.8472
 30
0
 70
32
  0
VERTEX
  5
4BD
  8
2
 62
0
 10
24.3844
 20
52.8511
 30
0
 70
32
  0
VERTEX
  5
4BE
  8
2
 62
0
 10
24.3815
 20
52.8549
 30
0
 70
32
  0
VERTEX
  5
4BF
  8
2
 62
0
 10
24.3785
 20
52.8587
 30
0
 70
32
  0
VERTEX
  5
4C0
  8
2
 62
0
 10
24.3753
 20
52.8624
 30
0
 70
32
  0
VERTEX
  5
4C1
  8
2
 62
0
 10
24.3719
 20
52.866
 30
0
 70
32
  0
VERTEX
  5
4C2
  8
2
 62
0
 10
24.3684
 20
52.8696
 30
0
 70
32
  0
VERTEX
  5
4C3
  8
2
 62
0
 10
24.3647
 20
52.8731
 30
0
 70
32
  0
VERTEX
  5
4C4
  8
2
 62
0
 10
24.3609
 20
52.8765
 30
0
 70
32
  0
VERTEX
  5
4C5
  8
2
 62
0
 10
24.3568
 20
52.8799
 30
0
 70
32
  0
VERTEX
  5
4C6
  8
2
 62
0
 10
24.3527
 20
52.8831
 30
0
 70
32
  0
VERTEX
  5
4C7
  8
2
 62
0
 10
24.3483
 20
52.8863
 30
0
 70
32
  0
VERTEX
  5
4C8
  8
2
 62
0
 10
24.3439
 20
52.8894
 30
0
 70
32
  0
VERTEX
  5
4C9
  8
2
 62
0
 10
24.3392
 20
52.8924
 30
0
 70
32
  0
VERTEX
  5
4CA
  8
2
 62
0
 10
24.3344
 20
52.8954
 30
0
 70
32
  0
VERTEX
  5
4CB
  8
2
 62
0
 10
24.3295
 20
52.8982
 30
0
 70
32
  0
VERTEX
  5
4CC
  8
2
 62
0
 10
24.3245
 20
52.901
 30
0
 70
32
  0
VERTEX
  5
4CD
  8
2
 62
0
 10
24.3193
 20
52.9037
 30
0
 70
32
  0
VERTEX
  5
4CE
  8
2
 62
0
 10
24.3139
 20
52.9063
 30
0
 70
32
  0
VERTEX
  5
4CF
  8
2
 62
0
 10
24.3084
 20
52.9087
 30
0
 70
32
  0
VERTEX
  5
4D0
  8
2
 62
0
 10
24.3028
 20
52.9111
 30
0
 70
32
  0
VERTEX
  5
4D1
  8
2
 62
0
 10
24.2971
 20
52.9134
 30
0
 70
32
  0
VERTEX
  5
4D2
  8
2
 62
0
 10
24.2913
 20
52.9156
 30
0
 70
32
  0
VERTEX
  5
4D3
  8
2
 62
0
 10
24.2853
 20
52.9177
 30
0
 70
32
  0
VERTEX
  5
4D4
  8
2
 62
0
 10
24.2792
 20
52.9197
 30
0
 70
32
  0
VERTEX
  5
4D5
  8
2
 62
0
 10
24.273
 20
52.9216
 30
0
 70
32
  0
VERTEX
  5
4D6
  8
2
 62
0
 10
24.2668
 20
52.9234
 30
0
 70
32
  0
VERTEX
  5
4D7
  8
2
 62
0
 10
24.2604
 20
52.9251
 30
0
 70
32
  0
VERTEX
  5
4D8
  8
2
 62
0
 10
24.2539
 20
52.9267
 30
0
 70
32
  0
VERTEX
  5
4D9
  8
2
 62
0
 10
24.2473
 20
52.9282
 30
0
 70
32
  0
VERTEX
  5
4DA
  8
2
 62
0
 10
24.2406
 20
52.9296
 30
0
 70
32
  0
VERTEX
  5
4DB
  8
2
 62
0
 10
24.2338
 20
52.9308
 30
0
 70
32
  0
VERTEX
  5
4DC
  8
2
 62
0
 10
24.2269
 20
52.932
 30
0
 70
32
  0
VERTEX
  5
4DD
  8
2
 62
0
 10
24.22
 20
52.933
 30
0
 70
32
  0
VERTEX
  5
4DE
  8
2
 62
0
 10
24.213
 20
52.934
 30
0
 70
32
  0
VERTEX
  5
4DF
  8
2
 62
0
 10
24.2059
 20
52.9348
 30
0
 70
32
  0
VERTEX
  5
4E0
  8
2
 62
0
 10
24.1988
 20
52.9355
 30
0
 70
32
  0
VERTEX
  5
4E1
  8
2
 62
0
 10
24.1916
 20
52.9361
 30
0
 70
32
  0
VERTEX
  5
4E2
  8
2
 62
0
 10
24.1843
 20
52.9366
 30
0
 70
32
  0
VERTEX
  5
4E3
  8
2
 62
0
 10
24.177
 20
52.937
 30
0
 70
32
  0
VERTEX
  5
4E4
  8
2
 62
0
 10
24.1696
 20
52.9373
 30
0
 70
32
  0
VERTEX
  5
4E5
  8
2
 62
0
 10
24.1622
 20
52.9374
 30
0
 70
32
  0
VERTEX
  5
4E6
  8
2
 62
0
 10
24.1547
 20
52.9375
 30
0
 70
32
  0
VERTEX
  5
4E7
  8
2
 62
0
 10
24.1472
 20
52.9374
 30
0
 70
32
  0
VERTEX
  5
4E8
  8
2
 62
0
 10
24.1397
 20
52.9372
 30
0
 70
32
  0
VERTEX
  5
4E9
  8
2
 62
0
 10
24.1321
 20
52.937
 30
0
 70
32
  0
VERTEX
  5
4EA
  8
2
 62
0
 10
24.1246
 20
52.9365
 30
0
 70
32
  0
VERTEX
  5
4EB
  8
2
 62
0
 10
24.117
 20
52.936
 30
0
 70
32
  0
VERTEX
  5
4EC
  8
2
 62
0
 10
24.1094
 20
52.9354
 30
0
 70
32
  0
VERTEX
  5
4ED
  8
2
 62
0
 10
24.1018
 20
52.9347
 30
0
 70
32
  0
VERTEX
  5
4EE
  8
2
 62
0
 10
24.0941
 20
52.9338
 30
0
 70
32
  0
VERTEX
  5
4EF
  8
2
 62
0
 10
24.0865
 20
52.9329
 30
0
 70
32
  0
VERTEX
  5
4F0
  8
2
 62
0
 10
24.0789
 20
52.9318
 30
0
 70
32
  0
VERTEX
  5
4F1
  8
2
 62
0
 10
24.0713
 20
52.9306
 30
0
 70
32
  0
VERTEX
  5
4F2
  8
2
 62
0
 10
24.0637
 20
52.9294
 30
0
 70
32
  0
VERTEX
  5
4F3
  8
2
 62
0
 10
24.0562
 20
52.928
 30
0
 70
32
  0
VERTEX
  5
4F4
  8
2
 62
0
 10
24.0486
 20
52.9265
 30
0
 70
32
  0
VERTEX
  5
4F5
  8
2
 62
0
 10
24.0411
 20
52.9249
 30
0
 70
32
  0
VERTEX
  5
4F6
  8
2
 62
0
 10
24.0336
 20
52.9232
 30
0
 70
32
  0
VERTEX
  5
4F7
  8
2
 62
0
 10
24.0262
 20
52.9213
 30
0
 70
32
  0
VERTEX
  5
4F8
  8
2
 62
0
 10
24.0188
 20
52.9194
 30
0
 70
32
  0
VERTEX
  5
4F9
  8
2
 62
0
 10
24.0114
 20
52.9174
 30
0
 70
32
  0
VERTEX
  5
4FA
  8
2
 62
0
 10
24.0041
 20
52.9153
 30
0
 70
32
  0
VERTEX
  5
4FB
  8
2
 62
0
 10
23.9968
 20
52.9131
 30
0
 70
32
  0
VERTEX
  5
4FC
  8
2
 62
0
 10
23.9896
 20
52.9108
 30
0
 70
32
  0
VERTEX
  5
4FD
  8
2
 62
0
 10
23.9825
 20
52.9084
 30
0
 70
32
  0
VERTEX
  5
4FE
  8
2
 62
0
 10
23.9754
 20
52.9059
 30
0
 70
32
  0
VERTEX
  5
4FF
  8
2
 62
0
 10
23.9685
 20
52.9033
 30
0
 70
32
  0
VERTEX
  5
500
  8
2
 62
0
 10
23.9615
 20
52.9006
 30
0
 70
32
  0
VERTEX
  5
501
  8
2
 62
0
 10
23.9547
 20
52.8978
 30
0
 70
32
  0
VERTEX
  5
502
  8
2
 62
0
 10
23.948
 20
52.8949
 30
0
 70
32
  0
VERTEX
  5
503
  8
2
 62
0
 10
23.9413
 20
52.892
 30
0
 70
32
  0
VERTEX
  5
504
  8
2
 62
0
 10
23.9347
 20
52.889
 30
0
 70
32
  0
VERTEX
  5
505
  8
2
 62
0
 10
23.9283
 20
52.8858
 30
0
 70
32
  0
VERTEX
  5
506
  8
2
 62
0
 10
23.9219
 20
52.8826
 30
0
 70
32
  0
VERTEX
  5
507
  8
2
 62
0
 10
23.9156
 20
52.8794
 30
0
 70
32
  0
VERTEX
  5
508
  8
2
 62
0
 10
23.9095
 20
52.876
 30
0
 70
32
  0
VERTEX
  5
509
  8
2
 62
0
 10
23.9034
 20
52.8726
 30
0
 70
32
  0
VERTEX
  5
50A
  8
2
 62
0
 10
23.8975
 20
52.8691
 30
0
 70
32
  0
VERTEX
  5
50B
  8
2
 62
0
 10
23.8917
 20
52.8655
 30
0
 70
32
  0
VERTEX
  5
50C
  8
2
 62
0
 10
23.886
 20
52.8618
 30
0
 70
32
  0
VERTEX
  5
50D
  8
2
 62
0
 10
23.8804
 20
52.8581
 30
0
 70
32
  0
VERTEX
  5
50E
  8
2
 62
0
 10
23.875
 20
52.8543
 30
0
 70
32
  0
VERTEX
  5
50F
  8
2
 62
0
 10
23.8697
 20
52.8505
 30
0
 70
32
  0
VERTEX
  5
510
  8
2
 62
0
 10
23.8645
 20
52.8466
 30
0
 70
32
  0
VERTEX
  5
511
  8
2
 62
0
 10
23.8595
 20
52.8426
 30
0
 70
32
  0
VERTEX
  5
512
  8
2
 62
0
 10
23.8546
 20
52.8386
 30
0
 70
32
  0
VERTEX
  5
513
  8
2
 62
0
 10
23.8499
 20
52.8346
 30
0
 70
32
  0
VERTEX
  5
514
  8
2
 62
0
 10
23.8453
 20
52.8305
 30
0
 70
32
  0
VERTEX
  5
515
  8
2
 62
0
 10
23.8408
 20
52.8263
 30
0
 70
32
  0
VERTEX
  5
516
  8
2
 62
0
 10
23.8365
 20
52.8221
 30
0
 70
32
  0
VERTEX
  5
517
  8
2
 62
0
 10
23.8324
 20
52.8178
 30
0
 70
32
  0
VERTEX
  5
518
  8
2
 62
0
 10
23.8284
 20
52.8135
 30
0
 70
32
  0
VERTEX
  5
519
  8
2
 62
0
 10
23.8246
 20
52.8092
 30
0
 70
32
  0
VERTEX
  5
51A
  8
2
 62
0
 10
23.821
 20
52.8048
 30
0
 70
32
  0
VERTEX
  5
51B
  8
2
 62
0
 10
23.8175
 20
52.8005
 30
0
 70
32
  0
VERTEX
  5
51C
  8
2
 62
0
 10
23.8142
 20
52.796
 30
0
 70
32
  0
VERTEX
  5
51D
  8
2
 62
0
 10
23.811
 20
52.7916
 30
0
 70
32
  0
VERTEX
  5
51E
  8
2
 62
0
 10
23.808
 20
52.7871
 30
0
 70
32
  0
VERTEX
  5
51F
  8
2
 62
0
 10
23.8052
 20
52.7826
 30
0
 70
32
  0
VERTEX
  5
520
  8
2
 62
0
 10
23.8026
 20
52.7781
 30
0
 70
32
  0
VERTEX
  5
521
  8
2
 62
0
 10
23.8001
 20
52.7735
 30
0
 70
32
  0
VERTEX
  5
522
  8
2
 62
0
 10
23.7979
 20
52.769
 30
0
 70
32
  0
VERTEX
  5
523
  8
2
 62
0
 10
23.7958
 20
52.7644
 30
0
 70
32
  0
VERTEX
  5
524
  8
2
 62
0
 10
23.7938
 20
52.7599
 30
0
 70
32
  0
VERTEX
  5
525
  8
2
 62
0
 10
23.7921
 20
52.7553
 30
0
 70
32
  0
VERTEX
  5
526
  8
2
 62
0
 10
23.7906
 20
52.7507
 30
0
 70
32
  0
VERTEX
  5
527
  8
2
 62
0
 10
23.7892
 20
52.7461
 30
0
 70
32
  0
VERTEX
  5
528
  8
2
 62
0
 10
23.788
 20
52.7416
 30
0
 70
32
  0
VERTEX
  5
529
  8
2
 62
0
 10
23.787
 20
52.737
 30
0
 70
32
  0
VERTEX
  5
52A
  8
2
 62
0
 10
23.7862
 20
52.7325
 30
0
 70
32
  0
VERTEX
  5
52B
  8
2
 62
0
 10
23.7856
 20
52.7279
 30
0
 70
32
  0
VERTEX
  5
52C
  8
2
 62
0
 10
23.7851
 20
52.7234
 30
0
 70
32
  0
VERTEX
  5
52D
  8
2
 62
0
 10
23.7849
 20
52.7189
 30
0
 70
32
  0
VERTEX
  5
52E
  8
2
 62
0
 10
23.7848
 20
52.7144
 30
0
 70
32
  0
VERTEX
  5
52F
  8
2
 62
0
 10
23.7849
 20
52.7099
 30
0
 70
32
  0
VERTEX
  5
530
  8
2
 62
0
 10
23.7852
 20
52.7054
 30
0
 70
32
  0
VERTEX
  5
531
  8
2
 62
0
 10
23.7857
 20
52.701
 30
0
 70
32
  0
VERTEX
  5
532
  8
2
 62
0
 10
23.7864
 20
52.6966
 30
0
 70
32
  0
SEQEND
  5
533
  8
0
  0
LINE
  5
3CC
  8
2
  6
CONTINUOUS
 62
0
 10
23.919747218179189
 20
51.940289580621069
 30
0
 11
23.786385218179191
 21
52.696622580621053
 31
0
  0
LINE
  5
3CD
  8
2
  6
CONTINUOUS
 62
0
 10
24.537308218179192
 20
52.049182580621057
 30
0
 11
24.403946218179211
 21
52.805514580621079
 31
0
  0
POLYLINE
  5
3CE
  8
2
  6
CONTINUOUS
 62
0
 66
1
 70
8
  0
VERTEX
  5
534
  8
2
 62
0
 10
24.6546
 20
52.2559
 30
0
 70
32
  0
VERTEX
  5
535
  8
2
 62
0
 10
24.6587
 20
52.2526
 30
0
 70
32
  0
VERTEX
  5
536
  8
2
 62
0
 10
24.663
 20
52.2494
 30
0
 70
32
  0
VERTEX
  5
537
  8
2
 62
0
 10
24.6675
 20
52.2463
 30
0
 70
32
  0
VERTEX
  5
538
  8
2
 62
0
 10
24.672
 20
52.2432
 30
0
 70
32
  0
VERTEX
  5
539
  8
2
 62
0
 10
24.6768
 20
52.2403
 30
0
 70
32
  0
VERTEX
  5
53A
  8
2
 62
0
 10
24.6816
 20
52.2374
 30
0
 70
32
  0
VERTEX
  5
53B
  8
2
 62
0
 10
24.6867
 20
52.2346
 30
0
 70
32
  0
VERTEX
  5
53C
  8
2
 62
0
 10
24.6918
 20
52.2319
 30
0
 70
32
  0
VERTEX
  5
53D
  8
2
 62
0
 10
24.6971
 20
52.2293
 30
0
 70
32
  0
VERTEX
  5
53E
  8
2
 62
0
 10
24.7025
 20
52.2267
 30
0
 70
32
  0
VERTEX
  5
53F
  8
2
 62
0
 10
24.7081
 20
52.2243
 30
0
 70
32
  0
VERTEX
  5
540
  8
2
 62
0
 10
24.7138
 20
52.222
 30
0
 70
32
  0
VERTEX
  5
541
  8
2
 62
0
 10
24.7196
 20
52.2198
 30
0
 70
32
  0
VERTEX
  5
542
  8
2
 62
0
 10
24.7255
 20
52.2176
 30
0
 70
32
  0
VERTEX
  5
543
  8
2
 62
0
 10
24.7315
 20
52.2156
 30
0
 70
32
  0
VERTEX
  5
544
  8
2
 62
0
 10
24.7377
 20
52.2137
 30
0
 70
32
  0
VERTEX
  5
545
  8
2
 62
0
 10
24.7439
 20
52.2118
 30
0
 70
32
  0
VERTEX
  5
546
  8
2
 62
0
 10
24.7503
 20
52.2101
 30
0
 70
32
  0
VERTEX
  5
547
  8
2
 62
0
 10
24.7568
 20
52.2085
 30
0
 70
32
  0
VERTEX
  5
548
  8
2
 62
0
 10
24.7633
 20
52.207
 30
0
 70
32
  0
VERTEX
  5
549
  8
2
 62
0
 10
24.77
 20
52.2056
 30
0
 70
32
  0
VERTEX
  5
54A
  8
2
 62
0
 10
24.7767
 20
52.2043
 30
0
 70
32
  0
VERTEX
  5
54B
  8
2
 62
0
 10
24.7836
 20
52.2031
 30
0
 70
32
  0
VERTEX
  5
54C
  8
2
 62
0
 10
24.7905
 20
52.202
 30
0
 70
32
  0
VERTEX
  5
54D
  8
2
 62
0
 10
24.7975
 20
52.201
 30
0
 70
32
  0
VERTEX
  5
54E
  8
2
 62
0
 10
24.8045
 20
52.2001
 30
0
 70
32
  0
VERTEX
  5
54F
  8
2
 62
0
 10
24.8116
 20
52.1994
 30
0
 70
32
  0
VERTEX
  5
550
  8
2
 62
0
 10
24.8188
 20
52.1987
 30
0
 70
32
  0
VERTEX
  5
551
  8
2
 62
0
 10
24.8261
 20
52.1982
 30
0
 70
32
  0
VERTEX
  5
552
  8
2
 62
0
 10
24.8334
 20
52.1978
 30
0
 70
32
  0
VERTEX
  5
553
  8
2
 62
0
 10
24.8407
 20
52.1975
 30
0
 70
32
  0
VERTEX
  5
554
  8
2
 62
0
 10
24.8481
 20
52.1973
 30
0
 70
32
  0
VERTEX
  5
555
  8
2
 62
0
 10
24.8556
 20
52.1972
 30
0
 70
32
  0
VERTEX
  5
556
  8
2
 62
0
 10
24.8631
 20
52.1972
 30
0
 70
32
  0
VERTEX
  5
557
  8
2
 62
0
 10
24.8706
 20
52.1973
 30
0
 70
32
  0
VERTEX
  5
558
  8
2
 62
0
 10
24.8781
 20
52.1976
 30
0
 70
32
  0
VERTEX
  5
559
  8
2
 62
0
 10
24.8857
 20
52.198
 30
0
 70
32
  0
VERTEX
  5
55A
  8
2
 62
0
 10
24.8933
 20
52.1984
 30
0
 70
32
  0
VERTEX
  5
55B
  8
2
 62
0
 10
24.9009
 20
52.199
 30
0
 70
32
  0
VERTEX
  5
55C
  8
2
 62
0
 10
24.9085
 20
52.1997
 30
0
 70
32
  0
VERTEX
  5
55D
  8
2
 62
0
 10
24.9161
 20
52.2005
 30
0
 70
32
  0
VERTEX
  5
55E
  8
2
 62
0
 10
24.9237
 20
52.2014
 30
0
 70
32
  0
VERTEX
  5
55F
  8
2
 62
0
 10
24.9313
 20
52.2025
 30
0
 70
32
  0
VERTEX
  5
560
  8
2
 62
0
 10
24.9389
 20
52.2036
 30
0
 70
32
  0
VERTEX
  5
561
  8
2
 62
0
 10
24.9465
 20
52.2048
 30
0
 70
32
  0
VERTEX
  5
562
  8
2
 62
0
 10
24.9541
 20
52.2062
 30
0
 70
32
  0
VERTEX
  5
563
  8
2
 62
0
 10
24.9617
 20
52.2077
 30
0
 70
32
  0
VERTEX
  5
564
  8
2
 62
0
 10
24.9692
 20
52.2092
 30
0
 70
32
  0
VERTEX
  5
565
  8
2
 62
0
 10
24.9767
 20
52.2109
 30
0
 70
32
  0
VERTEX
  5
566
  8
2
 62
0
 10
24.9841
 20
52.2127
 30
0
 70
32
  0
VERTEX
  5
567
  8
2
 62
0
 10
24.9916
 20
52.2146
 30
0
 70
32
  0
VERTEX
  5
568
  8
2
 62
0
 10
24.9989
 20
52.2165
 30
0
 70
32
  0
VERTEX
  5
569
  8
2
 62
0
 10
25.0063
 20
52.2186
 30
0
 70
32
  0
VERTEX
  5
56A
  8
2
 62
0
 10
25.0135
 20
52.2208
 30
0
 70
32
  0
VERTEX
  5
56B
  8
2
 62
0
 10
25.0208
 20
52.2231
 30
0
 70
32
  0
VERTEX
  5
56C
  8
2
 62
0
 10
25.0279
 20
52.2254
 30
0
 70
32
  0
VERTEX
  5
56D
  8
2
 62
0
 10
25.035
 20
52.2279
 30
0
 70
32
  0
VERTEX
  5
56E
  8
2
 62
0
 10
25.042
 20
52.2305
 30
0
 70
32
  0
VERTEX
  5
56F
  8
2
 62
0
 10
25.049
 20
52.2331
 30
0
 70
32
  0
VERTEX
  5
570
  8
2
 62
0
 10
25.0558
 20
52.2359
 30
0
 70
32
  0
VERTEX
  5
571
  8
2
 62
0
 10
25.0626
 20
52.2387
 30
0
 70
32
  0
VERTEX
  5
572
  8
2
 62
0
 10
25.0693
 20
52.2416
 30
0
 70
32
  0
VERTEX
  5
573
  8
2
 62
0
 10
25.0759
 20
52.2446
 30
0
 70
32
  0
VERTEX
  5
574
  8
2
 62
0
 10
25.0824
 20
52.2477
 30
0
 70
32
  0
VERTEX
  5
575
  8
2
 62
0
 10
25.0888
 20
52.2509
 30
0
 70
32
  0
VERTEX
  5
576
  8
2
 62
0
 10
25.0951
 20
52.2542
 30
0
 70
32
  0
VERTEX
  5
577
  8
2
 62
0
 10
25.1013
 20
52.2575
 30
0
 70
32
  0
VERTEX
  5
578
  8
2
 62
0
 10
25.1074
 20
52.2609
 30
0
 70
32
  0
VERTEX
  5
579
  8
2
 62
0
 10
25.1134
 20
52.2644
 30
0
 70
32
  0
VERTEX
  5
57A
  8
2
 62
0
 10
25.1192
 20
52.2679
 30
0
 70
32
  0
VERTEX
  5
57B
  8
2
 62
0
 10
25.125
 20
52.2716
 30
0
 70
32
  0
VERTEX
  5
57C
  8
2
 62
0
 10
25.1306
 20
52.2753
 30
0
 70
32
  0
VERTEX
  5
57D
  8
2
 62
0
 10
25.136
 20
52.279
 30
0
 70
32
  0
VERTEX
  5
57E
  8
2
 62
0
 10
25.1414
 20
52.2828
 30
0
 70
32
  0
VERTEX
  5
57F
  8
2
 62
0
 10
25.1466
 20
52.2867
 30
0
 70
32
  0
VERTEX
  5
580
  8
2
 62
0
 10
25.1517
 20
52.2906
 30
0
 70
32
  0
VERTEX
  5
581
  8
2
 62
0
 10
25.1566
 20
52.2946
 30
0
 70
32
  0
VERTEX
  5
582
  8
2
 62
0
 10
25.1614
 20
52.2987
 30
0
 70
32
  0
VERTEX
  5
583
  8
2
 62
0
 10
25.166
 20
52.3028
 30
0
 70
32
  0
VERTEX
  5
584
  8
2
 62
0
 10
25.1705
 20
52.3069
 30
0
 70
32
  0
VERTEX
  5
585
  8
2
 62
0
 10
25.1749
 20
52.3111
 30
0
 70
32
  0
VERTEX
  5
586
  8
2
 62
0
 10
25.1791
 20
52.3154
 30
0
 70
32
  0
VERTEX
  5
587
  8
2
 62
0
 10
25.1831
 20
52.3196
 30
0
 70
32
  0
VERTEX
  5
588
  8
2
 62
0
 10
25.187
 20
52.324
 30
0
 70
32
  0
VERTEX
  5
589
  8
2
 62
0
 10
25.1907
 20
52.3283
 30
0
 70
32
  0
VERTEX
  5
58A
  8
2
 62
0
 10
25.1942
 20
52.3327
 30
0
 70
32
  0
VERTEX
  5
58B
  8
2
 62
0
 10
25.1976
 20
52.3371
 30
0
 70
32
  0
VERTEX
  5
58C
  8
2
 62
0
 10
25.2008
 20
52.3416
 30
0
 70
32
  0
VERTEX
  5
58D
  8
2
 62
0
 10
25.2038
 20
52.346
 30
0
 70
32
  0
VERTEX
  5
58E
  8
2
 62
0
 10
25.2067
 20
52.3505
 30
0
 70
32
  0
VERTEX
  5
58F
  8
2
 62
0
 10
25.2094
 20
52.355
 30
0
 70
32
  0
VERTEX
  5
590
  8
2
 62
0
 10
25.2119
 20
52.3596
 30
0
 70
32
  0
VERTEX
  5
591
  8
2
 62
0
 10
25.2142
 20
52.3641
 30
0
 70
32
  0
VERTEX
  5
592
  8
2
 62
0
 10
25.2164
 20
52.3687
 30
0
 70
32
  0
VERTEX
  5
593
  8
2
 62
0
 10
25.2184
 20
52.3732
 30
0
 70
32
  0
VERTEX
  5
594
  8
2
 62
0
 10
25.2202
 20
52.3778
 30
0
 70
32
  0
VERTEX
  5
595
  8
2
 62
0
 10
25.2218
 20
52.3824
 30
0
 70
32
  0
VERTEX
  5
596
  8
2
 62
0
 10
25.2232
 20
52.3869
 30
0
 70
32
  0
VERTEX
  5
597
  8
2
 62
0
 10
25.2245
 20
52.3915
 30
0
 70
32
  0
VERTEX
  5
598
  8
2
 62
0
 10
25.2255
 20
52.3961
 30
0
 70
32
  0
VERTEX
  5
599
  8
2
 62
0
 10
25.2264
 20
52.4006
 30
0
 70
32
  0
VERTEX
  5
59A
  8
2
 62
0
 10
25.2271
 20
52.4052
 30
0
 70
32
  0
VERTEX
  5
59B
  8
2
 62
0
 10
25.2276
 20
52.4097
 30
0
 70
32
  0
VERTEX
  5
59C
  8
2
 62
0
 10
25.2279
 20
52.4143
 30
0
 70
32
  0
VERTEX
  5
59D
  8
2
 62
0
 10
25.2281
 20
52.4188
 30
0
 70
32
  0
VERTEX
  5
59E
  8
2
 62
0
 10
25.228
 20
52.4232
 30
0
 70
32
  0
VERTEX
  5
59F
  8
2
 62
0
 10
25.2278
 20
52.4277
 30
0
 70
32
  0
VERTEX
  5
5A0
  8
2
 62
0
 10
25.2273
 20
52.4321
 30
0
 70
32
  0
VERTEX
  5
5A1
  8
2
 62
0
 10
25.2267
 20
52.4365
 30
0
 70
32
  0
VERTEX
  5
5A2
  8
2
 62
0
 10
25.2259
 20
52.4409
 30
0
 70
32
  0
VERTEX
  5
5A3
  8
2
 62
0
 10
25.2249
 20
52.4452
 30
0
 70
32
  0
VERTEX
  5
5A4
  8
2
 62
0
 10
25.2238
 20
52.4495
 30
0
 70
32
  0
VERTEX
  5
5A5
  8
2
 62
0
 10
25.2224
 20
52.4538
 30
0
 70
32
  0
VERTEX
  5
5A6
  8
2
 62
0
 10
25.2209
 20
52.458
 30
0
 70
32
  0
VERTEX
  5
5A7
  8
2
 62
0
 10
25.2192
 20
52.4622
 30
0
 70
32
  0
VERTEX
  5
5A8
  8
2
 62
0
 10
25.2172
 20
52.4663
 30
0
 70
32
  0
VERTEX
  5
5A9
  8
2
 62
0
 10
25.2152
 20
52.4704
 30
0
 70
32
  0
VERTEX
  5
5AA
  8
2
 62
0
 10
25.2129
 20
52.4744
 30
0
 70
32
  0
VERTEX
  5
5AB
  8
2
 62
0
 10
25.2105
 20
52.4784
 30
0
 70
32
  0
VERTEX
  5
5AC
  8
2
 62
0
 10
25.2078
 20
52.4823
 30
0
 70
32
  0
VERTEX
  5
5AD
  8
2
 62
0
 10
25.2051
 20
52.4861
 30
0
 70
32
  0
VERTEX
  5
5AE
  8
2
 62
0
 10
25.2021
 20
52.4899
 30
0
 70
32
  0
VERTEX
  5
5AF
  8
2
 62
0
 10
25.1989
 20
52.4937
 30
0
 70
32
  0
VERTEX
  5
5B0
  8
2
 62
0
 10
25.1956
 20
52.4973
 30
0
 70
32
  0
VERTEX
  5
5B1
  8
2
 62
0
 10
25.1922
 20
52.5009
 30
0
 70
32
  0
VERTEX
  5
5B2
  8
2
 62
0
 10
25.1885
 20
52.5044
 30
0
 70
32
  0
VERTEX
  5
5B3
  8
2
 62
0
 10
25.1847
 20
52.5079
 30
0
 70
32
  0
VERTEX
  5
5B4
  8
2
 62
0
 10
25.1808
 20
52.5112
 30
0
 70
32
  0
SEQEND
  5
5B5
  8
0
  0
LINE
  5
3CF
  8
2
  6
CONTINUOUS
 62
0
 10
24.7032562181792
 20
52.226422580621062
 30
0
 11
24.4891922181792
 21
52.32206058062107
 31
0
  0
LINE
  5
3D0
  8
2
  6
CONTINUOUS
 62
0
 10
20.74857121817919
 20
50.941837580621069
 30
0
 11
26.01607621817919
 21
55.361798580621048
 31
0
  0
POLYLINE
  5
3D1
  8
2
  6
CONTINUOUS
 62
0
 66
1
 70
8
  0
VERTEX
  5
5B6
  8
2
 62
0
 10
79.1685
 20
32.131
 30
0
 70
32
  0
VERTEX
  5
5B7
  8
2
 62
0
 10
79.1666
 20
32.1397
 30
0
 70
32
  0
VERTEX
  5
5B8
  8
2
 62
0
 10
79.1639
 20
32.1482
 30
0
 70
32
  0
VERTEX
  5
5B9
  8
2
 62
0
 10
79.1605
 20
32.1566
 30
0
 70
32
  0
VERTEX
  5
5BA
  8
2
 62
0
 10
79.1564
 20
32.1647
 30
0
 70
32
  0
VERTEX
  5
5BB
  8
2
 62
0
 10
79.1516
 20
32.1727
 30
0
 70
32
  0
VERTEX
  5
5BC
  8
2
 62
0
 10
79.146
 20
32.1804
 30
0
 70
32
  0
VERTEX
  5
5BD
  8
2
 62
0
 10
79.1398
 20
32.1879
 30
0
 70
32
  0
VERTEX
  5
5BE
  8
2
 62
0
 10
79.1329
 20
32.1951
 30
0
 70
32
  0
VERTEX
  5
5BF
  8
2
 62
0
 10
79.1254
 20
32.202
 30
0
 70
32
  0
VERTEX
  5
5C0
  8
2
 62
0
 10
79.1172
 20
32.2086
 30
0
 70
32
  0
VERTEX
  5
5C1
  8
2
 62
0
 10
79.1084
 20
32.2149
 30
0
 70
32
  0
VERTEX
  5
5C2
  8
2
 62
0
 10
79.099
 20
32.2209
 30
0
 70
32
  0
VERTEX
  5
5C3
  8
2
 62
0
 10
79.089
 20
32.2265
 30
0
 70
32
  0
VERTEX
  5
5C4
  8
2
 62
0
 10
79.0784
 20
32.2318
 30
0
 70
32
  0
VERTEX
  5
5C5
  8
2
 62
0
 10
79.0674
 20
32.2366
 30
0
 70
32
  0
VERTEX
  5
5C6
  8
2
 62
0
 10
79.0558
 20
32.2411
 30
0
 70
32
  0
VERTEX
  5
5C7
  8
2
 62
0
 10
79.0438
 20
32.2452
 30
0
 70
32
  0
VERTEX
  5
5C8
  8
2
 62
0
 10
79.0313
 20
32.2489
 30
0
 70
32
  0
VERTEX
  5
5C9
  8
2
 62
0
 10
79.0184
 20
32.2522
 30
0
 70
32
  0
VERTEX
  5
5CA
  8
2
 62
0
 10
79.0051
 20
32.2551
 30
0
 70
32
  0
VERTEX
  5
5CB
  8
2
 62
0
 10
78.9915
 20
32.2575
 30
0
 70
32
  0
VERTEX
  5
5CC
  8
2
 62
0
 10
78.9775
 20
32.2595
 30
0
 70
32
  0
VERTEX
  5
5CD
  8
2
 62
0
 10
78.9633
 20
32.261
 30
0
 70
32
  0
VERTEX
  5
5CE
  8
2
 62
0
 10
78.9488
 20
32.2621
 30
0
 70
32
  0
VERTEX
  5
5CF
  8
2
 62
0
 10
78.9341
 20
32.2628
 30
0
 70
32
  0
VERTEX
  5
5D0
  8
2
 62
0
 10
78.9192
 20
32.263
 30
0
 70
32
  0
VERTEX
  5
5D1
  8
2
 62
0
 10
78.9042
 20
32.2627
 30
0
 70
32
  0
VERTEX
  5
5D2
  8
2
 62
0
 10
78.8891
 20
32.262
 30
0
 70
32
  0
VERTEX
  5
5D3
  8
2
 62
0
 10
78.8739
 20
32.2609
 30
0
 70
32
  0
VERTEX
  5
5D4
  8
2
 62
0
 10
78.8587
 20
32.2593
 30
0
 70
32
  0
VERTEX
  5
5D5
  8
2
 62
0
 10
78.8434
 20
32.2573
 30
0
 70
32
  0
VERTEX
  5
5D6
  8
2
 62
0
 10
78.8282
 20
32.2549
 30
0
 70
32
  0
VERTEX
  5
5D7
  8
2
 62
0
 10
78.8131
 20
32.252
 30
0
 70
32
  0
VERTEX
  5
5D8
  8
2
 62
0
 10
78.7981
 20
32.2487
 30
0
 70
32
  0
VERTEX
  5
5D9
  8
2
 62
0
 10
78.7833
 20
32.2449
 30
0
 70
32
  0
VERTEX
  5
5DA
  8
2
 62
0
 10
78.7686
 20
32.2408
 30
0
 70
32
  0
VERTEX
  5
5DB
  8
2
 62
0
 10
78.7542
 20
32.2363
 30
0
 70
32
  0
VERTEX
  5
5DC
  8
2
 62
0
 10
78.74
 20
32.2314
 30
0
 70
32
  0
VERTEX
  5
5DD
  8
2
 62
0
 10
78.7261
 20
32.2261
 30
0
 70
32
  0
VERTEX
  5
5DE
  8
2
 62
0
 10
78.7125
 20
32.2204
 30
0
 70
32
  0
VERTEX
  5
5DF
  8
2
 62
0
 10
78.6992
 20
32.2145
 30
0
 70
32
  0
VERTEX
  5
5E0
  8
2
 62
0
 10
78.6864
 20
32.2081
 30
0
 70
32
  0
VERTEX
  5
5E1
  8
2
 62
0
 10
78.674
 20
32.2015
 30
0
 70
32
  0
VERTEX
  5
5E2
  8
2
 62
0
 10
78.662
 20
32.1946
 30
0
 70
32
  0
VERTEX
  5
5E3
  8
2
 62
0
 10
78.6505
 20
32.1873
 30
0
 70
32
  0
VERTEX
  5
5E4
  8
2
 62
0
 10
78.6395
 20
32.1798
 30
0
 70
32
  0
VERTEX
  5
5E5
  8
2
 62
0
 10
78.629
 20
32.1721
 30
0
 70
32
  0
VERTEX
  5
5E6
  8
2
 62
0
 10
78.6191
 20
32.1641
 30
0
 70
32
  0
VERTEX
  5
5E7
  8
2
 62
0
 10
78.6098
 20
32.156
 30
0
 70
32
  0
VERTEX
  5
5E8
  8
2
 62
0
 10
78.6011
 20
32.1476
 30
0
 70
32
  0
VERTEX
  5
5E9
  8
2
 62
0
 10
78.5929
 20
32.139
 30
0
 70
32
  0
VERTEX
  5
5EA
  8
2
 62
0
 10
78.5855
 20
32.1303
 30
0
 70
32
  0
VERTEX
  5
5EB
  8
2
 62
0
 10
78.5787
 20
32.1215
 30
0
 70
32
  0
VERTEX
  5
5EC
  8
2
 62
0
 10
78.5725
 20
32.1126
 30
0
 70
32
  0
VERTEX
  5
5ED
  8
2
 62
0
 10
78.5671
 20
32.1036
 30
0
 70
32
  0
VERTEX
  5
5EE
  8
2
 62
0
 10
78.5624
 20
32.0945
 30
0
 70
32
  0
VERTEX
  5
5EF
  8
2
 62
0
 10
78.5584
 20
32.0854
 30
0
 70
32
  0
VERTEX
  5
5F0
  8
2
 62
0
 10
78.5551
 20
32.0762
 30
0
 70
32
  0
VERTEX
  5
5F1
  8
2
 62
0
 10
78.5525
 20
32.0671
 30
0
 70
32
  0
VERTEX
  5
5F2
  8
2
 62
0
 10
78.5507
 20
32.0579
 30
0
 70
32
  0
VERTEX
  5
5F3
  8
2
 62
0
 10
78.5496
 20
32.0489
 30
0
 70
32
  0
VERTEX
  5
5F4
  8
2
 62
0
 10
78.5493
 20
32.0399
 30
0
 70
32
  0
VERTEX
  5
5F5
  8
2
 62
0
 10
78.5497
 20
32.0309
 30
0
 70
32
  0
VERTEX
  5
5F6
  8
2
 62
0
 10
78.5509
 20
32.0221
 30
0
 70
32
  0
VERTEX
  5
5F7
  8
2
 62
0
 10
78.5528
 20
32.0134
 30
0
 70
32
  0
VERTEX
  5
5F8
  8
2
 62
0
 10
78.5555
 20
32.0049
 30
0
 70
32
  0
VERTEX
  5
5F9
  8
2
 62
0
 10
78.5589
 20
31.9966
 30
0
 70
32
  0
VERTEX
  5
5FA
  8
2
 62
0
 10
78.563
 20
31.9884
 30
0
 70
32
  0
VERTEX
  5
5FB
  8
2
 62
0
 10
78.5678
 20
31.9804
 30
0
 70
32
  0
VERTEX
  5
5FC
  8
2
 62
0
 10
78.5733
 20
31.9727
 30
0
 70
32
  0
VERTEX
  5
5FD
  8
2
 62
0
 10
78.5795
 20
31.9652
 30
0
 70
32
  0
VERTEX
  5
5FE
  8
2
 62
0
 10
78.5864
 20
31.958
 30
0
 70
32
  0
VERTEX
  5
5FF
  8
2
 62
0
 10
78.594
 20
31.9511
 30
0
 70
32
  0
VERTEX
  5
600
  8
2
 62
0
 10
78.6022
 20
31.9445
 30
0
 70
32
  0
VERTEX
  5
601
  8
2
 62
0
 10
78.611
 20
31.9382
 30
0
 70
32
  0
VERTEX
  5
602
  8
2
 62
0
 10
78.6204
 20
31.9322
 30
0
 70
32
  0
VERTEX
  5
603
  8
2
 62
0
 10
78.6304
 20
31.9266
 30
0
 70
32
  0
VERTEX
  5
604
  8
2
 62
0
 10
78.6409
 20
31.9214
 30
0
 70
32
  0
VERTEX
  5
605
  8
2
 62
0
 10
78.652
 20
31.9165
 30
0
 70
32
  0
VERTEX
  5
606
  8
2
 62
0
 10
78.6636
 20
31.912
 30
0
 70
32
  0
VERTEX
  5
607
  8
2
 62
0
 10
78.6756
 20
31.9079
 30
0
 70
32
  0
VERTEX
  5
608
  8
2
 62
0
 10
78.6881
 20
31.9042
 30
0
 70
32
  0
VERTEX
  5
609
  8
2
 62
0
 10
78.701
 20
31.9009
 30
0
 70
32
  0
VERTEX
  5
60A
  8
2
 62
0
 10
78.7143
 20
31.8981
 30
0
 70
32
  0
VERTEX
  5
60B
  8
2
 62
0
 10
78.7279
 20
31.8957
 30
0
 70
32
  0
VERTEX
  5
60C
  8
2
 62
0
 10
78.7419
 20
31.8937
 30
0
 70
32
  0
VERTEX
  5
60D
  8
2
 62
0
 10
78.7561
 20
31.8921
 30
0
 70
32
  0
VERTEX
  5
60E
  8
2
 62
0
 10
78.7706
 20
31.891
 30
0
 70
32
  0
VERTEX
  5
60F
  8
2
 62
0
 10
78.7853
 20
31.8904
 30
0
 70
32
  0
VERTEX
  5
610
  8
2
 62
0
 10
78.8001
 20
31.8902
 30
0
 70
32
  0
VERTEX
  5
611
  8
2
 62
0
 10
78.8152
 20
31.8904
 30
0
 70
32
  0
VERTEX
  5
612
  8
2
 62
0
 10
78.8303
 20
31.8911
 30
0
 70
32
  0
VERTEX
  5
613
  8
2
 62
0
 10
78.8455
 20
31.8922
 30
0
 70
32
  0
VERTEX
  5
614
  8
2
 62
0
 10
78.8607
 20
31.8938
 30
0
 70
32
  0
VERTEX
  5
615
  8
2
 62
0
 10
78.8759
 20
31.8958
 30
0
 70
32
  0
VERTEX
  5
616
  8
2
 62
0
 10
78.8911
 20
31.8983
 30
0
 70
32
  0
VERTEX
  5
617
  8
2
 62
0
 10
78.9062
 20
31.9012
 30
0
 70
32
  0
VERTEX
  5
618
  8
2
 62
0
 10
78.9212
 20
31.9045
 30
0
 70
32
  0
VERTEX
  5
619
  8
2
 62
0
 10
78.9361
 20
31.9082
 30
0
 70
32
  0
VERTEX
  5
61A
  8
2
 62
0
 10
78.9508
 20
31.9123
 30
0
 70
32
  0
VERTEX
  5
61B
  8
2
 62
0
 10
78.9652
 20
31.9169
 30
0
 70
32
  0
VERTEX
  5
61C
  8
2
 62
0
 10
78.9794
 20
31.9218
 30
0
 70
32
  0
VERTEX
  5
61D
  8
2
 62
0
 10
78.9933
 20
31.927
 30
0
 70
32
  0
VERTEX
  5
61E
  8
2
 62
0
 10
79.0069
 20
31.9327
 30
0
 70
32
  0
VERTEX
  5
61F
  8
2
 62
0
 10
79.0201
 20
31.9387
 30
0
 70
32
  0
VERTEX
  5
620
  8
2
 62
0
 10
79.033
 20
31.945
 30
0
 70
32
  0
VERTEX
  5
621
  8
2
 62
0
 10
79.0454
 20
31.9516
 30
0
 70
32
  0
VERTEX
  5
622
  8
2
 62
0
 10
79.0574
 20
31.9586
 30
0
 70
32
  0
VERTEX
  5
623
  8
2
 62
0
 10
79.0689
 20
31.9658
 30
0
 70
32
  0
VERTEX
  5
624
  8
2
 62
0
 10
79.0799
 20
31.9733
 30
0
 70
32
  0
VERTEX
  5
625
  8
2
 62
0
 10
79.0903
 20
31.981
 30
0
 70
32
  0
VERTEX
  5
626
  8
2
 62
0
 10
79.1003
 20
31.989
 30
0
 70
32
  0
VERTEX
  5
627
  8
2
 62
0
 10
79.1096
 20
31.9972
 30
0
 70
32
  0
VERTEX
  5
628
  8
2
 62
0
 10
79.1183
 20
32.0056
 30
0
 70
32
  0
VERTEX
  5
629
  8
2
 62
0
 10
79.1264
 20
32.0141
 30
0
 70
32
  0
VERTEX
  5
62A
  8
2
 62
0
 10
79.1339
 20
32.0228
 30
0
 70
32
  0
VERTEX
  5
62B
  8
2
 62
0
 10
79.1407
 20
32.0316
 30
0
 70
32
  0
VERTEX
  5
62C
  8
2
 62
0
 10
79.1468
 20
32.0405
 30
0
 70
32
  0
VERTEX
  5
62D
  8
2
 62
0
 10
79.1523
 20
32.0496
 30
0
 70
32
  0
VERTEX
  5
62E
  8
2
 62
0
 10
79.157
 20
32.0586
 30
0
 70
32
  0
VERTEX
  5
62F
  8
2
 62
0
 10
79.161
 20
32.0678
 30
0
 70
32
  0
VERTEX
  5
630
  8
2
 62
0
 10
79.1643
 20
32.0769
 30
0
 70
32
  0
VERTEX
  5
631
  8
2
 62
0
 10
79.1668
 20
32.0861
 30
0
 70
32
  0
VERTEX
  5
632
  8
2
 62
0
 10
79.1687
 20
32.0952
 30
0
 70
32
  0
VERTEX
  5
633
  8
2
 62
0
 10
79.1697
 20
32.1043
 30
0
 70
32
  0
VERTEX
  5
634
  8
2
 62
0
 10
79.1701
 20
32.1133
 30
0
 70
32
  0
VERTEX
  5
635
  8
2
 62
0
 10
79.1696
 20
32.1222
 30
0
 70
32
  0
VERTEX
  5
636
  8
2
 62
0
 10
79.1685
 20
32.131
 30
0
 70
32
  0
SEQEND
  5
637
  8
0
  0
LINE
  5
3D2
  8
2
  6
CONTINUOUS
 62
0
 10
79.1684642181792
 20
32.131013580621058
 30
0
 11
79.03510221817919
 21
32.88734658062107
 31
0
  0
POLYLINE
  5
3D3
  8
2
  6
CONTINUOUS
 62
0
 66
1
 70
8
  0
VERTEX
  5
638
  8
2
 62
0
 10
78.1669
 20
33.328
 30
0
 70
32
  0
VERTEX
  5
639
  8
2
 62
0
 10
78.1628
 20
33.3313
 30
0
 70
32
  0
VERTEX
  5
63A
  8
2
 62
0
 10
78.1585
 20
33.3345
 30
0
 70
32
  0
VERTEX
  5
63B
  8
2
 62
0
 10
78.1541
 20
33.3377
 30
0
 70
32
  0
VERTEX
  5
63C
  8
2
 62
0
 10
78.1495
 20
33.3407
 30
0
 70
32
  0
VERTEX
  5
63D
  8
2
 62
0
 10
78.1448
 20
33.3437
 30
0
 70
32
  0
VERTEX
  5
63E
  8
2
 62
0
 10
78.1399
 20
33.3465
 30
0
 70
32
  0
VERTEX
  5
63F
  8
2
 62
0
 10
78.1349
 20
33.3493
 30
0
 70
32
  0
VERTEX
  5
640
  8
2
 62
0
 10
78.1298
 20
33.352
 30
0
 70
32
  0
VERTEX
  5
641
  8
2
 62
0
 10
78.1245
 20
33.3546
 30
0
 70
32
  0
VERTEX
  5
642
  8
2
 62
0
 10
78.1191
 20
33.3572
 30
0
 70
32
  0
VERTEX
  5
643
  8
2
 62
0
 10
78.1136
 20
33.3596
 30
0
 70
32
  0
VERTEX
  5
644
  8
2
 62
0
 10
78.1079
 20
33.3619
 30
0
 70
32
  0
VERTEX
  5
645
  8
2
 62
0
 10
78.1021
 20
33.3641
 30
0
 70
32
  0
VERTEX
  5
646
  8
2
 62
0
 10
78.0962
 20
33.3663
 30
0
 70
32
  0
VERTEX
  5
647
  8
2
 62
0
 10
78.0902
 20
33.3683
 30
0
 70
32
  0
VERTEX
  5
648
  8
2
 62
0
 10
78.0841
 20
33.3702
 30
0
 70
32
  0
VERTEX
  5
649
  8
2
 62
0
 10
78.0778
 20
33.3721
 30
0
 70
32
  0
VERTEX
  5
64A
  8
2
 62
0
 10
78.0715
 20
33.3738
 30
0
 70
32
  0
VERTEX
  5
64B
  8
2
 62
0
 10
78.065
 20
33.3754
 30
0
 70
32
  0
VERTEX
  5
64C
  8
2
 62
0
 10
78.0585
 20
33.3769
 30
0
 70
32
  0
VERTEX
  5
64D
  8
2
 62
0
 10
78.0519
 20
33.3783
 30
0
 70
32
  0
VERTEX
  5
64E
  8
2
 62
0
 10
78.0451
 20
33.3796
 30
0
 70
32
  0
VERTEX
  5
64F
  8
2
 62
0
 10
78.0383
 20
33.3808
 30
0
 70
32
  0
VERTEX
  5
650
  8
2
 62
0
 10
78.0314
 20
33.3819
 30
0
 70
32
  0
VERTEX
  5
651
  8
2
 62
0
 10
78.0245
 20
33.3829
 30
0
 70
32
  0
VERTEX
  5
652
  8
2
 62
0
 10
78.0174
 20
33.3838
 30
0
 70
32
  0
VERTEX
  5
653
  8
2
 62
0
 10
78.0103
 20
33.3845
 30
0
 70
32
  0
VERTEX
  5
654
  8
2
 62
0
 10
78.0032
 20
33.3852
 30
0
 70
32
  0
VERTEX
  5
655
  8
2
 62
0
 10
77.9959
 20
33.3857
 30
0
 70
32
  0
VERTEX
  5
656
  8
2
 62
0
 10
77.9886
 20
33.3862
 30
0
 70
32
  0
VERTEX
  5
657
  8
2
 62
0
 10
77.9813
 20
33.3865
 30
0
 70
32
  0
VERTEX
  5
658
  8
2
 62
0
 10
77.9739
 20
33.3867
 30
0
 70
32
  0
VERTEX
  5
659
  8
2
 62
0
 10
77.9665
 20
33.3868
 30
0
 70
32
  0
VERTEX
  5
65A
  8
2
 62
0
 10
77.9591
 20
33.3868
 30
0
 70
32
  0
VERTEX
  5
65B
  8
2
 62
0
 10
77.9516
 20
33.3866
 30
0
 70
32
  0
VERTEX
  5
65C
  8
2
 62
0
 10
77.944
 20
33.3864
 30
0
 70
32
  0
VERTEX
  5
65D
  8
2
 62
0
 10
77.9365
 20
33.3861
 30
0
 70
32
  0
VERTEX
  5
65E
  8
2
 62
0
 10
77.9289
 20
33.3856
 30
0
 70
32
  0
VERTEX
  5
65F
  8
2
 62
0
 10
77.9213
 20
33.385
 30
0
 70
32
  0
VERTEX
  5
660
  8
2
 62
0
 10
77.9138
 20
33.3843
 30
0
 70
32
  0
VERTEX
  5
661
  8
2
 62
0
 10
77.9062
 20
33.3835
 30
0
 70
32
  0
VERTEX
  5
662
  8
2
 62
0
 10
77.8986
 20
33.3826
 30
0
 70
32
  0
VERTEX
  5
663
  8
2
 62
0
 10
77.891
 20
33.3816
 30
0
 70
32
  0
VERTEX
  5
664
  8
2
 62
0
 10
77.8834
 20
33.3805
 30
0
 70
32
  0
VERTEX
  5
665
  8
2
 62
0
 10
77.8758
 20
33.3793
 30
0
 70
32
  0
VERTEX
  5
666
  8
2
 62
0
 10
77.8682
 20
33.3779
 30
0
 70
32
  0
VERTEX
  5
667
  8
2
 62
0
 10
77.8607
 20
33.3765
 30
0
 70
32
  0
VERTEX
  5
668
  8
2
 62
0
 10
77.8532
 20
33.3749
 30
0
 70
32
  0
VERTEX
  5
669
  8
2
 62
0
 10
77.8457
 20
33.3733
 30
0
 70
32
  0
VERTEX
  5
66A
  8
2
 62
0
 10
77.8383
 20
33.3715
 30
0
 70
32
  0
VERTEX
  5
66B
  8
2
 62
0
 10
77.8309
 20
33.3697
 30
0
 70
32
  0
VERTEX
  5
66C
  8
2
 62
0
 10
77.8235
 20
33.3677
 30
0
 70
32
  0
VERTEX
  5
66D
  8
2
 62
0
 10
77.8162
 20
33.3656
 30
0
 70
32
  0
VERTEX
  5
66E
  8
2
 62
0
 10
77.8089
 20
33.3635
 30
0
 70
32
  0
VERTEX
  5
66F
  8
2
 62
0
 10
77.8017
 20
33.3612
 30
0
 70
32
  0
VERTEX
  5
670
  8
2
 62
0
 10
77.7946
 20
33.3589
 30
0
 70
32
  0
VERTEX
  5
671
  8
2
 62
0
 10
77.7875
 20
33.3564
 30
0
 70
32
  0
VERTEX
  5
672
  8
2
 62
0
 10
77.7805
 20
33.3539
 30
0
 70
32
  0
VERTEX
  5
673
  8
2
 62
0
 10
77.7735
 20
33.3512
 30
0
 70
32
  0
VERTEX
  5
674
  8
2
 62
0
 10
77.7667
 20
33.3485
 30
0
 70
32
  0
VERTEX
  5
675
  8
2
 62
0
 10
77.7599
 20
33.3457
 30
0
 70
32
  0
VERTEX
  5
676
  8
2
 62
0
 10
77.7532
 20
33.3428
 30
0
 70
32
  0
VERTEX
  5
677
  8
2
 62
0
 10
77.7466
 20
33.3398
 30
0
 70
32
  0
VERTEX
  5
678
  8
2
 62
0
 10
77.7401
 20
33.3367
 30
0
 70
32
  0
VERTEX
  5
679
  8
2
 62
0
 10
77.7337
 20
33.3336
 30
0
 70
32
  0
VERTEX
  5
67A
  8
2
 62
0
 10
77.7274
 20
33.3303
 30
0
 70
32
  0
VERTEX
  5
67B
  8
2
 62
0
 10
77.7212
 20
33.327
 30
0
 70
32
  0
VERTEX
  5
67C
  8
2
 62
0
 10
77.7151
 20
33.3236
 30
0
 70
32
  0
VERTEX
  5
67D
  8
2
 62
0
 10
77.7091
 20
33.3202
 30
0
 70
32
  0
VERTEX
  5
67E
  8
2
 62
0
 10
77.7033
 20
33.3166
 30
0
 70
32
  0
VERTEX
  5
67F
  8
2
 62
0
 10
77.6975
 20
33.313
 30
0
 70
32
  0
VERTEX
  5
680
  8
2
 62
0
 10
77.6919
 20
33.3094
 30
0
 70
32
  0
VERTEX
  5
681
  8
2
 62
0
 10
77.6864
 20
33.3056
 30
0
 70
32
  0
VERTEX
  5
682
  8
2
 62
0
 10
77.6811
 20
33.3018
 30
0
 70
32
  0
VERTEX
  5
683
  8
2
 62
0
 10
77.6758
 20
33.298
 30
0
 70
32
  0
VERTEX
  5
684
  8
2
 62
0
 10
77.6708
 20
33.2941
 30
0
 70
32
  0
VERTEX
  5
685
  8
2
 62
0
 10
77.6658
 20
33.2901
 30
0
 70
32
  0
VERTEX
  5
686
  8
2
 62
0
 10
77.661
 20
33.2861
 30
0
 70
32
  0
VERTEX
  5
687
  8
2
 62
0
 10
77.6563
 20
33.282
 30
0
 70
32
  0
VERTEX
  5
688
  8
2
 62
0
 10
77.6518
 20
33.2779
 30
0
 70
32
  0
VERTEX
  5
689
  8
2
 62
0
 10
77.6475
 20
33.2737
 30
0
 70
32
  0
VERTEX
  5
68A
  8
2
 62
0
 10
77.6433
 20
33.2695
 30
0
 70
32
  0
VERTEX
  5
68B
  8
2
 62
0
 10
77.6392
 20
33.2652
 30
0
 70
32
  0
VERTEX
  5
68C
  8
2
 62
0
 10
77.6353
 20
33.2609
 30
0
 70
32
  0
VERTEX
  5
68D
  8
2
 62
0
 10
77.6316
 20
33.2566
 30
0
 70
32
  0
VERTEX
  5
68E
  8
2
 62
0
 10
77.628
 20
33.2522
 30
0
 70
32
  0
VERTEX
  5
68F
  8
2
 62
0
 10
77.6246
 20
33.2478
 30
0
 70
32
  0
VERTEX
  5
690
  8
2
 62
0
 10
77.6214
 20
33.2434
 30
0
 70
32
  0
VERTEX
  5
691
  8
2
 62
0
 10
77.6183
 20
33.2389
 30
0
 70
32
  0
VERTEX
  5
692
  8
2
 62
0
 10
77.6154
 20
33.2345
 30
0
 70
32
  0
VERTEX
  5
693
  8
2
 62
0
 10
77.6127
 20
33.23
 30
0
 70
32
  0
VERTEX
  5
694
  8
2
 62
0
 10
77.6101
 20
33.2254
 30
0
 70
32
  0
VERTEX
  5
695
  8
2
 62
0
 10
77.6078
 20
33.2209
 30
0
 70
32
  0
VERTEX
  5
696
  8
2
 62
0
 10
77.6056
 20
33.2164
 30
0
 70
32
  0
VERTEX
  5
697
  8
2
 62
0
 10
77.6036
 20
33.2118
 30
0
 70
32
  0
VERTEX
  5
698
  8
2
 62
0
 10
77.6017
 20
33.2073
 30
0
 70
32
  0
VERTEX
  5
699
  8
2
 62
0
 10
77.6001
 20
33.2027
 30
0
 70
32
  0
VERTEX
  5
69A
  8
2
 62
0
 10
77.5986
 20
33.1981
 30
0
 70
32
  0
VERTEX
  5
69B
  8
2
 62
0
 10
77.5973
 20
33.1936
 30
0
 70
32
  0
VERTEX
  5
69C
  8
2
 62
0
 10
77.5962
 20
33.189
 30
0
 70
32
  0
VERTEX
  5
69D
  8
2
 62
0
 10
77.5953
 20
33.1845
 30
0
 70
32
  0
VERTEX
  5
69E
  8
2
 62
0
 10
77.5945
 20
33.1799
 30
0
 70
32
  0
VERTEX
  5
69F
  8
2
 62
0
 10
77.594
 20
33.1754
 30
0
 70
32
  0
VERTEX
  5
6A0
  8
2
 62
0
 10
77.5936
 20
33.1709
 30
0
 70
32
  0
VERTEX
  5
6A1
  8
2
 62
0
 10
77.5934
 20
33.1664
 30
0
 70
32
  0
VERTEX
  5
6A2
  8
2
 62
0
 10
77.5934
 20
33.1619
 30
0
 70
32
  0
VERTEX
  5
6A3
  8
2
 62
0
 10
77.5936
 20
33.1575
 30
0
 70
32
  0
VERTEX
  5
6A4
  8
2
 62
0
 10
77.594
 20
33.153
 30
0
 70
32
  0
VERTEX
  5
6A5
  8
2
 62
0
 10
77.5946
 20
33.1486
 30
0
 70
32
  0
VERTEX
  5
6A6
  8
2
 62
0
 10
77.5953
 20
33.1443
 30
0
 70
32
  0
VERTEX
  5
6A7
  8
2
 62
0
 10
77.5963
 20
33.1399
 30
0
 70
32
  0
VERTEX
  5
6A8
  8
2
 62
0
 10
77.5974
 20
33.1356
 30
0
 70
32
  0
VERTEX
  5
6A9
  8
2
 62
0
 10
77.5987
 20
33.1314
 30
0
 70
32
  0
VERTEX
  5
6AA
  8
2
 62
0
 10
77.6002
 20
33.1271
 30
0
 70
32
  0
VERTEX
  5
6AB
  8
2
 62
0
 10
77.6018
 20
33.123
 30
0
 70
32
  0
VERTEX
  5
6AC
  8
2
 62
0
 10
77.6037
 20
33.1188
 30
0
 70
32
  0
VERTEX
  5
6AD
  8
2
 62
0
 10
77.6057
 20
33.1148
 30
0
 70
32
  0
VERTEX
  5
6AE
  8
2
 62
0
 10
77.6079
 20
33.1107
 30
0
 70
32
  0
VERTEX
  5
6AF
  8
2
 62
0
 10
77.6103
 20
33.1068
 30
0
 70
32
  0
VERTEX
  5
6B0
  8
2
 62
0
 10
77.6128
 20
33.1028
 30
0
 70
32
  0
VERTEX
  5
6B1
  8
2
 62
0
 10
77.6156
 20
33.099
 30
0
 70
32
  0
VERTEX
  5
6B2
  8
2
 62
0
 10
77.6185
 20
33.0952
 30
0
 70
32
  0
VERTEX
  5
6B3
  8
2
 62
0
 10
77.6216
 20
33.0914
 30
0
 70
32
  0
VERTEX
  5
6B4
  8
2
 62
0
 10
77.6248
 20
33.0878
 30
0
 70
32
  0
VERTEX
  5
6B5
  8
2
 62
0
 10
77.6282
 20
33.0842
 30
0
 70
32
  0
VERTEX
  5
6B6
  8
2
 62
0
 10
77.6318
 20
33.0806
 30
0
 70
32
  0
VERTEX
  5
6B7
  8
2
 62
0
 10
77.6355
 20
33.0772
 30
0
 70
32
  0
VERTEX
  5
6B8
  8
2
 62
0
 10
77.6394
 20
33.0738
 30
0
 70
32
  0
SEQEND
  5
6B9
  8
0
  0
LINE
  5
3D4
  8
2
  6
CONTINUOUS
 62
0
 10
78.9407622181792
 20
32.990061580621052
 30
0
 11
78.1182322181792
 21
33.357545580621057
 31
0
  0
LINE
  5
3D5
  8
2
  6
CONTINUOUS
 62
0
 10
78.429135218179184
 20
32.712707580621071
 30
0
 11
77.689352218179181
 21
33.043222580621062
 31
0
  0
LINE
  5
3D6
  8
2
  6
CONTINUOUS
 62
0
 10
78.550904218179184
 20
32.022121580621061
 30
0
 11
78.4175422181792
 21
32.778453580621061
 31
0
  0
POLYLINE
  5
3D7
  8
2
  6
CONTINUOUS
 62
0
 66
1
 70
8
  0
VERTEX
  5
6BA
  8
2
 62
0
 10
79.0351
 20
32.8873
 30
0
 70
32
  0
VERTEX
  5
6BB
  8
2
 62
0
 10
79.0342
 20
32.8917
 30
0
 70
32
  0
VERTEX
  5
6BC
  8
2
 62
0
 10
79.0332
 20
32.896
 30
0
 70
32
  0
VERTEX
  5
6BD
  8
2
 62
0
 10
79.032
 20
32.9003
 30
0
 70
32
  0
VERTEX
  5
6BE
  8
2
 62
0
 10
79.0305
 20
32.9046
 30
0
 70
32
  0
VERTEX
  5
6BF
  8
2
 62
0
 10
79.0289
 20
32.9088
 30
0
 70
32
  0
VERTEX
  5
6C0
  8
2
 62
0
 10
79.0271
 20
32.9129
 30
0
 70
32
  0
VERTEX
  5
6C1
  8
2
 62
0
 10
79.0252
 20
32.917
 30
0
 70
32
  0
VERTEX
  5
6C2
  8
2
 62
0
 10
79.023
 20
32.9211
 30
0
 70
32
  0
VERTEX
  5
6C3
  8
2
 62
0
 10
79.0207
 20
32.9251
 30
0
 70
32
  0
VERTEX
  5
6C4
  8
2
 62
0
 10
79.0182
 20
32.929
 30
0
 70
32
  0
VERTEX
  5
6C5
  8
2
 62
0
 10
79.0155
 20
32.9329
 30
0
 70
32
  0
VERTEX
  5
6C6
  8
2
 62
0
 10
79.0127
 20
32.9368
 30
0
 70
32
  0
VERTEX
  5
6C7
  8
2
 62
0
 10
79.0097
 20
32.9405
 30
0
 70
32
  0
VERTEX
  5
6C8
  8
2
 62
0
 10
79.0065
 20
32.9442
 30
0
 70
32
  0
VERTEX
  5
6C9
  8
2
 62
0
 10
79.0031
 20
32.9479
 30
0
 70
32
  0
VERTEX
  5
6CA
  8
2
 62
0
 10
78.9996
 20
32.9514
 30
0
 70
32
  0
VERTEX
  5
6CB
  8
2
 62
0
 10
78.9959
 20
32.9549
 30
0
 70
32
  0
VERTEX
  5
6CC
  8
2
 62
0
 10
78.992
 20
32.9583
 30
0
 70
32
  0
VERTEX
  5
6CD
  8
2
 62
0
 10
78.988
 20
32.9617
 30
0
 70
32
  0
VERTEX
  5
6CE
  8
2
 62
0
 10
78.9838
 20
32.965
 30
0
 70
32
  0
VERTEX
  5
6CF
  8
2
 62
0
 10
78.9795
 20
32.9681
 30
0
 70
32
  0
VERTEX
  5
6D0
  8
2
 62
0
 10
78.975
 20
32.9713
 30
0
 70
32
  0
VERTEX
  5
6D1
  8
2
 62
0
 10
78.9704
 20
32.9743
 30
0
 70
32
  0
VERTEX
  5
6D2
  8
2
 62
0
 10
78.9656
 20
32.9772
 30
0
 70
32
  0
VERTEX
  5
6D3
  8
2
 62
0
 10
78.9607
 20
32.9801
 30
0
 70
32
  0
VERTEX
  5
6D4
  8
2
 62
0
 10
78.9556
 20
32.9828
 30
0
 70
32
  0
VERTEX
  5
6D5
  8
2
 62
0
 10
78.9504
 20
32.9855
 30
0
 70
32
  0
VERTEX
  5
6D6
  8
2
 62
0
 10
78.9451
 20
32.9881
 30
0
 70
32
  0
VERTEX
  5
6D7
  8
2
 62
0
 10
78.9396
 20
32.9906
 30
0
 70
32
  0
VERTEX
  5
6D8
  8
2
 62
0
 10
78.934
 20
32.993
 30
0
 70
32
  0
VERTEX
  5
6D9
  8
2
 62
0
 10
78.9283
 20
32.9953
 30
0
 70
32
  0
VERTEX
  5
6DA
  8
2
 62
0
 10
78.9224
 20
32.9975
 30
0
 70
32
  0
VERTEX
  5
6DB
  8
2
 62
0
 10
78.9165
 20
32.9996
 30
0
 70
32
  0
VERTEX
  5
6DC
  8
2
 62
0
 10
78.9104
 20
33.0016
 30
0
 70
32
  0
VERTEX
  5
6DD
  8
2
 62
0
 10
78.9042
 20
33.0035
 30
0
 70
32
  0
VERTEX
  5
6DE
  8
2
 62
0
 10
78.8979
 20
33.0053
 30
0
 70
32
  0
VERTEX
  5
6DF
  8
2
 62
0
 10
78.8915
 20
33.0069
 30
0
 70
32
  0
VERTEX
  5
6E0
  8
2
 62
0
 10
78.885
 20
33.0085
 30
0
 70
32
  0
VERTEX
  5
6E1
  8
2
 62
0
 10
78.8784
 20
33.01
 30
0
 70
32
  0
VERTEX
  5
6E2
  8
2
 62
0
 10
78.8717
 20
33.0114
 30
0
 70
32
  0
VERTEX
  5
6E3
  8
2
 62
0
 10
78.865
 20
33.0127
 30
0
 70
32
  0
VERTEX
  5
6E4
  8
2
 62
0
 10
78.8581
 20
33.0138
 30
0
 70
32
  0
VERTEX
  5
6E5
  8
2
 62
0
 10
78.8512
 20
33.0149
 30
0
 70
32
  0
VERTEX
  5
6E6
  8
2
 62
0
 10
78.8442
 20
33.0158
 30
0
 70
32
  0
VERTEX
  5
6E7
  8
2
 62
0
 10
78.8371
 20
33.0166
 30
0
 70
32
  0
VERTEX
  5
6E8
  8
2
 62
0
 10
78.8299
 20
33.0173
 30
0
 70
32
  0
VERTEX
  5
6E9
  8
2
 62
0
 10
78.8227
 20
33.018
 30
0
 70
32
  0
VERTEX
  5
6EA
  8
2
 62
0
 10
78.8154
 20
33.0184
 30
0
 70
32
  0
VERTEX
  5
6EB
  8
2
 62
0
 10
78.8081
 20
33.0188
 30
0
 70
32
  0
VERTEX
  5
6EC
  8
2
 62
0
 10
78.8007
 20
33.0191
 30
0
 70
32
  0
VERTEX
  5
6ED
  8
2
 62
0
 10
78.7933
 20
33.0193
 30
0
 70
32
  0
VERTEX
  5
6EE
  8
2
 62
0
 10
78.7859
 20
33.0193
 30
0
 70
32
  0
VERTEX
  5
6EF
  8
2
 62
0
 10
78.7784
 20
33.0192
 30
0
 70
32
  0
VERTEX
  5
6F0
  8
2
 62
0
 10
78.7709
 20
33.0191
 30
0
 70
32
  0
VERTEX
  5
6F1
  8
2
 62
0
 10
78.7633
 20
33.0188
 30
0
 70
32
  0
VERTEX
  5
6F2
  8
2
 62
0
 10
78.7557
 20
33.0184
 30
0
 70
32
  0
VERTEX
  5
6F3
  8
2
 62
0
 10
78.7481
 20
33.0179
 30
0
 70
32
  0
VERTEX
  5
6F4
  8
2
 62
0
 10
78.7405
 20
33.0172
 30
0
 70
32
  0
VERTEX
  5
6F5
  8
2
 62
0
 10
78.7329
 20
33.0165
 30
0
 70
32
  0
VERTEX
  5
6F6
  8
2
 62
0
 10
78.7253
 20
33.0157
 30
0
 70
32
  0
VERTEX
  5
6F7
  8
2
 62
0
 10
78.7177
 20
33.0147
 30
0
 70
32
  0
VERTEX
  5
6F8
  8
2
 62
0
 10
78.7101
 20
33.0136
 30
0
 70
32
  0
VERTEX
  5
6F9
  8
2
 62
0
 10
78.7025
 20
33.0125
 30
0
 70
32
  0
VERTEX
  5
6FA
  8
2
 62
0
 10
78.6949
 20
33.0112
 30
0
 70
32
  0
VERTEX
  5
6FB
  8
2
 62
0
 10
78.6873
 20
33.0098
 30
0
 70
32
  0
VERTEX
  5
6FC
  8
2
 62
0
 10
78.6798
 20
33.0083
 30
0
 70
32
  0
VERTEX
  5
6FD
  8
2
 62
0
 10
78.6723
 20
33.0067
 30
0
 70
32
  0
VERTEX
  5
6FE
  8
2
 62
0
 10
78.6648
 20
33.005
 30
0
 70
32
  0
VERTEX
  5
6FF
  8
2
 62
0
 10
78.6573
 20
33.0032
 30
0
 70
32
  0
VERTEX
  5
700
  8
2
 62
0
 10
78.6499
 20
33.0013
 30
0
 70
32
  0
VERTEX
  5
701
  8
2
 62
0
 10
78.6426
 20
32.9993
 30
0
 70
32
  0
VERTEX
  5
702
  8
2
 62
0
 10
78.6352
 20
32.9971
 30
0
 70
32
  0
VERTEX
  5
703
  8
2
 62
0
 10
78.628
 20
32.9949
 30
0
 70
32
  0
VERTEX
  5
704
  8
2
 62
0
 10
78.6208
 20
32.9926
 30
0
 70
32
  0
VERTEX
  5
705
  8
2
 62
0
 10
78.6137
 20
32.9902
 30
0
 70
32
  0
VERTEX
  5
706
  8
2
 62
0
 10
78.6066
 20
32.9877
 30
0
 70
32
  0
VERTEX
  5
707
  8
2
 62
0
 10
78.5996
 20
32.9851
 30
0
 70
32
  0
VERTEX
  5
708
  8
2
 62
0
 10
78.5927
 20
32.9824
 30
0
 70
32
  0
VERTEX
  5
709
  8
2
 62
0
 10
78.5859
 20
32.9796
 30
0
 70
32
  0
VERTEX
  5
70A
  8
2
 62
0
 10
78.5791
 20
32.9768
 30
0
 70
32
  0
VERTEX
  5
70B
  8
2
 62
0
 10
78.5725
 20
32.9738
 30
0
 70
32
  0
VERTEX
  5
70C
  8
2
 62
0
 10
78.5659
 20
32.9708
 30
0
 70
32
  0
VERTEX
  5
70D
  8
2
 62
0
 10
78.5594
 20
32.9677
 30
0
 70
32
  0
VERTEX
  5
70E
  8
2
 62
0
 10
78.553
 20
32.9645
 30
0
 70
32
  0
VERTEX
  5
70F
  8
2
 62
0
 10
78.5468
 20
32.9612
 30
0
 70
32
  0
VERTEX
  5
710
  8
2
 62
0
 10
78.5406
 20
32.9578
 30
0
 70
32
  0
VERTEX
  5
711
  8
2
 62
0
 10
78.5346
 20
32.9544
 30
0
 70
32
  0
VERTEX
  5
712
  8
2
 62
0
 10
78.5286
 20
32.9509
 30
0
 70
32
  0
VERTEX
  5
713
  8
2
 62
0
 10
78.5228
 20
32.9473
 30
0
 70
32
  0
VERTEX
  5
714
  8
2
 62
0
 10
78.5171
 20
32.9437
 30
0
 70
32
  0
VERTEX
  5
715
  8
2
 62
0
 10
78.5116
 20
32.94
 30
0
 70
32
  0
VERTEX
  5
716
  8
2
 62
0
 10
78.5061
 20
32.9362
 30
0
 70
32
  0
VERTEX
  5
717
  8
2
 62
0
 10
78.5008
 20
32.9323
 30
0
 70
32
  0
VERTEX
  5
718
  8
2
 62
0
 10
78.4957
 20
32.9284
 30
0
 70
32
  0
VERTEX
  5
719
  8
2
 62
0
 10
78.4906
 20
32.9245
 30
0
 70
32
  0
VERTEX
  5
71A
  8
2
 62
0
 10
78.4858
 20
32.9205
 30
0
 70
32
  0
VERTEX
  5
71B
  8
2
 62
0
 10
78.481
 20
32.9164
 30
0
 70
32
  0
VERTEX
  5
71C
  8
2
 62
0
 10
78.4764
 20
32.9123
 30
0
 70
32
  0
VERTEX
  5
71D
  8
2
 62
0
 10
78.472
 20
32.9081
 30
0
 70
32
  0
VERTEX
  5
71E
  8
2
 62
0
 10
78.4677
 20
32.9039
 30
0
 70
32
  0
VERTEX
  5
71F
  8
2
 62
0
 10
78.4636
 20
32.8997
 30
0
 70
32
  0
VERTEX
  5
720
  8
2
 62
0
 10
78.4596
 20
32.8954
 30
0
 70
32
  0
VERTEX
  5
721
  8
2
 62
0
 10
78.4558
 20
32.891
 30
0
 70
32
  0
VERTEX
  5
722
  8
2
 62
0
 10
78.4521
 20
32.8867
 30
0
 70
32
  0
VERTEX
  5
723
  8
2
 62
0
 10
78.4486
 20
32.8823
 30
0
 70
32
  0
VERTEX
  5
724
  8
2
 62
0
 10
78.4453
 20
32.8779
 30
0
 70
32
  0
VERTEX
  5
725
  8
2
 62
0
 10
78.4422
 20
32.8734
 30
0
 70
32
  0
VERTEX
  5
726
  8
2
 62
0
 10
78.4392
 20
32.8689
 30
0
 70
32
  0
VERTEX
  5
727
  8
2
 62
0
 10
78.4364
 20
32.8644
 30
0
 70
32
  0
VERTEX
  5
728
  8
2
 62
0
 10
78.4337
 20
32.8599
 30
0
 70
32
  0
VERTEX
  5
729
  8
2
 62
0
 10
78.4313
 20
32.8554
 30
0
 70
32
  0
VERTEX
  5
72A
  8
2
 62
0
 10
78.429
 20
32.8508
 30
0
 70
32
  0
VERTEX
  5
72B
  8
2
 62
0
 10
78.4269
 20
32.8463
 30
0
 70
32
  0
VERTEX
  5
72C
  8
2
 62
0
 10
78.425
 20
32.8417
 30
0
 70
32
  0
VERTEX
  5
72D
  8
2
 62
0
 10
78.4233
 20
32.8371
 30
0
 70
32
  0
VERTEX
  5
72E
  8
2
 62
0
 10
78.4217
 20
32.8326
 30
0
 70
32
  0
VERTEX
  5
72F
  8
2
 62
0
 10
78.4203
 20
32.828
 30
0
 70
32
  0
VERTEX
  5
730
  8
2
 62
0
 10
78.4192
 20
32.8234
 30
0
 70
32
  0
VERTEX
  5
731
  8
2
 62
0
 10
78.4182
 20
32.8188
 30
0
 70
32
  0
VERTEX
  5
732
  8
2
 62
0
 10
78.4173
 20
32.8143
 30
0
 70
32
  0
VERTEX
  5
733
  8
2
 62
0
 10
78.4167
 20
32.8097
 30
0
 70
32
  0
VERTEX
  5
734
  8
2
 62
0
 10
78.4163
 20
32.8052
 30
0
 70
32
  0
VERTEX
  5
735
  8
2
 62
0
 10
78.416
 20
32.8007
 30
0
 70
32
  0
VERTEX
  5
736
  8
2
 62
0
 10
78.4159
 20
32.7962
 30
0
 70
32
  0
VERTEX
  5
737
  8
2
 62
0
 10
78.4161
 20
32.7917
 30
0
 70
32
  0
VERTEX
  5
738
  8
2
 62
0
 10
78.4164
 20
32.7873
 30
0
 70
32
  0
VERTEX
  5
739
  8
2
 62
0
 10
78.4169
 20
32.7828
 30
0
 70
32
  0
VERTEX
  5
73A
  8
2
 62
0
 10
78.4175
 20
32.7785
 30
0
 70
32
  0
SEQEND
  5
73B
  8
0
  0
LINE
  5
3D8
  8
2
  6
CONTINUOUS
 62
0
 10
82.233858218179179
 20
34.900199580621063
 30
0
 11
79.138202218179174
 21
32.302636580621048
 31
0
  0
LINE
  5
3D9
  8
2
  6
CONTINUOUS
 62
0
 10
75.3222832181792
 20
31.50430158062106
 30
0
 11
79.8821472181792
 21
35.330481580621061
 31
0
  0
LINE
  5
3F2
  8
0
  6
CONTINUOUS
 62
0
 10
69.137421218179185
 20
33.755407580621061
 30
0
 11
73.697285218179175
 21
37.581587580621068
 31
0
  0
LINE
  5
3F3
  8
0
  6
CONTINUOUS
 62
0
 10
71.199042218179187
 20
33.005038580621061
 30
0
 11
70.93735621817919
 21
35.265732580621062
 31
0
  0
LINE
  5
3F4
  8
0
  6
CONTINUOUS
 62
0
 10
71.199042218179187
 20
33.005038580621061
 30
0
 11
75.7589052181792
 21
36.831218580621048
 31
0
  0
LINE
  5
3F5
  8
0
  6
CONTINUOUS
 62
0
 10
73.260663218179175
 20
32.25467058062106
 30
0
 11
72.998977218179192
 21
34.51536358062107
 31
0
  0
LINE
  5
3F6
  8
0
  6
CONTINUOUS
 62
0
 10
73.260663218179175
 20
32.25467058062106
 30
0
 11
77.8205262181792
 21
36.080849580621063
 31
0
  0
LINE
  5
3F7
  8
0
  6
CONTINUOUS
 62
0
 10
75.3222832181792
 20
31.50430158062106
 30
0
 11
75.0605982181792
 21
33.764994580621057
 31
0
  0
LINE
  5
3F8
  8
0
  6
CONTINUOUS
 62
0
 10
65.014179218179166
 20
35.256144580621047
 30
0
 11
64.7524942181792
 21
37.516837580621072
 31
0
  0
LINE
  5
3F9
  8
0
  6
CONTINUOUS
 62
0
 10
65.014179218179166
 20
35.256144580621047
 30
0
 11
69.574043218179185
 21
39.082324580621062
 31
0
  0
LINE
  5
3FA
  8
0
  6
CONTINUOUS
 62
0
 10
67.075800218179182
 20
34.505775580621062
 30
0
 11
66.814114218179185
 21
36.766469580621049
 31
0
  0
LINE
  5
3FB
  8
0
  6
CONTINUOUS
 62
0
 10
67.075800218179182
 20
34.505775580621062
 30
0
 11
71.635664218179187
 21
38.33195558062107
 31
0
  0
LINE
  5
3FC
  8
0
  6
CONTINUOUS
 62
0
 10
69.137421218179185
 20
33.755407580621061
 30
0
 11
68.875735218179187
 21
36.01610058062105
 31
0
  0
LINE
  5
3FD
  8
0
  6
CONTINUOUS
 62
0
 10
58.8293172181792
 20
37.507250580621061
 30
0
 11
63.3891812181792
 21
41.333430580621069
 31
0
  0
LINE
  5
3FE
  8
0
  6
CONTINUOUS
 62
0
 10
60.8909382181792
 20
36.756881580621069
 30
0
 11
60.6292522181792
 21
39.017575580621049
 31
0
  0
LINE
  5
3FF
  8
0
  6
CONTINUOUS
 62
0
 10
60.8909382181792
 20
36.756881580621069
 30
0
 11
65.450801218179166
 21
40.583061580621063
 31
0
  0
LINE
  5
400
  8
0
  6
CONTINUOUS
 62
0
 10
62.9525592181792
 20
36.006513580621068
 30
0
 11
62.6908732181792
 21
38.267206580621057
 31
0
  0
LINE
  5
401
  8
0
  6
CONTINUOUS
 62
0
 10
54.706075218179187
 20
39.007987580621069
 30
0
 11
59.2659392181792
 21
42.834167580621049
 31
0
  0
LINE
  5
402
  8
0
  6
CONTINUOUS
 62
0
 10
56.767696218179189
 20
38.257618580621049
 30
0
 11
56.506010218179192
 21
40.518312580621071
 31
0
  0
LINE
  5
403
  8
0
  6
CONTINUOUS
 62
0
 10
56.767696218179189
 20
38.257618580621049
 30
0
 11
61.3275602181792
 21
42.083798580621057
 31
0
  0
LINE
  5
404
  8
0
  6
CONTINUOUS
 62
0
 10
58.8293172181792
 20
37.507250580621061
 30
0
 11
58.5676312181792
 21
39.767943580621051
 31
0
  0
LINE
  5
405
  8
0
  6
CONTINUOUS
 62
0
 10
48.521213218179177
 20
41.259093580621048
 30
0
 11
53.081077218179182
 21
45.085273580621063
 31
0
  0
LINE
  5
406
  8
0
  6
CONTINUOUS
 62
0
 10
50.58283421817918
 20
40.508724580621063
 30
0
 11
50.321148218179189
 21
42.769418580621043
 31
0
  0
LINE
  5
407
  8
0
  6
CONTINUOUS
 62
0
 10
50.58283421817918
 20
40.508724580621063
 30
0
 11
55.142697218179187
 21
44.33490458062105
 31
0
  0
LINE
  5
408
  8
0
  6
CONTINUOUS
 62
0
 10
52.644455218179182
 20
39.758356580621069
 30
0
 11
52.382769218179192
 21
42.019049580621051
 31
0
  0
LINE
  5
409
  8
0
  6
CONTINUOUS
 62
0
 10
52.644455218179182
 20
39.758356580621069
 30
0
 11
57.204318218179189
 21
43.584535580621058
 31
0
  0
LINE
  5
40A
  8
0
  6
CONTINUOUS
 62
0
 10
54.706075218179187
 20
39.007987580621069
 30
0
 11
54.444390218179187
 21
41.268680580621073
 31
0
  0
LINE
  5
40B
  8
0
  6
CONTINUOUS
 62
0
 10
44.397971218179173
 20
42.75983058062107
 30
0
 11
44.13628621817918
 21
45.02052358062106
 31
0
  0
LINE
  5
40C
  8
0
  6
CONTINUOUS
 62
0
 10
44.397971218179173
 20
42.75983058062107
 30
0
 11
48.957835218179177
 21
46.586010580621057
 31
0
  0
LINE
  5
40D
  8
0
  6
CONTINUOUS
 62
0
 10
46.459592218179182
 20
42.009461580621057
 30
0
 11
46.197906218179178
 21
44.270155580621058
 31
0
  0
LINE
  5
40E
  8
0
  6
CONTINUOUS
 62
0
 10
46.459592218179182
 20
42.009461580621057
 30
0
 11
51.01945621817918
 21
45.835641580621044
 31
0
  0
LINE
  5
40F
  8
0
  6
CONTINUOUS
 62
0
 10
48.521213218179177
 20
41.259093580621048
 30
0
 11
48.259527218179187
 21
43.519786580621073
 31
0
  0
LINE
  5
410
  8
0
  6
CONTINUOUS
 62
0
 10
42.336351218179182
 20
43.510199580621062
 30
0
 11
46.896214218179182
 21
47.336378580621052
 31
0
  0
LINE
  5
411
  8
0
  6
CONTINUOUS
 62
0
 10
36.151488218179161
 20
45.761304580621051
 30
0
 11
40.711352218179172
 21
49.587484580621073
 31
0
  0
LINE
  5
412
  8
0
  6
CONTINUOUS
 62
0
 10
38.2131092181792
 20
45.010936580621063
 30
0
 11
37.951423218179173
 21
47.27162958062106
 31
0
  0
LINE
  5
413
  8
0
  6
CONTINUOUS
 62
0
 10
38.2131092181792
 20
45.010936580621063
 30
0
 11
42.772973218179168
 21
48.837116580621057
 31
0
  0
LINE
  5
414
  8
0
  6
CONTINUOUS
 62
0
 10
40.274730218179172
 20
44.26056758062105
 30
0
 11
40.013044218179168
 21
46.521261580621072
 31
0
  0
LINE
  5
415
  8
0
  6
CONTINUOUS
 62
0
 10
40.274730218179172
 20
44.26056758062105
 30
0
 11
44.834593218179172
 21
48.086747580621051
 31
0
  0
LINE
  5
416
  8
0
  6
CONTINUOUS
 62
0
 10
42.336351218179182
 20
43.510199580621062
 30
0
 11
42.07466521817917
 21
45.770892580621037
 31
0
  0
LINE
  5
417
  8
0
  6
CONTINUOUS
 62
0
 10
34.089867218179187
 20
46.51167358062105
 30
0
 11
33.828182218179187
 21
48.77236658062106
 31
0
  0
LINE
  5
418
  8
0
  6
CONTINUOUS
 62
0
 10
34.089867218179187
 20
46.51167358062105
 30
0
 11
38.6497312181792
 21
50.337853580621058
 31
0
  0
LINE
  5
419
  8
0
  6
CONTINUOUS
 62
0
 10
36.151488218179161
 20
45.761304580621051
 30
0
 11
35.88980221817917
 21
48.021998580621059
 31
0
  0
LINE
  5
41A
  8
0
  6
CONTINUOUS
 62
0
 10
32.028247218179182
 20
47.262042580621049
 30
0
 11
36.588110218179189
 21
51.088221580621052
 31
0
  0
LINE
  5
41B
  8
0
  6
CONTINUOUS
 62
0
 10
32.028247218179182
 20
47.262042580621049
 30
0
 11
31.766561218179191
 21
49.522735580621067
 31
0
  0
LINE
  5
41C
  8
0
  6
CONTINUOUS
 62
0
 10
27.905005218179209
 20
48.762779580621057
 30
0
 11
27.64331921817918
 21
51.02347258062106
 31
0
  0
LINE
  5
41D
  8
0
  6
CONTINUOUS
 62
0
 10
29.966626218179179
 20
48.012410580621072
 30
0
 11
29.704940218179178
 21
50.273104580621073
 31
0
  0
LINE
  5
41E
  8
0
  6
CONTINUOUS
 62
0
 10
27.905005218179209
 20
48.762779580621057
 30
0
 11
32.464869218179182
 21
52.588959580621058
 31
0
  0
LINE
  5
41F
  8
0
  6
CONTINUOUS
 62
0
 10
29.966626218179179
 20
48.012410580621072
 30
0
 11
34.526489218179186
 21
51.83859058062108
 31
0
  0
LINE
  5
420
  8
0
  6
CONTINUOUS
 62
0
 10
25.84338421817921
 20
49.513147580621052
 30
0
 11
25.581699218179178
 21
51.773841580621053
 31
0
  0
LINE
  5
421
  8
0
  6
CONTINUOUS
 62
0
 10
23.781763218179211
 20
50.263516580621037
 30
0
 11
28.34162721817918
 21
54.089696580621052
 31
0
  0
LINE
  5
422
  8
0
  6
CONTINUOUS
 62
0
 10
25.84338421817921
 20
49.513147580621052
 30
0
 11
30.403248218179179
 21
53.33932758062106
 31
0
  0
LINE
  5
423
  8
0
  6
CONTINUOUS
 62
0
 10
23.781763218179211
 20
50.263516580621037
 30
0
 11
23.695262218179181
 21
51.010802580621061
 31
0
  0
LINE
  5
424
  8
0
  6
CONTINUOUS
 62
0
 10
62.9525592181792
 20
36.006513580621068
 30
0
 11
67.512422218179182
 21
39.83269258062105
 31
0
  0
INSERT
  5
75C
  8
0
  2
SPECSET07008
 10
224.17072890869019
 20
5.9857182693501718
 30
0
 41
1
 42
1
 43
1
 50
0
  0
ENDSEC
999
Created By CadLib version 4.0.36.7
999
CadLib website: www.woutware.com
  0
EOF
