  0
SECTION
  2
HEADER
  9
$ACADVER
  1
AC1009
  9
$DWGCODEPAGE
  3
dos932
  9
$INSBASE
 10
0
 20
0
 30
0
  9
$EXTMIN
 10
3.7659584828988315
 20
5.9477630957777325
 30
0
  9
$EXTMAX
 10
137.85226784447477
 20
96.012593650601133
 30
0
  9
$LIMMIN
 10
0
 20
0
  9
$LIMMAX
 10
300
 20
200
  9
$SNAPMODE
 70
0
  9
$SNAPUNIT
 10
1
 20
1
  9
$SNAPBASE
 10
0
 20
0
  9
$SNAPANG
 50
0
  9
$SNAPSTYLE
 70
0
  9
$SNAPISOPAIR
 70
0
  9
$ORTHOMODE
 70
0
  9
$REGENMODE
 70
1
  9
$FILLMODE
 70
1
  9
$QTEXTMODE
 70
0
  9
$MIRRTEXT
 70
1
  9
$LTSCALE
 40
1
  9
$OSMODE
 70
37
  9
$ATTMODE
 70
1
  9
$TEXTSIZE
 40
3
  9
$TRACEWID
 40
0.05
  9
$TEXTSTYLE
  7
STANDARD
  9
$CLAYER
  8
0
  9
$CELTYPE
  6
ByLayer
  9
$CECOLOR
 62
256
  9
$DIMSCALE
 40
1
  9
$DIMASZ
 40
0.18
  9
$DIMEXO
 40
0.0625
  9
$DIMDLI
 40
0.38
  9
$DIMRND
 40
0
  9
$DIMDLE
 40
0
  9
$DIMEXE
 40
0.18
  9
$DIMTP
 40
0
  9
$DIMTM
 40
0
  9
$DIMTXT
 40
0.18
  9
$DIMCEN
 40
0.09
  9
$DIMTSZ
 40
0
  9
$DIMTOL
 70
0
  9
$DIMLIM
 70
0
  9
$DIMTIH
 70
1
  9
$DIMTOH
 70
1
  9
$DIMSE1
 70
0
  9
$DIMSE2
 70
0
  9
$DIMTAD
 70
0
  9
$DIMZIN
 70
0
  9
$DIMBLK
  1

  9
$DIMASO
 70
1
  9
$DIMSHO
 70
0
  9
$DIMPOST
  1

  9
$DIMAPOST
  1

  9
$DIMALT
 70
0
  9
$DIMALTD
 70
2
  9
$DIMALTF
 40
25.4
  9
$DIMLFAC
 40
1
  9
$DIMTOFL
 70
0
  9
$DIMTVP
 40
0
  9
$DIMTIX
 70
0
  9
$DIMSOXD
 70
0
  9
$DIMSAH
 70
0
  9
$DIMBLK1
  1

  9
$DIMBLK2
  1

  9
$DIMSTYLE
  2
STANDARD
  9
$DIMCLRD
 70
0
  9
$DIMCLRE
 70
0
  9
$DIMCLRT
 70
0
  9
$DIMTFAC
 40
1
  9
$DIMGAP
 40
0.09
  9
$LUNITS
 70
2
  9
$LUPREC
 70
4
  9
$SKETCHINC
 40
0.1
  9
$FILLETRAD
 40
0
  9
$AUNITS
 70
0
  9
$AUPREC
 70
0
  9
$MENU
  1
ACAD
  9
$ELEVATION
 40
0
  9
$PELEVATION
 40
0
  9
$THICKNESS
 40
0
  9
$LIMCHECK
 70
0
  9
$CHAMFERA
 40
0
  9
$CHAMFERB
 40
0
  9
$SKPOLY
 70
0
  9
$TDCREATE
 40
2448091.5974190044
  9
$TDUPDATE
 40
2453294.58341
  9
$TDINDWG
 40
0.00050299768518518521
  9
$TDUSRTIMER
 40
0.00050299768518518521
  9
$USRTIMER
 70
1
  9
$ANGBASE
 50
0
  9
$ANGDIR
 70
0
  9
$PDMODE
 70
0
  9
$PDSIZE
 40
0
  9
$PLINEWID
 40
0
  9
$SPLFRAME
 70
0
  9
$SPLINETYPE
 70
6
  9
$SPLINESEGS
 70
8
  9
$HANDLING
 70
1
  9
$HANDSEED
  5
C2
  9
$SURFTAB1
 70
6
  9
$SURFTAB2
 70
6
  9
$SURFTYPE
 70
6
  9
$SURFU
 70
6
  9
$SURFV
 70
6
  9
$UCSORG
 10
0
 20
0
 30
0
  9
$UCSXDIR
 10
1
 20
0
 30
0
  9
$UCSYDIR
 10
0
 20
1
 30
0
  9
$PUCSORG
 10
0
 20
0
 30
0
  9
$PUCSXDIR
 10
1
 20
0
 30
0
  9
$PUCSYDIR
 10
0
 20
1
 30
0
  9
$USERI1
 70
0
  9
$USERI2
 70
0
  9
$USERI3
 70
0
  9
$USERI4
 70
0
  9
$USERI5
 70
0
  9
$USERR1
 40
0
  9
$USERR2
 40
0
  9
$USERR3
 40
0
  9
$USERR4
 40
0
  9
$USERR5
 40
0
  9
$WORLDVIEW
 70
1
  9
$SHADEDGE
 70
3
  9
$SHADEDIF
 70
70
  9
$TILEMODE
 70
1
  9
$MAXACTVP
 70
16
  9
$PINSBASE
 10
0
 20
0
 30
0
  9
$PLIMCHECK
 70
0
  9
$PEXTMIN
 10
1E+20
 20
1E+20
 30
1E+20
  9
$PEXTMAX
 10
-1E+20
 20
-1E+20
 30
-1E+20
  9
$PLIMMAX
 10
12
 20
9
  9
$PLIMMIN
 10
0
 20
0
  9
$UNITMODE
 70
0
  9
$VISRETAIN
 70
0
  9
$PLINEGEN
 70
0
  9
$PSLTSCALE
 70
1
  9
$TREEDEPTH
 70
3020
  9
$DRAGMODE
 70
     2
  9
$BLIPMODE
 70
     0
  9
$COORDS
 70
     1
  9
$ATTDIA
 70
     0
  9
$ATTREQ
 70
     1
  0
ENDSEC
  0
SECTION
  2
TABLES
  0
TABLE
  2
VPORT
  5
B6
 70
1
  0
VPORT
  5
8A
  2
*ACTIVE
 70
0
 10
0
 20
0
 11
1
 21
1
 12
45.801545
 22
50.714112
 13
0
 23
0
 14
10
 24
10
 15
0
 25
0
 16
0
 26
0
 36
1
 17
0
 27
0
 37
0
 40
90.240135
 41
3.327068
 42
50
 43
0
 44
0
 50
0
 51
0
 71
0
 72
100
 73
1
 74
1
 75
0
 76
0
 77
0
 78
0
  0
ENDTAB
  0
TABLE
  2
LTYPE
  5
B7
 70
3
  0
LTYPE
  5
86
  2
CONTINUOUS
  3
Solid line
 70
0
 72
65
 73
0
 40
0
  0
LTYPE
  5
87
  2
ByBlock
  3

 70
64
 72
65
 73
0
 40
0
  0
LTYPE
  5
88
  2
ByLayer
  3

 70
64
 72
65
 73
0
 40
0
  0
ENDTAB
  0
TABLE
  2
LAYER
  5
B8
 70
2
  0
LAYER
  5
70
 70
0
  2
0
 62
7
  6
CONTINUOUS
  0
LAYER
  5
71
 70
0
  2
SPEC
 62
7
  6
CONTINUOUS
  0
ENDTAB
  0
TABLE
  2
STYLE
  5
B9
 70
1
  0
STYLE
  5
85
  2
STANDARD
 70
0
 40
3
 41
1
 50
0
 71
0
 42
3
  3
txt.shx
  4
extfont2.shx
  0
ENDTAB
  0
TABLE
  2
APPID
  5
BC
 70
2
  0
APPID
  5
BD
  2
ACAD
 70
0
  0
APPID
  5
C0
  2
ACAD_MLEADERVER
 70
64
  0
ENDTAB
  0
TABLE
  2
DIMSTYLE
  5
BE
 70
1
  0
DIMSTYLE
105
89
  2
STANDARD
 70
0
  3

  4

  5

  6

  7

 40
1
 41
0.18
 42
0.0625
 43
0.38
 44
0.18
 45
0
 46
0
 47
0
 48
0
140
0.18
141
0.09
142
0
143
25.4
144
1
145
0
146
1
147
0.09
 71
0
 72
0
 73
1
 74
1
 75
0
 76
0
 77
0
 78
0
170
0
171
2
172
0
173
0
174
0
175
0
176
0
177
0
178
0
  0
ENDTAB
  0
ENDSEC
  0
SECTION
  2
BLOCKS
  0
BLOCK
  5
73
  8
0
  2
$MODEL_SPACE
 70
0
 10
0
 20
0
 30
0
  3
$MODEL_SPACE
  0
ENDBLK
  5
6F
  8
0
  0
BLOCK
  5
75
  8
0
 67
1
  2
$PAPER_SPACE
 70
0
 10
0
 20
0
 30
0
  3
$PAPER_SPACE
  0
ENDBLK
  5
6C
  8
0
  0
BLOCK
  5
77
  8
0
  2
SPECYL8002F2ASPN
 70
64
 10
0
 20
0
 30
0
  3
SPECYL8002F2ASPN
  0
TEXT
  5
78
  8
SPEC
 10
0
 20
0
 30
0
 40
1.5
  1
ﾄﾗﾌ形器具 86形×2
  7
STANDARD
  0
TEXT
  5
79
  8
SPEC
 10
0
 20
-3
 30
0
 40
1.5
  1
本体:鋼板･白色仕上
  7
STANDARD
  0
TEXT
  5
7A
  8
SPEC
 10
0
 20
-6
 30
0
 40
1.5
  1
反射板:鋼板･白色仕上(高反射白色塗装)
  7
STANDARD
  0
TEXT
  5
7B
  8
SPEC
 10
0
 20
-9
 30
0
 40
1.5
  1
光束:17600lm 消費電力:175W 消費効率:100.6lm/W
  7
STANDARD
  0
ENDBLK
  5
7C
  8
0
  0
BLOCK
  5
7E
  8
0
  2
*MODEL_SPACE
 70
64
 10
0
 20
0
 30
0
  3
*MODEL_SPACE
  0
ENDBLK
  5
81
  8
0
  0
BLOCK
  5
83
  8
0
 67
1
  2
*PAPER_SPACE
 70
64
 10
0
 20
0
 30
0
  3
*PAPER_SPACE
  0
ENDBLK
  5
84
  8
0
  0
ENDSEC
  0
SECTION
  2
ENTITIES
  0
TEXT
  5
25
  8
0
 10
3.225713
 20
6.596058
 30
0
 40
4.5
  1
三菱　ＹＬ８００２Ｆ
  7
STANDARD
  0
TEXT
  5
26
  8
0
 10
3.225713
 20
90.637151
 30
0
 40
4.5
  1
ＦＨＦ８６Ｗｘ２　トラフ
  7
STANDARD
  0
LINE
  5
27
  8
0
 10
15.546619
 20
55.922421
 30
0
 11
15.546619
 21
59.390139
 31
0
  0
LINE
  5
28
  8
0
 10
15.546619
 20
59.390139
 30
0
 11
17.280478
 21
61.123999
 31
0
  0
LINE
  5
29
  8
0
 10
17.280478
 20
61.123999
 30
0
 11
87.435084
 21
44.719024
 31
0
  0
LINE
  5
2A
  8
0
 10
87.435084
 20
44.719024
 30
0
 11
87.435084
 21
42.718418
 31
0
  0
LINE
  5
2B
  8
0
 10
87.435084
 20
42.718418
 30
0
 11
87.435084
 21
42.718418
 31
0
  0
LINE
  5
2C
  8
0
 10
17.280478
 20
61.123999
 30
0
 11
17.280478
 21
57.522906
 31
0
  0
LINE
  5
2D
  8
0
 10
17.280478
 20
58.589897
 30
0
 11
87.435084
 21
42.718418
 31
0
  0
LINE
  5
2E
  8
0
 10
14.479629
 20
54.722057
 30
0
 11
17.947348
 21
58.189776
 31
0
  0
LINE
  5
2F
  8
0
 10
17.947348
 20
58.189776
 30
0
 11
17.947348
 21
55.655674
 31
0
  0
LINE
  5
30
  8
0
 10
16.746983
 20
55.388925
 30
0
 11
16.746983
 21
54.588683
 31
0
  0
LINE
  5
31
  8
0
 10
15.94674
 20
54.988804
 30
0
 11
15.94674
 21
53.388319
 31
0
  0
LINE
  5
32
  8
0
 10
14.479629
 20
54.855431
 30
0
 11
14.479629
 21
53.254944
 31
0
  0
LINE
  5
33
  8
0
 10
19.147712
 20
58.189776
 30
0
 11
19.147712
 21
55.522299
 31
0
  0
LINE
  5
34
  8
0
 10
88.368701
 20
42.585043
 30
0
 11
88.368701
 21
39.384073
 31
0
  0
LINE
  5
35
  8
0
 10
87.435084
 20
42.451669
 30
0
 11
87.435084
 21
39.917567
 31
0
  0
LINE
  5
36
  8
0
 10
85.301104
 20
39.917567
 30
0
 11
85.301104
 21
38.050335
 31
0
  0
LINE
  5
37
  8
0
 10
84.367489
 20
40.050941
 30
0
 11
84.367489
 21
38.450456
 31
0
  0
LINE
  5
38
  8
0
 10
19.281084
 20
56.189168
 30
0
 11
20.48145
 21
56.722663
 31
0
  0
LINE
  5
39
  8
0
 10
20.48145
 20
56.722663
 30
0
 11
86.634842
 21
41.384679
 31
0
  0
LINE
  5
3A
  8
0
 10
18.880963
 20
54.588683
 30
0
 11
19.947954
 21
53.921814
 31
0
  0
LINE
  5
3B
  8
0
 10
19.947954
 20
53.921814
 30
0
 11
86.368095
 21
39.784194
 31
0
  0
LINE
  5
3C
  8
0
 10
17.013731
 20
52.854823
 30
0
 11
17.947348
 21
51.787834
 31
0
  0
LINE
  5
3D
  8
0
 10
17.947348
 20
51.787834
 30
0
 11
81.566638
 21
38.183709
 31
0
  0
LINE
  5
3E
  8
0
 10
81.566638
 20
38.183709
 30
0
 11
83.967367
 21
38.183709
 31
0
  0
ARC
  5
3F
  8
0
 10
15.213186
 20
53.188258
 30
0
 40
0.736581
 50
174.805571
 51
5.194429
  0
ARC
  5
40
  8
0
 10
16.680296
 20
53.321633
 30
0
 40
0.736581
 50
174.805571
 51
185.194429
  0
ARC
  5
41
  8
0
 10
86.870001
 20
40.103589
 30
0
 40
0.594915
 50
212.471192
 51
341.77884
  0
ARC
  5
42
  8
0
 10
87.576795
 20
40.426056
 30
0
 40
1.308757
 50
223.967755
 51
307.234834
  0
ARC
  5
43
  8
0
 10
84.734265
 20
38.417113
 30
0
 40
0.675154
 50
200.224859
 51
327.094757
  0
ARC
  5
44
  8
0
 10
15.880054
 20
53.81067
 30
0
 40
1.482857
 50
246.12471900000003
 51
319.864514
  0
ARC
  5
45
  8
0
 10
17.915758
 20
55.497731
 30
0
 40
1.232197
 50
252.597296
 51
1.142499
  0
LINE
  5
46
  8
0
 10
17.013731
 20
54.321936
 30
0
 11
17.013731
 21
52.854823
 31
0
  0
LINE
  5
47
  8
0
 10
17.947348
 20
55.655674
 30
0
 11
17.813974
 21
54.588683
 31
0
  0
LINE
  5
48
  8
0
 10
17.813974
 20
54.588683
 30
0
 11
17.547227
 21
54.321936
 31
0
  0
LINE
  5
49
  8
0
 10
17.547227
 20
54.321936
 30
0
 11
17.147104
 21
54.588683
 31
0
  0
LINE
  5
4A
  8
0
 10
17.147104
 20
54.588683
 30
0
 11
16.746983
 21
55.122178
 31
0
  0
ARC
  5
4B
  8
0
 10
85.967974
 20
40.851184
 30
0
 40
0.943095
 50
278.130102
 51
45
  0
LINE
  5
4C
  8
0
 10
88.368701
 20
42.451669
 30
0
 11
87.568459
 21
42.718418
 31
0
  0
LINE
  5
4D
  8
0
 10
87.435084
 20
42.85179
 30
0
 11
85.167731
 21
41.784801
 31
0
  0
CIRCLE
  5
4E
  8
0
 10
16.346861
 20
58.589897
 30
0
 40
0.266747
  0
INSERT
  5
7F
  8
0
  2
SPECYL8002F2ASPN
 10
88.38501
 20
18.585694
 30
0
 41
1
 42
1
 43
1
 50
0
  0
ENDSEC
999
Created By CadLib version 4.0.36.7
999
CadLib website: www.woutware.com
  0
EOF
