  0
SECTION
  2
HEADER
  9
$ACADVER
  1
AC1009
  9
$DWGCODEPAGE
  3
dos932
  9
$INSBASE
 10
0
 20
0
 30
0
  9
$EXTMIN
 10
5.4607566071402065
 20
5.3517050957777332
 30
0
  9
$EXTMAX
 10
91.322500626671115
 20
95.618553754902791
 30
0
  9
$LIMMIN
 10
0
 20
0
  9
$LIMMAX
 10
297
 20
210
  9
$SNAPMODE
 70
0
  9
$SNAPUNIT
 10
1
 20
1
  9
$SNAPBASE
 10
0
 20
0
  9
$SNAPANG
 50
0
  9
$SNAPSTYLE
 70
0
  9
$SNAPISOPAIR
 70
0
  9
$ORTHOMODE
 70
0
  9
$REGENMODE
 70
1
  9
$FILLMODE
 70
1
  9
$QTEXTMODE
 70
0
  9
$MIRRTEXT
 70
1
  9
$LTSCALE
 40
1
  9
$OSMODE
 70
0
  9
$ATTMODE
 70
1
  9
$TEXTSIZE
 40
0.2
  9
$TRACEWID
 40
0.05
  9
$TEXTSTYLE
  7
STANDARD
  9
$CLAYER
  8
LAY-1
  9
$CELTYPE
  6
CONTINUOUS
  9
$CECOLOR
 62
256
  9
$DIMSCALE
 40
1
  9
$DIMASZ
 40
0.18
  9
$DIMEXO
 40
0.0625
  9
$DIMDLI
 40
0.38
  9
$DIMRND
 40
0
  9
$DIMDLE
 40
0
  9
$DIMEXE
 40
0.18
  9
$DIMTP
 40
0
  9
$DIMTM
 40
0
  9
$DIMTXT
 40
0.18
  9
$DIMCEN
 40
0.09
  9
$DIMTSZ
 40
0
  9
$DIMTOL
 70
0
  9
$DIMLIM
 70
0
  9
$DIMTIH
 70
1
  9
$DIMTOH
 70
1
  9
$DIMSE1
 70
0
  9
$DIMSE2
 70
0
  9
$DIMTAD
 70
0
  9
$DIMZIN
 70
0
  9
$DIMBLK
  1

  9
$DIMASO
 70
1
  9
$DIMSHO
 70
1
  9
$DIMPOST
  1

  9
$DIMAPOST
  1

  9
$DIMALT
 70
0
  9
$DIMALTD
 70
2
  9
$DIMALTF
 40
25.4
  9
$DIMLFAC
 40
1
  9
$DIMTOFL
 70
0
  9
$DIMTVP
 40
0
  9
$DIMTIX
 70
0
  9
$DIMSOXD
 70
0
  9
$DIMSAH
 70
0
  9
$DIMBLK1
  1

  9
$DIMBLK2
  1

  9
$DIMSTYLE
  2
STANDARD
  9
$DIMCLRD
 70
0
  9
$DIMCLRE
 70
0
  9
$DIMCLRT
 70
0
  9
$DIMTFAC
 40
1
  9
$DIMGAP
 40
0.09
  9
$LUNITS
 70
2
  9
$LUPREC
 70
4
  9
$SKETCHINC
 40
0.1
  9
$FILLETRAD
 40
0
  9
$AUNITS
 70
0
  9
$AUPREC
 70
0
  9
$MENU
  1
.
  9
$ELEVATION
 40
0
  9
$PELEVATION
 40
0
  9
$THICKNESS
 40
0
  9
$LIMCHECK
 70
0
  9
$CHAMFERA
 40
0.5
  9
$CHAMFERB
 40
0.5
  9
$SKPOLY
 70
0
  9
$TDCREATE
 40
2451711.2321764468
  9
$TDUPDATE
 40
2451711.2321764468
  9
$TDINDWG
 40
0
  9
$TDUSRTIMER
 40
1.1574074074074074E-08
  9
$USRTIMER
 70
1
  9
$ANGBASE
 50
0
  9
$ANGDIR
 70
1
  9
$PDMODE
 70
0
  9
$PDSIZE
 40
0
  9
$PLINEWID
 40
0
  9
$SPLFRAME
 70
0
  9
$SPLINETYPE
 70
6
  9
$SPLINESEGS
 70
8
  9
$HANDLING
 70
0
  9
$HANDSEED
  5
D8
  9
$SURFTAB1
 70
6
  9
$SURFTAB2
 70
6
  9
$SURFTYPE
 70
6
  9
$SURFU
 70
6
  9
$SURFV
 70
6
  9
$UCSORG
 10
0
 20
0
 30
0
  9
$UCSXDIR
 10
1
 20
0
 30
0
  9
$UCSYDIR
 10
0
 20
1
 30
0
  9
$PUCSORG
 10
0
 20
0
 30
0
  9
$PUCSXDIR
 10
1
 20
0
 30
0
  9
$PUCSYDIR
 10
0
 20
1
 30
0
  9
$USERI1
 70
0
  9
$USERI2
 70
0
  9
$USERI3
 70
0
  9
$USERI4
 70
0
  9
$USERI5
 70
0
  9
$USERR1
 40
0
  9
$USERR2
 40
0
  9
$USERR3
 40
0
  9
$USERR4
 40
0
  9
$USERR5
 40
0
  9
$WORLDVIEW
 70
1
  9
$SHADEDGE
 70
3
  9
$SHADEDIF
 70
70
  9
$TILEMODE
 70
1
  9
$MAXACTVP
 70
48
  9
$PINSBASE
 10
0
 20
0
 30
0
  9
$PLIMCHECK
 70
0
  9
$PEXTMIN
 10
1E+20
 20
1E+20
 30
1E+20
  9
$PEXTMAX
 10
-1E+20
 20
-1E+20
 30
-1E+20
  9
$PLIMMAX
 10
0
 20
0
  9
$PLIMMIN
 10
0
 20
0
  9
$UNITMODE
 70
0
  9
$VISRETAIN
 70
1
  9
$PLINEGEN
 70
1
  9
$PSLTSCALE
 70
1
  9
$TREEDEPTH
 70
3020
  0
ENDSEC
  0
SECTION
  2
TABLES
  0
TABLE
  2
LTYPE
 70
7
  0
LTYPE
  2
CONTINUOUS
  3
実線
 70
64
 72
65
 73
0
 40
0
  0
LTYPE
  2
DASHED
  3
破線
 70
64
 72
65
 73
2
 40
3.8
 49
3
 49
-0.8
  0
LTYPE
  2
DOT
  3
点線
 70
64
 72
65
 73
2
 40
2
 49
1
 49
-1
  0
LTYPE
  2
DASHDOT
  3
一点鎖線
 70
64
 72
65
 73
4
 40
25.6
 49
20
 49
-2
 49
1.6
 49
-2
  0
LTYPE
  2
DIVIDE
  3
二点鎖線
 70
64
 72
65
 73
6
 40
31.199999999999996
 49
20
 49
-2.4
 49
2
 49
-2.4
 49
2
 49
-2.4
  0
LTYPE
  2
ByBlock
  3

 70
64
 72
65
 73
0
 40
0
  0
LTYPE
  2
ByLayer
  3

 70
64
 72
65
 73
0
 40
0
  0
ENDTAB
  0
TABLE
  2
LAYER
 70
3
  0
LAYER
 70
0
  2
0
 62
7
  6
CONTINUOUS
  0
LAYER
 70
64
  2
LAY-1
 62
7
  6
CONTINUOUS
  0
LAYER
 70
0
  2
SPEC
 62
7
  6
CONTINUOUS
  0
ENDTAB
  0
TABLE
  2
STYLE
 70
5
  0
STYLE
  2
STANDARD
 70
0
 40
0
 41
1
 50
0
 71
0
 42
0.2
  3
txt.shx
  4
extfont2.shx
  0
STYLE
  2
EXCADSTD
 70
64
 40
0
 41
1
 50
0
 71
0
 42
0.2
  3
monotxt
  4
extfont
  0
STYLE
  2
EXCADVERT
 70
68
 40
0
 41
1
 50
0
 71
0
 42
0.286885
  3
monotxt
  4
extfont
  0
STYLE
  2
EXCADSTD2
 70
64
 40
0
 41
1
 50
0
 71
0
 42
0.2
  3
monotxt
  0
STYLE
  2
EXCADVERT2
 70
68
 40
0
 41
1
 50
0
 71
0
 42
0.286885
  3
monotxt
  0
ENDTAB
  0
TABLE
  2
APPID
 70
2
  0
APPID
  2
ACAD
 70
64
  0
APPID
  2
ACAD_MLEADERVER
 70
64
  0
ENDTAB
  0
TABLE
  2
DIMSTYLE
 70
1
  0
DIMSTYLE
  2
STANDARD
 70
0
  3

  4

  5

  6

  7

 40
1
 41
0.18
 42
0.0625
 43
0.38
 44
0.18
 45
0
 46
0
 47
0
 48
0
140
0.18
141
0.09
142
0
143
25.4
144
1
145
0
146
1
147
0.09
 71
0
 72
0
 73
1
 74
1
 75
0
 76
0
 77
0
 78
0
170
0
171
2
172
0
173
0
174
0
175
0
176
0
177
0
178
0
  0
ENDTAB
  0
ENDSEC
  0
SECTION
  2
BLOCKS
  0
BLOCK
  8
0
  2
_EX_NORM
 70
64
 10
0
 20
0
 30
0
  3
_EX_NORM
  0
LINE
  8
0
  6
ByBlock
 62
0
 10
0
 20
0
 30
0
 11
-1
 21
0
 31
0
  0
LINE
  8
0
  6
ByBlock
 62
0
 10
0
 20
0
 30
0
 11
-0.960768922
 21
0.277350098
 31
0
  0
LINE
  8
0
  6
ByBlock
 62
0
 10
0
 20
0
 30
0
 11
-0.960768922
 21
-0.277350098
 31
0
  0
ENDBLK
  8
0
  0
BLOCK
  8
0
  2
_EX_BNORM
 70
64
 10
0
 20
0
 30
0
  3
_EX_BNORM
  0
LINE
  8
0
  6
ByBlock
 62
0
 10
0
 20
0
 30
0
 11
-1
 21
0
 31
0
  0
LINE
  8
0
  6
ByBlock
 62
0
 10
0
 20
0
 30
0
 11
-0.960768922
 21
0.277350098
 31
0
  0
LINE
  8
0
  6
ByBlock
 62
0
 10
0
 20
0
 30
0
 11
-0.960768922
 21
-0.277350098
 31
0
  0
LINE
  8
0
  6
ByBlock
 62
0
 10
0
 20
0
 30
0
 11
-0.960768922
 21
0.138767504
 31
0
  0
LINE
  8
0
  6
ByBlock
 62
0
 10
0
 20
0
 30
0
 11
-0.960768922
 21
-0.138767504
 31
0
  0
LINE
  8
0
  6
ByBlock
 62
0
 10
-0.960768922
 20
0.277350098
 30
0
 11
-0.960768922
 21
-0.277350098
 31
0
  0
ENDBLK
  8
0
  0
BLOCK
  8
0
  2
_EX_BCIR
 70
64
 10
0
 20
0
 30
0
  3
_EX_BCIR
  0
LINE
  8
0
  6
ByBlock
 62
0
 10
0
 20
0
 30
0
 11
-1
 21
0
 31
0
  0
CIRCLE
  8
0
  6
ByBlock
 62
0
 10
0
 20
0
 30
0
 40
0.5
  0
CIRCLE
  8
0
  6
ByBlock
 62
0
 10
0
 20
0
 30
0
 40
0.25
  0
ENDBLK
  8
0
  0
BLOCK
  8
0
  2
_EX_RCIVIL
 70
64
 10
0
 20
0
 30
0
  3
_EX_RCIVIL
  0
LINE
  8
0
  6
ByBlock
 62
0
 10
0
 20
0
 30
0
 11
-1
 21
0
 31
0
  0
LINE
  8
0
  6
ByBlock
 62
0
 10
-1
 20
-0.25
 30
0
 11
0
 21
-0.25
 31
0
  0
LINE
  8
0
  6
ByBlock
 62
0
 10
-1
 20
-0.125
 30
0
 11
0
 21
-0.125
 31
0
  0
ENDBLK
  8
0
  0
BLOCK
  8
0
  2
_EX_SLANT
 70
64
 10
0
 20
0
 30
0
  3
_EX_SLANT
  0
LINE
  8
0
  6
ByBlock
 62
0
 10
0
 20
0
 30
0
 11
-1
 21
0
 31
0
  0
LINE
  8
0
  6
ByBlock
 62
0
 10
0.707106781
 20
0.707106781
 30
0
 11
-0.707106781
 21
-0.707106781
 31
0
  0
ENDBLK
  8
0
  0
BLOCK
  8
0
  2
_EX_NONE
 70
64
 10
0
 20
0
 30
0
  3
_EX_NONE
  0
LINE
  8
0
  6
ByBlock
 62
0
 10
0
 20
0
 30
0
 11
-1
 21
0
 31
0
  0
ENDBLK
  8
0
  0
BLOCK
  8
0
  2
_EX_WCIR
 70
64
 10
0
 20
0
 30
0
  3
_EX_WCIR
  0
LINE
  8
0
  6
ByBlock
 62
0
 10
0
 20
0
 30
0
 11
-1
 21
0
 31
0
  0
ENDBLK
  8
0
  0
BLOCK
  8
0
  2
_EX_CIVIL
 70
64
 10
0
 20
0
 30
0
  3
_EX_CIVIL
  0
LINE
  8
0
  6
ByBlock
 62
0
 10
0
 20
0
 30
0
 11
-1
 21
0
 31
0
  0
LINE
  8
0
  6
ByBlock
 62
0
 10
-1
 20
0.25
 30
0
 11
0
 21
0.25
 31
0
  0
LINE
  8
0
  6
ByBlock
 62
0
 10
-1
 20
0.125
 30
0
 11
0
 21
0.125
 31
0
  0
ENDBLK
  8
0
  0
BLOCK
  8
0
  2
SPECYS4082
 70
64
 10
0
 20
0
 30
0
  3
SPECYS4082
  0
ENDBLK
  8
0
  0
BLOCK
  8
0
  2
*MODEL_SPACE
 70
64
 10
0
 20
0
 30
0
  3
*MODEL_SPACE
  0
ENDBLK
  8
0
  0
BLOCK
  8
0
 67
1
  2
*PAPER_SPACE
 70
64
 10
0
 20
0
 30
0
  3
*PAPER_SPACE
  0
ENDBLK
  8
0
  0
ENDSEC
  0
SECTION
  2
ENTITIES
  0
LINE
  8
LAY-1
  6
CONTINUOUS
 62
7
 10
20.1532061100713
 20
50.3199963394612
 30
0
 11
70.2831510214005
 21
32.4527098624946
 31
0
  0
LINE
  8
LAY-1
  6
CONTINUOUS
 62
7
 10
71.1455503510242
 20
34.7128055835567
 30
0
 11
70.3193032090242
 21
32.6096313495567
 31
0
  0
LINE
  8
LAY-1
  6
CONTINUOUS
 62
7
 10
19.9778585682279
 20
51.2855386339581
 30
0
 11
20.3543860071458
 21
53.9107859042994
 31
0
  0
LINE
  8
LAY-1
  6
CONTINUOUS
 62
7
 10
79.8614148411344
 20
36.9277471286583
 30
0
 11
70.3418868266059
 21
32.2811280016368
 31
0
  0
LINE
  8
LAY-1
  6
CONTINUOUS
 62
7
 10
79.5790374171671
 20
37.0390326778346
 30
0
 11
70.2831510214005
 21
32.4527098624946
 31
0
  0
ARC
  8
LAY-1
  6
CONTINUOUS
 62
7
 10
75.7469845593658
 20
36.868158199165
 30
0
 40
0.518540899099965
 50
249.912309293278
 51
301.047187370599
  0
ARC
  8
LAY-1
  6
CONTINUOUS
 62
7
 10
75.6161773350709
 20
37.0465051720709
 30
0
 40
0.739074424257602
 50
302.6045820441
 51
355.089670745055
  0
ARC
  8
LAY-1
  6
CONTINUOUS
 62
7
 10
75.5105199669243
 20
37.0864336135432
 30
0
 40
0.848318817150215
 50
353.013160253881
 51
30.201742401184802
  0
ARC
  8
LAY-1
  6
CONTINUOUS
 62
7
 10
75.7012233010068
 20
37.2063922346174
 30
0
 40
0.623205016689398
 50
29.489873406132
 51
67.6412332842763
  0
ARC
  8
LAY-1
  6
CONTINUOUS
 62
7
 10
75.7454649251642
 20
37.3002559739811
 30
0
 40
0.519594332701312
 50
68.2156748580083
 51
70.7267325724485
  0
ARC
  8
LAY-1
  6
CONTINUOUS
 62
7
 10
75.8043311797324
 20
36.8448972918714
 30
0
 40
0.570394989009961
 50
249.91230929327998
 51
301.047187370601
  0
ARC
  8
LAY-1
  6
CONTINUOUS
 62
7
 10
75.660443233008
 20
37.0410789620679
 30
0
 40
0.812981866683363
 50
302.604582044101
 51
355.089670745055
  0
ARC
  8
LAY-1
  6
CONTINUOUS
 62
7
 10
75.5442201280468
 20
37.0850002476874
 30
0
 40
0.933150698865237
 50
353.013160253881
 51
2.00969326576118
  0
ARC
  8
LAY-1
  6
CONTINUOUS
 62
7
 10
75.734377633137
 20
36.5003499145108
 30
0
 40
0.228915438345758
 50
207.93198727610502
 51
236.618107030471
  0
ARC
  8
LAY-1
  6
CONTINUOUS
 62
7
 10
76.3838442469586
 20
36.6553998022328
 30
0
 40
0.570394989009961
 50
249.912309293279
 51
301.047187370597
  0
ARC
  8
LAY-1
  6
CONTINUOUS
 62
7
 10
76.2399563002342
 20
36.8515814724292
 30
0
 40
0.812981866683363
 50
302.604582044098
 51
355.089670745055
  0
ARC
  8
LAY-1
  6
CONTINUOUS
 62
7
 10
76.123733195273
 20
36.8955027580487
 30
0
 40
0.933150698865237
 50
353.013160253882
 51
2.00969326576072
  0
LINE
  8
LAY-1
  6
CONTINUOUS
 62
7
 10
75.5998695593532
 20
36.3118649886617
 30
0
 11
76.1878982843607
 21
36.1195829271759
 31
0
  0
LINE
  8
LAY-1
  6
CONTINUOUS
 62
7
 10
76.4767968537937
 20
37.1177245106664
 30
0
 11
76.4767968537937
 21
38.1869056061003
 31
0
  0
LINE
  8
LAY-1
  6
CONTINUOUS
 62
7
 10
77.0563099210199
 20
36.9282270210278
 30
0
 11
77.0563099210199
 21
37.9974081164617
 31
0
  0
LINE
  8
LAY-1
  6
CONTINUOUS
 62
7
 10
76.4767968537937
 20
38.1869056061001
 30
0
 11
77.0563099210199
 21
37.9974081164616
 31
0
  0
LINE
  8
LAY-1
  6
CONTINUOUS
 62
7
 10
76.4767968537936
 20
38.1869056061003
 30
0
 11
75.6989998586565
 21
37.8628234596957
 31
0
  0
LINE
  8
LAY-1
  6
CONTINUOUS
 62
7
 10
75.6659488592717
 20
36.2902574319734
 30
0
 11
74.5460383044158
 21
34.5586839703778
 31
0
  0
ARC
  8
LAY-1
  6
CONTINUOUS
 62
7
 10
75.5054995253112
 20
36.9605390393087
 30
0
 40
0.518540899099965
 50
249.912309293281
 51
301.047187370599
  0
ARC
  8
LAY-1
  6
CONTINUOUS
 62
7
 10
75.3746923010163
 20
37.1388860122145
 30
0
 40
0.739074424257602
 50
302.604582044098
 51
355.089670745055
  0
ARC
  8
LAY-1
  6
CONTINUOUS
 62
7
 10
75.2690349328697
 20
37.1788144536868
 30
0
 40
0.848318817150215
 50
353.013160253881
 51
30.201742401183804
  0
ARC
  8
LAY-1
  6
CONTINUOUS
 62
7
 10
75.4597382669522
 20
37.298773074761
 30
0
 40
0.623205016689398
 50
29.4898734061327
 51
67.6412332842746
  0
ARC
  8
LAY-1
  6
CONTINUOUS
 62
7
 10
75.5039798911096
 20
37.3926368141248
 30
0
 40
0.519594332701312
 50
68.2156748580083
 51
70.7267325724519
  0
ARC
  8
LAY-1
  6
CONTINUOUS
 62
7
 10
71.9102344048417
 20
34.9752160932385
 30
0
 40
0.518540899099965
 50
249.91230929327998
 51
301.047187370599
  0
ARC
  8
LAY-1
  6
CONTINUOUS
 62
7
 10
71.7794271805468
 20
35.1535630661444
 30
0
 40
0.739074424257602
 50
302.6045820441
 51
355.089670745055
  0
ARC
  8
LAY-1
  6
CONTINUOUS
 62
7
 10
71.9675810252083
 20
34.9519551859449
 30
0
 40
0.570394989009961
 50
249.91230929327998
 51
301.047187370601
  0
ARC
  8
LAY-1
  6
CONTINUOUS
 62
7
 10
71.8236930784839
 20
35.1481368561414
 30
0
 40
0.812981866683363
 50
302.604582044101
 51
355.089670745055
  0
ARC
  8
LAY-1
  6
CONTINUOUS
 62
7
 10
71.7074699735227
 20
35.1920581417609
 30
0
 40
0.933150698865237
 50
353.013160253881
 51
2.00969326576118
  0
ARC
  8
LAY-1
  6
CONTINUOUS
 62
7
 10
71.8976274786129
 20
34.6074078085843
 30
0
 40
0.228915438345758
 50
207.931987276103
 51
236.618107030468
  0
ARC
  8
LAY-1
  6
CONTINUOUS
 62
7
 10
72.5470940924345
 20
34.7624576963062
 30
0
 40
0.570394989009961
 50
249.912309293279
 51
301.047187370597
  0
ARC
  8
LAY-1
  6
CONTINUOUS
 62
7
 10
72.4032061457101
 20
34.9586393665027
 30
0
 40
0.812981866683363
 50
302.604582044097
 51
355.089670745055
  0
ARC
  8
LAY-1
  6
CONTINUOUS
 62
7
 10
72.2869830407489
 20
35.0025606521222
 30
0
 40
0.933150698865237
 50
353.013160253882
 51
2.00969326576072
  0
LINE
  8
LAY-1
  6
CONTINUOUS
 62
7
 10
71.7631194048291
 20
34.4189228827352
 30
0
 11
72.3511481298366
 21
34.2266408212494
 31
0
  0
ARC
  8
LAY-1
  6
CONTINUOUS
 62
7
 10
71.6687493707871
 20
35.0675969333821
 30
0
 40
0.518540899099965
 50
249.912309293281
 51
301.047187370599
  0
ARC
  8
LAY-1
  6
CONTINUOUS
 62
7
 10
71.5379421464922
 20
35.245943906288
 30
0
 40
0.739074424257602
 50
302.604582044098
 51
355.089670745055
  0
LINE
  8
LAY-1
  6
CONTINUOUS
 62
7
 10
72.6400466992695
 20
35.2247824047399
 30
0
 11
72.6400466992695
 21
35.2563491252856
 31
0
  0
LINE
  8
LAY-1
  6
CONTINUOUS
 62
7
 10
73.2195597664958
 20
35.0352849151013
 30
0
 11
73.2195597664958
 21
35.0442253820721
 31
0
  0
ARC
  8
LAY-1
  6
CONTINUOUS
 62
7
 10
71.6737698124002
 20
35.1934915076167
 30
0
 40
0.848318817150215
 50
353.013160253881
 51
7.35433484080653
  0
ARC
  8
LAY-1
  6
CONTINUOUS
 62
7
 10
71.4322847783456
 20
35.2858723477603
 30
0
 40
0.848318817150215
 50
353.013160253881
 51
7.06963724010917
  0
ARC
  8
LAY-1
  6
CONTINUOUS
 62
7
 10
28.1168172022257
 20
55.4142017795657
 30
0
 40
0.855592483514942
 50
249.912309293279
 51
301.047187370597
  0
ARC
  8
LAY-1
  6
CONTINUOUS
 62
7
 10
27.9009852821391
 20
55.7084742848604
 30
0
 40
1.21947280002504
 50
302.604582044097
 51
355.089670745055
  0
LINE
  8
LAY-1
  6
CONTINUOUS
 62
7
 10
27.502986434129
 20
54.7150858209708
 30
0
 11
27.8228982583288
 21
54.6104764669804
 31
0
  0
ARC
  8
LAY-1
  6
CONTINUOUS
 62
7
 10
27.7266506246972
 20
55.7743562132897
 30
0
 40
1.39972604829786
 50
353.013160253881
 51
356.167720082962
  0
LINE
  8
LAY-1
  6
CONTINUOUS
 62
7
 10
28.044803159656
 20
54.5616453441786
 30
0
 11
75.5688875735647
 21
36.3811611481602
 31
0
  0
ARC
  8
LAY-1
  6
CONTINUOUS
 62
7
 10
23.9511751872201
 20
52.9313684898479
 30
0
 40
0.855592483514942
 50
249.912309293279
 51
301.047187370597
  0
LINE
  8
LAY-1
  6
CONTINUOUS
 62
7
 10
23.3373444191234
 20
52.232252531253
 30
0
 11
23.6572562433232
 21
52.1276431772626
 31
0
  0
LINE
  8
LAY-1
  6
CONTINUOUS
 62
7
 10
24.0765867622257
 20
52.0850172420189
 30
0
 11
71.7337146664987
 21
34.4924917138144
 31
0
  0
ARC
  8
LAY-1
  6
CONTINUOUS
 62
7
 10
23.7353432671335
 20
53.2256409951426
 30
0
 40
1.21947280002504
 50
302.604582044097
 51
336.879833218747
  0
LINE
  8
LAY-1
  6
CONTINUOUS
 62
7
 10
74.5460383044158
 20
34.5586839703778
 30
0
 11
24.4503196913928
 21
52.8956153566392
 31
0
  0
LINE
  8
LAY-1
  6
CONTINUOUS
 62
7
 10
34.6659645965982
 20
38.1095287691748
 30
0
 11
41.0933072997622
 21
41.7352088218188
 31
0
  0
LINE
  8
LAY-1
  6
CONTINUOUS
 62
7
 10
20.3543860071458
 20
53.9107859042994
 30
0
 11
26.6799278058981
 21
57.7471117464302
 31
0
  0
LINE
  8
LAY-1
  6
CONTINUOUS
 62
7
 10
28.1626098653314
 20
58.6463313992652
 30
0
 11
28.9708602894642
 21
59.1365205542283
 31
0
  0
LINE
  8
LAY-1
  6
CONTINUOUS
 62
7
 10
28.9708602894642
 20
59.1365205542283
 30
0
 11
29.448911224975
 21
58.1427731404107
 31
0
  0
LINE
  8
LAY-1
  6
CONTINUOUS
 62
7
 10
18.8897646651157
 20
50.6421401208634
 30
0
 11
29.2222796359744
 21
56.751837776337
 31
0
  0
LINE
  8
LAY-1
  6
CONTINUOUS
 62
7
 10
29.5279956654228
 20
56.6321567775269
 30
0
 11
19.2066436545178
 21
50.5290598683817
 31
0
  0
LINE
  8
LAY-1
  6
CONTINUOUS
 62
7
 10
29.7343454574608
 20
56.0450350687667
 30
0
 11
75.9169695081663
 21
37.7907296721394
 31
0
  0
LINE
  8
LAY-1
  6
CONTINUOUS
 62
7
 10
20.0029794600713
 20
50.2448824474612
 30
0
 11
30.2470930048904
 21
56.3506462267571
 31
0
  0
LINE
  8
LAY-1
  6
CONTINUOUS
 62
7
 10
75.9473393354084
 20
30.2807871580689
 30
0
 11
11.6050055864181
 21
53.2417520340475
 31
0
  0
LINE
  8
LAY-1
  6
CONTINUOUS
 62
7
 10
11.2936965200525
 20
52.3693866105827
 30
0
 11
75.6360302690422
 21
29.4084217346043
 31
0
  0
LINE
  8
LAY-1
  6
CONTINUOUS
 62
7
 10
19.0920696686061
 20
60.717588768322
 30
0
 11
86.1766361851269
 21
34.4554789930305
 31
0
  0
LINE
  8
LAY-1
  6
CONTINUOUS
 62
7
 10
19.5943459420964
 20
62.0006153936359
 30
0
 11
87.1299031846662
 21
35.5619528198371
 31
0
  0
LINE
  8
LAY-1
  6
CONTINUOUS
 62
7
 10
19.6437250909039
 20
62.1267506821184
 30
0
 11
87.1792823334729
 21
35.6880881083199
 31
0
  0
LINE
  8
LAY-1
  6
CONTINUOUS
 62
7
 10
66.0014547421203
 20
55.7859569304612
 30
0
 11
53.6453775997428
 21
48.8158629907067
 31
0
  0
LINE
  8
LAY-1
  6
CONTINUOUS
 62
7
 10
71.5256446562295
 20
31.8586966043908
 30
0
 11
80.9985790749601
 21
36.4825727242904
 31
0
  0
TEXT
  8
LAY-1
  6
CONTINUOUS
 62
7
 10
52
 20
83
 30
0
 40
4.5
  1
（ＥＧインバータ）
 41
0.92837039121868836
 72
5
 11
92.5
 21
83
 31
0
  7
EXCADSTD
  0
LINE
  8
LAY-1
  6
CONTINUOUS
 62
7
 10
28.9708602894642
 20
59.1365205542283
 30
0
 11
53.8902136782953
 21
48.9539756333916
 31
0
  0
TEXT
  8
LAY-1
  6
CONTINUOUS
 62
7
 10
5
 20
6
 30
0
 40
4.5
  1
三菱　ＹＳ４０８２
 41
0.86263484798953893
 72
5
 11
45.5
 21
6
 31
0
  7
EXCADSTD
  0
TEXT
  8
LAY-1
  6
CONTINUOUS
 62
7
 10
5
 20
90
 30
0
 40
4.5
  1
ＦＨＦ３２Ｗ×２　   埋込下面開放形
 41
0.81225265157511461
 72
5
 11
83.75
 21
90
 31
0
  7
EXCADSTD
  0
TEXT
  8
LAY-1
  6
CONTINUOUS
 62
7
 10
5
 20
83
 30
0
 40
4.5
  1
（ＦＬ４０Ｗ×２）
 41
1.005640243902439
 72
5
 11
45.5
 21
83
 31
0
  7
EXCADSTD
  0
INSERT
  8
0
  2
SPECYS4082
 10
92.5
 20
6
 30
0
 41
1
 42
1
 43
1
 50
0
  0
ENDSEC
999
Created By CadLib version 4.0.36.7
999
CadLib website: www.woutware.com
  0
EOF
