  0
SECTION
  2
HEADER
  9
$ACADVER
  1
AC1009
  9
$DWGCODEPAGE
  3
dos932
  9
$INSBASE
 10
0
 20
0
 30
0
  9
$EXTMIN
 10
98.055088846406392
 20
58.724776020450882
 30
0
  9
$EXTMAX
 10
247.89717021378209
 20
160.19941777860666
 30
0
  9
$LIMMIN
 10
0
 20
0
  9
$LIMMAX
 10
297
 20
210
  9
$SNAPMODE
 70
0
  9
$SNAPUNIT
 10
1
 20
1
  9
$SNAPBASE
 10
0
 20
0
  9
$SNAPANG
 50
0
  9
$SNAPSTYLE
 70
0
  9
$SNAPISOPAIR
 70
0
  9
$ORTHOMODE
 70
0
  9
$REGENMODE
 70
1
  9
$FILLMODE
 70
1
  9
$QTEXTMODE
 70
0
  9
$MIRRTEXT
 70
1
  9
$LTSCALE
 40
1
  9
$OSMODE
 70
37
  9
$ATTMODE
 70
1
  9
$TEXTSIZE
 40
0.2
  9
$TRACEWID
 40
0.05
  9
$TEXTSTYLE
  7
STANDARD
  9
$CLAYER
  8
0
  9
$CELTYPE
  6
CONTINUOUS
  9
$CECOLOR
 62
256
  9
$DIMSCALE
 40
1
  9
$DIMASZ
 40
0.18
  9
$DIMEXO
 40
0.0625
  9
$DIMDLI
 40
0.38
  9
$DIMRND
 40
0
  9
$DIMDLE
 40
0
  9
$DIMEXE
 40
0.18
  9
$DIMTP
 40
0
  9
$DIMTM
 40
0
  9
$DIMTXT
 40
0.18
  9
$DIMCEN
 40
0.09
  9
$DIMTSZ
 40
0
  9
$DIMTOL
 70
0
  9
$DIMLIM
 70
0
  9
$DIMTIH
 70
1
  9
$DIMTOH
 70
1
  9
$DIMSE1
 70
0
  9
$DIMSE2
 70
0
  9
$DIMTAD
 70
0
  9
$DIMZIN
 70
0
  9
$DIMBLK
  1

  9
$DIMASO
 70
1
  9
$DIMSHO
 70
1
  9
$DIMPOST
  1

  9
$DIMAPOST
  1

  9
$DIMALT
 70
0
  9
$DIMALTD
 70
2
  9
$DIMALTF
 40
25.4
  9
$DIMLFAC
 40
1
  9
$DIMTOFL
 70
0
  9
$DIMTVP
 40
0
  9
$DIMTIX
 70
0
  9
$DIMSOXD
 70
0
  9
$DIMSAH
 70
0
  9
$DIMBLK1
  1

  9
$DIMBLK2
  1

  9
$DIMSTYLE
  2
STANDARD
  9
$DIMCLRD
 70
0
  9
$DIMCLRE
 70
0
  9
$DIMCLRT
 70
0
  9
$DIMTFAC
 40
1
  9
$DIMGAP
 40
0.09
  9
$LUNITS
 70
2
  9
$LUPREC
 70
4
  9
$SKETCHINC
 40
0.1
  9
$FILLETRAD
 40
0
  9
$AUNITS
 70
0
  9
$AUPREC
 70
0
  9
$MENU
  1
.
  9
$ELEVATION
 40
0
  9
$PELEVATION
 40
0
  9
$THICKNESS
 40
0
  9
$LIMCHECK
 70
0
  9
$CHAMFERA
 40
0
  9
$CHAMFERB
 40
0
  9
$SKPOLY
 70
0
  9
$TDCREATE
 40
2453901.6243168632
  9
$TDUPDATE
 40
2453901.625610278
  9
$TDINDWG
 40
0.0012936342592592594
  9
$TDUSRTIMER
 40
0.0012936342592592594
  9
$USRTIMER
 70
1
  9
$ANGBASE
 50
0
  9
$ANGDIR
 70
0
  9
$PDMODE
 70
0
  9
$PDSIZE
 40
0
  9
$PLINEWID
 40
0
  9
$SPLFRAME
 70
0
  9
$SPLINETYPE
 70
6
  9
$SPLINESEGS
 70
8
  9
$HANDLING
 70
1
  9
$HANDSEED
  5
1EE
  9
$SURFTAB1
 70
6
  9
$SURFTAB2
 70
6
  9
$SURFTYPE
 70
6
  9
$SURFU
 70
6
  9
$SURFV
 70
6
  9
$UCSORG
 10
0
 20
0
 30
0
  9
$UCSXDIR
 10
1
 20
0
 30
0
  9
$UCSYDIR
 10
0
 20
1
 30
0
  9
$PUCSORG
 10
0
 20
0
 30
0
  9
$PUCSXDIR
 10
1
 20
0
 30
0
  9
$PUCSYDIR
 10
0
 20
1
 30
0
  9
$USERI1
 70
0
  9
$USERI2
 70
0
  9
$USERI3
 70
0
  9
$USERI4
 70
0
  9
$USERI5
 70
0
  9
$USERR1
 40
0
  9
$USERR2
 40
0
  9
$USERR3
 40
0
  9
$USERR4
 40
0
  9
$USERR5
 40
0
  9
$WORLDVIEW
 70
1
  9
$SHADEDGE
 70
3
  9
$SHADEDIF
 70
70
  9
$TILEMODE
 70
1
  9
$MAXACTVP
 70
64
  9
$PINSBASE
 10
0
 20
0
 30
0
  9
$PLIMCHECK
 70
0
  9
$PEXTMIN
 10
1E+20
 20
1E+20
 30
1E+20
  9
$PEXTMAX
 10
-1E+20
 20
-1E+20
 30
-1E+20
  9
$PLIMMAX
 10
12
 20
9
  9
$PLIMMIN
 10
0
 20
0
  9
$UNITMODE
 70
0
  9
$VISRETAIN
 70
1
  9
$PLINEGEN
 70
0
  9
$PSLTSCALE
 70
1
  9
$TREEDEPTH
 70
3020
  9
$DRAGMODE
 70
     2
  9
$BLIPMODE
 70
     0
  9
$COORDS
 70
     1
  9
$ATTDIA
 70
     0
  9
$ATTREQ
 70
     1
  0
ENDSEC
  0
SECTION
  2
TABLES
  0
TABLE
  2
VPORT
  5
1E2
 70
1
  0
VPORT
  5
1B6
  2
*ACTIVE
 70
0
 10
0
 20
0
 11
1
 21
1
 12
152.65962855819819
 22
100.4069501444762
 13
0
 23
0
 14
1
 24
1
 15
0
 25
0
 16
0
 26
0
 36
1
 17
0
 27
0
 37
0
 40
154.85139436074661
 41
1.882474226804123
 42
50
 43
0
 44
0
 50
0
 51
0
 71
0
 72
100
 73
1
 74
1
 75
0
 76
0
 77
0
 78
0
  0
ENDTAB
  0
TABLE
  2
LTYPE
  5
1E3
 70
22
  0
LTYPE
  5
19F
  2
CONTINUOUS
  3
実線
 70
0
 72
65
 73
0
 40
0
  0
LTYPE
  5
1A0
  2
DASHED1
  3
--  --  --  --  --  --  --  --  
 70
0
 72
65
 73
2
 40
2.5
 49
1.25
 49
-1.25
  0
LTYPE
  5
1A1
  2
DASHED2
  3
----    ----    ----    ----    
 70
0
 72
65
 73
2
 40
5
 49
2.5
 49
-2.5
  0
LTYPE
  5
1A2
  2
DASHED3
  3
------  ------  ------  ------  
 70
0
 72
65
 73
2
 40
5
 49
3.75
 49
-1.25
  0
LTYPE
  5
1A3
  2
CENTER1
  3
----- - ----- - ----- - ----- - 
 70
0
 72
65
 73
4
 40
10
 49
6.25
 49
-1.25
 49
1.25
 49
-1.25
  0
LTYPE
  5
1A4
  2
CENTER2
  3
----------  --  ----------  --  
 70
0
 72
65
 73
4
 40
20
 49
12.5
 49
-2.5
 49
2.5
 49
-2.5
  0
LTYPE
  5
1A5
  2
PHANTOM1
  3
--- - - --- - - --- - - --- - - 
 70
0
 72
65
 73
6
 40
9.5
 49
3.25
 49
-1.25
 49
1.25
 49
-1.25
 49
1.25
 49
-1.25
  0
LTYPE
  5
1A6
  2
PHANTOM2
  3
--------  -  -  --------  -  -  
 70
0
 72
65
 73
6
 40
20
 49
10
 49
-2.5
 49
1.25
 49
-2.5
 49
1.25
 49
-2.5
  0
LTYPE
  5
1A7
  2
DOT
  3
-   -   -   -   -   -   -   -   
 70
0
 72
65
 73
2
 40
2.5
 49
0.625
 49
-1.875
  0
LTYPE
  5
1A8
  2
DUMMY
  3
ダミー
 70
0
 72
65
 73
0
 40
0
  0
LTYPE
  5
1A9
  2
RAND1
  3
----- - ----- - ----- - ----- - 
 70
0
 72
65
 73
4
 40
10
 49
6.25
 49
-1.25
 49
1.25
 49
-1.25
  0
LTYPE
  5
1AA
  2
RAND2
  3
----------  --  ----------  --  
 70
0
 72
65
 73
4
 40
20
 49
12.5
 49
-2.5
 49
2.5
 49
-2.5
  0
LTYPE
  5
1AB
  2
RAND3
  3
--- - - --- - - --- - - --- - - 
 70
0
 72
65
 73
6
 40
9.5
 49
3.25
 49
-1.25
 49
1.25
 49
-1.25
 49
1.25
 49
-1.25
  0
LTYPE
  5
1AC
  2
RAND4
  3
--------  -  -  --------  -  -  
 70
0
 72
65
 73
6
 40
20
 49
10
 49
-2.5
 49
1.25
 49
-2.5
 49
1.25
 49
-2.5
  0
LTYPE
  5
1AD
  2
RAND5
  3
----- - ----- - ----- - ----- - 
 70
0
 72
65
 73
4
 40
10
 49
6.25
 49
-1.25
 49
1.25
 49
-1.25
  0
LTYPE
  5
1AE
  2
LONG1
  3
----------  --  ----------  --  
 70
0
 72
65
 73
4
 40
20
 49
12.5
 49
-2.5
 49
2.5
 49
-2.5
  0
LTYPE
  5
1AF
  2
LONG2
  3
--- - - --- - - --- - - --- - - 
 70
0
 72
65
 73
6
 40
9.5
 49
3.25
 49
-1.25
 49
1.25
 49
-1.25
 49
1.25
 49
-1.25
  0
LTYPE
  5
1B0
  2
LONG3
  3
--------  -  -  --------  -  -  
 70
0
 72
65
 73
6
 40
20
 49
10
 49
-2.5
 49
1.25
 49
-2.5
 49
1.25
 49
-2.5
  0
LTYPE
  5
1B1
  2
LONG4
  3
----- - ----- - ----- - ----- - 
 70
0
 72
65
 73
4
 40
10
 49
6.25
 49
-1.25
 49
1.25
 49
-1.25
  0
LTYPE
  5
1B2
  2
LONG5
  3
----------  --  ----------  --  
 70
0
 72
65
 73
4
 40
20
 49
12.5
 49
-2.5
 49
2.5
 49
-2.5
  0
LTYPE
  5
1B3
  2
ByBlock
  3

 70
64
 72
65
 73
0
 40
0
  0
LTYPE
  5
1B4
  2
ByLayer
  3

 70
64
 72
65
 73
0
 40
0
  0
ENDTAB
  0
TABLE
  2
LAYER
  5
1E4
 70
8
  0
LAYER
  5
182
 70
0
  2
0
 62
7
  6
CONTINUOUS
  0
LAYER
  5
183
 70
0
  2
_0-0_0
 62
7
  6
CONTINUOUS
  0
LAYER
  5
184
 70
0
  2
_0-4_LAY-4
 62
7
  6
CONTINUOUS
  0
LAYER
  5
185
 70
0
  2
ADD_LINE
 62
7
  6
CONTINUOUS
  0
LAYER
  5
186
 70
0
  2
1
 62
150
  6
CONTINUOUS
  0
LAYER
  5
187
 70
0
  2
2
 62
136
  6
CONTINUOUS
  0
LAYER
  5
188
 70
0
  2
6
 62
136
  6
CONTINUOUS
  0
LAYER
  5
189
 70
0
  2
SPEC
 62
7
  6
CONTINUOUS
  0
ENDTAB
  0
TABLE
  2
STYLE
  5
1E5
 70
2
  0
STYLE
  5
19D
  2
STANDARD
 70
0
 40
0
 41
1
 50
0
 71
0
 42
0.2
  3
txt.shx
  4
extfont2.shx
  0
STYLE
  5
19E
  2
STANDARD1
 70
0
 40
0
 41
1
 50
0
 71
0
 42
2.7999999523162842
  3
MONOTXT
  4
BIGFONT
  0
ENDTAB
  0
TABLE
  2
APPID
  5
1E8
 70
2
  0
APPID
  5
1E9
  2
ACAD
 70
0
  0
APPID
  5
1EC
  2
ACAD_MLEADERVER
 70
64
  0
ENDTAB
  0
TABLE
  2
DIMSTYLE
  5
1EA
 70
1
  0
DIMSTYLE
105
1B5
  2
STANDARD
 70
0
  3

  4

  5

  6

  7

 40
1
 41
0.18
 42
0.0625
 43
0.38
 44
0.18
 45
0
 46
0
 47
0
 48
0
140
0.18
141
0.09
142
0
143
25.4
144
1
145
0
146
1
147
0.09
 71
0
 72
0
 73
1
 74
1
 75
0
 76
0
 77
0
 78
0
170
0
171
2
172
0
173
0
174
0
175
0
176
0
177
0
178
0
  0
ENDTAB
  0
ENDSEC
  0
SECTION
  2
BLOCKS
  0
BLOCK
  5
18B
  8
0
  2
$MODEL_SPACE
 70
0
 10
0
 20
0
 30
0
  3
$MODEL_SPACE
  0
ENDBLK
  5
20
  8
0
  0
BLOCK
  5
18D
  8
0
 67
1
  2
$PAPER_SPACE
 70
0
 10
0
 20
0
 30
0
  3
$PAPER_SPACE
  0
ENDBLK
  5
1C
  8
0
  0
BLOCK
  5
18F
  8
0
  2
SPECYWP4011
 70
64
 10
0
 20
0
 30
0
  3
SPECYWP4011
  0
TEXT
  5
190
  8
SPEC
 10
0
 20
0
 30
0
 40
1.5
  1
密閉形器具 32形×1
  7
STANDARD
  0
TEXT
  5
191
  8
SPEC
 10
0
 20
-3
 30
0
 40
1.5
  1
100V~254V共用ﾀｲﾌﾟ Hf
  7
STANDARD
  0
TEXT
  5
192
  8
SPEC
 10
0
 20
-6
 30
0
 40
1.5
  1
本体:ｶﾞﾗｽ繊維強化ﾎﾟﾘｴｽﾃﾙ ｸﾞﾚｰ
  7
STANDARD
  0
TEXT
  5
193
  8
SPEC
 10
0
 20
-9
 30
0
 40
1.5
  1
反射板:鋼板･白色仕上(高反射白色塗装)
  7
STANDARD
  0
ENDBLK
  5
194
  8
0
  0
BLOCK
  5
196
  8
0
  2
*MODEL_SPACE
 70
64
 10
0
 20
0
 30
0
  3
*MODEL_SPACE
  0
ENDBLK
  5
199
  8
0
  0
BLOCK
  5
19B
  8
0
 67
1
  2
*PAPER_SPACE
 70
64
 10
0
 20
0
 30
0
  3
*PAPER_SPACE
  0
ENDBLK
  5
19C
  8
0
  0
ENDSEC
  0
SECTION
  2
ENTITIES
  0
TEXT
  5
3B
  8
_0-4_LAY-4
 62
7
 10
97.520606
 20
154.52683999999991
 30
0
 40
4.5
  1
ＦＨＦ３２Ｗ×１　 密閉型器具
 41
0.96982640000000009
  7
STANDARD
  0
TEXT
  5
3C
  8
_0-4_LAY-4
 62
7
 10
97.520606
 20
70.526845
 30
0
 40
4.5
  1
三菱　ＹＷＰ４０１１
 41
0.9893333
  7
STANDARD
  0
LINE
  5
102
  8
0
  6
CONTINUOUS
 62
0
 10
128.65282712699391
 20
123.66112454105129
 30
0
 11
164.39622150679119
 21
105.3450662317474
 31
0
  0
ARC
  5
103
  8
0
  6
CONTINUOUS
 62
0
 10
127.5127200098907
 20
121.4362299903971
 30
0
 40
2.5000000000000031
 50
62.867947075595112
 51
180
  0
LINE
  5
104
  8
0
  6
CONTINUOUS
 62
0
 10
162.9336624307652
 20
102.18431166234871
 30
0
 11
126.7529296794428
 21
115.8375233777581
 31
0
  0
LINE
  5
105
  8
0
  6
CONTINUOUS
 62
0
 10
164.75573872036321
 20
104.3541334735406
 30
0
 11
129.32457282781689
 21
121.0183344890998
 31
0
  0
LINE
  5
106
  8
0
  6
CONTINUOUS
 62
0
 10
155.61122360285179
 20
108.97620162608089
 30
0
 11
145.06477128242429
 21
114.114394053742
 31
0
  0
LINE
  5
107
  8
0
  6
CONTINUOUS
 62
0
 10
144.9399477516796
 20
114.7622809158856
 30
0
 11
155.54591813579651
 21
109.3921778910951
 31
0
  0
LINE
  5
108
  8
0
  6
CONTINUOUS
 62
0
 10
131.56493777098439
 20
117.1209702758226
 30
0
 11
160.56042510724291
 21
104.47310655563091
 31
0
  0
LINE
  5
109
  8
2
  6
CONTINUOUS
 62
0
 10
140.15332175712521
 20
120.4181907467889
 30
0
 11
138.610516398886
 21
119.5274516579023
 31
0
  0
LINE
  5
10A
  8
2
  6
CONTINUOUS
 62
0
 10
140.15332175712521
 20
121.0802660271878
 30
0
 11
137.10220252456969
 21
119.3187015169422
 31
0
  0
LINE
  5
10B
  8
0
  6
CONTINUOUS
 62
0
 10
144.8569119894008
 20
114.2156623298393
 30
0
 11
130.92852462716721
 21
121.00152095791471
 31
0
  0
LINE
  5
10C
  8
0
  6
CONTINUOUS
 62
0
 10
130.70211922583749
 20
121.97129652350731
 30
0
 11
144.74500678534611
 21
114.8609850452626
 31
0
  0
ARC
  5
125
  8
1
  6
CONTINUOUS
 62
0
 10
129.25139999604559
 20
121.1212929501344
 30
0
 40
1.681395955280836
 50
355.24570195782582
 51
35.597718976586911
  0
ARC
  5
126
  8
0
  6
CONTINUOUS
 62
0
 10
128.194088230999
 20
118.80474989510181
 30
0
 40
3.2986923433310462
 50
171.1257659759697
 51
244.09451937087817
  0
LINE
  5
127
  8
0
  6
CONTINUOUS
 62
0
 10
126.1482686243228
 20
117.47572490938821
 30
0
 11
127.9560369897047
 21
118.5194404617739
 31
0
  0
LINE
  5
128
  8
0
  6
CONTINUOUS
 62
0
 10
127.010565822184
 20
120.92112279603489
 30
0
 11
125.46747361605929
 21
120.0302180954444
 31
0
  0
LINE
  5
129
  8
0
  6
CONTINUOUS
 62
0
 10
124.7944188107334
 20
120.2414932833279
 30
0
 11
127.16509205764019
 21
121.6102021205902
 31
0
  0
LINE
  5
12A
  8
0
  6
CONTINUOUS
 62
0
 10
124.7944188107334
 20
121.1789932833279
 30
0
 11
127.3482248746454
 21
122.6534339017856
 31
0
  0
LINE
  5
12B
  8
0
  6
CONTINUOUS
 62
0
 10
125.0127200098907
 20
121.4362299903971
 30
0
 11
125.0127200098907
 21
121.3050295394258
 31
0
  0
ARC
  5
12C
  8
0
  6
CONTINUOUS
 62
0
 10
125.55759815617731
 20
120.35244486569729
 30
0
 40
1.124999999999998
 50
132.7173077898276
 51
180
  0
ARC
  5
12D
  8
0
  6
CONTINUOUS
 62
0
 10
125.55759815617731
 20
119.41494486569729
 30
0
 40
1.1250000000000071
 50
132.71730778982649
 51
234.5416707726209
  0
ARC
  5
12E
  8
0
  6
CONTINUOUS
 62
0
 10
126.02997361605929
 20
119.0559395161869
 30
0
 40
1.124999999999994
 50
120.0000000000001
 51
166.75856559270869
  0
LINE
  5
12F
  8
0
  6
CONTINUOUS
 62
0
 10
124.43259815617731
 20
119.41494486569729
 30
0
 11
124.43259815617731
 21
120.35244486569729
 31
0
  0
LINE
  5
130
  8
1
  6
CONTINUOUS
 62
0
 10
130.6185832923625
 20
122.10001772897
 30
0
 11
130.2894443684466
 21
122.2666700829634
 31
0
  0
LINE
  5
131
  8
1
  6
CONTINUOUS
 62
0
 10
130.73101306228381
 20
120.876967265623
 30
0
 11
130.36709918237131
 21
121.06122716419949
 31
0
  0
ARC
  5
132
  8
1
  6
CONTINUOUS
 62
0
 10
130.79517319469349
 20
120.9929859513868
 30
0
 40
0.132300000000014
 50
241.05672577075214
 51
355.20803826465072
  0
ARC
  5
133
  8
1
  6
CONTINUOUS
 62
0
 10
130.4268623429964
 20
121.1792595946248
 30
0
 40
0.13230000000001
 50
226.63235760760071
 51
271.06474017461289
  0
LINE
  5
134
  8
1
  6
CONTINUOUS
 62
0
 10
130.19774587308021
 20
121.2136891882142
 30
0
 11
130.33601496656351
 21
121.0830824445564
 31
0
  0
ARC
  5
135
  8
1
  6
CONTINUOUS
 62
0
 10
128.9099947682503
 20
121.3053110662827
 30
0
 40
1.68139595528084
 50
355.245701957825
 51
34.873216169551092
  0
ARC
  5
136
  8
1
  6
CONTINUOUS
 62
0
 10
130.4537679668982
 20
121.17700406753509
 30
0
 40
0.132299999999992
 50
265.2080382646385
 51
355.20803826466306
  0
ARC
  5
137
  8
0
  6
CONTINUOUS
 62
0
 10
128.26056582218411
 20
118.7560592865738
 30
0
 40
2.49999999999999
 50
64.811175206038342
 51
120.0000000000001
  0
ARC
  5
138
  8
0
  6
CONTINUOUS
 62
0
 10
128.41509205764021
 20
119.4451386111291
 30
0
 40
2.5000000000000089
 50
64.024828048451383
 51
120.0000000000001
  0
LINE
  5
139
  8
0
  6
CONTINUOUS
 62
0
 10
130.58581451435921
 20
121.1684880529162
 30
0
 11
129.51004613300961
 21
121.69259841562661
 31
0
  0
LINE
  5
13A
  8
0
  6
CONTINUOUS
 62
0
 10
129.2516740148576
 20
122.7056979910469
 30
0
 11
130.36984394095819
 21
122.1395369058363
 31
0
  0
ARC
  5
13B
  8
0
  6
CONTINUOUS
 62
0
 10
128.34822487464541
 20
120.92138309421669
 30
0
 40
2.0000000000000231
 50
63.14561547539671
 51
119.999999999999
  0
LINE
  5
13C
  8
2
  6
CONTINUOUS
 62
0
 10
138.22923086345671
 20
118.5605919766235
 30
0
 11
137.20180412385639
 21
119.3762065271021
 31
0
  0
LINE
  5
13D
  8
2
  6
CONTINUOUS
 62
0
 10
138.22923086345671
 20
118.5605919766235
 30
0
 11
138.3871234517047
 21
118.6517513049515
 31
0
  0
LINE
  5
13E
  8
2
  6
CONTINUOUS
 62
0
 10
138.3871234517047
 20
118.6517513049515
 30
0
 11
138.610516398886
 21
119.5274516579023
 31
0
  0
LINE
  5
13F
  8
1
  6
CONTINUOUS
 62
0
 10
144.90318710688609
 20
114.8174504652327
 30
0
 11
144.70965341962349
 21
114.9154420493808
 31
0
  0
LINE
  5
140
  8
1
  6
CONTINUOUS
 62
0
 10
144.96929581159981
 20
114.09829679278469
 30
0
 11
144.7553144502113
 21
114.2066416131476
 31
0
  0
ARC
  5
141
  8
1
  6
CONTINUOUS
 62
0
 10
144.7904551886588
 20
114.2760446822377
 30
0
 40
0.077792400000012
 50
226.6323576076139
 51
271.06474017461449
  0
LINE
  5
142
  8
1
  6
CONTINUOUS
 62
0
 10
144.65573470434811
 20
114.29628928326829
 30
0
 11
144.73703693131631
 21
114.21949251799749
 31
0
  0
ARC
  5
143
  8
1
  6
CONTINUOUS
 62
0
 10
144.80627569551311
 20
114.274718432309
 30
0
 40
0.077792400000006
 50
265.208038264676
 51
355.20803826465561
  0
ARC
  5
144
  8
1
  6
CONTINUOUS
 62
0
 10
145.00702196945679
 20
114.1665157800138
 30
0
 40
0.077792400000026
 50
241.05672577074731
 51
355.20803826463282
  0
ARC
  5
145
  8
1
  6
CONTINUOUS
 62
0
 10
144.09928332865181
 20
114.24196029527739
 30
0
 40
0.98866082170516179
 50
355.24570195782661
 51
35.597718976586911
  0
ARC
  5
146
  8
1
  6
CONTINUOUS
 62
0
 10
143.89853705470821
 20
114.3501629475725
 30
0
 40
0.98866082170510494
 50
355.24570195782582
 51
34.87321616955289
  0
LINE
  5
147
  8
6
  6
CONTINUOUS
 62
0
 10
140.53673052391071
 20
119.3415842596872
 30
0
 11
140.88314068542451
 21
119.5415842596872
 31
0
  0
ARC
  5
148
  8
6
  6
CONTINUOUS
 62
0
 10
140.3867305239107
 20
119.6013918808226
 30
0
 40
0.299999999999995
 50
120.0000000000019
 51
300.00000000000011
  0
LINE
  5
149
  8
6
  6
CONTINUOUS
 62
0
 10
140.23673052391069
 20
119.8611995019579
 30
0
 11
140.5831406854245
 21
120.0611995019579
 31
0
  0
ARC
  5
14A
  8
6
  6
CONTINUOUS
 62
0
 10
140.7331406854245
 20
119.80139188082249
 30
0
 40
0.29999999999999388
 50
299.99999999999528
 51
120.00000000000668
  0
LINE
  5
14B
  8
2
  6
CONTINUOUS
 62
0
 10
142.79438346497449
 20
119.7269015502321
 30
0
 11
139.85993507847479
 21
118.0326969843634
 31
0
  0
LINE
  5
14C
  8
2
  6
CONTINUOUS
 62
0
 10
140.15332175712521
 20
121.0802660271878
 30
0
 11
142.79438346497449
 21
119.7269015502321
 31
0
  0
LINE
  5
14D
  8
2
  6
CONTINUOUS
 62
0
 10
142.79438346497449
 20
119.0780677754412
 30
0
 11
142.79438346497449
 21
119.7269015502321
 31
0
  0
LINE
  5
14E
  8
2
  6
CONTINUOUS
 62
0
 10
142.79438346497449
 20
119.0780677754412
 30
0
 11
141.2824342139001
 21
118.2051434683323
 31
0
  0
LINE
  5
14F
  8
2
  6
CONTINUOUS
 62
0
 10
141.06350912566251
 20
117.3469571224405
 30
0
 11
141.2824342139001
 21
118.2051434683323
 31
0
  0
LINE
  5
150
  8
2
  6
CONTINUOUS
 62
0
 10
140.90877438917931
 20
117.257620980679
 30
0
 11
141.06350912566251
 21
117.3469571224405
 31
0
  0
LINE
  5
151
  8
2
  6
CONTINUOUS
 62
0
 10
140.90877438917931
 20
117.257620980679
 30
0
 11
139.9018961843712
 21
118.0569232401481
 31
0
  0
LINE
  5
152
  8
2
  6
CONTINUOUS
 62
0
 10
140.15332175712521
 20
121.0802660271878
 30
0
 11
140.15332175712521
 21
120.4181907467889
 31
0
  0
LINE
  5
153
  8
2
  6
CONTINUOUS
 62
0
 10
160.03177204202279
 20
109.56170730785669
 30
0
 11
161.33961799991309
 21
108.891525215754
 31
0
  0
LINE
  5
154
  8
2
  6
CONTINUOUS
 62
0
 10
160.03177204202279
 20
109.56170730785669
 30
0
 11
160.03177204202279
 21
109.15916553737431
 31
0
  0
LINE
  5
155
  8
2
  6
CONTINUOUS
 62
0
 10
160.03177204202279
 20
109.56170730785669
 30
0
 11
158.2204676119282
 21
108.5159502075572
 31
0
  0
ARC
  5
156
  8
0
  6
CONTINUOUS
 62
0
 10
163.4632518751188
 20
103.5877128952216
 30
0
 40
1.499999999999984
 50
249.32542966451109
 51
348.76386240876826
  0
LINE
  5
157
  8
0
  6
CONTINUOUS
 62
0
 10
163.8127716347642
 20
104.9804378647402
 30
0
 11
155.75596842375421
 21
108.9056824865535
 31
0
  0
LINE
  5
158
  8
0
  6
CONTINUOUS
 62
0
 10
155.68301491745731
 20
109.32276190979189
 30
0
 11
163.764685850119
 21
105.2307831516916
 31
0
  0
LINE
  5
159
  8
2
  6
CONTINUOUS
 62
0
 10
160.03177204202279
 20
109.15916553737431
 30
0
 11
159.0937463842134
 21
108.6175961713311
 31
0
  0
LINE
  5
15A
  8
2
  6
CONTINUOUS
 62
0
 10
158.8619247786724
 20
108.02974548511359
 30
0
 11
158.9579234723272
 21
108.085170356737
 31
0
  0
LINE
  5
15B
  8
2
  6
CONTINUOUS
 62
0
 10
158.9579234723272
 20
108.085170356737
 30
0
 11
159.0937463842134
 21
108.6175961713311
 31
0
  0
LINE
  5
15C
  8
2
  6
CONTINUOUS
 62
0
 10
158.8619247786724
 20
108.02974548511359
 30
0
 11
158.23724932099549
 21
108.5256391318047
 31
0
  0
LINE
  5
15D
  8
1
  6
CONTINUOUS
 62
0
 10
155.63890703890181
 20
109.3928961661782
 30
0
 11
155.503433457818
 21
109.4614902750819
 31
0
  0
LINE
  5
15E
  8
1
  6
CONTINUOUS
 62
0
 10
155.68518313220139
 20
108.8894885954646
 30
0
 11
155.53539617922951
 21
108.9653299697186
 31
0
  0
ARC
  5
15F
  8
1
  6
CONTINUOUS
 62
0
 10
155.5599946961427
 20
109.01391211808171
 30
0
 40
0.054454679999981
 50
226.63235760763521
 51
271.06474017466252
  0
LINE
  5
160
  8
1
  6
CONTINUOUS
 62
0
 10
155.46569035712531
 20
109.0280833388031
 30
0
 11
155.522601916003
 21
108.9743256031136
 31
0
  0
ARC
  5
161
  8
1
  6
CONTINUOUS
 62
0
 10
155.57106905094071
 20
109.0129837431316
 30
0
 40
0.054454680000037
 50
265.2080382646605
 51
355.208038264569
  0
ARC
  5
162
  8
1
  6
CONTINUOUS
 62
0
 10
155.71159144270129
 20
108.937241886525
 30
0
 40
0.054454680000012
 50
241.05672577074731
 51
355.20803826465891
  0
ARC
  5
163
  8
1
  6
CONTINUOUS
 62
0
 10
155.07617439413781
 20
108.9900530472094
 30
0
 40
0.692062575193583
 50
355.2457019578282
 51
35.597718976590507
  0
ARC
  5
164
  8
1
  6
CONTINUOUS
 62
0
 10
154.93565200237731
 20
109.0657949038161
 30
0
 40
0.69206257519359
 50
355.24570195782081
 51
34.873216169551092
  0
ARC
  5
165
  8
6
  6
CONTINUOUS
 62
0
 10
159.95621576784819
 20
108.92643977454961
 30
0
 40
0.209999999999994
 50
158.75324983950011
 51
239.99999999999622
  0
LINE
  5
166
  8
6
  6
CONTINUOUS
 62
0
 10
159.8512157678482
 20
108.7445744397549
 30
0
 11
160.0937028809079
 21
108.6045744397549
 31
0
  0
ARC
  5
167
  8
6
  6
CONTINUOUS
 62
0
 10
159.95621576784819
 20
108.92643977454961
 30
0
 40
0.209999999999998
 50
60.000000000002792
 51
81.24675016050918
  0
LINE
  5
168
  8
6
  6
CONTINUOUS
 62
0
 10
160.06121576784821
 20
109.1083051093444
 30
0
 11
160.30370288090791
 21
108.9683051093444
 31
0
  0
ARC
  5
169
  8
6
  6
CONTINUOUS
 62
0
 10
160.1987028809078
 20
108.78643977454971
 30
0
 40
0.209999999999984
 50
240.00000000000941
 51
59.999999999996227
  0
LINE
  5
16A
  8
2
  6
CONTINUOUS
 62
0
 10
160.2046321850105
 20
107.40521585532861
 30
0
 11
160.2977701175943
 21
107.4589890657777
 31
0
  0
LINE
  5
16B
  8
2
  6
CONTINUOUS
 62
0
 10
160.2046321850105
 20
107.40521585532861
 30
0
 11
159.5985720559724
 21
107.8863318713482
 31
0
  0
LINE
  5
16C
  8
2
  6
CONTINUOUS
 62
0
 10
160.2977701175943
 20
107.4589890657777
 30
0
 11
160.4295455067064
 21
107.9755485910968
 31
0
  0
LINE
  5
16D
  8
2
  6
CONTINUOUS
 62
0
 10
161.33961799991309
 20
108.891525215754
 30
0
 11
161.33961799991309
 21
108.5009791900318
 31
0
  0
LINE
  5
16E
  8
2
  6
CONTINUOUS
 62
0
 10
161.33961799991309
 20
108.5009791900318
 30
0
 11
160.4295455067064
 21
107.9755485910968
 31
0
  0
LINE
  5
16F
  8
2
  6
CONTINUOUS
 62
0
 10
161.33961799991309
 20
108.891525215754
 30
0
 11
159.58586402034641
 21
107.8789948835588
 31
0
  0
LINE
  5
170
  8
1
  6
CONTINUOUS
 62
0
 10
163.85441555384321
 20
104.8940352440182
 30
0
 11
163.7495646867628
 21
104.947124205996
 31
0
  0
LINE
  5
171
  8
1
  6
CONTINUOUS
 62
0
 10
163.8220222885335
 20
105.2464205435177
 30
0
 11
163.72719078177479
 21
105.2944364197503
 31
0
  0
ARC
  5
172
  8
1
  6
CONTINUOUS
 62
0
 10
163.7667836486022
 20
104.9811317098502
 30
0
 40
0.038118275999971
 50
226.6323576075788
 51
271.06474017461937
  0
LINE
  5
173
  8
1
  6
CONTINUOUS
 62
0
 10
163.7007706112899
 20
104.9910515643552
 30
0
 11
163.74060870250429
 21
104.9534211493725
 31
0
  0
ARC
  5
174
  8
1
  6
CONTINUOUS
 62
0
 10
163.7745356969607
 20
104.98048184738509
 30
0
 40
0.038118276000074
 50
265.20803826465482
 51
355.20803826451589
  0
ARC
  5
175
  8
1
  6
CONTINUOUS
 62
0
 10
163.87290137119311
 20
104.9274625477605
 30
0
 40
0.038118276000004
 50
241.05672577075859
 51
355.20803826456159
  0
ARC
  5
176
  8
1
  6
CONTINUOUS
 62
0
 10
163.42810943719871
 20
104.9644303602396
 30
0
 40
0.484443802635555
 50
355.24570195782582
 51
35.597718976589853
  0
ARC
  5
177
  8
1
  6
CONTINUOUS
 62
0
 10
163.3297437629663
 20
105.0174496598643
 30
0
 40
0.484443802635503
 50
355.24570195781848
 51
34.873216169549949
  0
ARC
  5
178
  8
0
  6
CONTINUOUS
 62
0
 10
162.49348751728519
 20
103.780367118475
 30
0
 40
2.488715611013526
 50
348.76386240876826
 51
7.3183018039504741
  0
LINE
  5
179
  8
0
  6
CONTINUOUS
 62
0
 10
165.12311195738391
 20
104.0019497768923
 30
0
 11
165.12311195738391
 21
104.31251728170329
 31
0
  0
ARC
  5
17A
  8
0
  6
CONTINUOUS
 62
0
 10
164.74811195738391
 20
104.31251728170329
 30
0
 40
0.37499999999997208
 50
0
 51
63.145615475394891
  0
ARC
  5
17B
  8
0
  6
CONTINUOUS
 62
0
 10
164.5961376695183
 20
104.0147921931617
 30
0
 40
0.52500000000001812
 50
315.58469140280539
 51
64.024828048445187
  0
ARC
  5
17C
  8
0
  6
CONTINUOUS
 62
0
 10
164.5961376695183
 20
104.0147921931617
 30
0
 40
0.375000000000003
 50
12.72330248724149
 51
64.8111752060347
  0
ARC
  5
17D
  8
0
  6
CONTINUOUS
 62
0
 10
163.94492065025969
 20
104.4643623037218
 30
0
 40
0.98960187547606915
 50
10.63978680515174
 51
62.867947075595822
  0
LINE
  5
17E
  8
0
  6
CONTINUOUS
 62
0
 10
164.82607802534579
 20
104.4867587521061
 30
0
 11
163.911489406687
 21
104.9323429326477
 31
0
  0
LINE
  5
17F
  8
0
  6
CONTINUOUS
 62
0
 10
163.8609191112682
 20
105.1820575275321
 30
0
 11
164.91750867117369
 21
104.647076324859
 31
0
  0
ARC
  5
181
  8
0
  6
CONTINUOUS
 62
0
 10
126.7585471416358
 20
122.53136304426491
 30
0
 40
1.3346655977740629
 50
42.421414517022811
 51
80.313216839676784
  0
INSERT
  5
197
  8
0
  2
SPECYWP4011
 10
208.09396421105359
 20
68.165772038704915
 30
0
 41
1
 42
1
 43
1
 50
0
  0
ENDSEC
999
Created By CadLib version 4.0.36.7
999
CadLib website: www.woutware.com
  0
EOF
