  0
SECTION
  2
HEADER
  9
$ACADVER
  1
AC1009
  9
$DWGCODEPAGE
  3
dos932
  9
$INSBASE
 10
0
 20
0
 30
0
  9
$EXTMIN
 10
5.4540762974026489
 20
5.3517050957777421
 30
0
  9
$EXTMAX
 10
84.814637306874
 20
95.645565766754771
 30
0
  9
$LIMMIN
 10
0
 20
0
  9
$LIMMAX
 10
297
 20
210
  9
$SNAPMODE
 70
0
  9
$SNAPUNIT
 10
1
 20
1
  9
$SNAPBASE
 10
0
 20
0
  9
$SNAPANG
 50
0
  9
$SNAPSTYLE
 70
0
  9
$SNAPISOPAIR
 70
0
  9
$ORTHOMODE
 70
0
  9
$REGENMODE
 70
1
  9
$FILLMODE
 70
1
  9
$QTEXTMODE
 70
0
  9
$MIRRTEXT
 70
1
  9
$LTSCALE
 40
1
  9
$OSMODE
 70
0
  9
$ATTMODE
 70
1
  9
$TEXTSIZE
 40
0.2
  9
$TRACEWID
 40
0.05
  9
$TEXTSTYLE
  7
STANDARD
  9
$CLAYER
  8
LAY-1
  9
$CELTYPE
  6
CONTINUOUS
  9
$CECOLOR
 62
256
  9
$DIMSCALE
 40
1
  9
$DIMASZ
 40
0.18
  9
$DIMEXO
 40
0.0625
  9
$DIMDLI
 40
0.38
  9
$DIMRND
 40
0
  9
$DIMDLE
 40
0
  9
$DIMEXE
 40
0.18
  9
$DIMTP
 40
0
  9
$DIMTM
 40
0
  9
$DIMTXT
 40
0.18
  9
$DIMCEN
 40
0.09
  9
$DIMTSZ
 40
0
  9
$DIMTOL
 70
0
  9
$DIMLIM
 70
0
  9
$DIMTIH
 70
1
  9
$DIMTOH
 70
1
  9
$DIMSE1
 70
0
  9
$DIMSE2
 70
0
  9
$DIMTAD
 70
0
  9
$DIMZIN
 70
0
  9
$DIMBLK
  1

  9
$DIMASO
 70
1
  9
$DIMSHO
 70
1
  9
$DIMPOST
  1

  9
$DIMAPOST
  1

  9
$DIMALT
 70
0
  9
$DIMALTD
 70
2
  9
$DIMALTF
 40
25.4
  9
$DIMLFAC
 40
1
  9
$DIMTOFL
 70
0
  9
$DIMTVP
 40
0
  9
$DIMTIX
 70
0
  9
$DIMSOXD
 70
0
  9
$DIMSAH
 70
0
  9
$DIMBLK1
  1

  9
$DIMBLK2
  1

  9
$DIMSTYLE
  2
STANDARD
  9
$DIMCLRD
 70
0
  9
$DIMCLRE
 70
0
  9
$DIMCLRT
 70
0
  9
$DIMTFAC
 40
1
  9
$DIMGAP
 40
0.09
  9
$LUNITS
 70
2
  9
$LUPREC
 70
4
  9
$SKETCHINC
 40
0.1
  9
$FILLETRAD
 40
0
  9
$AUNITS
 70
0
  9
$AUPREC
 70
0
  9
$MENU
  1
.
  9
$ELEVATION
 40
0
  9
$PELEVATION
 40
0
  9
$THICKNESS
 40
0
  9
$LIMCHECK
 70
0
  9
$CHAMFERA
 40
0.5
  9
$CHAMFERB
 40
0.5
  9
$SKPOLY
 70
0
  9
$TDCREATE
 40
2451691.169572141
  9
$TDUPDATE
 40
2451691.169572141
  9
$TDINDWG
 40
0
  9
$TDUSRTIMER
 40
1.1574074074074074E-08
  9
$USRTIMER
 70
1
  9
$ANGBASE
 50
0
  9
$ANGDIR
 70
1
  9
$PDMODE
 70
0
  9
$PDSIZE
 40
0
  9
$PLINEWID
 40
0
  9
$SPLFRAME
 70
0
  9
$SPLINETYPE
 70
6
  9
$SPLINESEGS
 70
8
  9
$HANDLING
 70
0
  9
$HANDSEED
  5
103
  9
$SURFTAB1
 70
6
  9
$SURFTAB2
 70
6
  9
$SURFTYPE
 70
6
  9
$SURFU
 70
6
  9
$SURFV
 70
6
  9
$UCSORG
 10
0
 20
0
 30
0
  9
$UCSXDIR
 10
1
 20
0
 30
0
  9
$UCSYDIR
 10
0
 20
1
 30
0
  9
$PUCSORG
 10
0
 20
0
 30
0
  9
$PUCSXDIR
 10
1
 20
0
 30
0
  9
$PUCSYDIR
 10
0
 20
1
 30
0
  9
$USERI1
 70
0
  9
$USERI2
 70
0
  9
$USERI3
 70
0
  9
$USERI4
 70
0
  9
$USERI5
 70
0
  9
$USERR1
 40
0
  9
$USERR2
 40
0
  9
$USERR3
 40
0
  9
$USERR4
 40
0
  9
$USERR5
 40
0
  9
$WORLDVIEW
 70
1
  9
$SHADEDGE
 70
3
  9
$SHADEDIF
 70
70
  9
$TILEMODE
 70
1
  9
$MAXACTVP
 70
48
  9
$PINSBASE
 10
0
 20
0
 30
0
  9
$PLIMCHECK
 70
0
  9
$PEXTMIN
 10
1E+20
 20
1E+20
 30
1E+20
  9
$PEXTMAX
 10
-1E+20
 20
-1E+20
 30
-1E+20
  9
$PLIMMAX
 10
0
 20
0
  9
$PLIMMIN
 10
0
 20
0
  9
$UNITMODE
 70
0
  9
$VISRETAIN
 70
1
  9
$PLINEGEN
 70
1
  9
$PSLTSCALE
 70
1
  9
$TREEDEPTH
 70
3020
  0
ENDSEC
  0
SECTION
  2
TABLES
  0
TABLE
  2
LTYPE
 70
7
  0
LTYPE
  2
CONTINUOUS
  3
実線
 70
64
 72
65
 73
0
 40
0
  0
LTYPE
  2
DASHED
  3
破線
 70
64
 72
65
 73
2
 40
3.8
 49
3
 49
-0.8
  0
LTYPE
  2
DOT
  3
点線
 70
64
 72
65
 73
2
 40
2
 49
1
 49
-1
  0
LTYPE
  2
DASHDOT
  3
一点鎖線
 70
64
 72
65
 73
4
 40
25.6
 49
20
 49
-2
 49
1.6
 49
-2
  0
LTYPE
  2
DIVIDE
  3
二点鎖線
 70
64
 72
65
 73
6
 40
31.199999999999996
 49
20
 49
-2.4
 49
2
 49
-2.4
 49
2
 49
-2.4
  0
LTYPE
  2
ByBlock
  3

 70
64
 72
65
 73
0
 40
0
  0
LTYPE
  2
ByLayer
  3

 70
64
 72
65
 73
0
 40
0
  0
ENDTAB
  0
TABLE
  2
LAYER
 70
3
  0
LAYER
 70
0
  2
0
 62
7
  6
CONTINUOUS
  0
LAYER
 70
64
  2
LAY-1
 62
7
  6
CONTINUOUS
  0
LAYER
 70
0
  2
SPEC
 62
7
  6
CONTINUOUS
  0
ENDTAB
  0
TABLE
  2
STYLE
 70
5
  0
STYLE
  2
STANDARD
 70
0
 40
0
 41
1
 50
0
 71
0
 42
0.2
  3
txt.shx
  4
extfont2.shx
  0
STYLE
  2
EXCADSTD
 70
64
 40
0
 41
1
 50
0
 71
0
 42
0.2
  3
monotxt
  4
extfont
  0
STYLE
  2
EXCADVERT
 70
68
 40
0
 41
1
 50
0
 71
0
 42
0.286885
  3
monotxt
  4
extfont
  0
STYLE
  2
EXCADSTD2
 70
64
 40
0
 41
1
 50
0
 71
0
 42
0.2
  3
monotxt
  0
STYLE
  2
EXCADVERT2
 70
68
 40
0
 41
1
 50
0
 71
0
 42
0.286885
  3
monotxt
  0
ENDTAB
  0
TABLE
  2
APPID
 70
2
  0
APPID
  2
ACAD
 70
64
  0
APPID
  2
ACAD_MLEADERVER
 70
64
  0
ENDTAB
  0
TABLE
  2
DIMSTYLE
 70
1
  0
DIMSTYLE
  2
STANDARD
 70
0
  3

  4

  5

  6

  7

 40
1
 41
0.18
 42
0.0625
 43
0.38
 44
0.18
 45
0
 46
0
 47
0
 48
0
140
0.18
141
0.09
142
0
143
25.4
144
1
145
0
146
1
147
0.09
 71
0
 72
0
 73
1
 74
1
 75
0
 76
0
 77
0
 78
0
170
0
171
2
172
0
173
0
174
0
175
0
176
0
177
0
178
0
  0
ENDTAB
  0
ENDSEC
  0
SECTION
  2
BLOCKS
  0
BLOCK
  8
0
  2
_EX_NORM
 70
64
 10
0
 20
0
 30
0
  3
_EX_NORM
  0
LINE
  8
0
  6
ByBlock
 62
0
 10
0
 20
0
 30
0
 11
-1
 21
0
 31
0
  0
LINE
  8
0
  6
ByBlock
 62
0
 10
0
 20
0
 30
0
 11
-0.960768922
 21
0.277350098
 31
0
  0
LINE
  8
0
  6
ByBlock
 62
0
 10
0
 20
0
 30
0
 11
-0.960768922
 21
-0.277350098
 31
0
  0
ENDBLK
  8
0
  0
BLOCK
  8
0
  2
_EX_BNORM
 70
64
 10
0
 20
0
 30
0
  3
_EX_BNORM
  0
LINE
  8
0
  6
ByBlock
 62
0
 10
0
 20
0
 30
0
 11
-1
 21
0
 31
0
  0
LINE
  8
0
  6
ByBlock
 62
0
 10
0
 20
0
 30
0
 11
-0.960768922
 21
0.277350098
 31
0
  0
LINE
  8
0
  6
ByBlock
 62
0
 10
0
 20
0
 30
0
 11
-0.960768922
 21
-0.277350098
 31
0
  0
LINE
  8
0
  6
ByBlock
 62
0
 10
0
 20
0
 30
0
 11
-0.960768922
 21
0.138767504
 31
0
  0
LINE
  8
0
  6
ByBlock
 62
0
 10
0
 20
0
 30
0
 11
-0.960768922
 21
-0.138767504
 31
0
  0
LINE
  8
0
  6
ByBlock
 62
0
 10
-0.960768922
 20
0.277350098
 30
0
 11
-0.960768922
 21
-0.277350098
 31
0
  0
ENDBLK
  8
0
  0
BLOCK
  8
0
  2
_EX_BCIR
 70
64
 10
0
 20
0
 30
0
  3
_EX_BCIR
  0
LINE
  8
0
  6
ByBlock
 62
0
 10
0
 20
0
 30
0
 11
-1
 21
0
 31
0
  0
CIRCLE
  8
0
  6
ByBlock
 62
0
 10
0
 20
0
 30
0
 40
0.5
  0
CIRCLE
  8
0
  6
ByBlock
 62
0
 10
0
 20
0
 30
0
 40
0.25
  0
ENDBLK
  8
0
  0
BLOCK
  8
0
  2
_EX_RCIVIL
 70
64
 10
0
 20
0
 30
0
  3
_EX_RCIVIL
  0
LINE
  8
0
  6
ByBlock
 62
0
 10
0
 20
0
 30
0
 11
-1
 21
0
 31
0
  0
LINE
  8
0
  6
ByBlock
 62
0
 10
-1
 20
-0.25
 30
0
 11
0
 21
-0.25
 31
0
  0
LINE
  8
0
  6
ByBlock
 62
0
 10
-1
 20
-0.125
 30
0
 11
0
 21
-0.125
 31
0
  0
ENDBLK
  8
0
  0
BLOCK
  8
0
  2
_EX_SLANT
 70
64
 10
0
 20
0
 30
0
  3
_EX_SLANT
  0
LINE
  8
0
  6
ByBlock
 62
0
 10
0
 20
0
 30
0
 11
-1
 21
0
 31
0
  0
LINE
  8
0
  6
ByBlock
 62
0
 10
0.707106781
 20
0.707106781
 30
0
 11
-0.707106781
 21
-0.707106781
 31
0
  0
ENDBLK
  8
0
  0
BLOCK
  8
0
  2
_EX_NONE
 70
64
 10
0
 20
0
 30
0
  3
_EX_NONE
  0
LINE
  8
0
  6
ByBlock
 62
0
 10
0
 20
0
 30
0
 11
-1
 21
0
 31
0
  0
ENDBLK
  8
0
  0
BLOCK
  8
0
  2
_EX_WCIR
 70
64
 10
0
 20
0
 30
0
  3
_EX_WCIR
  0
LINE
  8
0
  6
ByBlock
 62
0
 10
0
 20
0
 30
0
 11
-1
 21
0
 31
0
  0
ENDBLK
  8
0
  0
BLOCK
  8
0
  2
_EX_CIVIL
 70
64
 10
0
 20
0
 30
0
  3
_EX_CIVIL
  0
LINE
  8
0
  6
ByBlock
 62
0
 10
0
 20
0
 30
0
 11
-1
 21
0
 31
0
  0
LINE
  8
0
  6
ByBlock
 62
0
 10
-1
 20
0.25
 30
0
 11
0
 21
0.25
 31
0
  0
LINE
  8
0
  6
ByBlock
 62
0
 10
-1
 20
0.125
 30
0
 11
0
 21
0.125
 31
0
  0
ENDBLK
  8
0
  0
BLOCK
  8
0
  2
SPECYWV4011
 70
64
 10
0
 20
0
 30
0
  3
SPECYWV4011
  0
ENDBLK
  8
0
  0
BLOCK
  8
0
  2
*MODEL_SPACE
 70
64
 10
0
 20
0
 30
0
  3
*MODEL_SPACE
  0
ENDBLK
  8
0
  0
BLOCK
  8
0
 67
1
  2
*PAPER_SPACE
 70
64
 10
0
 20
0
 30
0
  3
*PAPER_SPACE
  0
ENDBLK
  8
0
  0
ENDSEC
  0
SECTION
  2
ENTITIES
  0
ARC
  8
LAY-1
  6
CONTINUOUS
 62
7
 10
19.0867090282339
 20
63.5424539005468
 30
0
 40
1.91970111663438
 50
157.536006519636
 51
203.738984784859
  0
ARC
  8
LAY-1
  6
CONTINUOUS
 62
7
 10
18.8341504472449
 20
63.4054608350982
 30
0
 40
1.63353475969161
 50
202.906658901041
 51
258.227154996082
  0
ARC
  8
LAY-1
  6
CONTINUOUS
 62
7
 10
18.7694960025629
 20
63.2652838205286
 30
0
 40
1.48352063052269
 50
259.567202535656
 51
309.990502852483
  0
ARC
  8
LAY-1
  6
CONTINUOUS
 62
7
 10
18.5648713360111
 20
63.5098972400465
 30
0
 40
1.80243570851041
 50
309.976833252287
 51
355.65922666019
  0
ARC
  8
LAY-1
  6
CONTINUOUS
 62
7
 10
18.4894367571299
 20
63.5467163294198
 30
0
 40
1.88069625371583
 50
354.714642249677
 51
37.0458071316959
  0
ARC
  8
LAY-1
  6
CONTINUOUS
 62
7
 10
18.6444974351354
 20
63.644685040984
 30
0
 40
1.69798059794104
 50
37.5594806445401
 51
44.668305481031
  0
ARC
  8
LAY-1
  6
CONTINUOUS
 62
7
 10
19.6244960025629
 20
63.0572392889176
 30
0
 40
1.48352063052269
 50
259.567202535656
 51
309.990502852483
  0
ARC
  8
LAY-1
  6
CONTINUOUS
 62
7
 10
19.4198713360111
 20
63.3018527084355
 30
0
 40
1.80243570851041
 50
309.976833252287
 51
355.65922666019
  0
ARC
  8
LAY-1
  6
CONTINUOUS
 62
7
 10
19.3444367571299
 20
63.3386717978088
 30
0
 40
1.88069625371583
 50
354.714642249677
 51
37.0458071316959
  0
ARC
  8
LAY-1
  6
CONTINUOUS
 62
7
 10
19.4994974351354
 20
63.436640509373
 30
0
 40
1.69798059794104
 50
37.5594806445401
 51
44.668305481031
  0
ARC
  8
LAY-1
  6
CONTINUOUS
 62
7
 10
19.6907247747169
 20
63.0426375349396
 30
0
 40
1.48352063052269
 50
259.567202535656
 51
309.990502852483
  0
ARC
  8
LAY-1
  6
CONTINUOUS
 62
7
 10
19.4861001081651
 20
63.2872509544575
 30
0
 40
1.80243570851041
 50
309.976833252287
 51
355.65922666019
  0
ARC
  8
LAY-1
  6
CONTINUOUS
 62
7
 10
19.4106655292839
 20
63.3240700438308
 30
0
 40
1.88069625371583
 50
354.714642249677
 51
37.0458071316959
  0
ARC
  8
LAY-1
  6
CONTINUOUS
 62
7
 10
19.5657262072894
 20
63.422038755395
 30
0
 40
1.69798059794104
 50
37.5594806445401
 51
44.668305481031
  0
LINE
  8
LAY-1
  6
CONTINUOUS
 62
7
 10
18.5008569190212
 20
61.8062887883296
 30
0
 11
20.5671351186703
 21
61.331188327784
 31
0
  0
LINE
  8
LAY-1
  6
CONTINUOUS
 62
7
 10
20.707081649435
 20
64.8435036447362
 30
0
 11
21.3427452925647
 21
64.7033560347525
 31
0
  0
ARC
  8
LAY-1
  6
CONTINUOUS
 62
7
 10
19.9688334994672
 20
63.9091894094274
 30
0
 40
1.07068702352242
 50
41.2912293416542
 51
46.4087594376045
  0
LINE
  8
LAY-1
  6
CONTINUOUS
 62
7
 10
21.3574547672221
 20
61.4020541849104
 30
0
 11
20.6726505239668
 21
61.5469515375261
 31
0
  0
LINE
  8
LAY-1
  6
CONTINUOUS
 62
7
 10
22.0816140147776
 20
64.1710022720721
 30
0
 11
21.4287599971437
 21
64.3091392940478
 31
0
  0
LINE
  8
LAY-1
  6
CONTINUOUS
 62
7
 10
22.3853520649686
 20
62.6206132821481
 30
0
 11
21.7324980473347
 21
62.7587503041238
 31
0
  0
LINE
  8
LAY-1
  6
CONTINUOUS
 62
7
 10
22.430944908944
 20
62.928329354352
 30
0
 11
21.7609011194185
 21
63.0701035506936
 31
0
  0
ARC
  8
LAY-1
  6
CONTINUOUS
 62
7
 10
21.8854415633969
 20
62.9017702472463
 30
0
 40
0.209395375393283
 50
126.49567827515
 51
223.079607804161
  0
ARC
  8
LAY-1
  6
CONTINUOUS
 62
7
 10
21.4365344377765
 20
64.4876061889809
 30
0
 40
0.178636151196059
 50
175.096478576373
 51
267.505637178872
  0
LINE
  8
LAY-1
  6
CONTINUOUS
 62
7
 10
21.9183598490837
 20
64.3632673173318
 30
0
 11
21.258552086936
 21
64.5028756782788
 31
0
  0
LINE
  8
LAY-1
  6
CONTINUOUS
 62
7
 10
21.6676320137765
 20
61.5618324156163
 30
0
 11
20.8378002904325
 21
61.7374160528576
 31
0
  0
ARC
  8
LAY-1
  6
CONTINUOUS
 62
7
 10
20.8524930883512
 20
61.5578440177862
 30
0
 40
0.180172123511138
 50
94.6775891699304
 51
183.465985362537
  0
ARC
  8
LAY-1
  6
CONTINUOUS
 62
7
 10
21.6267905099311
 20
61.2601555337094
 30
0
 40
0.304428923581883
 50
82.2900796765634
 51
152.217643486095
  0
ARC
  8
LAY-1
  6
CONTINUOUS
 62
7
 10
20.8357742022119
 20
62.7901833599826
 30
0
 40
1.48352063052269
 50
304.10645053765
 51
309.990502852483
  0
ARC
  8
LAY-1
  6
CONTINUOUS
 62
7
 10
20.8357742022119
 20
62.7901833599826
 30
0
 40
1.48352063052269
 50
259.567202535656
 51
290.597002158544
  0
ARC
  8
LAY-1
  6
CONTINUOUS
 62
7
 10
20.6311495356601
 20
63.0347967795005
 30
0
 40
1.80243570851041
 50
309.976833252287
 51
346.715232853472
  0
ARC
  8
LAY-1
  6
CONTINUOUS
 62
7
 10
22.6747717742275
 20
62.7349669990587
 30
0
 40
0.311192128240065
 50
141.584479558927
 51
201.559659221453
  0
ARC
  8
LAY-1
  6
CONTINUOUS
 62
7
 10
22.0993172546178
 20
64.3514771614407
 30
0
 40
0.181341088541666
 50
176.27220168699
 51
264.397634653726
  0
ARC
  8
LAY-1
  6
CONTINUOUS
 62
7
 10
20.5557149567789
 20
63.0716158688738
 30
0
 40
1.88069625371583
 50
355.630514117698
 51
35.7721599735524
  0
ARC
  8
LAY-1
  6
CONTINUOUS
 62
7
 10
21.1138829269622
 20
63.6567352344704
 30
0
 40
1.07068702352242
 50
41.2912293416542
 51
77.6654023283465
  0
LINE
  8
LAY-1
  6
CONTINUOUS
 62
7
 10
20.707081649435
 20
64.630323246267
 30
0
 11
20.707081649435
 21
65.7192702295283
 31
0
  0
LINE
  8
LAY-1
  6
CONTINUOUS
 62
7
 10
20.9543673208574
 20
65.9136000143739
 30
0
 11
21.255471739557
 21
65.8403331982871
 31
0
  0
ARC
  8
LAY-1
  6
CONTINUOUS
 62
7
 10
20.907081649435
 20
65.7192702295283
 30
0
 40
0.2
 50
76.324165501039914
 51
180
  0
LINE
  8
LAY-1
  6
CONTINUOUS
 62
7
 10
17.312675138138
 20
64.27597699766
 30
0
 11
17.312675138138
 21
66.223771279503
 31
0
  0
LINE
  8
LAY-1
  6
CONTINUOUS
 62
7
 10
19.852081649435
 20
64.838367777878
 30
0
 11
19.852081649435
 21
66.78616205972
 31
0
  0
LINE
  8
LAY-1
  6
CONTINUOUS
 62
7
 10
19.8520816494349
 20
66.7861620597205
 30
0
 11
17.3126751381382
 21
66.2237712795029
 31
0
  0
LINE
  8
LAY-1
  6
CONTINUOUS
 62
7
 10
19.8520816494352
 20
66.7861620597196
 30
0
 11
21.2554717395569
 21
66.4446794468936
 31
0
  0
LINE
  8
LAY-1
  6
CONTINUOUS
 62
7
 10
21.255471739557
 20
65.840333198287
 30
0
 11
21.255471739557
 21
66.444679446894
 31
0
  0
LINE
  8
LAY-1
  6
CONTINUOUS
 62
7
 10
21.2554717395569
 20
65.8403331982875
 30
0
 11
20.7070816494349
 21
65.7188837457184
 31
0
  0
LINE
  8
LAY-1
  6
CONTINUOUS
 62
7
 10
20.0565616293507
 20
64.8197330724923
 30
0
 11
20.6210997717791
 21
64.6823657351616
 31
0
  0
LINE
  8
LAY-1
  6
CONTINUOUS
 62
7
 10
19.9645788042751
 20
66.8925678124167
 30
0
 11
16.9335124196212
 21
66.2212913620439
 31
0
  0
LINE
  8
LAY-1
  6
CONTINUOUS
 62
7
 10
19.964578804275
 20
66.892567812417
 30
0
 11
22.76147360871
 21
72.580092893075
 31
0
  0
LINE
  8
LAY-1
  6
CONTINUOUS
 62
7
 10
22.76147360871
 20
72.580092893075
 30
0
 11
22.76147360871
 21
72.913771279503
 31
0
  0
LINE
  8
LAY-1
  6
CONTINUOUS
 62
7
 10
14.330839805442
 20
69.901089576764
 30
0
 11
14.330839805442
 21
70.234767963192
 31
0
  0
LINE
  8
LAY-1
  6
CONTINUOUS
 62
7
 10
14.3308398054421
 20
70.2347679631917
 30
0
 11
22.7614736087101
 21
72.9137712795034
 31
0
  0
LINE
  8
LAY-1
  6
CONTINUOUS
 62
7
 10
16.9335124196208
 20
66.2212913620439
 30
0
 11
14.3308398054416
 21
69.9010895767637
 31
0
  0
LINE
  8
LAY-1
  6
CONTINUOUS
 62
7
 10
16.933512419621
 20
66.221291362044
 30
0
 11
17.3126751381381
 21
66.1325408224143
 31
0
  0
LINE
  8
LAY-1
  6
CONTINUOUS
 62
7
 10
81.0630142398819
 20
51.4562768270257
 30
0
 11
82.5180553463258
 21
51.1022261305765
 31
0
  0
LINE
  8
LAY-1
  6
CONTINUOUS
 62
7
 10
82.6323968882221
 20
51.1186843890616
 30
0
 11
82.518055346326
 21
51.0919853488219
 31
0
  0
LINE
  8
LAY-1
  6
CONTINUOUS
 62
7
 10
19.964578804275
 20
66.892567812417
 30
0
 11
82.6323968882219
 21
51.1186843890616
 31
0
  0
LINE
  8
LAY-1
  6
CONTINUOUS
 62
7
 10
81.081655346326
 20
51.4517409436821
 30
0
 11
79.2971887373304
 21
51.0350634613803
 31
0
  0
LINE
  8
LAY-1
  6
CONTINUOUS
 62
7
 10
20.7070816494351
 20
65.3380127876472
 30
0
 11
79.2971887373301
 21
50.7425112173232
 31
0
  0
LINE
  8
LAY-1
  6
CONTINUOUS
 62
7
 10
84.814637306874
 20
55.303083242372
 30
0
 11
84.814637306874
 21
54.969404855944
 31
0
  0
LINE
  8
LAY-1
  6
CONTINUOUS
 62
7
 10
82.632396888222
 20
51.118684389062
 30
0
 11
84.814637306874
 21
54.969404855944
 31
0
  0
LINE
  8
LAY-1
  6
CONTINUOUS
 62
7
 10
22.761473608709
 20
72.5800928930752
 30
0
 11
84.814637306873
 21
54.9694048559443
 31
0
  0
LINE
  8
LAY-1
  6
CONTINUOUS
 62
7
 10
22.76147360871
 20
72.9137712795032
 30
0
 11
84.814637306874
 21
55.3030832423723
 31
0
  0
ARC
  8
LAY-1
  6
CONTINUOUS
 62
7
 10
80.7013193820574
 20
48.9345973076206
 30
0
 40
1.08957833189166
 50
46.6033316160935
 51
77.6449591380829
  0
ARC
  8
LAY-1
  6
CONTINUOUS
 62
7
 10
80.3458835581969
 20
48.5919707320267
 30
0
 40
1.5829014596559
 50
359.895963195903
 51
17.4470124293997
  0
ARC
  8
LAY-1
  6
CONTINUOUS
 62
7
 10
80.3519134246861
 20
48.530282623545
 30
0
 40
1.57796542001823
 50
314.594229925834
 51
324.035544379029
  0
LINE
  8
LAY-1
  6
CONTINUOUS
 62
7
 10
79.8587713243227
 20
50.2436542813652
 30
0
 11
79.8739552385603
 21
50.2404415253155
 31
0
  0
ARC
  8
LAY-1
  6
CONTINUOUS
 62
7
 10
80.964145331983
 20
49.5204457638118
 30
0
 40
0.269897772138847
 50
172.59878813261904
 51
231.732510378603
  0
ARC
  8
LAY-1
  6
CONTINUOUS
 62
7
 10
79.2853835581969
 20
48.8334707320267
 30
0
 40
1.5829014596559
 50
27.0883989448162
 51
45.7756692689849
  0
ARC
  8
LAY-1
  6
CONTINUOUS
 62
7
 10
79.2853835581969
 20
48.8334707320267
 30
0
 40
1.5829014596559
 50
359.89596319590407
 51
17.4470124293997
  0
ARC
  8
LAY-1
  6
CONTINUOUS
 62
7
 10
80.7680942150182
 20
47.8585197213963
 30
0
 40
0.201063134287238
 50
112.727193437041
 51
183.594634604484
  0
ARC
  8
LAY-1
  6
CONTINUOUS
 62
7
 10
79.291413424686
 20
48.771782623545
 30
0
 40
1.57796542001823
 50
332.51490900713208
 51
2.13602212553882
  0
ARC
  8
LAY-1
  6
CONTINUOUS
 62
7
 10
79.291413424686
 20
48.771782623545
 30
0
 40
1.57796542001823
 50
314.594229925836
 51
324.03554437903
  0
ARC
  8
LAY-1
  6
CONTINUOUS
 62
7
 10
80.3458835581969
 20
48.5919707320267
 30
0
 40
1.5829014596559
 50
17.4470124293954
 51
45.7756692689842
  0
ARC
  8
LAY-1
  6
CONTINUOUS
 62
7
 10
80.3519134246861
 20
48.530282623545
 30
0
 40
1.57796542001823
 50
324.035544379014
 51
2.1360221255383
  0
ARC
  8
LAY-1
  6
CONTINUOUS
 62
7
 10
79.6408193820574
 20
49.1760973076207
 30
0
 40
1.08957833189166
 50
46.6033316160935
 51
97.4826297470315
  0
ARC
  8
LAY-1
  6
CONTINUOUS
 62
7
 10
79.6445360941873
 20
48.4224866656325
 30
0
 40
1.08132997254819
 50
245.549384184253
 51
314.264476202594
  0
LINE
  8
LAY-1
  6
CONTINUOUS
 62
7
 10
80.4126559698987
 20
47.2235167454516
 30
0
 11
79.7930065843852
 21
47.354628017607
 31
0
  0
ARC
  8
LAY-1
  6
CONTINUOUS
 62
7
 10
79.4724656767258
 20
47.6866078469966
 30
0
 40
0.203704992337381
 50
250.52235908964303
 51
283.204903000143
  0
ARC
  8
LAY-1
  6
CONTINUOUS
 62
7
 10
79.327724872942
 20
48.8517146651386
 30
0
 40
1.37677719023809
 50
277.985864603639
 51
72.8385216139012
  0
LINE
  8
LAY-1
  6
CONTINUOUS
 62
7
 10
79.4189893246577
 20
47.364940844268
 30
0
 11
80.567875750749
 21
47.1083909590781
 31
0
  0
ARC
  8
LAY-1
  6
CONTINUOUS
 62
7
 10
79.3081357313419
 20
47.5802822072233
 30
0
 40
0.180459881770468
 50
188.424071028227
 51
231.972029520048
  0
ARC
  8
LAY-1
  6
CONTINUOUS
 62
7
 10
81.0640835581969
 20
48.4172133254737
 30
0
 40
1.5829014596559
 50
359.895963195903
 51
17.4470124293997
  0
ARC
  8
LAY-1
  6
CONTINUOUS
 62
7
 10
81.0701134246861
 20
48.355525216992
 30
0
 40
1.57796542001823
 50
314.594229925834
 51
324.035544379029
  0
ARC
  8
LAY-1
  6
CONTINUOUS
 62
7
 10
81.0701134246861
 20
48.355525216992
 30
0
 40
1.57796542001823
 50
324.035544379014
 51
2.1360221255383
  0
ARC
  8
LAY-1
  6
CONTINUOUS
 62
7
 10
81.4232360941873
 20
48.0062292590795
 30
0
 40
1.08132997254819
 50
255.776504896716
 51
314.264476202594
  0
ARC
  8
LAY-1
  6
CONTINUOUS
 62
7
 10
80.3713649090259
 20
48.5734500302257
 30
0
 40
1.5829014596559
 50
359.895963195903
 51
17.4470124293997
  0
ARC
  8
LAY-1
  6
CONTINUOUS
 62
7
 10
80.3773947755151
 20
48.511761921744
 30
0
 40
1.57796542001823
 50
314.594229925834
 51
324.035544379029
  0
ARC
  8
LAY-1
  6
CONTINUOUS
 62
7
 10
80.3773947755151
 20
48.511761921744
 30
0
 40
1.57796542001823
 50
324.035544379014
 51
2.1360221255383
  0
ARC
  8
LAY-1
  6
CONTINUOUS
 62
7
 10
80.3713649090259
 20
48.5734500302257
 30
0
 40
1.5829014596559
 50
17.4470124293954
 51
25.5179134848991
  0
LINE
  8
LAY-1
  6
CONTINUOUS
 62
7
 10
79.8590953819784
 20
50.2451238117731
 30
0
 11
80.93445523856
 21
49.9989415253157
 31
0
  0
ARC
  8
LAY-1
  6
CONTINUOUS
 62
7
 10
79.5065648826774
 20
50.1001964620214
 30
0
 40
0.156387309608587
 50
92.7989074171498
 51
119.449131475053
  0
LINE
  8
LAY-1
  6
CONTINUOUS
 62
7
 10
81.3278977453848
 20
47.6850059941053
 30
0
 11
80.5674266515378
 21
47.8459136539575
 31
0
  0
LINE
  8
LAY-1
  6
CONTINUOUS
 62
7
 10
81.4404900270673
 20
47.885263250973
 30
0
 11
80.6904147097715
 21
48.0439712741911
 31
0
  0
ARC
  8
LAY-1
  6
CONTINUOUS
 62
7
 10
81.24999884596
 20
47.860584201797
 30
0
 40
0.192083173515952
 50
293.925456719974
 51
7.38182722561718
  0
LINE
  8
LAY-1
  6
CONTINUOUS
 62
7
 10
81.4293089000377
 20
49.4001576402418
 30
0
 11
80.6964962298675
 21
49.5552130694635
 31
0
  0
LINE
  8
LAY-1
  6
CONTINUOUS
 62
7
 10
81.4498425800736
 20
49.1704044667461
 30
0
 11
80.7969885624397
 21
49.3085414887218
 31
0
  0
ARC
  8
LAY-1
  6
CONTINUOUS
 62
7
 10
81.3355040416316
 20
49.2759798763924
 30
0
 40
0.15562605339431
 50
317.281914369309
 51
52.9323142506248
  0
LINE
  8
LAY-1
  6
CONTINUOUS
 62
7
 10
82.518055346326
 20
51.102226130577
 30
0
 11
82.518055346326
 21
49.0429473506836
 31
0
  0
ARC
  8
LAY-1
  6
CONTINUOUS
 62
7
 10
81.0640835581969
 20
48.4172133254737
 30
0
 40
1.5829014596559
 50
17.4470124293954
 51
23.2852009682569
  0
LINE
  8
LAY-1
  6
CONTINUOUS
 62
7
 10
80.5115046232131
 20
47.1041110262804
 30
0
 11
81.1579308168551
 21
46.9597620619299
 31
0
  0
ARC
  8
LAY-1
  6
CONTINUOUS
 62
7
 10
80.3742672799972
 20
47.1958490687354
 30
0
 40
0.047320099822011
 50
281.611888771955
 51
35.7812236228864
  0
ARC
  8
LAY-1
  6
CONTINUOUS
 62
7
 10
80.7305174450163
 20
48.1624659638315
 30
0
 40
1.08132997254819
 50
259.481275509569
 51
314.264476202594
  0
ARC
  8
LAY-1
  6
CONTINUOUS
 62
7
 10
80.6146689847664
 20
47.4410819738736
 30
0
 40
0.352409286223939
 50
239.27116224804402
 51
252.977921348682
  0
ARC
  8
LAY-1
  6
CONTINUOUS
 62
7
 10
80.7050360941873
 20
48.1809866656325
 30
0
 40
1.08132997254819
 50
262.712736406157
 51
314.264476202594
  0
LINE
  8
LAY-1
  6
CONTINUOUS
 62
7
 10
81.799855346326
 20
49.255353323606
 30
0
 11
81.799855346326
 21
50.608880798273
 31
0
  0
LINE
  8
LAY-1
  6
CONTINUOUS
 62
7
 10
81.0816553463257
 20
50.9038789865803
 30
0
 11
81.6461934887541
 21
50.7665116492496
 31
0
  0
ARC
  8
LAY-1
  6
CONTINUOUS
 62
7
 10
81.5905714926647
 20
50.5585783362982
 30
0
 40
0.215244208015134
 50
13.5149746528478
 51
75.0240579469273
  0
LINE
  8
LAY-1
  6
CONTINUOUS
 62
7
 10
81.081655346326
 20
50.90387898658
 30
0
 11
81.081655346326
 21
51.451740943682
 31
0
  0
LINE
  8
LAY-1
  6
CONTINUOUS
 62
7
 10
81.9021567397997
 20
49.2348425912623
 30
0
 11
82.4666948822281
 21
49.0974752539316
 31
0
  0
LINE
  8
LAY-1
  6
CONTINUOUS
 62
7
 10
21.1897860877005
 20
61.3495206492421
 30
0
 11
79.4045424923361
 21
47.4945605483294
 31
0
  0
LINE
  8
LAY-1
  6
CONTINUOUS
 62
7
 10
79.4763112050239
 20
50.5277250425555
 30
0
 11
79.2960318958644
 21
50.4856293663057
 31
0
  0
LINE
  8
LAY-1
  6
CONTINUOUS
 62
7
 10
81.081655346326
 20
50.9038789865801
 30
0
 11
79.2971887373304
 21
50.4872015042783
 31
0
  0
LINE
  8
LAY-1
  6
CONTINUOUS
 62
7
 10
79.29718873733
 20
51.03506346138
 30
0
 11
79.29718873733
 21
50.4872015042782
 31
0
  0
LINE
  8
LAY-1
  6
CONTINUOUS
 62
7
 10
21.8798445412759
 20
64.4048485332008
 30
0
 11
79.733964628498
 21
50.167193548498
 31
0
  0
LINE
  8
LAY-1
  6
CONTINUOUS
 62
7
 10
79.2971887373297
 20
50.4872015042783
 30
0
 11
79.8617268797581
 21
50.3498341669476
 31
0
  0
ARC
  8
LAY-1
  6
CONTINUOUS
 62
7
 10
79.8061048836687
 20
50.1419008539962
 30
0
 40
0.215244208015134
 50
13.5149746528478
 51
75.0240579469273
  0
TEXT
  8
LAY-1
  6
CONTINUOUS
 62
7
 10
5.0000000000000071
 20
6.00000000000001
 30
0
 40
4.5
  1
三菱　ＹＷＶ４０１１
 41
0.84049994266712513
 72
5
 11
50
 21
6.00000000000001
 31
0
  7
EXCADSTD
  0
TEXT
  8
LAY-1
  6
CONTINUOUS
 62
7
 10
52.3
 20
83
 30
0
 40
4.5
  1
防雨・防湿形
 41
0.70987006698410138
 72
5
 11
79.3
 21
83
 31
0
  7
EXCADSTD
  0
TEXT
  8
LAY-1
  6
CONTINUOUS
 62
7
 10
5
 20
90
 30
0
 40
4.5
  1
ＦＨＦ３２Ｗ×１　  逆富士形器具
 41
0.81549212529986437
 72
5
 11
77
 21
90
 31
0
  7
EXCADSTD
  0
INSERT
  8
0
  2
SPECYWV4011
 10
84.814637306874
 20
6.00000000000001
 30
0
 41
1
 42
1
 43
1
 50
0
  0
ENDSEC
999
Created By CadLib version 4.0.36.7
999
CadLib website: www.woutware.com
  0
EOF
