  0
SECTION
  2
HEADER
  9
$ACADVER
  1
AC1009
  9
$INSBASE
 10
0.0
 20
0.0
 30
0.0
  9
$EXTMIN
 10
-1242.4
 20
-760.1
 30
0.0
  9
$EXTMAX
 10
803.021911
 20
2302.754149
 30
0.0
  9
$LIMMIN
 10
0.0
 20
0.0
  9
$LIMMAX
 10
12.0
 20
9.0
  9
$ORTHOMODE
 70
     0
  9
$REGENMODE
 70
     1
  9
$FILLMODE
 70
     1
  9
$QTEXTMODE
 70
     0
  9
$MIRRTEXT
 70
     1
  9
$DRAGMODE
 70
     2
  9
$LTSCALE
 40
1.0
  9
$OSMODE
 70
     0
  9
$ATTMODE
 70
     1
  9
$TEXTSIZE
 40
40.0
  9
$TRACEWID
 40
0.05
  9
$TEXTSTYLE
  7
STANDARD1
  9
$CLAYER
  8
0
  9
$CELTYPE
  6
CONTINUOUS
  9
$CECOLOR
 62
   256
  9
$DIMSCALE
 40
1.0
  9
$DIMASZ
 40
10.0
  9
$DIMEXO
 40
10.0
  9
$DIMDLI
 40
8.0
  9
$DIMRND
 40
0.0
  9
$DIMDLE
 40
0.0
  9
$DIMEXE
 40
12.5
  9
$DIMTP
 40
0.0
  9
$DIMTM
 40
0.0
  9
$DIMTXT
 40
30.0
  9
$DIMCEN
 40
2.5
  9
$DIMTSZ
 40
0.0
  9
$DIMTOL
 70
     0
  9
$DIMLIM
 70
     0
  9
$DIMTIH
 70
     0
  9
$DIMTOH
 70
     0
  9
$DIMSE1
 70
     0
  9
$DIMSE2
 70
     0
  9
$DIMTAD
 70
     3
  9
$DIMZIN
 70
    12
  9
$DIMBLK
  1

  9
$DIMASO
 70
     1
  9
$DIMSHO
 70
     1
  9
$DIMPOST
  1

  9
$DIMAPOST
  1

  9
$DIMALT
 70
     0
  9
$DIMALTD
 70
     4
  9
$DIMALTF
 40
25.4
  9
$DIMLFAC
 40
1.0
  9
$DIMTOFL
 70
     1
  9
$DIMTVP
 40
0.0
  9
$DIMTIX
 70
     0
  9
$DIMSOXD
 70
     0
  9
$DIMSAH
 70
     1
  9
$DIMBLK1
  1
_ORIGIN
  9
$DIMBLK2
  1
_ORIGIN
  9
$DIMSTYLE
  2
STANDARD
  9
$DIMCLRD
 70
     0
  9
$DIMCLRE
 70
     0
  9
$DIMCLRT
 70
     0
  9
$DIMTFAC
 40
1.0
  9
$DIMGAP
 40
0.09
  9
$LUNITS
 70
     2
  9
$LUPREC
 70
     3
  9
$SKETCHINC
 40
0.1
  9
$FILLETRAD
 40
0.0
  9
$AUNITS
 70
     0
  9
$AUPREC
 70
     0
  9
$MENU
  1
acad
  9
$ELEVATION
 40
0.0
  9
$PELEVATION
 40
0.0
  9
$THICKNESS
 40
0.0
  9
$LIMCHECK
 70
     0
  9
$BLIPMODE
 70
     0
  9
$CHAMFERA
 40
0.0
  9
$CHAMFERB
 40
0.0
  9
$SKPOLY
 70
     0
  9
$TDCREATE
 40
2451879.42287
  9
$TDUPDATE
 40
2451879.42287
  9
$TDINDWG
 40
0.0
  9
$TDUSRTIMER
 40
0.0
  9
$USRTIMER
 70
     1
  9
$ANGBASE
 50
0.0
  9
$ANGDIR
 70
     0
  9
$PDMODE
 70
     0
  9
$PDSIZE
 40
0.0
  9
$PLINEWID
 40
0.0
  9
$COORDS
 70
     1
  9
$SPLFRAME
 70
     0
  9
$SPLINETYPE
 70
     6
  9
$SPLINESEGS
 70
     8
  9
$ATTDIA
 70
     0
  9
$ATTREQ
 70
     1
  9
$HANDLING
 70
     1
  9
$HANDSEED
  5
414
  9
$SURFTAB1
 70
     6
  9
$SURFTAB2
 70
     6
  9
$SURFTYPE
 70
     6
  9
$SURFU
 70
     6
  9
$SURFV
 70
     6
  9
$UCSNAME
  2

  9
$UCSORG
 10
0.0
 20
0.0
 30
0.0
  9
$UCSXDIR
 10
1.0
 20
0.0
 30
0.0
  9
$UCSYDIR
 10
0.0
 20
1.0
 30
0.0
  9
$PUCSNAME
  2

  9
$PUCSORG
 10
0.0
 20
0.0
 30
0.0
  9
$PUCSXDIR
 10
1.0
 20
0.0
 30
0.0
  9
$PUCSYDIR
 10
0.0
 20
1.0
 30
0.0
  9
$USERI1
 70
     0
  9
$USERI2
 70
     0
  9
$USERI3
 70
     0
  9
$USERI4
 70
     0
  9
$USERI5
 70
     0
  9
$USERR1
 40
0.0
  9
$USERR2
 40
0.0
  9
$USERR3
 40
0.0
  9
$USERR4
 40
0.0
  9
$USERR5
 40
0.0
  9
$WORLDVIEW
 70
     1
  9
$SHADEDGE
 70
     3
  9
$SHADEDIF
 70
    70
  9
$TILEMODE
 70
     1
  9
$MAXACTVP
 70
    48
  9
$PLIMCHECK
 70
     0
  9
$PEXTMIN
 10
1.000000E+020
 20
1.000000E+020
 30
1.000000E+020
  9
$PEXTMAX
 10
-1.000000E+020
 20
-1.000000E+020
 30
-1.000000E+020
  9
$PLIMMIN
 10
0.0
 20
0.0
  9
$PLIMMAX
 10
12.0
 20
9.0
  9
$UNITMODE
 70
     0
  9
$VISRETAIN
 70
     1
  9
$PLINEGEN
 70
     0
  9
$PSLTSCALE
 70
     1
  0
ENDSEC
  0
SECTION
  2
TABLES
  0
TABLE
  2
VPORT
 70
     2
  0
VPORT
  2
*ACTIVE
 70
     0
 10
0.0
 20
0.0
 11
1.0
 21
1.0
 12
-219.689044
 22
771.327075
 13
0.0
 23
0.0
 14
1.0
 24
1.0
 15
0.0
 25
0.0
 16
0.0
 26
0.0
 36
1.0
 17
0.0
 27
0.0
 37
0.0
 40
3121.380025
 41
2.827476
 42
50.0
 43
0.0
 44
0.0
 50
0.0
 51
0.0
 71
     0
 72
   100
 73
     1
 74
     1
 75
     0
 76
     0
 77
     0
 78
     0
  0
ENDTAB
  0
TABLE
  2
LTYPE
 70
     4
  0
LTYPE
  2
CONTINUOUS
 70
     0
  3
Solid line
 72
    65
 73
     0
 40
0.0
  0
LTYPE
  2
DASHED
 70
     0
  3
-- -- -- -- -- -- -- -- -- -- -- -- -- -- --
 72
    65
 73
     2
 40
0.75
 49
0.5
 49
-0.25
  0
LTYPE
  2
DASHDOT
 70
     0
  3
__ . __ . __ . __ . __ . __ . __ . __ . __ . __
 72
    65
 73
     4
 40
125.0
 49
80.0
 49
-20.0
 49
5.0
 49
-20.0
  0
LTYPE
  2
DIVIDE
 70
     0
  3
__ . . __ . . __ . . __ . . __ . . __ . . __
 72
    65
 73
     6
 40
1.25
 49
0.5
 49
-0.25
 49
0.0
 49
-0.25
 49
0.0
 49
-0.25
  0
ENDTAB
  0
TABLE
  2
LAYER
 70
    12
  0
LAYER
  2
0
 70
     0
 62
     3
  6
CONTINUOUS
  0
LAYER
  2
OUTLINE
 70
     0
 62
     3
  6
CONTINUOUS
  0
LAYER
  2
DETAIL
 70
     0
 62
     5
  6
CONTINUOUS
  0
LAYER
  2
BASIS
 70
     0
 62
     6
  6
CONTINUOUS
  0
LAYER
  2
SIZE
 70
     0
 62
    30
  6
CONTINUOUS
  0
LAYER
  2
NOTE
 70
     0
 62
     4
  6
CONTINUOUS
  0
LAYER
  2
ARRANGE
 70
     0
 62
     1
  6
CONTINUOUS
  0
LAYER
  2
FIX
 70
     0
 62
    11
  6
CONTINUOUS
  0
LAYER
  2
SERVICESPACE
 70
     0
 62
     2
  6
CONTINUOUS
  0
LAYER
  2
ETC
 70
     0
 62
    61
  6
CONTINUOUS
  0
LAYER
  2
SYMBOLLINE
 70
     0
 62
     7
  6
CONTINUOUS
  0
LAYER
  2
DEFPOINTS
 70
     0
 62
     7
  6
CONTINUOUS
  0
ENDTAB
  0
TABLE
  2
STYLE
 70
     5
  0
STYLE
  2
STANDARD
 70
     0
 40
0.0
 41
1.0
 50
0.0
 71
     0
 42
0.2
  3
txt
  4

  0
STYLE
  2
STANDARD1
 70
     0
 40
0.0
 41
1.0
 50
0.0
 71
     0
 42
40.0
  3
MONOTXT
  4
BIGFONT
  0
STYLE
  2
STANDARD2
 70
     4
 40
0.0
 41
1.0
 50
0.0
 71
     0
 42
40.0
  3
MONOTXT
  4
BIGFONT
  0
STYLE
  2
STANDARD3
 70
     0
 40
0.0
 41
1.0
 50
0.0
 71
     0
 42
40.0
  3
MONOTXT
  4

  0
STYLE
  2
STANDARD4
 70
     4
 40
0.0
 41
1.0
 50
0.0
 71
     0
 42
40.0
  3
MONOTXT
  4

  0
ENDTAB
  0
TABLE
  2
VIEW
 70
     0
  0
ENDTAB
  0
TABLE
  2
UCS
 70
     0
  0
ENDTAB
  0
TABLE
  2
APPID
 70
     1
  0
APPID
  2
ACAD
 70
     0
  0
ENDTAB
  0
TABLE
  2
DIMSTYLE
 70
     1
  0
DIMSTYLE
  2
STANDARD
 70
     0
  3

  4

  5

  6

  7

 40
1.0
 41
0.18
 42
0.0625
 43
0.38
 44
0.18
 45
0.0
 46
0.0
 47
0.0
 48
0.0
140
0.18
141
0.09
142
0.0
143
25.4
144
1.0
145
0.0
146
1.0
147
0.09
 71
     0
 72
     0
 73
     1
 74
     1
 75
     0
 76
     0
 77
     0
 78
     0
170
     0
171
     2
172
     0
173
     0
174
     0
175
     0
176
     0
177
     0
178
     0
  0
ENDTAB
  0
ENDSEC
  0
SECTION
  2
BLOCKS
  0
BLOCK
  8
0
  2
$MODEL_SPACE
 70
     0
 10
0.0
 20
0.0
 30
0.0
  3
$MODEL_SPACE
  1

  0
ENDBLK
  5
1A
  8
0
  0
BLOCK
 67
     1
  8
0
  2
$PAPER_SPACE
 70
     0
 10
0.0
 20
0.0
 30
0.0
  3
$PAPER_SPACE
  1

  0
ENDBLK
  5
17
 67
     1
  8
0
  0
BLOCK
  8
SIZE
  2
*D0
 70
     1
 10
0.0
 20
0.0
 30
0.0
  3
*D0
  1

  0
TEXT
  5
35
  8
SIZE
  6
CONTINUOUS
 10
149.000006
 20
84.059998
 30
0.0
 40
2.8
  1
174
 50
90.000005
 41
0.7
  7
STANDARD1
  0
LINE
  5
36
  8
SIZE
  6
CONTINUOUS
 10
-43.0
 20
0.0
 30
0.0
 11
152.0
 21
0.0
 31
0.0
  0
LINE
  5
37
  8
SIZE
  6
CONTINUOUS
 10
-230.0
 20
174.0
 30
0.0
 11
152.0
 21
174.0
 31
0.0
  0
LINE
  5
38
  8
SIZE
  6
CONTINUOUS
 10
150.0
 20
0.0
 30
0.0
 11
150.0
 21
174.0
 31
0.0
  0
INSERT
  5
3A
  8
SIZE
  2
DOT
 10
150.0
 20
0.0
 30
0.0
 50
270.0
  0
INSERT
  5
3B
  8
SIZE
  2
DOT
 10
150.0
 20
174.0
 30
0.0
 50
90.0
  0
POINT
  5
3C
  8
DEFPOINTS
  6
BYBLOCK
 10
-231.0
 20
174.0
 30
0.0
  0
POINT
  5
3D
  8
DEFPOINTS
  6
BYBLOCK
 10
-44.0
 20
0.0
 30
0.0
  0
POINT
  5
3E
  8
DEFPOINTS
  6
BYBLOCK
 10
150.0
 20
0.0
 30
0.0
  0
ENDBLK
  5
3F
  8
SIZE
  0
BLOCK
  8
SIZE
  2
DOT
 70
     0
 10
0.0
 20
0.0
 30
0.0
  3
DOT
  1

  0
POLYLINE
  5
41
  8
0
  6
BYBLOCK
 66
     1
 10
0.0
 20
0.0
 30
0.0
 70
     1
 40
0.5
 41
0.5
  0
VERTEX
  5
42
  8
0
  6
BYBLOCK
 10
-0.25
 20
0.0
 30
0.0
 42
1.0
  0
VERTEX
  5
43
  8
0
  6
BYBLOCK
 10
0.25
 20
0.0
 30
0.0
 42
1.0
  0
SEQEND
  5
44
  8
0
  6
BYBLOCK
  0
LINE
  5
45
  8
0
  6
BYBLOCK
 10
-0.5
 20
0.0
 30
0.0
 11
-1.0
 21
0.0
 31
0.0
  0
ENDBLK
  5
46
  8
SIZE
  0
BLOCK
  8
SIZE
  2
*D2
 70
     1
 10
0.0
 20
0.0
 30
0.0
  3
*D2
  1

  0
TEXT
  5
49
  8
SIZE
  6
CONTINUOUS
 10
-802.940002
 20
2200.999902
 30
0.0
 40
2.8
  1
600
 50
0.000003
 41
0.7
  7
STANDARD1
  0
LINE
  5
4A
  8
SIZE
  6
CONTINUOUS
 10
-500.0
 20
2101.0
 30
0.0
 11
-500.0
 21
2202.0
 31
0.0
  0
LINE
  5
4B
  8
SIZE
  6
CONTINUOUS
 10
-1100.0
 20
2101.0
 30
0.0
 11
-1100.0
 21
2202.0
 31
0.0
  0
LINE
  5
4C
  8
SIZE
  6
CONTINUOUS
 10
-500.0
 20
2200.0
 30
0.0
 11
-1100.0
 21
2200.0
 31
0.0
  0
INSERT
  5
4D
  8
SIZE
  2
DOT
 10
-500.0
 20
2200.0
 30
0.0
  0
INSERT
  5
4E
  8
SIZE
  2
DOT
 10
-1100.0
 20
2200.0
 30
0.0
 50
180.0
  0
POINT
  5
4F
  8
DEFPOINTS
  6
BYBLOCK
 10
-1100.0
 20
2100.0
 30
0.0
  0
POINT
  5
50
  8
DEFPOINTS
  6
BYBLOCK
 10
-500.0
 20
2100.0
 30
0.0
  0
POINT
  5
51
  8
DEFPOINTS
  6
BYBLOCK
 10
-500.0
 20
2200.0
 30
0.0
  0
ENDBLK
  5
52
  8
SIZE
  0
BLOCK
  8
SIZE
  2
*D3
 70
     1
 10
0.0
 20
0.0
 30
0.0
  3
*D3
  1

  0
TEXT
  5
55
  8
SIZE
  6
CONTINUOUS
 10
-252.940002
 20
2200.999902
 30
0.0
 40
2.8
  1
500
 50
0.000003
 41
0.7
  7
STANDARD1
  0
LINE
  5
56
  8
SIZE
  6
CONTINUOUS
 10
-500.0
 20
2101.0
 30
0.0
 11
-500.0
 21
2202.0
 31
0.0
  0
LINE
  5
57
  8
SIZE
  6
CONTINUOUS
 10
0.0
 20
2101.0
 30
0.0
 11
0.0
 21
2202.0
 31
0.0
  0
LINE
  5
58
  8
SIZE
  6
CONTINUOUS
 10
-500.0
 20
2200.0
 30
0.0
 11
0.0
 21
2200.0
 31
0.0
  0
INSERT
  5
59
  8
SIZE
  2
DOT
 10
-500.0
 20
2200.0
 30
0.0
 50
180.0
  0
INSERT
  5
5A
  8
SIZE
  2
DOT
 10
0.0
 20
2200.0
 30
0.0
  0
POINT
  5
5B
  8
DEFPOINTS
  6
BYBLOCK
 10
0.0
 20
2100.0
 30
0.0
  0
POINT
  5
5C
  8
DEFPOINTS
  6
BYBLOCK
 10
-500.0
 20
2100.0
 30
0.0
  0
POINT
  5
5D
  8
DEFPOINTS
  6
BYBLOCK
 10
-500.0
 20
2200.0
 30
0.0
  0
ENDBLK
  5
5E
  8
SIZE
  0
BLOCK
  8
SIZE
  2
*D4
 70
     1
 10
0.0
 20
0.0
 30
0.0
  3
*D4
  1

  0
TEXT
  5
61
  8
SIZE
  6
CONTINUOUS
 10
45.099999
 20
2046.000024
 30
0.0
 40
2.8
  1
最大
 50
0.000003
 41
0.583333
  7
STANDARD1
  0
TEXT
  5
62
  8
SIZE
  6
CONTINUOUS
 10
49.020001
 20
2046.000024
 30
0.0
 40
2.8
  1
100
 50
0.000003
 41
0.7
  7
STANDARD1
  0
LINE
  5
63
  8
SIZE
  6
CONTINUOUS
 10
100.0
 20
1946.0
 30
0.0
 11
100.0
 21
2047.0
 31
0.0
  0
LINE
  5
64
  8
SIZE
  6
CONTINUOUS
 10
100.0
 20
2045.0
 30
0.0
 11
0.0
 21
2045.0
 31
0.0
  0
INSERT
  5
65
  8
SIZE
  2
DOT
 10
100.0
 20
2045.0
 30
0.0
  0
INSERT
  5
66
  8
SIZE
  2
DOT
 10
0.0
 20
2045.0
 30
0.0
 50
180.0
  0
POINT
  5
67
  8
DEFPOINTS
  6
BYBLOCK
 10
0.0
 20
1900.0
 30
0.0
  0
POINT
  5
68
  8
DEFPOINTS
  6
BYBLOCK
 10
100.0
 20
1945.0
 30
0.0
  0
POINT
  5
69
  8
DEFPOINTS
  6
BYBLOCK
 10
100.0
 20
2045.0
 30
0.0
  0
ENDBLK
  5
6A
  8
SIZE
  0
BLOCK
  8
SIZE
  2
*D5
 70
     1
 10
0.0
 20
0.0
 30
0.0
  3
*D5
  1

  0
TEXT
  5
6D
  8
SIZE
  6
CONTINUOUS
 10
548.999976
 20
968.580017
 30
0.0
 40
2.8
  1
1945
 50
90.000005
 41
0.7
  7
STANDARD1
  0
LINE
  5
6E
  8
SIZE
  6
CONTINUOUS
 10
101.0
 20
1945.0
 30
0.0
 11
552.0
 21
1945.0
 31
0.0
  0
LINE
  5
6F
  8
SIZE
  6
CONTINUOUS
 10
-43.0
 20
0.0
 30
0.0
 11
552.0
 21
0.0
 31
0.0
  0
LINE
  5
70
  8
SIZE
  6
CONTINUOUS
 10
550.0
 20
1945.0
 30
0.0
 11
550.0
 21
0.0
 31
0.0
  0
INSERT
  5
71
  8
SIZE
  2
DOT
 10
550.0
 20
1945.0
 30
0.0
 50
90.0
  0
INSERT
  5
72
  8
SIZE
  2
DOT
 10
550.0
 20
0.0
 30
0.0
 50
270.0
  0
POINT
  5
73
  8
DEFPOINTS
  6
BYBLOCK
 10
-44.0
 20
0.0
 30
0.0
  0
POINT
  5
74
  8
DEFPOINTS
  6
BYBLOCK
 10
100.0
 20
1945.0
 30
0.0
  0
POINT
  5
75
  8
DEFPOINTS
  6
BYBLOCK
 10
550.0
 20
1945.0
 30
0.0
  0
ENDBLK
  5
76
  8
SIZE
  0
BLOCK
  8
SIZE
  2
*D6
 70
     1
 10
0.0
 20
0.0
 30
0.0
  3
*D6
  1

  0
TEXT
  5
79
  8
SIZE
  6
CONTINUOUS
 10
449.000006
 20
957.580017
 30
0.0
 40
2.8
  1
1923
 50
90.000005
 41
0.7
  7
STANDARD1
  0
LINE
  5
7A
  8
SIZE
  6
CONTINUOUS
 10
-43.0
 20
0.0
 30
0.0
 11
452.0
 21
0.0
 31
0.0
  0
LINE
  5
7B
  8
SIZE
  6
CONTINUOUS
 10
121.0
 20
1923.0
 30
0.0
 11
452.0
 21
1923.0
 31
0.0
  0
LINE
  5
7C
  8
SIZE
  6
CONTINUOUS
 10
450.0
 20
0.0
 30
0.0
 11
450.0
 21
1923.0
 31
0.0
  0
INSERT
  5
7D
  8
SIZE
  2
DOT
 10
450.0
 20
0.0
 30
0.0
 50
270.0
  0
INSERT
  5
7E
  8
SIZE
  2
DOT
 10
450.0
 20
1923.0
 30
0.0
 50
90.0
  0
POINT
  5
7F
  8
DEFPOINTS
  6
BYBLOCK
 10
120.0
 20
1923.0
 30
0.0
  0
POINT
  5
80
  8
DEFPOINTS
  6
BYBLOCK
 10
-44.0
 20
0.0
 30
0.0
  0
POINT
  5
81
  8
DEFPOINTS
  6
BYBLOCK
 10
450.0
 20
0.0
 30
0.0
  0
ENDBLK
  5
82
  8
SIZE
  0
BLOCK
  8
SIZE
  2
*D7
 70
     1
 10
0.0
 20
0.0
 30
0.0
  3
*D7
  1

  0
TEXT
  5
85
  8
SIZE
  6
CONTINUOUS
 10
-461.959991
 20
-548.999976
 30
0.0
 40
2.8
  1
80
 50
0.000003
 41
0.7
  7
STANDARD1
  0
LINE
  5
86
  8
SIZE
  6
CONTINUOUS
 10
-500.0
 20
-1.0
 30
0.0
 11
-500.0
 21
-552.0
 31
0.0
  0
LINE
  5
87
  8
SIZE
  6
CONTINUOUS
 10
-420.0
 20
149.0
 30
0.0
 11
-420.0
 21
-552.0
 31
0.0
  0
LINE
  5
88
  8
SIZE
  6
CONTINUOUS
 10
-500.0
 20
-550.0
 30
0.0
 11
-420.0
 21
-550.0
 31
0.0
  0
INSERT
  5
89
  8
SIZE
  2
DOT
 10
-500.0
 20
-550.0
 30
0.0
 50
180.0
  0
INSERT
  5
8A
  8
SIZE
  2
DOT
 10
-420.0
 20
-550.0
 30
0.0
  0
POINT
  5
8B
  8
DEFPOINTS
  6
BYBLOCK
 10
-420.0
 20
150.0
 30
0.0
  0
POINT
  5
8C
  8
DEFPOINTS
  6
BYBLOCK
 10
-500.0
 20
0.0
 30
0.0
  0
POINT
  5
8D
  8
DEFPOINTS
  6
BYBLOCK
 10
-500.0
 20
-550.0
 30
0.0
  0
ENDBLK
  5
8E
  8
SIZE
  0
BLOCK
  8
SIZE
  2
*D8
 70
     1
 10
0.0
 20
0.0
 30
0.0
  3
*D8
  1

  0
TEXT
  5
91
  8
SIZE
  6
CONTINUOUS
 10
-475.459991
 20
-449.000006
 30
0.0
 40
2.8
  1
53
 50
0.000003
 41
0.7
  7
STANDARD1
  0
LINE
  5
92
  8
SIZE
  6
CONTINUOUS
 10
-500.0
 20
-1.0
 30
0.0
 11
-500.0
 21
-452.0
 31
0.0
  0
LINE
  5
93
  8
SIZE
  6
CONTINUOUS
 10
-447.0
 20
179.0
 30
0.0
 11
-447.0
 21
-452.0
 31
0.0
  0
LINE
  5
94
  8
SIZE
  6
CONTINUOUS
 10
-500.0
 20
-450.0
 30
0.0
 11
-447.0
 21
-450.0
 31
0.0
  0
INSERT
  5
95
  8
SIZE
  2
DOT
 10
-500.0
 20
-450.0
 30
0.0
 50
180.0
  0
INSERT
  5
96
  8
SIZE
  2
DOT
 10
-447.0
 20
-450.0
 30
0.0
  0
POINT
  5
97
  8
DEFPOINTS
  6
BYBLOCK
 10
-447.0
 20
180.0
 30
0.0
  0
POINT
  5
98
  8
DEFPOINTS
  6
BYBLOCK
 10
-500.0
 20
0.0
 30
0.0
  0
POINT
  5
99
  8
DEFPOINTS
  6
BYBLOCK
 10
-500.0
 20
-450.0
 30
0.0
  0
ENDBLK
  5
9A
  8
SIZE
  0
BLOCK
  8
SIZE
  2
*D9
 70
     1
 10
0.0
 20
0.0
 30
0.0
  3
*D9
  1

  0
TEXT
  5
9D
  8
SIZE
  6
CONTINUOUS
 10
-486.459991
 20
-349.000006
 30
0.0
 40
2.8
  1
31
 50
0.000003
 41
0.7
  7
STANDARD1
  0
LINE
  5
9E
  8
SIZE
  6
CONTINUOUS
 10
-500.0
 20
-1.0
 30
0.0
 11
-500.0
 21
-352.0
 31
0.0
  0
LINE
  5
9F
  8
SIZE
  6
CONTINUOUS
 10
-469.0
 20
179.0
 30
0.0
 11
-469.0
 21
-352.0
 31
0.0
  0
LINE
  5
A0
  8
SIZE
  6
CONTINUOUS
 10
-500.0
 20
-350.0
 30
0.0
 11
-469.0
 21
-350.0
 31
0.0
  0
INSERT
  5
A1
  8
SIZE
  2
DOT
 10
-500.0
 20
-350.0
 30
0.0
 50
180.0
  0
INSERT
  5
A2
  8
SIZE
  2
DOT
 10
-469.0
 20
-350.0
 30
0.0
  0
POINT
  5
A3
  8
DEFPOINTS
  6
BYBLOCK
 10
-469.0
 20
180.0
 30
0.0
  0
POINT
  5
A4
  8
DEFPOINTS
  6
BYBLOCK
 10
-500.0
 20
0.0
 30
0.0
  0
POINT
  5
A5
  8
DEFPOINTS
  6
BYBLOCK
 10
-500.0
 20
-350.0
 30
0.0
  0
ENDBLK
  5
A6
  8
SIZE
  0
BLOCK
  8
SIZE
  2
*D10
 70
     1
 10
0.0
 20
0.0
 30
0.0
  3
*D10
  1

  0
TEXT
  5
A9
  8
SIZE
  6
CONTINUOUS
 10
-33.959999
 20
-149.000006
 30
0.0
 40
2.8
  1
64
 50
0.000003
 41
0.7
  7
STANDARD1
  0
LINE
  5
AA
  8
SIZE
  6
CONTINUOUS
 10
0.0
 20
199.0
 30
0.0
 11
0.0
 21
-152.0
 31
0.0
  0
LINE
  5
AB
  8
SIZE
  6
CONTINUOUS
 10
-64.0
 20
-21.0
 30
0.0
 11
-64.0
 21
-152.0
 31
0.0
  0
LINE
  5
AC
  8
SIZE
  6
CONTINUOUS
 10
0.0
 20
-150.0
 30
0.0
 11
-64.0
 21
-150.0
 31
0.0
  0
INSERT
  5
AD
  8
SIZE
  2
DOT
 10
0.0
 20
-150.0
 30
0.0
  0
INSERT
  5
AE
  8
SIZE
  2
DOT
 10
-64.0
 20
-150.0
 30
0.0
 50
180.0
  0
POINT
  5
AF
  8
DEFPOINTS
  6
BYBLOCK
 10
-64.0
 20
-20.0
 30
0.0
  0
POINT
  5
B0
  8
DEFPOINTS
  6
BYBLOCK
 10
0.0
 20
200.0
 30
0.0
  0
POINT
  5
B1
  8
DEFPOINTS
  6
BYBLOCK
 10
0.0
 20
-150.0
 30
0.0
  0
ENDBLK
  5
B2
  8
SIZE
  0
BLOCK
  8
SIZE
  2
*D11
 70
     1
 10
0.0
 20
0.0
 30
0.0
  3
*D11
  1

  0
TEXT
  5
B5
  8
SIZE
  6
CONTINUOUS
 10
-51.459999
 20
-249.000006
 30
0.0
 40
2.8
  1
99
 50
0.000003
 41
0.7
  7
STANDARD1
  0
LINE
  5
B6
  8
SIZE
  6
CONTINUOUS
 10
0.0
 20
199.0
 30
0.0
 11
0.0
 21
-252.0
 31
0.0
  0
LINE
  5
B7
  8
SIZE
  6
CONTINUOUS
 10
-99.0
 20
-21.0
 30
0.0
 11
-99.0
 21
-252.0
 31
0.0
  0
LINE
  5
B8
  8
SIZE
  6
CONTINUOUS
 10
0.0
 20
-250.0
 30
0.0
 11
-99.0
 21
-250.0
 31
0.0
  0
INSERT
  5
B9
  8
SIZE
  2
DOT
 10
0.0
 20
-250.0
 30
0.0
  0
INSERT
  5
BA
  8
SIZE
  2
DOT
 10
-99.0
 20
-250.0
 30
0.0
 50
180.0
  0
POINT
  5
BB
  8
DEFPOINTS
  6
BYBLOCK
 10
-99.0
 20
-20.0
 30
0.0
  0
POINT
  5
BC
  8
DEFPOINTS
  6
BYBLOCK
 10
0.0
 20
200.0
 30
0.0
  0
POINT
  5
BD
  8
DEFPOINTS
  6
BYBLOCK
 10
0.0
 20
-250.0
 30
0.0
  0
ENDBLK
  5
BE
  8
SIZE
  0
BLOCK
  8
SIZE
  2
*D12
 70
     1
 10
0.0
 20
0.0
 30
0.0
  3
*D12
  1

  0
TEXT
  5
C1
  8
SIZE
  6
CONTINUOUS
 10
-293.35116
 20
82.059998
 30
0.0
 40
2.8
  1
170
 50
90.000005
 41
0.7
  7
STANDARD1
  0
LINE
  5
C2
  8
SIZE
  6
CONTINUOUS
 10
-344.5
 20
0.0
 30
0.0
 11
-290.351166
 21
0.0
 31
0.0
  0
LINE
  5
C3
  8
SIZE
  6
CONTINUOUS
 10
-399.0
 20
170.0
 30
0.0
 11
-290.351166
 21
170.0
 31
0.0
  0
LINE
  5
C4
  8
SIZE
  6
CONTINUOUS
 10
-292.351166
 20
0.0
 30
0.0
 11
-292.351166
 21
170.0
 31
0.0
  0
INSERT
  5
C5
  8
SIZE
  2
DOT
 10
-292.351166
 20
0.0
 30
0.0
 50
270.0
  0
INSERT
  5
C6
  8
SIZE
  2
DOT
 10
-292.351166
 20
170.0
 30
0.0
 50
90.0
  0
POINT
  5
C7
  8
DEFPOINTS
  6
BYBLOCK
 10
-400.0
 20
170.0
 30
0.0
  0
POINT
  5
C8
  8
DEFPOINTS
  6
BYBLOCK
 10
-345.5
 20
0.0
 30
0.0
  0
POINT
  5
C9
  8
DEFPOINTS
  6
BYBLOCK
 10
-292.351166
 20
0.0
 30
0.0
  0
ENDBLK
  5
CA
  8
SIZE
  0
BLOCK
  8
SIZE
  2
*D13
 70
     1
 10
0.0
 20
0.0
 30
0.0
  3
*D13
  1

  0
TEXT
  5
CD
  8
SIZE
  6
CONTINUOUS
 10
-241.440002
 20
-149.000006
 30
0.0
 40
2.8
  1
349
 50
0.000003
 41
0.7
  7
STANDARD1
  0
LINE
  5
CE
  8
SIZE
  6
CONTINUOUS
 10
-64.0
 20
-21.0
 30
0.0
 11
-64.0
 21
-152.0
 31
0.0
  0
LINE
  5
CF
  8
SIZE
  6
CONTINUOUS
 10
-413.0
 20
-21.0
 30
0.0
 11
-413.0
 21
-152.0
 31
0.0
  0
LINE
  5
D0
  8
SIZE
  6
CONTINUOUS
 10
-64.0
 20
-150.0
 30
0.0
 11
-413.0
 21
-150.0
 31
0.0
  0
INSERT
  5
D1
  8
SIZE
  2
DOT
 10
-64.0
 20
-150.0
 30
0.0
  0
INSERT
  5
D2
  8
SIZE
  2
DOT
 10
-413.0
 20
-150.0
 30
0.0
 50
180.0
  0
POINT
  5
D3
  8
DEFPOINTS
  6
BYBLOCK
 10
-413.0
 20
-20.0
 30
0.0
  0
POINT
  5
D4
  8
DEFPOINTS
  6
BYBLOCK
 10
-64.0
 20
-20.0
 30
0.0
  0
POINT
  5
D5
  8
DEFPOINTS
  6
BYBLOCK
 10
-64.0
 20
-150.0
 30
0.0
  0
ENDBLK
  5
D6
  8
SIZE
  0
BLOCK
  8
SIZE
  2
*D14
 70
     1
 10
0.0
 20
0.0
 30
0.0
  3
*D14
  1

  0
TEXT
  5
D9
  8
SIZE
  6
CONTINUOUS
 10
-258.940002
 20
-249.000006
 30
0.0
 40
2.8
  1
314
 50
0.000003
 41
0.7
  7
STANDARD1
  0
LINE
  5
DA
  8
SIZE
  6
CONTINUOUS
 10
-99.0
 20
-21.0
 30
0.0
 11
-99.0
 21
-252.0
 31
0.0
  0
LINE
  5
DB
  8
SIZE
  6
CONTINUOUS
 10
-413.0
 20
-21.0
 30
0.0
 11
-413.0
 21
-252.0
 31
0.0
  0
LINE
  5
DC
  8
SIZE
  6
CONTINUOUS
 10
-99.0
 20
-250.0
 30
0.0
 11
-413.0
 21
-250.0
 31
0.0
  0
INSERT
  5
DD
  8
SIZE
  2
DOT
 10
-99.0
 20
-250.0
 30
0.0
  0
INSERT
  5
DE
  8
SIZE
  2
DOT
 10
-413.0
 20
-250.0
 30
0.0
 50
180.0
  0
POINT
  5
DF
  8
DEFPOINTS
  6
BYBLOCK
 10
-413.0
 20
-20.0
 30
0.0
  0
POINT
  5
E0
  8
DEFPOINTS
  6
BYBLOCK
 10
-99.0
 20
-20.0
 30
0.0
  0
POINT
  5
E1
  8
DEFPOINTS
  6
BYBLOCK
 10
-99.0
 20
-250.0
 30
0.0
  0
ENDBLK
  5
E2
  8
SIZE
  0
BLOCK
  8
SIZE
  2
*D15
 70
     1
 10
0.0
 20
0.0
 30
0.0
  3
*D15
  1

  0
TEXT
  5
E5
  8
SIZE
  6
CONTINUOUS
 10
-378.440002
 20
-648.999976
 30
0.0
 40
2.8
  1
249
 50
0.000003
 41
0.7
  7
STANDARD1
  0
LINE
  5
E6
  8
SIZE
  6
CONTINUOUS
 10
-500.0
 20
-1.0
 30
0.0
 11
-500.0
 21
-652.0
 31
0.0
  0
LINE
  5
E7
  8
SIZE
  6
CONTINUOUS
 10
-251.0
 20
153.0
 30
0.0
 11
-251.0
 21
-652.0
 31
0.0
  0
LINE
  5
E8
  8
SIZE
  6
CONTINUOUS
 10
-500.0
 20
-650.0
 30
0.0
 11
-251.0
 21
-650.0
 31
0.0
  0
INSERT
  5
E9
  8
SIZE
  2
DOT
 10
-500.0
 20
-650.0
 30
0.0
 50
180.0
  0
INSERT
  5
EA
  8
SIZE
  2
DOT
 10
-251.0
 20
-650.0
 30
0.0
  0
POINT
  5
EB
  8
DEFPOINTS
  6
BYBLOCK
 10
-251.0
 20
154.0
 30
0.0
  0
POINT
  5
EC
  8
DEFPOINTS
  6
BYBLOCK
 10
-500.0
 20
0.0
 30
0.0
  0
POINT
  5
ED
  8
DEFPOINTS
  6
BYBLOCK
 10
-500.0
 20
-650.0
 30
0.0
  0
ENDBLK
  5
EE
  8
SIZE
  0
BLOCK
  8
SIZE
  2
*D16
 70
     1
 10
0.0
 20
0.0
 30
0.0
  3
*D16
  1

  0
TEXT
  5
F1
  8
SIZE
  6
CONTINUOUS
 10
-573.94873
 20
1715.621729
 30
0.0
 40
2.8
  1
5
 50
0.000003
 41
0.7
  7
STANDARD1
  0
LINE
  5
F2
  8
SIZE
  6
CONTINUOUS
 10
-505.0
 20
1633.499756
 30
0.0
 11
-505.0
 21
1716.621704
 31
0.0
  0
LINE
  5
F3
  8
SIZE
  6
CONTINUOUS
 10
-575.348755
 20
1714.621704
 30
0.0
 11
-495.0
 21
1714.621704
 31
0.0
  0
INSERT
  5
F4
  8
SIZE
  2
DOT
 10
-505.0
 20
1714.621704
 30
0.0
 50
180.0
  0
INSERT
  5
F5
  8
SIZE
  2
DOT
 10
-500.0
 20
1714.621704
 30
0.0
  0
POINT
  5
F6
  8
DEFPOINTS
  6
BYBLOCK
 10
-500.0
 20
1900.0
 30
0.0
  0
POINT
  5
F7
  8
DEFPOINTS
  6
BYBLOCK
 10
-505.0
 20
1632.499756
 30
0.0
  0
POINT
  5
F8
  8
DEFPOINTS
  6
BYBLOCK
 10
-505.0
 20
1714.621704
 30
0.0
  0
ENDBLK
  5
F9
  8
SIZE
  0
BLOCK
  8
SIZE
  2
*D17
 70
     1
 10
0.0
 20
0.0
 30
0.0
  3
*D17
  1

  0
TEXT
  5
FC
  8
SIZE
  6
CONTINUOUS
 10
-656.000024
 20
1954.601685
 30
0.0
 40
2.8
  1
6
 50
90.000005
 41
0.7
  7
STANDARD1
  0
LINE
  5
FD
  8
SIZE
  6
CONTINUOUS
 10
-374.5
 20
1906.0
 30
0.0
 11
-657.0
 21
1906.0
 31
0.0
  0
LINE
  5
FE
  8
SIZE
  6
CONTINUOUS
 10
-501.0
 20
1900.0
 30
0.0
 11
-657.0
 21
1900.0
 31
0.0
  0
LINE
  5
FF
  8
SIZE
  6
CONTINUOUS
 10
-655.0
 20
1957.96167
 30
0.0
 11
-655.0
 21
1895.0
 31
0.0
  0
INSERT
  5
100
  8
SIZE
  2
DOT
 10
-655.0
 20
1906.0
 30
0.0
 50
90.0
  0
INSERT
  5
101
  8
SIZE
  2
DOT
 10
-655.0
 20
1900.0
 30
0.0
 50
270.0
  0
POINT
  5
102
  8
DEFPOINTS
  6
BYBLOCK
 10
-500.0
 20
1900.0
 30
0.0
  0
POINT
  5
103
  8
DEFPOINTS
  6
BYBLOCK
 10
-373.5
 20
1906.0
 30
0.0
  0
POINT
  5
104
  8
DEFPOINTS
  6
BYBLOCK
 10
-655.0
 20
1906.0
 30
0.0
  0
ENDBLK
  5
105
  8
SIZE
  0
BLOCK
  8
SIZE
  2
*D18
 70
     1
 10
0.0
 20
0.0
 30
0.0
  3
*D18
  1

  0
TEXT
  5
108
  8
SIZE
  6
CONTINUOUS
 10
-431.940002
 20
2046.000024
 30
0.0
 40
2.8
  1
142
 50
0.000003
 41
0.7
  7
STANDARD1
  0
LINE
  5
109
  8
SIZE
  6
CONTINUOUS
 10
-358.0
 20
1924.909546
 30
0.0
 11
-358.0
 21
2047.0
 31
0.0
  0
LINE
  5
10A
  8
SIZE
  6
CONTINUOUS
 10
-500.0
 20
1901.0
 30
0.0
 11
-500.0
 21
2047.0
 31
0.0
  0
LINE
  5
10B
  8
SIZE
  6
CONTINUOUS
 10
-358.0
 20
2045.0
 30
0.0
 11
-500.0
 21
2045.0
 31
0.0
  0
INSERT
  5
10C
  8
SIZE
  2
DOT
 10
-358.0
 20
2045.0
 30
0.0
  0
INSERT
  5
10D
  8
SIZE
  2
DOT
 10
-500.0
 20
2045.0
 30
0.0
 50
180.0
  0
POINT
  5
10E
  8
DEFPOINTS
  6
BYBLOCK
 10
-500.0
 20
1900.0
 30
0.0
  0
POINT
  5
10F
  8
DEFPOINTS
  6
BYBLOCK
 10
-358.0
 20
1923.909546
 30
0.0
  0
POINT
  5
110
  8
DEFPOINTS
  6
BYBLOCK
 10
-358.0
 20
2045.0
 30
0.0
  0
ENDBLK
  5
111
  8
SIZE
  0
BLOCK
  8
SIZE
  2
*D19
 70
     1
 10
0.0
 20
0.0
 30
0.0
  3
*D19
  1

  0
TEXT
  5
114
  8
SIZE
  6
CONTINUOUS
 10
349.000006
 20
1970.600098
 30
0.0
 40
2.8
  1
200
 50
90.000005
 41
0.7
  7
STANDARD1
  0
LINE
  5
115
  8
SIZE
  6
CONTINUOUS
 10
1.0
 20
1900.0
 30
0.0
 11
352.0
 21
1900.0
 31
0.0
  0
LINE
  5
116
  8
SIZE
  6
CONTINUOUS
 10
1.0
 20
2100.0
 30
0.0
 11
352.0
 21
2100.0
 31
0.0
  0
LINE
  5
117
  8
SIZE
  6
CONTINUOUS
 10
350.0
 20
1900.0
 30
0.0
 11
350.0
 21
2100.0
 31
0.0
  0
INSERT
  5
118
  8
SIZE
  2
DOT
 10
350.0
 20
1900.0
 30
0.0
 50
270.0
  0
INSERT
  5
119
  8
SIZE
  2
DOT
 10
350.0
 20
2100.0
 30
0.0
 50
90.0
  0
POINT
  5
11A
  8
DEFPOINTS
  6
BYBLOCK
 10
0.0
 20
2100.0
 30
0.0
  0
POINT
  5
11B
  8
DEFPOINTS
  6
BYBLOCK
 10
0.0
 20
1900.0
 30
0.0
  0
POINT
  5
11C
  8
DEFPOINTS
  6
BYBLOCK
 10
350.0
 20
1900.0
 30
0.0
  0
ENDBLK
  5
11D
  8
SIZE
  0
BLOCK
  8
SIZE
  2
*D20
 70
     1
 10
0.0
 20
0.0
 30
0.0
  3
*D20
  1

  0
TEXT
  5
120
  8
SIZE
  6
CONTINUOUS
 10
-226.47998
 20
-748.999976
 30
0.0
 40
2.8
  1
500
 50
0.000003
 41
0.7
  7
STANDARD1
  0
LINE
  5
121
  8
SIZE
  6
CONTINUOUS
 10
-500.0
 20
-1.0
 30
0.0
 11
-500.0
 21
-752.0
 31
0.0
  0
LINE
  5
122
  8
SIZE
  6
CONTINUOUS
 10
0.0
 20
199.0
 30
0.0
 11
0.0
 21
-752.0
 31
0.0
  0
LINE
  5
123
  8
SIZE
  6
CONTINUOUS
 10
-500.0
 20
-750.0
 30
0.0
 11
0.0
 21
-750.0
 31
0.0
  0
INSERT
  5
124
  8
SIZE
  2
DOT
 10
-500.0
 20
-750.0
 30
0.0
 50
180.0
  0
INSERT
  5
125
  8
SIZE
  2
DOT
 10
0.0
 20
-750.0
 30
0.0
  0
POINT
  5
126
  8
DEFPOINTS
  6
BYBLOCK
 10
0.0
 20
200.0
 30
0.0
  0
POINT
  5
127
  8
DEFPOINTS
  6
BYBLOCK
 10
-500.0
 20
0.0
 30
0.0
  0
POINT
  5
128
  8
DEFPOINTS
  6
BYBLOCK
 10
-500.0
 20
-750.0
 30
0.0
  0
ENDBLK
  5
129
  8
SIZE
  0
BLOCK
  8
SIZE
  2
*D21
 70
     1
 10
0.0
 20
0.0
 30
0.0
  3
*D21
  1

  0
TEXT
  5
12C
  8
SIZE
  6
CONTINUOUS
 10
249.000006
 20
70.600006
 30
0.0
 40
2.8
  1
200
 50
90.000005
 41
0.7
  7
STANDARD1
  0
LINE
  5
12D
  8
SIZE
  6
CONTINUOUS
 10
1.0
 20
200.0
 30
0.0
 11
252.0
 21
200.0
 31
0.0
  0
LINE
  5
12E
  8
SIZE
  6
CONTINUOUS
 10
-83.0
 20
0.0
 30
0.0
 11
252.0
 21
0.0
 31
0.0
  0
LINE
  5
12F
  8
SIZE
  6
CONTINUOUS
 10
250.0
 20
200.0
 30
0.0
 11
250.0
 21
0.0
 31
0.0
  0
INSERT
  5
130
  8
SIZE
  2
DOT
 10
250.0
 20
200.0
 30
0.0
 50
90.0
  0
INSERT
  5
131
  8
SIZE
  2
DOT
 10
250.0
 20
0.0
 30
0.0
 50
270.0
  0
POINT
  5
132
  8
DEFPOINTS
  6
BYBLOCK
 10
-84.0
 20
0.0
 30
0.0
  0
POINT
  5
133
  8
DEFPOINTS
  6
BYBLOCK
 10
0.0
 20
200.0
 30
0.0
  0
POINT
  5
134
  8
DEFPOINTS
  6
BYBLOCK
 10
250.0
 20
200.0
 30
0.0
  0
ENDBLK
  5
135
  8
SIZE
  0
BLOCK
  8
SIZE
  2
*D22
 70
     1
 10
0.0
 20
0.0
 30
0.0
  3
*D22
  1

  0
TEXT
  5
138
  8
SIZE
  6
CONTINUOUS
 10
349.000006
 20
910.800049
 30
0.0
 40
2.8
  1
1900
 50
90.000005
 41
0.7
  7
STANDARD1
  0
LINE
  5
139
  8
SIZE
  6
CONTINUOUS
 10
-83.0
 20
0.0
 30
0.0
 11
352.0
 21
0.0
 31
0.0
  0
LINE
  5
13A
  8
SIZE
  6
CONTINUOUS
 10
1.0
 20
1900.0
 30
0.0
 11
352.0
 21
1900.0
 31
0.0
  0
LINE
  5
13B
  8
SIZE
  6
CONTINUOUS
 10
350.0
 20
0.0
 30
0.0
 11
350.0
 21
1900.0
 31
0.0
  0
INSERT
  5
13C
  8
SIZE
  2
DOT
 10
350.0
 20
0.0
 30
0.0
 50
270.0
  0
INSERT
  5
13D
  8
SIZE
  2
DOT
 10
350.0
 20
1900.0
 30
0.0
 50
90.0
  0
POINT
  5
13E
  8
DEFPOINTS
  6
BYBLOCK
 10
0.0
 20
1900.0
 30
0.0
  0
POINT
  5
13F
  8
DEFPOINTS
  6
BYBLOCK
 10
-84.0
 20
0.0
 30
0.0
  0
POINT
  5
140
  8
DEFPOINTS
  6
BYBLOCK
 10
350.0
 20
0.0
 30
0.0
  0
ENDBLK
  5
141
  8
SIZE
  0
BLOCK
  8
SIZE
  2
*D23
 70
     1
 10
0.0
 20
0.0
 30
0.0
  3
*D23
  1

  0
TEXT
  5
144
  8
SIZE
  6
CONTINUOUS
 10
-1201.000024
 20
1010.800049
 30
0.0
 40
2.8
  1
2100
 50
90.000005
 41
0.7
  7
STANDARD1
  0
LINE
  5
145
  8
SIZE
  6
CONTINUOUS
 10
-1101.0
 20
2100.0
 30
0.0
 11
-1202.0
 21
2100.0
 31
0.0
  0
LINE
  5
146
  8
SIZE
  6
CONTINUOUS
 10
-1101.0
 20
0.0
 30
0.0
 11
-1202.0
 21
0.0
 31
0.0
  0
LINE
  5
147
  8
SIZE
  6
CONTINUOUS
 10
-1200.0
 20
2100.0
 30
0.0
 11
-1200.0
 21
0.0
 31
0.0
  0
INSERT
  5
148
  8
SIZE
  2
DOT
 10
-1200.0
 20
2100.0
 30
0.0
 50
90.0
  0
INSERT
  5
149
  8
SIZE
  2
DOT
 10
-1200.0
 20
0.0
 30
0.0
 50
270.0
  0
POINT
  5
14A
  8
DEFPOINTS
  6
BYBLOCK
 10
-1100.0
 20
0.0
 30
0.0
  0
POINT
  5
14B
  8
DEFPOINTS
  6
BYBLOCK
 10
-1100.0
 20
2100.0
 30
0.0
  0
POINT
  5
14C
  8
DEFPOINTS
  6
BYBLOCK
 10
-1200.0
 20
2100.0
 30
0.0
  0
ENDBLK
  5
14D
  8
SIZE
  0
BLOCK
  8
0
  2
_ORIGIN
 70
     0
 10
0.0
 20
0.0
 30
0.0
  3
_ORIGIN
  1

  0
CIRCLE
  5
150
  8
0
  6
BYBLOCK
 62
     0
 10
0.0
 20
0.0
 30
0.0
 40
0.5
  0
LINE
  5
151
  8
0
  6
BYBLOCK
 62
     0
 10
0.0
 20
0.0
 30
0.0
 11
-1.0
 21
0.0
 31
0.0
  0
ENDBLK
  5
152
  8
0
  0
BLOCK
  8
0
  2
*D25
 70
     1
 10
0.0
 20
0.0
 30
0.0
  3
*D25
  1

  0
LINE
  5
155
  8
0
  6
BYBLOCK
 62
     0
 10
-1110.0
 20
0.0
 30
0.0
 11
-1214.9
 21
0.0
 31
0.0
  0
LINE
  5
156
  8
0
  6
BYBLOCK
 62
     0
 10
-1110.0
 20
2100.0
 30
0.0
 11
-1214.9
 21
2100.0
 31
0.0
  0
LINE
  5
157
  8
0
  6
BYBLOCK
 62
     0
 10
-1202.4
 20
10.0
 30
0.0
 11
-1202.4
 21
2090.0
 31
0.0
  0
INSERT
  5
158
  8
0
  6
BYBLOCK
 62
     0
  2
_ORIGIN
 10
-1202.4
 20
0.0
 30
0.0
 41
10.0
 42
10.0
 43
10.0
 50
270.0
  0
INSERT
  5
159
  8
0
  6
BYBLOCK
 62
     0
  2
_ORIGIN
 10
-1202.4
 20
2100.0
 30
0.0
 41
10.0
 42
10.0
 43
10.0
 50
90.0
  0
TEXT
  5
15A
  8
0
  6
BYBLOCK
 62
     0
 10
-1212.4
 20
969.720049
 30
0.0
 40
30.0
  1
2100
 50
90.0
 72
     1
 11
-1212.4
 21
1014.720049
 31
0.0
  0
POINT
  5
15B
  8
DEFPOINTS
  6
BYBLOCK
 62
     0
 10
-1100.0
 20
0.0
 30
0.0
  0
POINT
  5
15C
  8
DEFPOINTS
  6
BYBLOCK
 62
     0
 10
-1100.0
 20
2100.0
 30
0.0
  0
POINT
  5
15D
  8
DEFPOINTS
  6
BYBLOCK
 62
     0
 10
-1202.4
 20
2100.0
 30
0.0
  0
ENDBLK
  5
15E
  8
0
  0
BLOCK
  8
0
  2
*D26
 70
     1
 10
0.0
 20
0.0
 30
0.0
  3
*D26
  1

  0
LINE
  5
161
  8
0
  6
BYBLOCK
 62
     0
 10
10.0
 20
1900.0
 30
0.0
 11
360.1
 21
1900.0
 31
0.0
  0
LINE
  5
162
  8
0
  6
BYBLOCK
 62
     0
 10
-74.0
 20
0.0
 30
0.0
 11
360.1
 21
0.0
 31
0.0
  0
LINE
  5
163
  8
0
  6
BYBLOCK
 62
     0
 10
347.6
 20
1890.0
 30
0.0
 11
347.6
 21
10.0
 31
0.0
  0
INSERT
  5
164
  8
0
  6
BYBLOCK
 62
     0
  2
_ORIGIN
 10
347.6
 20
1900.0
 30
0.0
 41
10.0
 42
10.0
 43
10.0
 50
90.0
  0
INSERT
  5
165
  8
0
  6
BYBLOCK
 62
     0
  2
_ORIGIN
 10
347.6
 20
0.0
 30
0.0
 41
10.0
 42
10.0
 43
10.0
 50
270.0
  0
TEXT
  5
166
  8
0
  6
BYBLOCK
 62
     0
 10
337.6
 20
869.720049
 30
0.0
 40
30.0
  1
1900
 50
90.0
 72
     1
 11
337.6
 21
914.720049
 31
0.0
  0
POINT
  5
167
  8
DEFPOINTS
  6
BYBLOCK
 62
     0
 10
0.0
 20
1900.0
 30
0.0
  0
POINT
  5
168
  8
DEFPOINTS
  6
BYBLOCK
 62
     0
 10
-84.0
 20
0.0
 30
0.0
  0
POINT
  5
169
  8
DEFPOINTS
  6
BYBLOCK
 62
     0
 10
347.6
 20
0.0
 30
0.0
  0
ENDBLK
  5
16A
  8
0
  0
BLOCK
  8
0
  2
*D27
 70
     1
 10
0.0
 20
0.0
 30
0.0
  3
*D27
  1

  0
LINE
  5
16D
  8
0
  6
BYBLOCK
 62
     0
 10
-74.0
 20
0.0
 30
0.0
 11
260.1
 21
0.0
 31
0.0
  0
LINE
  5
16E
  8
0
  6
BYBLOCK
 62
     0
 10
10.0
 20
200.0
 30
0.0
 11
260.1
 21
200.0
 31
0.0
  0
LINE
  5
16F
  8
0
  6
BYBLOCK
 62
     0
 10
247.6
 20
10.0
 30
0.0
 11
247.6
 21
190.0
 31
0.0
  0
INSERT
  5
170
  8
0
  6
BYBLOCK
 62
     0
  2
_ORIGIN
 10
247.6
 20
0.0
 30
0.0
 41
10.0
 42
10.0
 43
10.0
 50
270.0
  0
INSERT
  5
171
  8
0
  6
BYBLOCK
 62
     0
  2
_ORIGIN
 10
247.6
 20
200.0
 30
0.0
 41
10.0
 42
10.0
 43
10.0
 50
90.0
  0
TEXT
  5
172
  8
0
  6
BYBLOCK
 62
     0
 10
237.6
 20
38.540006
 30
0.0
 40
30.0
  1
200
 50
90.0
 72
     1
 11
237.6
 21
73.540006
 31
0.0
  0
POINT
  5
173
  8
DEFPOINTS
  6
BYBLOCK
 62
     0
 10
-84.0
 20
0.0
 30
0.0
  0
POINT
  5
174
  8
DEFPOINTS
  6
BYBLOCK
 62
     0
 10
0.0
 20
200.0
 30
0.0
  0
POINT
  5
175
  8
DEFPOINTS
  6
BYBLOCK
 62
     0
 10
247.6
 20
200.0
 30
0.0
  0
ENDBLK
  5
176
  8
0
  0
BLOCK
  8
0
  2
*D28
 70
     1
 10
0.0
 20
0.0
 30
0.0
  3
*D28
  1

  0
LINE
  5
179
  8
0
  6
BYBLOCK
 62
     0
 10
0.0
 20
190.0
 30
0.0
 11
0.0
 21
-760.1
 31
0.0
  0
LINE
  5
17A
  8
0
  6
BYBLOCK
 62
     0
 10
-500.0
 20
-10.0
 30
0.0
 11
-500.0
 21
-760.1
 31
0.0
  0
LINE
  5
17B
  8
0
  6
BYBLOCK
 62
     0
 10
-10.0
 20
-747.6
 30
0.0
 11
-490.0
 21
-747.6
 31
0.0
  0
INSERT
  5
17C
  8
0
  6
BYBLOCK
 62
     0
  2
_ORIGIN
 10
0.0
 20
-747.6
 30
0.0
 41
10.0
 42
10.0
 43
10.0
  0
INSERT
  5
17D
  8
0
  6
BYBLOCK
 62
     0
  2
_ORIGIN
 10
-500.0
 20
-747.6
 30
0.0
 41
10.0
 42
10.0
 43
10.0
 50
180.0
  0
TEXT
  5
17E
  8
0
  6
BYBLOCK
 62
     0
 10
-258.539976
 20
-737.6
 30
0.0
 40
30.0
  1
500
 72
     1
 11
-223.539976
 21
-737.6
 31
0.0
  0
POINT
  5
17F
  8
DEFPOINTS
  6
BYBLOCK
 62
     0
 10
0.0
 20
200.0
 30
0.0
  0
POINT
  5
180
  8
DEFPOINTS
  6
BYBLOCK
 62
     0
 10
-500.0
 20
0.0
 30
0.0
  0
POINT
  5
181
  8
DEFPOINTS
  6
BYBLOCK
 62
     0
 10
-500.0
 20
-747.6
 30
0.0
  0
ENDBLK
  5
182
  8
0
  0
BLOCK
  8
0
  2
*D29
 70
     1
 10
0.0
 20
0.0
 30
0.0
  3
*D29
  1

  0
LINE
  5
185
  8
0
  6
BYBLOCK
 62
     0
 10
10.0
 20
2100.0
 30
0.0
 11
360.1
 21
2100.0
 31
0.0
  0
LINE
  5
186
  8
0
  6
BYBLOCK
 62
     0
 10
10.0
 20
1900.0
 30
0.0
 11
360.1
 21
1900.0
 31
0.0
  0
LINE
  5
187
  8
0
  6
BYBLOCK
 62
     0
 10
347.6
 20
2090.0
 30
0.0
 11
347.6
 21
1910.0
 31
0.0
  0
INSERT
  5
188
  8
0
  6
BYBLOCK
 62
     0
  2
_ORIGIN
 10
347.6
 20
2100.0
 30
0.0
 41
10.0
 42
10.0
 43
10.0
 50
90.0
  0
INSERT
  5
189
  8
0
  6
BYBLOCK
 62
     0
  2
_ORIGIN
 10
347.6
 20
1900.0
 30
0.0
 41
10.0
 42
10.0
 43
10.0
 50
270.0
  0
TEXT
  5
18A
  8
0
  6
BYBLOCK
 62
     0
 10
337.6
 20
1938.540097
 30
0.0
 40
30.0
  1
200
 50
90.0
 72
     1
 11
337.6
 21
1973.540097
 31
0.0
  0
POINT
  5
18B
  8
DEFPOINTS
  6
BYBLOCK
 62
     0
 10
0.0
 20
2100.0
 30
0.0
  0
POINT
  5
18C
  8
DEFPOINTS
  6
BYBLOCK
 62
     0
 10
0.0
 20
1900.0
 30
0.0
  0
POINT
  5
18D
  8
DEFPOINTS
  6
BYBLOCK
 62
     0
 10
347.6
 20
1900.0
 30
0.0
  0
ENDBLK
  5
18E
  8
0
  0
BLOCK
  8
0
  2
*D30
 70
     1
 10
0.0
 20
0.0
 30
0.0
  3
*D30
  1

  0
LINE
  5
191
  8
0
  6
BYBLOCK
 62
     0
 10
-500.0
 20
1910.0
 30
0.0
 11
-500.0
 21
2059.9
 31
0.0
  0
LINE
  5
192
  8
0
  6
BYBLOCK
 62
     0
 10
-358.0
 20
1933.909546
 30
0.0
 11
-358.0
 21
2059.9
 31
0.0
  0
LINE
  5
193
  8
0
  6
BYBLOCK
 62
     0
 10
-490.0
 20
2047.4
 30
0.0
 11
-368.0
 21
2047.4
 31
0.0
  0
INSERT
  5
194
  8
0
  6
BYBLOCK
 62
     0
  2
_ORIGIN
 10
-500.0
 20
2047.4
 30
0.0
 41
10.0
 42
10.0
 43
10.0
 50
180.0
  0
INSERT
  5
195
  8
0
  6
BYBLOCK
 62
     0
  2
_ORIGIN
 10
-358.0
 20
2047.4
 30
0.0
 41
10.0
 42
10.0
 43
10.0
  0
TEXT
  5
196
  8
0
  6
BYBLOCK
 62
     0
 10
-464.0
 20
2057.4
 30
0.0
 40
30.0
  1
142
 72
     1
 11
-429.0
 21
2057.4
 31
0.0
  0
POINT
  5
197
  8
DEFPOINTS
  6
BYBLOCK
 62
     0
 10
-500.0
 20
1900.0
 30
0.0
  0
POINT
  5
198
  8
DEFPOINTS
  6
BYBLOCK
 62
     0
 10
-358.0
 20
1923.909546
 30
0.0
  0
POINT
  5
199
  8
DEFPOINTS
  6
BYBLOCK
 62
     0
 10
-358.0
 20
2047.4
 30
0.0
  0
ENDBLK
  5
19A
  8
0
  0
BLOCK
  8
0
  2
*D31
 70
     1
 10
0.0
 20
0.0
 30
0.0
  3
*D31
  1

  0
LINE
  5
19D
  8
0
  6
BYBLOCK
 62
     0
 10
-510.0
 20
1900.0
 30
0.0
 11
-669.9
 21
1900.0
 31
0.0
  0
LINE
  5
19E
  8
0
  6
BYBLOCK
 62
     0
 10
-383.5
 20
1906.0
 30
0.0
 11
-669.9
 21
1906.0
 31
0.0
  0
LINE
  5
19F
  8
0
  6
BYBLOCK
 62
     0
 10
-657.4
 20
1890.0
 30
0.0
 11
-657.4
 21
1880.0
 31
0.0
  0
LINE
  5
1A0
  8
0
  6
BYBLOCK
 62
     0
 10
-657.4
 20
1916.0
 30
0.0
 11
-657.4
 21
1975.581684
 31
0.0
  0
LINE
  5
1A1
  8
0
  6
BYBLOCK
 62
     0
 10
-657.4
 20
1900.0
 30
0.0
 11
-657.4
 21
1906.0
 31
0.0
  0
INSERT
  5
1A2
  8
0
  6
BYBLOCK
 62
     0
  2
_ORIGIN
 10
-657.4
 20
1900.0
 30
0.0
 41
10.0
 42
10.0
 43
10.0
 50
90.0
  0
INSERT
  5
1A3
  8
0
  6
BYBLOCK
 62
     0
  2
_ORIGIN
 10
-657.4
 20
1906.0
 30
0.0
 41
10.0
 42
10.0
 43
10.0
 50
270.0
  0
TEXT
  5
1A4
  8
0
  6
BYBLOCK
 62
     0
 10
-667.4
 20
1945.581684
 30
0.0
 40
30.0
  1
6
 50
90.0
 72
     1
 11
-667.4
 21
1955.581684
 31
0.0
  0
POINT
  5
1A5
  8
DEFPOINTS
  6
BYBLOCK
 62
     0
 10
-500.0
 20
1900.0
 30
0.0
  0
POINT
  5
1A6
  8
DEFPOINTS
  6
BYBLOCK
 62
     0
 10
-373.5
 20
1906.0
 30
0.0
  0
POINT
  5
1A7
  8
DEFPOINTS
  6
BYBLOCK
 62
     0
 10
-657.4
 20
1906.0
 30
0.0
  0
ENDBLK
  5
1A8
  8
0
  0
BLOCK
  8
0
  2
*D32
 70
     1
 10
0.0
 20
0.0
 30
0.0
  3
*D32
  1

  0
LINE
  5
1AB
  8
0
  6
BYBLOCK
 62
     0
 10
-500.0
 20
1890.0
 30
0.0
 11
-500.0
 21
1704.521704
 31
0.0
  0
LINE
  5
1AC
  8
0
  6
BYBLOCK
 62
     0
 10
-505.0
 20
1642.499756
 30
0.0
 11
-505.0
 21
1729.521704
 31
0.0
  0
LINE
  5
1AD
  8
0
  6
BYBLOCK
 62
     0
 10
-490.0
 20
1717.021704
 30
0.0
 11
-480.0
 21
1717.021704
 31
0.0
  0
LINE
  5
1AE
  8
0
  6
BYBLOCK
 62
     0
 10
-515.0
 20
1717.021704
 30
0.0
 11
-592.968731
 21
1717.021704
 31
0.0
  0
LINE
  5
1AF
  8
0
  6
BYBLOCK
 62
     0
 10
-500.0
 20
1717.021704
 30
0.0
 11
-505.0
 21
1717.021704
 31
0.0
  0
INSERT
  5
1B0
  8
0
  6
BYBLOCK
 62
     0
  2
_ORIGIN
 10
-500.0
 20
1717.021704
 30
0.0
 41
10.0
 42
10.0
 43
10.0
 50
180.0
  0
INSERT
  5
1B1
  8
0
  6
BYBLOCK
 62
     0
  2
_ORIGIN
 10
-505.0
 20
1717.021704
 30
0.0
 41
10.0
 42
10.0
 43
10.0
  0
TEXT
  5
1B2
  8
0
  6
BYBLOCK
 62
     0
 10
-582.968731
 20
1727.021704
 30
0.0
 40
30.0
  1
5
 72
     1
 11
-572.968731
 21
1727.021704
 31
0.0
  0
POINT
  5
1B3
  8
DEFPOINTS
  6
BYBLOCK
 62
     0
 10
-500.0
 20
1900.0
 30
0.0
  0
POINT
  5
1B4
  8
DEFPOINTS
  6
BYBLOCK
 62
     0
 10
-505.0
 20
1632.499756
 30
0.0
  0
POINT
  5
1B5
  8
DEFPOINTS
  6
BYBLOCK
 62
     0
 10
-505.0
 20
1717.021704
 30
0.0
  0
ENDBLK
  5
1B6
  8
0
  0
BLOCK
  8
0
  2
*D33
 70
     1
 10
0.0
 20
0.0
 30
0.0
  3
*D33
  1

  0
LINE
  5
1B9
  8
0
  6
BYBLOCK
 62
     0
 10
-251.0
 20
144.0
 30
0.0
 11
-251.0
 21
-660.1
 31
0.0
  0
LINE
  5
1BA
  8
0
  6
BYBLOCK
 62
     0
 10
-500.0
 20
-10.0
 30
0.0
 11
-500.0
 21
-660.1
 31
0.0
  0
LINE
  5
1BB
  8
0
  6
BYBLOCK
 62
     0
 10
-261.0
 20
-647.6
 30
0.0
 11
-490.0
 21
-647.6
 31
0.0
  0
INSERT
  5
1BC
  8
0
  6
BYBLOCK
 62
     0
  2
_ORIGIN
 10
-251.0
 20
-647.6
 30
0.0
 41
10.0
 42
10.0
 43
10.0
  0
INSERT
  5
1BD
  8
0
  6
BYBLOCK
 62
     0
  2
_ORIGIN
 10
-500.0
 20
-647.6
 30
0.0
 41
10.0
 42
10.0
 43
10.0
 50
180.0
  0
TEXT
  5
1BE
  8
0
  6
BYBLOCK
 62
     0
 10
-415.5
 20
-637.6
 30
0.0
 40
30.0
  1
249
 72
     1
 11
-375.5
 21
-637.6
 31
0.0
  0
POINT
  5
1BF
  8
DEFPOINTS
  6
BYBLOCK
 62
     0
 10
-251.0
 20
154.0
 30
0.0
  0
POINT
  5
1C0
  8
DEFPOINTS
  6
BYBLOCK
 62
     0
 10
-500.0
 20
0.0
 30
0.0
  0
POINT
  5
1C1
  8
DEFPOINTS
  6
BYBLOCK
 62
     0
 10
-500.0
 20
-647.6
 30
0.0
  0
ENDBLK
  5
1C2
  8
0
  0
BLOCK
  8
0
  2
*D34
 70
     1
 10
0.0
 20
0.0
 30
0.0
  3
*D34
  1

  0
LINE
  5
1C5
  8
0
  6
BYBLOCK
 62
     0
 10
-413.0
 20
-30.0
 30
0.0
 11
-413.0
 21
-260.1
 31
0.0
  0
LINE
  5
1C6
  8
0
  6
BYBLOCK
 62
     0
 10
-99.0
 20
-30.0
 30
0.0
 11
-99.0
 21
-260.1
 31
0.0
  0
LINE
  5
1C7
  8
0
  6
BYBLOCK
 62
     0
 10
-403.0
 20
-247.6
 30
0.0
 11
-109.0
 21
-247.6
 31
0.0
  0
INSERT
  5
1C8
  8
0
  6
BYBLOCK
 62
     0
  2
_ORIGIN
 10
-413.0
 20
-247.6
 30
0.0
 41
10.0
 42
10.0
 43
10.0
 50
180.0
  0
INSERT
  5
1C9
  8
0
  6
BYBLOCK
 62
     0
  2
_ORIGIN
 10
-99.0
 20
-247.6
 30
0.0
 41
10.0
 42
10.0
 43
10.0
  0
TEXT
  5
1CA
  8
0
  6
BYBLOCK
 62
     0
 10
-291.0
 20
-237.6
 30
0.0
 40
30.0
  1
314
 72
     1
 11
-256.0
 21
-237.6
 31
0.0
  0
POINT
  5
1CB
  8
DEFPOINTS
  6
BYBLOCK
 62
     0
 10
-413.0
 20
-20.0
 30
0.0
  0
POINT
  5
1CC
  8
DEFPOINTS
  6
BYBLOCK
 62
     0
 10
-99.0
 20
-20.0
 30
0.0
  0
POINT
  5
1CD
  8
DEFPOINTS
  6
BYBLOCK
 62
     0
 10
-99.0
 20
-247.6
 30
0.0
  0
ENDBLK
  5
1CE
  8
0
  0
BLOCK
  8
0
  2
*D35
 70
     1
 10
0.0
 20
0.0
 30
0.0
  3
*D35
  1

  0
LINE
  5
1D1
  8
0
  6
BYBLOCK
 62
     0
 10
-413.0
 20
-30.0
 30
0.0
 11
-413.0
 21
-160.1
 31
0.0
  0
LINE
  5
1D2
  8
0
  6
BYBLOCK
 62
     0
 10
-64.0
 20
-30.0
 30
0.0
 11
-64.0
 21
-160.1
 31
0.0
  0
LINE
  5
1D3
  8
0
  6
BYBLOCK
 62
     0
 10
-403.0
 20
-147.6
 30
0.0
 11
-74.0
 21
-147.6
 31
0.0
  0
INSERT
  5
1D4
  8
0
  6
BYBLOCK
 62
     0
  2
_ORIGIN
 10
-413.0
 20
-147.6
 30
0.0
 41
10.0
 42
10.0
 43
10.0
 50
180.0
  0
INSERT
  5
1D5
  8
0
  6
BYBLOCK
 62
     0
  2
_ORIGIN
 10
-64.0
 20
-147.6
 30
0.0
 41
10.0
 42
10.0
 43
10.0
  0
TEXT
  5
1D6
  8
0
  6
BYBLOCK
 62
     0
 10
-278.5
 20
-137.6
 30
0.0
 40
30.0
  1
349
 72
     1
 11
-238.5
 21
-137.6
 31
0.0
  0
POINT
  5
1D7
  8
DEFPOINTS
  6
BYBLOCK
 62
     0
 10
-413.0
 20
-20.0
 30
0.0
  0
POINT
  5
1D8
  8
DEFPOINTS
  6
BYBLOCK
 62
     0
 10
-64.0
 20
-20.0
 30
0.0
  0
POINT
  5
1D9
  8
DEFPOINTS
  6
BYBLOCK
 62
     0
 10
-64.0
 20
-147.6
 30
0.0
  0
ENDBLK
  5
1DA
  8
0
  0
BLOCK
  8
0
  2
*D36
 70
     1
 10
0.0
 20
0.0
 30
0.0
  3
*D36
  1

  0
LINE
  5
1DD
  8
0
  6
BYBLOCK
 62
     0
 10
-390.0
 20
170.0
 30
0.0
 11
-282.251166
 21
170.0
 31
0.0
  0
LINE
  5
1DE
  8
0
  6
BYBLOCK
 62
     0
 10
-335.5
 20
0.0
 30
0.0
 11
-282.251166
 21
0.0
 31
0.0
  0
LINE
  5
1DF
  8
0
  6
BYBLOCK
 62
     0
 10
-294.751166
 20
160.0
 30
0.0
 11
-294.751166
 21
10.0
 31
0.0
  0
INSERT
  5
1E0
  8
0
  6
BYBLOCK
 62
     0
  2
_ORIGIN
 10
-294.751166
 20
170.0
 30
0.0
 41
10.0
 42
10.0
 43
10.0
 50
90.0
  0
INSERT
  5
1E1
  8
0
  6
BYBLOCK
 62
     0
  2
_ORIGIN
 10
-294.751166
 20
0.0
 30
0.0
 41
10.0
 42
10.0
 43
10.0
 50
270.0
  0
TEXT
  5
1E2
  8
0
  6
BYBLOCK
 62
     0
 10
-304.751166
 20
52.5
 30
0.0
 40
30.0
  1
170
 50
90.0
 72
     1
 11
-304.751166
 21
85.0
 31
0.0
  0
POINT
  5
1E3
  8
DEFPOINTS
  6
BYBLOCK
 62
     0
 10
-400.0
 20
170.0
 30
0.0
  0
POINT
  5
1E4
  8
DEFPOINTS
  6
BYBLOCK
 62
     0
 10
-345.5
 20
0.0
 30
0.0
  0
POINT
  5
1E5
  8
DEFPOINTS
  6
BYBLOCK
 62
     0
 10
-294.751166
 20
0.0
 30
0.0
  0
ENDBLK
  5
1E6
  8
0
  0
BLOCK
  8
0
  2
*D37
 70
     1
 10
0.0
 20
0.0
 30
0.0
  3
*D37
  1

  0
LINE
  5
1E9
  8
0
  6
BYBLOCK
 62
     0
 10
-99.0
 20
-30.0
 30
0.0
 11
-99.0
 21
-260.1
 31
0.0
  0
LINE
  5
1EA
  8
0
  6
BYBLOCK
 62
     0
 10
0.0
 20
190.0
 30
0.0
 11
0.0
 21
-260.1
 31
0.0
  0
LINE
  5
1EB
  8
0
  6
BYBLOCK
 62
     0
 10
-89.0
 20
-247.6
 30
0.0
 11
-10.0
 21
-247.6
 31
0.0
  0
INSERT
  5
1EC
  8
0
  6
BYBLOCK
 62
     0
  2
_ORIGIN
 10
-99.0
 20
-247.6
 30
0.0
 41
10.0
 42
10.0
 43
10.0
 50
180.0
  0
INSERT
  5
1ED
  8
0
  6
BYBLOCK
 62
     0
  2
_ORIGIN
 10
0.0
 20
-247.6
 30
0.0
 41
10.0
 42
10.0
 43
10.0
  0
TEXT
  5
1EE
  8
0
  6
BYBLOCK
 62
     0
 10
-74.5
 20
-237.6
 30
0.0
 40
30.0
  1
99
 72
     1
 11
-49.5
 21
-237.6
 31
0.0
  0
POINT
  5
1EF
  8
DEFPOINTS
  6
BYBLOCK
 62
     0
 10
-99.0
 20
-20.0
 30
0.0
  0
POINT
  5
1F0
  8
DEFPOINTS
  6
BYBLOCK
 62
     0
 10
0.0
 20
200.0
 30
0.0
  0
POINT
  5
1F1
  8
DEFPOINTS
  6
BYBLOCK
 62
     0
 10
0.0
 20
-247.6
 30
0.0
  0
ENDBLK
  5
1F2
  8
0
  0
BLOCK
  8
0
  2
*D38
 70
     1
 10
0.0
 20
0.0
 30
0.0
  3
*D38
  1

  0
LINE
  5
1F5
  8
0
  6
BYBLOCK
 62
     0
 10
-64.0
 20
-30.0
 30
0.0
 11
-64.0
 21
-160.1
 31
0.0
  0
LINE
  5
1F6
  8
0
  6
BYBLOCK
 62
     0
 10
0.0
 20
190.0
 30
0.0
 11
0.0
 21
-160.1
 31
0.0
  0
LINE
  5
1F7
  8
0
  6
BYBLOCK
 62
     0
 10
-54.0
 20
-147.6
 30
0.0
 11
-10.0
 21
-147.6
 31
0.0
  0
INSERT
  5
1F8
  8
0
  6
BYBLOCK
 62
     0
  2
_ORIGIN
 10
-64.0
 20
-147.6
 30
0.0
 41
10.0
 42
10.0
 43
10.0
 50
180.0
  0
INSERT
  5
1F9
  8
0
  6
BYBLOCK
 62
     0
  2
_ORIGIN
 10
0.0
 20
-147.6
 30
0.0
 41
10.0
 42
10.0
 43
10.0
  0
TEXT
  5
1FA
  8
0
  6
BYBLOCK
 62
     0
 10
-57.0
 20
-137.6
 30
0.0
 40
30.0
  1
64
 72
     1
 11
-32.0
 21
-137.6
 31
0.0
  0
POINT
  5
1FB
  8
DEFPOINTS
  6
BYBLOCK
 62
     0
 10
-64.0
 20
-20.0
 30
0.0
  0
POINT
  5
1FC
  8
DEFPOINTS
  6
BYBLOCK
 62
     0
 10
0.0
 20
200.0
 30
0.0
  0
POINT
  5
1FD
  8
DEFPOINTS
  6
BYBLOCK
 62
     0
 10
0.0
 20
-147.6
 30
0.0
  0
ENDBLK
  5
1FE
  8
0
  0
BLOCK
  8
0
  2
*D39
 70
     1
 10
0.0
 20
0.0
 30
0.0
  3
*D39
  1

  0
LINE
  5
201
  8
0
  6
BYBLOCK
 62
     0
 10
-469.0
 20
170.0
 30
0.0
 11
-469.0
 21
-360.1
 31
0.0
  0
LINE
  5
202
  8
0
  6
BYBLOCK
 62
     0
 10
-500.0
 20
-10.0
 30
0.0
 11
-500.0
 21
-360.1
 31
0.0
  0
LINE
  5
203
  8
0
  6
BYBLOCK
 62
     0
 10
-459.0
 20
-347.6
 30
0.0
 11
-449.0
 21
-347.6
 31
0.0
  0
LINE
  5
204
  8
0
  6
BYBLOCK
 62
     0
 10
-510.0
 20
-347.6
 30
0.0
 11
-520.0
 21
-347.6
 31
0.0
  0
LINE
  5
205
  8
0
  6
BYBLOCK
 62
     0
 10
-469.0
 20
-347.6
 30
0.0
 11
-500.0
 21
-347.6
 31
0.0
  0
INSERT
  5
206
  8
0
  6
BYBLOCK
 62
     0
  2
_ORIGIN
 10
-469.0
 20
-347.6
 30
0.0
 41
10.0
 42
10.0
 43
10.0
 50
180.0
  0
INSERT
  5
207
  8
0
  6
BYBLOCK
 62
     0
  2
_ORIGIN
 10
-500.0
 20
-347.6
 30
0.0
 41
10.0
 42
10.0
 43
10.0
  0
TEXT
  5
208
  8
0
  6
BYBLOCK
 62
     0
 10
-504.5
 20
-337.6
 30
0.0
 40
30.0
  1
31
 72
     1
 11
-484.5
 21
-337.6
 31
0.0
  0
POINT
  5
209
  8
DEFPOINTS
  6
BYBLOCK
 62
     0
 10
-469.0
 20
180.0
 30
0.0
  0
POINT
  5
20A
  8
DEFPOINTS
  6
BYBLOCK
 62
     0
 10
-500.0
 20
0.0
 30
0.0
  0
POINT
  5
20B
  8
DEFPOINTS
  6
BYBLOCK
 62
     0
 10
-500.0
 20
-347.6
 30
0.0
  0
ENDBLK
  5
20C
  8
0
  0
BLOCK
  8
0
  2
*D40
 70
     1
 10
0.0
 20
0.0
 30
0.0
  3
*D40
  1

  0
LINE
  5
20F
  8
0
  6
BYBLOCK
 62
     0
 10
-447.0
 20
170.0
 30
0.0
 11
-447.0
 21
-460.1
 31
0.0
  0
LINE
  5
210
  8
0
  6
BYBLOCK
 62
     0
 10
-500.0
 20
-10.0
 30
0.0
 11
-500.0
 21
-460.1
 31
0.0
  0
LINE
  5
211
  8
0
  6
BYBLOCK
 62
     0
 10
-457.0
 20
-447.6
 30
0.0
 11
-490.0
 21
-447.6
 31
0.0
  0
INSERT
  5
212
  8
0
  6
BYBLOCK
 62
     0
  2
_ORIGIN
 10
-447.0
 20
-447.6
 30
0.0
 41
10.0
 42
10.0
 43
10.0
  0
INSERT
  5
213
  8
0
  6
BYBLOCK
 62
     0
  2
_ORIGIN
 10
-500.0
 20
-447.6
 30
0.0
 41
10.0
 42
10.0
 43
10.0
 50
180.0
  0
TEXT
  5
214
  8
0
  6
BYBLOCK
 62
     0
 10
-498.5
 20
-437.6
 30
0.0
 40
30.0
  1
53
 72
     1
 11
-473.5
 21
-437.6
 31
0.0
  0
POINT
  5
215
  8
DEFPOINTS
  6
BYBLOCK
 62
     0
 10
-447.0
 20
180.0
 30
0.0
  0
POINT
  5
216
  8
DEFPOINTS
  6
BYBLOCK
 62
     0
 10
-500.0
 20
0.0
 30
0.0
  0
POINT
  5
217
  8
DEFPOINTS
  6
BYBLOCK
 62
     0
 10
-500.0
 20
-447.6
 30
0.0
  0
ENDBLK
  5
218
  8
0
  0
BLOCK
  8
0
  2
*D41
 70
     1
 10
0.0
 20
0.0
 30
0.0
  3
*D41
  1

  0
LINE
  5
21B
  8
0
  6
BYBLOCK
 62
     0
 10
-420.0
 20
140.0
 30
0.0
 11
-420.0
 21
-560.1
 31
0.0
  0
LINE
  5
21C
  8
0
  6
BYBLOCK
 62
     0
 10
-500.0
 20
-10.0
 30
0.0
 11
-500.0
 21
-560.1
 31
0.0
  0
LINE
  5
21D
  8
0
  6
BYBLOCK
 62
     0
 10
-430.0
 20
-547.6
 30
0.0
 11
-490.0
 21
-547.6
 31
0.0
  0
INSERT
  5
21E
  8
0
  6
BYBLOCK
 62
     0
  2
_ORIGIN
 10
-420.0
 20
-547.6
 30
0.0
 41
10.0
 42
10.0
 43
10.0
  0
INSERT
  5
21F
  8
0
  6
BYBLOCK
 62
     0
  2
_ORIGIN
 10
-500.0
 20
-547.6
 30
0.0
 41
10.0
 42
10.0
 43
10.0
 50
180.0
  0
TEXT
  5
220
  8
0
  6
BYBLOCK
 62
     0
 10
-482.5
 20
-537.6
 30
0.0
 40
30.0
  1
80
 72
     1
 11
-460.0
 21
-537.6
 31
0.0
  0
POINT
  5
221
  8
DEFPOINTS
  6
BYBLOCK
 62
     0
 10
-420.0
 20
150.0
 30
0.0
  0
POINT
  5
222
  8
DEFPOINTS
  6
BYBLOCK
 62
     0
 10
-500.0
 20
0.0
 30
0.0
  0
POINT
  5
223
  8
DEFPOINTS
  6
BYBLOCK
 62
     0
 10
-500.0
 20
-547.6
 30
0.0
  0
ENDBLK
  5
224
  8
0
  0
BLOCK
  8
0
  2
*D42
 70
     1
 10
0.0
 20
0.0
 30
0.0
  3
*D42
  1

  0
LINE
  5
227
  8
0
  6
BYBLOCK
 62
     0
 10
130.0
 20
1923.0
 30
0.0
 11
460.1
 21
1923.0
 31
0.0
  0
LINE
  5
228
  8
0
  6
BYBLOCK
 62
     0
 10
-34.0
 20
0.0
 30
0.0
 11
460.1
 21
0.0
 31
0.0
  0
LINE
  5
229
  8
0
  6
BYBLOCK
 62
     0
 10
447.6
 20
1913.0
 30
0.0
 11
447.6
 21
10.0
 31
0.0
  0
INSERT
  5
22A
  8
0
  6
BYBLOCK
 62
     0
  2
_ORIGIN
 10
447.6
 20
1923.0
 30
0.0
 41
10.0
 42
10.0
 43
10.0
 50
90.0
  0
INSERT
  5
22B
  8
0
  6
BYBLOCK
 62
     0
  2
_ORIGIN
 10
447.6
 20
0.0
 30
0.0
 41
10.0
 42
10.0
 43
10.0
 50
270.0
  0
TEXT
  5
22C
  8
0
  6
BYBLOCK
 62
     0
 10
437.6
 20
911.5
 30
0.0
 40
30.0
  1
1923
 50
90.0
 72
     1
 11
437.6
 21
961.5
 31
0.0
  0
POINT
  5
22D
  8
DEFPOINTS
  6
BYBLOCK
 62
     0
 10
120.0
 20
1923.0
 30
0.0
  0
POINT
  5
22E
  8
DEFPOINTS
  6
BYBLOCK
 62
     0
 10
-44.0
 20
0.0
 30
0.0
  0
POINT
  5
22F
  8
DEFPOINTS
  6
BYBLOCK
 62
     0
 10
447.6
 20
0.0
 30
0.0
  0
ENDBLK
  5
230
  8
0
  0
BLOCK
  8
0
  2
*D43
 70
     1
 10
0.0
 20
0.0
 30
0.0
  3
*D43
  1

  0
LINE
  5
233
  8
0
  6
BYBLOCK
 62
     0
 10
-34.0
 20
0.0
 30
0.0
 11
560.1
 21
0.0
 31
0.0
  0
LINE
  5
234
  8
0
  6
BYBLOCK
 62
     0
 10
110.0
 20
1945.0
 30
0.0
 11
560.1
 21
1945.0
 31
0.0
  0
LINE
  5
235
  8
0
  6
BYBLOCK
 62
     0
 10
547.6
 20
10.0
 30
0.0
 11
547.6
 21
1935.0
 31
0.0
  0
INSERT
  5
236
  8
0
  6
BYBLOCK
 62
     0
  2
_ORIGIN
 10
547.6
 20
0.0
 30
0.0
 41
10.0
 42
10.0
 43
10.0
 50
270.0
  0
INSERT
  5
237
  8
0
  6
BYBLOCK
 62
     0
  2
_ORIGIN
 10
547.6
 20
1945.0
 30
0.0
 41
10.0
 42
10.0
 43
10.0
 50
90.0
  0
TEXT
  5
238
  8
0
  6
BYBLOCK
 62
     0
 10
537.6
 20
922.5
 30
0.0
 40
30.0
  1
1945
 50
90.0
 72
     1
 11
537.6
 21
972.5
 31
0.0
  0
POINT
  5
239
  8
DEFPOINTS
  6
BYBLOCK
 62
     0
 10
-44.0
 20
0.0
 30
0.0
  0
POINT
  5
23A
  8
DEFPOINTS
  6
BYBLOCK
 62
     0
 10
100.0
 20
1945.0
 30
0.0
  0
POINT
  5
23B
  8
DEFPOINTS
  6
BYBLOCK
 62
     0
 10
547.6
 20
1945.0
 30
0.0
  0
ENDBLK
  5
23C
  8
0
  0
BLOCK
  8
0
  2
*D44
 70
     1
 10
0.0
 20
0.0
 30
0.0
  3
*D44
  1

  0
LINE
  5
23F
  8
0
  6
BYBLOCK
 62
     0
 10
0.0
 20
1910.0
 30
0.0
 11
0.0
 21
2059.9
 31
0.0
  0
LINE
  5
240
  8
0
  6
BYBLOCK
 62
     0
 10
100.0
 20
1955.0
 30
0.0
 11
100.0
 21
2059.9
 31
0.0
  0
LINE
  5
241
  8
0
  6
BYBLOCK
 62
     0
 10
10.0
 20
2047.4
 30
0.0
 11
90.0
 21
2047.4
 31
0.0
  0
INSERT
  5
242
  8
0
  6
BYBLOCK
 62
     0
  2
_ORIGIN
 10
0.0
 20
2047.4
 30
0.0
 41
10.0
 42
10.0
 43
10.0
 50
180.0
  0
INSERT
  5
243
  8
0
  6
BYBLOCK
 62
     0
  2
_ORIGIN
 10
100.0
 20
2047.4
 30
0.0
 41
10.0
 42
10.0
 43
10.0
  0
TEXT
  5
244
  8
0
  6
BYBLOCK
 62
     0
 10
20.0
 20
2057.4
 30
0.0
 40
30.0
  1
100
 72
     1
 11
50.0
 21
2057.4
 31
0.0
  0
POINT
  5
245
  8
DEFPOINTS
  6
BYBLOCK
 62
     0
 10
0.0
 20
1900.0
 30
0.0
  0
POINT
  5
246
  8
DEFPOINTS
  6
BYBLOCK
 62
     0
 10
100.0
 20
1945.0
 30
0.0
  0
POINT
  5
247
  8
DEFPOINTS
  6
BYBLOCK
 62
     0
 10
100.0
 20
2047.4
 30
0.0
  0
ENDBLK
  5
248
  8
0
  0
BLOCK
  8
0
  2
*D45
 70
     1
 10
0.0
 20
0.0
 30
0.0
  3
*D45
  1

  0
LINE
  5
24B
  8
0
  6
BYBLOCK
 62
     0
 10
0.0
 20
2110.0
 30
0.0
 11
0.0
 21
2214.9
 31
0.0
  0
LINE
  5
24C
  8
0
  6
BYBLOCK
 62
     0
 10
-500.0
 20
2110.0
 30
0.0
 11
-500.0
 21
2214.9
 31
0.0
  0
LINE
  5
24D
  8
0
  6
BYBLOCK
 62
     0
 10
-10.0
 20
2202.4
 30
0.0
 11
-490.0
 21
2202.4
 31
0.0
  0
INSERT
  5
24E
  8
0
  6
BYBLOCK
 62
     0
  2
_ORIGIN
 10
0.0
 20
2202.4
 30
0.0
 41
10.0
 42
10.0
 43
10.0
  0
INSERT
  5
24F
  8
0
  6
BYBLOCK
 62
     0
  2
_ORIGIN
 10
-500.0
 20
2202.4
 30
0.0
 41
10.0
 42
10.0
 43
10.0
 50
180.0
  0
TEXT
  5
250
  8
0
  6
BYBLOCK
 62
     0
 10
-285.0
 20
2212.4
 30
0.0
 40
30.0
  1
500
 72
     1
 11
-250.0
 21
2212.4
 31
0.0
  0
POINT
  5
251
  8
DEFPOINTS
  6
BYBLOCK
 62
     0
 10
0.0
 20
2100.0
 30
0.0
  0
POINT
  5
252
  8
DEFPOINTS
  6
BYBLOCK
 62
     0
 10
-500.0
 20
2100.0
 30
0.0
  0
POINT
  5
253
  8
DEFPOINTS
  6
BYBLOCK
 62
     0
 10
-500.0
 20
2202.4
 30
0.0
  0
ENDBLK
  5
254
  8
0
  0
BLOCK
  8
0
  2
*D46
 70
     1
 10
0.0
 20
0.0
 30
0.0
  3
*D46
  1

  0
LINE
  5
257
  8
0
  6
BYBLOCK
 62
     0
 10
-1100.0
 20
2110.0
 30
0.0
 11
-1100.0
 21
2214.9
 31
0.0
  0
LINE
  5
258
  8
0
  6
BYBLOCK
 62
     0
 10
-500.0
 20
2110.0
 30
0.0
 11
-500.0
 21
2214.9
 31
0.0
  0
LINE
  5
259
  8
0
  6
BYBLOCK
 62
     0
 10
-1090.0
 20
2202.4
 30
0.0
 11
-510.0
 21
2202.4
 31
0.0
  0
INSERT
  5
25A
  8
0
  6
BYBLOCK
 62
     0
  2
_ORIGIN
 10
-1100.0
 20
2202.4
 30
0.0
 41
10.0
 42
10.0
 43
10.0
 50
180.0
  0
INSERT
  5
25B
  8
0
  6
BYBLOCK
 62
     0
  2
_ORIGIN
 10
-500.0
 20
2202.4
 30
0.0
 41
10.0
 42
10.0
 43
10.0
  0
TEXT
  5
25C
  8
0
  6
BYBLOCK
 62
     0
 10
-835.0
 20
2212.4
 30
0.0
 40
30.0
  1
600
 72
     1
 11
-800.0
 21
2212.4
 31
0.0
  0
POINT
  5
25D
  8
DEFPOINTS
  6
BYBLOCK
 62
     0
 10
-1100.0
 20
2100.0
 30
0.0
  0
POINT
  5
25E
  8
DEFPOINTS
  6
BYBLOCK
 62
     0
 10
-500.0
 20
2100.0
 30
0.0
  0
POINT
  5
25F
  8
DEFPOINTS
  6
BYBLOCK
 62
     0
 10
-500.0
 20
2202.4
 30
0.0
  0
ENDBLK
  5
260
  8
0
  0
BLOCK
  8
0
  2
*D47
 70
     1
 10
0.0
 20
0.0
 30
0.0
  3
*D47
  1

  0
LINE
  5
263
  8
0
  6
BYBLOCK
 62
     0
 10
-221.0
 20
174.0
 30
0.0
 11
160.1
 21
174.0
 31
0.0
  0
LINE
  5
264
  8
0
  6
BYBLOCK
 62
     0
 10
-34.0
 20
0.0
 30
0.0
 11
160.1
 21
0.0
 31
0.0
  0
LINE
  5
265
  8
0
  6
BYBLOCK
 62
     0
 10
147.6
 20
164.0
 30
0.0
 11
147.6
 21
10.0
 31
0.0
  0
INSERT
  5
266
  8
0
  6
BYBLOCK
 62
     0
  2
_ORIGIN
 10
147.6
 20
174.0
 30
0.0
 41
10.0
 42
10.0
 43
10.0
 50
90.0
  0
INSERT
  5
267
  8
0
  6
BYBLOCK
 62
     0
  2
_ORIGIN
 10
147.6
 20
0.0
 30
0.0
 41
10.0
 42
10.0
 43
10.0
 50
270.0
  0
TEXT
  5
268
  8
0
  6
BYBLOCK
 62
     0
 10
137.6
 20
52.0
 30
0.0
 40
30.0
  1
174
 50
90.0
 72
     1
 11
137.6
 21
87.0
 31
0.0
  0
POINT
  5
269
  8
DEFPOINTS
  6
BYBLOCK
 62
     0
 10
-231.0
 20
174.0
 30
0.0
  0
POINT
  5
26A
  8
DEFPOINTS
  6
BYBLOCK
 62
     0
 10
-44.0
 20
0.0
 30
0.0
  0
POINT
  5
26B
  8
DEFPOINTS
  6
BYBLOCK
 62
     0
 10
147.6
 20
0.0
 30
0.0
  0
ENDBLK
  5
26C
  8
0
  0
ENDSEC
  0
SECTION
  2
ENTITIES
  0
LINE
  5
26D
  8
OUTLINE
  6
CONTINUOUS
 10
-405.0
 20
25.0
 30
0.0
 11
-405.0
 21
200.0
 31
0.0
  0
LINE
  5
26E
  8
OUTLINE
  6
CONTINUOUS
 10
0.0
 20
1900.0
 30
0.0
 11
0.0
 21
200.0
 31
0.0
  0
LINE
  5
26F
  8
OUTLINE
  6
CONTINUOUS
 10
-500.0
 20
1900.0
 30
0.0
 11
0.0
 21
1900.0
 31
0.0
  0
LINE
  5
270
  8
OUTLINE
  6
CONTINUOUS
 10
-500.0
 20
1900.0
 30
0.0
 11
-500.0
 21
200.0
 31
0.0
  0
LINE
  5
271
  8
OUTLINE
  6
CONTINUOUS
 10
-500.0
 20
200.0
 30
0.0
 11
0.0
 21
200.0
 31
0.0
  0
ARC
  5
272
  8
OUTLINE
  6
CONTINUOUS
 10
-97.0
 20
25.0
 30
0.0
 40
10.0
 50
180.0
 51
270.0
  0
ARC
  5
273
  8
OUTLINE
  6
CONTINUOUS
 10
-89.0
 20
10.0
 30
0.0
 40
5.0
 50
0.0
 51
90.0
  0
LINE
  5
274
  8
OUTLINE
  6
CONTINUOUS
 10
-97.0
 20
15.0
 30
0.0
 11
-89.0
 21
15.0
 31
0.0
  0
LINE
  5
275
  8
OUTLINE
  6
CONTINUOUS
 10
-167.0
 20
0.0
 30
0.0
 11
-84.0
 21
0.0
 31
0.0
  0
LINE
  5
276
  8
OUTLINE
  6
CONTINUOUS
 10
-84.0
 20
10.0
 30
0.0
 11
-84.0
 21
0.0
 31
0.0
  0
LINE
  5
277
  8
OUTLINE
  6
CONTINUOUS
 10
-107.0
 20
25.0
 30
0.0
 11
-107.0
 21
200.0
 31
0.0
  0
LINE
  5
278
  8
OUTLINE
  6
CONTINUOUS
 10
-167.0
 20
0.0
 30
0.0
 11
-167.0
 21
200.0
 31
0.0
  0
ARC
  5
279
  8
OUTLINE
  6
CONTINUOUS
 10
-415.0
 20
25.0
 30
0.0
 40
10.0
 50
270.0
 51
0.0
  0
ARC
  5
27A
  8
OUTLINE
  6
CONTINUOUS
 10
-423.0
 20
10.0
 30
0.0
 40
5.0
 50
90.0
 51
180.0
  0
LINE
  5
27B
  8
OUTLINE
  6
CONTINUOUS
 10
-415.0
 20
15.0
 30
0.0
 11
-423.0
 21
15.0
 31
0.0
  0
LINE
  5
27C
  8
OUTLINE
  6
CONTINUOUS
 10
-345.0
 20
0.0
 30
0.0
 11
-428.0
 21
0.0
 31
0.0
  0
LINE
  5
27D
  8
OUTLINE
  6
CONTINUOUS
 10
-428.0
 20
10.0
 30
0.0
 11
-428.0
 21
0.0
 31
0.0
  0
LINE
  5
27E
  8
OUTLINE
  6
CONTINUOUS
 10
-345.0
 20
0.0
 30
0.0
 11
-345.0
 21
200.0
 31
0.0
  0
LINE
  5
27F
  8
DETAIL
  6
CONTINUOUS
 10
-84.0
 20
10.0
 30
0.0
 11
-84.0
 21
0.0
 31
0.0
  0
LINE
  5
280
  8
DETAIL
  6
CONTINUOUS
 10
-97.0
 20
15.0
 30
0.0
 11
-89.0
 21
15.0
 31
0.0
  0
ARC
  5
281
  8
DETAIL
  6
CONTINUOUS
 10
-89.0
 20
10.0
 30
0.0
 40
5.0
 50
0.0
 51
90.0
  0
ARC
  5
282
  8
DETAIL
  6
CONTINUOUS
 10
-97.0
 20
25.0
 30
0.0
 40
10.0
 50
180.0
 51
270.0
  0
LINE
  5
283
  8
DETAIL
  6
CONTINUOUS
 10
-167.0
 20
0.0
 30
0.0
 11
-84.0
 21
0.0
 31
0.0
  0
LINE
  5
284
  8
DETAIL
  6
CONTINUOUS
 10
-167.0
 20
0.0
 30
0.0
 11
-167.0
 21
200.0
 31
0.0
  0
LINE
  5
285
  8
DETAIL
  6
CONTINUOUS
 10
-107.0
 20
25.0
 30
0.0
 11
-107.0
 21
200.0
 31
0.0
  0
LINE
  5
286
  8
DETAIL
  6
CONTINUOUS
 10
-500.0
 20
200.0
 30
0.0
 11
0.0
 21
200.0
 31
0.0
  0
LINE
  5
287
  8
DETAIL
  6
CONTINUOUS
 10
-345.0
 20
0.0
 30
0.0
 11
-345.0
 21
200.0
 31
0.0
  0
LINE
  5
288
  8
DETAIL
  6
CONTINUOUS
 10
-428.0
 20
10.0
 30
0.0
 11
-428.0
 21
0.0
 31
0.0
  0
LINE
  5
289
  8
DETAIL
  6
CONTINUOUS
 10
-345.0
 20
0.0
 30
0.0
 11
-428.0
 21
0.0
 31
0.0
  0
LINE
  5
28A
  8
DETAIL
  6
CONTINUOUS
 10
-415.0
 20
15.0
 30
0.0
 11
-423.0
 21
15.0
 31
0.0
  0
ARC
  5
28B
  8
DETAIL
  6
CONTINUOUS
 10
-423.0
 20
10.0
 30
0.0
 40
5.0
 50
90.0
 51
180.0
  0
ARC
  5
28C
  8
DETAIL
  6
CONTINUOUS
 10
-415.0
 20
25.0
 30
0.0
 40
10.0
 50
270.0
 51
0.0
  0
LINE
  5
28D
  8
DETAIL
  6
CONTINUOUS
 10
-405.0
 20
25.0
 30
0.0
 11
-405.0
 21
200.0
 31
0.0
  0
LINE
  5
28E
  8
DETAIL
  6
CONTINUOUS
 10
-500.0
 20
1900.0
 30
0.0
 11
-500.0
 21
200.0
 31
0.0
  0
LINE
  5
28F
  8
DETAIL
  6
CONTINUOUS
 10
-500.0
 20
1900.0
 30
0.0
 11
0.0
 21
1900.0
 31
0.0
  0
LINE
  5
290
  8
DETAIL
  6
CONTINUOUS
 10
0.0
 20
1900.0
 30
0.0
 11
0.0
 21
200.0
 31
0.0
  0
LINE
  5
291
  8
DETAIL
  6
DASHDOT
 10
98.8
 20
1945.0
 30
0.0
 11
100.0
 21
1945.0
 31
0.0
  0
LINE
  5
292
  8
DETAIL
  6
DASHDOT
 10
-42.0
 20
1900.0
 30
0.0
 11
-42.0
 21
1901.2
 31
0.0
  0
LINE
  5
293
  8
DETAIL
  6
DASHDOT
 10
-42.0
 20
1901.2
 30
0.0
 11
98.8
 21
1901.2
 31
0.0
  0
LINE
  5
294
  8
DETAIL
  6
DASHDOT
 10
98.8
 20
1901.2
 30
0.0
 11
98.8
 21
1945.0
 31
0.0
  0
LINE
  5
295
  8
DETAIL
  6
DASHDOT
 10
100.0
 20
1900.0
 30
0.0
 11
100.0
 21
1945.0
 31
0.0
  0
LINE
  5
296
  8
DETAIL
  6
DASHDOT
 10
-42.0
 20
1900.0
 30
0.0
 11
100.0
 21
1900.0
 31
0.0
  0
LINE
  5
297
  8
DETAIL
  6
CONTINUOUS
 10
-246.0
 20
192.0
 30
0.0
 11
-254.0
 21
200.0
 31
0.0
  0
LINE
  5
298
  8
DETAIL
  6
CONTINUOUS
 10
-239.0
 20
192.0
 30
0.0
 11
-239.0
 21
190.0
 31
0.0
  0
LINE
  5
299
  8
DETAIL
  6
CONTINUOUS
 10
-251.0
 20
182.0
 30
0.0
 11
-248.0
 21
183.0
 31
0.0
  0
LINE
  5
29A
  8
DETAIL
  6
CONTINUOUS
 10
-248.0
 20
183.0
 30
0.0
 11
-229.0
 21
183.0
 31
0.0
  0
ARC
  5
29B
  8
DETAIL
  6
CONTINUOUS
 10
-229.0
 20
184.0
 30
0.0
 40
1.0
 50
270.0
 51
359.999928
  0
LINE
  5
29C
  8
DETAIL
  6
CONTINUOUS
 10
-228.0
 20
190.0
 30
0.0
 11
-228.0
 21
184.0
 31
0.0
  0
LINE
  5
29D
  8
DETAIL
  6
CONTINUOUS
 10
-251.0
 20
182.0
 30
0.0
 11
-251.0
 21
166.0
 31
0.0
  0
LINE
  5
29E
  8
DETAIL
  6
CONTINUOUS
 10
-248.0
 20
183.0
 30
0.0
 11
-248.0
 21
165.0
 31
0.0
  0
LINE
  5
29F
  8
DETAIL
  6
CONTINUOUS
 10
-248.0
 20
165.0
 30
0.0
 11
-216.0
 21
165.0
 31
0.0
  0
LINE
  5
2A0
  8
DETAIL
  6
CONTINUOUS
 10
-251.0
 20
166.0
 30
0.0
 11
-248.0
 21
165.0
 31
0.0
  0
ARC
  5
2A1
  8
DETAIL
  6
CONTINUOUS
 10
-216.0
 20
177.0
 30
0.0
 40
12.0
 50
270.0
 51
0.0
  0
LINE
  5
2A2
  8
DETAIL
  6
CONTINUOUS
 10
-246.0
 20
192.0
 30
0.0
 11
-186.0
 21
192.0
 31
0.0
  0
LINE
  5
2A3
  8
DETAIL
  6
CONTINUOUS
 10
-193.0
 20
190.0
 30
0.0
 11
-239.0
 21
190.0
 31
0.0
  0
LINE
  5
2A4
  8
DETAIL
  6
CONTINUOUS
 10
-186.0
 20
192.0
 30
0.0
 11
-178.0
 21
200.0
 31
0.0
  0
LINE
  5
2A5
  8
DETAIL
  6
CONTINUOUS
 10
-193.0
 20
192.0
 30
0.0
 11
-193.0
 21
190.0
 31
0.0
  0
LINE
  5
2A6
  8
DETAIL
  6
CONTINUOUS
 10
-204.0
 20
190.0
 30
0.0
 11
-204.0
 21
177.0
 31
0.0
  0
LINE
  5
2A7
  8
DETAIL
  6
CONTINUOUS
 10
-445.0
 20
200.0
 30
0.0
 11
-445.0
 21
190.0
 31
0.0
  0
LINE
  5
2A8
  8
DETAIL
  6
CONTINUOUS
 10
-444.1575
 20
190.0
 30
0.0
 11
-442.9075
 21
170.0
 31
0.0
  0
LINE
  5
2A9
  8
DETAIL
  6
CONTINUOUS
 10
-442.68
 20
190.0
 30
0.0
 11
-441.43
 21
170.0
 31
0.0
  0
LINE
  5
2AA
  8
DETAIL
  6
CONTINUOUS
 10
-445.0
 20
190.0
 30
0.0
 11
-405.0
 21
190.0
 31
0.0
  0
LINE
  5
2AB
  8
DETAIL
  6
CONTINUOUS
 10
-405.0
 20
170.0
 30
0.0
 11
-442.9075
 21
170.0
 31
0.0
  0
LINE
  5
2AC
  8
DETAIL
  6
CONTINUOUS
 10
-373.5
 20
1900.0
 30
0.0
 11
-373.5
 21
1906.0
 31
0.0
  0
LINE
  5
2AD
  8
DETAIL
  6
CONTINUOUS
 10
-342.5
 20
1900.0
 30
0.0
 11
-342.5
 21
1906.0
 31
0.0
  0
LINE
  5
2AE
  8
DETAIL
  6
CONTINUOUS
 10
-373.5
 20
1906.0
 30
0.0
 11
-342.5
 21
1906.0
 31
0.0
  0
LINE
  5
2AF
  8
DETAIL
  6
CONTINUOUS
 10
-480.0
 20
1900.0
 30
0.0
 11
-480.0
 21
200.0
 31
0.0
  0
LINE
  5
2B0
  8
DETAIL
  6
CONTINUOUS
 10
-505.0
 20
1632.499786
 30
0.0
 11
-505.0
 21
1467.499786
 31
0.0
  0
LINE
  5
2B1
  8
DETAIL
  6
CONTINUOUS
 10
-500.0
 20
1632.499786
 30
0.0
 11
-505.0
 21
1632.499786
 31
0.0
  0
LINE
  5
2B2
  8
DETAIL
  6
CONTINUOUS
 10
-500.0
 20
1467.499786
 30
0.0
 11
-505.0
 21
1467.499786
 31
0.0
  0
LINE
  5
2B3
  8
DETAIL
  6
CONTINUOUS
 10
-44.0
 20
18.0
 30
0.0
 11
-44.0
 21
0.0
 31
0.0
  0
LINE
  5
2B4
  8
DETAIL
  6
CONTINUOUS
 10
-104.141428
 20
18.0
 30
0.0
 11
-44.0
 21
18.0
 31
0.0
  0
LINE
  5
2B5
  8
DETAIL
  6
CONTINUOUS
 10
-84.0
 20
6.0
 30
0.0
 11
-84.0
 21
0.0
 31
0.0
  0
LINE
  5
2B6
  8
DETAIL
  6
CONTINUOUS
 10
-84.0
 20
3.2
 30
0.0
 11
-44.0
 21
3.2
 31
0.0
  0
LINE
  5
2B7
  8
DETAIL
  6
CONTINUOUS
 10
-84.0
 20
0.0
 30
0.0
 11
-44.0
 21
0.0
 31
0.0
  0
LINE
  5
2B8
  8
SIZE
  6
CONTINUOUS
 10
-1200.0
 20
0.0
 30
0.0
 11
-1200.0
 21
2100.0
 31
0.0
  0
LINE
  5
2B9
  8
SIZE
  6
CONTINUOUS
 10
-1100.0
 20
2200.0
 30
0.0
 11
0.0
 21
2200.0
 31
0.0
  0
LINE
  5
2BA
  8
SIZE
  6
CONTINUOUS
 62
    30
 10
-221.0
 20
174.0
 30
0.0
 11
160.1
 21
174.0
 31
0.0
  0
LINE
  5
2BB
  8
SIZE
  6
CONTINUOUS
 62
    30
 10
-34.0
 20
0.0
 30
0.0
 11
160.1
 21
0.0
 31
0.0
  0
LINE
  5
2BC
  8
SIZE
  6
CONTINUOUS
 62
    30
 10
147.6
 20
164.0
 30
0.0
 11
147.6
 21
10.0
 31
0.0
  0
CIRCLE
  5
2BD
  8
SIZE
  6
CONTINUOUS
 62
    30
 10
147.6
 20
174.0
 30
0.0
 40
5.0
  0
LINE
  5
2BE
  8
SIZE
  6
CONTINUOUS
 62
    30
 10
147.6
 20
174.0
 30
0.0
 11
147.6
 21
164.0
 31
0.0
  0
CIRCLE
  5
2BF
  8
SIZE
  6
CONTINUOUS
 62
    30
 10
147.6
 20
0.0
 30
0.0
 40
5.0
  0
LINE
  5
2C0
  8
SIZE
  6
CONTINUOUS
 62
    30
 10
147.6
 20
0.0
 30
0.0
 11
147.6
 21
10.0
 31
0.0
  0
TEXT
  5
2C1
  8
SIZE
  6
CONTINUOUS
 62
    30
 10
137.6
 20
52.0
 30
0.0
 40
30.0
  1
174
 50
90.0
 72
     1
 11
137.6
 21
87.0
 31
0.0
  0
POINT
  5
2C2
  8
DEFPOINTS
  6
CONTINUOUS
 62
    30
 10
-231.0
 20
174.0
 30
0.0
  0
POINT
  5
2C3
  8
DEFPOINTS
  6
CONTINUOUS
 62
    30
 10
-44.0
 20
0.0
 30
0.0
  0
POINT
  5
2C4
  8
DEFPOINTS
  6
CONTINUOUS
 62
    30
 10
147.6
 20
0.0
 30
0.0
  0
LINE
  5
2C5
  8
SIZE
  6
CONTINUOUS
 62
    30
 10
-1100.0
 20
2110.0
 30
0.0
 11
-1100.0
 21
2214.9
 31
0.0
  0
LINE
  5
2C6
  8
SIZE
  6
CONTINUOUS
 62
    30
 10
-500.0
 20
2110.0
 30
0.0
 11
-500.0
 21
2214.9
 31
0.0
  0
LINE
  5
2C7
  8
SIZE
  6
CONTINUOUS
 62
    30
 10
-1090.0
 20
2202.4
 30
0.0
 11
-510.0
 21
2202.4
 31
0.0
  0
CIRCLE
  5
2C8
  8
SIZE
  6
CONTINUOUS
 62
    30
 10
-1100.0
 20
2202.4
 30
0.0
 40
5.0
  0
LINE
  5
2C9
  8
SIZE
  6
CONTINUOUS
 62
    30
 10
-1100.0
 20
2202.4
 30
0.0
 11
-1090.0
 21
2202.4
 31
0.0
  0
CIRCLE
  5
2CA
  8
SIZE
  6
CONTINUOUS
 62
    30
 10
-500.0
 20
2202.4
 30
0.0
 40
5.0
  0
LINE
  5
2CB
  8
SIZE
  6
CONTINUOUS
 62
    30
 10
-500.0
 20
2202.4
 30
0.0
 11
-510.0
 21
2202.4
 31
0.0
  0
TEXT
  5
2CC
  8
SIZE
  6
CONTINUOUS
 62
    30
 10
-835.0
 20
2212.4
 30
0.0
 40
30.0
  1
600
 72
     1
 11
-800.0
 21
2212.4
 31
0.0
  0
POINT
  5
2CD
  8
DEFPOINTS
  6
CONTINUOUS
 62
    30
 10
-1100.0
 20
2100.0
 30
0.0
  0
POINT
  5
2CE
  8
DEFPOINTS
  6
CONTINUOUS
 62
    30
 10
-500.0
 20
2100.0
 30
0.0
  0
POINT
  5
2CF
  8
DEFPOINTS
  6
CONTINUOUS
 62
    30
 10
-500.0
 20
2202.4
 30
0.0
  0
LINE
  5
2D0
  8
SIZE
  6
CONTINUOUS
 62
    30
 10
0.0
 20
2110.0
 30
0.0
 11
0.0
 21
2214.9
 31
0.0
  0
LINE
  5
2D1
  8
SIZE
  6
CONTINUOUS
 62
    30
 10
-500.0
 20
2110.0
 30
0.0
 11
-500.0
 21
2214.9
 31
0.0
  0
LINE
  5
2D2
  8
SIZE
  6
CONTINUOUS
 62
    30
 10
-10.0
 20
2202.4
 30
0.0
 11
-490.0
 21
2202.4
 31
0.0
  0
CIRCLE
  5
2D3
  8
SIZE
  6
CONTINUOUS
 62
    30
 10
0.0
 20
2202.4
 30
0.0
 40
5.0
  0
LINE
  5
2D4
  8
SIZE
  6
CONTINUOUS
 62
    30
 10
0.0
 20
2202.4
 30
0.0
 11
-10.0
 21
2202.4
 31
0.0
  0
CIRCLE
  5
2D5
  8
SIZE
  6
CONTINUOUS
 62
    30
 10
-500.0
 20
2202.4
 30
0.0
 40
5.0
  0
LINE
  5
2D6
  8
SIZE
  6
CONTINUOUS
 62
    30
 10
-500.0
 20
2202.4
 30
0.0
 11
-490.0
 21
2202.4
 31
0.0
  0
TEXT
  5
2D7
  8
SIZE
  6
CONTINUOUS
 62
    30
 10
-285.0
 20
2212.4
 30
0.0
 40
30.0
  1
500
 72
     1
 11
-250.0
 21
2212.4
 31
0.0
  0
POINT
  5
2D8
  8
DEFPOINTS
  6
CONTINUOUS
 62
    30
 10
0.0
 20
2100.0
 30
0.0
  0
POINT
  5
2D9
  8
DEFPOINTS
  6
CONTINUOUS
 62
    30
 10
-500.0
 20
2100.0
 30
0.0
  0
POINT
  5
2DA
  8
DEFPOINTS
  6
CONTINUOUS
 62
    30
 10
-500.0
 20
2202.4
 30
0.0
  0
LINE
  5
2DB
  8
SIZE
  6
CONTINUOUS
 62
    30
 10
0.0
 20
1910.0
 30
0.0
 11
0.0
 21
2059.9
 31
0.0
  0
LINE
  5
2DC
  8
SIZE
  6
CONTINUOUS
 62
    30
 10
100.0
 20
1955.0
 30
0.0
 11
100.0
 21
2059.9
 31
0.0
  0
LINE
  5
2DD
  8
SIZE
  6
CONTINUOUS
 62
    30
 10
10.0
 20
2047.4
 30
0.0
 11
90.0
 21
2047.4
 31
0.0
  0
CIRCLE
  5
2DE
  8
SIZE
  6
CONTINUOUS
 62
    30
 10
0.0
 20
2047.4
 30
0.0
 40
5.0
  0
LINE
  5
2DF
  8
SIZE
  6
CONTINUOUS
 62
    30
 10
0.0
 20
2047.4
 30
0.0
 11
10.0
 21
2047.4
 31
0.0
  0
CIRCLE
  5
2E0
  8
SIZE
  6
CONTINUOUS
 62
    30
 10
100.0
 20
2047.4
 30
0.0
 40
5.0
  0
LINE
  5
2E1
  8
SIZE
  6
CONTINUOUS
 62
    30
 10
100.0
 20
2047.4
 30
0.0
 11
90.0
 21
2047.4
 31
0.0
  0
TEXT
  5
2E2
  8
SIZE
  6
CONTINUOUS
 62
    30
 10
20.0
 20
2057.4
 30
0.0
 40
30.0
  1
100
 72
     1
 11
50.0
 21
2057.4
 31
0.0
  0
POINT
  5
2E3
  8
DEFPOINTS
  6
CONTINUOUS
 62
    30
 10
0.0
 20
1900.0
 30
0.0
  0
POINT
  5
2E4
  8
DEFPOINTS
  6
CONTINUOUS
 62
    30
 10
100.0
 20
1945.0
 30
0.0
  0
POINT
  5
2E5
  8
DEFPOINTS
  6
CONTINUOUS
 62
    30
 10
100.0
 20
2047.4
 30
0.0
  0
LINE
  5
2E6
  8
SIZE
  6
CONTINUOUS
 62
    30
 10
-34.0
 20
0.0
 30
0.0
 11
560.1
 21
0.0
 31
0.0
  0
LINE
  5
2E7
  8
SIZE
  6
CONTINUOUS
 62
    30
 10
110.0
 20
1945.0
 30
0.0
 11
560.1
 21
1945.0
 31
0.0
  0
LINE
  5
2E8
  8
SIZE
  6
CONTINUOUS
 62
    30
 10
547.6
 20
10.0
 30
0.0
 11
547.6
 21
1935.0
 31
0.0
  0
CIRCLE
  5
2E9
  8
SIZE
  6
CONTINUOUS
 62
    30
 10
547.6
 20
0.0
 30
0.0
 40
5.0
  0
LINE
  5
2EA
  8
SIZE
  6
CONTINUOUS
 62
    30
 10
547.6
 20
0.0
 30
0.0
 11
547.6
 21
10.0
 31
0.0
  0
CIRCLE
  5
2EB
  8
SIZE
  6
CONTINUOUS
 62
    30
 10
547.6
 20
1945.0
 30
0.0
 40
5.0
  0
LINE
  5
2EC
  8
SIZE
  6
CONTINUOUS
 62
    30
 10
547.6
 20
1945.0
 30
0.0
 11
547.6
 21
1935.0
 31
0.0
  0
TEXT
  5
2ED
  8
SIZE
  6
CONTINUOUS
 62
    30
 10
537.6
 20
922.5
 30
0.0
 40
30.0
  1
1945
 50
90.0
 72
     1
 11
537.6
 21
972.5
 31
0.0
  0
POINT
  5
2EE
  8
DEFPOINTS
  6
CONTINUOUS
 62
    30
 10
-44.0
 20
0.0
 30
0.0
  0
POINT
  5
2EF
  8
DEFPOINTS
  6
CONTINUOUS
 62
    30
 10
100.0
 20
1945.0
 30
0.0
  0
POINT
  5
2F0
  8
DEFPOINTS
  6
CONTINUOUS
 62
    30
 10
547.6
 20
1945.0
 30
0.0
  0
LINE
  5
2F1
  8
SIZE
  6
CONTINUOUS
 62
    30
 10
130.0
 20
1923.0
 30
0.0
 11
460.1
 21
1923.0
 31
0.0
  0
LINE
  5
2F2
  8
SIZE
  6
CONTINUOUS
 62
    30
 10
-34.0
 20
0.0
 30
0.0
 11
460.1
 21
0.0
 31
0.0
  0
LINE
  5
2F3
  8
SIZE
  6
CONTINUOUS
 62
    30
 10
447.6
 20
1913.0
 30
0.0
 11
447.6
 21
10.0
 31
0.0
  0
CIRCLE
  5
2F4
  8
SIZE
  6
CONTINUOUS
 62
    30
 10
447.6
 20
1923.0
 30
0.0
 40
5.0
  0
LINE
  5
2F5
  8
SIZE
  6
CONTINUOUS
 62
    30
 10
447.6
 20
1923.0
 30
0.0
 11
447.6
 21
1913.0
 31
0.0
  0
CIRCLE
  5
2F6
  8
SIZE
  6
CONTINUOUS
 62
    30
 10
447.6
 20
0.0
 30
0.0
 40
5.0
  0
LINE
  5
2F7
  8
SIZE
  6
CONTINUOUS
 62
    30
 10
447.6
 20
0.0
 30
0.0
 11
447.6
 21
10.0
 31
0.0
  0
TEXT
  5
2F8
  8
SIZE
  6
CONTINUOUS
 62
    30
 10
437.6
 20
911.5
 30
0.0
 40
30.0
  1
1923
 50
90.0
 72
     1
 11
437.6
 21
961.5
 31
0.0
  0
POINT
  5
2F9
  8
DEFPOINTS
  6
CONTINUOUS
 62
    30
 10
120.0
 20
1923.0
 30
0.0
  0
POINT
  5
2FA
  8
DEFPOINTS
  6
CONTINUOUS
 62
    30
 10
-44.0
 20
0.0
 30
0.0
  0
POINT
  5
2FB
  8
DEFPOINTS
  6
CONTINUOUS
 62
    30
 10
447.6
 20
0.0
 30
0.0
  0
LINE
  5
2FC
  8
SIZE
  6
CONTINUOUS
 62
    30
 10
-420.0
 20
140.0
 30
0.0
 11
-420.0
 21
-560.1
 31
0.0
  0
LINE
  5
2FD
  8
SIZE
  6
CONTINUOUS
 62
    30
 10
-500.0
 20
-10.0
 30
0.0
 11
-500.0
 21
-560.1
 31
0.0
  0
LINE
  5
2FE
  8
SIZE
  6
CONTINUOUS
 62
    30
 10
-430.0
 20
-547.6
 30
0.0
 11
-490.0
 21
-547.6
 31
0.0
  0
CIRCLE
  5
2FF
  8
SIZE
  6
CONTINUOUS
 62
    30
 10
-420.0
 20
-547.6
 30
0.0
 40
5.0
  0
LINE
  5
300
  8
SIZE
  6
CONTINUOUS
 62
    30
 10
-420.0
 20
-547.6
 30
0.0
 11
-430.0
 21
-547.6
 31
0.0
  0
CIRCLE
  5
301
  8
SIZE
  6
CONTINUOUS
 62
    30
 10
-500.0
 20
-547.6
 30
0.0
 40
5.0
  0
LINE
  5
302
  8
SIZE
  6
CONTINUOUS
 62
    30
 10
-500.0
 20
-547.6
 30
0.0
 11
-490.0
 21
-547.6
 31
0.0
  0
TEXT
  5
303
  8
SIZE
  6
CONTINUOUS
 62
    30
 10
-482.5
 20
-537.6
 30
0.0
 40
30.0
  1
80
 72
     1
 11
-460.0
 21
-537.6
 31
0.0
  0
POINT
  5
304
  8
DEFPOINTS
  6
CONTINUOUS
 62
    30
 10
-420.0
 20
150.0
 30
0.0
  0
POINT
  5
305
  8
DEFPOINTS
  6
CONTINUOUS
 62
    30
 10
-500.0
 20
0.0
 30
0.0
  0
POINT
  5
306
  8
DEFPOINTS
  6
CONTINUOUS
 62
    30
 10
-500.0
 20
-547.6
 30
0.0
  0
LINE
  5
307
  8
SIZE
  6
CONTINUOUS
 62
    30
 10
-447.0
 20
170.0
 30
0.0
 11
-447.0
 21
-460.1
 31
0.0
  0
LINE
  5
308
  8
SIZE
  6
CONTINUOUS
 62
    30
 10
-500.0
 20
-10.0
 30
0.0
 11
-500.0
 21
-460.1
 31
0.0
  0
LINE
  5
309
  8
SIZE
  6
CONTINUOUS
 62
    30
 10
-457.0
 20
-447.6
 30
0.0
 11
-490.0
 21
-447.6
 31
0.0
  0
CIRCLE
  5
30A
  8
SIZE
  6
CONTINUOUS
 62
    30
 10
-447.0
 20
-447.6
 30
0.0
 40
5.0
  0
LINE
  5
30B
  8
SIZE
  6
CONTINUOUS
 62
    30
 10
-447.0
 20
-447.6
 30
0.0
 11
-457.0
 21
-447.6
 31
0.0
  0
CIRCLE
  5
30C
  8
SIZE
  6
CONTINUOUS
 62
    30
 10
-500.0
 20
-447.6
 30
0.0
 40
5.0
  0
LINE
  5
30D
  8
SIZE
  6
CONTINUOUS
 62
    30
 10
-500.0
 20
-447.6
 30
0.0
 11
-490.0
 21
-447.6
 31
0.0
  0
TEXT
  5
30E
  8
SIZE
  6
CONTINUOUS
 62
    30
 10
-498.5
 20
-437.6
 30
0.0
 40
30.0
  1
53
 72
     1
 11
-473.5
 21
-437.6
 31
0.0
  0
POINT
  5
30F
  8
DEFPOINTS
  6
CONTINUOUS
 62
    30
 10
-447.0
 20
180.0
 30
0.0
  0
POINT
  5
310
  8
DEFPOINTS
  6
CONTINUOUS
 62
    30
 10
-500.0
 20
0.0
 30
0.0
  0
POINT
  5
311
  8
DEFPOINTS
  6
CONTINUOUS
 62
    30
 10
-500.0
 20
-447.6
 30
0.0
  0
LINE
  5
312
  8
SIZE
  6
CONTINUOUS
 62
    30
 10
-469.0
 20
170.0
 30
0.0
 11
-469.0
 21
-360.1
 31
0.0
  0
LINE
  5
313
  8
SIZE
  6
CONTINUOUS
 62
    30
 10
-500.0
 20
-10.0
 30
0.0
 11
-500.0
 21
-360.1
 31
0.0
  0
LINE
  5
314
  8
SIZE
  6
CONTINUOUS
 62
    30
 10
-459.0
 20
-347.6
 30
0.0
 11
-449.0
 21
-347.6
 31
0.0
  0
LINE
  5
315
  8
SIZE
  6
CONTINUOUS
 62
    30
 10
-510.0
 20
-347.6
 30
0.0
 11
-520.0
 21
-347.6
 31
0.0
  0
LINE
  5
316
  8
SIZE
  6
CONTINUOUS
 62
    30
 10
-469.0
 20
-347.6
 30
0.0
 11
-500.0
 21
-347.6
 31
0.0
  0
CIRCLE
  5
317
  8
SIZE
  6
CONTINUOUS
 62
    30
 10
-469.0
 20
-347.6
 30
0.0
 40
5.0
  0
LINE
  5
318
  8
SIZE
  6
CONTINUOUS
 62
    30
 10
-469.0
 20
-347.6
 30
0.0
 11
-459.0
 21
-347.6
 31
0.0
  0
CIRCLE
  5
319
  8
SIZE
  6
CONTINUOUS
 62
    30
 10
-500.0
 20
-347.6
 30
0.0
 40
5.0
  0
LINE
  5
31A
  8
SIZE
  6
CONTINUOUS
 62
    30
 10
-500.0
 20
-347.6
 30
0.0
 11
-510.0
 21
-347.6
 31
0.0
  0
TEXT
  5
31B
  8
SIZE
  6
CONTINUOUS
 62
    30
 10
-504.5
 20
-337.6
 30
0.0
 40
30.0
  1
31
 72
     1
 11
-484.5
 21
-337.6
 31
0.0
  0
POINT
  5
31C
  8
DEFPOINTS
  6
CONTINUOUS
 62
    30
 10
-469.0
 20
180.0
 30
0.0
  0
POINT
  5
31D
  8
DEFPOINTS
  6
CONTINUOUS
 62
    30
 10
-500.0
 20
0.0
 30
0.0
  0
POINT
  5
31E
  8
DEFPOINTS
  6
CONTINUOUS
 62
    30
 10
-500.0
 20
-347.6
 30
0.0
  0
LINE
  5
31F
  8
SIZE
  6
CONTINUOUS
 62
    30
 10
-64.0
 20
-30.0
 30
0.0
 11
-64.0
 21
-160.1
 31
0.0
  0
LINE
  5
320
  8
SIZE
  6
CONTINUOUS
 62
    30
 10
0.0
 20
190.0
 30
0.0
 11
0.0
 21
-160.1
 31
0.0
  0
LINE
  5
321
  8
SIZE
  6
CONTINUOUS
 62
    30
 10
-54.0
 20
-147.6
 30
0.0
 11
-10.0
 21
-147.6
 31
0.0
  0
CIRCLE
  5
322
  8
SIZE
  6
CONTINUOUS
 62
    30
 10
-64.0
 20
-147.6
 30
0.0
 40
5.0
  0
LINE
  5
323
  8
SIZE
  6
CONTINUOUS
 62
    30
 10
-64.0
 20
-147.6
 30
0.0
 11
-54.0
 21
-147.6
 31
0.0
  0
CIRCLE
  5
324
  8
SIZE
  6
CONTINUOUS
 62
    30
 10
0.0
 20
-147.6
 30
0.0
 40
5.0
  0
LINE
  5
325
  8
SIZE
  6
CONTINUOUS
 62
    30
 10
0.0
 20
-147.6
 30
0.0
 11
-10.0
 21
-147.6
 31
0.0
  0
TEXT
  5
326
  8
SIZE
  6
CONTINUOUS
 62
    30
 10
-57.0
 20
-137.6
 30
0.0
 40
30.0
  1
64
 72
     1
 11
-32.0
 21
-137.6
 31
0.0
  0
POINT
  5
327
  8
DEFPOINTS
  6
CONTINUOUS
 62
    30
 10
-64.0
 20
-20.0
 30
0.0
  0
POINT
  5
328
  8
DEFPOINTS
  6
CONTINUOUS
 62
    30
 10
0.0
 20
200.0
 30
0.0
  0
POINT
  5
329
  8
DEFPOINTS
  6
CONTINUOUS
 62
    30
 10
0.0
 20
-147.6
 30
0.0
  0
LINE
  5
32A
  8
SIZE
  6
CONTINUOUS
 62
    30
 10
-99.0
 20
-30.0
 30
0.0
 11
-99.0
 21
-260.1
 31
0.0
  0
LINE
  5
32B
  8
SIZE
  6
CONTINUOUS
 62
    30
 10
0.0
 20
190.0
 30
0.0
 11
0.0
 21
-260.1
 31
0.0
  0
LINE
  5
32C
  8
SIZE
  6
CONTINUOUS
 62
    30
 10
-89.0
 20
-247.6
 30
0.0
 11
-10.0
 21
-247.6
 31
0.0
  0
CIRCLE
  5
32D
  8
SIZE
  6
CONTINUOUS
 62
    30
 10
-99.0
 20
-247.6
 30
0.0
 40
5.0
  0
LINE
  5
32E
  8
SIZE
  6
CONTINUOUS
 62
    30
 10
-99.0
 20
-247.6
 30
0.0
 11
-89.0
 21
-247.6
 31
0.0
  0
CIRCLE
  5
32F
  8
SIZE
  6
CONTINUOUS
 62
    30
 10
0.0
 20
-247.6
 30
0.0
 40
5.0
  0
LINE
  5
330
  8
SIZE
  6
CONTINUOUS
 62
    30
 10
0.0
 20
-247.6
 30
0.0
 11
-10.0
 21
-247.6
 31
0.0
  0
TEXT
  5
331
  8
SIZE
  6
CONTINUOUS
 62
    30
 10
-74.5
 20
-237.6
 30
0.0
 40
30.0
  1
99
 72
     1
 11
-49.5
 21
-237.6
 31
0.0
  0
POINT
  5
332
  8
DEFPOINTS
  6
CONTINUOUS
 62
    30
 10
-99.0
 20
-20.0
 30
0.0
  0
POINT
  5
333
  8
DEFPOINTS
  6
CONTINUOUS
 62
    30
 10
0.0
 20
200.0
 30
0.0
  0
POINT
  5
334
  8
DEFPOINTS
  6
CONTINUOUS
 62
    30
 10
0.0
 20
-247.6
 30
0.0
  0
LINE
  5
335
  8
SIZE
  6
CONTINUOUS
 62
    30
 10
-390.0
 20
170.0
 30
0.0
 11
-282.251166
 21
170.0
 31
0.0
  0
LINE
  5
336
  8
SIZE
  6
CONTINUOUS
 62
    30
 10
-335.5
 20
0.0
 30
0.0
 11
-282.251166
 21
0.0
 31
0.0
  0
LINE
  5
337
  8
SIZE
  6
CONTINUOUS
 62
    30
 10
-294.751166
 20
160.0
 30
0.0
 11
-294.751166
 21
10.0
 31
0.0
  0
CIRCLE
  5
338
  8
SIZE
  6
CONTINUOUS
 62
    30
 10
-294.751166
 20
170.0
 30
0.0
 40
5.0
  0
LINE
  5
339
  8
SIZE
  6
CONTINUOUS
 62
    30
 10
-294.751166
 20
170.0
 30
0.0
 11
-294.751166
 21
160.0
 31
0.0
  0
CIRCLE
  5
33A
  8
SIZE
  6
CONTINUOUS
 62
    30
 10
-294.751166
 20
0.0
 30
0.0
 40
5.0
  0
LINE
  5
33B
  8
SIZE
  6
CONTINUOUS
 62
    30
 10
-294.751166
 20
0.0
 30
0.0
 11
-294.751166
 21
10.0
 31
0.0
  0
TEXT
  5
33C
  8
SIZE
  6
CONTINUOUS
 62
    30
 10
-304.751166
 20
52.5
 30
0.0
 40
30.0
  1
170
 50
90.0
 72
     1
 11
-304.751166
 21
85.0
 31
0.0
  0
POINT
  5
33D
  8
DEFPOINTS
  6
CONTINUOUS
 62
    30
 10
-400.0
 20
170.0
 30
0.0
  0
POINT
  5
33E
  8
DEFPOINTS
  6
CONTINUOUS
 62
    30
 10
-345.5
 20
0.0
 30
0.0
  0
POINT
  5
33F
  8
DEFPOINTS
  6
CONTINUOUS
 62
    30
 10
-294.751166
 20
0.0
 30
0.0
  0
LINE
  5
340
  8
SIZE
  6
CONTINUOUS
 62
    30
 10
-413.0
 20
-30.0
 30
0.0
 11
-413.0
 21
-160.1
 31
0.0
  0
LINE
  5
341
  8
SIZE
  6
CONTINUOUS
 62
    30
 10
-64.0
 20
-30.0
 30
0.0
 11
-64.0
 21
-160.1
 31
0.0
  0
LINE
  5
342
  8
SIZE
  6
CONTINUOUS
 62
    30
 10
-403.0
 20
-147.6
 30
0.0
 11
-74.0
 21
-147.6
 31
0.0
  0
CIRCLE
  5
343
  8
SIZE
  6
CONTINUOUS
 62
    30
 10
-413.0
 20
-147.6
 30
0.0
 40
5.0
  0
LINE
  5
344
  8
SIZE
  6
CONTINUOUS
 62
    30
 10
-413.0
 20
-147.6
 30
0.0
 11
-403.0
 21
-147.6
 31
0.0
  0
CIRCLE
  5
345
  8
SIZE
  6
CONTINUOUS
 62
    30
 10
-64.0
 20
-147.6
 30
0.0
 40
5.0
  0
LINE
  5
346
  8
SIZE
  6
CONTINUOUS
 62
    30
 10
-64.0
 20
-147.6
 30
0.0
 11
-74.0
 21
-147.6
 31
0.0
  0
TEXT
  5
347
  8
SIZE
  6
CONTINUOUS
 62
    30
 10
-278.5
 20
-137.6
 30
0.0
 40
30.0
  1
349
 72
     1
 11
-238.5
 21
-137.6
 31
0.0
  0
POINT
  5
348
  8
DEFPOINTS
  6
CONTINUOUS
 62
    30
 10
-413.0
 20
-20.0
 30
0.0
  0
POINT
  5
349
  8
DEFPOINTS
  6
CONTINUOUS
 62
    30
 10
-64.0
 20
-20.0
 30
0.0
  0
POINT
  5
34A
  8
DEFPOINTS
  6
CONTINUOUS
 62
    30
 10
-64.0
 20
-147.6
 30
0.0
  0
LINE
  5
34B
  8
SIZE
  6
CONTINUOUS
 62
    30
 10
-413.0
 20
-30.0
 30
0.0
 11
-413.0
 21
-260.1
 31
0.0
  0
LINE
  5
34C
  8
SIZE
  6
CONTINUOUS
 62
    30
 10
-99.0
 20
-30.0
 30
0.0
 11
-99.0
 21
-260.1
 31
0.0
  0
LINE
  5
34D
  8
SIZE
  6
CONTINUOUS
 62
    30
 10
-403.0
 20
-247.6
 30
0.0
 11
-109.0
 21
-247.6
 31
0.0
  0
CIRCLE
  5
34E
  8
SIZE
  6
CONTINUOUS
 62
    30
 10
-413.0
 20
-247.6
 30
0.0
 40
5.0
  0
LINE
  5
34F
  8
SIZE
  6
CONTINUOUS
 62
    30
 10
-413.0
 20
-247.6
 30
0.0
 11
-403.0
 21
-247.6
 31
0.0
  0
CIRCLE
  5
350
  8
SIZE
  6
CONTINUOUS
 62
    30
 10
-99.0
 20
-247.6
 30
0.0
 40
5.0
  0
LINE
  5
351
  8
SIZE
  6
CONTINUOUS
 62
    30
 10
-99.0
 20
-247.6
 30
0.0
 11
-109.0
 21
-247.6
 31
0.0
  0
TEXT
  5
352
  8
SIZE
  6
CONTINUOUS
 62
    30
 10
-291.0
 20
-237.6
 30
0.0
 40
30.0
  1
314
 72
     1
 11
-256.0
 21
-237.6
 31
0.0
  0
POINT
  5
353
  8
DEFPOINTS
  6
CONTINUOUS
 62
    30
 10
-413.0
 20
-20.0
 30
0.0
  0
POINT
  5
354
  8
DEFPOINTS
  6
CONTINUOUS
 62
    30
 10
-99.0
 20
-20.0
 30
0.0
  0
POINT
  5
355
  8
DEFPOINTS
  6
CONTINUOUS
 62
    30
 10
-99.0
 20
-247.6
 30
0.0
  0
LINE
  5
356
  8
SIZE
  6
CONTINUOUS
 62
    30
 10
-251.0
 20
144.0
 30
0.0
 11
-251.0
 21
-660.1
 31
0.0
  0
LINE
  5
357
  8
SIZE
  6
CONTINUOUS
 62
    30
 10
-500.0
 20
-10.0
 30
0.0
 11
-500.0
 21
-660.1
 31
0.0
  0
LINE
  5
358
  8
SIZE
  6
CONTINUOUS
 62
    30
 10
-261.0
 20
-647.6
 30
0.0
 11
-490.0
 21
-647.6
 31
0.0
  0
CIRCLE
  5
359
  8
SIZE
  6
CONTINUOUS
 62
    30
 10
-251.0
 20
-647.6
 30
0.0
 40
5.0
  0
LINE
  5
35A
  8
SIZE
  6
CONTINUOUS
 62
    30
 10
-251.0
 20
-647.6
 30
0.0
 11
-261.0
 21
-647.6
 31
0.0
  0
CIRCLE
  5
35B
  8
SIZE
  6
CONTINUOUS
 62
    30
 10
-500.0
 20
-647.6
 30
0.0
 40
5.0
  0
LINE
  5
35C
  8
SIZE
  6
CONTINUOUS
 62
    30
 10
-500.0
 20
-647.6
 30
0.0
 11
-490.0
 21
-647.6
 31
0.0
  0
TEXT
  5
35D
  8
SIZE
  6
CONTINUOUS
 62
    30
 10
-415.5
 20
-637.6
 30
0.0
 40
30.0
  1
249
 72
     1
 11
-375.5
 21
-637.6
 31
0.0
  0
POINT
  5
35E
  8
DEFPOINTS
  6
CONTINUOUS
 62
    30
 10
-251.0
 20
154.0
 30
0.0
  0
POINT
  5
35F
  8
DEFPOINTS
  6
CONTINUOUS
 62
    30
 10
-500.0
 20
0.0
 30
0.0
  0
POINT
  5
360
  8
DEFPOINTS
  6
CONTINUOUS
 62
    30
 10
-500.0
 20
-647.6
 30
0.0
  0
LINE
  5
361
  8
SIZE
  6
CONTINUOUS
 62
    30
 10
-500.0
 20
1890.0
 30
0.0
 11
-500.0
 21
1704.521704
 31
0.0
  0
LINE
  5
362
  8
SIZE
  6
CONTINUOUS
 62
    30
 10
-505.0
 20
1642.499756
 30
0.0
 11
-505.0
 21
1729.521704
 31
0.0
  0
LINE
  5
363
  8
SIZE
  6
CONTINUOUS
 62
    30
 10
-490.0
 20
1717.021704
 30
0.0
 11
-480.0
 21
1717.021704
 31
0.0
  0
LINE
  5
364
  8
SIZE
  6
CONTINUOUS
 62
    30
 10
-515.0
 20
1717.021704
 30
0.0
 11
-592.968731
 21
1717.021704
 31
0.0
  0
LINE
  5
365
  8
SIZE
  6
CONTINUOUS
 62
    30
 10
-500.0
 20
1717.021704
 30
0.0
 11
-505.0
 21
1717.021704
 31
0.0
  0
CIRCLE
  5
366
  8
SIZE
  6
CONTINUOUS
 62
    30
 10
-500.0
 20
1717.021704
 30
0.0
 40
5.0
  0
LINE
  5
367
  8
SIZE
  6
CONTINUOUS
 62
    30
 10
-500.0
 20
1717.021704
 30
0.0
 11
-490.0
 21
1717.021704
 31
0.0
  0
CIRCLE
  5
368
  8
SIZE
  6
CONTINUOUS
 62
    30
 10
-505.0
 20
1717.021704
 30
0.0
 40
5.0
  0
LINE
  5
369
  8
SIZE
  6
CONTINUOUS
 62
    30
 10
-505.0
 20
1717.021704
 30
0.0
 11
-515.0
 21
1717.021704
 31
0.0
  0
TEXT
  5
36A
  8
SIZE
  6
CONTINUOUS
 62
    30
 10
-582.968731
 20
1727.021704
 30
0.0
 40
30.0
  1
5
 72
     1
 11
-572.968731
 21
1727.021704
 31
0.0
  0
POINT
  5
36B
  8
DEFPOINTS
  6
CONTINUOUS
 62
    30
 10
-500.0
 20
1900.0
 30
0.0
  0
POINT
  5
36C
  8
DEFPOINTS
  6
CONTINUOUS
 62
    30
 10
-505.0
 20
1632.499756
 30
0.0
  0
POINT
  5
36D
  8
DEFPOINTS
  6
CONTINUOUS
 62
    30
 10
-505.0
 20
1717.021704
 30
0.0
  0
LINE
  5
36E
  8
SIZE
  6
CONTINUOUS
 62
    30
 10
-510.0
 20
1900.0
 30
0.0
 11
-669.9
 21
1900.0
 31
0.0
  0
LINE
  5
36F
  8
SIZE
  6
CONTINUOUS
 62
    30
 10
-383.5
 20
1906.0
 30
0.0
 11
-669.9
 21
1906.0
 31
0.0
  0
LINE
  5
370
  8
SIZE
  6
CONTINUOUS
 62
    30
 10
-657.4
 20
1890.0
 30
0.0
 11
-657.4
 21
1880.0
 31
0.0
  0
LINE
  5
371
  8
SIZE
  6
CONTINUOUS
 62
    30
 10
-657.4
 20
1916.0
 30
0.0
 11
-657.4
 21
1975.581684
 31
0.0
  0
LINE
  5
372
  8
SIZE
  6
CONTINUOUS
 62
    30
 10
-657.4
 20
1900.0
 30
0.0
 11
-657.4
 21
1906.0
 31
0.0
  0
CIRCLE
  5
373
  8
SIZE
  6
CONTINUOUS
 62
    30
 10
-657.4
 20
1900.0
 30
0.0
 40
5.0
  0
LINE
  5
374
  8
SIZE
  6
CONTINUOUS
 62
    30
 10
-657.4
 20
1900.0
 30
0.0
 11
-657.4
 21
1890.0
 31
0.0
  0
CIRCLE
  5
375
  8
SIZE
  6
CONTINUOUS
 62
    30
 10
-657.4
 20
1906.0
 30
0.0
 40
5.0
  0
LINE
  5
376
  8
SIZE
  6
CONTINUOUS
 62
    30
 10
-657.4
 20
1906.0
 30
0.0
 11
-657.4
 21
1916.0
 31
0.0
  0
TEXT
  5
377
  8
SIZE
  6
CONTINUOUS
 62
    30
 10
-667.4
 20
1945.581684
 30
0.0
 40
30.0
  1
6
 50
90.0
 72
     1
 11
-667.4
 21
1955.581684
 31
0.0
  0
POINT
  5
378
  8
DEFPOINTS
  6
CONTINUOUS
 62
    30
 10
-500.0
 20
1900.0
 30
0.0
  0
POINT
  5
379
  8
DEFPOINTS
  6
CONTINUOUS
 62
    30
 10
-373.5
 20
1906.0
 30
0.0
  0
POINT
  5
37A
  8
DEFPOINTS
  6
CONTINUOUS
 62
    30
 10
-657.4
 20
1906.0
 30
0.0
  0
LINE
  5
37B
  8
SIZE
  6
CONTINUOUS
 62
    30
 10
-500.0
 20
1910.0
 30
0.0
 11
-500.0
 21
2059.9
 31
0.0
  0
LINE
  5
37C
  8
SIZE
  6
CONTINUOUS
 62
    30
 10
-358.0
 20
1933.909546
 30
0.0
 11
-358.0
 21
2059.9
 31
0.0
  0
LINE
  5
37D
  8
SIZE
  6
CONTINUOUS
 62
    30
 10
-490.0
 20
2047.4
 30
0.0
 11
-368.0
 21
2047.4
 31
0.0
  0
CIRCLE
  5
37E
  8
SIZE
  6
CONTINUOUS
 62
    30
 10
-500.0
 20
2047.4
 30
0.0
 40
5.0
  0
LINE
  5
37F
  8
SIZE
  6
CONTINUOUS
 62
    30
 10
-500.0
 20
2047.4
 30
0.0
 11
-490.0
 21
2047.4
 31
0.0
  0
CIRCLE
  5
380
  8
SIZE
  6
CONTINUOUS
 62
    30
 10
-358.0
 20
2047.4
 30
0.0
 40
5.0
  0
LINE
  5
381
  8
SIZE
  6
CONTINUOUS
 62
    30
 10
-358.0
 20
2047.4
 30
0.0
 11
-368.0
 21
2047.4
 31
0.0
  0
TEXT
  5
382
  8
SIZE
  6
CONTINUOUS
 62
    30
 10
-464.0
 20
2057.4
 30
0.0
 40
30.0
  1
142
 72
     1
 11
-429.0
 21
2057.4
 31
0.0
  0
POINT
  5
383
  8
DEFPOINTS
  6
CONTINUOUS
 62
    30
 10
-500.0
 20
1900.0
 30
0.0
  0
POINT
  5
384
  8
DEFPOINTS
  6
CONTINUOUS
 62
    30
 10
-358.0
 20
1923.909546
 30
0.0
  0
POINT
  5
385
  8
DEFPOINTS
  6
CONTINUOUS
 62
    30
 10
-358.0
 20
2047.4
 30
0.0
  0
LINE
  5
386
  8
SIZE
  6
CONTINUOUS
 62
    30
 10
10.0
 20
2100.0
 30
0.0
 11
360.1
 21
2100.0
 31
0.0
  0
LINE
  5
387
  8
SIZE
  6
CONTINUOUS
 62
    30
 10
10.0
 20
1900.0
 30
0.0
 11
360.1
 21
1900.0
 31
0.0
  0
LINE
  5
388
  8
SIZE
  6
CONTINUOUS
 62
    30
 10
347.6
 20
2090.0
 30
0.0
 11
347.6
 21
1910.0
 31
0.0
  0
CIRCLE
  5
389
  8
SIZE
  6
CONTINUOUS
 62
    30
 10
347.6
 20
2100.0
 30
0.0
 40
5.0
  0
LINE
  5
38A
  8
SIZE
  6
CONTINUOUS
 62
    30
 10
347.6
 20
2100.0
 30
0.0
 11
347.6
 21
2090.0
 31
0.0
  0
CIRCLE
  5
38B
  8
SIZE
  6
CONTINUOUS
 62
    30
 10
347.6
 20
1900.0
 30
0.0
 40
5.0
  0
LINE
  5
38C
  8
SIZE
  6
CONTINUOUS
 62
    30
 10
347.6
 20
1900.0
 30
0.0
 11
347.6
 21
1910.0
 31
0.0
  0
TEXT
  5
38D
  8
SIZE
  6
CONTINUOUS
 62
    30
 10
337.6
 20
1938.540097
 30
0.0
 40
30.0
  1
200
 50
90.0
 72
     1
 11
337.6
 21
1973.540097
 31
0.0
  0
POINT
  5
38E
  8
DEFPOINTS
  6
CONTINUOUS
 62
    30
 10
0.0
 20
2100.0
 30
0.0
  0
POINT
  5
38F
  8
DEFPOINTS
  6
CONTINUOUS
 62
    30
 10
0.0
 20
1900.0
 30
0.0
  0
POINT
  5
390
  8
DEFPOINTS
  6
CONTINUOUS
 62
    30
 10
347.6
 20
1900.0
 30
0.0
  0
LINE
  5
391
  8
SIZE
  6
CONTINUOUS
 62
    30
 10
0.0
 20
190.0
 30
0.0
 11
0.0
 21
-760.1
 31
0.0
  0
LINE
  5
392
  8
SIZE
  6
CONTINUOUS
 62
    30
 10
-500.0
 20
-10.0
 30
0.0
 11
-500.0
 21
-760.1
 31
0.0
  0
LINE
  5
393
  8
SIZE
  6
CONTINUOUS
 62
    30
 10
-10.0
 20
-747.6
 30
0.0
 11
-490.0
 21
-747.6
 31
0.0
  0
CIRCLE
  5
394
  8
SIZE
  6
CONTINUOUS
 62
    30
 10
0.0
 20
-747.6
 30
0.0
 40
5.0
  0
LINE
  5
395
  8
SIZE
  6
CONTINUOUS
 62
    30
 10
0.0
 20
-747.6
 30
0.0
 11
-10.0
 21
-747.6
 31
0.0
  0
CIRCLE
  5
396
  8
SIZE
  6
CONTINUOUS
 62
    30
 10
-500.0
 20
-747.6
 30
0.0
 40
5.0
  0
LINE
  5
397
  8
SIZE
  6
CONTINUOUS
 62
    30
 10
-500.0
 20
-747.6
 30
0.0
 11
-490.0
 21
-747.6
 31
0.0
  0
TEXT
  5
398
  8
SIZE
  6
CONTINUOUS
 62
    30
 10
-258.539976
 20
-737.6
 30
0.0
 40
30.0
  1
500
 72
     1
 11
-223.539976
 21
-737.6
 31
0.0
  0
POINT
  5
399
  8
DEFPOINTS
  6
CONTINUOUS
 62
    30
 10
0.0
 20
200.0
 30
0.0
  0
POINT
  5
39A
  8
DEFPOINTS
  6
CONTINUOUS
 62
    30
 10
-500.0
 20
0.0
 30
0.0
  0
POINT
  5
39B
  8
DEFPOINTS
  6
CONTINUOUS
 62
    30
 10
-500.0
 20
-747.6
 30
0.0
  0
LINE
  5
39C
  8
SIZE
  6
CONTINUOUS
 62
    30
 10
-74.0
 20
0.0
 30
0.0
 11
260.1
 21
0.0
 31
0.0
  0
LINE
  5
39D
  8
SIZE
  6
CONTINUOUS
 62
    30
 10
10.0
 20
200.0
 30
0.0
 11
260.1
 21
200.0
 31
0.0
  0
LINE
  5
39E
  8
SIZE
  6
CONTINUOUS
 62
    30
 10
247.6
 20
10.0
 30
0.0
 11
247.6
 21
190.0
 31
0.0
  0
CIRCLE
  5
39F
  8
SIZE
  6
CONTINUOUS
 62
    30
 10
247.6
 20
0.0
 30
0.0
 40
5.0
  0
LINE
  5
3A0
  8
SIZE
  6
CONTINUOUS
 62
    30
 10
247.6
 20
0.0
 30
0.0
 11
247.6
 21
10.0
 31
0.0
  0
CIRCLE
  5
3A1
  8
SIZE
  6
CONTINUOUS
 62
    30
 10
247.6
 20
200.0
 30
0.0
 40
5.0
  0
LINE
  5
3A2
  8
SIZE
  6
CONTINUOUS
 62
    30
 10
247.6
 20
200.0
 30
0.0
 11
247.6
 21
190.0
 31
0.0
  0
TEXT
  5
3A3
  8
SIZE
  6
CONTINUOUS
 62
    30
 10
237.6
 20
38.540006
 30
0.0
 40
30.0
  1
200
 50
90.0
 72
     1
 11
237.6
 21
73.540006
 31
0.0
  0
POINT
  5
3A4
  8
DEFPOINTS
  6
CONTINUOUS
 62
    30
 10
-84.0
 20
0.0
 30
0.0
  0
POINT
  5
3A5
  8
DEFPOINTS
  6
CONTINUOUS
 62
    30
 10
0.0
 20
200.0
 30
0.0
  0
POINT
  5
3A6
  8
DEFPOINTS
  6
CONTINUOUS
 62
    30
 10
247.6
 20
200.0
 30
0.0
  0
LINE
  5
3A7
  8
SIZE
  6
CONTINUOUS
 62
    30
 10
10.0
 20
1900.0
 30
0.0
 11
360.1
 21
1900.0
 31
0.0
  0
LINE
  5
3A8
  8
SIZE
  6
CONTINUOUS
 62
    30
 10
-74.0
 20
0.0
 30
0.0
 11
360.1
 21
0.0
 31
0.0
  0
LINE
  5
3A9
  8
SIZE
  6
CONTINUOUS
 62
    30
 10
347.6
 20
1890.0
 30
0.0
 11
347.6
 21
10.0
 31
0.0
  0
CIRCLE
  5
3AA
  8
SIZE
  6
CONTINUOUS
 62
    30
 10
347.6
 20
1900.0
 30
0.0
 40
5.0
  0
LINE
  5
3AB
  8
SIZE
  6
CONTINUOUS
 62
    30
 10
347.6
 20
1900.0
 30
0.0
 11
347.6
 21
1890.0
 31
0.0
  0
CIRCLE
  5
3AC
  8
SIZE
  6
CONTINUOUS
 62
    30
 10
347.6
 20
0.0
 30
0.0
 40
5.0
  0
LINE
  5
3AD
  8
SIZE
  6
CONTINUOUS
 62
    30
 10
347.6
 20
0.0
 30
0.0
 11
347.6
 21
10.0
 31
0.0
  0
TEXT
  5
3AE
  8
SIZE
  6
CONTINUOUS
 62
    30
 10
337.6
 20
869.720049
 30
0.0
 40
30.0
  1
1900
 50
90.0
 72
     1
 11
337.6
 21
914.720049
 31
0.0
  0
POINT
  5
3AF
  8
DEFPOINTS
  6
CONTINUOUS
 62
    30
 10
0.0
 20
1900.0
 30
0.0
  0
POINT
  5
3B0
  8
DEFPOINTS
  6
CONTINUOUS
 62
    30
 10
-84.0
 20
0.0
 30
0.0
  0
POINT
  5
3B1
  8
DEFPOINTS
  6
CONTINUOUS
 62
    30
 10
347.6
 20
0.0
 30
0.0
  0
LINE
  5
3B2
  8
SIZE
  6
CONTINUOUS
 62
    30
 10
-1110.0
 20
0.0
 30
0.0
 11
-1214.9
 21
0.0
 31
0.0
  0
LINE
  5
3B3
  8
SIZE
  6
CONTINUOUS
 62
    30
 10
-1110.0
 20
2100.0
 30
0.0
 11
-1214.9
 21
2100.0
 31
0.0
  0
LINE
  5
3B4
  8
SIZE
  6
CONTINUOUS
 62
    30
 10
-1202.4
 20
10.0
 30
0.0
 11
-1202.4
 21
2090.0
 31
0.0
  0
CIRCLE
  5
3B5
  8
SIZE
  6
CONTINUOUS
 62
    30
 10
-1202.4
 20
0.0
 30
0.0
 40
5.0
  0
LINE
  5
3B6
  8
SIZE
  6
CONTINUOUS
 62
    30
 10
-1202.4
 20
0.0
 30
0.0
 11
-1202.4
 21
10.0
 31
0.0
  0
CIRCLE
  5
3B7
  8
SIZE
  6
CONTINUOUS
 62
    30
 10
-1202.4
 20
2100.0
 30
0.0
 40
5.0
  0
LINE
  5
3B8
  8
SIZE
  6
CONTINUOUS
 62
    30
 10
-1202.4
 20
2100.0
 30
0.0
 11
-1202.4
 21
2090.0
 31
0.0
  0
TEXT
  5
3B9
  8
SIZE
  6
CONTINUOUS
 62
    30
 10
-1212.4
 20
969.720049
 30
0.0
 40
30.0
  1
2100
 50
90.0
 72
     1
 11
-1212.4
 21
1014.720049
 31
0.0
  0
POINT
  5
3BA
  8
DEFPOINTS
  6
CONTINUOUS
 62
    30
 10
-1100.0
 20
0.0
 30
0.0
  0
POINT
  5
3BB
  8
DEFPOINTS
  6
CONTINUOUS
 62
    30
 10
-1100.0
 20
2100.0
 30
0.0
  0
POINT
  5
3BC
  8
DEFPOINTS
  6
CONTINUOUS
 62
    30
 10
-1202.4
 20
2100.0
 30
0.0
  0
LINE
  5
3BD
  8
NOTE
  6
CONTINUOUS
 10
-932.991943
 20
-234.780472
 30
0.0
 11
-709.741943
 21
-234.780472
 31
0.0
  0
LINE
  5
3BE
  8
NOTE
  6
CONTINUOUS
 10
-709.741943
 20
-234.780472
 30
0.0
 11
-447.0
 21
200.0
 31
0.0
  0
LINE
  5
3BF
  8
NOTE
  6
CONTINUOUS
 10
-447.0
 20
200.0
 30
0.0
 11
-447.556137
 21
198.078878
 31
0.0
  0
LINE
  5
3C0
  8
NOTE
  6
CONTINUOUS
 10
-447.0
 20
200.0
 30
0.0
 11
-448.44219
 21
198.614328
 31
0.0
  0
TEXT
  5
3C1
  8
NOTE
  6
CONTINUOUS
 10
-932.991943
 20
-233.780472
 30
0.0
 40
40.0
  1
HW φ39
 50
0.000003
 41
0.702586
  7
STANDARD1
  0
TEXT
  5
3C2
  8
NOTE
  6
CONTINUOUS
 10
-1002.25
 20
2155.0
 30
0.0
 40
40.0
  1
メンテナンススペース
 50
0.000003
 41
0.84375
  7
STANDARD1
  0
TEXT
  5
3C3
  8
NOTE
  6
CONTINUOUS
 10
-452.25
 20
2155.0
 30
0.0
 40
40.0
  1
メンテナンススペース
 50
0.000003
 41
0.84375
  7
STANDARD1
  0
LINE
  5
3C4
  8
NOTE
  6
CONTINUOUS
 10
594.253662
 20
2261.75415
 30
0.0
 11
338.003693
 21
2261.75415
 31
0.0
  0
LINE
  5
3C5
  8
NOTE
  6
CONTINUOUS
 10
338.003693
 20
2261.75415
 30
0.0
 11
100.0
 21
1923.0
 31
0.0
  0
LINE
  5
3C6
  8
NOTE
  6
CONTINUOUS
 10
100.0
 20
1923.0
 30
0.0
 11
100.687035
 21
1924.878293
 31
0.0
  0
LINE
  5
3C7
  8
NOTE
  6
CONTINUOUS
 10
100.0
 20
1923.0
 30
0.0
 11
101.534136
 21
1924.283132
 31
0.0
  0
TEXT
  5
3C8
  8
NOTE
  6
CONTINUOUS
 10
398.753693
 20
2262.75415
 30
0.0
 40
40.0
  1
AH 2-M10
 50
359.999996
 41
0.644737
  7
STANDARD1
  0
LINE
  5
3C9
  8
NOTE
  6
CONTINUOUS
 10
120.0
 20
1923.0
 30
0.0
 11
80.0
 21
1923.0
 31
0.0
  0
LINE
  5
3CA
  8
NOTE
  6
CONTINUOUS
 10
100.0
 20
1903.0
 30
0.0
 11
100.0
 21
1943.0
 31
0.0
  0
LINE
  5
3CB
  8
NOTE
  6
CONTINUOUS
 10
-939.203064
 20
-171.244659
 30
0.0
 11
-715.953064
 21
-171.244659
 31
0.0
  0
LINE
  5
3CC
  8
NOTE
  6
CONTINUOUS
 10
-715.953064
 20
-171.244659
 30
0.0
 11
-469.0
 21
200.0
 31
0.0
  0
LINE
  5
3CD
  8
NOTE
  6
CONTINUOUS
 10
-469.0
 20
200.0
 30
0.0
 11
-469.638976
 21
198.104819
 31
0.0
  0
LINE
  5
3CE
  8
NOTE
  6
CONTINUOUS
 10
-469.0
 20
200.0
 30
0.0
 11
-470.50096
 21
198.678214
 31
0.0
  0
TEXT
  5
3CF
  8
NOTE
  6
CONTINUOUS
 10
-939.203064
 20
-170.244659
 30
0.0
 40
40.0
  1
EL φ19
 41
0.702586
  7
STANDARD1
  0
LINE
  5
3D0
  8
NOTE
  6
CONTINUOUS
 10
-889.622681
 20
-309.207428
 30
0.0
 11
-666.372681
 21
-309.207428
 31
0.0
  0
LINE
  5
3D1
  8
NOTE
  6
CONTINUOUS
 10
-666.372681
 20
-309.207428
 30
0.0
 11
-447.0
 21
200.0
 31
0.0
  0
LINE
  5
3D2
  8
NOTE
  6
CONTINUOUS
 10
-447.0
 20
200.0
 30
0.0
 11
-447.288953
 21
198.020983
 31
0.0
  0
LINE
  5
3D3
  8
NOTE
  6
CONTINUOUS
 10
-447.0
 20
200.0
 30
0.0
 11
-448.239749
 21
198.430598
 31
0.0
  0
TEXT
  5
3D4
  8
NOTE
  6
CONTINUOUS
 10
-889.622681
 20
-308.207428
 30
0.0
 40
40.0
  1
CW φ39
 50
0.000003
 41
0.702586
  7
STANDARD1
  0
LINE
  5
3D5
  8
NOTE
  6
CONTINUOUS
 10
-815.542297
 20
-483.816589
 30
0.0
 11
-616.792297
 21
-483.816589
 31
0.0
  0
LINE
  5
3D6
  8
NOTE
  6
CONTINUOUS
 10
-616.792297
 20
-483.816589
 30
0.0
 11
-251.0
 21
174.0
 31
0.0
  0
LINE
  5
3D7
  8
NOTE
  6
CONTINUOUS
 10
-251.0
 20
174.0
 30
0.0
 11
-251.486456
 21
172.060062
 31
0.0
  0
LINE
  5
3D8
  8
NOTE
  6
CONTINUOUS
 10
-251.0
 20
174.0
 30
0.0
 11
-252.391252
 21
172.563192
 31
0.0
  0
TEXT
  5
3D9
  8
NOTE
  6
CONTINUOUS
 10
-815.542297
 20
-482.816559
 30
0.0
 40
40.0
  1
D φ18
 50
359.999992
 41
0.721354
  7
STANDARD1
  0
LINE
  5
3DA
  8
NOTE
  6
CONTINUOUS
 10
-440.0
 20
170.0
 30
0.0
 11
-400.0
 21
170.0
 31
0.0
  0
LINE
  5
3DB
  8
NOTE
  6
CONTINUOUS
 10
-1088.565918
 20
-404.056854
 30
0.0
 11
-644.815979
 21
-404.056854
 31
0.0
  0
LINE
  5
3DC
  8
NOTE
  6
CONTINUOUS
 10
-644.815979
 20
-404.056854
 30
0.0
 11
-420.0
 21
170.0
 31
0.0
  0
LINE
  5
3DD
  8
NOTE
  6
CONTINUOUS
 10
-420.0
 20
170.0
 30
0.0
 11
-420.222474
 21
168.012412
 31
0.0
  0
LINE
  5
3DE
  8
NOTE
  6
CONTINUOUS
 10
-420.0
 20
170.0
 30
0.0
 11
-421.186462
 21
168.389936
 31
0.0
  0
TEXT
  5
3DF
  8
NOTE
  6
CONTINUOUS
 10
-1088.56604
 20
-403.056854
 30
0.0
 40
40.0
  1
WD R11/2(φ48.6)
 41
0.647804
  7
STANDARD1
  0
LINE
  5
3E0
  8
NOTE
  6
CONTINUOUS
 10
-467.0
 20
200.0
 30
0.0
 11
-427.0
 21
200.0
 31
0.0
  0
LINE
  5
3E1
  8
NOTE
  6
CONTINUOUS
 10
-489.0
 20
200.0
 30
0.0
 11
-449.0
 21
200.0
 31
0.0
  0
LINE
  5
3E2
  8
NOTE
  6
CONTINUOUS
 10
-231.0
 20
174.0
 30
0.0
 11
-271.0
 21
174.0
 31
0.0
  0
LINE
  5
3E3
  8
NOTE
  6
CONTINUOUS
 10
-251.0
 20
194.0
 30
0.0
 11
-251.0
 21
154.0
 31
0.0
  0
LINE
  5
3E4
  8
NOTE
  6
CONTINUOUS
 10
-420.0
 20
190.0
 30
0.0
 11
-420.0
 21
150.0
 31
0.0
  0
LINE
  5
3E5
  8
NOTE
  6
CONTINUOUS
 10
-447.0
 20
220.0
 30
0.0
 11
-447.0
 21
180.0
 31
0.0
  0
LINE
  5
3E6
  8
NOTE
  6
CONTINUOUS
 10
-469.0
 20
220.0
 30
0.0
 11
-469.0
 21
180.0
 31
0.0
  0
TEXT
  5
3E7
  8
NOTE
  6
CONTINUOUS
 10
395.000031
 20
1797.75
 30
0.0
 40
40.0
  1
メンテナンススペース
 50
90.000005
 41
0.84375
  7
STANDARD1
  0
LINE
  5
3E8
  8
NOTE
  6
CONTINUOUS
 10
348.692902
 20
-465.729279
 30
0.0
 11
92.442909
 21
-465.729279
 31
0.0
  0
LINE
  5
3E9
  8
NOTE
  6
CONTINUOUS
 10
92.442909
 20
-465.729279
 30
0.0
 11
-99.0
 21
0.0
 31
0.0
  0
LINE
  5
3EA
  8
NOTE
  6
CONTINUOUS
 10
-99.0
 20
0.0
 30
0.0
 11
-97.786757
 21
-1.589981
 31
0.0
  0
LINE
  5
3EB
  8
NOTE
  6
CONTINUOUS
 10
-99.0
 20
0.0
 30
0.0
 11
-98.744291
 21
-1.983586
 31
0.0
  0
TEXT
  5
3EC
  8
NOTE
  6
CONTINUOUS
 10
153.192902
 20
-464.729279
 30
0.0
 40
40.0
  1
AH 3-M10
 50
359.999996
 41
0.644737
  7
STANDARD1
  0
TEXT
  5
3ED
  8
NOTE
  6
CONTINUOUS
 10
26.0509
 20
-331.594208
 30
0.0
 40
40.0
  1
（脚固定金具使用時のみ）
 50
0.000003
 41
0.84375
  7
STANDARD1
  0
LINE
  5
3EE
  8
NOTE
  6
CONTINUOUS
 10
352.3909
 20
-274.594208
 30
0.0
 11
96.1409
 21
-274.594208
 31
0.0
  0
LINE
  5
3EF
  8
NOTE
  6
CONTINUOUS
 10
96.1409
 20
-274.594208
 30
0.0
 11
-64.0
 21
0.0
 31
0.0
  0
LINE
  5
3F0
  8
NOTE
  6
CONTINUOUS
 10
-64.0
 20
0.0
 30
0.0
 11
-62.57962
 21
-1.408021
 31
0.0
  0
LINE
  5
3F1
  8
NOTE
  6
CONTINUOUS
 10
-64.0
 20
0.0
 30
0.0
 11
-63.473926
 21
-1.929571
 31
0.0
  0
TEXT
  5
3F2
  8
NOTE
  6
CONTINUOUS
 10
156.8909
 20
-273.594208
 30
0.0
 40
40.0
  1
AH 4-M10
 50
0.000003
 41
0.644737
  7
STANDARD1
  0
TEXT
  5
3F3
  8
NOTE
  6
CONTINUOUS
 10
-1155.0
 20
850.156738
 30
0.0
 40
40.0
  1
メンテナンススペース
 50
90.000005
 41
0.84375
  7
STANDARD1
  0
LINE
  5
3F4
  8
NOTE
  6
CONTINUOUS
 10
-378.0
 20
1906.0
 30
0.0
 11
-338.0
 21
1906.0
 31
0.0
  0
LINE
  5
3F5
  8
NOTE
  6
CONTINUOUS
 10
-358.0
 20
1886.0
 30
0.0
 11
-358.0
 21
1926.0
 31
0.0
  0
LINE
  5
3F6
  8
NOTE
  6
CONTINUOUS
 10
-433.0
 20
0.0
 30
0.0
 11
-393.0
 21
0.0
 31
0.0
  0
LINE
  5
3F7
  8
NOTE
  6
CONTINUOUS
 10
-413.0
 20
-20.0
 30
0.0
 11
-413.0
 21
20.0
 31
0.0
  0
LINE
  5
3F8
  8
NOTE
  6
CONTINUOUS
 10
-84.0
 20
0.0
 30
0.0
 11
-44.0
 21
0.0
 31
0.0
  0
LINE
  5
3F9
  8
NOTE
  6
CONTINUOUS
 10
-119.0
 20
0.0
 30
0.0
 11
-79.0
 21
0.0
 31
0.0
  0
LINE
  5
3FA
  8
NOTE
  6
CONTINUOUS
 10
-99.0
 20
-20.0
 30
0.0
 11
-99.0
 21
20.0
 31
0.0
  0
LINE
  5
3FB
  8
NOTE
  6
CONTINUOUS
 10
-64.0
 20
-20.0
 30
0.0
 11
-64.0
 21
20.0
 31
0.0
  0
LINE
  5
3FC
  8
NOTE
  6
CONTINUOUS
 10
229.252487
 20
2256.022461
 30
0.0
 11
6.002491
 21
2256.022461
 31
0.0
  0
LINE
  5
3FD
  8
NOTE
  6
CONTINUOUS
 10
6.002491
 20
2256.022461
 30
0.0
 11
-358.0
 21
1906.0
 31
0.0
  0
LINE
  5
3FE
  8
NOTE
  6
CONTINUOUS
 10
-358.0
 20
1906.0
 30
0.0
 11
-356.966286
 21
1907.712143
 31
0.0
  0
LINE
  5
3FF
  8
NOTE
  6
CONTINUOUS
 10
-358.0
 20
1906.0
 30
0.0
 11
-356.248706
 21
1906.965903
 31
0.0
  0
TEXT
  5
400
  8
NOTE
  6
CONTINUOUS
 10
66.752487
 20
2257.022461
 30
0.0
 40
40.0
  1
EL φ19
 50
0.000003
 41
0.702586
  7
STANDARD1
  0
CIRCLE
  5
401
  8
ARRANGE
  6
CONTINUOUS
 10
0.0
 20
0.0
 30
0.0
 40
15.0
  0
CIRCLE
  5
402
  8
FIX
  6
CONTINUOUS
 10
100.0
 20
1923.0
 30
0.0
 40
5.0
  0
CIRCLE
  5
403
  8
FIX
  6
CONTINUOUS
 10
-99.0
 20
0.0
 30
0.0
 40
5.0
  0
CIRCLE
  5
404
  8
FIX
  6
CONTINUOUS
 10
-64.0
 20
0.0
 30
0.0
 40
5.0
  0
CIRCLE
  5
405
  8
FIX
  6
CONTINUOUS
 10
-413.0
 20
0.0
 30
0.0
 40
5.0
  0
LINE
  5
406
  8
SERVICESPACE
  6
DASHDOT
 10
-500.0
 20
2100.0
 30
0.0
 11
-1100.0
 21
0.0
 31
0.0
  0
LINE
  5
407
  8
SERVICESPACE
  6
DASHDOT
 10
-1100.0
 20
2100.0
 30
0.0
 11
-500.0
 21
0.0
 31
0.0
  0
LINE
  5
408
  8
SERVICESPACE
  6
DASHDOT
 10
0.0
 20
2100.0
 30
0.0
 11
-500.0
 21
1900.0
 31
0.0
  0
LINE
  5
409
  8
SERVICESPACE
  6
DASHDOT
 10
-500.0
 20
2100.0
 30
0.0
 11
0.0
 21
1900.0
 31
0.0
  0
LINE
  5
40A
  8
SERVICESPACE
  6
DASHDOT
 10
0.0
 20
1900.0
 30
0.0
 11
0.0
 21
2100.0
 31
0.0
  0
LINE
  5
40B
  8
SERVICESPACE
  6
DASHDOT
 10
0.0
 20
1900.0
 30
0.0
 11
-500.0
 21
1900.0
 31
0.0
  0
LINE
  5
40C
  8
SERVICESPACE
  6
DASHDOT
 10
-1100.0
 20
2100.0
 30
0.0
 11
0.0
 21
2100.0
 31
0.0
  0
LINE
  5
40D
  8
SERVICESPACE
  6
DASHDOT
 10
-1100.0
 20
0.0
 30
0.0
 11
-500.0
 21
0.0
 31
0.0
  0
LINE
  5
40E
  8
SERVICESPACE
  6
DASHDOT
 10
-1100.0
 20
0.0
 30
0.0
 11
-1100.0
 21
2100.0
 31
0.0
  0
LINE
  5
40F
  8
SERVICESPACE
  6
DASHDOT
 10
-500.0
 20
0.0
 30
0.0
 11
-500.0
 21
2100.0
 31
0.0
  0
TEXT
  5
410
  8
ETC
  6
CONTINUOUS
 10
609.521912
 20
2016.777466
 30
0.0
 40
40.0
  1
TC15144
 50
0.000003
 41
0.6125
  7
STANDARD1
  0
TEXT
  5
411
  8
ETC
  6
CONTINUOUS
 10
609.521912
 20
1946.777466
 30
0.0
 40
40.0
  1
電気温水器
 50
0.000003
 41
0.84375
  7
STANDARD1
  0
ENDSEC
  0
EOF
