  0
SECTION
  2
HEADER
  9
$ACADVER
  1
AC1009
  9
$INSBASE
 10
0.0
 20
0.0
 30
0.0
  9
$EXTMIN
 10
-748.576844
 20
-615.15448
 30
0.0
  9
$EXTMAX
 10
1066.783996
 20
2287.4
 30
0.0
  9
$LIMMIN
 10
0.0
 20
0.0
  9
$LIMMAX
 10
12.0
 20
9.0
  9
$ORTHOMODE
 70
     0
  9
$REGENMODE
 70
     1
  9
$FILLMODE
 70
     1
  9
$QTEXTMODE
 70
     0
  9
$MIRRTEXT
 70
     1
  9
$DRAGMODE
 70
     2
  9
$LTSCALE
 40
1.0
  9
$OSMODE
 70
     0
  9
$ATTMODE
 70
     1
  9
$TEXTSIZE
 40
40.0
  9
$TRACEWID
 40
0.05
  9
$TEXTSTYLE
  7
STANDARD1
  9
$CLAYER
  8
0
  9
$CELTYPE
  6
CONTINUOUS
  9
$CECOLOR
 62
   256
  9
$DIMSCALE
 40
1.0
  9
$DIMASZ
 40
10.0
  9
$DIMEXO
 40
10.0
  9
$DIMDLI
 40
8.0
  9
$DIMRND
 40
0.0
  9
$DIMDLE
 40
0.0
  9
$DIMEXE
 40
12.5
  9
$DIMTP
 40
0.0
  9
$DIMTM
 40
0.0
  9
$DIMTXT
 40
30.0
  9
$DIMCEN
 40
2.5
  9
$DIMTSZ
 40
0.0
  9
$DIMTOL
 70
     0
  9
$DIMLIM
 70
     0
  9
$DIMTIH
 70
     0
  9
$DIMTOH
 70
     0
  9
$DIMSE1
 70
     0
  9
$DIMSE2
 70
     0
  9
$DIMTAD
 70
     3
  9
$DIMZIN
 70
    12
  9
$DIMBLK
  1

  9
$DIMASO
 70
     1
  9
$DIMSHO
 70
     1
  9
$DIMPOST
  1

  9
$DIMAPOST
  1

  9
$DIMALT
 70
     0
  9
$DIMALTD
 70
     4
  9
$DIMALTF
 40
25.4
  9
$DIMLFAC
 40
1.0
  9
$DIMTOFL
 70
     1
  9
$DIMTVP
 40
0.0
  9
$DIMTIX
 70
     0
  9
$DIMSOXD
 70
     0
  9
$DIMSAH
 70
     1
  9
$DIMBLK1
  1
_ORIGIN
  9
$DIMBLK2
  1
_ORIGIN
  9
$DIMSTYLE
  2
STANDARD
  9
$DIMCLRD
 70
     0
  9
$DIMCLRE
 70
     0
  9
$DIMCLRT
 70
     0
  9
$DIMTFAC
 40
1.0
  9
$DIMGAP
 40
0.09
  9
$LUNITS
 70
     2
  9
$LUPREC
 70
     3
  9
$SKETCHINC
 40
0.1
  9
$FILLETRAD
 40
0.0
  9
$AUNITS
 70
     0
  9
$AUPREC
 70
     0
  9
$MENU
  1
acad
  9
$ELEVATION
 40
0.0
  9
$PELEVATION
 40
0.0
  9
$THICKNESS
 40
0.0
  9
$LIMCHECK
 70
     0
  9
$BLIPMODE
 70
     0
  9
$CHAMFERA
 40
0.0
  9
$CHAMFERB
 40
0.0
  9
$SKPOLY
 70
     0
  9
$TDCREATE
 40
2451879.507882
  9
$TDUPDATE
 40
2451879.507882
  9
$TDINDWG
 40
0.0
  9
$TDUSRTIMER
 40
0.0
  9
$USRTIMER
 70
     1
  9
$ANGBASE
 50
0.0
  9
$ANGDIR
 70
     0
  9
$PDMODE
 70
     0
  9
$PDSIZE
 40
0.0
  9
$PLINEWID
 40
0.0
  9
$COORDS
 70
     1
  9
$SPLFRAME
 70
     0
  9
$SPLINETYPE
 70
     6
  9
$SPLINESEGS
 70
     8
  9
$ATTDIA
 70
     0
  9
$ATTREQ
 70
     1
  9
$HANDLING
 70
     1
  9
$HANDSEED
  5
385
  9
$SURFTAB1
 70
     6
  9
$SURFTAB2
 70
     6
  9
$SURFTYPE
 70
     6
  9
$SURFU
 70
     6
  9
$SURFV
 70
     6
  9
$UCSNAME
  2

  9
$UCSORG
 10
0.0
 20
0.0
 30
0.0
  9
$UCSXDIR
 10
1.0
 20
0.0
 30
0.0
  9
$UCSYDIR
 10
0.0
 20
1.0
 30
0.0
  9
$PUCSNAME
  2

  9
$PUCSORG
 10
0.0
 20
0.0
 30
0.0
  9
$PUCSXDIR
 10
1.0
 20
0.0
 30
0.0
  9
$PUCSYDIR
 10
0.0
 20
1.0
 30
0.0
  9
$USERI1
 70
     0
  9
$USERI2
 70
     0
  9
$USERI3
 70
     0
  9
$USERI4
 70
     0
  9
$USERI5
 70
     0
  9
$USERR1
 40
0.0
  9
$USERR2
 40
0.0
  9
$USERR3
 40
0.0
  9
$USERR4
 40
0.0
  9
$USERR5
 40
0.0
  9
$WORLDVIEW
 70
     1
  9
$SHADEDGE
 70
     3
  9
$SHADEDIF
 70
    70
  9
$TILEMODE
 70
     1
  9
$MAXACTVP
 70
    48
  9
$PLIMCHECK
 70
     0
  9
$PEXTMIN
 10
1.000000E+020
 20
1.000000E+020
 30
1.000000E+020
  9
$PEXTMAX
 10
-1.000000E+020
 20
-1.000000E+020
 30
-1.000000E+020
  9
$PLIMMIN
 10
0.0
 20
0.0
  9
$PLIMMAX
 10
12.0
 20
9.0
  9
$UNITMODE
 70
     0
  9
$VISRETAIN
 70
     1
  9
$PLINEGEN
 70
     0
  9
$PSLTSCALE
 70
     1
  0
ENDSEC
  0
SECTION
  2
TABLES
  0
TABLE
  2
VPORT
 70
     2
  0
VPORT
  2
*ACTIVE
 70
     0
 10
0.0
 20
0.0
 11
1.0
 21
1.0
 12
159.103576
 22
836.12276
 13
0.0
 23
0.0
 14
1.0
 24
1.0
 15
0.0
 25
0.0
 16
0.0
 26
0.0
 36
1.0
 17
0.0
 27
0.0
 37
0.0
 40
2958.017304
 41
2.827476
 42
50.0
 43
0.0
 44
0.0
 50
0.0
 51
0.0
 71
     0
 72
   100
 73
     1
 74
     1
 75
     0
 76
     0
 77
     0
 78
     0
  0
ENDTAB
  0
TABLE
  2
LTYPE
 70
     4
  0
LTYPE
  2
CONTINUOUS
 70
     0
  3
Solid line
 72
    65
 73
     0
 40
0.0
  0
LTYPE
  2
DASHED
 70
     0
  3
-- -- -- -- -- -- -- -- -- -- -- -- -- -- --
 72
    65
 73
     2
 40
0.75
 49
0.5
 49
-0.25
  0
LTYPE
  2
DASHDOT
 70
     0
  3
__ . __ . __ . __ . __ . __ . __ . __ . __ . __
 72
    65
 73
     4
 40
125.0
 49
80.0
 49
-20.0
 49
5.0
 49
-20.0
  0
LTYPE
  2
DIVIDE
 70
     0
  3
__ . . __ . . __ . . __ . . __ . . __ . . __
 72
    65
 73
     6
 40
1.25
 49
0.5
 49
-0.25
 49
0.0
 49
-0.25
 49
0.0
 49
-0.25
  0
ENDTAB
  0
TABLE
  2
LAYER
 70
    12
  0
LAYER
  2
0
 70
     0
 62
     3
  6
CONTINUOUS
  0
LAYER
  2
OUTLINE
 70
     0
 62
     3
  6
CONTINUOUS
  0
LAYER
  2
DETAIL
 70
     0
 62
     5
  6
CONTINUOUS
  0
LAYER
  2
BASIS
 70
     0
 62
     6
  6
CONTINUOUS
  0
LAYER
  2
SIZE
 70
     0
 62
    30
  6
CONTINUOUS
  0
LAYER
  2
NOTE
 70
     0
 62
     4
  6
CONTINUOUS
  0
LAYER
  2
ARRANGE
 70
     0
 62
     1
  6
CONTINUOUS
  0
LAYER
  2
FIX
 70
     0
 62
    11
  6
CONTINUOUS
  0
LAYER
  2
SERVICESPACE
 70
     0
 62
     2
  6
CONTINUOUS
  0
LAYER
  2
ETC
 70
     0
 62
    61
  6
CONTINUOUS
  0
LAYER
  2
SYMBOLLINE
 70
     0
 62
     7
  6
CONTINUOUS
  0
LAYER
  2
DEFPOINTS
 70
     0
 62
     7
  6
CONTINUOUS
  0
ENDTAB
  0
TABLE
  2
STYLE
 70
     5
  0
STYLE
  2
STANDARD
 70
     0
 40
0.0
 41
1.0
 50
0.0
 71
     0
 42
0.2
  3
txt
  4

  0
STYLE
  2
STANDARD1
 70
     0
 40
0.0
 41
1.0
 50
0.0
 71
     0
 42
40.0
  3
MONOTXT
  4
BIGFONT
  0
STYLE
  2
STANDARD2
 70
     4
 40
0.0
 41
1.0
 50
0.0
 71
     0
 42
40.0
  3
MONOTXT
  4
BIGFONT
  0
STYLE
  2
STANDARD3
 70
     0
 40
0.0
 41
1.0
 50
0.0
 71
     0
 42
40.0
  3
MONOTXT
  4

  0
STYLE
  2
STANDARD4
 70
     4
 40
0.0
 41
1.0
 50
0.0
 71
     0
 42
40.0
  3
MONOTXT
  4

  0
ENDTAB
  0
TABLE
  2
VIEW
 70
     0
  0
ENDTAB
  0
TABLE
  2
UCS
 70
     0
  0
ENDTAB
  0
TABLE
  2
APPID
 70
     1
  0
APPID
  2
ACAD
 70
     0
  0
ENDTAB
  0
TABLE
  2
DIMSTYLE
 70
     1
  0
DIMSTYLE
  2
STANDARD
 70
     0
  3

  4

  5

  6

  7

 40
1.0
 41
0.18
 42
0.0625
 43
0.38
 44
0.18
 45
0.0
 46
0.0
 47
0.0
 48
0.0
140
0.18
141
0.09
142
0.0
143
25.4
144
1.0
145
0.0
146
1.0
147
0.09
 71
     0
 72
     0
 73
     1
 74
     1
 75
     0
 76
     0
 77
     0
 78
     0
170
     0
171
     2
172
     0
173
     0
174
     0
175
     0
176
     0
177
     0
178
     0
  0
ENDTAB
  0
ENDSEC
  0
SECTION
  2
BLOCKS
  0
BLOCK
  8
0
  2
$MODEL_SPACE
 70
     0
 10
0.0
 20
0.0
 30
0.0
  3
$MODEL_SPACE
  1

  0
ENDBLK
  5
1A
  8
0
  0
BLOCK
 67
     1
  8
0
  2
$PAPER_SPACE
 70
     0
 10
0.0
 20
0.0
 30
0.0
  3
$PAPER_SPACE
  1

  0
ENDBLK
  5
17
 67
     1
  8
0
  0
BLOCK
  8
SIZE
  2
*D0
 70
     1
 10
0.0
 20
0.0
 30
0.0
  3
*D0
  1

  0
TEXT
  5
35
  8
SIZE
  6
CONTINUOUS
 10
521.499976
 20
84.059998
 30
0.0
 40
2.8
  1
174
 50
90.000005
 41
0.7
  7
STANDARD1
  0
LINE
  5
36
  8
SIZE
  6
CONTINUOUS
 10
208.0
 20
174.0
 30
0.0
 11
524.5
 21
174.0
 31
0.0
  0
LINE
  5
37
  8
SIZE
  6
CONTINUOUS
 10
231.0
 20
0.0
 30
0.0
 11
524.5
 21
0.0
 31
0.0
  0
LINE
  5
38
  8
SIZE
  6
CONTINUOUS
 10
522.5
 20
174.0
 30
0.0
 11
522.5
 21
0.0
 31
0.0
  0
INSERT
  5
3A
  8
SIZE
  2
DOT
 10
522.5
 20
174.0
 30
0.0
 50
90.0
  0
INSERT
  5
3B
  8
SIZE
  2
DOT
 10
522.5
 20
0.0
 30
0.0
 50
270.0
  0
POINT
  5
3C
  8
DEFPOINTS
  6
BYBLOCK
 10
230.0
 20
0.0
 30
0.0
  0
POINT
  5
3D
  8
DEFPOINTS
  6
BYBLOCK
 10
207.0
 20
174.0
 30
0.0
  0
POINT
  5
3E
  8
DEFPOINTS
  6
BYBLOCK
 10
522.5
 20
174.0
 30
0.0
  0
ENDBLK
  5
3F
  8
SIZE
  0
BLOCK
  8
SIZE
  2
DOT
 70
     0
 10
0.0
 20
0.0
 30
0.0
  3
DOT
  1

  0
POLYLINE
  5
41
  8
0
  6
BYBLOCK
 66
     1
 10
0.0
 20
0.0
 30
0.0
 70
     1
 40
0.5
 41
0.5
  0
VERTEX
  5
42
  8
0
  6
BYBLOCK
 10
-0.25
 20
0.0
 30
0.0
 42
1.0
  0
VERTEX
  5
43
  8
0
  6
BYBLOCK
 10
0.25
 20
0.0
 30
0.0
 42
1.0
  0
SEQEND
  5
44
  8
0
  6
BYBLOCK
  0
LINE
  5
45
  8
0
  6
BYBLOCK
 10
-0.5
 20
0.0
 30
0.0
 11
-1.0
 21
0.0
 31
0.0
  0
ENDBLK
  5
46
  8
SIZE
  0
BLOCK
  8
SIZE
  2
*D2
 70
     1
 10
0.0
 20
0.0
 30
0.0
  3
*D2
  1

  0
TEXT
  5
49
  8
SIZE
  6
CONTINUOUS
 10
-2.94
 20
-349.000006
 30
0.0
 40
2.8
  1
336
 50
0.000003
 41
0.7
  7
STANDARD1
  0
LINE
  5
4A
  8
SIZE
  6
CONTINUOUS
 10
-168.0
 20
-21.0
 30
0.0
 11
-168.0
 21
-352.0
 31
0.0
  0
LINE
  5
4B
  8
SIZE
  6
CONTINUOUS
 10
168.0
 20
-21.0
 30
0.0
 11
168.0
 21
-352.0
 31
0.0
  0
LINE
  5
4C
  8
SIZE
  6
CONTINUOUS
 10
-168.0
 20
-350.0
 30
0.0
 11
168.0
 21
-350.0
 31
0.0
  0
INSERT
  5
4D
  8
SIZE
  2
DOT
 10
-168.0
 20
-350.0
 30
0.0
 50
180.0
  0
INSERT
  5
4E
  8
SIZE
  2
DOT
 10
168.0
 20
-350.0
 30
0.0
  0
POINT
  5
4F
  8
DEFPOINTS
  6
BYBLOCK
 10
168.0
 20
-20.0
 30
0.0
  0
POINT
  5
50
  8
DEFPOINTS
  6
BYBLOCK
 10
-168.0
 20
-20.0
 30
0.0
  0
POINT
  5
51
  8
DEFPOINTS
  6
BYBLOCK
 10
-168.0
 20
-350.0
 30
0.0
  0
ENDBLK
  5
52
  8
SIZE
  0
BLOCK
  8
SIZE
  2
*D3
 70
     1
 10
0.0
 20
0.0
 30
0.0
  3
*D3
  1

  0
TEXT
  5
55
  8
SIZE
  6
CONTINUOUS
 10
-169.960007
 20
-249.000006
 30
0.0
 40
2.8
  1
94
 50
0.000003
 41
0.7
  7
STANDARD1
  0
LINE
  5
56
  8
SIZE
  6
CONTINUOUS
 10
-121.0
 20
-21.0
 30
0.0
 11
-121.0
 21
-252.0
 31
0.0
  0
LINE
  5
57
  8
SIZE
  6
CONTINUOUS
 10
-215.0
 20
-21.0
 30
0.0
 11
-215.0
 21
-252.0
 31
0.0
  0
LINE
  5
58
  8
SIZE
  6
CONTINUOUS
 10
-121.0
 20
-250.0
 30
0.0
 11
-215.0
 21
-250.0
 31
0.0
  0
INSERT
  5
59
  8
SIZE
  2
DOT
 10
-121.0
 20
-250.0
 30
0.0
  0
INSERT
  5
5A
  8
SIZE
  2
DOT
 10
-215.0
 20
-250.0
 30
0.0
 50
180.0
  0
POINT
  5
5B
  8
DEFPOINTS
  6
BYBLOCK
 10
-215.0
 20
-20.0
 30
0.0
  0
POINT
  5
5C
  8
DEFPOINTS
  6
BYBLOCK
 10
-121.0
 20
-20.0
 30
0.0
  0
POINT
  5
5D
  8
DEFPOINTS
  6
BYBLOCK
 10
-121.0
 20
-250.0
 30
0.0
  0
ENDBLK
  5
5E
  8
SIZE
  0
BLOCK
  8
SIZE
  2
*D4
 70
     1
 10
0.0
 20
0.0
 30
0.0
  3
*D4
  1

  0
TEXT
  5
61
  8
SIZE
  6
CONTINUOUS
 10
166.039993
 20
-249.000006
 30
0.0
 40
2.8
  1
94
 50
0.000003
 41
0.7
  7
STANDARD1
  0
LINE
  5
62
  8
SIZE
  6
CONTINUOUS
 10
121.0
 20
-21.0
 30
0.0
 11
121.0
 21
-252.0
 31
0.0
  0
LINE
  5
63
  8
SIZE
  6
CONTINUOUS
 10
215.0
 20
-21.0
 30
0.0
 11
215.0
 21
-252.0
 31
0.0
  0
LINE
  5
64
  8
SIZE
  6
CONTINUOUS
 10
121.0
 20
-250.0
 30
0.0
 11
215.0
 21
-250.0
 31
0.0
  0
INSERT
  5
65
  8
SIZE
  2
DOT
 10
121.0
 20
-250.0
 30
0.0
 50
180.0
  0
INSERT
  5
66
  8
SIZE
  2
DOT
 10
215.0
 20
-250.0
 30
0.0
  0
POINT
  5
67
  8
DEFPOINTS
  6
BYBLOCK
 10
215.0
 20
-20.0
 30
0.0
  0
POINT
  5
68
  8
DEFPOINTS
  6
BYBLOCK
 10
121.0
 20
-20.0
 30
0.0
  0
POINT
  5
69
  8
DEFPOINTS
  6
BYBLOCK
 10
121.0
 20
-250.0
 30
0.0
  0
ENDBLK
  5
6A
  8
SIZE
  0
BLOCK
  8
SIZE
  2
*D5
 70
     1
 10
0.0
 20
0.0
 30
0.0
  3
*D5
  1

  0
TEXT
  5
6D
  8
SIZE
  6
CONTINUOUS
 10
421.500006
 20
82.059998
 30
0.0
 40
2.8
  1
170
 50
90.000005
 41
0.7
  7
STANDARD1
  0
LINE
  5
6E
  8
SIZE
  6
CONTINUOUS
 10
208.0
 20
170.0
 30
0.0
 11
424.5
 21
170.0
 31
0.0
  0
LINE
  5
6F
  8
SIZE
  6
CONTINUOUS
 10
231.0
 20
0.0
 30
0.0
 11
424.5
 21
0.0
 31
0.0
  0
LINE
  5
70
  8
SIZE
  6
CONTINUOUS
 10
422.5
 20
170.0
 30
0.0
 11
422.5
 21
0.0
 31
0.0
  0
INSERT
  5
71
  8
SIZE
  2
DOT
 10
422.5
 20
170.0
 30
0.0
 50
90.0
  0
INSERT
  5
72
  8
SIZE
  2
DOT
 10
422.5
 20
0.0
 30
0.0
 50
270.0
  0
POINT
  5
73
  8
DEFPOINTS
  6
BYBLOCK
 10
230.0
 20
0.0
 30
0.0
  0
POINT
  5
74
  8
DEFPOINTS
  6
BYBLOCK
 10
207.0
 20
170.0
 30
0.0
  0
POINT
  5
75
  8
DEFPOINTS
  6
BYBLOCK
 10
422.5
 20
170.0
 30
0.0
  0
ENDBLK
  5
76
  8
SIZE
  0
BLOCK
  8
SIZE
  2
*D6
 70
     1
 10
0.0
 20
0.0
 30
0.0
  3
*D6
  1

  0
TEXT
  5
79
  8
SIZE
  6
CONTINUOUS
 10
-230.960007
 20
-149.000006
 30
0.0
 40
2.8
  1
87
 50
0.000003
 41
0.7
  7
STANDARD1
  0
LINE
  5
7A
  8
SIZE
  6
CONTINUOUS
 10
-185.5
 20
179.0
 30
0.0
 11
-185.5
 21
-152.0
 31
0.0
  0
LINE
  5
7B
  8
SIZE
  6
CONTINUOUS
 10
-272.5
 20
199.0
 30
0.0
 11
-272.5
 21
-152.0
 31
0.0
  0
LINE
  5
7C
  8
SIZE
  6
CONTINUOUS
 10
-185.5
 20
-150.0
 30
0.0
 11
-272.5
 21
-150.0
 31
0.0
  0
INSERT
  5
7D
  8
SIZE
  2
DOT
 10
-185.5
 20
-150.0
 30
0.0
  0
INSERT
  5
7E
  8
SIZE
  2
DOT
 10
-272.5
 20
-150.0
 30
0.0
 50
180.0
  0
POINT
  5
7F
  8
DEFPOINTS
  6
BYBLOCK
 10
-272.5
 20
200.0
 30
0.0
  0
POINT
  5
80
  8
DEFPOINTS
  6
BYBLOCK
 10
-185.5
 20
180.0
 30
0.0
  0
POINT
  5
81
  8
DEFPOINTS
  6
BYBLOCK
 10
-185.5
 20
-150.0
 30
0.0
  0
ENDBLK
  5
82
  8
SIZE
  0
BLOCK
  8
SIZE
  2
*D7
 70
     1
 10
0.0
 20
0.0
 30
0.0
  3
*D7
  1

  0
TEXT
  5
85
  8
SIZE
  6
CONTINUOUS
 10
34.040001
 20
-149.000006
 30
0.0
 40
2.8
  1
72
 50
0.000003
 41
0.7
  7
STANDARD1
  0
LINE
  5
86
  8
SIZE
  6
CONTINUOUS
 10
0.0
 20
-39.687809
 30
0.0
 11
0.0
 21
-152.0
 31
0.0
  0
LINE
  5
87
  8
SIZE
  6
CONTINUOUS
 10
72.0
 20
179.0
 30
0.0
 11
72.0
 21
-152.0
 31
0.0
  0
LINE
  5
88
  8
SIZE
  6
CONTINUOUS
 10
0.0
 20
-150.0
 30
0.0
 11
72.0
 21
-150.0
 31
0.0
  0
INSERT
  5
89
  8
SIZE
  2
DOT
 10
0.0
 20
-150.0
 30
0.0
 50
180.0
  0
INSERT
  5
8A
  8
SIZE
  2
DOT
 10
72.0
 20
-150.0
 30
0.0
  0
POINT
  5
8B
  8
DEFPOINTS
  6
BYBLOCK
 10
72.0
 20
180.0
 30
0.0
  0
POINT
  5
8C
  8
DEFPOINTS
  6
BYBLOCK
 10
0.0
 20
-38.687809
 30
0.0
  0
POINT
  5
8D
  8
DEFPOINTS
  6
BYBLOCK
 10
0.0
 20
-150.0
 30
0.0
  0
ENDBLK
  5
8E
  8
SIZE
  0
BLOCK
  8
SIZE
  2
*D8
 70
     1
 10
0.0
 20
0.0
 30
0.0
  3
*D8
  1

  0
TEXT
  5
91
  8
SIZE
  6
CONTINUOUS
 10
126.559998
 20
-149.000006
 30
0.0
 40
2.8
  1
115
 50
0.000003
 41
0.7
  7
STANDARD1
  0
LINE
  5
92
  8
SIZE
  6
CONTINUOUS
 10
72.0
 20
179.0
 30
0.0
 11
72.0
 21
-152.0
 31
0.0
  0
LINE
  5
93
  8
SIZE
  6
CONTINUOUS
 10
187.0
 20
149.0
 30
0.0
 11
187.0
 21
-152.0
 31
0.0
  0
LINE
  5
94
  8
SIZE
  6
CONTINUOUS
 10
72.0
 20
-150.0
 30
0.0
 11
187.0
 21
-150.0
 31
0.0
  0
INSERT
  5
95
  8
SIZE
  2
DOT
 10
72.0
 20
-150.0
 30
0.0
 50
180.0
  0
INSERT
  5
96
  8
SIZE
  2
DOT
 10
187.0
 20
-150.0
 30
0.0
  0
POINT
  5
97
  8
DEFPOINTS
  6
BYBLOCK
 10
187.0
 20
150.0
 30
0.0
  0
POINT
  5
98
  8
DEFPOINTS
  6
BYBLOCK
 10
72.0
 20
180.0
 30
0.0
  0
POINT
  5
99
  8
DEFPOINTS
  6
BYBLOCK
 10
72.0
 20
-150.0
 30
0.0
  0
ENDBLK
  5
9A
  8
SIZE
  0
BLOCK
  8
SIZE
  2
*D9
 70
     1
 10
0.0
 20
0.0
 30
0.0
  3
*D9
  1

  0
TEXT
  5
9D
  8
SIZE
  6
CONTINUOUS
 10
-76.940002
 20
-149.000006
 30
0.0
 40
2.8
  1
148
 50
0.000003
 41
0.7
  7
STANDARD1
  0
LINE
  5
9E
  8
SIZE
  6
CONTINUOUS
 10
0.0
 20
-39.687809
 30
0.0
 11
0.0
 21
-152.0
 31
0.0
  0
LINE
  5
9F
  8
SIZE
  6
CONTINUOUS
 10
-148.0
 20
179.0
 30
0.0
 11
-148.0
 21
-152.0
 31
0.0
  0
LINE
  5
A0
  8
SIZE
  6
CONTINUOUS
 10
0.0
 20
-150.0
 30
0.0
 11
-148.0
 21
-150.0
 31
0.0
  0
INSERT
  5
A1
  8
SIZE
  2
DOT
 10
0.0
 20
-150.0
 30
0.0
  0
INSERT
  5
A2
  8
SIZE
  2
DOT
 10
-148.0
 20
-150.0
 30
0.0
 50
180.0
  0
POINT
  5
A3
  8
DEFPOINTS
  6
BYBLOCK
 10
-148.0
 20
180.0
 30
0.0
  0
POINT
  5
A4
  8
DEFPOINTS
  6
BYBLOCK
 10
0.0
 20
-38.687809
 30
0.0
  0
POINT
  5
A5
  8
DEFPOINTS
  6
BYBLOCK
 10
0.0
 20
-150.0
 30
0.0
  0
ENDBLK
  5
A6
  8
SIZE
  0
BLOCK
  8
SIZE
  2
*D10
 70
     1
 10
0.0
 20
0.0
 30
0.0
  3
*D10
  1

  0
TEXT
  5
A9
  8
SIZE
  6
CONTINUOUS
 10
-0.387734
 20
2046.000024
 30
0.0
 40
2.8
  1
60
 50
0.000003
 41
0.7
  7
STANDARD1
  0
LINE
  5
AA
  8
SIZE
  6
CONTINUOUS
 10
30.0
 20
1952.506348
 30
0.0
 11
30.0
 21
2047.0
 31
0.0
  0
LINE
  5
AB
  8
SIZE
  6
CONTINUOUS
 10
-30.0
 20
1952.506348
 30
0.0
 11
-30.0
 21
2047.0
 31
0.0
  0
LINE
  5
AC
  8
SIZE
  6
CONTINUOUS
 10
30.0
 20
2045.0
 30
0.0
 11
-30.0
 21
2045.0
 31
0.0
  0
INSERT
  5
AD
  8
SIZE
  2
DOT
 10
30.0
 20
2045.0
 30
0.0
  0
INSERT
  5
AE
  8
SIZE
  2
DOT
 10
-30.0
 20
2045.0
 30
0.0
 50
180.0
  0
POINT
  5
AF
  8
DEFPOINTS
  6
BYBLOCK
 10
-30.0
 20
1951.506348
 30
0.0
  0
POINT
  5
B0
  8
DEFPOINTS
  6
BYBLOCK
 10
30.0
 20
1951.506348
 30
0.0
  0
POINT
  5
B1
  8
DEFPOINTS
  6
BYBLOCK
 10
30.0
 20
2045.0
 30
0.0
  0
ENDBLK
  5
B2
  8
SIZE
  0
BLOCK
  8
SIZE
  2
*D11
 70
     1
 10
0.0
 20
0.0
 30
0.0
  3
*D11
  1

  0
TEXT
  5
B5
  8
SIZE
  6
CONTINUOUS
 10
-3.137734
 20
2145.999902
 30
0.0
 40
2.8
  1
90
 50
0.000003
 41
0.7
  7
STANDARD1
  0
LINE
  5
B6
  8
SIZE
  6
CONTINUOUS
 10
-45.0
 20
1941.0
 30
0.0
 11
-45.0
 21
2147.0
 31
0.0
  0
LINE
  5
B7
  8
SIZE
  6
CONTINUOUS
 10
45.0
 20
1941.0
 30
0.0
 11
45.0
 21
2147.0
 31
0.0
  0
LINE
  5
B8
  8
SIZE
  6
CONTINUOUS
 10
-45.0
 20
2145.0
 30
0.0
 11
45.0
 21
2145.0
 31
0.0
  0
INSERT
  5
B9
  8
SIZE
  2
DOT
 10
-45.0
 20
2145.0
 30
0.0
 50
180.0
  0
INSERT
  5
BA
  8
SIZE
  2
DOT
 10
45.0
 20
2145.0
 30
0.0
  0
POINT
  5
BB
  8
DEFPOINTS
  6
BYBLOCK
 10
45.0
 20
1940.0
 30
0.0
  0
POINT
  5
BC
  8
DEFPOINTS
  6
BYBLOCK
 10
-45.0
 20
1940.0
 30
0.0
  0
POINT
  5
BD
  8
DEFPOINTS
  6
BYBLOCK
 10
-45.0
 20
2145.0
 30
0.0
  0
ENDBLK
  5
BE
  8
SIZE
  0
BLOCK
  8
SIZE
  2
*D12
 70
     1
 10
0.0
 20
0.0
 30
0.0
  3
*D12
  1

  0
TEXT
  5
C1
  8
SIZE
  6
CONTINUOUS
 10
-2.94
 20
2245.999902
 30
0.0
 40
2.8
  1
545
 50
0.000003
 41
0.7
  7
STANDARD1
  0
LINE
  5
C2
  8
SIZE
  6
CONTINUOUS
 10
272.5
 20
2101.0
 30
0.0
 11
272.5
 21
2247.0
 31
0.0
  0
LINE
  5
C3
  8
SIZE
  6
CONTINUOUS
 10
-272.5
 20
2101.0
 30
0.0
 11
-272.5
 21
2247.0
 31
0.0
  0
LINE
  5
C4
  8
SIZE
  6
CONTINUOUS
 10
272.5
 20
2245.0
 30
0.0
 11
-272.5
 21
2245.0
 31
0.0
  0
INSERT
  5
C5
  8
SIZE
  2
DOT
 10
272.5
 20
2245.0
 30
0.0
  0
INSERT
  5
C6
  8
SIZE
  2
DOT
 10
-272.5
 20
2245.0
 30
0.0
 50
180.0
  0
POINT
  5
C7
  8
DEFPOINTS
  6
BYBLOCK
 10
-272.5
 20
2100.0
 30
0.0
  0
POINT
  5
C8
  8
DEFPOINTS
  6
BYBLOCK
 10
272.5
 20
2100.0
 30
0.0
  0
POINT
  5
C9
  8
DEFPOINTS
  6
BYBLOCK
 10
272.5
 20
2245.0
 30
0.0
  0
ENDBLK
  5
CA
  8
SIZE
  0
BLOCK
  8
SIZE
  2
*D13
 70
     1
 10
0.0
 20
0.0
 30
0.0
  3
*D13
  1

  0
TEXT
  5
CD
  8
SIZE
  6
CONTINUOUS
 10
721.499976
 20
1997.060059
 30
0.0
 40
2.8
  1
200
 50
90.000005
 41
0.7
  7
STANDARD1
  0
LINE
  5
CE
  8
SIZE
  6
CONTINUOUS
 10
273.5
 20
2100.0
 30
0.0
 11
724.5
 21
2100.0
 31
0.0
  0
LINE
  5
CF
  8
SIZE
  6
CONTINUOUS
 10
273.5
 20
1900.0
 30
0.0
 11
724.5
 21
1900.0
 31
0.0
  0
LINE
  5
D0
  8
SIZE
  6
CONTINUOUS
 10
722.5
 20
2100.0
 30
0.0
 11
722.5
 21
1900.0
 31
0.0
  0
INSERT
  5
D1
  8
SIZE
  2
DOT
 10
722.5
 20
2100.0
 30
0.0
 50
90.0
  0
INSERT
  5
D2
  8
SIZE
  2
DOT
 10
722.5
 20
1900.0
 30
0.0
 50
270.0
  0
POINT
  5
D3
  8
DEFPOINTS
  6
BYBLOCK
 10
272.5
 20
1900.0
 30
0.0
  0
POINT
  5
D4
  8
DEFPOINTS
  6
BYBLOCK
 10
272.5
 20
2100.0
 30
0.0
  0
POINT
  5
D5
  8
DEFPOINTS
  6
BYBLOCK
 10
722.5
 20
2100.0
 30
0.0
  0
ENDBLK
  5
D6
  8
SIZE
  0
BLOCK
  8
SIZE
  2
*D14
 70
     1
 10
0.0
 20
0.0
 30
0.0
  3
*D14
  1

  0
TEXT
  5
D9
  8
SIZE
  6
CONTINUOUS
 10
621.499976
 20
1046.079956
 30
0.0
 40
2.8
  1
1700
 50
90.000005
 41
0.7
  7
STANDARD1
  0
LINE
  5
DA
  8
SIZE
  6
CONTINUOUS
 10
273.5
 20
1900.0
 30
0.0
 11
624.5
 21
1900.0
 31
0.0
  0
LINE
  5
DB
  8
SIZE
  6
CONTINUOUS
 10
273.5
 20
200.0
 30
0.0
 11
624.5
 21
200.0
 31
0.0
  0
LINE
  5
DC
  8
SIZE
  6
CONTINUOUS
 10
622.5
 20
1900.0
 30
0.0
 11
622.5
 21
200.0
 31
0.0
  0
INSERT
  5
DD
  8
SIZE
  2
DOT
 10
622.5
 20
1900.0
 30
0.0
 50
90.0
  0
INSERT
  5
DE
  8
SIZE
  2
DOT
 10
622.5
 20
200.0
 30
0.0
 50
270.0
  0
POINT
  5
DF
  8
DEFPOINTS
  6
BYBLOCK
 10
272.5
 20
200.0
 30
0.0
  0
POINT
  5
E0
  8
DEFPOINTS
  6
BYBLOCK
 10
272.5
 20
1900.0
 30
0.0
  0
POINT
  5
E1
  8
DEFPOINTS
  6
BYBLOCK
 10
622.5
 20
1900.0
 30
0.0
  0
ENDBLK
  5
E2
  8
SIZE
  0
BLOCK
  8
SIZE
  2
*D15
 70
     1
 10
0.0
 20
0.0
 30
0.0
  3
*D15
  1

  0
TEXT
  5
E5
  8
SIZE
  6
CONTINUOUS
 10
621.499976
 20
97.059998
 30
0.0
 40
2.8
  1
200
 50
90.000005
 41
0.7
  7
STANDARD1
  0
LINE
  5
E6
  8
SIZE
  6
CONTINUOUS
 10
201.0
 20
0.0
 30
0.0
 11
624.5
 21
0.0
 31
0.0
  0
LINE
  5
E7
  8
SIZE
  6
CONTINUOUS
 10
273.5
 20
200.0
 30
0.0
 11
624.5
 21
200.0
 31
0.0
  0
LINE
  5
E8
  8
SIZE
  6
CONTINUOUS
 10
622.5
 20
0.0
 30
0.0
 11
622.5
 21
200.0
 31
0.0
  0
INSERT
  5
E9
  8
SIZE
  2
DOT
 10
622.5
 20
0.0
 30
0.0
 50
270.0
  0
INSERT
  5
EA
  8
SIZE
  2
DOT
 10
622.5
 20
200.0
 30
0.0
 50
90.0
  0
POINT
  5
EB
  8
DEFPOINTS
  6
BYBLOCK
 10
272.5
 20
200.0
 30
0.0
  0
POINT
  5
EC
  8
DEFPOINTS
  6
BYBLOCK
 10
200.0
 20
0.0
 30
0.0
  0
POINT
  5
ED
  8
DEFPOINTS
  6
BYBLOCK
 10
622.5
 20
0.0
 30
0.0
  0
ENDBLK
  5
EE
  8
SIZE
  0
BLOCK
  8
SIZE
  2
*D16
 70
     1
 10
0.0
 20
0.0
 30
0.0
  3
*D16
  1

  0
TEXT
  5
F1
  8
SIZE
  6
CONTINUOUS
 10
721.499976
 20
946.080017
 30
0.0
 40
2.8
  1
1900
 50
90.000005
 41
0.7
  7
STANDARD1
  0
LINE
  5
F2
  8
SIZE
  6
CONTINUOUS
 10
201.0
 20
0.0
 30
0.0
 11
724.5
 21
0.0
 31
0.0
  0
LINE
  5
F3
  8
SIZE
  6
CONTINUOUS
 10
273.5
 20
1900.0
 30
0.0
 11
724.5
 21
1900.0
 31
0.0
  0
LINE
  5
F4
  8
SIZE
  6
CONTINUOUS
 10
722.5
 20
0.0
 30
0.0
 11
722.5
 21
1900.0
 31
0.0
  0
INSERT
  5
F5
  8
SIZE
  2
DOT
 10
722.5
 20
0.0
 30
0.0
 50
270.0
  0
INSERT
  5
F6
  8
SIZE
  2
DOT
 10
722.5
 20
1900.0
 30
0.0
 50
90.0
  0
POINT
  5
F7
  8
DEFPOINTS
  6
BYBLOCK
 10
272.5
 20
1900.0
 30
0.0
  0
POINT
  5
F8
  8
DEFPOINTS
  6
BYBLOCK
 10
200.0
 20
0.0
 30
0.0
  0
POINT
  5
F9
  8
DEFPOINTS
  6
BYBLOCK
 10
722.5
 20
0.0
 30
0.0
  0
ENDBLK
  5
FA
  8
SIZE
  0
BLOCK
  8
SIZE
  2
*D17
 70
     1
 10
0.0
 20
0.0
 30
0.0
  3
*D17
  1

  0
TEXT
  5
FD
  8
SIZE
  6
CONTINUOUS
 10
-373.499994
 20
957.580017
 30
0.0
 40
2.8
  1
1923
 50
90.000005
 41
0.7
  7
STANDARD1
  0
LINE
  5
FE
  8
SIZE
  6
CONTINUOUS
 10
-74.062012
 20
1923.0
 30
0.0
 11
-374.5
 21
1923.0
 31
0.0
  0
LINE
  5
FF
  8
SIZE
  6
CONTINUOUS
 10
-201.0
 20
0.0
 30
0.0
 11
-374.5
 21
0.0
 31
0.0
  0
LINE
  5
100
  8
SIZE
  6
CONTINUOUS
 10
-372.5
 20
1923.0
 30
0.0
 11
-372.5
 21
0.0
 31
0.0
  0
INSERT
  5
101
  8
SIZE
  2
DOT
 10
-372.5
 20
1923.0
 30
0.0
 50
90.0
  0
INSERT
  5
102
  8
SIZE
  2
DOT
 10
-372.5
 20
0.0
 30
0.0
 50
270.0
  0
POINT
  5
103
  8
DEFPOINTS
  6
BYBLOCK
 10
-200.0
 20
0.0
 30
0.0
  0
POINT
  5
104
  8
DEFPOINTS
  6
BYBLOCK
 10
-73.062012
 20
1923.0
 30
0.0
  0
POINT
  5
105
  8
DEFPOINTS
  6
BYBLOCK
 10
-372.5
 20
1923.0
 30
0.0
  0
ENDBLK
  5
106
  8
SIZE
  0
BLOCK
  8
SIZE
  2
*D18
 70
     1
 10
0.0
 20
0.0
 30
0.0
  3
*D18
  1

  0
TEXT
  5
109
  8
SIZE
  6
CONTINUOUS
 10
-473.499994
 20
922.716919
 30
0.0
 40
2.8
  1
1945
 50
90.000005
 41
0.7
  7
STANDARD1
  0
LINE
  5
10A
  8
SIZE
  6
CONTINUOUS
 10
-201.0
 20
0.0
 30
0.0
 11
-474.5
 21
0.0
 31
0.0
  0
LINE
  5
10B
  8
SIZE
  6
CONTINUOUS
 10
-41.0
 20
1945.0
 30
0.0
 11
-474.5
 21
1945.0
 31
0.0
  0
LINE
  5
10C
  8
SIZE
  6
CONTINUOUS
 10
-472.5
 20
0.0
 30
0.0
 11
-472.5
 21
1945.0
 31
0.0
  0
INSERT
  5
10D
  8
SIZE
  2
DOT
 10
-472.5
 20
0.0
 30
0.0
 50
270.0
  0
INSERT
  5
10E
  8
SIZE
  2
DOT
 10
-472.5
 20
1945.0
 30
0.0
 50
90.0
  0
POINT
  5
10F
  8
DEFPOINTS
  6
BYBLOCK
 10
-40.0
 20
1945.0
 30
0.0
  0
POINT
  5
110
  8
DEFPOINTS
  6
BYBLOCK
 10
-200.0
 20
0.0
 30
0.0
  0
POINT
  5
111
  8
DEFPOINTS
  6
BYBLOCK
 10
-472.5
 20
0.0
 30
0.0
  0
ENDBLK
  5
112
  8
SIZE
  0
BLOCK
  8
SIZE
  2
*D19
 70
     1
 10
0.0
 20
0.0
 30
0.0
  3
*D19
  1

  0
TEXT
  5
115
  8
SIZE
  6
CONTINUOUS
 10
-2.94
 20
-449.000006
 30
0.0
 40
2.8
  1
545
 50
0.000003
 41
0.7
  7
STANDARD1
  0
LINE
  5
116
  8
SIZE
  6
CONTINUOUS
 10
272.5
 20
199.0
 30
0.0
 11
272.5
 21
-452.0
 31
0.0
  0
LINE
  5
117
  8
SIZE
  6
CONTINUOUS
 10
-272.5
 20
199.0
 30
0.0
 11
-272.5
 21
-452.0
 31
0.0
  0
LINE
  5
118
  8
SIZE
  6
CONTINUOUS
 10
272.5
 20
-450.0
 30
0.0
 11
-272.5
 21
-450.0
 31
0.0
  0
INSERT
  5
119
  8
SIZE
  2
DOT
 10
272.5
 20
-450.0
 30
0.0
  0
INSERT
  5
11A
  8
SIZE
  2
DOT
 10
-272.5
 20
-450.0
 30
0.0
 50
180.0
  0
POINT
  5
11B
  8
DEFPOINTS
  6
BYBLOCK
 10
-272.5
 20
200.0
 30
0.0
  0
POINT
  5
11C
  8
DEFPOINTS
  6
BYBLOCK
 10
272.5
 20
200.0
 30
0.0
  0
POINT
  5
11D
  8
DEFPOINTS
  6
BYBLOCK
 10
272.5
 20
-450.0
 30
0.0
  0
ENDBLK
  5
11E
  8
SIZE
  0
BLOCK
  8
0
  2
_ORIGIN
 70
     0
 10
0.0
 20
0.0
 30
0.0
  3
_ORIGIN
  1

  0
CIRCLE
  5
121
  8
0
  6
BYBLOCK
 62
     0
 10
0.0
 20
0.0
 30
0.0
 40
0.5
  0
LINE
  5
122
  8
0
  6
BYBLOCK
 62
     0
 10
0.0
 20
0.0
 30
0.0
 11
-1.0
 21
0.0
 31
0.0
  0
ENDBLK
  5
123
  8
0
  0
BLOCK
  8
0
  2
*D21
 70
     1
 10
0.0
 20
0.0
 30
0.0
  3
*D21
  1

  0
LINE
  5
126
  8
0
  6
BYBLOCK
 62
     0
 10
-272.5
 20
190.0
 30
0.0
 11
-272.5
 21
-460.1
 31
0.0
  0
LINE
  5
127
  8
0
  6
BYBLOCK
 62
     0
 10
272.5
 20
190.0
 30
0.0
 11
272.5
 21
-460.1
 31
0.0
  0
LINE
  5
128
  8
0
  6
BYBLOCK
 62
     0
 10
-262.5
 20
-447.6
 30
0.0
 11
262.5
 21
-447.6
 31
0.0
  0
INSERT
  5
129
  8
0
  6
BYBLOCK
 62
     0
  2
_ORIGIN
 10
-272.5
 20
-447.6
 30
0.0
 41
10.0
 42
10.0
 43
10.0
 50
180.0
  0
INSERT
  5
12A
  8
0
  6
BYBLOCK
 62
     0
  2
_ORIGIN
 10
272.5
 20
-447.6
 30
0.0
 41
10.0
 42
10.0
 43
10.0
  0
TEXT
  5
12B
  8
0
  6
BYBLOCK
 62
     0
 10
-40.0
 20
-437.6
 30
0.0
 40
30.0
  1
545
 72
     1
 11
0.0
 21
-437.6
 31
0.0
  0
POINT
  5
12C
  8
DEFPOINTS
  6
BYBLOCK
 62
     0
 10
-272.5
 20
200.0
 30
0.0
  0
POINT
  5
12D
  8
DEFPOINTS
  6
BYBLOCK
 62
     0
 10
272.5
 20
200.0
 30
0.0
  0
POINT
  5
12E
  8
DEFPOINTS
  6
BYBLOCK
 62
     0
 10
272.5
 20
-447.6
 30
0.0
  0
ENDBLK
  5
12F
  8
0
  0
BLOCK
  8
0
  2
*D22
 70
     1
 10
0.0
 20
0.0
 30
0.0
  3
*D22
  1

  0
LINE
  5
132
  8
0
  6
BYBLOCK
 62
     0
 10
-50.0
 20
1945.0
 30
0.0
 11
-487.4
 21
1945.0
 31
0.0
  0
LINE
  5
133
  8
0
  6
BYBLOCK
 62
     0
 10
-210.0
 20
0.0
 30
0.0
 11
-487.4
 21
0.0
 31
0.0
  0
LINE
  5
134
  8
0
  6
BYBLOCK
 62
     0
 10
-474.9
 20
1935.0
 30
0.0
 11
-474.9
 21
10.0
 31
0.0
  0
INSERT
  5
135
  8
0
  6
BYBLOCK
 62
     0
  2
_ORIGIN
 10
-474.9
 20
1945.0
 30
0.0
 41
10.0
 42
10.0
 43
10.0
 50
90.0
  0
INSERT
  5
136
  8
0
  6
BYBLOCK
 62
     0
  2
_ORIGIN
 10
-474.9
 20
0.0
 30
0.0
 41
10.0
 42
10.0
 43
10.0
 50
270.0
  0
TEXT
  5
137
  8
0
  6
BYBLOCK
 62
     0
 10
-484.9
 20
876.636919
 30
0.0
 40
30.0
  1
1945
 50
90.0
 72
     1
 11
-484.9
 21
926.636919
 31
0.0
  0
POINT
  5
138
  8
DEFPOINTS
  6
BYBLOCK
 62
     0
 10
-40.0
 20
1945.0
 30
0.0
  0
POINT
  5
139
  8
DEFPOINTS
  6
BYBLOCK
 62
     0
 10
-200.0
 20
0.0
 30
0.0
  0
POINT
  5
13A
  8
DEFPOINTS
  6
BYBLOCK
 62
     0
 10
-474.9
 20
0.0
 30
0.0
  0
ENDBLK
  5
13B
  8
0
  0
BLOCK
  8
0
  2
*D23
 70
     1
 10
0.0
 20
0.0
 30
0.0
  3
*D23
  1

  0
LINE
  5
13E
  8
0
  6
BYBLOCK
 62
     0
 10
-210.0
 20
0.0
 30
0.0
 11
-387.4
 21
0.0
 31
0.0
  0
LINE
  5
13F
  8
0
  6
BYBLOCK
 62
     0
 10
-83.062012
 20
1923.0
 30
0.0
 11
-387.4
 21
1923.0
 31
0.0
  0
LINE
  5
140
  8
0
  6
BYBLOCK
 62
     0
 10
-374.9
 20
10.0
 30
0.0
 11
-374.9
 21
1913.0
 31
0.0
  0
INSERT
  5
141
  8
0
  6
BYBLOCK
 62
     0
  2
_ORIGIN
 10
-374.9
 20
0.0
 30
0.0
 41
10.0
 42
10.0
 43
10.0
 50
270.0
  0
INSERT
  5
142
  8
0
  6
BYBLOCK
 62
     0
  2
_ORIGIN
 10
-374.9
 20
1923.0
 30
0.0
 41
10.0
 42
10.0
 43
10.0
 50
90.0
  0
TEXT
  5
143
  8
0
  6
BYBLOCK
 62
     0
 10
-384.9
 20
911.5
 30
0.0
 40
30.0
  1
1923
 50
90.0
 72
     1
 11
-384.9
 21
961.5
 31
0.0
  0
POINT
  5
144
  8
DEFPOINTS
  6
BYBLOCK
 62
     0
 10
-200.0
 20
0.0
 30
0.0
  0
POINT
  5
145
  8
DEFPOINTS
  6
BYBLOCK
 62
     0
 10
-73.062012
 20
1923.0
 30
0.0
  0
POINT
  5
146
  8
DEFPOINTS
  6
BYBLOCK
 62
     0
 10
-374.9
 20
1923.0
 30
0.0
  0
ENDBLK
  5
147
  8
0
  0
BLOCK
  8
0
  2
*D24
 70
     1
 10
0.0
 20
0.0
 30
0.0
  3
*D24
  1

  0
LINE
  5
14A
  8
0
  6
BYBLOCK
 62
     0
 10
282.5
 20
1900.0
 30
0.0
 11
732.6
 21
1900.0
 31
0.0
  0
LINE
  5
14B
  8
0
  6
BYBLOCK
 62
     0
 10
210.0
 20
0.0
 30
0.0
 11
732.6
 21
0.0
 31
0.0
  0
LINE
  5
14C
  8
0
  6
BYBLOCK
 62
     0
 10
720.1
 20
1890.0
 30
0.0
 11
720.1
 21
10.0
 31
0.0
  0
INSERT
  5
14D
  8
0
  6
BYBLOCK
 62
     0
  2
_ORIGIN
 10
720.1
 20
1900.0
 30
0.0
 41
10.0
 42
10.0
 43
10.0
 50
90.0
  0
INSERT
  5
14E
  8
0
  6
BYBLOCK
 62
     0
  2
_ORIGIN
 10
720.1
 20
0.0
 30
0.0
 41
10.0
 42
10.0
 43
10.0
 50
270.0
  0
TEXT
  5
14F
  8
0
  6
BYBLOCK
 62
     0
 10
710.1
 20
905.0
 30
0.0
 40
30.0
  1
1900
 50
90.0
 72
     1
 11
710.1
 21
950.0
 31
0.0
  0
POINT
  5
150
  8
DEFPOINTS
  6
BYBLOCK
 62
     0
 10
272.5
 20
1900.0
 30
0.0
  0
POINT
  5
151
  8
DEFPOINTS
  6
BYBLOCK
 62
     0
 10
200.0
 20
0.0
 30
0.0
  0
POINT
  5
152
  8
DEFPOINTS
  6
BYBLOCK
 62
     0
 10
720.1
 20
0.0
 30
0.0
  0
ENDBLK
  5
153
  8
0
  0
BLOCK
  8
0
  2
*D25
 70
     1
 10
0.0
 20
0.0
 30
0.0
  3
*D25
  1

  0
LINE
  5
156
  8
0
  6
BYBLOCK
 62
     0
 10
282.5
 20
200.0
 30
0.0
 11
632.6
 21
200.0
 31
0.0
  0
LINE
  5
157
  8
0
  6
BYBLOCK
 62
     0
 10
210.0
 20
0.0
 30
0.0
 11
632.6
 21
0.0
 31
0.0
  0
LINE
  5
158
  8
0
  6
BYBLOCK
 62
     0
 10
620.1
 20
190.0
 30
0.0
 11
620.1
 21
10.0
 31
0.0
  0
INSERT
  5
159
  8
0
  6
BYBLOCK
 62
     0
  2
_ORIGIN
 10
620.1
 20
200.0
 30
0.0
 41
10.0
 42
10.0
 43
10.0
 50
90.0
  0
INSERT
  5
15A
  8
0
  6
BYBLOCK
 62
     0
  2
_ORIGIN
 10
620.1
 20
0.0
 30
0.0
 41
10.0
 42
10.0
 43
10.0
 50
270.0
  0
TEXT
  5
15B
  8
0
  6
BYBLOCK
 62
     0
 10
610.1
 20
65.0
 30
0.0
 40
30.0
  1
200
 50
90.0
 72
     1
 11
610.1
 21
100.0
 31
0.0
  0
POINT
  5
15C
  8
DEFPOINTS
  6
BYBLOCK
 62
     0
 10
272.5
 20
200.0
 30
0.0
  0
POINT
  5
15D
  8
DEFPOINTS
  6
BYBLOCK
 62
     0
 10
200.0
 20
0.0
 30
0.0
  0
POINT
  5
15E
  8
DEFPOINTS
  6
BYBLOCK
 62
     0
 10
620.1
 20
0.0
 30
0.0
  0
ENDBLK
  5
15F
  8
0
  0
BLOCK
  8
0
  2
*D26
 70
     1
 10
0.0
 20
0.0
 30
0.0
  3
*D26
  1

  0
LINE
  5
162
  8
0
  6
BYBLOCK
 62
     0
 10
282.5
 20
200.0
 30
0.0
 11
632.6
 21
200.0
 31
0.0
  0
LINE
  5
163
  8
0
  6
BYBLOCK
 62
     0
 10
282.5
 20
1900.0
 30
0.0
 11
632.6
 21
1900.0
 31
0.0
  0
LINE
  5
164
  8
0
  6
BYBLOCK
 62
     0
 10
620.1
 20
210.0
 30
0.0
 11
620.1
 21
1890.0
 31
0.0
  0
INSERT
  5
165
  8
0
  6
BYBLOCK
 62
     0
  2
_ORIGIN
 10
620.1
 20
200.0
 30
0.0
 41
10.0
 42
10.0
 43
10.0
 50
270.0
  0
INSERT
  5
166
  8
0
  6
BYBLOCK
 62
     0
  2
_ORIGIN
 10
620.1
 20
1900.0
 30
0.0
 41
10.0
 42
10.0
 43
10.0
 50
90.0
  0
TEXT
  5
167
  8
0
  6
BYBLOCK
 62
     0
 10
610.1
 20
1005.0
 30
0.0
 40
30.0
  1
1700
 50
90.0
 72
     1
 11
610.1
 21
1050.0
 31
0.0
  0
POINT
  5
168
  8
DEFPOINTS
  6
BYBLOCK
 62
     0
 10
272.5
 20
200.0
 30
0.0
  0
POINT
  5
169
  8
DEFPOINTS
  6
BYBLOCK
 62
     0
 10
272.5
 20
1900.0
 30
0.0
  0
POINT
  5
16A
  8
DEFPOINTS
  6
BYBLOCK
 62
     0
 10
620.1
 20
1900.0
 30
0.0
  0
ENDBLK
  5
16B
  8
0
  0
BLOCK
  8
0
  2
*D27
 70
     1
 10
0.0
 20
0.0
 30
0.0
  3
*D27
  1

  0
LINE
  5
16E
  8
0
  6
BYBLOCK
 62
     0
 10
282.5
 20
1900.0
 30
0.0
 11
732.6
 21
1900.0
 31
0.0
  0
LINE
  5
16F
  8
0
  6
BYBLOCK
 62
     0
 10
282.5
 20
2100.0
 30
0.0
 11
732.6
 21
2100.0
 31
0.0
  0
LINE
  5
170
  8
0
  6
BYBLOCK
 62
     0
 10
720.1
 20
1910.0
 30
0.0
 11
720.1
 21
2090.0
 31
0.0
  0
INSERT
  5
171
  8
0
  6
BYBLOCK
 62
     0
  2
_ORIGIN
 10
720.1
 20
1900.0
 30
0.0
 41
10.0
 42
10.0
 43
10.0
 50
270.0
  0
INSERT
  5
172
  8
0
  6
BYBLOCK
 62
     0
  2
_ORIGIN
 10
720.1
 20
2100.0
 30
0.0
 41
10.0
 42
10.0
 43
10.0
 50
90.0
  0
TEXT
  5
173
  8
0
  6
BYBLOCK
 62
     0
 10
710.1
 20
1965.0
 30
0.0
 40
30.0
  1
200
 50
90.0
 72
     1
 11
710.1
 21
2000.0
 31
0.0
  0
POINT
  5
174
  8
DEFPOINTS
  6
BYBLOCK
 62
     0
 10
272.5
 20
1900.0
 30
0.0
  0
POINT
  5
175
  8
DEFPOINTS
  6
BYBLOCK
 62
     0
 10
272.5
 20
2100.0
 30
0.0
  0
POINT
  5
176
  8
DEFPOINTS
  6
BYBLOCK
 62
     0
 10
720.1
 20
2100.0
 30
0.0
  0
ENDBLK
  5
177
  8
0
  0
BLOCK
  8
0
  2
*D28
 70
     1
 10
0.0
 20
0.0
 30
0.0
  3
*D28
  1

  0
LINE
  5
17A
  8
0
  6
BYBLOCK
 62
     0
 10
-272.5
 20
2110.0
 30
0.0
 11
-272.5
 21
2259.9
 31
0.0
  0
LINE
  5
17B
  8
0
  6
BYBLOCK
 62
     0
 10
272.5
 20
2110.0
 30
0.0
 11
272.5
 21
2259.9
 31
0.0
  0
LINE
  5
17C
  8
0
  6
BYBLOCK
 62
     0
 10
-262.5
 20
2247.4
 30
0.0
 11
262.5
 21
2247.4
 31
0.0
  0
INSERT
  5
17D
  8
0
  6
BYBLOCK
 62
     0
  2
_ORIGIN
 10
-272.5
 20
2247.4
 30
0.0
 41
10.0
 42
10.0
 43
10.0
 50
180.0
  0
INSERT
  5
17E
  8
0
  6
BYBLOCK
 62
     0
  2
_ORIGIN
 10
272.5
 20
2247.4
 30
0.0
 41
10.0
 42
10.0
 43
10.0
  0
TEXT
  5
17F
  8
0
  6
BYBLOCK
 62
     0
 10
-40.0
 20
2257.4
 30
0.0
 40
30.0
  1
545
 72
     1
 11
0.0
 21
2257.4
 31
0.0
  0
POINT
  5
180
  8
DEFPOINTS
  6
BYBLOCK
 62
     0
 10
-272.5
 20
2100.0
 30
0.0
  0
POINT
  5
181
  8
DEFPOINTS
  6
BYBLOCK
 62
     0
 10
272.5
 20
2100.0
 30
0.0
  0
POINT
  5
182
  8
DEFPOINTS
  6
BYBLOCK
 62
     0
 10
272.5
 20
2247.4
 30
0.0
  0
ENDBLK
  5
183
  8
0
  0
BLOCK
  8
0
  2
*D29
 70
     1
 10
0.0
 20
0.0
 30
0.0
  3
*D29
  1

  0
LINE
  5
186
  8
0
  6
BYBLOCK
 62
     0
 10
45.0
 20
1950.0
 30
0.0
 11
45.0
 21
2159.9
 31
0.0
  0
LINE
  5
187
  8
0
  6
BYBLOCK
 62
     0
 10
-45.0
 20
1950.0
 30
0.0
 11
-45.0
 21
2159.9
 31
0.0
  0
LINE
  5
188
  8
0
  6
BYBLOCK
 62
     0
 10
35.0
 20
2147.4
 30
0.0
 11
-35.0
 21
2147.4
 31
0.0
  0
INSERT
  5
189
  8
0
  6
BYBLOCK
 62
     0
  2
_ORIGIN
 10
45.0
 20
2147.4
 30
0.0
 41
10.0
 42
10.0
 43
10.0
  0
INSERT
  5
18A
  8
0
  6
BYBLOCK
 62
     0
  2
_ORIGIN
 10
-45.0
 20
2147.4
 30
0.0
 41
10.0
 42
10.0
 43
10.0
 50
180.0
  0
TEXT
  5
18B
  8
0
  6
BYBLOCK
 62
     0
 10
-23.677734
 20
2157.4
 30
0.0
 40
30.0
  1
90
 72
     1
 11
-1.177734
 21
2157.4
 31
0.0
  0
POINT
  5
18C
  8
DEFPOINTS
  6
BYBLOCK
 62
     0
 10
45.0
 20
1940.0
 30
0.0
  0
POINT
  5
18D
  8
DEFPOINTS
  6
BYBLOCK
 62
     0
 10
-45.0
 20
1940.0
 30
0.0
  0
POINT
  5
18E
  8
DEFPOINTS
  6
BYBLOCK
 62
     0
 10
-45.0
 20
2147.4
 30
0.0
  0
ENDBLK
  5
18F
  8
0
  0
BLOCK
  8
0
  2
*D30
 70
     1
 10
0.0
 20
0.0
 30
0.0
  3
*D30
  1

  0
LINE
  5
192
  8
0
  6
BYBLOCK
 62
     0
 10
-30.0
 20
1961.506348
 30
0.0
 11
-30.0
 21
2059.9
 31
0.0
  0
LINE
  5
193
  8
0
  6
BYBLOCK
 62
     0
 10
30.0
 20
1961.506348
 30
0.0
 11
30.0
 21
2059.9
 31
0.0
  0
LINE
  5
194
  8
0
  6
BYBLOCK
 62
     0
 10
-20.0
 20
2047.4
 30
0.0
 11
20.0
 21
2047.4
 31
0.0
  0
INSERT
  5
195
  8
0
  6
BYBLOCK
 62
     0
  2
_ORIGIN
 10
-30.0
 20
2047.4
 30
0.0
 41
10.0
 42
10.0
 43
10.0
 50
180.0
  0
INSERT
  5
196
  8
0
  6
BYBLOCK
 62
     0
  2
_ORIGIN
 10
30.0
 20
2047.4
 30
0.0
 41
10.0
 42
10.0
 43
10.0
  0
TEXT
  5
197
  8
0
  6
BYBLOCK
 62
     0
 10
-22.5
 20
2057.4
 30
0.0
 40
30.0
  1
60
 72
     1
 11
0.0
 21
2057.4
 31
0.0
  0
POINT
  5
198
  8
DEFPOINTS
  6
BYBLOCK
 62
     0
 10
-30.0
 20
1951.506348
 30
0.0
  0
POINT
  5
199
  8
DEFPOINTS
  6
BYBLOCK
 62
     0
 10
30.0
 20
1951.506348
 30
0.0
  0
POINT
  5
19A
  8
DEFPOINTS
  6
BYBLOCK
 62
     0
 10
30.0
 20
2047.4
 30
0.0
  0
ENDBLK
  5
19B
  8
0
  0
BLOCK
  8
0
  2
*D31
 70
     1
 10
0.0
 20
0.0
 30
0.0
  3
*D31
  1

  0
LINE
  5
19E
  8
0
  6
BYBLOCK
 62
     0
 10
-148.0
 20
170.0
 30
0.0
 11
-148.0
 21
-160.1
 31
0.0
  0
LINE
  5
19F
  8
0
  6
BYBLOCK
 62
     0
 10
0.0
 20
-48.687809
 30
0.0
 11
0.0
 21
-160.1
 31
0.0
  0
LINE
  5
1A0
  8
0
  6
BYBLOCK
 62
     0
 10
-138.0
 20
-147.6
 30
0.0
 11
-10.0
 21
-147.6
 31
0.0
  0
INSERT
  5
1A1
  8
0
  6
BYBLOCK
 62
     0
  2
_ORIGIN
 10
-148.0
 20
-147.6
 30
0.0
 41
10.0
 42
10.0
 43
10.0
 50
180.0
  0
INSERT
  5
1A2
  8
0
  6
BYBLOCK
 62
     0
  2
_ORIGIN
 10
0.0
 20
-147.6
 30
0.0
 41
10.0
 42
10.0
 43
10.0
  0
TEXT
  5
1A3
  8
0
  6
BYBLOCK
 62
     0
 10
-109.0
 20
-137.6
 30
0.0
 40
30.0
  1
148
 72
     1
 11
-74.0
 21
-137.6
 31
0.0
  0
POINT
  5
1A4
  8
DEFPOINTS
  6
BYBLOCK
 62
     0
 10
-148.0
 20
180.0
 30
0.0
  0
POINT
  5
1A5
  8
DEFPOINTS
  6
BYBLOCK
 62
     0
 10
0.0
 20
-38.687809
 30
0.0
  0
POINT
  5
1A6
  8
DEFPOINTS
  6
BYBLOCK
 62
     0
 10
0.0
 20
-147.6
 30
0.0
  0
ENDBLK
  5
1A7
  8
0
  0
BLOCK
  8
0
  2
*D32
 70
     1
 10
0.0
 20
0.0
 30
0.0
  3
*D32
  1

  0
LINE
  5
1AA
  8
0
  6
BYBLOCK
 62
     0
 10
187.0
 20
140.0
 30
0.0
 11
187.0
 21
-160.1
 31
0.0
  0
LINE
  5
1AB
  8
0
  6
BYBLOCK
 62
     0
 10
72.0
 20
170.0
 30
0.0
 11
72.0
 21
-160.1
 31
0.0
  0
LINE
  5
1AC
  8
0
  6
BYBLOCK
 62
     0
 10
177.0
 20
-147.6
 30
0.0
 11
82.0
 21
-147.6
 31
0.0
  0
INSERT
  5
1AD
  8
0
  6
BYBLOCK
 62
     0
  2
_ORIGIN
 10
187.0
 20
-147.6
 30
0.0
 41
10.0
 42
10.0
 43
10.0
  0
INSERT
  5
1AE
  8
0
  6
BYBLOCK
 62
     0
  2
_ORIGIN
 10
72.0
 20
-147.6
 30
0.0
 41
10.0
 42
10.0
 43
10.0
 50
180.0
  0
TEXT
  5
1AF
  8
0
  6
BYBLOCK
 62
     0
 10
99.5
 20
-137.6
 30
0.0
 40
30.0
  1
115
 72
     1
 11
129.5
 21
-137.6
 31
0.0
  0
POINT
  5
1B0
  8
DEFPOINTS
  6
BYBLOCK
 62
     0
 10
187.0
 20
150.0
 30
0.0
  0
POINT
  5
1B1
  8
DEFPOINTS
  6
BYBLOCK
 62
     0
 10
72.0
 20
180.0
 30
0.0
  0
POINT
  5
1B2
  8
DEFPOINTS
  6
BYBLOCK
 62
     0
 10
72.0
 20
-147.6
 30
0.0
  0
ENDBLK
  5
1B3
  8
0
  0
BLOCK
  8
0
  2
*D33
 70
     1
 10
0.0
 20
0.0
 30
0.0
  3
*D33
  1

  0
LINE
  5
1B6
  8
0
  6
BYBLOCK
 62
     0
 10
72.0
 20
170.0
 30
0.0
 11
72.0
 21
-160.1
 31
0.0
  0
LINE
  5
1B7
  8
0
  6
BYBLOCK
 62
     0
 10
0.0
 20
-48.687809
 30
0.0
 11
0.0
 21
-160.1
 31
0.0
  0
LINE
  5
1B8
  8
0
  6
BYBLOCK
 62
     0
 10
62.0
 20
-147.6
 30
0.0
 11
10.0
 21
-147.6
 31
0.0
  0
INSERT
  5
1B9
  8
0
  6
BYBLOCK
 62
     0
  2
_ORIGIN
 10
72.0
 20
-147.6
 30
0.0
 41
10.0
 42
10.0
 43
10.0
  0
INSERT
  5
1BA
  8
0
  6
BYBLOCK
 62
     0
  2
_ORIGIN
 10
0.0
 20
-147.6
 30
0.0
 41
10.0
 42
10.0
 43
10.0
 50
180.0
  0
TEXT
  5
1BB
  8
0
  6
BYBLOCK
 62
     0
 10
11.0
 20
-137.6
 30
0.0
 40
30.0
  1
72
 72
     1
 11
36.0
 21
-137.6
 31
0.0
  0
POINT
  5
1BC
  8
DEFPOINTS
  6
BYBLOCK
 62
     0
 10
72.0
 20
180.0
 30
0.0
  0
POINT
  5
1BD
  8
DEFPOINTS
  6
BYBLOCK
 62
     0
 10
0.0
 20
-38.687809
 30
0.0
  0
POINT
  5
1BE
  8
DEFPOINTS
  6
BYBLOCK
 62
     0
 10
0.0
 20
-147.6
 30
0.0
  0
ENDBLK
  5
1BF
  8
0
  0
BLOCK
  8
0
  2
*D34
 70
     1
 10
0.0
 20
0.0
 30
0.0
  3
*D34
  1

  0
LINE
  5
1C2
  8
0
  6
BYBLOCK
 62
     0
 10
-272.5
 20
190.0
 30
0.0
 11
-272.5
 21
-160.1
 31
0.0
  0
LINE
  5
1C3
  8
0
  6
BYBLOCK
 62
     0
 10
-185.5
 20
170.0
 30
0.0
 11
-185.5
 21
-160.1
 31
0.0
  0
LINE
  5
1C4
  8
0
  6
BYBLOCK
 62
     0
 10
-262.5
 20
-147.6
 30
0.0
 11
-195.5
 21
-147.6
 31
0.0
  0
INSERT
  5
1C5
  8
0
  6
BYBLOCK
 62
     0
  2
_ORIGIN
 10
-272.5
 20
-147.6
 30
0.0
 41
10.0
 42
10.0
 43
10.0
 50
180.0
  0
INSERT
  5
1C6
  8
0
  6
BYBLOCK
 62
     0
  2
_ORIGIN
 10
-185.5
 20
-147.6
 30
0.0
 41
10.0
 42
10.0
 43
10.0
  0
TEXT
  5
1C7
  8
0
  6
BYBLOCK
 62
     0
 10
-254.0
 20
-137.6
 30
0.0
 40
30.0
  1
87
 72
     1
 11
-229.0
 21
-137.6
 31
0.0
  0
POINT
  5
1C8
  8
DEFPOINTS
  6
BYBLOCK
 62
     0
 10
-272.5
 20
200.0
 30
0.0
  0
POINT
  5
1C9
  8
DEFPOINTS
  6
BYBLOCK
 62
     0
 10
-185.5
 20
180.0
 30
0.0
  0
POINT
  5
1CA
  8
DEFPOINTS
  6
BYBLOCK
 62
     0
 10
-185.5
 20
-147.6
 30
0.0
  0
ENDBLK
  5
1CB
  8
0
  0
BLOCK
  8
0
  2
*D35
 70
     1
 10
0.0
 20
0.0
 30
0.0
  3
*D35
  1

  0
LINE
  5
1CE
  8
0
  6
BYBLOCK
 62
     0
 10
240.0
 20
0.0
 30
0.0
 11
432.6
 21
0.0
 31
0.0
  0
LINE
  5
1CF
  8
0
  6
BYBLOCK
 62
     0
 10
217.0
 20
170.0
 30
0.0
 11
432.6
 21
170.0
 31
0.0
  0
LINE
  5
1D0
  8
0
  6
BYBLOCK
 62
     0
 10
420.1
 20
10.0
 30
0.0
 11
420.1
 21
160.0
 31
0.0
  0
INSERT
  5
1D1
  8
0
  6
BYBLOCK
 62
     0
  2
_ORIGIN
 10
420.1
 20
0.0
 30
0.0
 41
10.0
 42
10.0
 43
10.0
 50
270.0
  0
INSERT
  5
1D2
  8
0
  6
BYBLOCK
 62
     0
  2
_ORIGIN
 10
420.1
 20
170.0
 30
0.0
 41
10.0
 42
10.0
 43
10.0
 50
90.0
  0
TEXT
  5
1D3
  8
0
  6
BYBLOCK
 62
     0
 10
410.1
 20
52.5
 30
0.0
 40
30.0
  1
170
 50
90.0
 72
     1
 11
410.1
 21
85.0
 31
0.0
  0
POINT
  5
1D4
  8
DEFPOINTS
  6
BYBLOCK
 62
     0
 10
230.0
 20
0.0
 30
0.0
  0
POINT
  5
1D5
  8
DEFPOINTS
  6
BYBLOCK
 62
     0
 10
207.0
 20
170.0
 30
0.0
  0
POINT
  5
1D6
  8
DEFPOINTS
  6
BYBLOCK
 62
     0
 10
420.1
 20
170.0
 30
0.0
  0
ENDBLK
  5
1D7
  8
0
  0
BLOCK
  8
0
  2
*D36
 70
     1
 10
0.0
 20
0.0
 30
0.0
  3
*D36
  1

  0
LINE
  5
1DA
  8
0
  6
BYBLOCK
 62
     0
 10
215.0
 20
-30.0
 30
0.0
 11
215.0
 21
-260.1
 31
0.0
  0
LINE
  5
1DB
  8
0
  6
BYBLOCK
 62
     0
 10
121.0
 20
-30.0
 30
0.0
 11
121.0
 21
-260.1
 31
0.0
  0
LINE
  5
1DC
  8
0
  6
BYBLOCK
 62
     0
 10
205.0
 20
-247.6
 30
0.0
 11
131.0
 21
-247.6
 31
0.0
  0
INSERT
  5
1DD
  8
0
  6
BYBLOCK
 62
     0
  2
_ORIGIN
 10
215.0
 20
-247.6
 30
0.0
 41
10.0
 42
10.0
 43
10.0
  0
INSERT
  5
1DE
  8
0
  6
BYBLOCK
 62
     0
  2
_ORIGIN
 10
121.0
 20
-247.6
 30
0.0
 41
10.0
 42
10.0
 43
10.0
 50
180.0
  0
TEXT
  5
1DF
  8
0
  6
BYBLOCK
 62
     0
 10
143.0
 20
-237.6
 30
0.0
 40
30.0
  1
94
 72
     1
 11
168.0
 21
-237.6
 31
0.0
  0
POINT
  5
1E0
  8
DEFPOINTS
  6
BYBLOCK
 62
     0
 10
215.0
 20
-20.0
 30
0.0
  0
POINT
  5
1E1
  8
DEFPOINTS
  6
BYBLOCK
 62
     0
 10
121.0
 20
-20.0
 30
0.0
  0
POINT
  5
1E2
  8
DEFPOINTS
  6
BYBLOCK
 62
     0
 10
121.0
 20
-247.6
 30
0.0
  0
ENDBLK
  5
1E3
  8
0
  0
BLOCK
  8
0
  2
*D37
 70
     1
 10
0.0
 20
0.0
 30
0.0
  3
*D37
  1

  0
LINE
  5
1E6
  8
0
  6
BYBLOCK
 62
     0
 10
-215.0
 20
-30.0
 30
0.0
 11
-215.0
 21
-260.1
 31
0.0
  0
LINE
  5
1E7
  8
0
  6
BYBLOCK
 62
     0
 10
-121.0
 20
-30.0
 30
0.0
 11
-121.0
 21
-260.1
 31
0.0
  0
LINE
  5
1E8
  8
0
  6
BYBLOCK
 62
     0
 10
-205.0
 20
-247.6
 30
0.0
 11
-131.0
 21
-247.6
 31
0.0
  0
INSERT
  5
1E9
  8
0
  6
BYBLOCK
 62
     0
  2
_ORIGIN
 10
-215.0
 20
-247.6
 30
0.0
 41
10.0
 42
10.0
 43
10.0
 50
180.0
  0
INSERT
  5
1EA
  8
0
  6
BYBLOCK
 62
     0
  2
_ORIGIN
 10
-121.0
 20
-247.6
 30
0.0
 41
10.0
 42
10.0
 43
10.0
  0
TEXT
  5
1EB
  8
0
  6
BYBLOCK
 62
     0
 10
-193.0
 20
-237.6
 30
0.0
 40
30.0
  1
94
 72
     1
 11
-168.0
 21
-237.6
 31
0.0
  0
POINT
  5
1EC
  8
DEFPOINTS
  6
BYBLOCK
 62
     0
 10
-215.0
 20
-20.0
 30
0.0
  0
POINT
  5
1ED
  8
DEFPOINTS
  6
BYBLOCK
 62
     0
 10
-121.0
 20
-20.0
 30
0.0
  0
POINT
  5
1EE
  8
DEFPOINTS
  6
BYBLOCK
 62
     0
 10
-121.0
 20
-247.6
 30
0.0
  0
ENDBLK
  5
1EF
  8
0
  0
BLOCK
  8
0
  2
*D38
 70
     1
 10
0.0
 20
0.0
 30
0.0
  3
*D38
  1

  0
LINE
  5
1F2
  8
0
  6
BYBLOCK
 62
     0
 10
168.0
 20
-30.0
 30
0.0
 11
168.0
 21
-360.1
 31
0.0
  0
LINE
  5
1F3
  8
0
  6
BYBLOCK
 62
     0
 10
-168.0
 20
-30.0
 30
0.0
 11
-168.0
 21
-360.1
 31
0.0
  0
LINE
  5
1F4
  8
0
  6
BYBLOCK
 62
     0
 10
158.0
 20
-347.6
 30
0.0
 11
-158.0
 21
-347.6
 31
0.0
  0
INSERT
  5
1F5
  8
0
  6
BYBLOCK
 62
     0
  2
_ORIGIN
 10
168.0
 20
-347.6
 30
0.0
 41
10.0
 42
10.0
 43
10.0
  0
INSERT
  5
1F6
  8
0
  6
BYBLOCK
 62
     0
  2
_ORIGIN
 10
-168.0
 20
-347.6
 30
0.0
 41
10.0
 42
10.0
 43
10.0
 50
180.0
  0
TEXT
  5
1F7
  8
0
  6
BYBLOCK
 62
     0
 10
-40.0
 20
-337.6
 30
0.0
 40
30.0
  1
336
 72
     1
 11
0.0
 21
-337.6
 31
0.0
  0
POINT
  5
1F8
  8
DEFPOINTS
  6
BYBLOCK
 62
     0
 10
168.0
 20
-20.0
 30
0.0
  0
POINT
  5
1F9
  8
DEFPOINTS
  6
BYBLOCK
 62
     0
 10
-168.0
 20
-20.0
 30
0.0
  0
POINT
  5
1FA
  8
DEFPOINTS
  6
BYBLOCK
 62
     0
 10
-168.0
 20
-347.6
 30
0.0
  0
ENDBLK
  5
1FB
  8
0
  0
BLOCK
  8
0
  2
*D39
 70
     1
 10
0.0
 20
0.0
 30
0.0
  3
*D39
  1

  0
LINE
  5
1FE
  8
0
  6
BYBLOCK
 62
     0
 10
240.0
 20
0.0
 30
0.0
 11
532.6
 21
0.0
 31
0.0
  0
LINE
  5
1FF
  8
0
  6
BYBLOCK
 62
     0
 10
217.0
 20
174.0
 30
0.0
 11
532.6
 21
174.0
 31
0.0
  0
LINE
  5
200
  8
0
  6
BYBLOCK
 62
     0
 10
520.1
 20
10.0
 30
0.0
 11
520.1
 21
164.0
 31
0.0
  0
INSERT
  5
201
  8
0
  6
BYBLOCK
 62
     0
  2
_ORIGIN
 10
520.1
 20
0.0
 30
0.0
 41
10.0
 42
10.0
 43
10.0
 50
270.0
  0
INSERT
  5
202
  8
0
  6
BYBLOCK
 62
     0
  2
_ORIGIN
 10
520.1
 20
174.0
 30
0.0
 41
10.0
 42
10.0
 43
10.0
 50
90.0
  0
TEXT
  5
203
  8
0
  6
BYBLOCK
 62
     0
 10
510.1
 20
52.0
 30
0.0
 40
30.0
  1
174
 50
90.0
 72
     1
 11
510.1
 21
87.0
 31
0.0
  0
POINT
  5
204
  8
DEFPOINTS
  6
BYBLOCK
 62
     0
 10
230.0
 20
0.0
 30
0.0
  0
POINT
  5
205
  8
DEFPOINTS
  6
BYBLOCK
 62
     0
 10
207.0
 20
174.0
 30
0.0
  0
POINT
  5
206
  8
DEFPOINTS
  6
BYBLOCK
 62
     0
 10
520.1
 20
174.0
 30
0.0
  0
ENDBLK
  5
207
  8
0
  0
ENDSEC
  0
SECTION
  2
ENTITIES
  0
LINE
  5
208
  8
OUTLINE
  6
CONTINUOUS
 10
272.5
 20
200.0
 30
0.0
 11
-272.5
 21
200.0
 31
0.0
  0
LINE
  5
209
  8
OUTLINE
  6
CONTINUOUS
 10
272.5
 20
1900.0
 30
0.0
 11
-272.5
 21
1900.0
 31
0.0
  0
LINE
  5
20A
  8
OUTLINE
  6
CONTINUOUS
 10
32.0
 20
200.0
 30
0.0
 11
32.0
 21
0.0
 31
0.0
  0
LINE
  5
20B
  8
OUTLINE
  6
CONTINUOUS
 10
32.0
 20
0.0
 30
0.0
 11
-32.0
 21
0.0
 31
0.0
  0
LINE
  5
20C
  8
OUTLINE
  6
CONTINUOUS
 10
-32.0
 20
200.0
 30
0.0
 11
-32.0
 21
0.0
 31
0.0
  0
LINE
  5
20D
  8
OUTLINE
  6
CONTINUOUS
 10
272.5
 20
200.0
 30
0.0
 11
272.5
 21
1900.0
 31
0.0
  0
LINE
  5
20E
  8
OUTLINE
  6
CONTINUOUS
 10
-272.5
 20
200.0
 30
0.0
 11
-272.5
 21
1900.0
 31
0.0
  0
LINE
  5
20F
  8
OUTLINE
  6
CONTINUOUS
 10
200.0
 20
200.0
 30
0.0
 11
200.0
 21
0.0
 31
0.0
  0
LINE
  5
210
  8
OUTLINE
  6
CONTINUOUS
 10
200.0
 20
0.0
 30
0.0
 11
136.0
 21
0.0
 31
0.0
  0
LINE
  5
211
  8
OUTLINE
  6
CONTINUOUS
 10
136.0
 20
200.0
 30
0.0
 11
136.0
 21
0.0
 31
0.0
  0
LINE
  5
212
  8
OUTLINE
  6
CONTINUOUS
 10
-200.0
 20
200.0
 30
0.0
 11
-200.0
 21
0.0
 31
0.0
  0
LINE
  5
213
  8
OUTLINE
  6
CONTINUOUS
 10
-200.0
 20
0.0
 30
0.0
 11
-136.0
 21
0.0
 31
0.0
  0
LINE
  5
214
  8
OUTLINE
  6
CONTINUOUS
 10
-136.0
 20
200.0
 30
0.0
 11
-136.0
 21
0.0
 31
0.0
  0
LINE
  5
215
  8
DETAIL
  6
CONTINUOUS
 10
272.5
 20
1900.0
 30
0.0
 11
-272.5
 21
1900.0
 31
0.0
  0
LINE
  5
216
  8
DETAIL
  6
CONTINUOUS
 10
32.0
 20
0.0
 30
0.0
 11
-32.0
 21
0.0
 31
0.0
  0
LINE
  5
217
  8
DETAIL
  6
CONTINUOUS
 10
-200.0
 20
200.0
 30
0.0
 11
-200.0
 21
0.0
 31
0.0
  0
LINE
  5
218
  8
DETAIL
  6
CONTINUOUS
 10
136.0
 20
200.0
 30
0.0
 11
136.0
 21
0.0
 31
0.0
  0
LINE
  5
219
  8
DETAIL
  6
CONTINUOUS
 10
200.0
 20
200.0
 30
0.0
 11
200.0
 21
0.0
 31
0.0
  0
LINE
  5
21A
  8
DETAIL
  6
CONTINUOUS
 10
-272.5
 20
200.0
 30
0.0
 11
-272.5
 21
1900.0
 31
0.0
  0
LINE
  5
21B
  8
DETAIL
  6
CONTINUOUS
 10
272.5
 20
200.0
 30
0.0
 11
272.5
 21
1900.0
 31
0.0
  0
LINE
  5
21C
  8
DETAIL
  6
CONTINUOUS
 10
-32.0
 20
200.0
 30
0.0
 11
-32.0
 21
0.0
 31
0.0
  0
LINE
  5
21D
  8
DETAIL
  6
CONTINUOUS
 10
32.0
 20
200.0
 30
0.0
 11
32.0
 21
0.0
 31
0.0
  0
LINE
  5
21E
  8
DETAIL
  6
CONTINUOUS
 10
272.5
 20
200.0
 30
0.0
 11
-272.5
 21
200.0
 31
0.0
  0
LINE
  5
21F
  8
DETAIL
  6
CONTINUOUS
 10
200.0
 20
0.0
 30
0.0
 11
136.0
 21
0.0
 31
0.0
  0
LINE
  5
220
  8
DETAIL
  6
CONTINUOUS
 10
-136.0
 20
200.0
 30
0.0
 11
-136.0
 21
0.0
 31
0.0
  0
LINE
  5
221
  8
DETAIL
  6
CONTINUOUS
 10
-200.0
 20
0.0
 30
0.0
 11
-136.0
 21
0.0
 31
0.0
  0
LINE
  5
222
  8
DETAIL
  6
CONTINUOUS
 10
230.0
 20
0.0
 30
0.0
 11
230.0
 21
3.2
 31
0.0
  0
LINE
  5
223
  8
DETAIL
  6
CONTINUOUS
 10
141.5
 20
0.0
 30
0.0
 11
106.0
 21
0.0
 31
0.0
  0
LINE
  5
224
  8
DETAIL
  6
CONTINUOUS
 10
106.0
 20
0.0
 30
0.0
 11
106.0
 21
3.2
 31
0.0
  0
LINE
  5
225
  8
DETAIL
  6
CONTINUOUS
 10
188.3
 20
18.0
 30
0.0
 11
147.7
 21
18.0
 31
0.0
  0
LINE
  5
226
  8
DETAIL
  6
CONTINUOUS
 10
143.0
 20
4.7
 30
0.0
 11
143.0
 21
13.3
 31
0.0
  0
LINE
  5
227
  8
DETAIL
  6
CONTINUOUS
 10
188.3
 20
14.8
 30
0.0
 11
147.7
 21
14.8
 31
0.0
  0
LINE
  5
228
  8
DETAIL
  6
CONTINUOUS
 10
146.2
 20
4.7
 30
0.0
 11
146.2
 21
13.3
 31
0.0
  0
LINE
  5
229
  8
DETAIL
  6
CONTINUOUS
 10
141.5
 20
3.2
 30
0.0
 11
106.0
 21
3.2
 31
0.0
  0
LINE
  5
22A
  8
DETAIL
  6
CONTINUOUS
 10
194.5
 20
0.0
 30
0.0
 11
230.0
 21
0.0
 31
0.0
  0
LINE
  5
22B
  8
DETAIL
  6
CONTINUOUS
 10
194.5
 20
3.2
 30
0.0
 11
230.0
 21
3.2
 31
0.0
  0
LINE
  5
22C
  8
DETAIL
  6
CONTINUOUS
 10
189.8
 20
4.7
 30
0.0
 11
189.8
 21
13.3
 31
0.0
  0
LINE
  5
22D
  8
DETAIL
  6
CONTINUOUS
 10
193.0
 20
4.7
 30
0.0
 11
193.0
 21
13.3
 31
0.0
  0
ARC
  5
22E
  8
DETAIL
  6
CONTINUOUS
 10
147.7
 20
13.3
 30
0.0
 40
1.5
 50
90.0
 51
180.0
  0
ARC
  5
22F
  8
DETAIL
  6
CONTINUOUS
 10
188.3
 20
13.3
 30
0.0
 40
1.5
 50
0.0
 51
90.0
  0
ARC
  5
230
  8
DETAIL
  6
CONTINUOUS
 10
141.5
 20
4.7
 30
0.0
 40
1.5
 50
270.0
 51
0.0
  0
ARC
  5
231
  8
DETAIL
  6
CONTINUOUS
 10
194.5
 20
4.7
 30
0.0
 40
1.5
 50
180.0
 51
270.0
  0
ARC
  5
232
  8
DETAIL
  6
CONTINUOUS
 10
147.7
 20
13.3
 30
0.0
 40
4.7
 50
90.0
 51
180.0
  0
ARC
  5
233
  8
DETAIL
  6
CONTINUOUS
 10
188.3
 20
13.3
 30
0.0
 40
4.7
 50
0.0
 51
90.0
  0
ARC
  5
234
  8
DETAIL
  6
CONTINUOUS
 10
194.5
 20
4.7
 30
0.0
 40
4.7
 50
180.0
 51
270.0
  0
ARC
  5
235
  8
DETAIL
  6
CONTINUOUS
 10
141.5
 20
4.7
 30
0.0
 40
4.7
 50
270.0
 51
0.0
  0
LINE
  5
236
  8
DETAIL
  6
CONTINUOUS
 10
45.0
 20
1900.0
 30
0.0
 11
45.0
 21
1940.0
 31
0.0
  0
LINE
  5
237
  8
DETAIL
  6
CONTINUOUS
 10
-45.0
 20
1900.0
 30
0.0
 11
-45.0
 21
1940.0
 31
0.0
  0
LINE
  5
238
  8
DETAIL
  6
CONTINUOUS
 10
40.0
 20
1945.0
 30
0.0
 11
-40.0
 21
1945.0
 31
0.0
  0
ARC
  5
239
  8
DETAIL
  6
CONTINUOUS
 10
40.0
 20
1940.0
 30
0.0
 40
5.0
 50
0.0
 51
90.0
  0
ARC
  5
23A
  8
DETAIL
  6
CONTINUOUS
 10
-40.0
 20
1940.0
 30
0.0
 40
5.0
 50
90.0
 51
180.0
  0
ARC
  5
23B
  8
DETAIL
  6
CONTINUOUS
 10
-141.5
 20
4.7
 30
0.0
 40
4.7
 50
180.0
 51
270.0
  0
ARC
  5
23C
  8
DETAIL
  6
CONTINUOUS
 10
-194.5
 20
4.7
 30
0.0
 40
4.7
 50
270.0
 51
0.0
  0
ARC
  5
23D
  8
DETAIL
  6
CONTINUOUS
 10
-188.3
 20
13.3
 30
0.0
 40
4.7
 50
90.0
 51
180.0
  0
ARC
  5
23E
  8
DETAIL
  6
CONTINUOUS
 10
-147.7
 20
13.3
 30
0.0
 40
4.7
 50
0.0
 51
90.0
  0
ARC
  5
23F
  8
DETAIL
  6
CONTINUOUS
 10
-194.5
 20
4.7
 30
0.0
 40
1.5
 50
270.0
 51
0.0
  0
ARC
  5
240
  8
DETAIL
  6
CONTINUOUS
 10
-141.5
 20
4.7
 30
0.0
 40
1.5
 50
180.0
 51
270.0
  0
ARC
  5
241
  8
DETAIL
  6
CONTINUOUS
 10
-188.3
 20
13.3
 30
0.0
 40
1.5
 50
90.0
 51
180.0
  0
ARC
  5
242
  8
DETAIL
  6
CONTINUOUS
 10
-147.7
 20
13.3
 30
0.0
 40
1.5
 50
0.0
 51
90.0
  0
LINE
  5
243
  8
DETAIL
  6
CONTINUOUS
 10
-193.0
 20
4.7
 30
0.0
 11
-193.0
 21
13.3
 31
0.0
  0
LINE
  5
244
  8
DETAIL
  6
CONTINUOUS
 10
-189.8
 20
4.7
 30
0.0
 11
-189.8
 21
13.3
 31
0.0
  0
LINE
  5
245
  8
DETAIL
  6
CONTINUOUS
 10
-230.0
 20
0.0
 30
0.0
 11
-230.0
 21
3.2
 31
0.0
  0
LINE
  5
246
  8
DETAIL
  6
CONTINUOUS
 10
-194.5
 20
3.2
 30
0.0
 11
-230.0
 21
3.2
 31
0.0
  0
LINE
  5
247
  8
DETAIL
  6
CONTINUOUS
 10
-194.5
 20
0.0
 30
0.0
 11
-230.0
 21
0.0
 31
0.0
  0
LINE
  5
248
  8
DETAIL
  6
CONTINUOUS
 10
-141.5
 20
3.2
 30
0.0
 11
-106.0
 21
3.2
 31
0.0
  0
LINE
  5
249
  8
DETAIL
  6
CONTINUOUS
 10
-146.2
 20
4.7
 30
0.0
 11
-146.2
 21
13.3
 31
0.0
  0
LINE
  5
24A
  8
DETAIL
  6
CONTINUOUS
 10
-188.3
 20
14.8
 30
0.0
 11
-147.7
 21
14.8
 31
0.0
  0
LINE
  5
24B
  8
DETAIL
  6
CONTINUOUS
 10
-143.0
 20
4.7
 30
0.0
 11
-143.0
 21
13.3
 31
0.0
  0
LINE
  5
24C
  8
DETAIL
  6
CONTINUOUS
 10
-188.3
 20
18.0
 30
0.0
 11
-147.7
 21
18.0
 31
0.0
  0
LINE
  5
24D
  8
DETAIL
  6
CONTINUOUS
 10
-106.0
 20
0.0
 30
0.0
 11
-106.0
 21
3.2
 31
0.0
  0
LINE
  5
24E
  8
DETAIL
  6
CONTINUOUS
 10
-141.5
 20
0.0
 30
0.0
 11
-106.0
 21
0.0
 31
0.0
  0
LINE
  5
24F
  8
BASIS
  6
DASHDOT
 10
0.0
 20
1961.851882
 30
0.0
 11
0.0
 21
-38.687808
 31
0.0
  0
LINE
  5
250
  8
SIZE
  6
CONTINUOUS
 62
    30
 10
240.0
 20
0.0
 30
0.0
 11
532.6
 21
0.0
 31
0.0
  0
LINE
  5
251
  8
SIZE
  6
CONTINUOUS
 62
    30
 10
217.0
 20
174.0
 30
0.0
 11
532.6
 21
174.0
 31
0.0
  0
LINE
  5
252
  8
SIZE
  6
CONTINUOUS
 62
    30
 10
520.1
 20
10.0
 30
0.0
 11
520.1
 21
164.0
 31
0.0
  0
CIRCLE
  5
253
  8
SIZE
  6
CONTINUOUS
 62
    30
 10
520.1
 20
0.0
 30
0.0
 40
5.0
  0
LINE
  5
254
  8
SIZE
  6
CONTINUOUS
 62
    30
 10
520.1
 20
0.0
 30
0.0
 11
520.1
 21
10.0
 31
0.0
  0
CIRCLE
  5
255
  8
SIZE
  6
CONTINUOUS
 62
    30
 10
520.1
 20
174.0
 30
0.0
 40
5.0
  0
LINE
  5
256
  8
SIZE
  6
CONTINUOUS
 62
    30
 10
520.1
 20
174.0
 30
0.0
 11
520.1
 21
164.0
 31
0.0
  0
TEXT
  5
257
  8
SIZE
  6
CONTINUOUS
 62
    30
 10
510.1
 20
52.0
 30
0.0
 40
30.0
  1
174
 50
90.0
 72
     1
 11
510.1
 21
87.0
 31
0.0
  0
POINT
  5
258
  8
DEFPOINTS
  6
CONTINUOUS
 62
    30
 10
230.0
 20
0.0
 30
0.0
  0
POINT
  5
259
  8
DEFPOINTS
  6
CONTINUOUS
 62
    30
 10
207.0
 20
174.0
 30
0.0
  0
POINT
  5
25A
  8
DEFPOINTS
  6
CONTINUOUS
 62
    30
 10
520.1
 20
174.0
 30
0.0
  0
LINE
  5
25B
  8
SIZE
  6
CONTINUOUS
 62
    30
 10
168.0
 20
-30.0
 30
0.0
 11
168.0
 21
-360.1
 31
0.0
  0
LINE
  5
25C
  8
SIZE
  6
CONTINUOUS
 62
    30
 10
-168.0
 20
-30.0
 30
0.0
 11
-168.0
 21
-360.1
 31
0.0
  0
LINE
  5
25D
  8
SIZE
  6
CONTINUOUS
 62
    30
 10
158.0
 20
-347.6
 30
0.0
 11
-158.0
 21
-347.6
 31
0.0
  0
CIRCLE
  5
25E
  8
SIZE
  6
CONTINUOUS
 62
    30
 10
168.0
 20
-347.6
 30
0.0
 40
5.0
  0
LINE
  5
25F
  8
SIZE
  6
CONTINUOUS
 62
    30
 10
168.0
 20
-347.6
 30
0.0
 11
158.0
 21
-347.6
 31
0.0
  0
CIRCLE
  5
260
  8
SIZE
  6
CONTINUOUS
 62
    30
 10
-168.0
 20
-347.6
 30
0.0
 40
5.0
  0
LINE
  5
261
  8
SIZE
  6
CONTINUOUS
 62
    30
 10
-168.0
 20
-347.6
 30
0.0
 11
-158.0
 21
-347.6
 31
0.0
  0
TEXT
  5
262
  8
SIZE
  6
CONTINUOUS
 62
    30
 10
-40.0
 20
-337.6
 30
0.0
 40
30.0
  1
336
 72
     1
 11
0.0
 21
-337.6
 31
0.0
  0
POINT
  5
263
  8
DEFPOINTS
  6
CONTINUOUS
 62
    30
 10
168.0
 20
-20.0
 30
0.0
  0
POINT
  5
264
  8
DEFPOINTS
  6
CONTINUOUS
 62
    30
 10
-168.0
 20
-20.0
 30
0.0
  0
POINT
  5
265
  8
DEFPOINTS
  6
CONTINUOUS
 62
    30
 10
-168.0
 20
-347.6
 30
0.0
  0
LINE
  5
266
  8
SIZE
  6
CONTINUOUS
 62
    30
 10
-215.0
 20
-30.0
 30
0.0
 11
-215.0
 21
-260.1
 31
0.0
  0
LINE
  5
267
  8
SIZE
  6
CONTINUOUS
 62
    30
 10
-121.0
 20
-30.0
 30
0.0
 11
-121.0
 21
-260.1
 31
0.0
  0
LINE
  5
268
  8
SIZE
  6
CONTINUOUS
 62
    30
 10
-205.0
 20
-247.6
 30
0.0
 11
-131.0
 21
-247.6
 31
0.0
  0
CIRCLE
  5
269
  8
SIZE
  6
CONTINUOUS
 62
    30
 10
-215.0
 20
-247.6
 30
0.0
 40
5.0
  0
LINE
  5
26A
  8
SIZE
  6
CONTINUOUS
 62
    30
 10
-215.0
 20
-247.6
 30
0.0
 11
-205.0
 21
-247.6
 31
0.0
  0
CIRCLE
  5
26B
  8
SIZE
  6
CONTINUOUS
 62
    30
 10
-121.0
 20
-247.6
 30
0.0
 40
5.0
  0
LINE
  5
26C
  8
SIZE
  6
CONTINUOUS
 62
    30
 10
-121.0
 20
-247.6
 30
0.0
 11
-131.0
 21
-247.6
 31
0.0
  0
TEXT
  5
26D
  8
SIZE
  6
CONTINUOUS
 62
    30
 10
-193.0
 20
-237.6
 30
0.0
 40
30.0
  1
94
 72
     1
 11
-168.0
 21
-237.6
 31
0.0
  0
POINT
  5
26E
  8
DEFPOINTS
  6
CONTINUOUS
 62
    30
 10
-215.0
 20
-20.0
 30
0.0
  0
POINT
  5
26F
  8
DEFPOINTS
  6
CONTINUOUS
 62
    30
 10
-121.0
 20
-20.0
 30
0.0
  0
POINT
  5
270
  8
DEFPOINTS
  6
CONTINUOUS
 62
    30
 10
-121.0
 20
-247.6
 30
0.0
  0
LINE
  5
271
  8
SIZE
  6
CONTINUOUS
 62
    30
 10
215.0
 20
-30.0
 30
0.0
 11
215.0
 21
-260.1
 31
0.0
  0
LINE
  5
272
  8
SIZE
  6
CONTINUOUS
 62
    30
 10
121.0
 20
-30.0
 30
0.0
 11
121.0
 21
-260.1
 31
0.0
  0
LINE
  5
273
  8
SIZE
  6
CONTINUOUS
 62
    30
 10
205.0
 20
-247.6
 30
0.0
 11
131.0
 21
-247.6
 31
0.0
  0
CIRCLE
  5
274
  8
SIZE
  6
CONTINUOUS
 62
    30
 10
215.0
 20
-247.6
 30
0.0
 40
5.0
  0
LINE
  5
275
  8
SIZE
  6
CONTINUOUS
 62
    30
 10
215.0
 20
-247.6
 30
0.0
 11
205.0
 21
-247.6
 31
0.0
  0
CIRCLE
  5
276
  8
SIZE
  6
CONTINUOUS
 62
    30
 10
121.0
 20
-247.6
 30
0.0
 40
5.0
  0
LINE
  5
277
  8
SIZE
  6
CONTINUOUS
 62
    30
 10
121.0
 20
-247.6
 30
0.0
 11
131.0
 21
-247.6
 31
0.0
  0
TEXT
  5
278
  8
SIZE
  6
CONTINUOUS
 62
    30
 10
143.0
 20
-237.6
 30
0.0
 40
30.0
  1
94
 72
     1
 11
168.0
 21
-237.6
 31
0.0
  0
POINT
  5
279
  8
DEFPOINTS
  6
CONTINUOUS
 62
    30
 10
215.0
 20
-20.0
 30
0.0
  0
POINT
  5
27A
  8
DEFPOINTS
  6
CONTINUOUS
 62
    30
 10
121.0
 20
-20.0
 30
0.0
  0
POINT
  5
27B
  8
DEFPOINTS
  6
CONTINUOUS
 62
    30
 10
121.0
 20
-247.6
 30
0.0
  0
LINE
  5
27C
  8
SIZE
  6
CONTINUOUS
 62
    30
 10
240.0
 20
0.0
 30
0.0
 11
432.6
 21
0.0
 31
0.0
  0
LINE
  5
27D
  8
SIZE
  6
CONTINUOUS
 62
    30
 10
217.0
 20
170.0
 30
0.0
 11
432.6
 21
170.0
 31
0.0
  0
LINE
  5
27E
  8
SIZE
  6
CONTINUOUS
 62
    30
 10
420.1
 20
10.0
 30
0.0
 11
420.1
 21
160.0
 31
0.0
  0
CIRCLE
  5
27F
  8
SIZE
  6
CONTINUOUS
 62
    30
 10
420.1
 20
0.0
 30
0.0
 40
5.0
  0
LINE
  5
280
  8
SIZE
  6
CONTINUOUS
 62
    30
 10
420.1
 20
0.0
 30
0.0
 11
420.1
 21
10.0
 31
0.0
  0
CIRCLE
  5
281
  8
SIZE
  6
CONTINUOUS
 62
    30
 10
420.1
 20
170.0
 30
0.0
 40
5.0
  0
LINE
  5
282
  8
SIZE
  6
CONTINUOUS
 62
    30
 10
420.1
 20
170.0
 30
0.0
 11
420.1
 21
160.0
 31
0.0
  0
TEXT
  5
283
  8
SIZE
  6
CONTINUOUS
 62
    30
 10
410.1
 20
52.5
 30
0.0
 40
30.0
  1
170
 50
90.0
 72
     1
 11
410.1
 21
85.0
 31
0.0
  0
POINT
  5
284
  8
DEFPOINTS
  6
CONTINUOUS
 62
    30
 10
230.0
 20
0.0
 30
0.0
  0
POINT
  5
285
  8
DEFPOINTS
  6
CONTINUOUS
 62
    30
 10
207.0
 20
170.0
 30
0.0
  0
POINT
  5
286
  8
DEFPOINTS
  6
CONTINUOUS
 62
    30
 10
420.1
 20
170.0
 30
0.0
  0
LINE
  5
287
  8
SIZE
  6
CONTINUOUS
 62
    30
 10
-272.5
 20
190.0
 30
0.0
 11
-272.5
 21
-160.1
 31
0.0
  0
LINE
  5
288
  8
SIZE
  6
CONTINUOUS
 62
    30
 10
-185.5
 20
170.0
 30
0.0
 11
-185.5
 21
-160.1
 31
0.0
  0
LINE
  5
289
  8
SIZE
  6
CONTINUOUS
 62
    30
 10
-262.5
 20
-147.6
 30
0.0
 11
-195.5
 21
-147.6
 31
0.0
  0
CIRCLE
  5
28A
  8
SIZE
  6
CONTINUOUS
 62
    30
 10
-272.5
 20
-147.6
 30
0.0
 40
5.0
  0
LINE
  5
28B
  8
SIZE
  6
CONTINUOUS
 62
    30
 10
-272.5
 20
-147.6
 30
0.0
 11
-262.5
 21
-147.6
 31
0.0
  0
CIRCLE
  5
28C
  8
SIZE
  6
CONTINUOUS
 62
    30
 10
-185.5
 20
-147.6
 30
0.0
 40
5.0
  0
LINE
  5
28D
  8
SIZE
  6
CONTINUOUS
 62
    30
 10
-185.5
 20
-147.6
 30
0.0
 11
-195.5
 21
-147.6
 31
0.0
  0
TEXT
  5
28E
  8
SIZE
  6
CONTINUOUS
 62
    30
 10
-254.0
 20
-137.6
 30
0.0
 40
30.0
  1
87
 72
     1
 11
-229.0
 21
-137.6
 31
0.0
  0
POINT
  5
28F
  8
DEFPOINTS
  6
CONTINUOUS
 62
    30
 10
-272.5
 20
200.0
 30
0.0
  0
POINT
  5
290
  8
DEFPOINTS
  6
CONTINUOUS
 62
    30
 10
-185.5
 20
180.0
 30
0.0
  0
POINT
  5
291
  8
DEFPOINTS
  6
CONTINUOUS
 62
    30
 10
-185.5
 20
-147.6
 30
0.0
  0
LINE
  5
292
  8
SIZE
  6
CONTINUOUS
 62
    30
 10
72.0
 20
170.0
 30
0.0
 11
72.0
 21
-160.1
 31
0.0
  0
LINE
  5
293
  8
SIZE
  6
CONTINUOUS
 62
    30
 10
0.0
 20
-48.687809
 30
0.0
 11
0.0
 21
-160.1
 31
0.0
  0
LINE
  5
294
  8
SIZE
  6
CONTINUOUS
 62
    30
 10
62.0
 20
-147.6
 30
0.0
 11
10.0
 21
-147.6
 31
0.0
  0
CIRCLE
  5
295
  8
SIZE
  6
CONTINUOUS
 62
    30
 10
72.0
 20
-147.6
 30
0.0
 40
5.0
  0
LINE
  5
296
  8
SIZE
  6
CONTINUOUS
 62
    30
 10
72.0
 20
-147.6
 30
0.0
 11
62.0
 21
-147.6
 31
0.0
  0
CIRCLE
  5
297
  8
SIZE
  6
CONTINUOUS
 62
    30
 10
0.0
 20
-147.6
 30
0.0
 40
5.0
  0
LINE
  5
298
  8
SIZE
  6
CONTINUOUS
 62
    30
 10
0.0
 20
-147.6
 30
0.0
 11
10.0
 21
-147.6
 31
0.0
  0
TEXT
  5
299
  8
SIZE
  6
CONTINUOUS
 62
    30
 10
11.0
 20
-137.6
 30
0.0
 40
30.0
  1
72
 72
     1
 11
36.0
 21
-137.6
 31
0.0
  0
POINT
  5
29A
  8
DEFPOINTS
  6
CONTINUOUS
 62
    30
 10
72.0
 20
180.0
 30
0.0
  0
POINT
  5
29B
  8
DEFPOINTS
  6
CONTINUOUS
 62
    30
 10
0.0
 20
-38.687809
 30
0.0
  0
POINT
  5
29C
  8
DEFPOINTS
  6
CONTINUOUS
 62
    30
 10
0.0
 20
-147.6
 30
0.0
  0
LINE
  5
29D
  8
SIZE
  6
CONTINUOUS
 62
    30
 10
187.0
 20
140.0
 30
0.0
 11
187.0
 21
-160.1
 31
0.0
  0
LINE
  5
29E
  8
SIZE
  6
CONTINUOUS
 62
    30
 10
72.0
 20
170.0
 30
0.0
 11
72.0
 21
-160.1
 31
0.0
  0
LINE
  5
29F
  8
SIZE
  6
CONTINUOUS
 62
    30
 10
177.0
 20
-147.6
 30
0.0
 11
82.0
 21
-147.6
 31
0.0
  0
CIRCLE
  5
2A0
  8
SIZE
  6
CONTINUOUS
 62
    30
 10
187.0
 20
-147.6
 30
0.0
 40
5.0
  0
LINE
  5
2A1
  8
SIZE
  6
CONTINUOUS
 62
    30
 10
187.0
 20
-147.6
 30
0.0
 11
177.0
 21
-147.6
 31
0.0
  0
CIRCLE
  5
2A2
  8
SIZE
  6
CONTINUOUS
 62
    30
 10
72.0
 20
-147.6
 30
0.0
 40
5.0
  0
LINE
  5
2A3
  8
SIZE
  6
CONTINUOUS
 62
    30
 10
72.0
 20
-147.6
 30
0.0
 11
82.0
 21
-147.6
 31
0.0
  0
TEXT
  5
2A4
  8
SIZE
  6
CONTINUOUS
 62
    30
 10
99.5
 20
-137.6
 30
0.0
 40
30.0
  1
115
 72
     1
 11
129.5
 21
-137.6
 31
0.0
  0
POINT
  5
2A5
  8
DEFPOINTS
  6
CONTINUOUS
 62
    30
 10
187.0
 20
150.0
 30
0.0
  0
POINT
  5
2A6
  8
DEFPOINTS
  6
CONTINUOUS
 62
    30
 10
72.0
 20
180.0
 30
0.0
  0
POINT
  5
2A7
  8
DEFPOINTS
  6
CONTINUOUS
 62
    30
 10
72.0
 20
-147.6
 30
0.0
  0
LINE
  5
2A8
  8
SIZE
  6
CONTINUOUS
 62
    30
 10
-148.0
 20
170.0
 30
0.0
 11
-148.0
 21
-160.1
 31
0.0
  0
LINE
  5
2A9
  8
SIZE
  6
CONTINUOUS
 62
    30
 10
0.0
 20
-48.687809
 30
0.0
 11
0.0
 21
-160.1
 31
0.0
  0
LINE
  5
2AA
  8
SIZE
  6
CONTINUOUS
 62
    30
 10
-138.0
 20
-147.6
 30
0.0
 11
-10.0
 21
-147.6
 31
0.0
  0
CIRCLE
  5
2AB
  8
SIZE
  6
CONTINUOUS
 62
    30
 10
-148.0
 20
-147.6
 30
0.0
 40
5.0
  0
LINE
  5
2AC
  8
SIZE
  6
CONTINUOUS
 62
    30
 10
-148.0
 20
-147.6
 30
0.0
 11
-138.0
 21
-147.6
 31
0.0
  0
CIRCLE
  5
2AD
  8
SIZE
  6
CONTINUOUS
 62
    30
 10
0.0
 20
-147.6
 30
0.0
 40
5.0
  0
LINE
  5
2AE
  8
SIZE
  6
CONTINUOUS
 62
    30
 10
0.0
 20
-147.6
 30
0.0
 11
-10.0
 21
-147.6
 31
0.0
  0
TEXT
  5
2AF
  8
SIZE
  6
CONTINUOUS
 62
    30
 10
-109.0
 20
-137.6
 30
0.0
 40
30.0
  1
148
 72
     1
 11
-74.0
 21
-137.6
 31
0.0
  0
POINT
  5
2B0
  8
DEFPOINTS
  6
CONTINUOUS
 62
    30
 10
-148.0
 20
180.0
 30
0.0
  0
POINT
  5
2B1
  8
DEFPOINTS
  6
CONTINUOUS
 62
    30
 10
0.0
 20
-38.687809
 30
0.0
  0
POINT
  5
2B2
  8
DEFPOINTS
  6
CONTINUOUS
 62
    30
 10
0.0
 20
-147.6
 30
0.0
  0
LINE
  5
2B3
  8
SIZE
  6
CONTINUOUS
 62
    30
 10
-30.0
 20
1961.506348
 30
0.0
 11
-30.0
 21
2059.9
 31
0.0
  0
LINE
  5
2B4
  8
SIZE
  6
CONTINUOUS
 62
    30
 10
30.0
 20
1961.506348
 30
0.0
 11
30.0
 21
2059.9
 31
0.0
  0
LINE
  5
2B5
  8
SIZE
  6
CONTINUOUS
 62
    30
 10
-20.0
 20
2047.4
 30
0.0
 11
20.0
 21
2047.4
 31
0.0
  0
CIRCLE
  5
2B6
  8
SIZE
  6
CONTINUOUS
 62
    30
 10
-30.0
 20
2047.4
 30
0.0
 40
5.0
  0
LINE
  5
2B7
  8
SIZE
  6
CONTINUOUS
 62
    30
 10
-30.0
 20
2047.4
 30
0.0
 11
-20.0
 21
2047.4
 31
0.0
  0
CIRCLE
  5
2B8
  8
SIZE
  6
CONTINUOUS
 62
    30
 10
30.0
 20
2047.4
 30
0.0
 40
5.0
  0
LINE
  5
2B9
  8
SIZE
  6
CONTINUOUS
 62
    30
 10
30.0
 20
2047.4
 30
0.0
 11
20.0
 21
2047.4
 31
0.0
  0
TEXT
  5
2BA
  8
SIZE
  6
CONTINUOUS
 62
    30
 10
-22.5
 20
2057.4
 30
0.0
 40
30.0
  1
60
 72
     1
 11
0.0
 21
2057.4
 31
0.0
  0
POINT
  5
2BB
  8
DEFPOINTS
  6
CONTINUOUS
 62
    30
 10
-30.0
 20
1951.506348
 30
0.0
  0
POINT
  5
2BC
  8
DEFPOINTS
  6
CONTINUOUS
 62
    30
 10
30.0
 20
1951.506348
 30
0.0
  0
POINT
  5
2BD
  8
DEFPOINTS
  6
CONTINUOUS
 62
    30
 10
30.0
 20
2047.4
 30
0.0
  0
LINE
  5
2BE
  8
SIZE
  6
CONTINUOUS
 62
    30
 10
45.0
 20
1950.0
 30
0.0
 11
45.0
 21
2159.9
 31
0.0
  0
LINE
  5
2BF
  8
SIZE
  6
CONTINUOUS
 62
    30
 10
-45.0
 20
1950.0
 30
0.0
 11
-45.0
 21
2159.9
 31
0.0
  0
LINE
  5
2C0
  8
SIZE
  6
CONTINUOUS
 62
    30
 10
35.0
 20
2147.4
 30
0.0
 11
-35.0
 21
2147.4
 31
0.0
  0
CIRCLE
  5
2C1
  8
SIZE
  6
CONTINUOUS
 62
    30
 10
45.0
 20
2147.4
 30
0.0
 40
5.0
  0
LINE
  5
2C2
  8
SIZE
  6
CONTINUOUS
 62
    30
 10
45.0
 20
2147.4
 30
0.0
 11
35.0
 21
2147.4
 31
0.0
  0
CIRCLE
  5
2C3
  8
SIZE
  6
CONTINUOUS
 62
    30
 10
-45.0
 20
2147.4
 30
0.0
 40
5.0
  0
LINE
  5
2C4
  8
SIZE
  6
CONTINUOUS
 62
    30
 10
-45.0
 20
2147.4
 30
0.0
 11
-35.0
 21
2147.4
 31
0.0
  0
TEXT
  5
2C5
  8
SIZE
  6
CONTINUOUS
 62
    30
 10
-23.677734
 20
2157.4
 30
0.0
 40
30.0
  1
90
 72
     1
 11
-1.177734
 21
2157.4
 31
0.0
  0
POINT
  5
2C6
  8
DEFPOINTS
  6
CONTINUOUS
 62
    30
 10
45.0
 20
1940.0
 30
0.0
  0
POINT
  5
2C7
  8
DEFPOINTS
  6
CONTINUOUS
 62
    30
 10
-45.0
 20
1940.0
 30
0.0
  0
POINT
  5
2C8
  8
DEFPOINTS
  6
CONTINUOUS
 62
    30
 10
-45.0
 20
2147.4
 30
0.0
  0
LINE
  5
2C9
  8
SIZE
  6
CONTINUOUS
 62
    30
 10
-272.5
 20
2110.0
 30
0.0
 11
-272.5
 21
2259.9
 31
0.0
  0
LINE
  5
2CA
  8
SIZE
  6
CONTINUOUS
 62
    30
 10
272.5
 20
2110.0
 30
0.0
 11
272.5
 21
2259.9
 31
0.0
  0
LINE
  5
2CB
  8
SIZE
  6
CONTINUOUS
 62
    30
 10
-262.5
 20
2247.4
 30
0.0
 11
262.5
 21
2247.4
 31
0.0
  0
CIRCLE
  5
2CC
  8
SIZE
  6
CONTINUOUS
 62
    30
 10
-272.5
 20
2247.4
 30
0.0
 40
5.0
  0
LINE
  5
2CD
  8
SIZE
  6
CONTINUOUS
 62
    30
 10
-272.5
 20
2247.4
 30
0.0
 11
-262.5
 21
2247.4
 31
0.0
  0
CIRCLE
  5
2CE
  8
SIZE
  6
CONTINUOUS
 62
    30
 10
272.5
 20
2247.4
 30
0.0
 40
5.0
  0
LINE
  5
2CF
  8
SIZE
  6
CONTINUOUS
 62
    30
 10
272.5
 20
2247.4
 30
0.0
 11
262.5
 21
2247.4
 31
0.0
  0
TEXT
  5
2D0
  8
SIZE
  6
CONTINUOUS
 62
    30
 10
-40.0
 20
2257.4
 30
0.0
 40
30.0
  1
545
 72
     1
 11
0.0
 21
2257.4
 31
0.0
  0
POINT
  5
2D1
  8
DEFPOINTS
  6
CONTINUOUS
 62
    30
 10
-272.5
 20
2100.0
 30
0.0
  0
POINT
  5
2D2
  8
DEFPOINTS
  6
CONTINUOUS
 62
    30
 10
272.5
 20
2100.0
 30
0.0
  0
POINT
  5
2D3
  8
DEFPOINTS
  6
CONTINUOUS
 62
    30
 10
272.5
 20
2247.4
 30
0.0
  0
LINE
  5
2D4
  8
SIZE
  6
CONTINUOUS
 62
    30
 10
282.5
 20
1900.0
 30
0.0
 11
732.6
 21
1900.0
 31
0.0
  0
LINE
  5
2D5
  8
SIZE
  6
CONTINUOUS
 62
    30
 10
282.5
 20
2100.0
 30
0.0
 11
732.6
 21
2100.0
 31
0.0
  0
LINE
  5
2D6
  8
SIZE
  6
CONTINUOUS
 62
    30
 10
720.1
 20
1910.0
 30
0.0
 11
720.1
 21
2090.0
 31
0.0
  0
CIRCLE
  5
2D7
  8
SIZE
  6
CONTINUOUS
 62
    30
 10
720.1
 20
1900.0
 30
0.0
 40
5.0
  0
LINE
  5
2D8
  8
SIZE
  6
CONTINUOUS
 62
    30
 10
720.1
 20
1900.0
 30
0.0
 11
720.1
 21
1910.0
 31
0.0
  0
CIRCLE
  5
2D9
  8
SIZE
  6
CONTINUOUS
 62
    30
 10
720.1
 20
2100.0
 30
0.0
 40
5.0
  0
LINE
  5
2DA
  8
SIZE
  6
CONTINUOUS
 62
    30
 10
720.1
 20
2100.0
 30
0.0
 11
720.1
 21
2090.0
 31
0.0
  0
TEXT
  5
2DB
  8
SIZE
  6
CONTINUOUS
 62
    30
 10
710.1
 20
1965.0
 30
0.0
 40
30.0
  1
200
 50
90.0
 72
     1
 11
710.1
 21
2000.0
 31
0.0
  0
POINT
  5
2DC
  8
DEFPOINTS
  6
CONTINUOUS
 62
    30
 10
272.5
 20
1900.0
 30
0.0
  0
POINT
  5
2DD
  8
DEFPOINTS
  6
CONTINUOUS
 62
    30
 10
272.5
 20
2100.0
 30
0.0
  0
POINT
  5
2DE
  8
DEFPOINTS
  6
CONTINUOUS
 62
    30
 10
720.1
 20
2100.0
 30
0.0
  0
LINE
  5
2DF
  8
SIZE
  6
CONTINUOUS
 62
    30
 10
282.5
 20
200.0
 30
0.0
 11
632.6
 21
200.0
 31
0.0
  0
LINE
  5
2E0
  8
SIZE
  6
CONTINUOUS
 62
    30
 10
282.5
 20
1900.0
 30
0.0
 11
632.6
 21
1900.0
 31
0.0
  0
LINE
  5
2E1
  8
SIZE
  6
CONTINUOUS
 62
    30
 10
620.1
 20
210.0
 30
0.0
 11
620.1
 21
1890.0
 31
0.0
  0
CIRCLE
  5
2E2
  8
SIZE
  6
CONTINUOUS
 62
    30
 10
620.1
 20
200.0
 30
0.0
 40
5.0
  0
LINE
  5
2E3
  8
SIZE
  6
CONTINUOUS
 62
    30
 10
620.1
 20
200.0
 30
0.0
 11
620.1
 21
210.0
 31
0.0
  0
CIRCLE
  5
2E4
  8
SIZE
  6
CONTINUOUS
 62
    30
 10
620.1
 20
1900.0
 30
0.0
 40
5.0
  0
LINE
  5
2E5
  8
SIZE
  6
CONTINUOUS
 62
    30
 10
620.1
 20
1900.0
 30
0.0
 11
620.1
 21
1890.0
 31
0.0
  0
TEXT
  5
2E6
  8
SIZE
  6
CONTINUOUS
 62
    30
 10
610.1
 20
1005.0
 30
0.0
 40
30.0
  1
1700
 50
90.0
 72
     1
 11
610.1
 21
1050.0
 31
0.0
  0
POINT
  5
2E7
  8
DEFPOINTS
  6
CONTINUOUS
 62
    30
 10
272.5
 20
200.0
 30
0.0
  0
POINT
  5
2E8
  8
DEFPOINTS
  6
CONTINUOUS
 62
    30
 10
272.5
 20
1900.0
 30
0.0
  0
POINT
  5
2E9
  8
DEFPOINTS
  6
CONTINUOUS
 62
    30
 10
620.1
 20
1900.0
 30
0.0
  0
LINE
  5
2EA
  8
SIZE
  6
CONTINUOUS
 62
    30
 10
282.5
 20
200.0
 30
0.0
 11
632.6
 21
200.0
 31
0.0
  0
LINE
  5
2EB
  8
SIZE
  6
CONTINUOUS
 62
    30
 10
210.0
 20
0.0
 30
0.0
 11
632.6
 21
0.0
 31
0.0
  0
LINE
  5
2EC
  8
SIZE
  6
CONTINUOUS
 62
    30
 10
620.1
 20
190.0
 30
0.0
 11
620.1
 21
10.0
 31
0.0
  0
CIRCLE
  5
2ED
  8
SIZE
  6
CONTINUOUS
 62
    30
 10
620.1
 20
200.0
 30
0.0
 40
5.0
  0
LINE
  5
2EE
  8
SIZE
  6
CONTINUOUS
 62
    30
 10
620.1
 20
200.0
 30
0.0
 11
620.1
 21
190.0
 31
0.0
  0
CIRCLE
  5
2EF
  8
SIZE
  6
CONTINUOUS
 62
    30
 10
620.1
 20
0.0
 30
0.0
 40
5.0
  0
LINE
  5
2F0
  8
SIZE
  6
CONTINUOUS
 62
    30
 10
620.1
 20
0.0
 30
0.0
 11
620.1
 21
10.0
 31
0.0
  0
TEXT
  5
2F1
  8
SIZE
  6
CONTINUOUS
 62
    30
 10
610.1
 20
65.0
 30
0.0
 40
30.0
  1
200
 50
90.0
 72
     1
 11
610.1
 21
100.0
 31
0.0
  0
POINT
  5
2F2
  8
DEFPOINTS
  6
CONTINUOUS
 62
    30
 10
272.5
 20
200.0
 30
0.0
  0
POINT
  5
2F3
  8
DEFPOINTS
  6
CONTINUOUS
 62
    30
 10
200.0
 20
0.0
 30
0.0
  0
POINT
  5
2F4
  8
DEFPOINTS
  6
CONTINUOUS
 62
    30
 10
620.1
 20
0.0
 30
0.0
  0
LINE
  5
2F5
  8
SIZE
  6
CONTINUOUS
 62
    30
 10
282.5
 20
1900.0
 30
0.0
 11
732.6
 21
1900.0
 31
0.0
  0
LINE
  5
2F6
  8
SIZE
  6
CONTINUOUS
 62
    30
 10
210.0
 20
0.0
 30
0.0
 11
732.6
 21
0.0
 31
0.0
  0
LINE
  5
2F7
  8
SIZE
  6
CONTINUOUS
 62
    30
 10
720.1
 20
1890.0
 30
0.0
 11
720.1
 21
10.0
 31
0.0
  0
CIRCLE
  5
2F8
  8
SIZE
  6
CONTINUOUS
 62
    30
 10
720.1
 20
1900.0
 30
0.0
 40
5.0
  0
LINE
  5
2F9
  8
SIZE
  6
CONTINUOUS
 62
    30
 10
720.1
 20
1900.0
 30
0.0
 11
720.1
 21
1890.0
 31
0.0
  0
CIRCLE
  5
2FA
  8
SIZE
  6
CONTINUOUS
 62
    30
 10
720.1
 20
0.0
 30
0.0
 40
5.0
  0
LINE
  5
2FB
  8
SIZE
  6
CONTINUOUS
 62
    30
 10
720.1
 20
0.0
 30
0.0
 11
720.1
 21
10.0
 31
0.0
  0
TEXT
  5
2FC
  8
SIZE
  6
CONTINUOUS
 62
    30
 10
710.1
 20
905.0
 30
0.0
 40
30.0
  1
1900
 50
90.0
 72
     1
 11
710.1
 21
950.0
 31
0.0
  0
POINT
  5
2FD
  8
DEFPOINTS
  6
CONTINUOUS
 62
    30
 10
272.5
 20
1900.0
 30
0.0
  0
POINT
  5
2FE
  8
DEFPOINTS
  6
CONTINUOUS
 62
    30
 10
200.0
 20
0.0
 30
0.0
  0
POINT
  5
2FF
  8
DEFPOINTS
  6
CONTINUOUS
 62
    30
 10
720.1
 20
0.0
 30
0.0
  0
LINE
  5
300
  8
SIZE
  6
CONTINUOUS
 62
    30
 10
-210.0
 20
0.0
 30
0.0
 11
-387.4
 21
0.0
 31
0.0
  0
LINE
  5
301
  8
SIZE
  6
CONTINUOUS
 62
    30
 10
-83.062012
 20
1923.0
 30
0.0
 11
-387.4
 21
1923.0
 31
0.0
  0
LINE
  5
302
  8
SIZE
  6
CONTINUOUS
 62
    30
 10
-374.9
 20
10.0
 30
0.0
 11
-374.9
 21
1913.0
 31
0.0
  0
CIRCLE
  5
303
  8
SIZE
  6
CONTINUOUS
 62
    30
 10
-374.9
 20
0.0
 30
0.0
 40
5.0
  0
LINE
  5
304
  8
SIZE
  6
CONTINUOUS
 62
    30
 10
-374.9
 20
0.0
 30
0.0
 11
-374.9
 21
10.0
 31
0.0
  0
CIRCLE
  5
305
  8
SIZE
  6
CONTINUOUS
 62
    30
 10
-374.9
 20
1923.0
 30
0.0
 40
5.0
  0
LINE
  5
306
  8
SIZE
  6
CONTINUOUS
 62
    30
 10
-374.9
 20
1923.0
 30
0.0
 11
-374.9
 21
1913.0
 31
0.0
  0
TEXT
  5
307
  8
SIZE
  6
CONTINUOUS
 62
    30
 10
-384.9
 20
911.5
 30
0.0
 40
30.0
  1
1923
 50
90.0
 72
     1
 11
-384.9
 21
961.5
 31
0.0
  0
POINT
  5
308
  8
DEFPOINTS
  6
CONTINUOUS
 62
    30
 10
-200.0
 20
0.0
 30
0.0
  0
POINT
  5
309
  8
DEFPOINTS
  6
CONTINUOUS
 62
    30
 10
-73.062012
 20
1923.0
 30
0.0
  0
POINT
  5
30A
  8
DEFPOINTS
  6
CONTINUOUS
 62
    30
 10
-374.9
 20
1923.0
 30
0.0
  0
LINE
  5
30B
  8
SIZE
  6
CONTINUOUS
 62
    30
 10
-50.0
 20
1945.0
 30
0.0
 11
-487.4
 21
1945.0
 31
0.0
  0
LINE
  5
30C
  8
SIZE
  6
CONTINUOUS
 62
    30
 10
-210.0
 20
0.0
 30
0.0
 11
-487.4
 21
0.0
 31
0.0
  0
LINE
  5
30D
  8
SIZE
  6
CONTINUOUS
 62
    30
 10
-474.9
 20
1935.0
 30
0.0
 11
-474.9
 21
10.0
 31
0.0
  0
CIRCLE
  5
30E
  8
SIZE
  6
CONTINUOUS
 62
    30
 10
-474.9
 20
1945.0
 30
0.0
 40
5.0
  0
LINE
  5
30F
  8
SIZE
  6
CONTINUOUS
 62
    30
 10
-474.9
 20
1945.0
 30
0.0
 11
-474.9
 21
1935.0
 31
0.0
  0
CIRCLE
  5
310
  8
SIZE
  6
CONTINUOUS
 62
    30
 10
-474.9
 20
0.0
 30
0.0
 40
5.0
  0
LINE
  5
311
  8
SIZE
  6
CONTINUOUS
 62
    30
 10
-474.9
 20
0.0
 30
0.0
 11
-474.9
 21
10.0
 31
0.0
  0
TEXT
  5
312
  8
SIZE
  6
CONTINUOUS
 62
    30
 10
-484.9
 20
876.636919
 30
0.0
 40
30.0
  1
1945
 50
90.0
 72
     1
 11
-484.9
 21
926.636919
 31
0.0
  0
POINT
  5
313
  8
DEFPOINTS
  6
CONTINUOUS
 62
    30
 10
-40.0
 20
1945.0
 30
0.0
  0
POINT
  5
314
  8
DEFPOINTS
  6
CONTINUOUS
 62
    30
 10
-200.0
 20
0.0
 30
0.0
  0
POINT
  5
315
  8
DEFPOINTS
  6
CONTINUOUS
 62
    30
 10
-474.9
 20
0.0
 30
0.0
  0
LINE
  5
316
  8
SIZE
  6
CONTINUOUS
 62
    30
 10
-272.5
 20
190.0
 30
0.0
 11
-272.5
 21
-460.1
 31
0.0
  0
LINE
  5
317
  8
SIZE
  6
CONTINUOUS
 62
    30
 10
272.5
 20
190.0
 30
0.0
 11
272.5
 21
-460.1
 31
0.0
  0
LINE
  5
318
  8
SIZE
  6
CONTINUOUS
 62
    30
 10
-262.5
 20
-447.6
 30
0.0
 11
262.5
 21
-447.6
 31
0.0
  0
CIRCLE
  5
319
  8
SIZE
  6
CONTINUOUS
 62
    30
 10
-272.5
 20
-447.6
 30
0.0
 40
5.0
  0
LINE
  5
31A
  8
SIZE
  6
CONTINUOUS
 62
    30
 10
-272.5
 20
-447.6
 30
0.0
 11
-262.5
 21
-447.6
 31
0.0
  0
CIRCLE
  5
31B
  8
SIZE
  6
CONTINUOUS
 62
    30
 10
272.5
 20
-447.6
 30
0.0
 40
5.0
  0
LINE
  5
31C
  8
SIZE
  6
CONTINUOUS
 62
    30
 10
272.5
 20
-447.6
 30
0.0
 11
262.5
 21
-447.6
 31
0.0
  0
TEXT
  5
31D
  8
SIZE
  6
CONTINUOUS
 62
    30
 10
-40.0
 20
-437.6
 30
0.0
 40
30.0
  1
545
 72
     1
 11
0.0
 21
-437.6
 31
0.0
  0
POINT
  5
31E
  8
DEFPOINTS
  6
CONTINUOUS
 62
    30
 10
-272.5
 20
200.0
 30
0.0
  0
POINT
  5
31F
  8
DEFPOINTS
  6
CONTINUOUS
 62
    30
 10
272.5
 20
200.0
 30
0.0
  0
POINT
  5
320
  8
DEFPOINTS
  6
CONTINUOUS
 62
    30
 10
272.5
 20
-447.6
 30
0.0
  0
TEXT
  5
321
  8
NOTE
  6
CONTINUOUS
 10
-764.326843
 20
-327.310303
 30
0.0
 40
40.0
  1
（脚固定金具使用時のみ）
 50
0.000003
 41
0.84375
  7
STANDARD1
  0
LINE
  5
322
  8
NOTE
  6
CONTINUOUS
 10
527.945435
 20
-201.405289
 30
0.0
 11
304.695435
 21
-201.405289
 31
0.0
  0
LINE
  5
323
  8
NOTE
  6
CONTINUOUS
 10
304.695435
 20
-201.405289
 30
0.0
 11
72.0
 21
200.0
 31
0.0
  0
LINE
  5
324
  8
NOTE
  6
CONTINUOUS
 10
72.0
 20
200.0
 30
0.0
 11
73.416703
 21
198.58828
 31
0.0
  0
LINE
  5
325
  8
NOTE
  6
CONTINUOUS
 10
72.0
 20
200.0
 30
0.0
 11
72.521041
 21
198.069063
 31
0.0
  0
TEXT
  5
326
  8
NOTE
  6
CONTINUOUS
 10
365.445435
 20
-200.405289
 30
0.0
 40
40.0
  1
HW φ39
 41
0.702586
  7
STANDARD1
  0
LINE
  5
327
  8
NOTE
  6
CONTINUOUS
 10
-185.5
 20
180.0
 30
0.0
 11
-185.5
 21
220.0
 31
0.0
  0
LINE
  5
328
  8
NOTE
  6
CONTINUOUS
 10
-165.5
 20
200.0
 30
0.0
 11
-205.5
 21
200.0
 31
0.0
  0
LINE
  5
329
  8
NOTE
  6
CONTINUOUS
 10
-610.834229
 20
-68.955063
 30
0.0
 11
-387.584198
 21
-68.955063
 31
0.0
  0
LINE
  5
32A
  8
NOTE
  6
CONTINUOUS
 10
-387.584198
 20
-68.955063
 30
0.0
 11
-185.5
 21
200.0
 31
0.0
  0
LINE
  5
32B
  8
NOTE
  6
CONTINUOUS
 10
-185.5
 20
200.0
 30
0.0
 11
-186.246624
 21
198.144588
 31
0.0
  0
LINE
  5
32C
  8
NOTE
  6
CONTINUOUS
 10
-185.5
 20
200.0
 30
0.0
 11
-187.074301
 21
198.766478
 31
0.0
  0
TEXT
  5
32D
  8
NOTE
  6
CONTINUOUS
 10
-610.834229
 20
-67.955063
 30
0.0
 40
40.0
  1
EL φ19
 41
0.702586
  7
STANDARD1
  0
LINE
  5
32E
  8
NOTE
  6
CONTINUOUS
 10
-148.0
 20
220.0
 30
0.0
 11
-148.0
 21
180.0
 31
0.0
  0
LINE
  5
32F
  8
NOTE
  6
CONTINUOUS
 10
-128.0
 20
200.0
 30
0.0
 11
-168.0
 21
200.0
 31
0.0
  0
LINE
  5
330
  8
NOTE
  6
CONTINUOUS
 10
-633.728638
 20
-153.991425
 30
0.0
 11
-410.478607
 21
-153.991425
 31
0.0
  0
LINE
  5
331
  8
NOTE
  6
CONTINUOUS
 10
-410.478607
 20
-153.991425
 30
0.0
 11
-148.0
 21
200.0
 31
0.0
  0
LINE
  5
332
  8
NOTE
  6
CONTINUOUS
 10
-148.0
 20
200.0
 30
0.0
 11
-148.734831
 21
198.139886
 31
0.0
  0
LINE
  5
333
  8
NOTE
  6
CONTINUOUS
 10
-148.0
 20
200.0
 30
0.0
 11
-149.566439
 21
198.756509
 31
0.0
  0
TEXT
  5
334
  8
NOTE
  6
CONTINUOUS
 10
-633.728638
 20
-152.991425
 30
0.0
 40
40.0
  1
CW φ39
 41
0.702586
  7
STANDARD1
  0
LINE
  5
335
  8
NOTE
  6
CONTINUOUS
 10
72.0
 20
220.0
 30
0.0
 11
72.0
 21
180.0
 31
0.0
  0
LINE
  5
336
  8
NOTE
  6
CONTINUOUS
 10
92.0
 20
200.0
 30
0.0
 11
52.0
 21
200.0
 31
0.0
  0
LINE
  5
337
  8
NOTE
  6
CONTINUOUS
 10
780.581177
 20
-94.714447
 30
0.0
 11
336.831207
 21
-94.714447
 31
0.0
  0
LINE
  5
338
  8
NOTE
  6
CONTINUOUS
 10
336.831207
 20
-94.714447
 30
0.0
 11
187.0
 21
170.0
 31
0.0
  0
LINE
  5
339
  8
NOTE
  6
CONTINUOUS
 10
187.0
 20
170.0
 30
0.0
 11
188.402076
 21
168.573752
 31
0.0
  0
LINE
  5
33A
  8
NOTE
  6
CONTINUOUS
 10
187.0
 20
170.0
 30
0.0
 11
187.501109
 21
168.063795
 31
0.0
  0
TEXT
  5
33B
  8
NOTE
  6
CONTINUOUS
 10
397.581207
 20
-93.714447
 30
0.0
 40
40.0
  1
WD R11/2(φ48.6)
 41
0.647804
  7
STANDARD1
  0
LINE
  5
33C
  8
NOTE
  6
CONTINUOUS
 10
187.0
 20
150.0
 30
0.0
 11
187.0
 21
190.0
 31
0.0
  0
LINE
  5
33D
  8
NOTE
  6
CONTINUOUS
 10
207.0
 20
170.0
 30
0.0
 11
167.0
 21
170.0
 31
0.0
  0
LINE
  5
33E
  8
NOTE
  6
CONTINUOUS
 10
207.0
 20
174.0
 30
0.0
 11
167.0
 21
174.0
 31
0.0
  0
LINE
  5
33F
  8
NOTE
  6
CONTINUOUS
 10
187.0
 20
154.0
 30
0.0
 11
187.0
 21
194.0
 31
0.0
  0
LINE
  5
340
  8
NOTE
  6
CONTINUOUS
 10
489.272705
 20
310.987579
 30
0.0
 11
290.522705
 21
310.987579
 31
0.0
  0
LINE
  5
341
  8
NOTE
  6
CONTINUOUS
 10
290.522705
 20
310.987579
 30
0.0
 11
187.0
 21
174.0
 31
0.0
  0
LINE
  5
342
  8
NOTE
  6
CONTINUOUS
 10
187.0
 20
174.0
 30
0.0
 11
187.751758
 21
175.853337
 31
0.0
  0
LINE
  5
343
  8
NOTE
  6
CONTINUOUS
 10
187.0
 20
174.0
 30
0.0
 11
188.57771
 21
175.229158
 31
0.0
  0
TEXT
  5
344
  8
NOTE
  6
CONTINUOUS
 10
351.272705
 20
311.987579
 30
0.0
 40
40.0
  1
D φ18
 41
0.721354
  7
STANDARD1
  0
LINE
  5
345
  8
NOTE
  6
CONTINUOUS
 10
-627.645142
 20
-505.109222
 30
0.0
 11
-371.395111
 21
-505.109222
 31
0.0
  0
LINE
  5
346
  8
NOTE
  6
CONTINUOUS
 10
-371.395111
 20
-505.109222
 30
0.0
 11
-168.0
 21
0.0
 31
0.0
  0
LINE
  5
347
  8
NOTE
  6
CONTINUOUS
 10
-168.0
 20
0.0
 30
0.0
 11
-168.241432
 21
-1.985374
 31
0.0
  0
LINE
  5
348
  8
NOTE
  6
CONTINUOUS
 10
-168.0
 20
0.0
 30
0.0
 11
-169.201774
 21
-1.598668
 31
0.0
  0
TEXT
  5
349
  8
NOTE
  6
CONTINUOUS
 10
-627.645142
 20
-504.109222
 30
0.0
 40
40.0
  1
AH 3-M10
 50
0.000003
 41
0.644737
  7
STANDARD1
  0
LINE
  5
34A
  8
NOTE
  6
CONTINUOUS
 10
-664.326843
 20
-267.310303
 30
0.0
 11
-408.076874
 21
-267.310303
 31
0.0
  0
LINE
  5
34B
  8
NOTE
  6
CONTINUOUS
 10
-408.076874
 20
-267.310303
 30
0.0
 11
-215.0
 21
0.0
 31
0.0
  0
LINE
  5
34C
  8
NOTE
  6
CONTINUOUS
 10
-215.0
 20
0.0
 30
0.0
 11
-215.711532
 21
-1.86915
 31
0.0
  0
LINE
  5
34D
  8
NOTE
  6
CONTINUOUS
 10
-215.0
 20
0.0
 30
0.0
 11
-216.55078
 21
-1.262966
 31
0.0
  0
TEXT
  5
34E
  8
NOTE
  6
CONTINUOUS
 10
-664.326904
 20
-266.310303
 30
0.0
 40
40.0
  1
AH 4-M10
 50
0.000003
 41
0.644737
  7
STANDARD1
  0
LINE
  5
34F
  8
NOTE
  6
CONTINUOUS
 10
-101.0
 20
0.0
 30
0.0
 11
-141.0
 21
0.0
 31
0.0
  0
LINE
  5
350
  8
NOTE
  6
CONTINUOUS
 10
-148.0
 20
0.0
 30
0.0
 11
-188.0
 21
0.0
 31
0.0
  0
LINE
  5
351
  8
NOTE
  6
CONTINUOUS
 10
-195.0
 20
0.0
 30
0.0
 11
-235.0
 21
0.0
 31
0.0
  0
LINE
  5
352
  8
NOTE
  6
CONTINUOUS
 10
-215.0
 20
20.0
 30
0.0
 11
-215.0
 21
-20.0
 31
0.0
  0
LINE
  5
353
  8
NOTE
  6
CONTINUOUS
 10
-168.0
 20
20.0
 30
0.0
 11
-168.0
 21
-20.0
 31
0.0
  0
LINE
  5
354
  8
NOTE
  6
CONTINUOUS
 10
-121.0
 20
20.0
 30
0.0
 11
-121.0
 21
-20.0
 31
0.0
  0
LINE
  5
355
  8
NOTE
  6
CONTINUOUS
 10
195.0
 20
0.0
 30
0.0
 11
235.0
 21
0.0
 31
0.0
  0
LINE
  5
356
  8
NOTE
  6
CONTINUOUS
 10
148.0
 20
0.0
 30
0.0
 11
188.0
 21
0.0
 31
0.0
  0
LINE
  5
357
  8
NOTE
  6
CONTINUOUS
 10
101.0
 20
0.0
 30
0.0
 11
141.0
 21
0.0
 31
0.0
  0
LINE
  5
358
  8
NOTE
  6
CONTINUOUS
 10
0.0
 20
-20.0
 30
0.0
 11
0.0
 21
20.0
 31
0.0
  0
LINE
  5
359
  8
NOTE
  6
CONTINUOUS
 10
-20.0
 20
0.0
 30
0.0
 11
20.0
 21
0.0
 31
0.0
  0
LINE
  5
35A
  8
NOTE
  6
CONTINUOUS
 10
215.0
 20
20.0
 30
0.0
 11
215.0
 21
-20.0
 31
0.0
  0
LINE
  5
35B
  8
NOTE
  6
CONTINUOUS
 10
121.0
 20
20.0
 30
0.0
 11
121.0
 21
-20.0
 31
0.0
  0
LINE
  5
35C
  8
NOTE
  6
CONTINUOUS
 10
168.0
 20
20.0
 30
0.0
 11
168.0
 21
-20.0
 31
0.0
  0
LINE
  5
35D
  8
NOTE
  6
CONTINUOUS
 10
-50.0
 20
1923.0
 30
0.0
 11
-10.0
 21
1923.0
 31
0.0
  0
LINE
  5
35E
  8
NOTE
  6
CONTINUOUS
 10
-30.0
 20
1943.0
 30
0.0
 11
-30.0
 21
1903.0
 31
0.0
  0
LINE
  5
35F
  8
NOTE
  6
CONTINUOUS
 10
30.0
 20
1943.0
 30
0.0
 11
30.0
 21
1903.0
 31
0.0
  0
LINE
  5
360
  8
NOTE
  6
CONTINUOUS
 10
50.0
 20
1923.0
 30
0.0
 11
10.0
 21
1923.0
 31
0.0
  0
TEXT
  5
361
  8
NOTE
  6
CONTINUOUS
 10
767.5
 20
1797.75
 30
0.0
 40
40.0
  1
メンテナンススペース
 50
90.000005
 41
0.84375
  7
STANDARD1
  0
TEXT
  5
362
  8
NOTE
  6
CONTINUOUS
 10
-207.25
 20
2200.0
 30
0.0
 40
40.0
  1
メンテナンススペース
 50
0.000003
 41
0.84375
  7
STANDARD1
  0
LINE
  5
363
  8
NOTE
  6
CONTINUOUS
 10
-503.333191
 20
2046.280884
 30
0.0
 11
-247.083206
 21
2046.280884
 31
0.0
  0
LINE
  5
364
  8
NOTE
  6
CONTINUOUS
 10
-247.083206
 20
2046.280884
 30
0.0
 11
-30.0
 21
1923.0
 31
0.0
  0
LINE
  5
365
  8
NOTE
  6
CONTINUOUS
 10
-30.0
 20
1923.0
 30
0.0
 11
-31.935488
 21
1923.503872
 31
0.0
  0
LINE
  5
366
  8
NOTE
  6
CONTINUOUS
 10
-30.0
 20
1923.0
 30
0.0
 11
-31.424245
 21
1924.40411
 31
0.0
  0
TEXT
  5
367
  8
NOTE
  6
CONTINUOUS
 10
-503.333191
 20
2047.280884
 30
0.0
 40
40.0
  1
AH 2-M10
 50
0.000003
 41
0.644737
  7
STANDARD1
  0
LINE
  5
368
  8
NOTE
  6
CONTINUOUS
 10
-634.145081
 20
-615.15448
 30
0.0
 11
-371.395111
 21
-615.15448
 31
0.0
  0
LINE
  5
369
  8
NOTE
  6
CONTINUOUS
 10
-371.395111
 20
-615.15448
 30
0.0
 11
-111.0
 21
0.0
 31
0.0
  0
LINE
  5
36A
  8
NOTE
  6
CONTINUOUS
 10
-111.0
 20
0.0
 30
0.0
 11
-111.276374
 21
-1.980812
 31
0.0
  0
LINE
  5
36B
  8
NOTE
  6
CONTINUOUS
 10
-111.0
 20
0.0
 30
0.0
 11
-112.229753
 21
-1.577247
 31
0.0
  0
TEXT
  5
36C
  8
NOTE
  6
CONTINUOUS
 10
-634.145081
 20
-614.15448
 30
0.0
 40
40.0
  1
脚固定金具
 50
359.999992
 41
0.84375
  7
STANDARD1
  0
LINE
  5
36D
  8
NOTE
  6
CONTINUOUS
 10
653.994385
 20
2167.918457
 30
0.0
 11
269.744385
 21
2167.918457
 31
0.0
  0
LINE
  5
36E
  8
NOTE
  6
CONTINUOUS
 10
269.744385
 20
2167.918457
 30
0.0
 11
10.0
 21
1945.0
 31
0.0
  0
LINE
  5
36F
  8
NOTE
  6
CONTINUOUS
 10
10.0
 20
1945.0
 30
0.0
 11
11.12887
 21
1946.650955
 31
0.0
  0
LINE
  5
370
  8
NOTE
  6
CONTINUOUS
 10
10.0
 20
1945.0
 30
0.0
 11
11.803108
 21
1945.865334
 31
0.0
  0
TEXT
  5
371
  8
NOTE
  6
CONTINUOUS
 10
330.494385
 20
2168.918457
 30
0.0
 40
40.0
  1
上部振れ止め金具
 41
0.84375
  7
STANDARD1
  0
CIRCLE
  5
372
  8
ARRANGE
  6
CONTINUOUS
 10
0.0
 20
0.0
 30
0.0
 40
15.0
  0
CIRCLE
  5
373
  8
FIX
  6
CONTINUOUS
 10
-121.0
 20
0.0
 30
0.0
 40
5.0
  0
CIRCLE
  5
374
  8
FIX
  6
CONTINUOUS
 10
-168.0
 20
0.0
 30
0.0
 40
5.0
  0
CIRCLE
  5
375
  8
FIX
  6
CONTINUOUS
 10
-215.0
 20
0.0
 30
0.0
 40
5.0
  0
CIRCLE
  5
376
  8
FIX
  6
CONTINUOUS
 10
121.0
 20
0.0
 30
0.0
 40
5.0
  0
CIRCLE
  5
377
  8
FIX
  6
CONTINUOUS
 10
215.0
 20
0.0
 30
0.0
 40
5.0
  0
CIRCLE
  5
378
  8
FIX
  6
CONTINUOUS
 10
168.0
 20
0.0
 30
0.0
 40
5.0
  0
CIRCLE
  5
379
  8
FIX
  6
CONTINUOUS
 10
-30.0
 20
1923.0
 30
0.0
 40
5.0
  0
CIRCLE
  5
37A
  8
FIX
  6
CONTINUOUS
 10
30.0
 20
1923.0
 30
0.0
 40
5.0
  0
LINE
  5
37B
  8
SERVICESPACE
  6
DASHDOT
 10
-272.5
 20
2100.0
 30
0.0
 11
272.5
 21
1900.0
 31
0.0
  0
LINE
  5
37C
  8
SERVICESPACE
  6
DASHDOT
 10
272.5
 20
2100.0
 30
0.0
 11
-272.5
 21
1900.0
 31
0.0
  0
LINE
  5
37D
  8
SERVICESPACE
  6
DASHDOT
 10
-272.5
 20
1900.0
 30
0.0
 11
272.5
 21
1900.0
 31
0.0
  0
LINE
  5
37E
  8
SERVICESPACE
  6
DASHDOT
 10
-272.5
 20
2100.0
 30
0.0
 11
272.5
 21
2100.0
 31
0.0
  0
LINE
  5
37F
  8
SERVICESPACE
  6
DASHDOT
 10
272.5
 20
1900.0
 30
0.0
 11
272.5
 21
2100.0
 31
0.0
  0
LINE
  5
380
  8
SERVICESPACE
  6
DASHDOT
 10
-272.5
 20
1900.0
 30
0.0
 11
-272.5
 21
2100.0
 31
0.0
  0
TEXT
  5
381
  8
ETC
  6
CONTINUOUS
 10
873.283997
 20
2118.312256
 30
0.0
 40
40.0
  1
TC20143
 50
0.000003
 41
0.6125
  7
STANDARD1
  0
TEXT
  5
382
  8
ETC
  6
CONTINUOUS
 10
873.283997
 20
2048.312256
 30
0.0
 40
40.0
  1
電気温水器
 50
0.000003
 41
0.84375
  7
STANDARD1
  0
ENDSEC
  0
EOF
