  0
SECTION
  2
HEADER
  9
$ACADVER
  1
AC1009
  9
$INSBASE
 10
0.0
 20
0.0
 30
0.0
  9
$EXTMIN
 10
-817.071649
 20
-462.5
 30
0.0
  9
$EXTMAX
 10
728.898315
 20
2425.700049
 30
0.0
  9
$LIMMIN
 10
0.0
 20
0.0
  9
$LIMMAX
 10
12.0
 20
9.0
  9
$ORTHOMODE
 70
     0
  9
$REGENMODE
 70
     1
  9
$FILLMODE
 70
     1
  9
$QTEXTMODE
 70
     0
  9
$MIRRTEXT
 70
     1
  9
$DRAGMODE
 70
     2
  9
$LTSCALE
 40
1.0
  9
$OSMODE
 70
     0
  9
$ATTMODE
 70
     1
  9
$TEXTSIZE
 40
40.0
  9
$TRACEWID
 40
0.05
  9
$TEXTSTYLE
  7
STANDARD1
  9
$CLAYER
  8
0
  9
$CELTYPE
  6
CONTINUOUS
  9
$CECOLOR
 62
   256
  9
$DIMSCALE
 40
1.0
  9
$DIMASZ
 40
10.0
  9
$DIMEXO
 40
10.0
  9
$DIMDLI
 40
8.0
  9
$DIMRND
 40
0.0
  9
$DIMDLE
 40
0.0
  9
$DIMEXE
 40
12.5
  9
$DIMTP
 40
0.0
  9
$DIMTM
 40
0.0
  9
$DIMTXT
 40
30.0
  9
$DIMCEN
 40
2.5
  9
$DIMTSZ
 40
0.0
  9
$DIMTOL
 70
     0
  9
$DIMLIM
 70
     0
  9
$DIMTIH
 70
     0
  9
$DIMTOH
 70
     0
  9
$DIMSE1
 70
     0
  9
$DIMSE2
 70
     0
  9
$DIMTAD
 70
     3
  9
$DIMZIN
 70
    12
  9
$DIMBLK
  1

  9
$DIMASO
 70
     1
  9
$DIMSHO
 70
     1
  9
$DIMPOST
  1

  9
$DIMAPOST
  1

  9
$DIMALT
 70
     0
  9
$DIMALTD
 70
     4
  9
$DIMALTF
 40
25.4
  9
$DIMLFAC
 40
1.0
  9
$DIMTOFL
 70
     1
  9
$DIMTVP
 40
0.0
  9
$DIMTIX
 70
     0
  9
$DIMSOXD
 70
     0
  9
$DIMSAH
 70
     1
  9
$DIMBLK1
  1
_ORIGIN
  9
$DIMBLK2
  1
_ORIGIN
  9
$DIMSTYLE
  2
STANDARD
  9
$DIMCLRD
 70
     0
  9
$DIMCLRE
 70
     0
  9
$DIMCLRT
 70
     0
  9
$DIMTFAC
 40
1.0
  9
$DIMGAP
 40
0.09
  9
$LUNITS
 70
     2
  9
$LUPREC
 70
     3
  9
$SKETCHINC
 40
0.1
  9
$FILLETRAD
 40
0.0
  9
$AUNITS
 70
     0
  9
$AUPREC
 70
     0
  9
$MENU
  1
acad
  9
$ELEVATION
 40
0.0
  9
$PELEVATION
 40
0.0
  9
$THICKNESS
 40
0.0
  9
$LIMCHECK
 70
     0
  9
$BLIPMODE
 70
     0
  9
$CHAMFERA
 40
0.0
  9
$CHAMFERB
 40
0.0
  9
$SKPOLY
 70
     0
  9
$TDCREATE
 40
2451879.507917
  9
$TDUPDATE
 40
2451879.507917
  9
$TDINDWG
 40
0.0
  9
$TDUSRTIMER
 40
0.0
  9
$USRTIMER
 70
     1
  9
$ANGBASE
 50
0.0
  9
$ANGDIR
 70
     0
  9
$PDMODE
 70
     0
  9
$PDSIZE
 40
0.0
  9
$PLINEWID
 40
0.0
  9
$COORDS
 70
     1
  9
$SPLFRAME
 70
     0
  9
$SPLINETYPE
 70
     6
  9
$SPLINESEGS
 70
     8
  9
$ATTDIA
 70
     0
  9
$ATTREQ
 70
     1
  9
$HANDLING
 70
     1
  9
$HANDSEED
  5
34D
  9
$SURFTAB1
 70
     6
  9
$SURFTAB2
 70
     6
  9
$SURFTYPE
 70
     6
  9
$SURFU
 70
     6
  9
$SURFV
 70
     6
  9
$UCSNAME
  2

  9
$UCSORG
 10
0.0
 20
0.0
 30
0.0
  9
$UCSXDIR
 10
1.0
 20
0.0
 30
0.0
  9
$UCSYDIR
 10
0.0
 20
1.0
 30
0.0
  9
$PUCSNAME
  2

  9
$PUCSORG
 10
0.0
 20
0.0
 30
0.0
  9
$PUCSXDIR
 10
1.0
 20
0.0
 30
0.0
  9
$PUCSYDIR
 10
0.0
 20
1.0
 30
0.0
  9
$USERI1
 70
     0
  9
$USERI2
 70
     0
  9
$USERI3
 70
     0
  9
$USERI4
 70
     0
  9
$USERI5
 70
     0
  9
$USERR1
 40
0.0
  9
$USERR2
 40
0.0
  9
$USERR3
 40
0.0
  9
$USERR4
 40
0.0
  9
$USERR5
 40
0.0
  9
$WORLDVIEW
 70
     1
  9
$SHADEDGE
 70
     3
  9
$SHADEDIF
 70
    70
  9
$TILEMODE
 70
     1
  9
$MAXACTVP
 70
    48
  9
$PLIMCHECK
 70
     0
  9
$PEXTMIN
 10
1.000000E+020
 20
1.000000E+020
 30
1.000000E+020
  9
$PEXTMAX
 10
-1.000000E+020
 20
-1.000000E+020
 30
-1.000000E+020
  9
$PLIMMIN
 10
0.0
 20
0.0
  9
$PLIMMAX
 10
12.0
 20
9.0
  9
$UNITMODE
 70
     0
  9
$VISRETAIN
 70
     1
  9
$PLINEGEN
 70
     0
  9
$PSLTSCALE
 70
     1
  0
ENDSEC
  0
SECTION
  2
TABLES
  0
TABLE
  2
VPORT
 70
     2
  0
VPORT
  2
*ACTIVE
 70
     0
 10
0.0
 20
0.0
 11
1.0
 21
1.0
 12
-44.086667
 22
981.600025
 13
0.0
 23
0.0
 14
1.0
 24
1.0
 15
0.0
 25
0.0
 16
0.0
 26
0.0
 36
1.0
 17
0.0
 27
0.0
 37
0.0
 40
2943.388585
 41
2.827476
 42
50.0
 43
0.0
 44
0.0
 50
0.0
 51
0.0
 71
     0
 72
   100
 73
     1
 74
     1
 75
     0
 76
     0
 77
     0
 78
     0
  0
ENDTAB
  0
TABLE
  2
LTYPE
 70
     4
  0
LTYPE
  2
CONTINUOUS
 70
     0
  3
Solid line
 72
    65
 73
     0
 40
0.0
  0
LTYPE
  2
DASHED
 70
     0
  3
-- -- -- -- -- -- -- -- -- -- -- -- -- -- --
 72
    65
 73
     2
 40
0.75
 49
0.5
 49
-0.25
  0
LTYPE
  2
DASHDOT
 70
     0
  3
__ . __ . __ . __ . __ . __ . __ . __ . __ . __
 72
    65
 73
     4
 40
125.0
 49
80.0
 49
-20.0
 49
5.0
 49
-20.0
  0
LTYPE
  2
DIVIDE
 70
     0
  3
__ . . __ . . __ . . __ . . __ . . __ . . __
 72
    65
 73
     6
 40
1.25
 49
0.5
 49
-0.25
 49
0.0
 49
-0.25
 49
0.0
 49
-0.25
  0
ENDTAB
  0
TABLE
  2
LAYER
 70
    12
  0
LAYER
  2
0
 70
     0
 62
     3
  6
CONTINUOUS
  0
LAYER
  2
OUTLINE
 70
     0
 62
     3
  6
CONTINUOUS
  0
LAYER
  2
DETAIL
 70
     0
 62
     5
  6
CONTINUOUS
  0
LAYER
  2
BASIS
 70
     0
 62
     6
  6
CONTINUOUS
  0
LAYER
  2
SIZE
 70
     0
 62
    30
  6
CONTINUOUS
  0
LAYER
  2
NOTE
 70
     0
 62
     4
  6
CONTINUOUS
  0
LAYER
  2
ARRANGE
 70
     0
 62
     1
  6
CONTINUOUS
  0
LAYER
  2
FIX
 70
     0
 62
    11
  6
CONTINUOUS
  0
LAYER
  2
SERVICESPACE
 70
     0
 62
     2
  6
CONTINUOUS
  0
LAYER
  2
ETC
 70
     0
 62
    61
  6
CONTINUOUS
  0
LAYER
  2
SYMBOLLINE
 70
     0
 62
     7
  6
CONTINUOUS
  0
LAYER
  2
DEFPOINTS
 70
     0
 62
     7
  6
CONTINUOUS
  0
ENDTAB
  0
TABLE
  2
STYLE
 70
     5
  0
STYLE
  2
STANDARD
 70
     0
 40
0.0
 41
1.0
 50
0.0
 71
     0
 42
0.2
  3
txt
  4

  0
STYLE
  2
STANDARD1
 70
     0
 40
0.0
 41
1.0
 50
0.0
 71
     0
 42
40.0
  3
MONOTXT
  4
BIGFONT
  0
STYLE
  2
STANDARD2
 70
     4
 40
0.0
 41
1.0
 50
0.0
 71
     0
 42
40.0
  3
MONOTXT
  4
BIGFONT
  0
STYLE
  2
STANDARD3
 70
     0
 40
0.0
 41
1.0
 50
0.0
 71
     0
 42
40.0
  3
MONOTXT
  4

  0
STYLE
  2
STANDARD4
 70
     4
 40
0.0
 41
1.0
 50
0.0
 71
     0
 42
40.0
  3
MONOTXT
  4

  0
ENDTAB
  0
TABLE
  2
VIEW
 70
     0
  0
ENDTAB
  0
TABLE
  2
UCS
 70
     0
  0
ENDTAB
  0
TABLE
  2
APPID
 70
     1
  0
APPID
  2
ACAD
 70
     0
  0
ENDTAB
  0
TABLE
  2
DIMSTYLE
 70
     1
  0
DIMSTYLE
  2
STANDARD
 70
     0
  3

  4

  5

  6

  7

 40
1.0
 41
0.18
 42
0.0625
 43
0.38
 44
0.18
 45
0.0
 46
0.0
 47
0.0
 48
0.0
140
0.18
141
0.09
142
0.0
143
25.4
144
1.0
145
0.0
146
1.0
147
0.09
 71
     0
 72
     0
 73
     1
 74
     1
 75
     0
 76
     0
 77
     0
 78
     0
170
     0
171
     2
172
     0
173
     0
174
     0
175
     0
176
     0
177
     0
178
     0
  0
ENDTAB
  0
ENDSEC
  0
SECTION
  2
BLOCKS
  0
BLOCK
  8
0
  2
$MODEL_SPACE
 70
     0
 10
0.0
 20
0.0
 30
0.0
  3
$MODEL_SPACE
  1

  0
ENDBLK
  5
1A
  8
0
  0
BLOCK
 67
     1
  8
0
  2
$PAPER_SPACE
 70
     0
 10
0.0
 20
0.0
 30
0.0
  3
$PAPER_SPACE
  1

  0
ENDBLK
  5
17
 67
     1
  8
0
  0
BLOCK
  8
SIZE
  2
*D0
 70
     1
 10
0.0
 20
0.0
 30
0.0
  3
*D0
  1

  0
TEXT
  5
35
  8
SIZE
  6
CONTINUOUS
 10
-2.94
 20
-149.000006
 30
0.0
 40
2.8
  1
160
 50
0.000003
 41
0.7
  7
STANDARD1
  0
LINE
  5
36
  8
SIZE
  6
CONTINUOUS
 10
80.0
 20
-23.686321
 30
0.0
 11
80.0
 21
-152.0
 31
0.0
  0
LINE
  5
37
  8
SIZE
  6
CONTINUOUS
 10
-80.0
 20
-23.686321
 30
0.0
 11
-80.0
 21
-152.0
 31
0.0
  0
LINE
  5
38
  8
SIZE
  6
CONTINUOUS
 10
80.0
 20
-150.0
 30
0.0
 11
-80.0
 21
-150.0
 31
0.0
  0
INSERT
  5
3A
  8
SIZE
  2
DOT
 10
80.0
 20
-150.0
 30
0.0
  0
INSERT
  5
3B
  8
SIZE
  2
DOT
 10
-80.0
 20
-150.0
 30
0.0
 50
180.0
  0
POINT
  5
3C
  8
DEFPOINTS
  6
BYBLOCK
 10
-80.0
 20
-22.686321
 30
0.0
  0
POINT
  5
3D
  8
DEFPOINTS
  6
BYBLOCK
 10
80.0
 20
-22.686321
 30
0.0
  0
POINT
  5
3E
  8
DEFPOINTS
  6
BYBLOCK
 10
80.0
 20
-150.0
 30
0.0
  0
ENDBLK
  5
3F
  8
SIZE
  0
BLOCK
  8
SIZE
  2
DOT
 70
     0
 10
0.0
 20
0.0
 30
0.0
  3
DOT
  1

  0
POLYLINE
  5
41
  8
0
  6
BYBLOCK
 66
     1
 10
0.0
 20
0.0
 30
0.0
 70
     1
 40
0.5
 41
0.5
  0
VERTEX
  5
42
  8
0
  6
BYBLOCK
 10
-0.25
 20
0.0
 30
0.0
 42
1.0
  0
VERTEX
  5
43
  8
0
  6
BYBLOCK
 10
0.25
 20
0.0
 30
0.0
 42
1.0
  0
SEQEND
  5
44
  8
0
  6
BYBLOCK
  0
LINE
  5
45
  8
0
  6
BYBLOCK
 10
-0.5
 20
0.0
 30
0.0
 11
-1.0
 21
0.0
 31
0.0
  0
ENDBLK
  5
46
  8
SIZE
  0
BLOCK
  8
SIZE
  2
*D2
 70
     1
 10
0.0
 20
0.0
 30
0.0
  3
*D2
  1

  0
TEXT
  5
49
  8
SIZE
  6
CONTINUOUS
 10
-2.94
 20
-349.000006
 30
0.0
 40
2.8
  1
610
 50
0.000003
 41
0.7
  7
STANDARD1
  0
LINE
  5
4A
  8
SIZE
  6
CONTINUOUS
 10
304.840942
 20
-21.0
 30
0.0
 11
304.840942
 21
-352.0
 31
0.0
  0
LINE
  5
4B
  8
SIZE
  6
CONTINUOUS
 10
-304.840942
 20
-21.0
 30
0.0
 11
-304.840942
 21
-352.0
 31
0.0
  0
LINE
  5
4C
  8
SIZE
  6
CONTINUOUS
 10
304.840942
 20
-350.0
 30
0.0
 11
-304.840942
 21
-350.0
 31
0.0
  0
INSERT
  5
4D
  8
SIZE
  2
DOT
 10
304.840942
 20
-350.0
 30
0.0
  0
INSERT
  5
4E
  8
SIZE
  2
DOT
 10
-304.840942
 20
-350.0
 30
0.0
 50
180.0
  0
POINT
  5
4F
  8
DEFPOINTS
  6
BYBLOCK
 10
-304.840942
 20
-20.0
 30
0.0
  0
POINT
  5
50
  8
DEFPOINTS
  6
BYBLOCK
 10
304.840942
 20
-20.0
 30
0.0
  0
POINT
  5
51
  8
DEFPOINTS
  6
BYBLOCK
 10
304.840942
 20
-350.0
 30
0.0
  0
ENDBLK
  5
52
  8
SIZE
  0
BLOCK
  8
SIZE
  2
*D3
 70
     1
 10
0.0
 20
0.0
 30
0.0
  3
*D3
  1

  0
TEXT
  5
55
  8
SIZE
  6
CONTINUOUS
 10
-3.326542
 20
-249.000006
 30
0.0
 40
2.8
  1
195
 50
0.000003
 41
0.7
  7
STANDARD1
  0
LINE
  5
56
  8
SIZE
  6
CONTINUOUS
 10
97.5
 20
-1.0
 30
0.0
 11
97.5
 21
-252.0
 31
0.0
  0
LINE
  5
57
  8
SIZE
  6
CONTINUOUS
 10
-97.5
 20
2.2
 30
0.0
 11
-97.5
 21
-252.0
 31
0.0
  0
LINE
  5
58
  8
SIZE
  6
CONTINUOUS
 10
97.5
 20
-250.0
 30
0.0
 11
-97.5
 21
-250.0
 31
0.0
  0
INSERT
  5
59
  8
SIZE
  2
DOT
 10
97.5
 20
-250.0
 30
0.0
  0
INSERT
  5
5A
  8
SIZE
  2
DOT
 10
-97.5
 20
-250.0
 30
0.0
 50
180.0
  0
POINT
  5
5B
  8
DEFPOINTS
  6
BYBLOCK
 10
-97.5
 20
3.2
 30
0.0
  0
POINT
  5
5C
  8
DEFPOINTS
  6
BYBLOCK
 10
97.5
 20
0.0
 30
0.0
  0
POINT
  5
5D
  8
DEFPOINTS
  6
BYBLOCK
 10
97.5
 20
-250.0
 30
0.0
  0
ENDBLK
  5
5E
  8
SIZE
  0
BLOCK
  8
SIZE
  2
*D4
 70
     1
 10
0.0
 20
0.0
 30
0.0
  3
*D4
  1

  0
TEXT
  5
61
  8
SIZE
  6
CONTINUOUS
 10
479.000006
 20
1805.657105
 30
0.0
 40
2.8
  1
35
 50
90.000005
 41
0.7
  7
STANDARD1
  0
LINE
  5
62
  8
SIZE
  6
CONTINUOUS
 10
45.551395
 20
1733.300049
 30
0.0
 11
482.0
 21
1733.300049
 31
0.0
  0
LINE
  5
63
  8
SIZE
  6
CONTINUOUS
 10
132.108032
 20
1768.783447
 30
0.0
 11
482.0
 21
1768.783447
 31
0.0
  0
LINE
  5
64
  8
SIZE
  6
CONTINUOUS
 10
480.0
 20
1728.300049
 30
0.0
 11
480.0
 21
1810.977051
 31
0.0
  0
INSERT
  5
65
  8
SIZE
  2
DOT
 10
480.0
 20
1733.300049
 30
0.0
 50
270.0
  0
INSERT
  5
66
  8
SIZE
  2
DOT
 10
480.0
 20
1768.783447
 30
0.0
 50
90.0
  0
POINT
  5
67
  8
DEFPOINTS
  6
BYBLOCK
 10
131.108032
 20
1768.783447
 30
0.0
  0
POINT
  5
68
  8
DEFPOINTS
  6
BYBLOCK
 10
44.551395
 20
1733.300049
 30
0.0
  0
POINT
  5
69
  8
DEFPOINTS
  6
BYBLOCK
 10
480.0
 20
1733.300049
 30
0.0
  0
ENDBLK
  5
6A
  8
SIZE
  0
BLOCK
  8
SIZE
  2
*D5
 70
     1
 10
0.0
 20
0.0
 30
0.0
  3
*D5
  1

  0
TEXT
  5
6D
  8
SIZE
  6
CONTINUOUS
 10
678.999976
 20
902.53949
 30
0.0
 40
2.8
  1
1783
 50
90.000005
 41
0.7
  7
STANDARD1
  0
LINE
  5
6E
  8
SIZE
  6
CONTINUOUS
 10
359.351593
 20
0.0
 30
0.0
 11
682.0
 21
0.0
 31
0.0
  0
LINE
  5
6F
  8
SIZE
  6
CONTINUOUS
 10
13.112693
 20
1783.199951
 30
0.0
 11
682.0
 21
1783.199951
 31
0.0
  0
LINE
  5
70
  8
SIZE
  6
CONTINUOUS
 10
680.0
 20
0.0
 30
0.0
 11
680.0
 21
1783.199951
 31
0.0
  0
INSERT
  5
71
  8
SIZE
  2
DOT
 10
680.0
 20
0.0
 30
0.0
 50
270.0
  0
INSERT
  5
72
  8
SIZE
  2
DOT
 10
680.0
 20
1783.199951
 30
0.0
 50
90.0
  0
POINT
  5
73
  8
DEFPOINTS
  6
BYBLOCK
 10
12.112693
 20
1783.199951
 30
0.0
  0
POINT
  5
74
  8
DEFPOINTS
  6
BYBLOCK
 10
358.351593
 20
0.0
 30
0.0
  0
POINT
  5
75
  8
DEFPOINTS
  6
BYBLOCK
 10
680.0
 20
0.0
 30
0.0
  0
ENDBLK
  5
76
  8
SIZE
  0
BLOCK
  8
SIZE
  2
*D6
 70
     1
 10
0.0
 20
0.0
 30
0.0
  3
*D6
  1

  0
TEXT
  5
79
  8
SIZE
  6
CONTINUOUS
 10
578.999976
 20
72.059998
 30
0.0
 40
2.8
  1
150
 50
90.000005
 41
0.7
  7
STANDARD1
  0
LINE
  5
7A
  8
SIZE
  6
CONTINUOUS
 10
331.0
 20
150.0
 30
0.0
 11
582.0
 21
150.0
 31
0.0
  0
LINE
  5
7B
  8
SIZE
  6
CONTINUOUS
 10
359.351593
 20
0.0
 30
0.0
 11
582.0
 21
0.0
 31
0.0
  0
LINE
  5
7C
  8
SIZE
  6
CONTINUOUS
 10
580.0
 20
150.0
 30
0.0
 11
580.0
 21
0.0
 31
0.0
  0
INSERT
  5
7D
  8
SIZE
  2
DOT
 10
580.0
 20
150.0
 30
0.0
 50
90.0
  0
INSERT
  5
7E
  8
SIZE
  2
DOT
 10
580.0
 20
0.0
 30
0.0
 50
270.0
  0
POINT
  5
7F
  8
DEFPOINTS
  6
BYBLOCK
 10
358.351593
 20
0.0
 30
0.0
  0
POINT
  5
80
  8
DEFPOINTS
  6
BYBLOCK
 10
330.0
 20
150.0
 30
0.0
  0
POINT
  5
81
  8
DEFPOINTS
  6
BYBLOCK
 10
580.0
 20
150.0
 30
0.0
  0
ENDBLK
  5
82
  8
SIZE
  0
BLOCK
  8
SIZE
  2
*D7
 70
     1
 10
0.0
 20
0.0
 30
0.0
  3
*D7
  1

  0
TEXT
  5
85
  8
SIZE
  6
CONTINUOUS
 10
578.999976
 20
937.730042
 30
0.0
 40
2.8
  1
1583
 50
90.000005
 41
0.7
  7
STANDARD1
  0
LINE
  5
86
  8
SIZE
  6
CONTINUOUS
 10
45.551395
 20
1733.300049
 30
0.0
 11
582.0
 21
1733.300049
 31
0.0
  0
LINE
  5
87
  8
SIZE
  6
CONTINUOUS
 10
331.0
 20
150.0
 30
0.0
 11
582.0
 21
150.0
 31
0.0
  0
LINE
  5
88
  8
SIZE
  6
CONTINUOUS
 10
580.0
 20
1733.300049
 30
0.0
 11
580.0
 21
150.0
 31
0.0
  0
INSERT
  5
89
  8
SIZE
  2
DOT
 10
580.0
 20
1733.300049
 30
0.0
 50
90.0
  0
INSERT
  5
8A
  8
SIZE
  2
DOT
 10
580.0
 20
150.0
 30
0.0
 50
270.0
  0
POINT
  5
8B
  8
DEFPOINTS
  6
BYBLOCK
 10
330.0
 20
150.0
 30
0.0
  0
POINT
  5
8C
  8
DEFPOINTS
  6
BYBLOCK
 10
44.551395
 20
1733.300049
 30
0.0
  0
POINT
  5
8D
  8
DEFPOINTS
  6
BYBLOCK
 10
580.0
 20
1733.300049
 30
0.0
  0
ENDBLK
  5
8E
  8
SIZE
  0
BLOCK
  8
SIZE
  2
*D8
 70
     1
 10
0.0
 20
0.0
 30
0.0
  3
*D8
  1

  0
TEXT
  5
91
  8
SIZE
  6
CONTINUOUS
 10
578.999976
 20
1757.296631
 30
0.0
 40
2.8
  1
50
 50
90.000005
 41
0.7
  7
STANDARD1
  0
LINE
  5
92
  8
SIZE
  6
CONTINUOUS
 10
45.551395
 20
1733.300049
 30
0.0
 11
582.0
 21
1733.300049
 31
0.0
  0
LINE
  5
93
  8
SIZE
  6
CONTINUOUS
 10
13.112693
 20
1783.199951
 30
0.0
 11
582.0
 21
1783.199951
 31
0.0
  0
LINE
  5
94
  8
SIZE
  6
CONTINUOUS
 10
580.0
 20
1733.300049
 30
0.0
 11
580.0
 21
1783.199951
 31
0.0
  0
INSERT
  5
95
  8
SIZE
  2
DOT
 10
580.0
 20
1733.300049
 30
0.0
 50
270.0
  0
INSERT
  5
96
  8
SIZE
  2
DOT
 10
580.0
 20
1783.199951
 30
0.0
 50
90.0
  0
POINT
  5
97
  8
DEFPOINTS
  6
BYBLOCK
 10
12.112693
 20
1783.199951
 30
0.0
  0
POINT
  5
98
  8
DEFPOINTS
  6
BYBLOCK
 10
44.551395
 20
1733.300049
 30
0.0
  0
POINT
  5
99
  8
DEFPOINTS
  6
BYBLOCK
 10
580.0
 20
1733.300049
 30
0.0
  0
ENDBLK
  5
9A
  8
SIZE
  0
BLOCK
  8
SIZE
  2
*D9
 70
     1
 10
0.0
 20
0.0
 30
0.0
  3
*D9
  1

  0
TEXT
  5
9D
  8
SIZE
  6
CONTINUOUS
 10
-581.000024
 20
1981.449585
 30
0.0
 40
2.8
  1
500
 50
90.000005
 41
0.7
  7
STANDARD1
  0
LINE
  5
9E
  8
SIZE
  6
CONTINUOUS
 10
-331.0
 20
2233.300049
 30
0.0
 11
-582.0
 21
2233.300049
 31
0.0
  0
LINE
  5
9F
  8
SIZE
  6
CONTINUOUS
 10
-331.0
 20
1733.300049
 30
0.0
 11
-582.0
 21
1733.300049
 31
0.0
  0
LINE
  5
A0
  8
SIZE
  6
CONTINUOUS
 10
-580.0
 20
2233.300049
 30
0.0
 11
-580.0
 21
1733.300049
 31
0.0
  0
INSERT
  5
A1
  8
SIZE
  2
DOT
 10
-580.0
 20
2233.300049
 30
0.0
 50
90.0
  0
INSERT
  5
A2
  8
SIZE
  2
DOT
 10
-580.0
 20
1733.300049
 30
0.0
 50
270.0
  0
POINT
  5
A3
  8
DEFPOINTS
  6
BYBLOCK
 10
-330.0
 20
1733.300049
 30
0.0
  0
POINT
  5
A4
  8
DEFPOINTS
  6
BYBLOCK
 10
-330.0
 20
2233.300049
 30
0.0
  0
POINT
  5
A5
  8
DEFPOINTS
  6
BYBLOCK
 10
-580.0
 20
2233.300049
 30
0.0
  0
ENDBLK
  5
A6
  8
SIZE
  0
BLOCK
  8
SIZE
  2
*D10
 70
     1
 10
0.0
 20
0.0
 30
0.0
  3
*D10
  1

  0
TEXT
  5
A9
  8
SIZE
  6
CONTINUOUS
 10
-480.999994
 20
1680.096069
 30
0.0
 40
2.8
  1
15
 50
90.000005
 41
0.7
  7
STANDARD1
  0
LINE
  5
AA
  8
SIZE
  6
CONTINUOUS
 10
-49.900162
 20
1733.300049
 30
0.0
 11
-482.0
 21
1733.300049
 31
0.0
  0
LINE
  5
AB
  8
SIZE
  6
CONTINUOUS
 10
-86.0
 20
1748.300049
 30
0.0
 11
-482.0
 21
1748.300049
 31
0.0
  0
LINE
  5
AC
  8
SIZE
  6
CONTINUOUS
 10
-480.0
 20
1678.696045
 30
0.0
 11
-480.0
 21
1753.300049
 31
0.0
  0
INSERT
  5
AD
  8
SIZE
  2
DOT
 10
-480.0
 20
1733.300049
 30
0.0
 50
270.0
  0
INSERT
  5
AE
  8
SIZE
  2
DOT
 10
-480.0
 20
1748.300049
 30
0.0
 50
90.0
  0
POINT
  5
AF
  8
DEFPOINTS
  6
BYBLOCK
 10
-85.0
 20
1748.300049
 30
0.0
  0
POINT
  5
B0
  8
DEFPOINTS
  6
BYBLOCK
 10
-48.900162
 20
1733.300049
 30
0.0
  0
POINT
  5
B1
  8
DEFPOINTS
  6
BYBLOCK
 10
-480.0
 20
1733.300049
 30
0.0
  0
ENDBLK
  5
B2
  8
SIZE
  0
BLOCK
  8
SIZE
  2
*D11
 70
     1
 10
0.0
 20
0.0
 30
0.0
  3
*D11
  1

  0
TEXT
  5
B5
  8
SIZE
  6
CONTINUOUS
 10
-480.999994
 20
1819.265503
 30
0.0
 40
2.8
  1
18
 50
90.000005
 41
0.7
  7
STANDARD1
  0
LINE
  5
B6
  8
SIZE
  6
CONTINUOUS
 10
-86.0
 20
1748.300049
 30
0.0
 11
-482.0
 21
1748.300049
 31
0.0
  0
LINE
  5
B7
  8
SIZE
  6
CONTINUOUS
 10
-56.204582
 20
1766.300049
 30
0.0
 11
-482.0
 21
1766.300049
 31
0.0
  0
LINE
  5
B8
  8
SIZE
  6
CONTINUOUS
 10
-480.0
 20
1743.300049
 30
0.0
 11
-480.0
 21
1824.585449
 31
0.0
  0
INSERT
  5
B9
  8
SIZE
  2
DOT
 10
-480.0
 20
1748.300049
 30
0.0
 50
270.0
  0
INSERT
  5
BA
  8
SIZE
  2
DOT
 10
-480.0
 20
1766.300049
 30
0.0
 50
90.0
  0
POINT
  5
BB
  8
DEFPOINTS
  6
BYBLOCK
 10
-55.204582
 20
1766.300049
 30
0.0
  0
POINT
  5
BC
  8
DEFPOINTS
  6
BYBLOCK
 10
-85.0
 20
1748.300049
 30
0.0
  0
POINT
  5
BD
  8
DEFPOINTS
  6
BYBLOCK
 10
-480.0
 20
1748.300049
 30
0.0
  0
ENDBLK
  5
BE
  8
SIZE
  0
BLOCK
  8
SIZE
  2
*D12
 70
     1
 10
0.0
 20
0.0
 30
0.0
  3
*D12
  1

  0
TEXT
  5
C1
  8
SIZE
  6
CONTINUOUS
 10
-10.337049
 20
-449.000006
 30
0.0
 40
2.8
  1
φ
 50
0.000003
 41
0.583333
  7
STANDARD1
  0
TEXT
  5
C2
  8
SIZE
  6
CONTINUOUS
 10
-8.377049
 20
-449.000006
 30
0.0
 40
2.8
  1
660
 50
0.000003
 41
0.7
  7
STANDARD1
  0
LINE
  5
C3
  8
SIZE
  6
CONTINUOUS
 10
330.0
 20
149.0
 30
0.0
 11
330.0
 21
-452.0
 31
0.0
  0
LINE
  5
C4
  8
SIZE
  6
CONTINUOUS
 10
-330.0
 20
149.0
 30
0.0
 11
-330.0
 21
-452.0
 31
0.0
  0
LINE
  5
C5
  8
SIZE
  6
CONTINUOUS
 10
330.0
 20
-450.0
 30
0.0
 11
-330.0
 21
-450.0
 31
0.0
  0
INSERT
  5
C6
  8
SIZE
  2
DOT
 10
330.0
 20
-450.0
 30
0.0
  0
INSERT
  5
C7
  8
SIZE
  2
DOT
 10
-330.0
 20
-450.0
 30
0.0
 50
180.0
  0
POINT
  5
C8
  8
DEFPOINTS
  6
BYBLOCK
 10
-330.0
 20
150.0
 30
0.0
  0
POINT
  5
C9
  8
DEFPOINTS
  6
BYBLOCK
 10
330.0
 20
150.0
 30
0.0
  0
POINT
  5
CA
  8
DEFPOINTS
  6
BYBLOCK
 10
330.0
 20
-450.0
 30
0.0
  0
ENDBLK
  5
CB
  8
SIZE
  0
BLOCK
  8
SIZE
  2
*D13
 70
     1
 10
0.0
 20
0.0
 30
0.0
  3
*D13
  1

  0
TEXT
  5
CE
  8
SIZE
  6
CONTINUOUS
 10
-2.94
 20
2384.299951
 30
0.0
 40
2.8
  1
660
 50
0.000003
 41
0.7
  7
STANDARD1
  0
LINE
  5
CF
  8
SIZE
  6
CONTINUOUS
 10
-330.0
 20
2234.300049
 30
0.0
 11
-330.0
 21
2385.300049
 31
0.0
  0
LINE
  5
D0
  8
SIZE
  6
CONTINUOUS
 10
330.0
 20
2234.300049
 30
0.0
 11
330.0
 21
2385.300049
 31
0.0
  0
LINE
  5
D1
  8
SIZE
  6
CONTINUOUS
 10
-330.0
 20
2383.300049
 30
0.0
 11
330.0
 21
2383.300049
 31
0.0
  0
INSERT
  5
D2
  8
SIZE
  2
DOT
 10
-330.0
 20
2383.300049
 30
0.0
 50
180.0
  0
INSERT
  5
D3
  8
SIZE
  2
DOT
 10
330.0
 20
2383.300049
 30
0.0
  0
POINT
  5
D4
  8
DEFPOINTS
  6
BYBLOCK
 10
330.0
 20
2233.300049
 30
0.0
  0
POINT
  5
D5
  8
DEFPOINTS
  6
BYBLOCK
 10
-330.0
 20
2233.300049
 30
0.0
  0
POINT
  5
D6
  8
DEFPOINTS
  6
BYBLOCK
 10
-330.0
 20
2383.300049
 30
0.0
  0
ENDBLK
  5
D7
  8
SIZE
  0
BLOCK
  8
0
  2
_ORIGIN
 70
     0
 10
0.0
 20
0.0
 30
0.0
  3
_ORIGIN
  1

  0
CIRCLE
  5
DA
  8
0
  6
BYBLOCK
 62
     0
 10
0.0
 20
0.0
 30
0.0
 40
0.5
  0
LINE
  5
DB
  8
0
  6
BYBLOCK
 62
     0
 10
0.0
 20
0.0
 30
0.0
 11
-1.0
 21
0.0
 31
0.0
  0
ENDBLK
  5
DC
  8
0
  0
BLOCK
  8
0
  2
*D15
 70
     1
 10
0.0
 20
0.0
 30
0.0
  3
*D15
  1

  0
LINE
  5
DF
  8
0
  6
BYBLOCK
 62
     0
 10
330.0
 20
2243.300049
 30
0.0
 11
330.0
 21
2398.200049
 31
0.0
  0
LINE
  5
E0
  8
0
  6
BYBLOCK
 62
     0
 10
-330.0
 20
2243.300049
 30
0.0
 11
-330.0
 21
2398.200049
 31
0.0
  0
LINE
  5
E1
  8
0
  6
BYBLOCK
 62
     0
 10
320.0
 20
2385.700049
 30
0.0
 11
-320.0
 21
2385.700049
 31
0.0
  0
INSERT
  5
E2
  8
0
  6
BYBLOCK
 62
     0
  2
_ORIGIN
 10
330.0
 20
2385.700049
 30
0.0
 41
10.0
 42
10.0
 43
10.0
  0
INSERT
  5
E3
  8
0
  6
BYBLOCK
 62
     0
  2
_ORIGIN
 10
-330.0
 20
2385.700049
 30
0.0
 41
10.0
 42
10.0
 43
10.0
 50
180.0
  0
TEXT
  5
E4
  8
0
  6
BYBLOCK
 62
     0
 10
-37.5
 20
2395.700049
 30
0.0
 40
30.0
  1
660
 72
     1
 11
0.0
 21
2395.700049
 31
0.0
  0
POINT
  5
E5
  8
DEFPOINTS
  6
BYBLOCK
 62
     0
 10
330.0
 20
2233.300049
 30
0.0
  0
POINT
  5
E6
  8
DEFPOINTS
  6
BYBLOCK
 62
     0
 10
-330.0
 20
2233.300049
 30
0.0
  0
POINT
  5
E7
  8
DEFPOINTS
  6
BYBLOCK
 62
     0
 10
-330.0
 20
2385.700049
 30
0.0
  0
ENDBLK
  5
E8
  8
0
  0
BLOCK
  8
0
  2
*D16
 70
     1
 10
0.0
 20
0.0
 30
0.0
  3
*D16
  1

  0
LINE
  5
EB
  8
0
  6
BYBLOCK
 62
     0
 10
-330.0
 20
140.0
 30
0.0
 11
-330.0
 21
-462.5
 31
0.0
  0
LINE
  5
EC
  8
0
  6
BYBLOCK
 62
     0
 10
330.0
 20
140.0
 30
0.0
 11
330.0
 21
-462.5
 31
0.0
  0
LINE
  5
ED
  8
0
  6
BYBLOCK
 62
     0
 10
-320.0
 20
-450.0
 30
0.0
 11
320.0
 21
-450.0
 31
0.0
  0
INSERT
  5
EE
  8
0
  6
BYBLOCK
 62
     0
  2
_ORIGIN
 10
-330.0
 20
-450.0
 30
0.0
 41
10.0
 42
10.0
 43
10.0
 50
180.0
  0
INSERT
  5
EF
  8
0
  6
BYBLOCK
 62
     0
  2
_ORIGIN
 10
330.0
 20
-450.0
 30
0.0
 41
10.0
 42
10.0
 43
10.0
  0
TEXT
  5
F0
  8
0
  6
BYBLOCK
 62
     0
 10
-37.5
 20
-440.0
 30
0.0
 40
30.0
  1
660
 72
     1
 11
0.0
 21
-440.0
 31
0.0
  0
POINT
  5
F1
  8
DEFPOINTS
  6
BYBLOCK
 62
     0
 10
-330.0
 20
150.0
 30
0.0
  0
POINT
  5
F2
  8
DEFPOINTS
  6
BYBLOCK
 62
     0
 10
330.0
 20
150.0
 30
0.0
  0
POINT
  5
F3
  8
DEFPOINTS
  6
BYBLOCK
 62
     0
 10
330.0
 20
-450.0
 30
0.0
  0
ENDBLK
  5
F4
  8
0
  0
BLOCK
  8
0
  2
*D17
 70
     1
 10
0.0
 20
0.0
 30
0.0
  3
*D17
  1

  0
LINE
  5
F7
  8
0
  6
BYBLOCK
 62
     0
 10
-65.204582
 20
1766.300049
 30
0.0
 11
-494.9
 21
1766.300049
 31
0.0
  0
LINE
  5
F8
  8
0
  6
BYBLOCK
 62
     0
 10
-95.0
 20
1748.300049
 30
0.0
 11
-494.9
 21
1748.300049
 31
0.0
  0
LINE
  5
F9
  8
0
  6
BYBLOCK
 62
     0
 10
-482.4
 20
1738.300049
 30
0.0
 11
-482.4
 21
1728.300049
 31
0.0
  0
LINE
  5
FA
  8
0
  6
BYBLOCK
 62
     0
 10
-482.4
 20
1776.300049
 30
0.0
 11
-482.4
 21
1851.225464
 31
0.0
  0
LINE
  5
FB
  8
0
  6
BYBLOCK
 62
     0
 10
-482.4
 20
1748.300049
 30
0.0
 11
-482.4
 21
1766.300049
 31
0.0
  0
INSERT
  5
FC
  8
0
  6
BYBLOCK
 62
     0
  2
_ORIGIN
 10
-482.4
 20
1748.300049
 30
0.0
 41
10.0
 42
10.0
 43
10.0
 50
90.0
  0
INSERT
  5
FD
  8
0
  6
BYBLOCK
 62
     0
  2
_ORIGIN
 10
-482.4
 20
1766.300049
 30
0.0
 41
10.0
 42
10.0
 43
10.0
 50
270.0
  0
TEXT
  5
FE
  8
0
  6
BYBLOCK
 62
     0
 10
-492.4
 20
1801.225464
 30
0.0
 40
30.0
  1
18
 50
90.0
 72
     1
 11
-492.4
 21
1821.225464
 31
0.0
  0
POINT
  5
FF
  8
DEFPOINTS
  6
BYBLOCK
 62
     0
 10
-55.204582
 20
1766.300049
 30
0.0
  0
POINT
  5
100
  8
DEFPOINTS
  6
BYBLOCK
 62
     0
 10
-85.0
 20
1748.300049
 30
0.0
  0
POINT
  5
101
  8
DEFPOINTS
  6
BYBLOCK
 62
     0
 10
-482.4
 20
1748.300049
 30
0.0
  0
ENDBLK
  5
102
  8
0
  0
BLOCK
  8
0
  2
*D18
 70
     1
 10
0.0
 20
0.0
 30
0.0
  3
*D18
  1

  0
LINE
  5
105
  8
0
  6
BYBLOCK
 62
     0
 10
-95.0
 20
1748.300049
 30
0.0
 11
-494.9
 21
1748.300049
 31
0.0
  0
LINE
  5
106
  8
0
  6
BYBLOCK
 62
     0
 10
-58.900162
 20
1733.300049
 30
0.0
 11
-494.9
 21
1733.300049
 31
0.0
  0
LINE
  5
107
  8
0
  6
BYBLOCK
 62
     0
 10
-482.4
 20
1758.300049
 30
0.0
 11
-482.4
 21
1768.300049
 31
0.0
  0
LINE
  5
108
  8
0
  6
BYBLOCK
 62
     0
 10
-482.4
 20
1723.300049
 30
0.0
 11
-482.4
 21
1652.05603
 31
0.0
  0
LINE
  5
109
  8
0
  6
BYBLOCK
 62
     0
 10
-482.4
 20
1748.300049
 30
0.0
 11
-482.4
 21
1733.300049
 31
0.0
  0
INSERT
  5
10A
  8
0
  6
BYBLOCK
 62
     0
  2
_ORIGIN
 10
-482.4
 20
1748.300049
 30
0.0
 41
10.0
 42
10.0
 43
10.0
 50
270.0
  0
INSERT
  5
10B
  8
0
  6
BYBLOCK
 62
     0
  2
_ORIGIN
 10
-482.4
 20
1733.300049
 30
0.0
 41
10.0
 42
10.0
 43
10.0
 50
90.0
  0
TEXT
  5
10C
  8
0
  6
BYBLOCK
 62
     0
 10
-492.4
 20
1662.05603
 30
0.0
 40
30.0
  1
15
 50
90.0
 72
     1
 11
-492.4
 21
1682.05603
 31
0.0
  0
POINT
  5
10D
  8
DEFPOINTS
  6
BYBLOCK
 62
     0
 10
-85.0
 20
1748.300049
 30
0.0
  0
POINT
  5
10E
  8
DEFPOINTS
  6
BYBLOCK
 62
     0
 10
-48.900162
 20
1733.300049
 30
0.0
  0
POINT
  5
10F
  8
DEFPOINTS
  6
BYBLOCK
 62
     0
 10
-482.4
 20
1733.300049
 30
0.0
  0
ENDBLK
  5
110
  8
0
  0
BLOCK
  8
0
  2
*D19
 70
     1
 10
0.0
 20
0.0
 30
0.0
  3
*D19
  1

  0
LINE
  5
113
  8
0
  6
BYBLOCK
 62
     0
 10
-340.0
 20
1733.300049
 30
0.0
 11
-594.9
 21
1733.300049
 31
0.0
  0
LINE
  5
114
  8
0
  6
BYBLOCK
 62
     0
 10
-340.0
 20
2233.300049
 30
0.0
 11
-594.9
 21
2233.300049
 31
0.0
  0
LINE
  5
115
  8
0
  6
BYBLOCK
 62
     0
 10
-582.4
 20
1743.300049
 30
0.0
 11
-582.4
 21
2223.300049
 31
0.0
  0
INSERT
  5
116
  8
0
  6
BYBLOCK
 62
     0
  2
_ORIGIN
 10
-582.4
 20
1733.300049
 30
0.0
 41
10.0
 42
10.0
 43
10.0
 50
270.0
  0
INSERT
  5
117
  8
0
  6
BYBLOCK
 62
     0
  2
_ORIGIN
 10
-582.4
 20
2233.300049
 30
0.0
 41
10.0
 42
10.0
 43
10.0
 50
90.0
  0
TEXT
  5
118
  8
0
  6
BYBLOCK
 62
     0
 10
-592.4
 20
1949.389526
 30
0.0
 40
30.0
  1
500
 50
90.0
 72
     1
 11
-592.4
 21
1984.389526
 31
0.0
  0
POINT
  5
119
  8
DEFPOINTS
  6
BYBLOCK
 62
     0
 10
-330.0
 20
1733.300049
 30
0.0
  0
POINT
  5
11A
  8
DEFPOINTS
  6
BYBLOCK
 62
     0
 10
-330.0
 20
2233.300049
 30
0.0
  0
POINT
  5
11B
  8
DEFPOINTS
  6
BYBLOCK
 62
     0
 10
-582.4
 20
2233.300049
 30
0.0
  0
ENDBLK
  5
11C
  8
0
  0
BLOCK
  8
0
  2
*D20
 70
     1
 10
0.0
 20
0.0
 30
0.0
  3
*D20
  1

  0
LINE
  5
11F
  8
0
  6
BYBLOCK
 62
     0
 10
22.112693
 20
1783.199951
 30
0.0
 11
590.1
 21
1783.199951
 31
0.0
  0
LINE
  5
120
  8
0
  6
BYBLOCK
 62
     0
 10
54.551395
 20
1733.300049
 30
0.0
 11
590.1
 21
1733.300049
 31
0.0
  0
LINE
  5
121
  8
0
  6
BYBLOCK
 62
     0
 10
577.6
 20
1773.199951
 30
0.0
 11
577.6
 21
1743.300049
 31
0.0
  0
INSERT
  5
122
  8
0
  6
BYBLOCK
 62
     0
  2
_ORIGIN
 10
577.6
 20
1783.199951
 30
0.0
 41
10.0
 42
10.0
 43
10.0
 50
90.0
  0
INSERT
  5
123
  8
0
  6
BYBLOCK
 62
     0
  2
_ORIGIN
 10
577.6
 20
1733.300049
 30
0.0
 41
10.0
 42
10.0
 43
10.0
 50
270.0
  0
TEXT
  5
124
  8
0
  6
BYBLOCK
 62
     0
 10
567.6
 20
1735.75
 30
0.0
 40
30.0
  1
50
 50
90.0
 72
     1
 11
567.6
 21
1758.25
 31
0.0
  0
POINT
  5
125
  8
DEFPOINTS
  6
BYBLOCK
 62
     0
 10
12.112693
 20
1783.199951
 30
0.0
  0
POINT
  5
126
  8
DEFPOINTS
  6
BYBLOCK
 62
     0
 10
44.551395
 20
1733.300049
 30
0.0
  0
POINT
  5
127
  8
DEFPOINTS
  6
BYBLOCK
 62
     0
 10
577.6
 20
1733.300049
 30
0.0
  0
ENDBLK
  5
128
  8
0
  0
BLOCK
  8
0
  2
*D21
 70
     1
 10
0.0
 20
0.0
 30
0.0
  3
*D21
  1

  0
LINE
  5
12B
  8
0
  6
BYBLOCK
 62
     0
 10
340.0
 20
150.0
 30
0.0
 11
590.1
 21
150.0
 31
0.0
  0
LINE
  5
12C
  8
0
  6
BYBLOCK
 62
     0
 10
54.551395
 20
1733.300049
 30
0.0
 11
590.1
 21
1733.300049
 31
0.0
  0
LINE
  5
12D
  8
0
  6
BYBLOCK
 62
     0
 10
577.6
 20
160.0
 30
0.0
 11
577.6
 21
1723.300049
 31
0.0
  0
INSERT
  5
12E
  8
0
  6
BYBLOCK
 62
     0
  2
_ORIGIN
 10
577.6
 20
150.0
 30
0.0
 41
10.0
 42
10.0
 43
10.0
 50
270.0
  0
INSERT
  5
12F
  8
0
  6
BYBLOCK
 62
     0
  2
_ORIGIN
 10
577.6
 20
1733.300049
 30
0.0
 41
10.0
 42
10.0
 43
10.0
 50
90.0
  0
TEXT
  5
130
  8
0
  6
BYBLOCK
 62
     0
 10
567.6
 20
891.650024
 30
0.0
 40
30.0
  1
1583
 50
90.0
 72
     1
 11
567.6
 21
941.650024
 31
0.0
  0
POINT
  5
131
  8
DEFPOINTS
  6
BYBLOCK
 62
     0
 10
330.0
 20
150.0
 30
0.0
  0
POINT
  5
132
  8
DEFPOINTS
  6
BYBLOCK
 62
     0
 10
44.551395
 20
1733.300049
 30
0.0
  0
POINT
  5
133
  8
DEFPOINTS
  6
BYBLOCK
 62
     0
 10
577.6
 20
1733.300049
 30
0.0
  0
ENDBLK
  5
134
  8
0
  0
BLOCK
  8
0
  2
*D22
 70
     1
 10
0.0
 20
0.0
 30
0.0
  3
*D22
  1

  0
LINE
  5
137
  8
0
  6
BYBLOCK
 62
     0
 10
368.351593
 20
0.0
 30
0.0
 11
590.1
 21
0.0
 31
0.0
  0
LINE
  5
138
  8
0
  6
BYBLOCK
 62
     0
 10
340.0
 20
150.0
 30
0.0
 11
590.1
 21
150.0
 31
0.0
  0
LINE
  5
139
  8
0
  6
BYBLOCK
 62
     0
 10
577.6
 20
10.0
 30
0.0
 11
577.6
 21
140.0
 31
0.0
  0
INSERT
  5
13A
  8
0
  6
BYBLOCK
 62
     0
  2
_ORIGIN
 10
577.6
 20
0.0
 30
0.0
 41
10.0
 42
10.0
 43
10.0
 50
270.0
  0
INSERT
  5
13B
  8
0
  6
BYBLOCK
 62
     0
  2
_ORIGIN
 10
577.6
 20
150.0
 30
0.0
 41
10.0
 42
10.0
 43
10.0
 50
90.0
  0
TEXT
  5
13C
  8
0
  6
BYBLOCK
 62
     0
 10
567.6
 20
42.5
 30
0.0
 40
30.0
  1
150
 50
90.0
 72
     1
 11
567.6
 21
75.0
 31
0.0
  0
POINT
  5
13D
  8
DEFPOINTS
  6
BYBLOCK
 62
     0
 10
358.351593
 20
0.0
 30
0.0
  0
POINT
  5
13E
  8
DEFPOINTS
  6
BYBLOCK
 62
     0
 10
330.0
 20
150.0
 30
0.0
  0
POINT
  5
13F
  8
DEFPOINTS
  6
BYBLOCK
 62
     0
 10
577.6
 20
150.0
 30
0.0
  0
ENDBLK
  5
140
  8
0
  0
BLOCK
  8
0
  2
*D23
 70
     1
 10
0.0
 20
0.0
 30
0.0
  3
*D23
  1

  0
LINE
  5
143
  8
0
  6
BYBLOCK
 62
     0
 10
22.112693
 20
1783.199951
 30
0.0
 11
690.1
 21
1783.199951
 31
0.0
  0
LINE
  5
144
  8
0
  6
BYBLOCK
 62
     0
 10
368.351593
 20
0.0
 30
0.0
 11
690.1
 21
0.0
 31
0.0
  0
LINE
  5
145
  8
0
  6
BYBLOCK
 62
     0
 10
677.6
 20
1773.199951
 30
0.0
 11
677.6
 21
10.0
 31
0.0
  0
INSERT
  5
146
  8
0
  6
BYBLOCK
 62
     0
  2
_ORIGIN
 10
677.6
 20
1783.199951
 30
0.0
 41
10.0
 42
10.0
 43
10.0
 50
90.0
  0
INSERT
  5
147
  8
0
  6
BYBLOCK
 62
     0
  2
_ORIGIN
 10
677.6
 20
0.0
 30
0.0
 41
10.0
 42
10.0
 43
10.0
 50
270.0
  0
TEXT
  5
148
  8
0
  6
BYBLOCK
 62
     0
 10
667.6
 20
856.459489
 30
0.0
 40
30.0
  1
1783
 50
90.0
 72
     1
 11
667.6
 21
906.459489
 31
0.0
  0
POINT
  5
149
  8
DEFPOINTS
  6
BYBLOCK
 62
     0
 10
12.112693
 20
1783.199951
 30
0.0
  0
POINT
  5
14A
  8
DEFPOINTS
  6
BYBLOCK
 62
     0
 10
358.351593
 20
0.0
 30
0.0
  0
POINT
  5
14B
  8
DEFPOINTS
  6
BYBLOCK
 62
     0
 10
677.6
 20
0.0
 30
0.0
  0
ENDBLK
  5
14C
  8
0
  0
BLOCK
  8
0
  2
*D24
 70
     1
 10
0.0
 20
0.0
 30
0.0
  3
*D24
  1

  0
LINE
  5
14F
  8
0
  6
BYBLOCK
 62
     0
 10
141.108032
 20
1768.783447
 30
0.0
 11
490.1
 21
1768.783447
 31
0.0
  0
LINE
  5
150
  8
0
  6
BYBLOCK
 62
     0
 10
54.551395
 20
1733.300049
 30
0.0
 11
490.1
 21
1733.300049
 31
0.0
  0
LINE
  5
151
  8
0
  6
BYBLOCK
 62
     0
 10
477.6
 20
1723.300049
 30
0.0
 11
477.6
 21
1713.300049
 31
0.0
  0
LINE
  5
152
  8
0
  6
BYBLOCK
 62
     0
 10
477.6
 20
1778.783447
 30
0.0
 11
477.6
 21
1858.783447
 31
0.0
  0
LINE
  5
153
  8
0
  6
BYBLOCK
 62
     0
 10
477.6
 20
1733.300049
 30
0.0
 11
477.6
 21
1768.783447
 31
0.0
  0
INSERT
  5
154
  8
0
  6
BYBLOCK
 62
     0
  2
_ORIGIN
 10
477.6
 20
1733.300049
 30
0.0
 41
10.0
 42
10.0
 43
10.0
 50
90.0
  0
INSERT
  5
155
  8
0
  6
BYBLOCK
 62
     0
  2
_ORIGIN
 10
477.6
 20
1768.783447
 30
0.0
 41
10.0
 42
10.0
 43
10.0
 50
270.0
  0
TEXT
  5
156
  8
0
  6
BYBLOCK
 62
     0
 10
467.6
 20
1798.783447
 30
0.0
 40
30.0
  1
36
 50
90.0
 72
     1
 11
467.6
 21
1823.783447
 31
0.0
  0
POINT
  5
157
  8
DEFPOINTS
  6
BYBLOCK
 62
     0
 10
131.108032
 20
1768.783447
 30
0.0
  0
POINT
  5
158
  8
DEFPOINTS
  6
BYBLOCK
 62
     0
 10
44.551395
 20
1733.300049
 30
0.0
  0
POINT
  5
159
  8
DEFPOINTS
  6
BYBLOCK
 62
     0
 10
477.6
 20
1733.300049
 30
0.0
  0
ENDBLK
  5
15A
  8
0
  0
BLOCK
  8
0
  2
*D25
 70
     1
 10
0.0
 20
0.0
 30
0.0
  3
*D25
  1

  0
LINE
  5
15D
  8
0
  6
BYBLOCK
 62
     0
 10
-97.5
 20
-6.8
 30
0.0
 11
-97.5
 21
-260.1
 31
0.0
  0
LINE
  5
15E
  8
0
  6
BYBLOCK
 62
     0
 10
97.5
 20
-10.0
 30
0.0
 11
97.5
 21
-260.1
 31
0.0
  0
LINE
  5
15F
  8
0
  6
BYBLOCK
 62
     0
 10
-87.5
 20
-247.6
 30
0.0
 11
87.5
 21
-247.6
 31
0.0
  0
INSERT
  5
160
  8
0
  6
BYBLOCK
 62
     0
  2
_ORIGIN
 10
-97.5
 20
-247.6
 30
0.0
 41
10.0
 42
10.0
 43
10.0
 50
180.0
  0
INSERT
  5
161
  8
0
  6
BYBLOCK
 62
     0
  2
_ORIGIN
 10
97.5
 20
-247.6
 30
0.0
 41
10.0
 42
10.0
 43
10.0
  0
TEXT
  5
162
  8
0
  6
BYBLOCK
 62
     0
 10
-35.386542
 20
-237.6
 30
0.0
 40
30.0
  1
195
 72
     1
 11
-0.386542
 21
-237.6
 31
0.0
  0
POINT
  5
163
  8
DEFPOINTS
  6
BYBLOCK
 62
     0
 10
-97.5
 20
3.2
 30
0.0
  0
POINT
  5
164
  8
DEFPOINTS
  6
BYBLOCK
 62
     0
 10
97.5
 20
0.0
 30
0.0
  0
POINT
  5
165
  8
DEFPOINTS
  6
BYBLOCK
 62
     0
 10
97.5
 20
-247.6
 30
0.0
  0
ENDBLK
  5
166
  8
0
  0
BLOCK
  8
0
  2
*D26
 70
     1
 10
0.0
 20
0.0
 30
0.0
  3
*D26
  1

  0
LINE
  5
169
  8
0
  6
BYBLOCK
 62
     0
 10
-304.840942
 20
-30.0
 30
0.0
 11
-304.840942
 21
-360.1
 31
0.0
  0
LINE
  5
16A
  8
0
  6
BYBLOCK
 62
     0
 10
304.840942
 20
-30.0
 30
0.0
 11
304.840942
 21
-360.1
 31
0.0
  0
LINE
  5
16B
  8
0
  6
BYBLOCK
 62
     0
 10
-294.840942
 20
-347.6
 30
0.0
 11
294.840942
 21
-347.6
 31
0.0
  0
INSERT
  5
16C
  8
0
  6
BYBLOCK
 62
     0
  2
_ORIGIN
 10
-304.840942
 20
-347.6
 30
0.0
 41
10.0
 42
10.0
 43
10.0
 50
180.0
  0
INSERT
  5
16D
  8
0
  6
BYBLOCK
 62
     0
  2
_ORIGIN
 10
304.840942
 20
-347.6
 30
0.0
 41
10.0
 42
10.0
 43
10.0
  0
TEXT
  5
16E
  8
0
  6
BYBLOCK
 62
     0
 10
-32.5
 20
-337.6
 30
0.0
 40
30.0
  1
610
 72
     1
 11
0.0
 21
-337.6
 31
0.0
  0
POINT
  5
16F
  8
DEFPOINTS
  6
BYBLOCK
 62
     0
 10
-304.840942
 20
-20.0
 30
0.0
  0
POINT
  5
170
  8
DEFPOINTS
  6
BYBLOCK
 62
     0
 10
304.840942
 20
-20.0
 30
0.0
  0
POINT
  5
171
  8
DEFPOINTS
  6
BYBLOCK
 62
     0
 10
304.840942
 20
-347.6
 30
0.0
  0
ENDBLK
  5
172
  8
0
  0
BLOCK
  8
0
  2
*D27
 70
     1
 10
0.0
 20
0.0
 30
0.0
  3
*D27
  1

  0
LINE
  5
175
  8
0
  6
BYBLOCK
 62
     0
 10
-80.0
 20
-32.686321
 30
0.0
 11
-80.0
 21
-160.1
 31
0.0
  0
LINE
  5
176
  8
0
  6
BYBLOCK
 62
     0
 10
80.0
 20
-32.686321
 30
0.0
 11
80.0
 21
-160.1
 31
0.0
  0
LINE
  5
177
  8
0
  6
BYBLOCK
 62
     0
 10
-70.0
 20
-147.6
 30
0.0
 11
70.0
 21
-147.6
 31
0.0
  0
INSERT
  5
178
  8
0
  6
BYBLOCK
 62
     0
  2
_ORIGIN
 10
-80.0
 20
-147.6
 30
0.0
 41
10.0
 42
10.0
 43
10.0
 50
180.0
  0
INSERT
  5
179
  8
0
  6
BYBLOCK
 62
     0
  2
_ORIGIN
 10
80.0
 20
-147.6
 30
0.0
 41
10.0
 42
10.0
 43
10.0
  0
TEXT
  5
17A
  8
0
  6
BYBLOCK
 62
     0
 10
-32.5
 20
-137.6
 30
0.0
 40
30.0
  1
160
 72
     1
 11
0.0
 21
-137.6
 31
0.0
  0
POINT
  5
17B
  8
DEFPOINTS
  6
BYBLOCK
 62
     0
 10
-80.0
 20
-22.686321
 30
0.0
  0
POINT
  5
17C
  8
DEFPOINTS
  6
BYBLOCK
 62
     0
 10
80.0
 20
-22.686321
 30
0.0
  0
POINT
  5
17D
  8
DEFPOINTS
  6
BYBLOCK
 62
     0
 10
80.0
 20
-147.6
 30
0.0
  0
ENDBLK
  5
17E
  8
0
  0
ENDSEC
  0
SECTION
  2
ENTITIES
  0
LINE
  5
17F
  8
OUTLINE
  6
CONTINUOUS
 10
322.370844
 20
20.0
 30
0.0
 11
295.512136
 21
20.0
 31
0.0
  0
LINE
  5
180
  8
OUTLINE
  6
CONTINUOUS
 10
295.512136
 20
20.0
 30
0.0
 11
295.512136
 21
150.0
 31
0.0
  0
LINE
  5
181
  8
OUTLINE
  6
CONTINUOUS
 10
213.664456
 20
20.0
 30
0.0
 11
213.664456
 21
150.0
 31
0.0
  0
LINE
  5
182
  8
OUTLINE
  6
CONTINUOUS
 10
213.664456
 20
20.0
 30
0.0
 11
198.730104
 21
20.0
 31
0.0
  0
ARC
  5
183
  8
OUTLINE
  6
CONTINUOUS
 10
322.617254
 20
10.0
 30
0.0
 40
10.0
 50
0.0
 51
90.0
  0
LINE
  5
184
  8
OUTLINE
  6
CONTINUOUS
 10
332.617254
 20
10.0
 30
0.0
 11
332.617254
 21
0.0
 31
0.0
  0
ARC
  5
185
  8
OUTLINE
  6
CONTINUOUS
 10
198.730104
 20
10.0
 30
0.0
 40
10.0
 50
90.0
 51
180.0
  0
LINE
  5
186
  8
OUTLINE
  6
CONTINUOUS
 10
188.730104
 20
10.0
 30
0.0
 11
188.730104
 21
0.0
 31
0.0
  0
LINE
  5
187
  8
OUTLINE
  6
CONTINUOUS
 10
332.370844
 20
0.0
 30
0.0
 11
188.730104
 21
0.0
 31
0.0
  0
LINE
  5
188
  8
OUTLINE
  6
CONTINUOUS
 10
250.164426
 20
20.0
 30
0.0
 11
250.164426
 21
150.0
 31
0.0
  0
LINE
  5
189
  8
OUTLINE
  6
CONTINUOUS
 10
250.164426
 20
20.0
 30
0.0
 11
235.230074
 21
20.0
 31
0.0
  0
ARC
  5
18A
  8
OUTLINE
  6
CONTINUOUS
 10
235.230074
 20
10.0
 30
0.0
 40
10.0
 50
90.0
 51
180.0
  0
LINE
  5
18B
  8
OUTLINE
  6
CONTINUOUS
 10
225.230074
 20
10.0
 30
0.0
 11
225.230074
 21
0.0
 31
0.0
  0
LINE
  5
18C
  8
OUTLINE
  6
CONTINUOUS
 10
-322.370844
 20
20.0
 30
0.0
 11
-295.512136
 21
20.0
 31
0.0
  0
LINE
  5
18D
  8
OUTLINE
  6
CONTINUOUS
 10
-295.512136
 20
20.0
 30
0.0
 11
-295.512136
 21
150.0
 31
0.0
  0
LINE
  5
18E
  8
OUTLINE
  6
CONTINUOUS
 10
-213.664456
 20
20.0
 30
0.0
 11
-213.664456
 21
150.0
 31
0.0
  0
LINE
  5
18F
  8
OUTLINE
  6
CONTINUOUS
 10
-213.664456
 20
20.0
 30
0.0
 11
-198.730104
 21
20.0
 31
0.0
  0
ARC
  5
190
  8
OUTLINE
  6
CONTINUOUS
 10
-322.617254
 20
10.0
 30
0.0
 40
10.0
 50
90.0
 51
180.0
  0
LINE
  5
191
  8
OUTLINE
  6
CONTINUOUS
 10
-332.617254
 20
10.0
 30
0.0
 11
-332.617254
 21
0.0
 31
0.0
  0
ARC
  5
192
  8
OUTLINE
  6
CONTINUOUS
 10
-198.730104
 20
10.0
 30
0.0
 40
10.0
 50
0.0
 51
90.0
  0
LINE
  5
193
  8
OUTLINE
  6
CONTINUOUS
 10
-188.730104
 20
10.0
 30
0.0
 11
-188.730104
 21
0.0
 31
0.0
  0
LINE
  5
194
  8
OUTLINE
  6
CONTINUOUS
 10
-332.370844
 20
0.0
 30
0.0
 11
-188.730104
 21
0.0
 31
0.0
  0
LINE
  5
195
  8
OUTLINE
  6
CONTINUOUS
 10
-250.164426
 20
20.0
 30
0.0
 11
-250.164426
 21
150.0
 31
0.0
  0
LINE
  5
196
  8
OUTLINE
  6
CONTINUOUS
 10
-250.164426
 20
20.0
 30
0.0
 11
-235.230074
 21
20.0
 31
0.0
  0
ARC
  5
197
  8
OUTLINE
  6
CONTINUOUS
 10
-235.230074
 20
10.0
 30
0.0
 40
10.0
 50
0.0
 51
90.0
  0
LINE
  5
198
  8
OUTLINE
  6
CONTINUOUS
 10
-225.230074
 20
10.0
 30
0.0
 11
-225.230074
 21
0.0
 31
0.0
  0
LINE
  5
199
  8
OUTLINE
  6
CONTINUOUS
 10
-330.0
 20
150.0
 30
0.0
 11
330.0
 21
150.0
 31
0.0
  0
LINE
  5
19A
  8
OUTLINE
  6
CONTINUOUS
 10
-330.0
 20
150.0
 30
0.0
 11
-330.0
 21
1717.106114
 31
0.0
  0
LINE
  5
19B
  8
OUTLINE
  6
CONTINUOUS
 10
330.0
 20
150.0
 30
0.0
 11
330.0
 21
1717.106114
 31
0.0
  0
ARC
  5
19C
  8
OUTLINE
  6
CONTINUOUS
 10
-46.725779
 20
-2267.299409
 30
0.0
 40
4000.6
 50
90.031141
 51
93.972201
  0
LINE
  5
19D
  8
OUTLINE
  6
CONTINUOUS
 10
330.0
 20
1697.7
 30
0.0
 11
-330.0
 21
1697.7
 31
0.0
  0
LINE
  5
19E
  8
OUTLINE
  6
CONTINUOUS
 10
44.551394
 20
1733.3
 30
0.0
 11
-48.900163
 21
1733.3
 31
0.0
  0
LINE
  5
19F
  8
OUTLINE
  6
CONTINUOUS
 10
325.679425
 20
1723.3
 30
0.0
 11
-325.679425
 21
1723.3
 31
0.0
  0
ARC
  5
1A0
  8
OUTLINE
  6
CONTINUOUS
 10
46.725779
 20
-2267.299409
 30
0.0
 40
4000.6
 50
86.027799
 51
90.031141
  0
ARC
  5
1A1
  8
OUTLINE
  6
CONTINUOUS
 10
323.4
 20
1717.106114
 30
0.0
 40
6.6
 50
0.0
 51
86.027799
  0
ARC
  5
1A2
  8
OUTLINE
  6
CONTINUOUS
 10
-323.4
 20
1717.106114
 30
0.0
 40
6.6
 50
93.972201
 51
180.0
  0
LINE
  5
1A3
  8
OUTLINE
  6
CONTINUOUS
 10
-36.6
 20
28.3
 30
0.0
 11
-36.6
 21
150.0
 31
0.0
  0
LINE
  5
1A4
  8
OUTLINE
  6
CONTINUOUS
 10
36.6
 20
25.1
 30
0.0
 11
36.6
 21
0.0
 31
0.0
  0
LINE
  5
1A5
  8
OUTLINE
  6
CONTINUOUS
 10
-36.6
 20
0.0
 30
0.0
 11
-36.6
 21
25.1
 31
0.0
  0
LINE
  5
1A6
  8
OUTLINE
  6
CONTINUOUS
 10
36.6
 20
0.0
 30
0.0
 11
-36.6
 21
0.0
 31
0.0
  0
LINE
  5
1A7
  8
OUTLINE
  6
CONTINUOUS
 10
36.6
 20
150.0
 30
0.0
 11
36.6
 21
28.3
 31
0.0
  0
LINE
  5
1A8
  8
DETAIL
  6
CONTINUOUS
 10
225.230074
 20
10.0
 30
0.0
 11
225.230074
 21
0.0
 31
0.0
  0
ARC
  5
1A9
  8
DETAIL
  6
CONTINUOUS
 10
235.230074
 20
10.0
 30
0.0
 40
10.0
 50
90.0
 51
180.0
  0
LINE
  5
1AA
  8
DETAIL
  6
CONTINUOUS
 10
250.164426
 20
20.0
 30
0.0
 11
235.230074
 21
20.0
 31
0.0
  0
LINE
  5
1AB
  8
DETAIL
  6
CONTINUOUS
 10
250.164426
 20
20.0
 30
0.0
 11
250.164426
 21
150.0
 31
0.0
  0
LINE
  5
1AC
  8
DETAIL
  6
CONTINUOUS
 10
332.370844
 20
0.0
 30
0.0
 11
188.730104
 21
0.0
 31
0.0
  0
LINE
  5
1AD
  8
DETAIL
  6
CONTINUOUS
 10
188.730104
 20
10.0
 30
0.0
 11
188.730104
 21
0.0
 31
0.0
  0
ARC
  5
1AE
  8
DETAIL
  6
CONTINUOUS
 10
198.730104
 20
10.0
 30
0.0
 40
10.0
 50
90.0
 51
180.0
  0
LINE
  5
1AF
  8
DETAIL
  6
CONTINUOUS
 10
332.617254
 20
10.0
 30
0.0
 11
332.617254
 21
0.0
 31
0.0
  0
ARC
  5
1B0
  8
DETAIL
  6
CONTINUOUS
 10
322.617254
 20
10.0
 30
0.0
 40
10.0
 50
0.0
 51
90.0
  0
LINE
  5
1B1
  8
DETAIL
  6
CONTINUOUS
 10
213.664456
 20
20.0
 30
0.0
 11
198.730104
 21
20.0
 31
0.0
  0
LINE
  5
1B2
  8
DETAIL
  6
CONTINUOUS
 10
213.664456
 20
20.0
 30
0.0
 11
213.664456
 21
150.0
 31
0.0
  0
LINE
  5
1B3
  8
DETAIL
  6
CONTINUOUS
 10
295.512136
 20
20.0
 30
0.0
 11
295.512136
 21
150.0
 31
0.0
  0
LINE
  5
1B4
  8
DETAIL
  6
CONTINUOUS
 10
322.370844
 20
20.0
 30
0.0
 11
295.512136
 21
20.0
 31
0.0
  0
LINE
  5
1B5
  8
DETAIL
  6
CONTINUOUS
 10
-225.230074
 20
10.0
 30
0.0
 11
-225.230074
 21
0.0
 31
0.0
  0
ARC
  5
1B6
  8
DETAIL
  6
CONTINUOUS
 10
-235.230074
 20
10.0
 30
0.0
 40
10.0
 50
0.0
 51
90.0
  0
LINE
  5
1B7
  8
DETAIL
  6
CONTINUOUS
 10
-250.164426
 20
20.0
 30
0.0
 11
-235.230074
 21
20.0
 31
0.0
  0
LINE
  5
1B8
  8
DETAIL
  6
CONTINUOUS
 10
-250.164426
 20
20.0
 30
0.0
 11
-250.164426
 21
150.0
 31
0.0
  0
LINE
  5
1B9
  8
DETAIL
  6
CONTINUOUS
 10
-332.370844
 20
0.0
 30
0.0
 11
-188.730104
 21
0.0
 31
0.0
  0
LINE
  5
1BA
  8
DETAIL
  6
CONTINUOUS
 10
-188.730104
 20
10.0
 30
0.0
 11
-188.730104
 21
0.0
 31
0.0
  0
ARC
  5
1BB
  8
DETAIL
  6
CONTINUOUS
 10
-198.730104
 20
10.0
 30
0.0
 40
10.0
 50
0.0
 51
90.0
  0
LINE
  5
1BC
  8
DETAIL
  6
CONTINUOUS
 10
-332.617254
 20
10.0
 30
0.0
 11
-332.617254
 21
0.0
 31
0.0
  0
ARC
  5
1BD
  8
DETAIL
  6
CONTINUOUS
 10
-322.617254
 20
10.0
 30
0.0
 40
10.0
 50
90.0
 51
180.0
  0
LINE
  5
1BE
  8
DETAIL
  6
CONTINUOUS
 10
-213.664456
 20
20.0
 30
0.0
 11
-198.730104
 21
20.0
 31
0.0
  0
LINE
  5
1BF
  8
DETAIL
  6
CONTINUOUS
 10
-213.664456
 20
20.0
 30
0.0
 11
-213.664456
 21
150.0
 31
0.0
  0
LINE
  5
1C0
  8
DETAIL
  6
CONTINUOUS
 10
-295.512136
 20
20.0
 30
0.0
 11
-295.512136
 21
150.0
 31
0.0
  0
LINE
  5
1C1
  8
DETAIL
  6
CONTINUOUS
 10
-322.370844
 20
20.0
 30
0.0
 11
-295.512136
 21
20.0
 31
0.0
  0
LINE
  5
1C2
  8
DETAIL
  6
CONTINUOUS
 10
-97.5
 20
3.2
 30
0.0
 11
-97.5
 21
0.0
 31
0.0
  0
LINE
  5
1C3
  8
DETAIL
  6
CONTINUOUS
 10
46.8
 20
28.3
 30
0.0
 11
-46.8
 21
28.3
 31
0.0
  0
LINE
  5
1C4
  8
DETAIL
  6
CONTINUOUS
 10
-58.2
 20
0.0
 30
0.0
 11
-97.5
 21
0.0
 31
0.0
  0
LINE
  5
1C5
  8
DETAIL
  6
CONTINUOUS
 10
-58.2
 20
3.2
 30
0.0
 11
-97.5
 21
3.2
 31
0.0
  0
LINE
  5
1C6
  8
DETAIL
  6
CONTINUOUS
 10
-50.0
 20
8.2
 30
0.0
 11
-50.0
 21
21.9
 31
0.0
  0
LINE
  5
1C7
  8
DETAIL
  6
CONTINUOUS
 10
-53.2
 20
8.2
 30
0.0
 11
-53.2
 21
21.9
 31
0.0
  0
LINE
  5
1C8
  8
DETAIL
  6
CONTINUOUS
 10
46.8
 20
25.1
 30
0.0
 11
-46.8
 21
25.1
 31
0.0
  0
ARC
  5
1C9
  8
DETAIL
  6
CONTINUOUS
 10
-46.8
 20
21.9
 30
0.0
 40
3.2
 50
90.0
 51
180.0
  0
ARC
  5
1CA
  8
DETAIL
  6
CONTINUOUS
 10
-58.2
 20
8.2
 30
0.0
 40
5.0
 50
270.0
 51
0.0
  0
ARC
  5
1CB
  8
DETAIL
  6
CONTINUOUS
 10
-46.8
 20
21.9
 30
0.0
 40
6.4
 50
90.0
 51
180.0
  0
ARC
  5
1CC
  8
DETAIL
  6
CONTINUOUS
 10
-58.2
 20
8.2
 30
0.0
 40
8.2
 50
270.0
 51
0.0
  0
LINE
  5
1CD
  8
DETAIL
  6
CONTINUOUS
 10
50.0
 20
8.2
 30
0.0
 11
50.0
 21
21.9
 31
0.0
  0
ARC
  5
1CE
  8
DETAIL
  6
CONTINUOUS
 10
46.8
 20
21.9
 30
0.0
 40
6.4
 50
0.0
 51
90.0
  0
ARC
  5
1CF
  8
DETAIL
  6
CONTINUOUS
 10
46.8
 20
21.9
 30
0.0
 40
3.2
 50
0.0
 51
90.0
  0
LINE
  5
1D0
  8
DETAIL
  6
CONTINUOUS
 10
53.2
 20
8.2
 30
0.0
 11
53.2
 21
21.9
 31
0.0
  0
ARC
  5
1D1
  8
DETAIL
  6
CONTINUOUS
 10
58.2
 20
8.2
 30
0.0
 40
8.2
 50
180.0
 51
270.0
  0
ARC
  5
1D2
  8
DETAIL
  6
CONTINUOUS
 10
58.2
 20
8.2
 30
0.0
 40
5.0
 50
180.0
 51
270.0
  0
LINE
  5
1D3
  8
DETAIL
  6
CONTINUOUS
 10
97.5
 20
3.2
 30
0.0
 11
97.5
 21
0.0
 31
0.0
  0
LINE
  5
1D4
  8
DETAIL
  6
CONTINUOUS
 10
58.2
 20
0.0
 30
0.0
 11
97.5
 21
0.0
 31
0.0
  0
LINE
  5
1D5
  8
DETAIL
  6
CONTINUOUS
 10
58.2
 20
3.2
 30
0.0
 11
97.5
 21
3.2
 31
0.0
  0
LINE
  5
1D6
  8
DETAIL
  6
CONTINUOUS
 10
102.0
 20
1733.3
 30
0.0
 11
102.0
 21
1735.3
 31
0.0
  0
ARC
  5
1D7
  8
DETAIL
  6
CONTINUOUS
 10
95.0
 20
1739.3
 30
0.0
 40
4.0
 50
180.0
 51
270.0
  0
LINE
  5
1D8
  8
DETAIL
  6
CONTINUOUS
 10
95.0
 20
1735.3
 30
0.0
 11
102.0
 21
1735.3
 31
0.0
  0
LINE
  5
1D9
  8
DETAIL
  6
CONTINUOUS
 10
91.0
 20
1739.3
 30
0.0
 11
91.0
 21
1742.3
 31
0.0
  0
ARC
  5
1DA
  8
DETAIL
  6
CONTINUOUS
 10
85.0
 20
1742.3
 30
0.0
 40
6.0
 50
0.0
 51
90.0
  0
LINE
  5
1DB
  8
DETAIL
  6
CONTINUOUS
 10
45.204581
 20
1748.3
 30
0.0
 11
45.204581
 21
1766.3
 31
0.0
  0
LINE
  5
1DC
  8
DETAIL
  6
CONTINUOUS
 10
55.204581
 20
1748.3
 30
0.0
 11
55.204581
 21
1766.3
 31
0.0
  0
LINE
  5
1DD
  8
DETAIL
  6
CONTINUOUS
 10
45.204581
 20
1766.3
 30
0.0
 11
55.204581
 21
1766.3
 31
0.0
  0
LINE
  5
1DE
  8
DETAIL
  6
CONTINUOUS
 10
54.204581
 20
1748.3
 30
0.0
 11
54.204581
 21
1766.3
 31
0.0
  0
LINE
  5
1DF
  8
DETAIL
  6
CONTINUOUS
 10
46.204581
 20
1748.3
 30
0.0
 11
46.204581
 21
1766.3
 31
0.0
  0
LINE
  5
1E0
  8
DETAIL
  6
CONTINUOUS
 10
-102.0
 20
1733.3
 30
0.0
 11
-102.0
 21
1735.3
 31
0.0
  0
ARC
  5
1E1
  8
DETAIL
  6
CONTINUOUS
 10
-95.0
 20
1739.3
 30
0.0
 40
4.0
 50
270.0
 51
0.0
  0
LINE
  5
1E2
  8
DETAIL
  6
CONTINUOUS
 10
-95.0
 20
1735.3
 30
0.0
 11
-102.0
 21
1735.3
 31
0.0
  0
LINE
  5
1E3
  8
DETAIL
  6
CONTINUOUS
 10
-91.0
 20
1739.3
 30
0.0
 11
-91.0
 21
1742.3
 31
0.0
  0
ARC
  5
1E4
  8
DETAIL
  6
CONTINUOUS
 10
-85.0
 20
1742.3
 30
0.0
 40
6.0
 50
90.0
 51
180.0
  0
LINE
  5
1E5
  8
DETAIL
  6
CONTINUOUS
 10
-85.0
 20
1748.3
 30
0.0
 11
85.0
 21
1748.3
 31
0.0
  0
LINE
  5
1E6
  8
DETAIL
  6
CONTINUOUS
 10
-45.204581
 20
1766.3
 30
0.0
 11
-55.204581
 21
1766.3
 31
0.0
  0
LINE
  5
1E7
  8
DETAIL
  6
CONTINUOUS
 10
-55.204581
 20
1748.3
 30
0.0
 11
-55.204581
 21
1766.3
 31
0.0
  0
LINE
  5
1E8
  8
DETAIL
  6
CONTINUOUS
 10
-45.204581
 20
1748.3
 30
0.0
 11
-45.204581
 21
1766.3
 31
0.0
  0
LINE
  5
1E9
  8
DETAIL
  6
CONTINUOUS
 10
-54.204581
 20
1748.3
 30
0.0
 11
-54.204581
 21
1766.3
 31
0.0
  0
LINE
  5
1EA
  8
DETAIL
  6
CONTINUOUS
 10
-46.204581
 20
1748.3
 30
0.0
 11
-46.204581
 21
1766.3
 31
0.0
  0
LINE
  5
1EB
  8
DETAIL
  6
CONTINUOUS
 10
-102.0
 20
1733.3
 30
0.0
 11
102.0
 21
1733.3
 31
0.0
  0
LINE
  5
1EC
  8
DETAIL
  6
CONTINUOUS
 10
13.6
 20
1748.3
 30
0.0
 11
13.6
 21
1766.2
 31
0.0
  0
LINE
  5
1ED
  8
DETAIL
  6
CONTINUOUS
 10
12.112693
 20
1783.2
 30
0.0
 11
13.6
 21
1766.2
 31
0.0
  0
LINE
  5
1EE
  8
DETAIL
  6
CONTINUOUS
 10
11.108873
 20
1783.2
 30
0.0
 11
12.59618
 21
1766.2
 31
0.0
  0
LINE
  5
1EF
  8
DETAIL
  6
CONTINUOUS
 10
-13.6
 20
1748.3
 30
0.0
 11
-13.6
 21
1766.2
 31
0.0
  0
LINE
  5
1F0
  8
DETAIL
  6
CONTINUOUS
 10
-12.112693
 20
1783.2
 30
0.0
 11
12.112693
 21
1783.2
 31
0.0
  0
LINE
  5
1F1
  8
DETAIL
  6
CONTINUOUS
 10
-13.6
 20
1766.2
 30
0.0
 11
13.6
 21
1766.2
 31
0.0
  0
LINE
  5
1F2
  8
DETAIL
  6
CONTINUOUS
 10
-11.108873
 20
1783.2
 30
0.0
 11
-12.59618
 21
1766.2
 31
0.0
  0
LINE
  5
1F3
  8
DETAIL
  6
CONTINUOUS
 10
-12.112693
 20
1783.2
 30
0.0
 11
-13.6
 21
1766.2
 31
0.0
  0
LINE
  5
1F4
  8
DETAIL
  6
CONTINUOUS
 10
237.981917
 20
1748.19743
 30
0.0
 11
244.840318
 21
1728.360811
 31
0.0
  0
LINE
  5
1F5
  8
DETAIL
  6
CONTINUOUS
 10
246.67182
 20
1754.407332
 30
0.0
 11
258.595823
 21
1735.11963
 31
0.0
  0
ARC
  5
1F6
  8
DETAIL
  6
CONTINUOUS
 10
262.848727
 20
1737.748852
 30
0.0
 40
5.0
 50
211.725101
 51
268.035034
  0
LINE
  5
1F7
  8
DETAIL
  6
CONTINUOUS
 10
262.677285
 20
1732.751792
 30
0.0
 11
265.0
 21
1732.672103
 31
0.0
  0
LINE
  5
1F8
  8
DETAIL
  6
CONTINUOUS
 10
264.828558
 20
1727.675043
 30
0.0
 11
265.0
 21
1732.672103
 31
0.0
  0
LINE
  5
1F9
  8
DETAIL
  6
CONTINUOUS
 10
244.840318
 20
1728.360811
 30
0.0
 11
264.828558
 21
1727.675043
 31
0.0
  0
LINE
  5
1FA
  8
DETAIL
  6
CONTINUOUS
 10
124.910881
 20
1732.47542
 30
0.0
 11
104.922641
 21
1733.161189
 31
0.0
  0
LINE
  5
1FB
  8
DETAIL
  6
CONTINUOUS
 10
104.922641
 20
1733.161189
 30
0.0
 11
105.094083
 21
1738.158249
 31
0.0
  0
ARC
  5
1FC
  8
DETAIL
  6
CONTINUOUS
 10
107.58824
 20
1743.075619
 30
0.0
 40
5.0
 50
268.035034
 51
324.344966
  0
LINE
  5
1FD
  8
DETAIL
  6
CONTINUOUS
 10
107.416798
 20
1738.07856
 30
0.0
 11
105.094083
 21
1738.158249
 31
0.0
  0
ARC
  5
1FE
  8
DETAIL
  6
CONTINUOUS
 10
-229.660203
 20
1743.890445
 30
0.0
 40
20.0
 50
91.964966
 51
148.274899
  0
ARC
  5
1FF
  8
DETAIL
  6
CONTINUOUS
 10
-228.530861
 20
1744.929779
 30
0.0
 40
10.0
 50
91.964966
 51
160.927455
  0
LINE
  5
200
  8
DETAIL
  6
CONTINUOUS
 10
-237.981917
 20
1748.19743
 30
0.0
 11
-244.840318
 21
1728.360811
 31
0.0
  0
LINE
  5
201
  8
DETAIL
  6
CONTINUOUS
 10
-246.67182
 20
1754.407332
 30
0.0
 11
-258.595823
 21
1735.11963
 31
0.0
  0
ARC
  5
202
  8
DETAIL
  6
CONTINUOUS
 10
-262.848727
 20
1737.748852
 30
0.0
 40
5.0
 50
271.964966
 51
328.274899
  0
LINE
  5
203
  8
DETAIL
  6
CONTINUOUS
 10
-262.677285
 20
1732.751792
 30
0.0
 11
-265.0
 21
1732.672103
 31
0.0
  0
LINE
  5
204
  8
DETAIL
  6
CONTINUOUS
 10
-264.828558
 20
1727.675043
 30
0.0
 11
-265.0
 21
1732.672103
 31
0.0
  0
LINE
  5
205
  8
DETAIL
  6
CONTINUOUS
 10
-244.840318
 20
1728.360811
 30
0.0
 11
-264.828558
 21
1727.675043
 31
0.0
  0
ARC
  5
206
  8
DETAIL
  6
CONTINUOUS
 10
-142.317568
 20
1747.887635
 30
0.0
 40
10.0
 50
23.002477
 51
91.964966
  0
ARC
  5
207
  8
DETAIL
  6
CONTINUOUS
 10
-141.119648
 20
1746.928146
 30
0.0
 40
20.0
 50
35.655034
 51
91.964966
  0
LINE
  5
208
  8
DETAIL
  6
CONTINUOUS
 10
-124.868823
 20
1758.58622
 30
0.0
 11
-111.650946
 21
1740.161101
 31
0.0
  0
LINE
  5
209
  8
DETAIL
  6
CONTINUOUS
 10
-133.112688
 20
1751.795345
 30
0.0
 11
-124.910881
 21
1732.47542
 31
0.0
  0
LINE
  5
20A
  8
DETAIL
  6
CONTINUOUS
 10
-124.910881
 20
1732.47542
 30
0.0
 11
-104.922641
 21
1733.161189
 31
0.0
  0
LINE
  5
20B
  8
DETAIL
  6
CONTINUOUS
 10
-104.922641
 20
1733.161189
 30
0.0
 11
-105.094083
 21
1738.158249
 31
0.0
  0
ARC
  5
20C
  8
DETAIL
  6
CONTINUOUS
 10
-107.58824
 20
1743.075619
 30
0.0
 40
5.0
 50
215.655034
 51
271.964966
  0
LINE
  5
20D
  8
DETAIL
  6
CONTINUOUS
 10
-107.416798
 20
1738.07856
 30
0.0
 11
-105.094083
 21
1738.158249
 31
0.0
  0
LINE
  5
20E
  8
DETAIL
  6
CONTINUOUS
 10
-142.660452
 20
1757.881755
 30
0.0
 11
-228.873745
 21
1754.923899
 31
0.0
  0
LINE
  5
20F
  8
DETAIL
  6
CONTINUOUS
 10
-141.805416
 20
1766.916386
 30
0.0
 11
-230.345972
 21
1763.878684
 31
0.0
  0
LINE
  5
210
  8
DETAIL
  6
CONTINUOUS
 10
124.868823
 20
1758.58622
 30
0.0
 11
111.650946
 21
1740.161101
 31
0.0
  0
LINE
  5
211
  8
DETAIL
  6
CONTINUOUS
 10
142.660452
 20
1757.881755
 30
0.0
 11
228.873745
 21
1754.923899
 31
0.0
  0
LINE
  5
212
  8
DETAIL
  6
CONTINUOUS
 10
141.805416
 20
1766.916386
 30
0.0
 11
230.345972
 21
1763.878684
 31
0.0
  0
ARC
  5
213
  8
DETAIL
  6
CONTINUOUS
 10
142.317568
 20
1747.887635
 30
0.0
 40
10.0
 50
88.035034
 51
156.997523
  0
LINE
  5
214
  8
DETAIL
  6
CONTINUOUS
 10
133.112688
 20
1751.795345
 30
0.0
 11
124.910881
 21
1732.47542
 31
0.0
  0
ARC
  5
215
  8
DETAIL
  6
CONTINUOUS
 10
141.119648
 20
1746.928146
 30
0.0
 40
20.0
 50
88.035034
 51
144.344966
  0
ARC
  5
216
  8
DETAIL
  6
CONTINUOUS
 10
229.660203
 20
1743.890445
 30
0.0
 40
20.0
 50
31.725101
 51
88.035034
  0
ARC
  5
217
  8
DETAIL
  6
CONTINUOUS
 10
228.530861
 20
1744.929779
 30
0.0
 40
10.0
 50
19.072545
 51
88.035034
  0
LINE
  5
218
  8
DETAIL
  6
CONTINUOUS
 10
36.6
 20
150.0
 30
0.0
 11
36.6
 21
28.3
 31
0.0
  0
LINE
  5
219
  8
DETAIL
  6
CONTINUOUS
 10
36.6
 20
0.0
 30
0.0
 11
-36.6
 21
0.0
 31
0.0
  0
LINE
  5
21A
  8
DETAIL
  6
CONTINUOUS
 10
-36.6
 20
0.0
 30
0.0
 11
-36.6
 21
25.1
 31
0.0
  0
LINE
  5
21B
  8
DETAIL
  6
CONTINUOUS
 10
36.6
 20
25.1
 30
0.0
 11
36.6
 21
0.0
 31
0.0
  0
LINE
  5
21C
  8
DETAIL
  6
CONTINUOUS
 10
-36.6
 20
28.3
 30
0.0
 11
-36.6
 21
150.0
 31
0.0
  0
ARC
  5
21D
  8
DETAIL
  6
CONTINUOUS
 10
-323.4
 20
1717.106114
 30
0.0
 40
6.6
 50
93.972201
 51
180.0
  0
ARC
  5
21E
  8
DETAIL
  6
CONTINUOUS
 10
323.4
 20
1717.106114
 30
0.0
 40
6.6
 50
0.0
 51
86.027799
  0
ARC
  5
21F
  8
DETAIL
  6
CONTINUOUS
 10
46.725779
 20
-2267.299409
 30
0.0
 40
4000.6
 50
86.027799
 51
90.031141
  0
LINE
  5
220
  8
DETAIL
  6
CONTINUOUS
 10
325.679425
 20
1723.3
 30
0.0
 11
-325.679425
 21
1723.3
 31
0.0
  0
LINE
  5
221
  8
DETAIL
  6
CONTINUOUS
 10
44.551394
 20
1733.3
 30
0.0
 11
-48.900163
 21
1733.3
 31
0.0
  0
LINE
  5
222
  8
DETAIL
  6
CONTINUOUS
 10
330.0
 20
1697.7
 30
0.0
 11
-330.0
 21
1697.7
 31
0.0
  0
ARC
  5
223
  8
DETAIL
  6
CONTINUOUS
 10
-46.725779
 20
-2267.299409
 30
0.0
 40
4000.6
 50
90.031141
 51
93.972201
  0
LINE
  5
224
  8
DETAIL
  6
CONTINUOUS
 10
330.0
 20
150.0
 30
0.0
 11
330.0
 21
1717.106114
 31
0.0
  0
LINE
  5
225
  8
DETAIL
  6
CONTINUOUS
 10
-330.0
 20
150.0
 30
0.0
 11
-330.0
 21
1717.106114
 31
0.0
  0
LINE
  5
226
  8
DETAIL
  6
CONTINUOUS
 10
-330.0
 20
150.0
 30
0.0
 11
330.0
 21
150.0
 31
0.0
  0
ARC
  5
227
  8
DETAIL
  6
CONTINUOUS
 10
228.530861
 20
1744.929779
 30
0.0
 40
10.0
 50
19.072545
 51
88.035034
  0
ARC
  5
228
  8
DETAIL
  6
CONTINUOUS
 10
229.660203
 20
1743.890445
 30
0.0
 40
20.0
 50
31.725101
 51
88.035034
  0
ARC
  5
229
  8
DETAIL
  6
CONTINUOUS
 10
141.119648
 20
1746.928146
 30
0.0
 40
20.0
 50
88.035034
 51
144.344966
  0
LINE
  5
22A
  8
DETAIL
  6
CONTINUOUS
 10
133.112688
 20
1751.795345
 30
0.0
 11
124.910881
 21
1732.47542
 31
0.0
  0
ARC
  5
22B
  8
DETAIL
  6
CONTINUOUS
 10
142.317568
 20
1747.887635
 30
0.0
 40
10.0
 50
88.035034
 51
156.997523
  0
LINE
  5
22C
  8
DETAIL
  6
CONTINUOUS
 10
141.805416
 20
1766.916386
 30
0.0
 11
230.345972
 21
1763.878684
 31
0.0
  0
LINE
  5
22D
  8
DETAIL
  6
CONTINUOUS
 10
142.660452
 20
1757.881755
 30
0.0
 11
228.873745
 21
1754.923899
 31
0.0
  0
LINE
  5
22E
  8
DETAIL
  6
CONTINUOUS
 10
124.868823
 20
1758.58622
 30
0.0
 11
111.650946
 21
1740.161101
 31
0.0
  0
LINE
  5
22F
  8
DETAIL
  6
CONTINUOUS
 10
-141.805416
 20
1766.916386
 30
0.0
 11
-230.345972
 21
1763.878684
 31
0.0
  0
LINE
  5
230
  8
DETAIL
  6
CONTINUOUS
 10
-142.660452
 20
1757.881755
 30
0.0
 11
-228.873745
 21
1754.923899
 31
0.0
  0
LINE
  5
231
  8
DETAIL
  6
CONTINUOUS
 10
-107.416798
 20
1738.07856
 30
0.0
 11
-105.094083
 21
1738.158249
 31
0.0
  0
ARC
  5
232
  8
DETAIL
  6
CONTINUOUS
 10
-107.58824
 20
1743.075619
 30
0.0
 40
5.0
 50
215.655034
 51
271.964966
  0
LINE
  5
233
  8
DETAIL
  6
CONTINUOUS
 10
-104.922641
 20
1733.161189
 30
0.0
 11
-105.094083
 21
1738.158249
 31
0.0
  0
LINE
  5
234
  8
DETAIL
  6
CONTINUOUS
 10
-124.910881
 20
1732.47542
 30
0.0
 11
-104.922641
 21
1733.161189
 31
0.0
  0
LINE
  5
235
  8
DETAIL
  6
CONTINUOUS
 10
-133.112688
 20
1751.795345
 30
0.0
 11
-124.910881
 21
1732.47542
 31
0.0
  0
LINE
  5
236
  8
DETAIL
  6
CONTINUOUS
 10
-124.868823
 20
1758.58622
 30
0.0
 11
-111.650946
 21
1740.161101
 31
0.0
  0
ARC
  5
237
  8
DETAIL
  6
CONTINUOUS
 10
-141.119648
 20
1746.928146
 30
0.0
 40
20.0
 50
35.655034
 51
91.964966
  0
ARC
  5
238
  8
DETAIL
  6
CONTINUOUS
 10
-142.317568
 20
1747.887635
 30
0.0
 40
10.0
 50
23.002477
 51
91.964966
  0
LINE
  5
239
  8
DETAIL
  6
CONTINUOUS
 10
-244.840318
 20
1728.360811
 30
0.0
 11
-264.828558
 21
1727.675043
 31
0.0
  0
LINE
  5
23A
  8
DETAIL
  6
CONTINUOUS
 10
-264.828558
 20
1727.675043
 30
0.0
 11
-265.0
 21
1732.672103
 31
0.0
  0
LINE
  5
23B
  8
DETAIL
  6
CONTINUOUS
 10
-262.677285
 20
1732.751792
 30
0.0
 11
-265.0
 21
1732.672103
 31
0.0
  0
ARC
  5
23C
  8
DETAIL
  6
CONTINUOUS
 10
-262.848727
 20
1737.748852
 30
0.0
 40
5.0
 50
271.964966
 51
328.274899
  0
LINE
  5
23D
  8
DETAIL
  6
CONTINUOUS
 10
-246.67182
 20
1754.407332
 30
0.0
 11
-258.595823
 21
1735.11963
 31
0.0
  0
LINE
  5
23E
  8
DETAIL
  6
CONTINUOUS
 10
-237.981917
 20
1748.19743
 30
0.0
 11
-244.840318
 21
1728.360811
 31
0.0
  0
ARC
  5
23F
  8
DETAIL
  6
CONTINUOUS
 10
-228.530861
 20
1744.929779
 30
0.0
 40
10.0
 50
91.964966
 51
160.927455
  0
ARC
  5
240
  8
DETAIL
  6
CONTINUOUS
 10
-229.660203
 20
1743.890445
 30
0.0
 40
20.0
 50
91.964966
 51
148.274899
  0
LINE
  5
241
  8
DETAIL
  6
CONTINUOUS
 10
107.416798
 20
1738.07856
 30
0.0
 11
105.094083
 21
1738.158249
 31
0.0
  0
ARC
  5
242
  8
DETAIL
  6
CONTINUOUS
 10
107.58824
 20
1743.075619
 30
0.0
 40
5.0
 50
268.035034
 51
324.344966
  0
LINE
  5
243
  8
DETAIL
  6
CONTINUOUS
 10
104.922641
 20
1733.161189
 30
0.0
 11
105.094083
 21
1738.158249
 31
0.0
  0
LINE
  5
244
  8
DETAIL
  6
CONTINUOUS
 10
124.910881
 20
1732.47542
 30
0.0
 11
104.922641
 21
1733.161189
 31
0.0
  0
LINE
  5
245
  8
DETAIL
  6
CONTINUOUS
 10
244.840318
 20
1728.360811
 30
0.0
 11
264.828558
 21
1727.675043
 31
0.0
  0
LINE
  5
246
  8
DETAIL
  6
CONTINUOUS
 10
264.828558
 20
1727.675043
 30
0.0
 11
265.0
 21
1732.672103
 31
0.0
  0
LINE
  5
247
  8
DETAIL
  6
CONTINUOUS
 10
262.677285
 20
1732.751792
 30
0.0
 11
265.0
 21
1732.672103
 31
0.0
  0
ARC
  5
248
  8
DETAIL
  6
CONTINUOUS
 10
262.848727
 20
1737.748852
 30
0.0
 40
5.0
 50
211.725101
 51
268.035034
  0
LINE
  5
249
  8
DETAIL
  6
CONTINUOUS
 10
246.67182
 20
1754.407332
 30
0.0
 11
258.595823
 21
1735.11963
 31
0.0
  0
LINE
  5
24A
  8
DETAIL
  6
CONTINUOUS
 10
237.981917
 20
1748.19743
 30
0.0
 11
244.840318
 21
1728.360811
 31
0.0
  0
LINE
  5
24B
  8
DETAIL
  6
CONTINUOUS
 10
-12.112693
 20
1783.2
 30
0.0
 11
-13.6
 21
1766.2
 31
0.0
  0
LINE
  5
24C
  8
DETAIL
  6
CONTINUOUS
 10
-11.108873
 20
1783.2
 30
0.0
 11
-12.59618
 21
1766.2
 31
0.0
  0
LINE
  5
24D
  8
DETAIL
  6
CONTINUOUS
 10
-13.6
 20
1766.2
 30
0.0
 11
13.6
 21
1766.2
 31
0.0
  0
LINE
  5
24E
  8
DETAIL
  6
CONTINUOUS
 10
-12.112693
 20
1783.2
 30
0.0
 11
12.112693
 21
1783.2
 31
0.0
  0
LINE
  5
24F
  8
DETAIL
  6
CONTINUOUS
 10
-13.6
 20
1748.3
 30
0.0
 11
-13.6
 21
1766.2
 31
0.0
  0
LINE
  5
250
  8
DETAIL
  6
CONTINUOUS
 10
11.108873
 20
1783.2
 30
0.0
 11
12.59618
 21
1766.2
 31
0.0
  0
LINE
  5
251
  8
DETAIL
  6
CONTINUOUS
 10
12.112693
 20
1783.2
 30
0.0
 11
13.6
 21
1766.2
 31
0.0
  0
LINE
  5
252
  8
DETAIL
  6
CONTINUOUS
 10
13.6
 20
1748.3
 30
0.0
 11
13.6
 21
1766.2
 31
0.0
  0
LINE
  5
253
  8
DETAIL
  6
CONTINUOUS
 10
-102.0
 20
1733.3
 30
0.0
 11
102.0
 21
1733.3
 31
0.0
  0
LINE
  5
254
  8
DETAIL
  6
CONTINUOUS
 10
-46.204581
 20
1748.3
 30
0.0
 11
-46.204581
 21
1766.3
 31
0.0
  0
LINE
  5
255
  8
DETAIL
  6
CONTINUOUS
 10
-54.204581
 20
1748.3
 30
0.0
 11
-54.204581
 21
1766.3
 31
0.0
  0
LINE
  5
256
  8
DETAIL
  6
CONTINUOUS
 10
-45.204581
 20
1748.3
 30
0.0
 11
-45.204581
 21
1766.3
 31
0.0
  0
LINE
  5
257
  8
DETAIL
  6
CONTINUOUS
 10
-55.204581
 20
1748.3
 30
0.0
 11
-55.204581
 21
1766.3
 31
0.0
  0
LINE
  5
258
  8
DETAIL
  6
CONTINUOUS
 10
-45.204581
 20
1766.3
 30
0.0
 11
-55.204581
 21
1766.3
 31
0.0
  0
LINE
  5
259
  8
DETAIL
  6
CONTINUOUS
 10
-85.0
 20
1748.3
 30
0.0
 11
85.0
 21
1748.3
 31
0.0
  0
ARC
  5
25A
  8
DETAIL
  6
CONTINUOUS
 10
-85.0
 20
1742.3
 30
0.0
 40
6.0
 50
90.0
 51
180.0
  0
LINE
  5
25B
  8
DETAIL
  6
CONTINUOUS
 10
-91.0
 20
1739.3
 30
0.0
 11
-91.0
 21
1742.3
 31
0.0
  0
LINE
  5
25C
  8
DETAIL
  6
CONTINUOUS
 10
-95.0
 20
1735.3
 30
0.0
 11
-102.0
 21
1735.3
 31
0.0
  0
ARC
  5
25D
  8
DETAIL
  6
CONTINUOUS
 10
-95.0
 20
1739.3
 30
0.0
 40
4.0
 50
270.0
 51
0.0
  0
LINE
  5
25E
  8
DETAIL
  6
CONTINUOUS
 10
-102.0
 20
1733.3
 30
0.0
 11
-102.0
 21
1735.3
 31
0.0
  0
LINE
  5
25F
  8
DETAIL
  6
CONTINUOUS
 10
46.204581
 20
1748.3
 30
0.0
 11
46.204581
 21
1766.3
 31
0.0
  0
LINE
  5
260
  8
DETAIL
  6
CONTINUOUS
 10
54.204581
 20
1748.3
 30
0.0
 11
54.204581
 21
1766.3
 31
0.0
  0
LINE
  5
261
  8
DETAIL
  6
CONTINUOUS
 10
45.204581
 20
1766.3
 30
0.0
 11
55.204581
 21
1766.3
 31
0.0
  0
LINE
  5
262
  8
DETAIL
  6
CONTINUOUS
 10
55.204581
 20
1748.3
 30
0.0
 11
55.204581
 21
1766.3
 31
0.0
  0
LINE
  5
263
  8
DETAIL
  6
CONTINUOUS
 10
45.204581
 20
1748.3
 30
0.0
 11
45.204581
 21
1766.3
 31
0.0
  0
ARC
  5
264
  8
DETAIL
  6
CONTINUOUS
 10
85.0
 20
1742.3
 30
0.0
 40
6.0
 50
0.0
 51
90.0
  0
LINE
  5
265
  8
DETAIL
  6
CONTINUOUS
 10
91.0
 20
1739.3
 30
0.0
 11
91.0
 21
1742.3
 31
0.0
  0
LINE
  5
266
  8
DETAIL
  6
CONTINUOUS
 10
95.0
 20
1735.3
 30
0.0
 11
102.0
 21
1735.3
 31
0.0
  0
ARC
  5
267
  8
DETAIL
  6
CONTINUOUS
 10
95.0
 20
1739.3
 30
0.0
 40
4.0
 50
180.0
 51
270.0
  0
LINE
  5
268
  8
DETAIL
  6
CONTINUOUS
 10
102.0
 20
1733.3
 30
0.0
 11
102.0
 21
1735.3
 31
0.0
  0
LINE
  5
269
  8
DETAIL
  6
CONTINUOUS
 10
58.2
 20
3.2
 30
0.0
 11
97.5
 21
3.2
 31
0.0
  0
LINE
  5
26A
  8
DETAIL
  6
CONTINUOUS
 10
58.2
 20
0.0
 30
0.0
 11
97.5
 21
0.0
 31
0.0
  0
LINE
  5
26B
  8
DETAIL
  6
CONTINUOUS
 10
97.5
 20
3.2
 30
0.0
 11
97.5
 21
0.0
 31
0.0
  0
ARC
  5
26C
  8
DETAIL
  6
CONTINUOUS
 10
58.2
 20
8.2
 30
0.0
 40
5.0
 50
180.0
 51
270.0
  0
ARC
  5
26D
  8
DETAIL
  6
CONTINUOUS
 10
58.2
 20
8.2
 30
0.0
 40
8.2
 50
180.0
 51
270.0
  0
LINE
  5
26E
  8
DETAIL
  6
CONTINUOUS
 10
53.2
 20
8.2
 30
0.0
 11
53.2
 21
21.9
 31
0.0
  0
ARC
  5
26F
  8
DETAIL
  6
CONTINUOUS
 10
46.8
 20
21.9
 30
0.0
 40
3.2
 50
0.0
 51
90.0
  0
ARC
  5
270
  8
DETAIL
  6
CONTINUOUS
 10
46.8
 20
21.9
 30
0.0
 40
6.4
 50
0.0
 51
90.0
  0
LINE
  5
271
  8
DETAIL
  6
CONTINUOUS
 10
50.0
 20
8.2
 30
0.0
 11
50.0
 21
21.9
 31
0.0
  0
ARC
  5
272
  8
DETAIL
  6
CONTINUOUS
 10
-58.2
 20
8.2
 30
0.0
 40
8.2
 50
270.0
 51
0.0
  0
ARC
  5
273
  8
DETAIL
  6
CONTINUOUS
 10
-46.8
 20
21.9
 30
0.0
 40
6.4
 50
90.0
 51
180.0
  0
ARC
  5
274
  8
DETAIL
  6
CONTINUOUS
 10
-58.2
 20
8.2
 30
0.0
 40
5.0
 50
270.0
 51
0.0
  0
ARC
  5
275
  8
DETAIL
  6
CONTINUOUS
 10
-46.8
 20
21.9
 30
0.0
 40
3.2
 50
90.0
 51
180.0
  0
LINE
  5
276
  8
DETAIL
  6
CONTINUOUS
 10
46.8
 20
25.1
 30
0.0
 11
-46.8
 21
25.1
 31
0.0
  0
LINE
  5
277
  8
DETAIL
  6
CONTINUOUS
 10
-53.2
 20
8.2
 30
0.0
 11
-53.2
 21
21.9
 31
0.0
  0
LINE
  5
278
  8
DETAIL
  6
CONTINUOUS
 10
-50.0
 20
8.2
 30
0.0
 11
-50.0
 21
21.9
 31
0.0
  0
LINE
  5
279
  8
DETAIL
  6
CONTINUOUS
 10
-58.2
 20
3.2
 30
0.0
 11
-97.5
 21
3.2
 31
0.0
  0
LINE
  5
27A
  8
DETAIL
  6
CONTINUOUS
 10
-58.2
 20
0.0
 30
0.0
 11
-97.5
 21
0.0
 31
0.0
  0
LINE
  5
27B
  8
DETAIL
  6
CONTINUOUS
 10
46.8
 20
28.3
 30
0.0
 11
-46.8
 21
28.3
 31
0.0
  0
LINE
  5
27C
  8
DETAIL
  6
CONTINUOUS
 10
-97.5
 20
3.2
 30
0.0
 11
-97.5
 21
0.0
 31
0.0
  0
LINE
  5
27D
  8
BASIS
  6
DASHDOT
 10
0.0
 20
-31.852994
 30
0.0
 11
0.0
 21
1828.132248
 31
0.0
  0
LINE
  5
27E
  8
SIZE
  6
CONTINUOUS
 62
    30
 10
-80.0
 20
-32.686321
 30
0.0
 11
-80.0
 21
-160.1
 31
0.0
  0
LINE
  5
27F
  8
SIZE
  6
CONTINUOUS
 62
    30
 10
80.0
 20
-32.686321
 30
0.0
 11
80.0
 21
-160.1
 31
0.0
  0
LINE
  5
280
  8
SIZE
  6
CONTINUOUS
 62
    30
 10
-70.0
 20
-147.6
 30
0.0
 11
70.0
 21
-147.6
 31
0.0
  0
CIRCLE
  5
281
  8
SIZE
  6
CONTINUOUS
 62
    30
 10
-80.0
 20
-147.6
 30
0.0
 40
5.0
  0
LINE
  5
282
  8
SIZE
  6
CONTINUOUS
 62
    30
 10
-80.0
 20
-147.6
 30
0.0
 11
-70.0
 21
-147.6
 31
0.0
  0
CIRCLE
  5
283
  8
SIZE
  6
CONTINUOUS
 62
    30
 10
80.0
 20
-147.6
 30
0.0
 40
5.0
  0
LINE
  5
284
  8
SIZE
  6
CONTINUOUS
 62
    30
 10
80.0
 20
-147.6
 30
0.0
 11
70.0
 21
-147.6
 31
0.0
  0
TEXT
  5
285
  8
SIZE
  6
CONTINUOUS
 62
    30
 10
-32.5
 20
-137.6
 30
0.0
 40
30.0
  1
160
 72
     1
 11
0.0
 21
-137.6
 31
0.0
  0
POINT
  5
286
  8
DEFPOINTS
  6
CONTINUOUS
 62
    30
 10
-80.0
 20
-22.686321
 30
0.0
  0
POINT
  5
287
  8
DEFPOINTS
  6
CONTINUOUS
 62
    30
 10
80.0
 20
-22.686321
 30
0.0
  0
POINT
  5
288
  8
DEFPOINTS
  6
CONTINUOUS
 62
    30
 10
80.0
 20
-147.6
 30
0.0
  0
LINE
  5
289
  8
SIZE
  6
CONTINUOUS
 62
    30
 10
-304.840942
 20
-30.0
 30
0.0
 11
-304.840942
 21
-360.1
 31
0.0
  0
LINE
  5
28A
  8
SIZE
  6
CONTINUOUS
 62
    30
 10
304.840942
 20
-30.0
 30
0.0
 11
304.840942
 21
-360.1
 31
0.0
  0
LINE
  5
28B
  8
SIZE
  6
CONTINUOUS
 62
    30
 10
-294.840942
 20
-347.6
 30
0.0
 11
294.840942
 21
-347.6
 31
0.0
  0
CIRCLE
  5
28C
  8
SIZE
  6
CONTINUOUS
 62
    30
 10
-304.840942
 20
-347.6
 30
0.0
 40
5.0
  0
LINE
  5
28D
  8
SIZE
  6
CONTINUOUS
 62
    30
 10
-304.840942
 20
-347.6
 30
0.0
 11
-294.840942
 21
-347.6
 31
0.0
  0
CIRCLE
  5
28E
  8
SIZE
  6
CONTINUOUS
 62
    30
 10
304.840942
 20
-347.6
 30
0.0
 40
5.0
  0
LINE
  5
28F
  8
SIZE
  6
CONTINUOUS
 62
    30
 10
304.840942
 20
-347.6
 30
0.0
 11
294.840942
 21
-347.6
 31
0.0
  0
TEXT
  5
290
  8
SIZE
  6
CONTINUOUS
 62
    30
 10
-32.5
 20
-337.6
 30
0.0
 40
30.0
  1
610
 72
     1
 11
0.0
 21
-337.6
 31
0.0
  0
POINT
  5
291
  8
DEFPOINTS
  6
CONTINUOUS
 62
    30
 10
-304.840942
 20
-20.0
 30
0.0
  0
POINT
  5
292
  8
DEFPOINTS
  6
CONTINUOUS
 62
    30
 10
304.840942
 20
-20.0
 30
0.0
  0
POINT
  5
293
  8
DEFPOINTS
  6
CONTINUOUS
 62
    30
 10
304.840942
 20
-347.6
 30
0.0
  0
LINE
  5
294
  8
SIZE
  6
CONTINUOUS
 62
    30
 10
-97.5
 20
-6.8
 30
0.0
 11
-97.5
 21
-260.1
 31
0.0
  0
LINE
  5
295
  8
SIZE
  6
CONTINUOUS
 62
    30
 10
97.5
 20
-10.0
 30
0.0
 11
97.5
 21
-260.1
 31
0.0
  0
LINE
  5
296
  8
SIZE
  6
CONTINUOUS
 62
    30
 10
-87.5
 20
-247.6
 30
0.0
 11
87.5
 21
-247.6
 31
0.0
  0
CIRCLE
  5
297
  8
SIZE
  6
CONTINUOUS
 62
    30
 10
-97.5
 20
-247.6
 30
0.0
 40
5.0
  0
LINE
  5
298
  8
SIZE
  6
CONTINUOUS
 62
    30
 10
-97.5
 20
-247.6
 30
0.0
 11
-87.5
 21
-247.6
 31
0.0
  0
CIRCLE
  5
299
  8
SIZE
  6
CONTINUOUS
 62
    30
 10
97.5
 20
-247.6
 30
0.0
 40
5.0
  0
LINE
  5
29A
  8
SIZE
  6
CONTINUOUS
 62
    30
 10
97.5
 20
-247.6
 30
0.0
 11
87.5
 21
-247.6
 31
0.0
  0
TEXT
  5
29B
  8
SIZE
  6
CONTINUOUS
 62
    30
 10
-35.386542
 20
-237.6
 30
0.0
 40
30.0
  1
195
 72
     1
 11
-0.386542
 21
-237.6
 31
0.0
  0
POINT
  5
29C
  8
DEFPOINTS
  6
CONTINUOUS
 62
    30
 10
-97.5
 20
3.2
 30
0.0
  0
POINT
  5
29D
  8
DEFPOINTS
  6
CONTINUOUS
 62
    30
 10
97.5
 20
0.0
 30
0.0
  0
POINT
  5
29E
  8
DEFPOINTS
  6
CONTINUOUS
 62
    30
 10
97.5
 20
-247.6
 30
0.0
  0
LINE
  5
29F
  8
SIZE
  6
CONTINUOUS
 62
    30
 10
141.108032
 20
1768.783447
 30
0.0
 11
490.1
 21
1768.783447
 31
0.0
  0
LINE
  5
2A0
  8
SIZE
  6
CONTINUOUS
 62
    30
 10
54.551395
 20
1733.300049
 30
0.0
 11
490.1
 21
1733.300049
 31
0.0
  0
LINE
  5
2A1
  8
SIZE
  6
CONTINUOUS
 62
    30
 10
477.6
 20
1723.300049
 30
0.0
 11
477.6
 21
1713.300049
 31
0.0
  0
LINE
  5
2A2
  8
SIZE
  6
CONTINUOUS
 62
    30
 10
477.6
 20
1778.783447
 30
0.0
 11
477.6
 21
1858.783447
 31
0.0
  0
LINE
  5
2A3
  8
SIZE
  6
CONTINUOUS
 62
    30
 10
477.6
 20
1733.300049
 30
0.0
 11
477.6
 21
1768.783447
 31
0.0
  0
CIRCLE
  5
2A4
  8
SIZE
  6
CONTINUOUS
 62
    30
 10
477.6
 20
1733.300049
 30
0.0
 40
5.0
  0
LINE
  5
2A5
  8
SIZE
  6
CONTINUOUS
 62
    30
 10
477.6
 20
1733.300049
 30
0.0
 11
477.6
 21
1723.300049
 31
0.0
  0
CIRCLE
  5
2A6
  8
SIZE
  6
CONTINUOUS
 62
    30
 10
477.6
 20
1768.783447
 30
0.0
 40
5.0
  0
LINE
  5
2A7
  8
SIZE
  6
CONTINUOUS
 62
    30
 10
477.6
 20
1768.783447
 30
0.0
 11
477.6
 21
1778.783447
 31
0.0
  0
TEXT
  5
2A8
  8
SIZE
  6
CONTINUOUS
 62
    30
 10
467.6
 20
1798.783447
 30
0.0
 40
30.0
  1
36
 50
90.0
 72
     1
 11
467.6
 21
1823.783447
 31
0.0
  0
POINT
  5
2A9
  8
DEFPOINTS
  6
CONTINUOUS
 62
    30
 10
131.108032
 20
1768.783447
 30
0.0
  0
POINT
  5
2AA
  8
DEFPOINTS
  6
CONTINUOUS
 62
    30
 10
44.551395
 20
1733.300049
 30
0.0
  0
POINT
  5
2AB
  8
DEFPOINTS
  6
CONTINUOUS
 62
    30
 10
477.6
 20
1733.300049
 30
0.0
  0
POINT
  5
2AC
  8
SIZE
  6
CONTINUOUS
 10
131.108035
 20
1768.783398
 30
0.0
  0
LINE
  5
2AD
  8
SIZE
  6
CONTINUOUS
 62
    30
 10
22.112693
 20
1783.199951
 30
0.0
 11
690.1
 21
1783.199951
 31
0.0
  0
LINE
  5
2AE
  8
SIZE
  6
CONTINUOUS
 62
    30
 10
368.351593
 20
0.0
 30
0.0
 11
690.1
 21
0.0
 31
0.0
  0
LINE
  5
2AF
  8
SIZE
  6
CONTINUOUS
 62
    30
 10
677.6
 20
1773.199951
 30
0.0
 11
677.6
 21
10.0
 31
0.0
  0
CIRCLE
  5
2B0
  8
SIZE
  6
CONTINUOUS
 62
    30
 10
677.6
 20
1783.199951
 30
0.0
 40
5.0
  0
LINE
  5
2B1
  8
SIZE
  6
CONTINUOUS
 62
    30
 10
677.6
 20
1783.199951
 30
0.0
 11
677.6
 21
1773.199951
 31
0.0
  0
CIRCLE
  5
2B2
  8
SIZE
  6
CONTINUOUS
 62
    30
 10
677.6
 20
0.0
 30
0.0
 40
5.0
  0
LINE
  5
2B3
  8
SIZE
  6
CONTINUOUS
 62
    30
 10
677.6
 20
0.0
 30
0.0
 11
677.6
 21
10.0
 31
0.0
  0
TEXT
  5
2B4
  8
SIZE
  6
CONTINUOUS
 62
    30
 10
667.6
 20
856.459489
 30
0.0
 40
30.0
  1
1783
 50
90.0
 72
     1
 11
667.6
 21
906.459489
 31
0.0
  0
POINT
  5
2B5
  8
DEFPOINTS
  6
CONTINUOUS
 62
    30
 10
12.112693
 20
1783.199951
 30
0.0
  0
POINT
  5
2B6
  8
DEFPOINTS
  6
CONTINUOUS
 62
    30
 10
358.351593
 20
0.0
 30
0.0
  0
POINT
  5
2B7
  8
DEFPOINTS
  6
CONTINUOUS
 62
    30
 10
677.6
 20
0.0
 30
0.0
  0
LINE
  5
2B8
  8
SIZE
  6
CONTINUOUS
 62
    30
 10
368.351593
 20
0.0
 30
0.0
 11
590.1
 21
0.0
 31
0.0
  0
LINE
  5
2B9
  8
SIZE
  6
CONTINUOUS
 62
    30
 10
340.0
 20
150.0
 30
0.0
 11
590.1
 21
150.0
 31
0.0
  0
LINE
  5
2BA
  8
SIZE
  6
CONTINUOUS
 62
    30
 10
577.6
 20
10.0
 30
0.0
 11
577.6
 21
140.0
 31
0.0
  0
CIRCLE
  5
2BB
  8
SIZE
  6
CONTINUOUS
 62
    30
 10
577.6
 20
0.0
 30
0.0
 40
5.0
  0
LINE
  5
2BC
  8
SIZE
  6
CONTINUOUS
 62
    30
 10
577.6
 20
0.0
 30
0.0
 11
577.6
 21
10.0
 31
0.0
  0
CIRCLE
  5
2BD
  8
SIZE
  6
CONTINUOUS
 62
    30
 10
577.6
 20
150.0
 30
0.0
 40
5.0
  0
LINE
  5
2BE
  8
SIZE
  6
CONTINUOUS
 62
    30
 10
577.6
 20
150.0
 30
0.0
 11
577.6
 21
140.0
 31
0.0
  0
TEXT
  5
2BF
  8
SIZE
  6
CONTINUOUS
 62
    30
 10
567.6
 20
42.5
 30
0.0
 40
30.0
  1
150
 50
90.0
 72
     1
 11
567.6
 21
75.0
 31
0.0
  0
POINT
  5
2C0
  8
DEFPOINTS
  6
CONTINUOUS
 62
    30
 10
358.351593
 20
0.0
 30
0.0
  0
POINT
  5
2C1
  8
DEFPOINTS
  6
CONTINUOUS
 62
    30
 10
330.0
 20
150.0
 30
0.0
  0
POINT
  5
2C2
  8
DEFPOINTS
  6
CONTINUOUS
 62
    30
 10
577.6
 20
150.0
 30
0.0
  0
LINE
  5
2C3
  8
SIZE
  6
CONTINUOUS
 62
    30
 10
340.0
 20
150.0
 30
0.0
 11
590.1
 21
150.0
 31
0.0
  0
LINE
  5
2C4
  8
SIZE
  6
CONTINUOUS
 62
    30
 10
54.551395
 20
1733.300049
 30
0.0
 11
590.1
 21
1733.300049
 31
0.0
  0
LINE
  5
2C5
  8
SIZE
  6
CONTINUOUS
 62
    30
 10
577.6
 20
160.0
 30
0.0
 11
577.6
 21
1723.300049
 31
0.0
  0
CIRCLE
  5
2C6
  8
SIZE
  6
CONTINUOUS
 62
    30
 10
577.6
 20
150.0
 30
0.0
 40
5.0
  0
LINE
  5
2C7
  8
SIZE
  6
CONTINUOUS
 62
    30
 10
577.6
 20
150.0
 30
0.0
 11
577.6
 21
160.0
 31
0.0
  0
CIRCLE
  5
2C8
  8
SIZE
  6
CONTINUOUS
 62
    30
 10
577.6
 20
1733.300049
 30
0.0
 40
5.0
  0
LINE
  5
2C9
  8
SIZE
  6
CONTINUOUS
 62
    30
 10
577.6
 20
1733.300049
 30
0.0
 11
577.6
 21
1723.300049
 31
0.0
  0
TEXT
  5
2CA
  8
SIZE
  6
CONTINUOUS
 62
    30
 10
567.6
 20
891.650024
 30
0.0
 40
30.0
  1
1583
 50
90.0
 72
     1
 11
567.6
 21
941.650024
 31
0.0
  0
POINT
  5
2CB
  8
DEFPOINTS
  6
CONTINUOUS
 62
    30
 10
330.0
 20
150.0
 30
0.0
  0
POINT
  5
2CC
  8
DEFPOINTS
  6
CONTINUOUS
 62
    30
 10
44.551395
 20
1733.300049
 30
0.0
  0
POINT
  5
2CD
  8
DEFPOINTS
  6
CONTINUOUS
 62
    30
 10
577.6
 20
1733.300049
 30
0.0
  0
LINE
  5
2CE
  8
SIZE
  6
CONTINUOUS
 62
    30
 10
22.112693
 20
1783.199951
 30
0.0
 11
590.1
 21
1783.199951
 31
0.0
  0
LINE
  5
2CF
  8
SIZE
  6
CONTINUOUS
 62
    30
 10
54.551395
 20
1733.300049
 30
0.0
 11
590.1
 21
1733.300049
 31
0.0
  0
LINE
  5
2D0
  8
SIZE
  6
CONTINUOUS
 62
    30
 10
577.6
 20
1773.199951
 30
0.0
 11
577.6
 21
1743.300049
 31
0.0
  0
CIRCLE
  5
2D1
  8
SIZE
  6
CONTINUOUS
 62
    30
 10
577.6
 20
1783.199951
 30
0.0
 40
5.0
  0
LINE
  5
2D2
  8
SIZE
  6
CONTINUOUS
 62
    30
 10
577.6
 20
1783.199951
 30
0.0
 11
577.6
 21
1773.199951
 31
0.0
  0
CIRCLE
  5
2D3
  8
SIZE
  6
CONTINUOUS
 62
    30
 10
577.6
 20
1733.300049
 30
0.0
 40
5.0
  0
LINE
  5
2D4
  8
SIZE
  6
CONTINUOUS
 62
    30
 10
577.6
 20
1733.300049
 30
0.0
 11
577.6
 21
1743.300049
 31
0.0
  0
TEXT
  5
2D5
  8
SIZE
  6
CONTINUOUS
 62
    30
 10
567.6
 20
1735.75
 30
0.0
 40
30.0
  1
50
 50
90.0
 72
     1
 11
567.6
 21
1758.25
 31
0.0
  0
POINT
  5
2D6
  8
DEFPOINTS
  6
CONTINUOUS
 62
    30
 10
12.112693
 20
1783.199951
 30
0.0
  0
POINT
  5
2D7
  8
DEFPOINTS
  6
CONTINUOUS
 62
    30
 10
44.551395
 20
1733.300049
 30
0.0
  0
POINT
  5
2D8
  8
DEFPOINTS
  6
CONTINUOUS
 62
    30
 10
577.6
 20
1733.300049
 30
0.0
  0
LINE
  5
2D9
  8
SIZE
  6
CONTINUOUS
 62
    30
 10
-340.0
 20
1733.300049
 30
0.0
 11
-594.9
 21
1733.300049
 31
0.0
  0
LINE
  5
2DA
  8
SIZE
  6
CONTINUOUS
 62
    30
 10
-340.0
 20
2233.300049
 30
0.0
 11
-594.9
 21
2233.300049
 31
0.0
  0
LINE
  5
2DB
  8
SIZE
  6
CONTINUOUS
 62
    30
 10
-582.4
 20
1743.300049
 30
0.0
 11
-582.4
 21
2223.300049
 31
0.0
  0
CIRCLE
  5
2DC
  8
SIZE
  6
CONTINUOUS
 62
    30
 10
-582.4
 20
1733.300049
 30
0.0
 40
5.0
  0
LINE
  5
2DD
  8
SIZE
  6
CONTINUOUS
 62
    30
 10
-582.4
 20
1733.300049
 30
0.0
 11
-582.4
 21
1743.300049
 31
0.0
  0
CIRCLE
  5
2DE
  8
SIZE
  6
CONTINUOUS
 62
    30
 10
-582.4
 20
2233.300049
 30
0.0
 40
5.0
  0
LINE
  5
2DF
  8
SIZE
  6
CONTINUOUS
 62
    30
 10
-582.4
 20
2233.300049
 30
0.0
 11
-582.4
 21
2223.300049
 31
0.0
  0
TEXT
  5
2E0
  8
SIZE
  6
CONTINUOUS
 62
    30
 10
-592.4
 20
1949.389526
 30
0.0
 40
30.0
  1
500
 50
90.0
 72
     1
 11
-592.4
 21
1984.389526
 31
0.0
  0
POINT
  5
2E1
  8
DEFPOINTS
  6
CONTINUOUS
 62
    30
 10
-330.0
 20
1733.300049
 30
0.0
  0
POINT
  5
2E2
  8
DEFPOINTS
  6
CONTINUOUS
 62
    30
 10
-330.0
 20
2233.300049
 30
0.0
  0
POINT
  5
2E3
  8
DEFPOINTS
  6
CONTINUOUS
 62
    30
 10
-582.4
 20
2233.300049
 30
0.0
  0
LINE
  5
2E4
  8
SIZE
  6
CONTINUOUS
 62
    30
 10
-95.0
 20
1748.300049
 30
0.0
 11
-494.9
 21
1748.300049
 31
0.0
  0
LINE
  5
2E5
  8
SIZE
  6
CONTINUOUS
 62
    30
 10
-58.900162
 20
1733.300049
 30
0.0
 11
-494.9
 21
1733.300049
 31
0.0
  0
LINE
  5
2E6
  8
SIZE
  6
CONTINUOUS
 62
    30
 10
-482.4
 20
1758.300049
 30
0.0
 11
-482.4
 21
1768.300049
 31
0.0
  0
LINE
  5
2E7
  8
SIZE
  6
CONTINUOUS
 62
    30
 10
-482.4
 20
1723.300049
 30
0.0
 11
-482.4
 21
1652.05603
 31
0.0
  0
LINE
  5
2E8
  8
SIZE
  6
CONTINUOUS
 62
    30
 10
-482.4
 20
1748.300049
 30
0.0
 11
-482.4
 21
1733.300049
 31
0.0
  0
CIRCLE
  5
2E9
  8
SIZE
  6
CONTINUOUS
 62
    30
 10
-482.4
 20
1748.300049
 30
0.0
 40
5.0
  0
LINE
  5
2EA
  8
SIZE
  6
CONTINUOUS
 62
    30
 10
-482.4
 20
1748.300049
 30
0.0
 11
-482.4
 21
1758.300049
 31
0.0
  0
CIRCLE
  5
2EB
  8
SIZE
  6
CONTINUOUS
 62
    30
 10
-482.4
 20
1733.300049
 30
0.0
 40
5.0
  0
LINE
  5
2EC
  8
SIZE
  6
CONTINUOUS
 62
    30
 10
-482.4
 20
1733.300049
 30
0.0
 11
-482.4
 21
1723.300049
 31
0.0
  0
TEXT
  5
2ED
  8
SIZE
  6
CONTINUOUS
 62
    30
 10
-492.4
 20
1662.05603
 30
0.0
 40
30.0
  1
15
 50
90.0
 72
     1
 11
-492.4
 21
1682.05603
 31
0.0
  0
POINT
  5
2EE
  8
DEFPOINTS
  6
CONTINUOUS
 62
    30
 10
-85.0
 20
1748.300049
 30
0.0
  0
POINT
  5
2EF
  8
DEFPOINTS
  6
CONTINUOUS
 62
    30
 10
-48.900162
 20
1733.300049
 30
0.0
  0
POINT
  5
2F0
  8
DEFPOINTS
  6
CONTINUOUS
 62
    30
 10
-482.4
 20
1733.300049
 30
0.0
  0
LINE
  5
2F1
  8
SIZE
  6
CONTINUOUS
 62
    30
 10
-65.204582
 20
1766.300049
 30
0.0
 11
-494.9
 21
1766.300049
 31
0.0
  0
LINE
  5
2F2
  8
SIZE
  6
CONTINUOUS
 62
    30
 10
-95.0
 20
1748.300049
 30
0.0
 11
-494.9
 21
1748.300049
 31
0.0
  0
LINE
  5
2F3
  8
SIZE
  6
CONTINUOUS
 62
    30
 10
-482.4
 20
1738.300049
 30
0.0
 11
-482.4
 21
1728.300049
 31
0.0
  0
LINE
  5
2F4
  8
SIZE
  6
CONTINUOUS
 62
    30
 10
-482.4
 20
1776.300049
 30
0.0
 11
-482.4
 21
1851.225464
 31
0.0
  0
LINE
  5
2F5
  8
SIZE
  6
CONTINUOUS
 62
    30
 10
-482.4
 20
1748.300049
 30
0.0
 11
-482.4
 21
1766.300049
 31
0.0
  0
CIRCLE
  5
2F6
  8
SIZE
  6
CONTINUOUS
 62
    30
 10
-482.4
 20
1748.300049
 30
0.0
 40
5.0
  0
LINE
  5
2F7
  8
SIZE
  6
CONTINUOUS
 62
    30
 10
-482.4
 20
1748.300049
 30
0.0
 11
-482.4
 21
1738.300049
 31
0.0
  0
CIRCLE
  5
2F8
  8
SIZE
  6
CONTINUOUS
 62
    30
 10
-482.4
 20
1766.300049
 30
0.0
 40
5.0
  0
LINE
  5
2F9
  8
SIZE
  6
CONTINUOUS
 62
    30
 10
-482.4
 20
1766.300049
 30
0.0
 11
-482.4
 21
1776.300049
 31
0.0
  0
TEXT
  5
2FA
  8
SIZE
  6
CONTINUOUS
 62
    30
 10
-492.4
 20
1801.225464
 30
0.0
 40
30.0
  1
18
 50
90.0
 72
     1
 11
-492.4
 21
1821.225464
 31
0.0
  0
POINT
  5
2FB
  8
DEFPOINTS
  6
CONTINUOUS
 62
    30
 10
-55.204582
 20
1766.300049
 30
0.0
  0
POINT
  5
2FC
  8
DEFPOINTS
  6
CONTINUOUS
 62
    30
 10
-85.0
 20
1748.300049
 30
0.0
  0
POINT
  5
2FD
  8
DEFPOINTS
  6
CONTINUOUS
 62
    30
 10
-482.4
 20
1748.300049
 30
0.0
  0
LINE
  5
2FE
  8
SIZE
  6
CONTINUOUS
 62
    30
 10
-330.0
 20
140.0
 30
0.0
 11
-330.0
 21
-462.5
 31
0.0
  0
LINE
  5
2FF
  8
SIZE
  6
CONTINUOUS
 62
    30
 10
330.0
 20
140.0
 30
0.0
 11
330.0
 21
-462.5
 31
0.0
  0
LINE
  5
300
  8
SIZE
  6
CONTINUOUS
 62
    30
 10
-320.0
 20
-450.0
 30
0.0
 11
320.0
 21
-450.0
 31
0.0
  0
CIRCLE
  5
301
  8
SIZE
  6
CONTINUOUS
 62
    30
 10
-330.0
 20
-450.0
 30
0.0
 40
5.0
  0
LINE
  5
302
  8
SIZE
  6
CONTINUOUS
 62
    30
 10
-330.0
 20
-450.0
 30
0.0
 11
-320.0
 21
-450.0
 31
0.0
  0
CIRCLE
  5
303
  8
SIZE
  6
CONTINUOUS
 62
    30
 10
330.0
 20
-450.0
 30
0.0
 40
5.0
  0
LINE
  5
304
  8
SIZE
  6
CONTINUOUS
 62
    30
 10
330.0
 20
-450.0
 30
0.0
 11
320.0
 21
-450.0
 31
0.0
  0
TEXT
  5
305
  8
SIZE
  6
CONTINUOUS
 62
    30
 10
-37.5
 20
-440.0
 30
0.0
 40
30.0
  1
660
 72
     1
 11
0.0
 21
-440.0
 31
0.0
  0
POINT
  5
306
  8
DEFPOINTS
  6
CONTINUOUS
 62
    30
 10
-330.0
 20
150.0
 30
0.0
  0
POINT
  5
307
  8
DEFPOINTS
  6
CONTINUOUS
 62
    30
 10
330.0
 20
150.0
 30
0.0
  0
POINT
  5
308
  8
DEFPOINTS
  6
CONTINUOUS
 62
    30
 10
330.0
 20
-450.0
 30
0.0
  0
LINE
  5
309
  8
SIZE
  6
CONTINUOUS
 62
    30
 10
330.0
 20
2243.300049
 30
0.0
 11
330.0
 21
2398.200049
 31
0.0
  0
LINE
  5
30A
  8
SIZE
  6
CONTINUOUS
 62
    30
 10
-330.0
 20
2243.300049
 30
0.0
 11
-330.0
 21
2398.200049
 31
0.0
  0
LINE
  5
30B
  8
SIZE
  6
CONTINUOUS
 62
    30
 10
320.0
 20
2385.700049
 30
0.0
 11
-320.0
 21
2385.700049
 31
0.0
  0
CIRCLE
  5
30C
  8
SIZE
  6
CONTINUOUS
 62
    30
 10
330.0
 20
2385.700049
 30
0.0
 40
5.0
  0
LINE
  5
30D
  8
SIZE
  6
CONTINUOUS
 62
    30
 10
330.0
 20
2385.700049
 30
0.0
 11
320.0
 21
2385.700049
 31
0.0
  0
CIRCLE
  5
30E
  8
SIZE
  6
CONTINUOUS
 62
    30
 10
-330.0
 20
2385.700049
 30
0.0
 40
5.0
  0
LINE
  5
30F
  8
SIZE
  6
CONTINUOUS
 62
    30
 10
-330.0
 20
2385.700049
 30
0.0
 11
-320.0
 21
2385.700049
 31
0.0
  0
TEXT
  5
310
  8
SIZE
  6
CONTINUOUS
 62
    30
 10
-37.5
 20
2395.700049
 30
0.0
 40
30.0
  1
660
 72
     1
 11
0.0
 21
2395.700049
 31
0.0
  0
POINT
  5
311
  8
DEFPOINTS
  6
CONTINUOUS
 62
    30
 10
330.0
 20
2233.300049
 30
0.0
  0
POINT
  5
312
  8
DEFPOINTS
  6
CONTINUOUS
 62
    30
 10
-330.0
 20
2233.300049
 30
0.0
  0
POINT
  5
313
  8
DEFPOINTS
  6
CONTINUOUS
 62
    30
 10
-330.0
 20
2385.700049
 30
0.0
  0
LINE
  5
314
  8
NOTE
  6
CONTINUOUS
 10
60.0
 20
0.0
 30
0.0
 11
100.0
 21
0.0
 31
0.0
  0
LINE
  5
315
  8
NOTE
  6
CONTINUOUS
 10
80.0
 20
-20.0
 30
0.0
 11
80.0
 21
20.0
 31
0.0
  0
LINE
  5
316
  8
NOTE
  6
CONTINUOUS
 10
-100.0
 20
0.0
 30
0.0
 11
-60.0
 21
0.0
 31
0.0
  0
LINE
  5
317
  8
NOTE
  6
CONTINUOUS
 10
-80.0
 20
-20.0
 30
0.0
 11
-80.0
 21
20.0
 31
0.0
  0
TEXT
  5
318
  8
NOTE
  6
CONTINUOUS
 10
-832.627197
 20
-336.455811
 30
0.0
 40
40.0
  1
（脚固定金具使用時のみ）
 50
0.000003
 41
0.833333
  7
STANDARD1
  0
LINE
  5
319
  8
NOTE
  6
CONTINUOUS
 10
-663.857666
 20
-280.836853
 30
0.0
 11
-411.857697
 21
-280.836853
 31
0.0
  0
LINE
  5
31A
  8
NOTE
  6
CONTINUOUS
 10
-411.857697
 20
-280.836853
 30
0.0
 11
-80.0
 21
0.0
 31
0.0
  0
LINE
  5
31B
  8
NOTE
  6
CONTINUOUS
 10
-80.0
 20
0.0
 30
0.0
 11
-81.140286
 21
-1.643091
 31
0.0
  0
LINE
  5
31C
  8
NOTE
  6
CONTINUOUS
 10
-80.0
 20
0.0
 30
0.0
 11
-81.809062
 21
-0.852815
 31
0.0
  0
TEXT
  5
31D
  8
NOTE
  6
CONTINUOUS
 10
-663.857727
 20
-279.836853
 30
0.0
 40
40.0
  1
AH 2-M12
 50
359.999996
 41
0.631579
  7
STANDARD1
  0
LINE
  5
31E
  8
NOTE
  6
CONTINUOUS
 10
693.783081
 20
1940.164673
 30
0.0
 11
313.783081
 21
1940.164673
 31
0.0
  0
LINE
  5
31F
  8
NOTE
  6
CONTINUOUS
 10
313.783081
 20
1940.164673
 30
0.0
 11
28.0
 21
1748.300049
 31
0.0
  0
LINE
  5
320
  8
NOTE
  6
CONTINUOUS
 10
28.0
 20
1748.300049
 30
0.0
 11
29.315381
 21
1749.806625
 31
0.0
  0
LINE
  5
321
  8
NOTE
  6
CONTINUOUS
 10
28.0
 20
1748.300049
 30
0.0
 11
29.892442
 21
1748.947091
 31
0.0
  0
TEXT
  5
322
  8
NOTE
  6
CONTINUOUS
 10
373.783081
 20
1941.164673
 30
0.0
 40
40.0
  1
上部振れ止め金具
 50
0.000003
 41
0.833333
  7
STANDARD1
  0
LINE
  5
323
  8
NOTE
  6
CONTINUOUS
 10
-324.840942
 20
0.0
 30
0.0
 11
-284.840942
 21
0.0
 31
0.0
  0
LINE
  5
324
  8
NOTE
  6
CONTINUOUS
 10
-304.840942
 20
-20.0
 30
0.0
 11
-304.840942
 21
20.0
 31
0.0
  0
LINE
  5
325
  8
NOTE
  6
CONTINUOUS
 10
-20.0
 20
0.0
 30
0.0
 11
20.0
 21
0.0
 31
0.0
  0
LINE
  5
326
  8
NOTE
  6
CONTINUOUS
 10
0.0
 20
-20.0
 30
0.0
 11
0.0
 21
20.0
 31
0.0
  0
LINE
  5
327
  8
NOTE
  6
CONTINUOUS
 10
284.840942
 20
0.0
 30
0.0
 11
324.840942
 21
0.0
 31
0.0
  0
LINE
  5
328
  8
NOTE
  6
CONTINUOUS
 10
304.840942
 20
-20.0
 30
0.0
 11
304.840942
 21
20.0
 31
0.0
  0
LINE
  5
329
  8
NOTE
  6
CONTINUOUS
 10
-668.694153
 20
-145.416794
 30
0.0
 11
-416.694122
 21
-145.416794
 31
0.0
  0
LINE
  5
32A
  8
NOTE
  6
CONTINUOUS
 10
-416.694122
 20
-145.416794
 30
0.0
 11
-304.840942
 21
0.0
 31
0.0
  0
LINE
  5
32B
  8
NOTE
  6
CONTINUOUS
 10
-304.840942
 20
0.0
 30
0.0
 11
-305.608474
 21
-1.846861
 31
0.0
  0
LINE
  5
32C
  8
NOTE
  6
CONTINUOUS
 10
-304.840942
 20
0.0
 30
0.0
 11
-306.429075
 21
-1.215663
 31
0.0
  0
TEXT
  5
32D
  8
NOTE
  6
CONTINUOUS
 10
-668.694153
 20
-144.416779
 30
0.0
 40
40.0
  1
AH 3-M12
 50
359.999996
 41
0.631579
  7
STANDARD1
  0
LINE
  5
32E
  8
NOTE
  6
CONTINUOUS
 10
728.898315
 20
2064.774658
 30
0.0
 11
316.898346
 21
2064.774658
 31
0.0
  0
LINE
  5
32F
  8
NOTE
  6
CONTINUOUS
 10
316.898346
 20
2064.774658
 30
0.0
 11
0.0
 21
1783.199951
 31
0.0
  0
LINE
  5
330
  8
NOTE
  6
CONTINUOUS
 10
0.0
 20
1783.199951
 30
0.0
 11
1.100316
 21
1784.870072
 31
0.0
  0
LINE
  5
331
  8
NOTE
  6
CONTINUOUS
 10
0.0
 20
1783.199951
 30
0.0
 11
1.787962
 21
1784.096161
 31
0.0
  0
TEXT
  5
332
  8
NOTE
  6
CONTINUOUS
 10
376.898346
 20
2065.774658
 30
0.0
 40
40.0
  1
HW R3/4(φ27.2)
 50
0.000003
 41
0.637681
  7
STANDARD1
  0
LINE
  5
333
  8
NOTE
  6
CONTINUOUS
 10
0.0
 20
1763.2
 30
0.0
 11
0.0
 21
1803.2
 31
0.0
  0
LINE
  5
334
  8
NOTE
  6
CONTINUOUS
 10
-20.0
 20
1783.2
 30
0.0
 11
20.0
 21
1783.2
 31
0.0
  0
TEXT
  5
335
  8
NOTE
  6
CONTINUOUS
 10
-190.887848
 20
2329.571289
 30
0.0
 40
40.0
  1
メンテナンススペ－ス
 50
0.000003
 41
0.833333
  7
STANDARD1
  0
TEXT
  5
336
  8
NOTE
  6
CONTINUOUS
 10
-524.21991
 20
1784.401978
 30
0.0
 40
40.0
  1
メンテナンススペ－ス
 50
90.000005
 41
0.833333
  7
STANDARD1
  0
LINE
  5
337
  8
NOTE
  6
CONTINUOUS
 10
646.153381
 20
-174.435379
 30
0.0
 11
386.153381
 21
-174.435379
 31
0.0
  0
LINE
  5
338
  8
NOTE
  6
CONTINUOUS
 10
386.153381
 20
-174.435379
 30
0.0
 11
90.849998
 21
0.0
 31
0.0
  0
LINE
  5
339
  8
NOTE
  6
CONTINUOUS
 10
90.849998
 20
0.0
 30
0.0
 11
92.776602
 21
-0.536841
 31
0.0
  0
LINE
  5
33A
  8
NOTE
  6
CONTINUOUS
 10
90.849998
 20
0.0
 30
0.0
 11
92.250066
 21
-1.42822
 31
0.0
  0
TEXT
  5
33B
  8
NOTE
  6
CONTINUOUS
 10
446.153381
 20
-173.435379
 30
0.0
 40
40.0
  1
脚固定金具
 50
0.000003
 41
0.833333
  7
STANDARD1
  0
CIRCLE
  5
33C
  8
ARRANGE
  6
CONTINUOUS
 10
0.0
 20
0.0
 30
0.0
 40
15.0
  0
CIRCLE
  5
33D
  8
ARRANGE
  6
CONTINUOUS
 10
0.0
 20
0.0
 30
0.0
 40
15.0
  0
CIRCLE
  5
33E
  8
FIX
  6
CONTINUOUS
 10
80.0
 20
0.0
 30
0.0
 40
6.0
  0
CIRCLE
  5
33F
  8
FIX
  6
CONTINUOUS
 10
-80.0
 20
0.0
 30
0.0
 40
6.0
  0
CIRCLE
  5
340
  8
FIX
  6
CONTINUOUS
 10
0.0
 20
0.0
 30
0.0
 40
6.0
  0
CIRCLE
  5
341
  8
FIX
  6
CONTINUOUS
 10
-304.840942
 20
0.0
 30
0.0
 40
6.0
  0
CIRCLE
  5
342
  8
FIX
  6
CONTINUOUS
 10
304.840942
 20
0.0
 30
0.0
 40
6.0
  0
LINE
  5
343
  8
SERVICESPACE
  6
DASHDOT
 10
-330.0
 20
2233.3
 30
0.0
 11
330.0
 21
1733.3
 31
0.0
  0
LINE
  5
344
  8
SERVICESPACE
  6
DASHDOT
 10
330.0
 20
2233.3
 30
0.0
 11
-330.0
 21
1733.3
 31
0.0
  0
LINE
  5
345
  8
SERVICESPACE
  6
DASHDOT
 10
-330.0
 20
1733.3
 30
0.0
 11
330.0
 21
1733.3
 31
0.0
  0
LINE
  5
346
  8
SERVICESPACE
  6
DASHDOT
 10
330.0
 20
1733.3
 30
0.0
 11
330.0
 21
2233.3
 31
0.0
  0
LINE
  5
347
  8
SERVICESPACE
  6
DASHDOT
 10
-330.0
 20
2233.3
 30
0.0
 11
-330.0
 21
1733.3
 31
0.0
  0
LINE
  5
348
  8
SERVICESPACE
  6
DASHDOT
 10
-330.0
 20
2233.3
 30
0.0
 11
330.0
 21
2233.3
 31
0.0
  0
TEXT
  5
349
  8
ETC
  6
CONTINUOUS
 10
525.620239
 20
2334.150879
 30
0.0
 40
40.0
  1
TG3756M3
 50
0.000003
 41
0.6
  7
STANDARD1
  0
TEXT
  5
34A
  8
ETC
  6
CONTINUOUS
 10
525.620239
 20
2264.150879
 30
0.0
 40
40.0
  1
電気温水器
 50
0.000003
 41
0.833333
  7
STANDARD1
  0
ENDSEC
  0
EOF
