  0
SECTION
  2
HEADER
  9
$ACADVER
  1
AC1009
  9
$INSBASE
 10
0.0
 20
0.0
 30
0.0
  9
$EXTMIN
 10
-1242.4
 20
-760.1
 30
0.0
  9
$EXTMAX
 10
521.755282
 20
2137.4
 30
0.0
  9
$LIMMIN
 10
0.0
 20
0.0
  9
$LIMMAX
 10
12.0
 20
9.0
  9
$ORTHOMODE
 70
     0
  9
$REGENMODE
 70
     1
  9
$FILLMODE
 70
     1
  9
$QTEXTMODE
 70
     0
  9
$MIRRTEXT
 70
     1
  9
$DRAGMODE
 70
     2
  9
$LTSCALE
 40
1.0
  9
$OSMODE
 70
     0
  9
$ATTMODE
 70
     1
  9
$TEXTSIZE
 40
40.0
  9
$TRACEWID
 40
0.05
  9
$TEXTSTYLE
  7
STANDARD1
  9
$CLAYER
  8
0
  9
$CELTYPE
  6
CONTINUOUS
  9
$CECOLOR
 62
   256
  9
$DIMSCALE
 40
1.0
  9
$DIMASZ
 40
10.0
  9
$DIMEXO
 40
10.0
  9
$DIMDLI
 40
8.0
  9
$DIMRND
 40
0.0
  9
$DIMDLE
 40
0.0
  9
$DIMEXE
 40
12.5
  9
$DIMTP
 40
0.0
  9
$DIMTM
 40
0.0
  9
$DIMTXT
 40
30.0
  9
$DIMCEN
 40
2.5
  9
$DIMTSZ
 40
0.0
  9
$DIMTOL
 70
     0
  9
$DIMLIM
 70
     0
  9
$DIMTIH
 70
     0
  9
$DIMTOH
 70
     0
  9
$DIMSE1
 70
     0
  9
$DIMSE2
 70
     0
  9
$DIMTAD
 70
     3
  9
$DIMZIN
 70
    12
  9
$DIMBLK
  1

  9
$DIMASO
 70
     1
  9
$DIMSHO
 70
     1
  9
$DIMPOST
  1

  9
$DIMAPOST
  1

  9
$DIMALT
 70
     0
  9
$DIMALTD
 70
     4
  9
$DIMALTF
 40
25.4
  9
$DIMLFAC
 40
1.0
  9
$DIMTOFL
 70
     1
  9
$DIMTVP
 40
0.0
  9
$DIMTIX
 70
     0
  9
$DIMSOXD
 70
     0
  9
$DIMSAH
 70
     1
  9
$DIMBLK1
  1
_ORIGIN
  9
$DIMBLK2
  1
_ORIGIN
  9
$DIMSTYLE
  2
STANDARD
  9
$DIMCLRD
 70
     0
  9
$DIMCLRE
 70
     0
  9
$DIMCLRT
 70
     0
  9
$DIMTFAC
 40
1.0
  9
$DIMGAP
 40
0.09
  9
$LUNITS
 70
     2
  9
$LUPREC
 70
     3
  9
$SKETCHINC
 40
0.1
  9
$FILLETRAD
 40
0.0
  9
$AUNITS
 70
     0
  9
$AUPREC
 70
     0
  9
$MENU
  1
acad
  9
$ELEVATION
 40
0.0
  9
$PELEVATION
 40
0.0
  9
$THICKNESS
 40
0.0
  9
$LIMCHECK
 70
     0
  9
$BLIPMODE
 70
     0
  9
$CHAMFERA
 40
0.0
  9
$CHAMFERB
 40
0.0
  9
$SKPOLY
 70
     0
  9
$TDCREATE
 40
2451878.919502
  9
$TDUPDATE
 40
2451878.919502
  9
$TDINDWG
 40
0.0
  9
$TDUSRTIMER
 40
0.0
  9
$USRTIMER
 70
     1
  9
$ANGBASE
 50
0.0
  9
$ANGDIR
 70
     0
  9
$PDMODE
 70
     0
  9
$PDSIZE
 40
0.0
  9
$PLINEWID
 40
0.0
  9
$COORDS
 70
     1
  9
$SPLFRAME
 70
     0
  9
$SPLINETYPE
 70
     6
  9
$SPLINESEGS
 70
     8
  9
$ATTDIA
 70
     0
  9
$ATTREQ
 70
     1
  9
$HANDLING
 70
     1
  9
$HANDSEED
  5
3EE
  9
$SURFTAB1
 70
     6
  9
$SURFTAB2
 70
     6
  9
$SURFTYPE
 70
     6
  9
$SURFU
 70
     6
  9
$SURFV
 70
     6
  9
$UCSNAME
  2

  9
$UCSORG
 10
0.0
 20
0.0
 30
0.0
  9
$UCSXDIR
 10
1.0
 20
0.0
 30
0.0
  9
$UCSYDIR
 10
0.0
 20
1.0
 30
0.0
  9
$PUCSNAME
  2

  9
$PUCSORG
 10
0.0
 20
0.0
 30
0.0
  9
$PUCSXDIR
 10
1.0
 20
0.0
 30
0.0
  9
$PUCSYDIR
 10
0.0
 20
1.0
 30
0.0
  9
$USERI1
 70
     0
  9
$USERI2
 70
     0
  9
$USERI3
 70
     0
  9
$USERI4
 70
     0
  9
$USERI5
 70
     0
  9
$USERR1
 40
0.0
  9
$USERR2
 40
0.0
  9
$USERR3
 40
0.0
  9
$USERR4
 40
0.0
  9
$USERR5
 40
0.0
  9
$WORLDVIEW
 70
     1
  9
$SHADEDGE
 70
     3
  9
$SHADEDIF
 70
    70
  9
$TILEMODE
 70
     1
  9
$MAXACTVP
 70
    48
  9
$PLIMCHECK
 70
     0
  9
$PEXTMIN
 10
1.000000E+020
 20
1.000000E+020
 30
1.000000E+020
  9
$PEXTMAX
 10
-1.000000E+020
 20
-1.000000E+020
 30
-1.000000E+020
  9
$PLIMMIN
 10
0.0
 20
0.0
  9
$PLIMMAX
 10
12.0
 20
9.0
  9
$UNITMODE
 70
     0
  9
$VISRETAIN
 70
     1
  9
$PLINEGEN
 70
     0
  9
$PSLTSCALE
 70
     1
  0
ENDSEC
  0
SECTION
  2
TABLES
  0
TABLE
  2
VPORT
 70
     2
  0
VPORT
  2
*ACTIVE
 70
     0
 10
0.0
 20
0.0
 11
1.0
 21
1.0
 12
-360.322359
 22
688.65
 13
0.0
 23
0.0
 14
1.0
 24
1.0
 15
0.0
 25
0.0
 16
0.0
 26
0.0
 36
1.0
 17
0.0
 27
0.0
 37
0.0
 40
2952.866242
 41
2.827476
 42
50.0
 43
0.0
 44
0.0
 50
0.0
 51
0.0
 71
     0
 72
   100
 73
     1
 74
     1
 75
     0
 76
     0
 77
     0
 78
     0
  0
ENDTAB
  0
TABLE
  2
LTYPE
 70
     4
  0
LTYPE
  2
CONTINUOUS
 70
     0
  3
Solid line
 72
    65
 73
     0
 40
0.0
  0
LTYPE
  2
DASHED
 70
     0
  3
-- -- -- -- -- -- -- -- -- -- -- -- -- -- --
 72
    65
 73
     2
 40
0.75
 49
0.5
 49
-0.25
  0
LTYPE
  2
DASHDOT
 70
     0
  3
__ . __ . __ . __ . __ . __ . __ . __ . __ . __
 72
    65
 73
     4
 40
125.0
 49
80.0
 49
-20.0
 49
5.0
 49
-20.0
  0
LTYPE
  2
DIVIDE
 70
     0
  3
__ . . __ . . __ . . __ . . __ . . __ . . __
 72
    65
 73
     6
 40
1.25
 49
0.5
 49
-0.25
 49
0.0
 49
-0.25
 49
0.0
 49
-0.25
  0
ENDTAB
  0
TABLE
  2
LAYER
 70
    12
  0
LAYER
  2
0
 70
     0
 62
     3
  6
CONTINUOUS
  0
LAYER
  2
OUTLINE
 70
     0
 62
     3
  6
CONTINUOUS
  0
LAYER
  2
DETAIL
 70
     0
 62
     5
  6
CONTINUOUS
  0
LAYER
  2
BASIS
 70
     0
 62
     6
  6
CONTINUOUS
  0
LAYER
  2
SIZE
 70
     0
 62
    30
  6
CONTINUOUS
  0
LAYER
  2
NOTE
 70
     0
 62
     4
  6
CONTINUOUS
  0
LAYER
  2
ARRANGE
 70
     0
 62
     1
  6
CONTINUOUS
  0
LAYER
  2
FIX
 70
     0
 62
    11
  6
CONTINUOUS
  0
LAYER
  2
SERVICESPACE
 70
     0
 62
     2
  6
CONTINUOUS
  0
LAYER
  2
ETC
 70
     0
 62
    61
  6
CONTINUOUS
  0
LAYER
  2
SYMBOLLINE
 70
     0
 62
     7
  6
CONTINUOUS
  0
LAYER
  2
DEFPOINTS
 70
     0
 62
     7
  6
CONTINUOUS
  0
ENDTAB
  0
TABLE
  2
STYLE
 70
     5
  0
STYLE
  2
STANDARD
 70
     0
 40
0.0
 41
1.0
 50
0.0
 71
     0
 42
0.2
  3
txt
  4

  0
STYLE
  2
STANDARD1
 70
     0
 40
0.0
 41
1.0
 50
0.0
 71
     0
 42
40.0
  3
MONOTXT
  4
BIGFONT
  0
STYLE
  2
STANDARD2
 70
     4
 40
0.0
 41
1.0
 50
0.0
 71
     0
 42
40.0
  3
MONOTXT
  4
BIGFONT
  0
STYLE
  2
STANDARD3
 70
     0
 40
0.0
 41
1.0
 50
0.0
 71
     0
 42
40.0
  3
MONOTXT
  4

  0
STYLE
  2
STANDARD4
 70
     4
 40
0.0
 41
1.0
 50
0.0
 71
     0
 42
40.0
  3
MONOTXT
  4

  0
ENDTAB
  0
TABLE
  2
VIEW
 70
     0
  0
ENDTAB
  0
TABLE
  2
UCS
 70
     0
  0
ENDTAB
  0
TABLE
  2
APPID
 70
     1
  0
APPID
  2
ACAD
 70
     0
  0
ENDTAB
  0
TABLE
  2
DIMSTYLE
 70
     1
  0
DIMSTYLE
  2
STANDARD
 70
     0
  3

  4

  5

  6

  7

 40
1.0
 41
0.18
 42
0.0625
 43
0.38
 44
0.18
 45
0.0
 46
0.0
 47
0.0
 48
0.0
140
0.18
141
0.09
142
0.0
143
25.4
144
1.0
145
0.0
146
1.0
147
0.09
 71
     0
 72
     0
 73
     1
 74
     1
 75
     0
 76
     0
 77
     0
 78
     0
170
     0
171
     2
172
     0
173
     0
174
     0
175
     0
176
     0
177
     0
178
     0
  0
ENDTAB
  0
ENDSEC
  0
SECTION
  2
BLOCKS
  0
BLOCK
  8
0
  2
$MODEL_SPACE
 70
     0
 10
0.0
 20
0.0
 30
0.0
  3
$MODEL_SPACE
  1

  0
ENDBLK
  5
1A
  8
0
  0
BLOCK
 67
     1
  8
0
  2
$PAPER_SPACE
 70
     0
 10
0.0
 20
0.0
 30
0.0
  3
$PAPER_SPACE
  1

  0
ENDBLK
  5
17
 67
     1
  8
0
  0
BLOCK
  8
SIZE
  2
*D0
 70
     1
 10
0.0
 20
0.0
 30
0.0
  3
*D0
  1

  0
TEXT
  5
35
  8
SIZE
  6
CONTINUOUS
 10
249.000006
 20
855.080017
 30
0.0
 40
2.8
  1
1718
 50
90.000005
 41
0.7
  7
STANDARD1
  0
LINE
  5
36
  8
SIZE
  6
CONTINUOUS
 10
101.0
 20
1718.0
 30
0.0
 11
252.0
 21
1718.0
 31
0.0
  0
LINE
  5
37
  8
SIZE
  6
CONTINUOUS
 10
-59.0
 20
0.0
 30
0.0
 11
252.0
 21
0.0
 31
0.0
  0
LINE
  5
38
  8
SIZE
  6
CONTINUOUS
 10
250.0
 20
1718.0
 30
0.0
 11
250.0
 21
0.0
 31
0.0
  0
INSERT
  5
3A
  8
SIZE
  2
DOT
 10
250.0
 20
1718.0
 30
0.0
 50
90.0
  0
INSERT
  5
3B
  8
SIZE
  2
DOT
 10
250.0
 20
0.0
 30
0.0
 50
270.0
  0
POINT
  5
3C
  8
DEFPOINTS
  6
BYBLOCK
 10
-60.0
 20
0.0
 30
0.0
  0
POINT
  5
3D
  8
DEFPOINTS
  6
BYBLOCK
 10
100.0
 20
1718.0
 30
0.0
  0
POINT
  5
3E
  8
DEFPOINTS
  6
BYBLOCK
 10
250.0
 20
1718.0
 30
0.0
  0
ENDBLK
  5
3F
  8
SIZE
  0
BLOCK
  8
SIZE
  2
DOT
 70
     0
 10
0.0
 20
0.0
 30
0.0
  3
DOT
  1

  0
POLYLINE
  5
41
  8
0
  6
BYBLOCK
 66
     1
 10
0.0
 20
0.0
 30
0.0
 70
     1
 40
0.5
 41
0.5
  0
VERTEX
  5
42
  8
0
  6
BYBLOCK
 10
-0.25
 20
0.0
 30
0.0
 42
1.0
  0
VERTEX
  5
43
  8
0
  6
BYBLOCK
 10
0.25
 20
0.0
 30
0.0
 42
1.0
  0
SEQEND
  5
44
  8
0
  6
BYBLOCK
  0
LINE
  5
45
  8
0
  6
BYBLOCK
 10
-0.5
 20
0.0
 30
0.0
 11
-1.0
 21
0.0
 31
0.0
  0
ENDBLK
  5
46
  8
SIZE
  0
BLOCK
  8
SIZE
  2
*D2
 70
     1
 10
0.0
 20
0.0
 30
0.0
  3
*D2
  1

  0
TEXT
  5
49
  8
SIZE
  6
CONTINUOUS
 10
-482.459991
 20
-349.000006
 30
0.0
 40
2.8
  1
39
 50
0.000003
 41
0.7
  7
STANDARD1
  0
LINE
  5
4A
  8
SIZE
  6
CONTINUOUS
 10
-461.0
 20
129.0
 30
0.0
 11
-461.0
 21
-352.0
 31
0.0
  0
LINE
  5
4B
  8
SIZE
  6
CONTINUOUS
 10
-500.0
 20
-1.0
 30
0.0
 11
-500.0
 21
-352.0
 31
0.0
  0
LINE
  5
4C
  8
SIZE
  6
CONTINUOUS
 10
-461.0
 20
-350.0
 30
0.0
 11
-500.0
 21
-350.0
 31
0.0
  0
INSERT
  5
4D
  8
SIZE
  2
DOT
 10
-461.0
 20
-350.0
 30
0.0
  0
INSERT
  5
4E
  8
SIZE
  2
DOT
 10
-500.0
 20
-350.0
 30
0.0
 50
180.0
  0
POINT
  5
4F
  8
DEFPOINTS
  6
BYBLOCK
 10
-500.0
 20
0.0
 30
0.0
  0
POINT
  5
50
  8
DEFPOINTS
  6
BYBLOCK
 10
-461.0
 20
130.0
 30
0.0
  0
POINT
  5
51
  8
DEFPOINTS
  6
BYBLOCK
 10
-461.0
 20
-350.0
 30
0.0
  0
ENDBLK
  5
52
  8
SIZE
  0
BLOCK
  8
SIZE
  2
*D3
 70
     1
 10
0.0
 20
0.0
 30
0.0
  3
*D3
  1

  0
TEXT
  5
55
  8
SIZE
  6
CONTINUOUS
 10
349.000006
 20
866.080017
 30
0.0
 40
2.8
  1
1740
 50
90.000005
 41
0.7
  7
STANDARD1
  0
LINE
  5
56
  8
SIZE
  6
CONTINUOUS
 10
81.0
 20
1740.0
 30
0.0
 11
352.0
 21
1740.0
 31
0.0
  0
LINE
  5
57
  8
SIZE
  6
CONTINUOUS
 10
-59.0
 20
0.0
 30
0.0
 11
352.0
 21
0.0
 31
0.0
  0
LINE
  5
58
  8
SIZE
  6
CONTINUOUS
 10
350.0
 20
1740.0
 30
0.0
 11
350.0
 21
0.0
 31
0.0
  0
INSERT
  5
59
  8
SIZE
  2
DOT
 10
350.0
 20
1740.0
 30
0.0
 50
90.0
  0
INSERT
  5
5A
  8
SIZE
  2
DOT
 10
350.0
 20
0.0
 30
0.0
 50
270.0
  0
POINT
  5
5B
  8
DEFPOINTS
  6
BYBLOCK
 10
-60.0
 20
0.0
 30
0.0
  0
POINT
  5
5C
  8
DEFPOINTS
  6
BYBLOCK
 10
80.0
 20
1740.0
 30
0.0
  0
POINT
  5
5D
  8
DEFPOINTS
  6
BYBLOCK
 10
350.0
 20
1740.0
 30
0.0
  0
ENDBLK
  5
5E
  8
SIZE
  0
BLOCK
  8
SIZE
  2
*D4
 70
     1
 10
0.0
 20
0.0
 30
0.0
  3
*D4
  1

  0
TEXT
  5
61
  8
SIZE
  6
CONTINUOUS
 10
-87.940002
 20
1996.000024
 30
0.0
 40
2.8
  1
170
 50
0.000003
 41
0.7
  7
STANDARD1
  0
LINE
  5
62
  8
SIZE
  6
CONTINUOUS
 10
0.0
 20
1896.0
 30
0.0
 11
0.0
 21
1997.0
 31
0.0
  0
LINE
  5
63
  8
SIZE
  6
CONTINUOUS
 10
-170.0
 20
1731.0
 30
0.0
 11
-170.0
 21
1997.0
 31
0.0
  0
LINE
  5
64
  8
SIZE
  6
CONTINUOUS
 10
0.0
 20
1995.0
 30
0.0
 11
-170.0
 21
1995.0
 31
0.0
  0
INSERT
  5
65
  8
SIZE
  2
DOT
 10
0.0
 20
1995.0
 30
0.0
  0
INSERT
  5
66
  8
SIZE
  2
DOT
 10
-170.0
 20
1995.0
 30
0.0
 50
180.0
  0
POINT
  5
67
  8
DEFPOINTS
  6
BYBLOCK
 10
-170.0
 20
1730.0
 30
0.0
  0
POINT
  5
68
  8
DEFPOINTS
  6
BYBLOCK
 10
0.0
 20
1895.0
 30
0.0
  0
POINT
  5
69
  8
DEFPOINTS
  6
BYBLOCK
 10
0.0
 20
1995.0
 30
0.0
  0
ENDBLK
  5
6A
  8
SIZE
  0
BLOCK
  8
SIZE
  2
*D5
 70
     1
 10
0.0
 20
0.0
 30
0.0
  3
*D5
  1

  0
TEXT
  5
6D
  8
SIZE
  6
CONTINUOUS
 10
-465.459991
 20
-648.999976
 30
0.0
 40
2.8
  1
73
 50
0.000003
 41
0.7
  7
STANDARD1
  0
LINE
  5
6E
  8
SIZE
  6
CONTINUOUS
 10
-427.0
 20
129.0
 30
0.0
 11
-427.0
 21
-652.0
 31
0.0
  0
LINE
  5
6F
  8
SIZE
  6
CONTINUOUS
 10
-500.0
 20
-1.0
 30
0.0
 11
-500.0
 21
-652.0
 31
0.0
  0
LINE
  5
70
  8
SIZE
  6
CONTINUOUS
 10
-427.0
 20
-650.0
 30
0.0
 11
-500.0
 21
-650.0
 31
0.0
  0
INSERT
  5
71
  8
SIZE
  2
DOT
 10
-427.0
 20
-650.0
 30
0.0
  0
INSERT
  5
72
  8
SIZE
  2
DOT
 10
-500.0
 20
-650.0
 30
0.0
 50
180.0
  0
POINT
  5
73
  8
DEFPOINTS
  6
BYBLOCK
 10
-500.0
 20
0.0
 30
0.0
  0
POINT
  5
74
  8
DEFPOINTS
  6
BYBLOCK
 10
-427.0
 20
130.0
 30
0.0
  0
POINT
  5
75
  8
DEFPOINTS
  6
BYBLOCK
 10
-427.0
 20
-650.0
 30
0.0
  0
ENDBLK
  5
76
  8
SIZE
  0
BLOCK
  8
SIZE
  2
*D6
 70
     1
 10
0.0
 20
0.0
 30
0.0
  3
*D6
  1

  0
TEXT
  5
79
  8
SIZE
  6
CONTINUOUS
 10
36.080002
 20
1996.000024
 30
0.0
 40
2.8
  1
最大
 50
0.000003
 41
0.583333
  7
STANDARD1
  0
TEXT
  5
7A
  8
SIZE
  6
CONTINUOUS
 10
40.0
 20
1996.000024
 30
0.0
 40
2.8
  1
80
 50
0.000003
 41
0.7
  7
STANDARD1
  0
LINE
  5
7B
  8
SIZE
  6
CONTINUOUS
 10
80.0
 20
1741.0
 30
0.0
 11
80.0
 21
1997.0
 31
0.0
  0
LINE
  5
7C
  8
SIZE
  6
CONTINUOUS
 10
80.0
 20
1995.0
 30
0.0
 11
0.0
 21
1995.0
 31
0.0
  0
INSERT
  5
7D
  8
SIZE
  2
DOT
 10
80.0
 20
1995.0
 30
0.0
  0
INSERT
  5
7E
  8
SIZE
  2
DOT
 10
0.0
 20
1995.0
 30
0.0
 50
180.0
  0
POINT
  5
7F
  8
DEFPOINTS
  6
BYBLOCK
 10
0.0
 20
1695.0
 30
0.0
  0
POINT
  5
80
  8
DEFPOINTS
  6
BYBLOCK
 10
80.0
 20
1740.0
 30
0.0
  0
POINT
  5
81
  8
DEFPOINTS
  6
BYBLOCK
 10
80.0
 20
1995.0
 30
0.0
  0
ENDBLK
  5
82
  8
SIZE
  0
BLOCK
  8
SIZE
  2
*D7
 70
     1
 10
0.0
 20
0.0
 30
0.0
  3
*D7
  1

  0
TEXT
  5
85
  8
SIZE
  6
CONTINUOUS
 10
149.000006
 20
918.580017
 30
0.0
 40
2.8
  1
1545
 50
90.000005
 41
0.7
  7
STANDARD1
  0
LINE
  5
86
  8
SIZE
  6
CONTINUOUS
 10
81.0
 20
1695.0
 30
0.0
 11
152.0
 21
1695.0
 31
0.0
  0
LINE
  5
87
  8
SIZE
  6
CONTINUOUS
 10
1.0
 20
150.0
 30
0.0
 11
152.0
 21
150.0
 31
0.0
  0
LINE
  5
88
  8
SIZE
  6
CONTINUOUS
 10
150.0
 20
1695.0
 30
0.0
 11
150.0
 21
150.0
 31
0.0
  0
INSERT
  5
89
  8
SIZE
  2
DOT
 10
150.0
 20
1695.0
 30
0.0
 50
90.0
  0
INSERT
  5
8A
  8
SIZE
  2
DOT
 10
150.0
 20
150.0
 30
0.0
 50
270.0
  0
POINT
  5
8B
  8
DEFPOINTS
  6
BYBLOCK
 10
0.0
 20
150.0
 30
0.0
  0
POINT
  5
8C
  8
DEFPOINTS
  6
BYBLOCK
 10
80.0
 20
1695.0
 30
0.0
  0
POINT
  5
8D
  8
DEFPOINTS
  6
BYBLOCK
 10
150.0
 20
1695.0
 30
0.0
  0
ENDBLK
  5
8E
  8
SIZE
  0
BLOCK
  8
SIZE
  2
*D8
 70
     1
 10
0.0
 20
0.0
 30
0.0
  3
*D8
  1

  0
TEXT
  5
91
  8
SIZE
  6
CONTINUOUS
 10
149.000006
 20
1771.67688
 30
0.0
 40
2.8
  1
35
 50
90.000005
 41
0.7
  7
STANDARD1
  0
LINE
  5
92
  8
SIZE
  6
CONTINUOUS
 10
-169.0
 20
1730.0
 30
0.0
 11
152.0
 21
1730.0
 31
0.0
  0
LINE
  5
93
  8
SIZE
  6
CONTINUOUS
 10
81.0
 20
1695.0
 30
0.0
 11
152.0
 21
1695.0
 31
0.0
  0
LINE
  5
94
  8
SIZE
  6
CONTINUOUS
 10
150.0
 20
1776.996826
 30
0.0
 11
150.0
 21
1690.0
 31
0.0
  0
INSERT
  5
95
  8
SIZE
  2
DOT
 10
150.0
 20
1730.0
 30
0.0
 50
90.0
  0
INSERT
  5
96
  8
SIZE
  2
DOT
 10
150.0
 20
1695.0
 30
0.0
 50
270.0
  0
POINT
  5
97
  8
DEFPOINTS
  6
BYBLOCK
 10
80.0
 20
1695.0
 30
0.0
  0
POINT
  5
98
  8
DEFPOINTS
  6
BYBLOCK
 10
-170.0
 20
1730.0
 30
0.0
  0
POINT
  5
99
  8
DEFPOINTS
  6
BYBLOCK
 10
150.0
 20
1730.0
 30
0.0
  0
ENDBLK
  5
9A
  8
SIZE
  0
BLOCK
  8
SIZE
  2
*D9
 70
     1
 10
0.0
 20
0.0
 30
0.0
  3
*D9
  1

  0
TEXT
  5
9D
  8
SIZE
  6
CONTINUOUS
 10
449.000006
 20
918.804932
 30
0.0
 40
2.8
  1
1695
 50
90.000005
 41
0.7
  7
STANDARD1
  0
LINE
  5
9E
  8
SIZE
  6
CONTINUOUS
 10
1.0
 20
1695.0
 30
0.0
 11
452.0
 21
1695.0
 31
0.0
  0
LINE
  5
9F
  8
SIZE
  6
CONTINUOUS
 10
-99.0
 20
0.0
 30
0.0
 11
452.0
 21
0.0
 31
0.0
  0
LINE
  5
A0
  8
SIZE
  6
CONTINUOUS
 10
450.0
 20
1695.0
 30
0.0
 11
450.0
 21
0.0
 31
0.0
  0
INSERT
  5
A1
  8
SIZE
  2
DOT
 10
450.0
 20
1695.0
 30
0.0
 50
90.0
  0
INSERT
  5
A2
  8
SIZE
  2
DOT
 10
450.0
 20
0.0
 30
0.0
 50
270.0
  0
POINT
  5
A3
  8
DEFPOINTS
  6
BYBLOCK
 10
-100.0
 20
0.0
 30
0.0
  0
POINT
  5
A4
  8
DEFPOINTS
  6
BYBLOCK
 10
0.0
 20
1695.0
 30
0.0
  0
POINT
  5
A5
  8
DEFPOINTS
  6
BYBLOCK
 10
450.0
 20
1695.0
 30
0.0
  0
ENDBLK
  5
A6
  8
SIZE
  0
BLOCK
  8
SIZE
  2
*D10
 70
     1
 10
0.0
 20
0.0
 30
0.0
  3
*D10
  1

  0
TEXT
  5
A9
  8
SIZE
  6
CONTINUOUS
 10
449.000006
 20
1765.600098
 30
0.0
 40
2.8
  1
200
 50
90.000005
 41
0.7
  7
STANDARD1
  0
LINE
  5
AA
  8
SIZE
  6
CONTINUOUS
 10
1.0
 20
1695.0
 30
0.0
 11
452.0
 21
1695.0
 31
0.0
  0
LINE
  5
AB
  8
SIZE
  6
CONTINUOUS
 10
1.0
 20
1895.0
 30
0.0
 11
452.0
 21
1895.0
 31
0.0
  0
LINE
  5
AC
  8
SIZE
  6
CONTINUOUS
 10
450.0
 20
1695.0
 30
0.0
 11
450.0
 21
1895.0
 31
0.0
  0
INSERT
  5
AD
  8
SIZE
  2
DOT
 10
450.0
 20
1695.0
 30
0.0
 50
270.0
  0
INSERT
  5
AE
  8
SIZE
  2
DOT
 10
450.0
 20
1895.0
 30
0.0
 50
90.0
  0
POINT
  5
AF
  8
DEFPOINTS
  6
BYBLOCK
 10
0.0
 20
1895.0
 30
0.0
  0
POINT
  5
B0
  8
DEFPOINTS
  6
BYBLOCK
 10
0.0
 20
1695.0
 30
0.0
  0
POINT
  5
B1
  8
DEFPOINTS
  6
BYBLOCK
 10
450.0
 20
1695.0
 30
0.0
  0
ENDBLK
  5
B2
  8
SIZE
  0
BLOCK
  8
SIZE
  2
*D11
 70
     1
 10
0.0
 20
0.0
 30
0.0
  3
*D11
  1

  0
TEXT
  5
B5
  8
SIZE
  6
CONTINUOUS
 10
-252.940002
 20
2095.999902
 30
0.0
 40
2.8
  1
500
 50
0.000003
 41
0.7
  7
STANDARD1
  0
LINE
  5
B6
  8
SIZE
  6
CONTINUOUS
 10
-500.0
 20
1896.0
 30
0.0
 11
-500.0
 21
2097.0
 31
0.0
  0
LINE
  5
B7
  8
SIZE
  6
CONTINUOUS
 10
0.0
 20
1896.0
 30
0.0
 11
0.0
 21
2097.0
 31
0.0
  0
LINE
  5
B8
  8
SIZE
  6
CONTINUOUS
 10
-500.0
 20
2095.0
 30
0.0
 11
0.0
 21
2095.0
 31
0.0
  0
INSERT
  5
B9
  8
SIZE
  2
DOT
 10
-500.0
 20
2095.0
 30
0.0
 50
180.0
  0
INSERT
  5
BA
  8
SIZE
  2
DOT
 10
0.0
 20
2095.0
 30
0.0
  0
POINT
  5
BB
  8
DEFPOINTS
  6
BYBLOCK
 10
0.0
 20
1895.0
 30
0.0
  0
POINT
  5
BC
  8
DEFPOINTS
  6
BYBLOCK
 10
-500.0
 20
1895.0
 30
0.0
  0
POINT
  5
BD
  8
DEFPOINTS
  6
BYBLOCK
 10
-500.0
 20
2095.0
 30
0.0
  0
ENDBLK
  5
BE
  8
SIZE
  0
BLOCK
  8
SIZE
  2
*D12
 70
     1
 10
0.0
 20
0.0
 30
0.0
  3
*D12
  1

  0
TEXT
  5
C1
  8
SIZE
  6
CONTINUOUS
 10
-802.940002
 20
2095.999902
 30
0.0
 40
2.8
  1
600
 50
0.000003
 41
0.7
  7
STANDARD1
  0
LINE
  5
C2
  8
SIZE
  6
CONTINUOUS
 10
-500.0
 20
1896.0
 30
0.0
 11
-500.0
 21
2097.0
 31
0.0
  0
LINE
  5
C3
  8
SIZE
  6
CONTINUOUS
 10
-1100.0
 20
1896.0
 30
0.0
 11
-1100.0
 21
2097.0
 31
0.0
  0
LINE
  5
C4
  8
SIZE
  6
CONTINUOUS
 10
-500.0
 20
2095.0
 30
0.0
 11
-1100.0
 21
2095.0
 31
0.0
  0
INSERT
  5
C5
  8
SIZE
  2
DOT
 10
-500.0
 20
2095.0
 30
0.0
  0
INSERT
  5
C6
  8
SIZE
  2
DOT
 10
-1100.0
 20
2095.0
 30
0.0
 50
180.0
  0
POINT
  5
C7
  8
DEFPOINTS
  6
BYBLOCK
 10
-1100.0
 20
1895.0
 30
0.0
  0
POINT
  5
C8
  8
DEFPOINTS
  6
BYBLOCK
 10
-500.0
 20
1895.0
 30
0.0
  0
POINT
  5
C9
  8
DEFPOINTS
  6
BYBLOCK
 10
-500.0
 20
2095.0
 30
0.0
  0
ENDBLK
  5
CA
  8
SIZE
  0
BLOCK
  8
SIZE
  2
*D13
 70
     1
 10
0.0
 20
0.0
 30
0.0
  3
*D13
  1

  0
TEXT
  5
CD
  8
SIZE
  6
CONTINUOUS
 10
-474.959991
 20
-548.999976
 30
0.0
 40
2.8
  1
54
 50
0.000003
 41
0.7
  7
STANDARD1
  0
LINE
  5
CE
  8
SIZE
  6
CONTINUOUS
 10
-446.0
 20
129.0
 30
0.0
 11
-446.0
 21
-552.0
 31
0.0
  0
LINE
  5
CF
  8
SIZE
  6
CONTINUOUS
 10
-500.0
 20
-1.0
 30
0.0
 11
-500.0
 21
-552.0
 31
0.0
  0
LINE
  5
D0
  8
SIZE
  6
CONTINUOUS
 10
-446.0
 20
-550.0
 30
0.0
 11
-500.0
 21
-550.0
 31
0.0
  0
INSERT
  5
D1
  8
SIZE
  2
DOT
 10
-446.0
 20
-550.0
 30
0.0
  0
INSERT
  5
D2
  8
SIZE
  2
DOT
 10
-500.0
 20
-550.0
 30
0.0
 50
180.0
  0
POINT
  5
D3
  8
DEFPOINTS
  6
BYBLOCK
 10
-500.0
 20
0.0
 30
0.0
  0
POINT
  5
D4
  8
DEFPOINTS
  6
BYBLOCK
 10
-446.0
 20
130.0
 30
0.0
  0
POINT
  5
D5
  8
DEFPOINTS
  6
BYBLOCK
 10
-446.0
 20
-550.0
 30
0.0
  0
ENDBLK
  5
D6
  8
SIZE
  0
BLOCK
  8
SIZE
  2
*D14
 70
     1
 10
0.0
 20
0.0
 30
0.0
  3
*D14
  1

  0
TEXT
  5
D9
  8
SIZE
  6
CONTINUOUS
 10
-476.959991
 20
-449.000006
 30
0.0
 40
2.8
  1
50
 50
0.000003
 41
0.7
  7
STANDARD1
  0
LINE
  5
DA
  8
SIZE
  6
CONTINUOUS
 10
-450.0
 20
129.0
 30
0.0
 11
-450.0
 21
-452.0
 31
0.0
  0
LINE
  5
DB
  8
SIZE
  6
CONTINUOUS
 10
-500.0
 20
-1.0
 30
0.0
 11
-500.0
 21
-452.0
 31
0.0
  0
LINE
  5
DC
  8
SIZE
  6
CONTINUOUS
 10
-450.0
 20
-450.0
 30
0.0
 11
-500.0
 21
-450.0
 31
0.0
  0
INSERT
  5
DD
  8
SIZE
  2
DOT
 10
-450.0
 20
-450.0
 30
0.0
  0
INSERT
  5
DE
  8
SIZE
  2
DOT
 10
-500.0
 20
-450.0
 30
0.0
 50
180.0
  0
POINT
  5
DF
  8
DEFPOINTS
  6
BYBLOCK
 10
-500.0
 20
0.0
 30
0.0
  0
POINT
  5
E0
  8
DEFPOINTS
  6
BYBLOCK
 10
-450.0
 20
130.0
 30
0.0
  0
POINT
  5
E1
  8
DEFPOINTS
  6
BYBLOCK
 10
-450.0
 20
-450.0
 30
0.0
  0
ENDBLK
  5
E2
  8
SIZE
  0
BLOCK
  8
SIZE
  2
*D15
 70
     1
 10
0.0
 20
0.0
 30
0.0
  3
*D15
  1

  0
TEXT
  5
E5
  8
SIZE
  6
CONTINUOUS
 10
-492.459991
 20
-249.000006
 30
0.0
 40
2.8
  1
19
 50
0.000003
 41
0.7
  7
STANDARD1
  0
LINE
  5
E6
  8
SIZE
  6
CONTINUOUS
 10
-500.0
 20
-1.0
 30
0.0
 11
-500.0
 21
-252.0
 31
0.0
  0
LINE
  5
E7
  8
SIZE
  6
CONTINUOUS
 10
-481.0
 20
-21.0
 30
0.0
 11
-481.0
 21
-252.0
 31
0.0
  0
LINE
  5
E8
  8
SIZE
  6
CONTINUOUS
 10
-500.0
 20
-250.0
 30
0.0
 11
-481.0
 21
-250.0
 31
0.0
  0
INSERT
  5
E9
  8
SIZE
  2
DOT
 10
-500.0
 20
-250.0
 30
0.0
 50
180.0
  0
INSERT
  5
EA
  8
SIZE
  2
DOT
 10
-481.0
 20
-250.0
 30
0.0
  0
POINT
  5
EB
  8
DEFPOINTS
  6
BYBLOCK
 10
-481.0
 20
-20.0
 30
0.0
  0
POINT
  5
EC
  8
DEFPOINTS
  6
BYBLOCK
 10
-500.0
 20
0.0
 30
0.0
  0
POINT
  5
ED
  8
DEFPOINTS
  6
BYBLOCK
 10
-500.0
 20
-250.0
 30
0.0
  0
ENDBLK
  5
EE
  8
SIZE
  0
BLOCK
  8
SIZE
  2
*D16
 70
     1
 10
0.0
 20
0.0
 30
0.0
  3
*D16
  1

  0
TEXT
  5
F1
  8
SIZE
  6
CONTINUOUS
 10
-60.439999
 20
-249.000006
 30
0.0
 40
2.8
  1
115
 50
0.000003
 41
0.7
  7
STANDARD1
  0
LINE
  5
F2
  8
SIZE
  6
CONTINUOUS
 10
-115.0
 20
-21.0
 30
0.0
 11
-115.0
 21
-252.0
 31
0.0
  0
LINE
  5
F3
  8
SIZE
  6
CONTINUOUS
 10
0.0
 20
149.0
 30
0.0
 11
0.0
 21
-252.0
 31
0.0
  0
LINE
  5
F4
  8
SIZE
  6
CONTINUOUS
 10
-115.0
 20
-250.0
 30
0.0
 11
0.0
 21
-250.0
 31
0.0
  0
INSERT
  5
F5
  8
SIZE
  2
DOT
 10
-115.0
 20
-250.0
 30
0.0
 50
180.0
  0
INSERT
  5
F6
  8
SIZE
  2
DOT
 10
0.0
 20
-250.0
 30
0.0
  0
POINT
  5
F7
  8
DEFPOINTS
  6
BYBLOCK
 10
0.0
 20
150.0
 30
0.0
  0
POINT
  5
F8
  8
DEFPOINTS
  6
BYBLOCK
 10
-115.0
 20
-20.0
 30
0.0
  0
POINT
  5
F9
  8
DEFPOINTS
  6
BYBLOCK
 10
-115.0
 20
-250.0
 30
0.0
  0
ENDBLK
  5
FA
  8
SIZE
  0
BLOCK
  8
SIZE
  2
*D17
 70
     1
 10
0.0
 20
0.0
 30
0.0
  3
*D17
  1

  0
TEXT
  5
FD
  8
SIZE
  6
CONTINUOUS
 10
-41.959999
 20
-149.000006
 30
0.0
 40
2.8
  1
80
 50
0.000003
 41
0.7
  7
STANDARD1
  0
LINE
  5
FE
  8
SIZE
  6
CONTINUOUS
 10
0.0
 20
149.0
 30
0.0
 11
0.0
 21
-152.0
 31
0.0
  0
LINE
  5
FF
  8
SIZE
  6
CONTINUOUS
 10
-80.0
 20
-21.0
 30
0.0
 11
-80.0
 21
-152.0
 31
0.0
  0
LINE
  5
100
  8
SIZE
  6
CONTINUOUS
 10
0.0
 20
-150.0
 30
0.0
 11
-80.0
 21
-150.0
 31
0.0
  0
INSERT
  5
101
  8
SIZE
  2
DOT
 10
0.0
 20
-150.0
 30
0.0
  0
INSERT
  5
102
  8
SIZE
  2
DOT
 10
-80.0
 20
-150.0
 30
0.0
 50
180.0
  0
POINT
  5
103
  8
DEFPOINTS
  6
BYBLOCK
 10
-80.0
 20
-20.0
 30
0.0
  0
POINT
  5
104
  8
DEFPOINTS
  6
BYBLOCK
 10
0.0
 20
150.0
 30
0.0
  0
POINT
  5
105
  8
DEFPOINTS
  6
BYBLOCK
 10
0.0
 20
-150.0
 30
0.0
  0
ENDBLK
  5
106
  8
SIZE
  0
BLOCK
  8
SIZE
  2
*D18
 70
     1
 10
0.0
 20
0.0
 30
0.0
  3
*D18
  1

  0
TEXT
  5
109
  8
SIZE
  6
CONTINUOUS
 10
-252.940002
 20
-748.999976
 30
0.0
 40
2.8
  1
500
 50
0.000003
 41
0.7
  7
STANDARD1
  0
LINE
  5
10A
  8
SIZE
  6
CONTINUOUS
 10
-500.0
 20
-1.0
 30
0.0
 11
-500.0
 21
-752.0
 31
0.0
  0
LINE
  5
10B
  8
SIZE
  6
CONTINUOUS
 10
0.0
 20
149.0
 30
0.0
 11
0.0
 21
-752.0
 31
0.0
  0
LINE
  5
10C
  8
SIZE
  6
CONTINUOUS
 10
-500.0
 20
-750.0
 30
0.0
 11
0.0
 21
-750.0
 31
0.0
  0
INSERT
  5
10D
  8
SIZE
  2
DOT
 10
-500.0
 20
-750.0
 30
0.0
 50
180.0
  0
INSERT
  5
10E
  8
SIZE
  2
DOT
 10
0.0
 20
-750.0
 30
0.0
  0
POINT
  5
10F
  8
DEFPOINTS
  6
BYBLOCK
 10
0.0
 20
150.0
 30
0.0
  0
POINT
  5
110
  8
DEFPOINTS
  6
BYBLOCK
 10
-500.0
 20
0.0
 30
0.0
  0
POINT
  5
111
  8
DEFPOINTS
  6
BYBLOCK
 10
-500.0
 20
-750.0
 30
0.0
  0
ENDBLK
  5
112
  8
SIZE
  0
BLOCK
  8
SIZE
  2
*D19
 70
     1
 10
0.0
 20
0.0
 30
0.0
  3
*D19
  1

  0
TEXT
  5
115
  8
SIZE
  6
CONTINUOUS
 10
-300.940002
 20
-249.000006
 30
0.0
 40
2.8
  1
366
 50
0.000003
 41
0.7
  7
STANDARD1
  0
LINE
  5
116
  8
SIZE
  6
CONTINUOUS
 10
-115.0
 20
-21.0
 30
0.0
 11
-115.0
 21
-252.0
 31
0.0
  0
LINE
  5
117
  8
SIZE
  6
CONTINUOUS
 10
-481.0
 20
-21.0
 30
0.0
 11
-481.0
 21
-252.0
 31
0.0
  0
LINE
  5
118
  8
SIZE
  6
CONTINUOUS
 10
-115.0
 20
-250.0
 30
0.0
 11
-481.0
 21
-250.0
 31
0.0
  0
INSERT
  5
119
  8
SIZE
  2
DOT
 10
-115.0
 20
-250.0
 30
0.0
  0
INSERT
  5
11A
  8
SIZE
  2
DOT
 10
-481.0
 20
-250.0
 30
0.0
 50
180.0
  0
POINT
  5
11B
  8
DEFPOINTS
  6
BYBLOCK
 10
-481.0
 20
-20.0
 30
0.0
  0
POINT
  5
11C
  8
DEFPOINTS
  6
BYBLOCK
 10
-115.0
 20
-20.0
 30
0.0
  0
POINT
  5
11D
  8
DEFPOINTS
  6
BYBLOCK
 10
-115.0
 20
-250.0
 30
0.0
  0
ENDBLK
  5
11E
  8
SIZE
  0
BLOCK
  8
SIZE
  2
*D20
 70
     1
 10
0.0
 20
0.0
 30
0.0
  3
*D20
  1

  0
TEXT
  5
121
  8
SIZE
  6
CONTINUOUS
 10
-283.440002
 20
-149.000006
 30
0.0
 40
2.8
  1
401
 50
0.000003
 41
0.7
  7
STANDARD1
  0
LINE
  5
122
  8
SIZE
  6
CONTINUOUS
 10
-481.0
 20
-21.0
 30
0.0
 11
-481.0
 21
-152.0
 31
0.0
  0
LINE
  5
123
  8
SIZE
  6
CONTINUOUS
 10
-80.0
 20
-21.0
 30
0.0
 11
-80.0
 21
-152.0
 31
0.0
  0
LINE
  5
124
  8
SIZE
  6
CONTINUOUS
 10
-481.0
 20
-150.0
 30
0.0
 11
-80.0
 21
-150.0
 31
0.0
  0
INSERT
  5
125
  8
SIZE
  2
DOT
 10
-481.0
 20
-150.0
 30
0.0
 50
180.0
  0
INSERT
  5
126
  8
SIZE
  2
DOT
 10
-80.0
 20
-150.0
 30
0.0
  0
POINT
  5
127
  8
DEFPOINTS
  6
BYBLOCK
 10
-80.0
 20
-20.0
 30
0.0
  0
POINT
  5
128
  8
DEFPOINTS
  6
BYBLOCK
 10
-481.0
 20
-20.0
 30
0.0
  0
POINT
  5
129
  8
DEFPOINTS
  6
BYBLOCK
 10
-481.0
 20
-150.0
 30
0.0
  0
ENDBLK
  5
12A
  8
SIZE
  0
BLOCK
  8
SIZE
  2
*D21
 70
     1
 10
0.0
 20
0.0
 30
0.0
  3
*D21
  1

  0
TEXT
  5
12D
  8
SIZE
  6
CONTINUOUS
 10
-1201.000024
 20
943.580017
 30
0.0
 40
2.8
  1
1895
 50
90.000005
 41
0.7
  7
STANDARD1
  0
LINE
  5
12E
  8
SIZE
  6
CONTINUOUS
 10
-1101.0
 20
1895.0
 30
0.0
 11
-1202.0
 21
1895.0
 31
0.0
  0
LINE
  5
12F
  8
SIZE
  6
CONTINUOUS
 10
-1101.0
 20
0.0
 30
0.0
 11
-1202.0
 21
0.0
 31
0.0
  0
LINE
  5
130
  8
SIZE
  6
CONTINUOUS
 10
-1200.0
 20
1895.0
 30
0.0
 11
-1200.0
 21
0.0
 31
0.0
  0
INSERT
  5
131
  8
SIZE
  2
DOT
 10
-1200.0
 20
1895.0
 30
0.0
 50
90.0
  0
INSERT
  5
132
  8
SIZE
  2
DOT
 10
-1200.0
 20
0.0
 30
0.0
 50
270.0
  0
POINT
  5
133
  8
DEFPOINTS
  6
BYBLOCK
 10
-1100.0
 20
0.0
 30
0.0
  0
POINT
  5
134
  8
DEFPOINTS
  6
BYBLOCK
 10
-1100.0
 20
1895.0
 30
0.0
  0
POINT
  5
135
  8
DEFPOINTS
  6
BYBLOCK
 10
-1200.0
 20
1895.0
 30
0.0
  0
ENDBLK
  5
136
  8
SIZE
  0
BLOCK
  8
SIZE
  2
*D22
 70
     1
 10
0.0
 20
0.0
 30
0.0
  3
*D22
  1

  0
TEXT
  5
139
  8
SIZE
  6
CONTINUOUS
 10
149.000006
 20
72.059998
 30
0.0
 40
2.8
  1
150
 50
90.000005
 41
0.7
  7
STANDARD1
  0
LINE
  5
13A
  8
SIZE
  6
CONTINUOUS
 10
-99.0
 20
0.0
 30
0.0
 11
152.0
 21
0.0
 31
0.0
  0
LINE
  5
13B
  8
SIZE
  6
CONTINUOUS
 10
1.0
 20
150.0
 30
0.0
 11
152.0
 21
150.0
 31
0.0
  0
LINE
  5
13C
  8
SIZE
  6
CONTINUOUS
 10
150.0
 20
0.0
 30
0.0
 11
150.0
 21
150.0
 31
0.0
  0
INSERT
  5
13D
  8
SIZE
  2
DOT
 10
150.0
 20
0.0
 30
0.0
 50
270.0
  0
INSERT
  5
13E
  8
SIZE
  2
DOT
 10
150.0
 20
150.0
 30
0.0
 50
90.0
  0
POINT
  5
13F
  8
DEFPOINTS
  6
BYBLOCK
 10
0.0
 20
150.0
 30
0.0
  0
POINT
  5
140
  8
DEFPOINTS
  6
BYBLOCK
 10
-100.0
 20
0.0
 30
0.0
  0
POINT
  5
141
  8
DEFPOINTS
  6
BYBLOCK
 10
150.0
 20
0.0
 30
0.0
  0
ENDBLK
  5
142
  8
SIZE
  0
BLOCK
  8
0
  2
_ORIGIN
 70
     0
 10
0.0
 20
0.0
 30
0.0
  3
_ORIGIN
  1

  0
CIRCLE
  5
145
  8
0
  6
BYBLOCK
 62
     0
 10
0.0
 20
0.0
 30
0.0
 40
0.5
  0
LINE
  5
146
  8
0
  6
BYBLOCK
 62
     0
 10
0.0
 20
0.0
 30
0.0
 11
-1.0
 21
0.0
 31
0.0
  0
ENDBLK
  5
147
  8
0
  0
BLOCK
  8
0
  2
*D24
 70
     1
 10
0.0
 20
0.0
 30
0.0
  3
*D24
  1

  0
LINE
  5
14A
  8
0
  6
BYBLOCK
 62
     0
 10
10.0
 20
150.0
 30
0.0
 11
160.1
 21
150.0
 31
0.0
  0
LINE
  5
14B
  8
0
  6
BYBLOCK
 62
     0
 10
-90.0
 20
0.0
 30
0.0
 11
160.1
 21
0.0
 31
0.0
  0
LINE
  5
14C
  8
0
  6
BYBLOCK
 62
     0
 10
147.6
 20
140.0
 30
0.0
 11
147.6
 21
10.0
 31
0.0
  0
INSERT
  5
14D
  8
0
  6
BYBLOCK
 62
     0
  2
_ORIGIN
 10
147.6
 20
150.0
 30
0.0
 41
10.0
 42
10.0
 43
10.0
 50
90.0
  0
INSERT
  5
14E
  8
0
  6
BYBLOCK
 62
     0
  2
_ORIGIN
 10
147.6
 20
0.0
 30
0.0
 41
10.0
 42
10.0
 43
10.0
 50
270.0
  0
TEXT
  5
14F
  8
0
  6
BYBLOCK
 62
     0
 10
137.6
 20
42.5
 30
0.0
 40
30.0
  1
150
 50
90.0
 72
     1
 11
137.6
 21
75.0
 31
0.0
  0
POINT
  5
150
  8
DEFPOINTS
  6
BYBLOCK
 62
     0
 10
0.0
 20
150.0
 30
0.0
  0
POINT
  5
151
  8
DEFPOINTS
  6
BYBLOCK
 62
     0
 10
-100.0
 20
0.0
 30
0.0
  0
POINT
  5
152
  8
DEFPOINTS
  6
BYBLOCK
 62
     0
 10
147.6
 20
0.0
 30
0.0
  0
ENDBLK
  5
153
  8
0
  0
BLOCK
  8
0
  2
*D25
 70
     1
 10
0.0
 20
0.0
 30
0.0
  3
*D25
  1

  0
LINE
  5
156
  8
0
  6
BYBLOCK
 62
     0
 10
-1110.0
 20
0.0
 30
0.0
 11
-1214.9
 21
0.0
 31
0.0
  0
LINE
  5
157
  8
0
  6
BYBLOCK
 62
     0
 10
-1110.0
 20
1895.0
 30
0.0
 11
-1214.9
 21
1895.0
 31
0.0
  0
LINE
  5
158
  8
0
  6
BYBLOCK
 62
     0
 10
-1202.4
 20
10.0
 30
0.0
 11
-1202.4
 21
1885.0
 31
0.0
  0
INSERT
  5
159
  8
0
  6
BYBLOCK
 62
     0
  2
_ORIGIN
 10
-1202.4
 20
0.0
 30
0.0
 41
10.0
 42
10.0
 43
10.0
 50
270.0
  0
INSERT
  5
15A
  8
0
  6
BYBLOCK
 62
     0
  2
_ORIGIN
 10
-1202.4
 20
1895.0
 30
0.0
 41
10.0
 42
10.0
 43
10.0
 50
90.0
  0
TEXT
  5
15B
  8
0
  6
BYBLOCK
 62
     0
 10
-1212.4
 20
897.5
 30
0.0
 40
30.0
  1
1895
 50
90.0
 72
     1
 11
-1212.4
 21
947.5
 31
0.0
  0
POINT
  5
15C
  8
DEFPOINTS
  6
BYBLOCK
 62
     0
 10
-1100.0
 20
0.0
 30
0.0
  0
POINT
  5
15D
  8
DEFPOINTS
  6
BYBLOCK
 62
     0
 10
-1100.0
 20
1895.0
 30
0.0
  0
POINT
  5
15E
  8
DEFPOINTS
  6
BYBLOCK
 62
     0
 10
-1202.4
 20
1895.0
 30
0.0
  0
ENDBLK
  5
15F
  8
0
  0
BLOCK
  8
0
  2
*D26
 70
     1
 10
0.0
 20
0.0
 30
0.0
  3
*D26
  1

  0
LINE
  5
162
  8
0
  6
BYBLOCK
 62
     0
 10
-80.0
 20
-30.0
 30
0.0
 11
-80.0
 21
-160.1
 31
0.0
  0
LINE
  5
163
  8
0
  6
BYBLOCK
 62
     0
 10
-481.0
 20
-30.0
 30
0.0
 11
-481.0
 21
-160.1
 31
0.0
  0
LINE
  5
164
  8
0
  6
BYBLOCK
 62
     0
 10
-90.0
 20
-147.6
 30
0.0
 11
-471.0
 21
-147.6
 31
0.0
  0
INSERT
  5
165
  8
0
  6
BYBLOCK
 62
     0
  2
_ORIGIN
 10
-80.0
 20
-147.6
 30
0.0
 41
10.0
 42
10.0
 43
10.0
  0
INSERT
  5
166
  8
0
  6
BYBLOCK
 62
     0
  2
_ORIGIN
 10
-481.0
 20
-147.6
 30
0.0
 41
10.0
 42
10.0
 43
10.0
 50
180.0
  0
TEXT
  5
167
  8
0
  6
BYBLOCK
 62
     0
 10
-313.0
 20
-137.6
 30
0.0
 40
30.0
  1
401
 72
     1
 11
-280.5
 21
-137.6
 31
0.0
  0
POINT
  5
168
  8
DEFPOINTS
  6
BYBLOCK
 62
     0
 10
-80.0
 20
-20.0
 30
0.0
  0
POINT
  5
169
  8
DEFPOINTS
  6
BYBLOCK
 62
     0
 10
-481.0
 20
-20.0
 30
0.0
  0
POINT
  5
16A
  8
DEFPOINTS
  6
BYBLOCK
 62
     0
 10
-481.0
 20
-147.6
 30
0.0
  0
ENDBLK
  5
16B
  8
0
  0
BLOCK
  8
0
  2
*D27
 70
     1
 10
0.0
 20
0.0
 30
0.0
  3
*D27
  1

  0
LINE
  5
16E
  8
0
  6
BYBLOCK
 62
     0
 10
-481.0
 20
-30.0
 30
0.0
 11
-481.0
 21
-260.1
 31
0.0
  0
LINE
  5
16F
  8
0
  6
BYBLOCK
 62
     0
 10
-115.0
 20
-30.0
 30
0.0
 11
-115.0
 21
-260.1
 31
0.0
  0
LINE
  5
170
  8
0
  6
BYBLOCK
 62
     0
 10
-471.0
 20
-247.6
 30
0.0
 11
-125.0
 21
-247.6
 31
0.0
  0
INSERT
  5
171
  8
0
  6
BYBLOCK
 62
     0
  2
_ORIGIN
 10
-481.0
 20
-247.6
 30
0.0
 41
10.0
 42
10.0
 43
10.0
 50
180.0
  0
INSERT
  5
172
  8
0
  6
BYBLOCK
 62
     0
  2
_ORIGIN
 10
-115.0
 20
-247.6
 30
0.0
 41
10.0
 42
10.0
 43
10.0
  0
TEXT
  5
173
  8
0
  6
BYBLOCK
 62
     0
 10
-338.0
 20
-237.6
 30
0.0
 40
30.0
  1
366
 72
     1
 11
-298.0
 21
-237.6
 31
0.0
  0
POINT
  5
174
  8
DEFPOINTS
  6
BYBLOCK
 62
     0
 10
-481.0
 20
-20.0
 30
0.0
  0
POINT
  5
175
  8
DEFPOINTS
  6
BYBLOCK
 62
     0
 10
-115.0
 20
-20.0
 30
0.0
  0
POINT
  5
176
  8
DEFPOINTS
  6
BYBLOCK
 62
     0
 10
-115.0
 20
-247.6
 30
0.0
  0
ENDBLK
  5
177
  8
0
  0
BLOCK
  8
0
  2
*D28
 70
     1
 10
0.0
 20
0.0
 30
0.0
  3
*D28
  1

  0
LINE
  5
17A
  8
0
  6
BYBLOCK
 62
     0
 10
0.0
 20
140.0
 30
0.0
 11
0.0
 21
-760.1
 31
0.0
  0
LINE
  5
17B
  8
0
  6
BYBLOCK
 62
     0
 10
-500.0
 20
-10.0
 30
0.0
 11
-500.0
 21
-760.1
 31
0.0
  0
LINE
  5
17C
  8
0
  6
BYBLOCK
 62
     0
 10
-10.0
 20
-747.6
 30
0.0
 11
-490.0
 21
-747.6
 31
0.0
  0
INSERT
  5
17D
  8
0
  6
BYBLOCK
 62
     0
  2
_ORIGIN
 10
0.0
 20
-747.6
 30
0.0
 41
10.0
 42
10.0
 43
10.0
  0
INSERT
  5
17E
  8
0
  6
BYBLOCK
 62
     0
  2
_ORIGIN
 10
-500.0
 20
-747.6
 30
0.0
 41
10.0
 42
10.0
 43
10.0
 50
180.0
  0
TEXT
  5
17F
  8
0
  6
BYBLOCK
 62
     0
 10
-285.0
 20
-737.6
 30
0.0
 40
30.0
  1
500
 72
     1
 11
-250.0
 21
-737.6
 31
0.0
  0
POINT
  5
180
  8
DEFPOINTS
  6
BYBLOCK
 62
     0
 10
0.0
 20
150.0
 30
0.0
  0
POINT
  5
181
  8
DEFPOINTS
  6
BYBLOCK
 62
     0
 10
-500.0
 20
0.0
 30
0.0
  0
POINT
  5
182
  8
DEFPOINTS
  6
BYBLOCK
 62
     0
 10
-500.0
 20
-747.6
 30
0.0
  0
ENDBLK
  5
183
  8
0
  0
BLOCK
  8
0
  2
*D29
 70
     1
 10
0.0
 20
0.0
 30
0.0
  3
*D29
  1

  0
LINE
  5
186
  8
0
  6
BYBLOCK
 62
     0
 10
-80.0
 20
-30.0
 30
0.0
 11
-80.0
 21
-160.1
 31
0.0
  0
LINE
  5
187
  8
0
  6
BYBLOCK
 62
     0
 10
0.0
 20
140.0
 30
0.0
 11
0.0
 21
-160.1
 31
0.0
  0
LINE
  5
188
  8
0
  6
BYBLOCK
 62
     0
 10
-70.0
 20
-147.6
 30
0.0
 11
-10.0
 21
-147.6
 31
0.0
  0
INSERT
  5
189
  8
0
  6
BYBLOCK
 62
     0
  2
_ORIGIN
 10
-80.0
 20
-147.6
 30
0.0
 41
10.0
 42
10.0
 43
10.0
 50
180.0
  0
INSERT
  5
18A
  8
0
  6
BYBLOCK
 62
     0
  2
_ORIGIN
 10
0.0
 20
-147.6
 30
0.0
 41
10.0
 42
10.0
 43
10.0
  0
TEXT
  5
18B
  8
0
  6
BYBLOCK
 62
     0
 10
-62.5
 20
-137.6
 30
0.0
 40
30.0
  1
80
 72
     1
 11
-40.0
 21
-137.6
 31
0.0
  0
POINT
  5
18C
  8
DEFPOINTS
  6
BYBLOCK
 62
     0
 10
-80.0
 20
-20.0
 30
0.0
  0
POINT
  5
18D
  8
DEFPOINTS
  6
BYBLOCK
 62
     0
 10
0.0
 20
150.0
 30
0.0
  0
POINT
  5
18E
  8
DEFPOINTS
  6
BYBLOCK
 62
     0
 10
0.0
 20
-147.6
 30
0.0
  0
ENDBLK
  5
18F
  8
0
  0
BLOCK
  8
0
  2
*D30
 70
     1
 10
0.0
 20
0.0
 30
0.0
  3
*D30
  1

  0
LINE
  5
192
  8
0
  6
BYBLOCK
 62
     0
 10
0.0
 20
140.0
 30
0.0
 11
0.0
 21
-260.1
 31
0.0
  0
LINE
  5
193
  8
0
  6
BYBLOCK
 62
     0
 10
-115.0
 20
-30.0
 30
0.0
 11
-115.0
 21
-260.1
 31
0.0
  0
LINE
  5
194
  8
0
  6
BYBLOCK
 62
     0
 10
-10.0
 20
-247.6
 30
0.0
 11
-105.0
 21
-247.6
 31
0.0
  0
INSERT
  5
195
  8
0
  6
BYBLOCK
 62
     0
  2
_ORIGIN
 10
0.0
 20
-247.6
 30
0.0
 41
10.0
 42
10.0
 43
10.0
  0
INSERT
  5
196
  8
0
  6
BYBLOCK
 62
     0
  2
_ORIGIN
 10
-115.0
 20
-247.6
 30
0.0
 41
10.0
 42
10.0
 43
10.0
 50
180.0
  0
TEXT
  5
197
  8
0
  6
BYBLOCK
 62
     0
 10
-87.5
 20
-237.6
 30
0.0
 40
30.0
  1
115
 72
     1
 11
-57.5
 21
-237.6
 31
0.0
  0
POINT
  5
198
  8
DEFPOINTS
  6
BYBLOCK
 62
     0
 10
0.0
 20
150.0
 30
0.0
  0
POINT
  5
199
  8
DEFPOINTS
  6
BYBLOCK
 62
     0
 10
-115.0
 20
-20.0
 30
0.0
  0
POINT
  5
19A
  8
DEFPOINTS
  6
BYBLOCK
 62
     0
 10
-115.0
 20
-247.6
 30
0.0
  0
ENDBLK
  5
19B
  8
0
  0
BLOCK
  8
0
  2
*D31
 70
     1
 10
0.0
 20
0.0
 30
0.0
  3
*D31
  1

  0
LINE
  5
19E
  8
0
  6
BYBLOCK
 62
     0
 10
-481.0
 20
-30.0
 30
0.0
 11
-481.0
 21
-260.1
 31
0.0
  0
LINE
  5
19F
  8
0
  6
BYBLOCK
 62
     0
 10
-500.0
 20
-10.0
 30
0.0
 11
-500.0
 21
-260.1
 31
0.0
  0
LINE
  5
1A0
  8
0
  6
BYBLOCK
 62
     0
 10
-471.0
 20
-247.6
 30
0.0
 11
-461.0
 21
-247.6
 31
0.0
  0
LINE
  5
1A1
  8
0
  6
BYBLOCK
 62
     0
 10
-510.0
 20
-247.6
 30
0.0
 11
-520.0
 21
-247.6
 31
0.0
  0
LINE
  5
1A2
  8
0
  6
BYBLOCK
 62
     0
 10
-481.0
 20
-247.6
 30
0.0
 11
-500.0
 21
-247.6
 31
0.0
  0
INSERT
  5
1A3
  8
0
  6
BYBLOCK
 62
     0
  2
_ORIGIN
 10
-481.0
 20
-247.6
 30
0.0
 41
10.0
 42
10.0
 43
10.0
 50
180.0
  0
INSERT
  5
1A4
  8
0
  6
BYBLOCK
 62
     0
  2
_ORIGIN
 10
-500.0
 20
-247.6
 30
0.0
 41
10.0
 42
10.0
 43
10.0
  0
TEXT
  5
1A5
  8
0
  6
BYBLOCK
 62
     0
 10
-510.5
 20
-237.6
 30
0.0
 40
30.0
  1
19
 72
     1
 11
-490.5
 21
-237.6
 31
0.0
  0
POINT
  5
1A6
  8
DEFPOINTS
  6
BYBLOCK
 62
     0
 10
-481.0
 20
-20.0
 30
0.0
  0
POINT
  5
1A7
  8
DEFPOINTS
  6
BYBLOCK
 62
     0
 10
-500.0
 20
0.0
 30
0.0
  0
POINT
  5
1A8
  8
DEFPOINTS
  6
BYBLOCK
 62
     0
 10
-500.0
 20
-247.6
 30
0.0
  0
ENDBLK
  5
1A9
  8
0
  0
BLOCK
  8
0
  2
*D32
 70
     1
 10
0.0
 20
0.0
 30
0.0
  3
*D32
  1

  0
LINE
  5
1AC
  8
0
  6
BYBLOCK
 62
     0
 10
-500.0
 20
-10.0
 30
0.0
 11
-500.0
 21
-460.1
 31
0.0
  0
LINE
  5
1AD
  8
0
  6
BYBLOCK
 62
     0
 10
-450.0
 20
120.0
 30
0.0
 11
-450.0
 21
-460.1
 31
0.0
  0
LINE
  5
1AE
  8
0
  6
BYBLOCK
 62
     0
 10
-490.0
 20
-447.6
 30
0.0
 11
-460.0
 21
-447.6
 31
0.0
  0
INSERT
  5
1AF
  8
0
  6
BYBLOCK
 62
     0
  2
_ORIGIN
 10
-500.0
 20
-447.6
 30
0.0
 41
10.0
 42
10.0
 43
10.0
 50
180.0
  0
INSERT
  5
1B0
  8
0
  6
BYBLOCK
 62
     0
  2
_ORIGIN
 10
-450.0
 20
-447.6
 30
0.0
 41
10.0
 42
10.0
 43
10.0
  0
TEXT
  5
1B1
  8
0
  6
BYBLOCK
 62
     0
 10
-497.5
 20
-437.6
 30
0.0
 40
30.0
  1
50
 72
     1
 11
-475.0
 21
-437.6
 31
0.0
  0
POINT
  5
1B2
  8
DEFPOINTS
  6
BYBLOCK
 62
     0
 10
-500.0
 20
0.0
 30
0.0
  0
POINT
  5
1B3
  8
DEFPOINTS
  6
BYBLOCK
 62
     0
 10
-450.0
 20
130.0
 30
0.0
  0
POINT
  5
1B4
  8
DEFPOINTS
  6
BYBLOCK
 62
     0
 10
-450.0
 20
-447.6
 30
0.0
  0
ENDBLK
  5
1B5
  8
0
  0
BLOCK
  8
0
  2
*D33
 70
     1
 10
0.0
 20
0.0
 30
0.0
  3
*D33
  1

  0
LINE
  5
1B8
  8
0
  6
BYBLOCK
 62
     0
 10
-500.0
 20
-10.0
 30
0.0
 11
-500.0
 21
-560.1
 31
0.0
  0
LINE
  5
1B9
  8
0
  6
BYBLOCK
 62
     0
 10
-446.0
 20
120.0
 30
0.0
 11
-446.0
 21
-560.1
 31
0.0
  0
LINE
  5
1BA
  8
0
  6
BYBLOCK
 62
     0
 10
-490.0
 20
-547.6
 30
0.0
 11
-456.0
 21
-547.6
 31
0.0
  0
INSERT
  5
1BB
  8
0
  6
BYBLOCK
 62
     0
  2
_ORIGIN
 10
-500.0
 20
-547.6
 30
0.0
 41
10.0
 42
10.0
 43
10.0
 50
180.0
  0
INSERT
  5
1BC
  8
0
  6
BYBLOCK
 62
     0
  2
_ORIGIN
 10
-446.0
 20
-547.6
 30
0.0
 41
10.0
 42
10.0
 43
10.0
  0
TEXT
  5
1BD
  8
0
  6
BYBLOCK
 62
     0
 10
-498.0
 20
-537.6
 30
0.0
 40
30.0
  1
54
 72
     1
 11
-473.0
 21
-537.6
 31
0.0
  0
POINT
  5
1BE
  8
DEFPOINTS
  6
BYBLOCK
 62
     0
 10
-500.0
 20
0.0
 30
0.0
  0
POINT
  5
1BF
  8
DEFPOINTS
  6
BYBLOCK
 62
     0
 10
-446.0
 20
130.0
 30
0.0
  0
POINT
  5
1C0
  8
DEFPOINTS
  6
BYBLOCK
 62
     0
 10
-446.0
 20
-547.6
 30
0.0
  0
ENDBLK
  5
1C1
  8
0
  0
BLOCK
  8
0
  2
*D34
 70
     1
 10
0.0
 20
0.0
 30
0.0
  3
*D34
  1

  0
LINE
  5
1C4
  8
0
  6
BYBLOCK
 62
     0
 10
-1100.0
 20
1905.0
 30
0.0
 11
-1100.0
 21
2109.9
 31
0.0
  0
LINE
  5
1C5
  8
0
  6
BYBLOCK
 62
     0
 10
-500.0
 20
1905.0
 30
0.0
 11
-500.0
 21
2109.9
 31
0.0
  0
LINE
  5
1C6
  8
0
  6
BYBLOCK
 62
     0
 10
-1090.0
 20
2097.4
 30
0.0
 11
-510.0
 21
2097.4
 31
0.0
  0
INSERT
  5
1C7
  8
0
  6
BYBLOCK
 62
     0
  2
_ORIGIN
 10
-1100.0
 20
2097.4
 30
0.0
 41
10.0
 42
10.0
 43
10.0
 50
180.0
  0
INSERT
  5
1C8
  8
0
  6
BYBLOCK
 62
     0
  2
_ORIGIN
 10
-500.0
 20
2097.4
 30
0.0
 41
10.0
 42
10.0
 43
10.0
  0
TEXT
  5
1C9
  8
0
  6
BYBLOCK
 62
     0
 10
-835.0
 20
2107.4
 30
0.0
 40
30.0
  1
600
 72
     1
 11
-800.0
 21
2107.4
 31
0.0
  0
POINT
  5
1CA
  8
DEFPOINTS
  6
BYBLOCK
 62
     0
 10
-1100.0
 20
1895.0
 30
0.0
  0
POINT
  5
1CB
  8
DEFPOINTS
  6
BYBLOCK
 62
     0
 10
-500.0
 20
1895.0
 30
0.0
  0
POINT
  5
1CC
  8
DEFPOINTS
  6
BYBLOCK
 62
     0
 10
-500.0
 20
2097.4
 30
0.0
  0
ENDBLK
  5
1CD
  8
0
  0
BLOCK
  8
0
  2
*D35
 70
     1
 10
0.0
 20
0.0
 30
0.0
  3
*D35
  1

  0
LINE
  5
1D0
  8
0
  6
BYBLOCK
 62
     0
 10
0.0
 20
1905.0
 30
0.0
 11
0.0
 21
2109.9
 31
0.0
  0
LINE
  5
1D1
  8
0
  6
BYBLOCK
 62
     0
 10
-500.0
 20
1905.0
 30
0.0
 11
-500.0
 21
2109.9
 31
0.0
  0
LINE
  5
1D2
  8
0
  6
BYBLOCK
 62
     0
 10
-10.0
 20
2097.4
 30
0.0
 11
-490.0
 21
2097.4
 31
0.0
  0
INSERT
  5
1D3
  8
0
  6
BYBLOCK
 62
     0
  2
_ORIGIN
 10
0.0
 20
2097.4
 30
0.0
 41
10.0
 42
10.0
 43
10.0
  0
INSERT
  5
1D4
  8
0
  6
BYBLOCK
 62
     0
  2
_ORIGIN
 10
-500.0
 20
2097.4
 30
0.0
 41
10.0
 42
10.0
 43
10.0
 50
180.0
  0
TEXT
  5
1D5
  8
0
  6
BYBLOCK
 62
     0
 10
-285.0
 20
2107.4
 30
0.0
 40
30.0
  1
500
 72
     1
 11
-250.0
 21
2107.4
 31
0.0
  0
POINT
  5
1D6
  8
DEFPOINTS
  6
BYBLOCK
 62
     0
 10
0.0
 20
1895.0
 30
0.0
  0
POINT
  5
1D7
  8
DEFPOINTS
  6
BYBLOCK
 62
     0
 10
-500.0
 20
1895.0
 30
0.0
  0
POINT
  5
1D8
  8
DEFPOINTS
  6
BYBLOCK
 62
     0
 10
-500.0
 20
2097.4
 30
0.0
  0
ENDBLK
  5
1D9
  8
0
  0
BLOCK
  8
0
  2
*D36
 70
     1
 10
0.0
 20
0.0
 30
0.0
  3
*D36
  1

  0
LINE
  5
1DC
  8
0
  6
BYBLOCK
 62
     0
 10
10.0
 20
1895.0
 30
0.0
 11
460.1
 21
1895.0
 31
0.0
  0
LINE
  5
1DD
  8
0
  6
BYBLOCK
 62
     0
 10
10.0
 20
1695.0
 30
0.0
 11
460.1
 21
1695.0
 31
0.0
  0
LINE
  5
1DE
  8
0
  6
BYBLOCK
 62
     0
 10
447.6
 20
1885.0
 30
0.0
 11
447.6
 21
1705.0
 31
0.0
  0
INSERT
  5
1DF
  8
0
  6
BYBLOCK
 62
     0
  2
_ORIGIN
 10
447.6
 20
1895.0
 30
0.0
 41
10.0
 42
10.0
 43
10.0
 50
90.0
  0
INSERT
  5
1E0
  8
0
  6
BYBLOCK
 62
     0
  2
_ORIGIN
 10
447.6
 20
1695.0
 30
0.0
 41
10.0
 42
10.0
 43
10.0
 50
270.0
  0
TEXT
  5
1E1
  8
0
  6
BYBLOCK
 62
     0
 10
437.6
 20
1733.540097
 30
0.0
 40
30.0
  1
200
 50
90.0
 72
     1
 11
437.6
 21
1768.540097
 31
0.0
  0
POINT
  5
1E2
  8
DEFPOINTS
  6
BYBLOCK
 62
     0
 10
0.0
 20
1895.0
 30
0.0
  0
POINT
  5
1E3
  8
DEFPOINTS
  6
BYBLOCK
 62
     0
 10
0.0
 20
1695.0
 30
0.0
  0
POINT
  5
1E4
  8
DEFPOINTS
  6
BYBLOCK
 62
     0
 10
447.6
 20
1695.0
 30
0.0
  0
ENDBLK
  5
1E5
  8
0
  0
BLOCK
  8
0
  2
*D37
 70
     1
 10
0.0
 20
0.0
 30
0.0
  3
*D37
  1

  0
LINE
  5
1E8
  8
0
  6
BYBLOCK
 62
     0
 10
-90.0
 20
0.0
 30
0.0
 11
460.1
 21
0.0
 31
0.0
  0
LINE
  5
1E9
  8
0
  6
BYBLOCK
 62
     0
 10
10.0
 20
1695.0
 30
0.0
 11
460.1
 21
1695.0
 31
0.0
  0
LINE
  5
1EA
  8
0
  6
BYBLOCK
 62
     0
 10
447.6
 20
10.0
 30
0.0
 11
447.6
 21
1685.0
 31
0.0
  0
INSERT
  5
1EB
  8
0
  6
BYBLOCK
 62
     0
  2
_ORIGIN
 10
447.6
 20
0.0
 30
0.0
 41
10.0
 42
10.0
 43
10.0
 50
270.0
  0
INSERT
  5
1EC
  8
0
  6
BYBLOCK
 62
     0
  2
_ORIGIN
 10
447.6
 20
1695.0
 30
0.0
 41
10.0
 42
10.0
 43
10.0
 50
90.0
  0
TEXT
  5
1ED
  8
0
  6
BYBLOCK
 62
     0
 10
437.6
 20
872.724914
 30
0.0
 40
30.0
  1
1695
 50
90.0
 72
     1
 11
437.6
 21
922.724914
 31
0.0
  0
POINT
  5
1EE
  8
DEFPOINTS
  6
BYBLOCK
 62
     0
 10
-100.0
 20
0.0
 30
0.0
  0
POINT
  5
1EF
  8
DEFPOINTS
  6
BYBLOCK
 62
     0
 10
0.0
 20
1695.0
 30
0.0
  0
POINT
  5
1F0
  8
DEFPOINTS
  6
BYBLOCK
 62
     0
 10
447.6
 20
1695.0
 30
0.0
  0
ENDBLK
  5
1F1
  8
0
  0
BLOCK
  8
0
  2
*D38
 70
     1
 10
0.0
 20
0.0
 30
0.0
  3
*D38
  1

  0
LINE
  5
1F4
  8
0
  6
BYBLOCK
 62
     0
 10
90.0
 20
1695.0
 30
0.0
 11
160.1
 21
1695.0
 31
0.0
  0
LINE
  5
1F5
  8
0
  6
BYBLOCK
 62
     0
 10
-160.0
 20
1730.0
 30
0.0
 11
160.1
 21
1730.0
 31
0.0
  0
LINE
  5
1F6
  8
0
  6
BYBLOCK
 62
     0
 10
147.6
 20
1685.0
 30
0.0
 11
147.6
 21
1675.0
 31
0.0
  0
LINE
  5
1F7
  8
0
  6
BYBLOCK
 62
     0
 10
147.6
 20
1740.0
 30
0.0
 11
147.6
 21
1820.0
 31
0.0
  0
LINE
  5
1F8
  8
0
  6
BYBLOCK
 62
     0
 10
147.6
 20
1695.0
 30
0.0
 11
147.6
 21
1730.0
 31
0.0
  0
INSERT
  5
1F9
  8
0
  6
BYBLOCK
 62
     0
  2
_ORIGIN
 10
147.6
 20
1695.0
 30
0.0
 41
10.0
 42
10.0
 43
10.0
 50
90.0
  0
INSERT
  5
1FA
  8
0
  6
BYBLOCK
 62
     0
  2
_ORIGIN
 10
147.6
 20
1730.0
 30
0.0
 41
10.0
 42
10.0
 43
10.0
 50
270.0
  0
TEXT
  5
1FB
  8
0
  6
BYBLOCK
 62
     0
 10
137.6
 20
1760.0
 30
0.0
 40
30.0
  1
35
 50
90.0
 72
     1
 11
137.6
 21
1785.0
 31
0.0
  0
POINT
  5
1FC
  8
DEFPOINTS
  6
BYBLOCK
 62
     0
 10
80.0
 20
1695.0
 30
0.0
  0
POINT
  5
1FD
  8
DEFPOINTS
  6
BYBLOCK
 62
     0
 10
-170.0
 20
1730.0
 30
0.0
  0
POINT
  5
1FE
  8
DEFPOINTS
  6
BYBLOCK
 62
     0
 10
147.6
 20
1730.0
 30
0.0
  0
ENDBLK
  5
1FF
  8
0
  0
BLOCK
  8
0
  2
*D39
 70
     1
 10
0.0
 20
0.0
 30
0.0
  3
*D39
  1

  0
LINE
  5
202
  8
0
  6
BYBLOCK
 62
     0
 10
10.0
 20
150.0
 30
0.0
 11
160.1
 21
150.0
 31
0.0
  0
LINE
  5
203
  8
0
  6
BYBLOCK
 62
     0
 10
90.0
 20
1695.0
 30
0.0
 11
160.1
 21
1695.0
 31
0.0
  0
LINE
  5
204
  8
0
  6
BYBLOCK
 62
     0
 10
147.6
 20
160.0
 30
0.0
 11
147.6
 21
1685.0
 31
0.0
  0
INSERT
  5
205
  8
0
  6
BYBLOCK
 62
     0
  2
_ORIGIN
 10
147.6
 20
150.0
 30
0.0
 41
10.0
 42
10.0
 43
10.0
 50
270.0
  0
INSERT
  5
206
  8
0
  6
BYBLOCK
 62
     0
  2
_ORIGIN
 10
147.6
 20
1695.0
 30
0.0
 41
10.0
 42
10.0
 43
10.0
 50
90.0
  0
TEXT
  5
207
  8
0
  6
BYBLOCK
 62
     0
 10
137.6
 20
872.5
 30
0.0
 40
30.0
  1
1545
 50
90.0
 72
     1
 11
137.6
 21
922.5
 31
0.0
  0
POINT
  5
208
  8
DEFPOINTS
  6
BYBLOCK
 62
     0
 10
0.0
 20
150.0
 30
0.0
  0
POINT
  5
209
  8
DEFPOINTS
  6
BYBLOCK
 62
     0
 10
80.0
 20
1695.0
 30
0.0
  0
POINT
  5
20A
  8
DEFPOINTS
  6
BYBLOCK
 62
     0
 10
147.6
 20
1695.0
 30
0.0
  0
ENDBLK
  5
20B
  8
0
  0
BLOCK
  8
0
  2
*D40
 70
     1
 10
0.0
 20
0.0
 30
0.0
  3
*D40
  1

  0
LINE
  5
20E
  8
0
  6
BYBLOCK
 62
     0
 10
0.0
 20
1705.0
 30
0.0
 11
0.0
 21
2009.9
 31
0.0
  0
LINE
  5
20F
  8
0
  6
BYBLOCK
 62
     0
 10
80.0
 20
1750.0
 30
0.0
 11
80.0
 21
2009.9
 31
0.0
  0
LINE
  5
210
  8
0
  6
BYBLOCK
 62
     0
 10
10.0
 20
1997.4
 30
0.0
 11
70.0
 21
1997.4
 31
0.0
  0
INSERT
  5
211
  8
0
  6
BYBLOCK
 62
     0
  2
_ORIGIN
 10
0.0
 20
1997.4
 30
0.0
 41
10.0
 42
10.0
 43
10.0
 50
180.0
  0
INSERT
  5
212
  8
0
  6
BYBLOCK
 62
     0
  2
_ORIGIN
 10
80.0
 20
1997.4
 30
0.0
 41
10.0
 42
10.0
 43
10.0
  0
TEXT
  5
213
  8
0
  6
BYBLOCK
 62
     0
 10
17.5
 20
2007.4
 30
0.0
 40
30.0
  1
80
 72
     1
 11
40.0
 21
2007.4
 31
0.0
  0
POINT
  5
214
  8
DEFPOINTS
  6
BYBLOCK
 62
     0
 10
0.0
 20
1695.0
 30
0.0
  0
POINT
  5
215
  8
DEFPOINTS
  6
BYBLOCK
 62
     0
 10
80.0
 20
1740.0
 30
0.0
  0
POINT
  5
216
  8
DEFPOINTS
  6
BYBLOCK
 62
     0
 10
80.0
 20
1997.4
 30
0.0
  0
ENDBLK
  5
217
  8
0
  0
BLOCK
  8
0
  2
*D41
 70
     1
 10
0.0
 20
0.0
 30
0.0
  3
*D41
  1

  0
LINE
  5
21A
  8
0
  6
BYBLOCK
 62
     0
 10
-500.0
 20
-10.0
 30
0.0
 11
-500.0
 21
-660.1
 31
0.0
  0
LINE
  5
21B
  8
0
  6
BYBLOCK
 62
     0
 10
-427.0
 20
120.0
 30
0.0
 11
-427.0
 21
-660.1
 31
0.0
  0
LINE
  5
21C
  8
0
  6
BYBLOCK
 62
     0
 10
-490.0
 20
-647.6
 30
0.0
 11
-437.0
 21
-647.6
 31
0.0
  0
INSERT
  5
21D
  8
0
  6
BYBLOCK
 62
     0
  2
_ORIGIN
 10
-500.0
 20
-647.6
 30
0.0
 41
10.0
 42
10.0
 43
10.0
 50
180.0
  0
INSERT
  5
21E
  8
0
  6
BYBLOCK
 62
     0
  2
_ORIGIN
 10
-427.0
 20
-647.6
 30
0.0
 41
10.0
 42
10.0
 43
10.0
  0
TEXT
  5
21F
  8
0
  6
BYBLOCK
 62
     0
 10
-488.5
 20
-637.6
 30
0.0
 40
30.0
  1
73
 72
     1
 11
-463.5
 21
-637.6
 31
0.0
  0
POINT
  5
220
  8
DEFPOINTS
  6
BYBLOCK
 62
     0
 10
-500.0
 20
0.0
 30
0.0
  0
POINT
  5
221
  8
DEFPOINTS
  6
BYBLOCK
 62
     0
 10
-427.0
 20
130.0
 30
0.0
  0
POINT
  5
222
  8
DEFPOINTS
  6
BYBLOCK
 62
     0
 10
-427.0
 20
-647.6
 30
0.0
  0
ENDBLK
  5
223
  8
0
  0
BLOCK
  8
0
  2
*D42
 70
     1
 10
0.0
 20
0.0
 30
0.0
  3
*D42
  1

  0
LINE
  5
226
  8
0
  6
BYBLOCK
 62
     0
 10
-170.0
 20
1740.0
 30
0.0
 11
-170.0
 21
2009.9
 31
0.0
  0
LINE
  5
227
  8
0
  6
BYBLOCK
 62
     0
 10
0.0
 20
1905.0
 30
0.0
 11
0.0
 21
2009.9
 31
0.0
  0
LINE
  5
228
  8
0
  6
BYBLOCK
 62
     0
 10
-160.0
 20
1997.4
 30
0.0
 11
-10.0
 21
1997.4
 31
0.0
  0
INSERT
  5
229
  8
0
  6
BYBLOCK
 62
     0
  2
_ORIGIN
 10
-170.0
 20
1997.4
 30
0.0
 41
10.0
 42
10.0
 43
10.0
 50
180.0
  0
INSERT
  5
22A
  8
0
  6
BYBLOCK
 62
     0
  2
_ORIGIN
 10
0.0
 20
1997.4
 30
0.0
 41
10.0
 42
10.0
 43
10.0
  0
TEXT
  5
22B
  8
0
  6
BYBLOCK
 62
     0
 10
-117.5
 20
2007.4
 30
0.0
 40
30.0
  1
170
 72
     1
 11
-85.0
 21
2007.4
 31
0.0
  0
POINT
  5
22C
  8
DEFPOINTS
  6
BYBLOCK
 62
     0
 10
-170.0
 20
1730.0
 30
0.0
  0
POINT
  5
22D
  8
DEFPOINTS
  6
BYBLOCK
 62
     0
 10
0.0
 20
1895.0
 30
0.0
  0
POINT
  5
22E
  8
DEFPOINTS
  6
BYBLOCK
 62
     0
 10
0.0
 20
1997.4
 30
0.0
  0
ENDBLK
  5
22F
  8
0
  0
BLOCK
  8
0
  2
*D43
 70
     1
 10
0.0
 20
0.0
 30
0.0
  3
*D43
  1

  0
LINE
  5
232
  8
0
  6
BYBLOCK
 62
     0
 10
-50.0
 20
0.0
 30
0.0
 11
360.1
 21
0.0
 31
0.0
  0
LINE
  5
233
  8
0
  6
BYBLOCK
 62
     0
 10
90.0
 20
1740.0
 30
0.0
 11
360.1
 21
1740.0
 31
0.0
  0
LINE
  5
234
  8
0
  6
BYBLOCK
 62
     0
 10
347.6
 20
10.0
 30
0.0
 11
347.6
 21
1730.0
 31
0.0
  0
INSERT
  5
235
  8
0
  6
BYBLOCK
 62
     0
  2
_ORIGIN
 10
347.6
 20
0.0
 30
0.0
 41
10.0
 42
10.0
 43
10.0
 50
270.0
  0
INSERT
  5
236
  8
0
  6
BYBLOCK
 62
     0
  2
_ORIGIN
 10
347.6
 20
1740.0
 30
0.0
 41
10.0
 42
10.0
 43
10.0
 50
90.0
  0
TEXT
  5
237
  8
0
  6
BYBLOCK
 62
     0
 10
337.6
 20
822.5
 30
0.0
 40
30.0
  1
1740
 50
90.0
 72
     1
 11
337.6
 21
870.0
 31
0.0
  0
POINT
  5
238
  8
DEFPOINTS
  6
BYBLOCK
 62
     0
 10
-60.0
 20
0.0
 30
0.0
  0
POINT
  5
239
  8
DEFPOINTS
  6
BYBLOCK
 62
     0
 10
80.0
 20
1740.0
 30
0.0
  0
POINT
  5
23A
  8
DEFPOINTS
  6
BYBLOCK
 62
     0
 10
347.6
 20
1740.0
 30
0.0
  0
ENDBLK
  5
23B
  8
0
  0
BLOCK
  8
0
  2
*D44
 70
     1
 10
0.0
 20
0.0
 30
0.0
  3
*D44
  1

  0
LINE
  5
23E
  8
0
  6
BYBLOCK
 62
     0
 10
-500.0
 20
-10.0
 30
0.0
 11
-500.0
 21
-360.1
 31
0.0
  0
LINE
  5
23F
  8
0
  6
BYBLOCK
 62
     0
 10
-461.0
 20
120.0
 30
0.0
 11
-461.0
 21
-360.1
 31
0.0
  0
LINE
  5
240
  8
0
  6
BYBLOCK
 62
     0
 10
-510.0
 20
-347.6
 30
0.0
 11
-520.0
 21
-347.6
 31
0.0
  0
LINE
  5
241
  8
0
  6
BYBLOCK
 62
     0
 10
-451.0
 20
-347.6
 30
0.0
 11
-441.0
 21
-347.6
 31
0.0
  0
LINE
  5
242
  8
0
  6
BYBLOCK
 62
     0
 10
-500.0
 20
-347.6
 30
0.0
 11
-461.0
 21
-347.6
 31
0.0
  0
INSERT
  5
243
  8
0
  6
BYBLOCK
 62
     0
  2
_ORIGIN
 10
-500.0
 20
-347.6
 30
0.0
 41
10.0
 42
10.0
 43
10.0
  0
INSERT
  5
244
  8
0
  6
BYBLOCK
 62
     0
  2
_ORIGIN
 10
-461.0
 20
-347.6
 30
0.0
 41
10.0
 42
10.0
 43
10.0
 50
180.0
  0
TEXT
  5
245
  8
0
  6
BYBLOCK
 62
     0
 10
-505.5
 20
-337.6
 30
0.0
 40
30.0
  1
39
 72
     1
 11
-480.5
 21
-337.6
 31
0.0
  0
POINT
  5
246
  8
DEFPOINTS
  6
BYBLOCK
 62
     0
 10
-500.0
 20
0.0
 30
0.0
  0
POINT
  5
247
  8
DEFPOINTS
  6
BYBLOCK
 62
     0
 10
-461.0
 20
130.0
 30
0.0
  0
POINT
  5
248
  8
DEFPOINTS
  6
BYBLOCK
 62
     0
 10
-461.0
 20
-347.6
 30
0.0
  0
ENDBLK
  5
249
  8
0
  0
BLOCK
  8
0
  2
*D45
 70
     1
 10
0.0
 20
0.0
 30
0.0
  3
*D45
  1

  0
LINE
  5
24C
  8
0
  6
BYBLOCK
 62
     0
 10
-50.0
 20
0.0
 30
0.0
 11
260.1
 21
0.0
 31
0.0
  0
LINE
  5
24D
  8
0
  6
BYBLOCK
 62
     0
 10
110.0
 20
1718.0
 30
0.0
 11
260.1
 21
1718.0
 31
0.0
  0
LINE
  5
24E
  8
0
  6
BYBLOCK
 62
     0
 10
247.6
 20
10.0
 30
0.0
 11
247.6
 21
1708.0
 31
0.0
  0
INSERT
  5
24F
  8
0
  6
BYBLOCK
 62
     0
  2
_ORIGIN
 10
247.6
 20
0.0
 30
0.0
 41
10.0
 42
10.0
 43
10.0
 50
270.0
  0
INSERT
  5
250
  8
0
  6
BYBLOCK
 62
     0
  2
_ORIGIN
 10
247.6
 20
1718.0
 30
0.0
 41
10.0
 42
10.0
 43
10.0
 50
90.0
  0
TEXT
  5
251
  8
0
  6
BYBLOCK
 62
     0
 10
237.6
 20
814.0
 30
0.0
 40
30.0
  1
1718
 50
90.0
 72
     1
 11
237.6
 21
859.0
 31
0.0
  0
POINT
  5
252
  8
DEFPOINTS
  6
BYBLOCK
 62
     0
 10
-60.0
 20
0.0
 30
0.0
  0
POINT
  5
253
  8
DEFPOINTS
  6
BYBLOCK
 62
     0
 10
100.0
 20
1718.0
 30
0.0
  0
POINT
  5
254
  8
DEFPOINTS
  6
BYBLOCK
 62
     0
 10
247.6
 20
1718.0
 30
0.0
  0
ENDBLK
  5
255
  8
0
  0
ENDSEC
  0
SECTION
  2
ENTITIES
  0
ARC
  5
256
  8
OUTLINE
  6
CONTINUOUS
 10
-105.0
 20
10.0
 30
0.0
 40
5.0
 50
0.0
 51
90.0
  0
LINE
  5
257
  8
OUTLINE
  6
CONTINUOUS
 10
-113.0
 20
15.0
 30
0.0
 11
-105.0
 21
15.0
 31
0.0
  0
LINE
  5
258
  8
OUTLINE
  6
CONTINUOUS
 10
-500.0
 20
1695.0
 30
0.0
 11
0.0
 21
1695.0
 31
0.0
  0
LINE
  5
259
  8
OUTLINE
  6
CONTINUOUS
 10
0.0
 20
1695.0
 30
0.0
 11
0.0
 21
150.0
 31
0.0
  0
LINE
  5
25A
  8
OUTLINE
  6
CONTINUOUS
 10
-100.0
 20
10.0
 30
0.0
 11
-100.0
 21
0.0
 31
0.0
  0
ARC
  5
25B
  8
OUTLINE
  6
CONTINUOUS
 10
-113.0
 20
25.0
 30
0.0
 40
10.0
 50
180.0
 51
270.0
  0
LINE
  5
25C
  8
OUTLINE
  6
CONTINUOUS
 10
-123.0
 20
25.0
 30
0.0
 11
-123.0
 21
150.0
 31
0.0
  0
LINE
  5
25D
  8
OUTLINE
  6
CONTINUOUS
 10
-183.0
 20
0.0
 30
0.0
 11
-100.0
 21
0.0
 31
0.0
  0
LINE
  5
25E
  8
OUTLINE
  6
CONTINUOUS
 10
-183.0
 20
0.0
 30
0.0
 11
-183.0
 21
150.0
 31
0.0
  0
LINE
  5
25F
  8
OUTLINE
  6
CONTINUOUS
 10
-413.0
 20
0.0
 30
0.0
 11
-413.0
 21
150.0
 31
0.0
  0
LINE
  5
260
  8
OUTLINE
  6
CONTINUOUS
 10
-496.0
 20
10.0
 30
0.0
 11
-496.0
 21
0.0
 31
0.0
  0
ARC
  5
261
  8
OUTLINE
  6
CONTINUOUS
 10
-491.0
 20
10.0
 30
0.0
 40
5.0
 50
90.0
 51
180.0
  0
ARC
  5
262
  8
OUTLINE
  6
CONTINUOUS
 10
-483.0
 20
25.0
 30
0.0
 40
10.0
 50
270.0
 51
0.0
  0
LINE
  5
263
  8
OUTLINE
  6
CONTINUOUS
 10
-413.0
 20
0.0
 30
0.0
 11
-496.0
 21
0.0
 31
0.0
  0
LINE
  5
264
  8
OUTLINE
  6
CONTINUOUS
 10
-483.0
 20
15.0
 30
0.0
 11
-491.0
 21
15.0
 31
0.0
  0
LINE
  5
265
  8
OUTLINE
  6
CONTINUOUS
 10
-473.0
 20
25.0
 30
0.0
 11
-473.0
 21
117.0
 31
0.0
  0
LINE
  5
266
  8
OUTLINE
  6
CONTINUOUS
 10
-500.0
 20
150.0
 30
0.0
 11
0.0
 21
150.0
 31
0.0
  0
LINE
  5
267
  8
OUTLINE
  6
CONTINUOUS
 10
-500.0
 20
1695.0
 30
0.0
 11
-500.0
 21
150.0
 31
0.0
  0
LINE
  5
268
  8
DETAIL
  6
CONTINUOUS
 10
-120.141428
 20
18.0
 30
0.0
 11
-60.0
 21
18.0
 31
0.0
  0
LINE
  5
269
  8
DETAIL
  6
CONTINUOUS
 10
-100.0
 20
6.0
 30
0.0
 11
-100.0
 21
0.0
 31
0.0
  0
LINE
  5
26A
  8
DETAIL
  6
CONTINUOUS
 10
-100.0
 20
3.2
 30
0.0
 11
-60.0
 21
3.2
 31
0.0
  0
LINE
  5
26B
  8
DETAIL
  6
CONTINUOUS
 10
-100.0
 20
0.0
 30
0.0
 11
-60.0
 21
0.0
 31
0.0
  0
LINE
  5
26C
  8
DETAIL
  6
CONTINUOUS
 10
-183.0
 20
0.0
 30
0.0
 11
-100.0
 21
0.0
 31
0.0
  0
ARC
  5
26D
  8
DETAIL
  6
CONTINUOUS
 10
-113.0
 20
25.0
 30
0.0
 40
10.0
 50
180.0
 51
270.0
  0
LINE
  5
26E
  8
DETAIL
  6
CONTINUOUS
 10
-100.0
 20
10.0
 30
0.0
 11
-100.0
 21
0.0
 31
0.0
  0
LINE
  5
26F
  8
DETAIL
  6
CONTINUOUS
 10
-113.0
 20
15.0
 30
0.0
 11
-105.0
 21
15.0
 31
0.0
  0
ARC
  5
270
  8
DETAIL
  6
CONTINUOUS
 10
-105.0
 20
10.0
 30
0.0
 40
5.0
 50
0.0
 51
90.0
  0
ARC
  5
271
  8
DETAIL
  6
CONTINUOUS
 10
-105.0
 20
10.0
 30
0.0
 40
5.0
 50
0.0
 51
90.0
  0
LINE
  5
272
  8
DETAIL
  6
CONTINUOUS
 10
-113.0
 20
15.0
 30
0.0
 11
-105.0
 21
15.0
 31
0.0
  0
ARC
  5
273
  8
DETAIL
  6
CONTINUOUS
 10
-113.0
 20
25.0
 30
0.0
 40
10.0
 50
180.0
 51
270.0
  0
LINE
  5
274
  8
DETAIL
  6
CONTINUOUS
 10
-183.0
 20
0.0
 30
0.0
 11
-100.0
 21
0.0
 31
0.0
  0
LINE
  5
275
  8
DETAIL
  6
CONTINUOUS
 10
-120.141428
 20
18.0
 30
0.0
 11
-60.0
 21
18.0
 31
0.0
  0
LINE
  5
276
  8
DETAIL
  6
CONTINUOUS
 10
-120.141428
 20
18.0
 30
0.0
 11
-60.0
 21
18.0
 31
0.0
  0
LINE
  5
277
  8
DETAIL
  6
CONTINUOUS
 10
-183.0
 20
0.0
 30
0.0
 11
-183.0
 21
150.0
 31
0.0
  0
LINE
  5
278
  8
DETAIL
  6
CONTINUOUS
 10
-183.0
 20
0.0
 30
0.0
 11
-100.0
 21
0.0
 31
0.0
  0
LINE
  5
279
  8
DETAIL
  6
CONTINUOUS
 10
-123.0
 20
25.0
 30
0.0
 11
-123.0
 21
150.0
 31
0.0
  0
ARC
  5
27A
  8
DETAIL
  6
CONTINUOUS
 10
-113.0
 20
25.0
 30
0.0
 40
10.0
 50
180.0
 51
270.0
  0
LINE
  5
27B
  8
DETAIL
  6
CONTINUOUS
 10
-113.0
 20
15.0
 30
0.0
 11
-105.0
 21
15.0
 31
0.0
  0
ARC
  5
27C
  8
DETAIL
  6
CONTINUOUS
 10
-105.0
 20
10.0
 30
0.0
 40
5.0
 50
0.0
 51
90.0
  0
LINE
  5
27D
  8
DETAIL
  6
CONTINUOUS
 10
-123.0
 20
25.0
 30
0.0
 11
-123.0
 21
150.0
 31
0.0
  0
LINE
  5
27E
  8
DETAIL
  6
CONTINUOUS
 10
-183.0
 20
0.0
 30
0.0
 11
-183.0
 21
150.0
 31
0.0
  0
LINE
  5
27F
  8
DETAIL
  6
CONTINUOUS
 10
-473.0
 20
25.0
 30
0.0
 11
-473.0
 21
117.0
 31
0.0
  0
LINE
  5
280
  8
DETAIL
  6
CONTINUOUS
 10
-483.0
 20
15.0
 30
0.0
 11
-491.0
 21
15.0
 31
0.0
  0
LINE
  5
281
  8
DETAIL
  6
CONTINUOUS
 10
-413.0
 20
0.0
 30
0.0
 11
-496.0
 21
0.0
 31
0.0
  0
ARC
  5
282
  8
DETAIL
  6
CONTINUOUS
 10
-483.0
 20
25.0
 30
0.0
 40
10.0
 50
270.0
 51
0.0
  0
ARC
  5
283
  8
DETAIL
  6
CONTINUOUS
 10
-491.0
 20
10.0
 30
0.0
 40
5.0
 50
90.0
 51
180.0
  0
LINE
  5
284
  8
DETAIL
  6
CONTINUOUS
 10
-496.0
 20
10.0
 30
0.0
 11
-496.0
 21
0.0
 31
0.0
  0
LINE
  5
285
  8
DETAIL
  6
CONTINUOUS
 10
-413.0
 20
0.0
 30
0.0
 11
-413.0
 21
150.0
 31
0.0
  0
LINE
  5
286
  8
DETAIL
  6
CONTINUOUS
 10
-500.0
 20
150.0
 30
0.0
 11
0.0
 21
150.0
 31
0.0
  0
LINE
  5
287
  8
DETAIL
  6
CONTINUOUS
 10
-183.0
 20
0.0
 30
0.0
 11
-183.0
 21
150.0
 31
0.0
  0
LINE
  5
288
  8
DETAIL
  6
CONTINUOUS
 10
-123.0
 20
25.0
 30
0.0
 11
-123.0
 21
150.0
 31
0.0
  0
LINE
  5
289
  8
DETAIL
  6
CONTINUOUS
 10
-500.0
 20
1695.0
 30
0.0
 11
-500.0
 21
150.0
 31
0.0
  0
LINE
  5
28A
  8
DETAIL
  6
CONTINUOUS
 10
-500.0
 20
1695.0
 30
0.0
 11
0.0
 21
1695.0
 31
0.0
  0
LINE
  5
28B
  8
DETAIL
  6
CONTINUOUS
 10
0.0
 20
1695.0
 30
0.0
 11
0.0
 21
150.0
 31
0.0
  0
LINE
  5
28C
  8
DETAIL
  6
DASHDOT
 10
-62.0
 20
1696.2
 30
0.0
 11
-62.0
 21
1695.0
 31
0.0
  0
LINE
  5
28D
  8
DETAIL
  6
DASHDOT
 10
78.8
 20
1696.2
 30
0.0
 11
-62.0
 21
1696.2
 31
0.0
  0
LINE
  5
28E
  8
DETAIL
  6
DASHDOT
 10
78.8
 20
1740.0
 30
0.0
 11
80.0
 21
1740.0
 31
0.0
  0
LINE
  5
28F
  8
DETAIL
  6
DASHDOT
 10
80.0
 20
1740.0
 30
0.0
 11
80.0
 21
1695.0
 31
0.0
  0
LINE
  5
290
  8
DETAIL
  6
DASHDOT
 10
78.8
 20
1740.0
 30
0.0
 11
78.8
 21
1696.2
 31
0.0
  0
LINE
  5
291
  8
DETAIL
  6
DASHDOT
 10
80.0
 20
1695.0
 30
0.0
 11
-62.0
 21
1695.0
 31
0.0
  0
LINE
  5
292
  8
DETAIL
  6
CONTINUOUS
 10
-100.0
 20
0.0
 30
0.0
 11
-60.0
 21
0.0
 31
0.0
  0
LINE
  5
293
  8
DETAIL
  6
CONTINUOUS
 10
-100.0
 20
3.2
 30
0.0
 11
-60.0
 21
3.2
 31
0.0
  0
LINE
  5
294
  8
DETAIL
  6
CONTINUOUS
 10
-100.0
 20
6.0
 30
0.0
 11
-100.0
 21
0.0
 31
0.0
  0
LINE
  5
295
  8
DETAIL
  6
CONTINUOUS
 10
-120.141428
 20
18.0
 30
0.0
 11
-60.0
 21
18.0
 31
0.0
  0
LINE
  5
296
  8
DETAIL
  6
CONTINUOUS
 10
-60.0
 20
18.0
 30
0.0
 11
-60.0
 21
0.0
 31
0.0
  0
LINE
  5
297
  8
DETAIL
  6
CONTINUOUS
 10
-468.0
 20
126.2
 30
0.0
 11
-468.0
 21
150.0
 31
0.0
  0
LINE
  5
298
  8
DETAIL
  6
CONTINUOUS
 10
-482.0
 20
126.2
 30
0.0
 11
-482.0
 21
150.0
 31
0.0
  0
LINE
  5
299
  8
DETAIL
  6
CONTINUOUS
 10
-484.0
 20
123.2
 30
0.0
 11
-466.0
 21
123.2
 31
0.0
  0
LINE
  5
29A
  8
DETAIL
  6
CONTINUOUS
 10
-484.0
 20
126.2
 30
0.0
 11
-466.0
 21
126.2
 31
0.0
  0
LINE
  5
29B
  8
DETAIL
  6
CONTINUOUS
 10
-466.0
 20
126.2
 30
0.0
 11
-466.0
 21
123.2
 31
0.0
  0
LINE
  5
29C
  8
DETAIL
  6
CONTINUOUS
 10
-484.0
 20
126.2
 30
0.0
 11
-484.0
 21
123.2
 31
0.0
  0
LINE
  5
29D
  8
DETAIL
  6
CONTINUOUS
 10
-479.0
 20
123.2
 30
0.0
 11
-479.0
 21
117.0
 31
0.0
  0
LINE
  5
29E
  8
DETAIL
  6
CONTINUOUS
 10
-471.0
 20
123.2
 30
0.0
 11
-471.0
 21
117.0
 31
0.0
  0
LINE
  5
29F
  8
DETAIL
  6
CONTINUOUS
 10
-479.0
 20
117.0
 30
0.0
 11
-471.0
 21
117.0
 31
0.0
  0
LINE
  5
2A0
  8
DETAIL
  6
CONTINUOUS
 10
0.0
 20
1668.0
 30
0.0
 11
-500.0
 21
1668.0
 31
0.0
  0
LINE
  5
2A1
  8
DETAIL
  6
CONTINUOUS
 10
-480.0
 20
1668.0
 30
0.0
 11
-480.0
 21
150.0
 31
0.0
  0
LINE
  5
2A2
  8
DETAIL
  6
CONTINUOUS
 10
-190.0
 20
1695.0
 30
0.0
 11
-190.0
 21
1730.0
 31
0.0
  0
LINE
  5
2A3
  8
DETAIL
  6
CONTINUOUS
 10
-190.0
 20
1730.0
 30
0.0
 11
-170.0
 21
1730.0
 31
0.0
  0
LINE
  5
2A4
  8
DETAIL
  6
CONTINUOUS
 10
-170.0
 20
1695.0
 30
0.0
 11
-170.0
 21
1730.0
 31
0.0
  0
LINE
  5
2A5
  8
BASIS
  6
DASHDOT
 10
-475.0
 20
111.146333
 30
0.0
 11
-475.0
 21
161.802299
 31
0.0
  0
LINE
  5
2A6
  8
SIZE
  6
CONTINUOUS
 62
    30
 10
-50.0
 20
0.0
 30
0.0
 11
260.1
 21
0.0
 31
0.0
  0
LINE
  5
2A7
  8
SIZE
  6
CONTINUOUS
 62
    30
 10
110.0
 20
1718.0
 30
0.0
 11
260.1
 21
1718.0
 31
0.0
  0
LINE
  5
2A8
  8
SIZE
  6
CONTINUOUS
 62
    30
 10
247.6
 20
10.0
 30
0.0
 11
247.6
 21
1708.0
 31
0.0
  0
CIRCLE
  5
2A9
  8
SIZE
  6
CONTINUOUS
 62
    30
 10
247.6
 20
0.0
 30
0.0
 40
5.0
  0
LINE
  5
2AA
  8
SIZE
  6
CONTINUOUS
 62
    30
 10
247.6
 20
0.0
 30
0.0
 11
247.6
 21
10.0
 31
0.0
  0
CIRCLE
  5
2AB
  8
SIZE
  6
CONTINUOUS
 62
    30
 10
247.6
 20
1718.0
 30
0.0
 40
5.0
  0
LINE
  5
2AC
  8
SIZE
  6
CONTINUOUS
 62
    30
 10
247.6
 20
1718.0
 30
0.0
 11
247.6
 21
1708.0
 31
0.0
  0
TEXT
  5
2AD
  8
SIZE
  6
CONTINUOUS
 62
    30
 10
237.6
 20
814.0
 30
0.0
 40
30.0
  1
1718
 50
90.0
 72
     1
 11
237.6
 21
859.0
 31
0.0
  0
POINT
  5
2AE
  8
DEFPOINTS
  6
CONTINUOUS
 62
    30
 10
-60.0
 20
0.0
 30
0.0
  0
POINT
  5
2AF
  8
DEFPOINTS
  6
CONTINUOUS
 62
    30
 10
100.0
 20
1718.0
 30
0.0
  0
POINT
  5
2B0
  8
DEFPOINTS
  6
CONTINUOUS
 62
    30
 10
247.6
 20
1718.0
 30
0.0
  0
LINE
  5
2B1
  8
SIZE
  6
CONTINUOUS
 62
    30
 10
-500.0
 20
-10.0
 30
0.0
 11
-500.0
 21
-360.1
 31
0.0
  0
LINE
  5
2B2
  8
SIZE
  6
CONTINUOUS
 62
    30
 10
-461.0
 20
120.0
 30
0.0
 11
-461.0
 21
-360.1
 31
0.0
  0
LINE
  5
2B3
  8
SIZE
  6
CONTINUOUS
 62
    30
 10
-510.0
 20
-347.6
 30
0.0
 11
-520.0
 21
-347.6
 31
0.0
  0
LINE
  5
2B4
  8
SIZE
  6
CONTINUOUS
 62
    30
 10
-451.0
 20
-347.6
 30
0.0
 11
-441.0
 21
-347.6
 31
0.0
  0
LINE
  5
2B5
  8
SIZE
  6
CONTINUOUS
 62
    30
 10
-500.0
 20
-347.6
 30
0.0
 11
-461.0
 21
-347.6
 31
0.0
  0
CIRCLE
  5
2B6
  8
SIZE
  6
CONTINUOUS
 62
    30
 10
-500.0
 20
-347.6
 30
0.0
 40
5.0
  0
LINE
  5
2B7
  8
SIZE
  6
CONTINUOUS
 62
    30
 10
-500.0
 20
-347.6
 30
0.0
 11
-510.0
 21
-347.6
 31
0.0
  0
CIRCLE
  5
2B8
  8
SIZE
  6
CONTINUOUS
 62
    30
 10
-461.0
 20
-347.6
 30
0.0
 40
5.0
  0
LINE
  5
2B9
  8
SIZE
  6
CONTINUOUS
 62
    30
 10
-461.0
 20
-347.6
 30
0.0
 11
-451.0
 21
-347.6
 31
0.0
  0
TEXT
  5
2BA
  8
SIZE
  6
CONTINUOUS
 62
    30
 10
-505.5
 20
-337.6
 30
0.0
 40
30.0
  1
39
 72
     1
 11
-480.5
 21
-337.6
 31
0.0
  0
POINT
  5
2BB
  8
DEFPOINTS
  6
CONTINUOUS
 62
    30
 10
-500.0
 20
0.0
 30
0.0
  0
POINT
  5
2BC
  8
DEFPOINTS
  6
CONTINUOUS
 62
    30
 10
-461.0
 20
130.0
 30
0.0
  0
POINT
  5
2BD
  8
DEFPOINTS
  6
CONTINUOUS
 62
    30
 10
-461.0
 20
-347.6
 30
0.0
  0
LINE
  5
2BE
  8
SIZE
  6
CONTINUOUS
 62
    30
 10
-50.0
 20
0.0
 30
0.0
 11
360.1
 21
0.0
 31
0.0
  0
LINE
  5
2BF
  8
SIZE
  6
CONTINUOUS
 62
    30
 10
90.0
 20
1740.0
 30
0.0
 11
360.1
 21
1740.0
 31
0.0
  0
LINE
  5
2C0
  8
SIZE
  6
CONTINUOUS
 62
    30
 10
347.6
 20
10.0
 30
0.0
 11
347.6
 21
1730.0
 31
0.0
  0
CIRCLE
  5
2C1
  8
SIZE
  6
CONTINUOUS
 62
    30
 10
347.6
 20
0.0
 30
0.0
 40
5.0
  0
LINE
  5
2C2
  8
SIZE
  6
CONTINUOUS
 62
    30
 10
347.6
 20
0.0
 30
0.0
 11
347.6
 21
10.0
 31
0.0
  0
CIRCLE
  5
2C3
  8
SIZE
  6
CONTINUOUS
 62
    30
 10
347.6
 20
1740.0
 30
0.0
 40
5.0
  0
LINE
  5
2C4
  8
SIZE
  6
CONTINUOUS
 62
    30
 10
347.6
 20
1740.0
 30
0.0
 11
347.6
 21
1730.0
 31
0.0
  0
TEXT
  5
2C5
  8
SIZE
  6
CONTINUOUS
 62
    30
 10
337.6
 20
822.5
 30
0.0
 40
30.0
  1
1740
 50
90.0
 72
     1
 11
337.6
 21
870.0
 31
0.0
  0
POINT
  5
2C6
  8
DEFPOINTS
  6
CONTINUOUS
 62
    30
 10
-60.0
 20
0.0
 30
0.0
  0
POINT
  5
2C7
  8
DEFPOINTS
  6
CONTINUOUS
 62
    30
 10
80.0
 20
1740.0
 30
0.0
  0
POINT
  5
2C8
  8
DEFPOINTS
  6
CONTINUOUS
 62
    30
 10
347.6
 20
1740.0
 30
0.0
  0
LINE
  5
2C9
  8
SIZE
  6
CONTINUOUS
 62
    30
 10
-170.0
 20
1740.0
 30
0.0
 11
-170.0
 21
2009.9
 31
0.0
  0
LINE
  5
2CA
  8
SIZE
  6
CONTINUOUS
 62
    30
 10
0.0
 20
1905.0
 30
0.0
 11
0.0
 21
2009.9
 31
0.0
  0
LINE
  5
2CB
  8
SIZE
  6
CONTINUOUS
 62
    30
 10
-160.0
 20
1997.4
 30
0.0
 11
-10.0
 21
1997.4
 31
0.0
  0
CIRCLE
  5
2CC
  8
SIZE
  6
CONTINUOUS
 62
    30
 10
-170.0
 20
1997.4
 30
0.0
 40
5.0
  0
LINE
  5
2CD
  8
SIZE
  6
CONTINUOUS
 62
    30
 10
-170.0
 20
1997.4
 30
0.0
 11
-160.0
 21
1997.4
 31
0.0
  0
CIRCLE
  5
2CE
  8
SIZE
  6
CONTINUOUS
 62
    30
 10
0.0
 20
1997.4
 30
0.0
 40
5.0
  0
LINE
  5
2CF
  8
SIZE
  6
CONTINUOUS
 62
    30
 10
0.0
 20
1997.4
 30
0.0
 11
-10.0
 21
1997.4
 31
0.0
  0
TEXT
  5
2D0
  8
SIZE
  6
CONTINUOUS
 62
    30
 10
-117.5
 20
2007.4
 30
0.0
 40
30.0
  1
170
 72
     1
 11
-85.0
 21
2007.4
 31
0.0
  0
POINT
  5
2D1
  8
DEFPOINTS
  6
CONTINUOUS
 62
    30
 10
-170.0
 20
1730.0
 30
0.0
  0
POINT
  5
2D2
  8
DEFPOINTS
  6
CONTINUOUS
 62
    30
 10
0.0
 20
1895.0
 30
0.0
  0
POINT
  5
2D3
  8
DEFPOINTS
  6
CONTINUOUS
 62
    30
 10
0.0
 20
1997.4
 30
0.0
  0
LINE
  5
2D4
  8
SIZE
  6
CONTINUOUS
 62
    30
 10
-500.0
 20
-10.0
 30
0.0
 11
-500.0
 21
-660.1
 31
0.0
  0
LINE
  5
2D5
  8
SIZE
  6
CONTINUOUS
 62
    30
 10
-427.0
 20
120.0
 30
0.0
 11
-427.0
 21
-660.1
 31
0.0
  0
LINE
  5
2D6
  8
SIZE
  6
CONTINUOUS
 62
    30
 10
-490.0
 20
-647.6
 30
0.0
 11
-437.0
 21
-647.6
 31
0.0
  0
CIRCLE
  5
2D7
  8
SIZE
  6
CONTINUOUS
 62
    30
 10
-500.0
 20
-647.6
 30
0.0
 40
5.0
  0
LINE
  5
2D8
  8
SIZE
  6
CONTINUOUS
 62
    30
 10
-500.0
 20
-647.6
 30
0.0
 11
-490.0
 21
-647.6
 31
0.0
  0
CIRCLE
  5
2D9
  8
SIZE
  6
CONTINUOUS
 62
    30
 10
-427.0
 20
-647.6
 30
0.0
 40
5.0
  0
LINE
  5
2DA
  8
SIZE
  6
CONTINUOUS
 62
    30
 10
-427.0
 20
-647.6
 30
0.0
 11
-437.0
 21
-647.6
 31
0.0
  0
TEXT
  5
2DB
  8
SIZE
  6
CONTINUOUS
 62
    30
 10
-488.5
 20
-637.6
 30
0.0
 40
30.0
  1
73
 72
     1
 11
-463.5
 21
-637.6
 31
0.0
  0
POINT
  5
2DC
  8
DEFPOINTS
  6
CONTINUOUS
 62
    30
 10
-500.0
 20
0.0
 30
0.0
  0
POINT
  5
2DD
  8
DEFPOINTS
  6
CONTINUOUS
 62
    30
 10
-427.0
 20
130.0
 30
0.0
  0
POINT
  5
2DE
  8
DEFPOINTS
  6
CONTINUOUS
 62
    30
 10
-427.0
 20
-647.6
 30
0.0
  0
LINE
  5
2DF
  8
SIZE
  6
CONTINUOUS
 62
    30
 10
0.0
 20
1705.0
 30
0.0
 11
0.0
 21
2009.9
 31
0.0
  0
LINE
  5
2E0
  8
SIZE
  6
CONTINUOUS
 62
    30
 10
80.0
 20
1750.0
 30
0.0
 11
80.0
 21
2009.9
 31
0.0
  0
LINE
  5
2E1
  8
SIZE
  6
CONTINUOUS
 62
    30
 10
10.0
 20
1997.4
 30
0.0
 11
70.0
 21
1997.4
 31
0.0
  0
CIRCLE
  5
2E2
  8
SIZE
  6
CONTINUOUS
 62
    30
 10
0.0
 20
1997.4
 30
0.0
 40
5.0
  0
LINE
  5
2E3
  8
SIZE
  6
CONTINUOUS
 62
    30
 10
0.0
 20
1997.4
 30
0.0
 11
10.0
 21
1997.4
 31
0.0
  0
CIRCLE
  5
2E4
  8
SIZE
  6
CONTINUOUS
 62
    30
 10
80.0
 20
1997.4
 30
0.0
 40
5.0
  0
LINE
  5
2E5
  8
SIZE
  6
CONTINUOUS
 62
    30
 10
80.0
 20
1997.4
 30
0.0
 11
70.0
 21
1997.4
 31
0.0
  0
TEXT
  5
2E6
  8
SIZE
  6
CONTINUOUS
 62
    30
 10
17.5
 20
2007.4
 30
0.0
 40
30.0
  1
80
 72
     1
 11
40.0
 21
2007.4
 31
0.0
  0
POINT
  5
2E7
  8
DEFPOINTS
  6
CONTINUOUS
 62
    30
 10
0.0
 20
1695.0
 30
0.0
  0
POINT
  5
2E8
  8
DEFPOINTS
  6
CONTINUOUS
 62
    30
 10
80.0
 20
1740.0
 30
0.0
  0
POINT
  5
2E9
  8
DEFPOINTS
  6
CONTINUOUS
 62
    30
 10
80.0
 20
1997.4
 30
0.0
  0
LINE
  5
2EA
  8
SIZE
  6
CONTINUOUS
 62
    30
 10
10.0
 20
150.0
 30
0.0
 11
160.1
 21
150.0
 31
0.0
  0
LINE
  5
2EB
  8
SIZE
  6
CONTINUOUS
 62
    30
 10
90.0
 20
1695.0
 30
0.0
 11
160.1
 21
1695.0
 31
0.0
  0
LINE
  5
2EC
  8
SIZE
  6
CONTINUOUS
 62
    30
 10
147.6
 20
160.0
 30
0.0
 11
147.6
 21
1685.0
 31
0.0
  0
CIRCLE
  5
2ED
  8
SIZE
  6
CONTINUOUS
 62
    30
 10
147.6
 20
150.0
 30
0.0
 40
5.0
  0
LINE
  5
2EE
  8
SIZE
  6
CONTINUOUS
 62
    30
 10
147.6
 20
150.0
 30
0.0
 11
147.6
 21
160.0
 31
0.0
  0
CIRCLE
  5
2EF
  8
SIZE
  6
CONTINUOUS
 62
    30
 10
147.6
 20
1695.0
 30
0.0
 40
5.0
  0
LINE
  5
2F0
  8
SIZE
  6
CONTINUOUS
 62
    30
 10
147.6
 20
1695.0
 30
0.0
 11
147.6
 21
1685.0
 31
0.0
  0
TEXT
  5
2F1
  8
SIZE
  6
CONTINUOUS
 62
    30
 10
137.6
 20
872.5
 30
0.0
 40
30.0
  1
1545
 50
90.0
 72
     1
 11
137.6
 21
922.5
 31
0.0
  0
POINT
  5
2F2
  8
DEFPOINTS
  6
CONTINUOUS
 62
    30
 10
0.0
 20
150.0
 30
0.0
  0
POINT
  5
2F3
  8
DEFPOINTS
  6
CONTINUOUS
 62
    30
 10
80.0
 20
1695.0
 30
0.0
  0
POINT
  5
2F4
  8
DEFPOINTS
  6
CONTINUOUS
 62
    30
 10
147.6
 20
1695.0
 30
0.0
  0
LINE
  5
2F5
  8
SIZE
  6
CONTINUOUS
 62
    30
 10
90.0
 20
1695.0
 30
0.0
 11
160.1
 21
1695.0
 31
0.0
  0
LINE
  5
2F6
  8
SIZE
  6
CONTINUOUS
 62
    30
 10
-160.0
 20
1730.0
 30
0.0
 11
160.1
 21
1730.0
 31
0.0
  0
LINE
  5
2F7
  8
SIZE
  6
CONTINUOUS
 62
    30
 10
147.6
 20
1685.0
 30
0.0
 11
147.6
 21
1675.0
 31
0.0
  0
LINE
  5
2F8
  8
SIZE
  6
CONTINUOUS
 62
    30
 10
147.6
 20
1740.0
 30
0.0
 11
147.6
 21
1820.0
 31
0.0
  0
LINE
  5
2F9
  8
SIZE
  6
CONTINUOUS
 62
    30
 10
147.6
 20
1695.0
 30
0.0
 11
147.6
 21
1730.0
 31
0.0
  0
CIRCLE
  5
2FA
  8
SIZE
  6
CONTINUOUS
 62
    30
 10
147.6
 20
1695.0
 30
0.0
 40
5.0
  0
LINE
  5
2FB
  8
SIZE
  6
CONTINUOUS
 62
    30
 10
147.6
 20
1695.0
 30
0.0
 11
147.6
 21
1685.0
 31
0.0
  0
CIRCLE
  5
2FC
  8
SIZE
  6
CONTINUOUS
 62
    30
 10
147.6
 20
1730.0
 30
0.0
 40
5.0
  0
LINE
  5
2FD
  8
SIZE
  6
CONTINUOUS
 62
    30
 10
147.6
 20
1730.0
 30
0.0
 11
147.6
 21
1740.0
 31
0.0
  0
TEXT
  5
2FE
  8
SIZE
  6
CONTINUOUS
 62
    30
 10
137.6
 20
1760.0
 30
0.0
 40
30.0
  1
35
 50
90.0
 72
     1
 11
137.6
 21
1785.0
 31
0.0
  0
POINT
  5
2FF
  8
DEFPOINTS
  6
CONTINUOUS
 62
    30
 10
80.0
 20
1695.0
 30
0.0
  0
POINT
  5
300
  8
DEFPOINTS
  6
CONTINUOUS
 62
    30
 10
-170.0
 20
1730.0
 30
0.0
  0
POINT
  5
301
  8
DEFPOINTS
  6
CONTINUOUS
 62
    30
 10
147.6
 20
1730.0
 30
0.0
  0
LINE
  5
302
  8
SIZE
  6
CONTINUOUS
 62
    30
 10
-90.0
 20
0.0
 30
0.0
 11
460.1
 21
0.0
 31
0.0
  0
LINE
  5
303
  8
SIZE
  6
CONTINUOUS
 62
    30
 10
10.0
 20
1695.0
 30
0.0
 11
460.1
 21
1695.0
 31
0.0
  0
LINE
  5
304
  8
SIZE
  6
CONTINUOUS
 62
    30
 10
447.6
 20
10.0
 30
0.0
 11
447.6
 21
1685.0
 31
0.0
  0
CIRCLE
  5
305
  8
SIZE
  6
CONTINUOUS
 62
    30
 10
447.6
 20
0.0
 30
0.0
 40
5.0
  0
LINE
  5
306
  8
SIZE
  6
CONTINUOUS
 62
    30
 10
447.6
 20
0.0
 30
0.0
 11
447.6
 21
10.0
 31
0.0
  0
CIRCLE
  5
307
  8
SIZE
  6
CONTINUOUS
 62
    30
 10
447.6
 20
1695.0
 30
0.0
 40
5.0
  0
LINE
  5
308
  8
SIZE
  6
CONTINUOUS
 62
    30
 10
447.6
 20
1695.0
 30
0.0
 11
447.6
 21
1685.0
 31
0.0
  0
TEXT
  5
309
  8
SIZE
  6
CONTINUOUS
 62
    30
 10
437.6
 20
872.724914
 30
0.0
 40
30.0
  1
1695
 50
90.0
 72
     1
 11
437.6
 21
922.724914
 31
0.0
  0
POINT
  5
30A
  8
DEFPOINTS
  6
CONTINUOUS
 62
    30
 10
-100.0
 20
0.0
 30
0.0
  0
POINT
  5
30B
  8
DEFPOINTS
  6
CONTINUOUS
 62
    30
 10
0.0
 20
1695.0
 30
0.0
  0
POINT
  5
30C
  8
DEFPOINTS
  6
CONTINUOUS
 62
    30
 10
447.6
 20
1695.0
 30
0.0
  0
LINE
  5
30D
  8
SIZE
  6
CONTINUOUS
 62
    30
 10
10.0
 20
1895.0
 30
0.0
 11
460.1
 21
1895.0
 31
0.0
  0
LINE
  5
30E
  8
SIZE
  6
CONTINUOUS
 62
    30
 10
10.0
 20
1695.0
 30
0.0
 11
460.1
 21
1695.0
 31
0.0
  0
LINE
  5
30F
  8
SIZE
  6
CONTINUOUS
 62
    30
 10
447.6
 20
1885.0
 30
0.0
 11
447.6
 21
1705.0
 31
0.0
  0
CIRCLE
  5
310
  8
SIZE
  6
CONTINUOUS
 62
    30
 10
447.6
 20
1895.0
 30
0.0
 40
5.0
  0
LINE
  5
311
  8
SIZE
  6
CONTINUOUS
 62
    30
 10
447.6
 20
1895.0
 30
0.0
 11
447.6
 21
1885.0
 31
0.0
  0
CIRCLE
  5
312
  8
SIZE
  6
CONTINUOUS
 62
    30
 10
447.6
 20
1695.0
 30
0.0
 40
5.0
  0
LINE
  5
313
  8
SIZE
  6
CONTINUOUS
 62
    30
 10
447.6
 20
1695.0
 30
0.0
 11
447.6
 21
1705.0
 31
0.0
  0
TEXT
  5
314
  8
SIZE
  6
CONTINUOUS
 62
    30
 10
437.6
 20
1733.540097
 30
0.0
 40
30.0
  1
200
 50
90.0
 72
     1
 11
437.6
 21
1768.540097
 31
0.0
  0
POINT
  5
315
  8
DEFPOINTS
  6
CONTINUOUS
 62
    30
 10
0.0
 20
1895.0
 30
0.0
  0
POINT
  5
316
  8
DEFPOINTS
  6
CONTINUOUS
 62
    30
 10
0.0
 20
1695.0
 30
0.0
  0
POINT
  5
317
  8
DEFPOINTS
  6
CONTINUOUS
 62
    30
 10
447.6
 20
1695.0
 30
0.0
  0
LINE
  5
318
  8
SIZE
  6
CONTINUOUS
 62
    30
 10
0.0
 20
1905.0
 30
0.0
 11
0.0
 21
2109.9
 31
0.0
  0
LINE
  5
319
  8
SIZE
  6
CONTINUOUS
 62
    30
 10
-500.0
 20
1905.0
 30
0.0
 11
-500.0
 21
2109.9
 31
0.0
  0
LINE
  5
31A
  8
SIZE
  6
CONTINUOUS
 62
    30
 10
-10.0
 20
2097.4
 30
0.0
 11
-490.0
 21
2097.4
 31
0.0
  0
CIRCLE
  5
31B
  8
SIZE
  6
CONTINUOUS
 62
    30
 10
0.0
 20
2097.4
 30
0.0
 40
5.0
  0
LINE
  5
31C
  8
SIZE
  6
CONTINUOUS
 62
    30
 10
0.0
 20
2097.4
 30
0.0
 11
-10.0
 21
2097.4
 31
0.0
  0
CIRCLE
  5
31D
  8
SIZE
  6
CONTINUOUS
 62
    30
 10
-500.0
 20
2097.4
 30
0.0
 40
5.0
  0
LINE
  5
31E
  8
SIZE
  6
CONTINUOUS
 62
    30
 10
-500.0
 20
2097.4
 30
0.0
 11
-490.0
 21
2097.4
 31
0.0
  0
TEXT
  5
31F
  8
SIZE
  6
CONTINUOUS
 62
    30
 10
-285.0
 20
2107.4
 30
0.0
 40
30.0
  1
500
 72
     1
 11
-250.0
 21
2107.4
 31
0.0
  0
POINT
  5
320
  8
DEFPOINTS
  6
CONTINUOUS
 62
    30
 10
0.0
 20
1895.0
 30
0.0
  0
POINT
  5
321
  8
DEFPOINTS
  6
CONTINUOUS
 62
    30
 10
-500.0
 20
1895.0
 30
0.0
  0
POINT
  5
322
  8
DEFPOINTS
  6
CONTINUOUS
 62
    30
 10
-500.0
 20
2097.4
 30
0.0
  0
LINE
  5
323
  8
SIZE
  6
CONTINUOUS
 62
    30
 10
-1100.0
 20
1905.0
 30
0.0
 11
-1100.0
 21
2109.9
 31
0.0
  0
LINE
  5
324
  8
SIZE
  6
CONTINUOUS
 62
    30
 10
-500.0
 20
1905.0
 30
0.0
 11
-500.0
 21
2109.9
 31
0.0
  0
LINE
  5
325
  8
SIZE
  6
CONTINUOUS
 62
    30
 10
-1090.0
 20
2097.4
 30
0.0
 11
-510.0
 21
2097.4
 31
0.0
  0
CIRCLE
  5
326
  8
SIZE
  6
CONTINUOUS
 62
    30
 10
-1100.0
 20
2097.4
 30
0.0
 40
5.0
  0
LINE
  5
327
  8
SIZE
  6
CONTINUOUS
 62
    30
 10
-1100.0
 20
2097.4
 30
0.0
 11
-1090.0
 21
2097.4
 31
0.0
  0
CIRCLE
  5
328
  8
SIZE
  6
CONTINUOUS
 62
    30
 10
-500.0
 20
2097.4
 30
0.0
 40
5.0
  0
LINE
  5
329
  8
SIZE
  6
CONTINUOUS
 62
    30
 10
-500.0
 20
2097.4
 30
0.0
 11
-510.0
 21
2097.4
 31
0.0
  0
TEXT
  5
32A
  8
SIZE
  6
CONTINUOUS
 62
    30
 10
-835.0
 20
2107.4
 30
0.0
 40
30.0
  1
600
 72
     1
 11
-800.0
 21
2107.4
 31
0.0
  0
POINT
  5
32B
  8
DEFPOINTS
  6
CONTINUOUS
 62
    30
 10
-1100.0
 20
1895.0
 30
0.0
  0
POINT
  5
32C
  8
DEFPOINTS
  6
CONTINUOUS
 62
    30
 10
-500.0
 20
1895.0
 30
0.0
  0
POINT
  5
32D
  8
DEFPOINTS
  6
CONTINUOUS
 62
    30
 10
-500.0
 20
2097.4
 30
0.0
  0
LINE
  5
32E
  8
SIZE
  6
CONTINUOUS
 62
    30
 10
-500.0
 20
-10.0
 30
0.0
 11
-500.0
 21
-560.1
 31
0.0
  0
LINE
  5
32F
  8
SIZE
  6
CONTINUOUS
 62
    30
 10
-446.0
 20
120.0
 30
0.0
 11
-446.0
 21
-560.1
 31
0.0
  0
LINE
  5
330
  8
SIZE
  6
CONTINUOUS
 62
    30
 10
-490.0
 20
-547.6
 30
0.0
 11
-456.0
 21
-547.6
 31
0.0
  0
CIRCLE
  5
331
  8
SIZE
  6
CONTINUOUS
 62
    30
 10
-500.0
 20
-547.6
 30
0.0
 40
5.0
  0
LINE
  5
332
  8
SIZE
  6
CONTINUOUS
 62
    30
 10
-500.0
 20
-547.6
 30
0.0
 11
-490.0
 21
-547.6
 31
0.0
  0
CIRCLE
  5
333
  8
SIZE
  6
CONTINUOUS
 62
    30
 10
-446.0
 20
-547.6
 30
0.0
 40
5.0
  0
LINE
  5
334
  8
SIZE
  6
CONTINUOUS
 62
    30
 10
-446.0
 20
-547.6
 30
0.0
 11
-456.0
 21
-547.6
 31
0.0
  0
TEXT
  5
335
  8
SIZE
  6
CONTINUOUS
 62
    30
 10
-498.0
 20
-537.6
 30
0.0
 40
30.0
  1
54
 72
     1
 11
-473.0
 21
-537.6
 31
0.0
  0
POINT
  5
336
  8
DEFPOINTS
  6
CONTINUOUS
 62
    30
 10
-500.0
 20
0.0
 30
0.0
  0
POINT
  5
337
  8
DEFPOINTS
  6
CONTINUOUS
 62
    30
 10
-446.0
 20
130.0
 30
0.0
  0
POINT
  5
338
  8
DEFPOINTS
  6
CONTINUOUS
 62
    30
 10
-446.0
 20
-547.6
 30
0.0
  0
LINE
  5
339
  8
SIZE
  6
CONTINUOUS
 62
    30
 10
-500.0
 20
-10.0
 30
0.0
 11
-500.0
 21
-460.1
 31
0.0
  0
LINE
  5
33A
  8
SIZE
  6
CONTINUOUS
 62
    30
 10
-450.0
 20
120.0
 30
0.0
 11
-450.0
 21
-460.1
 31
0.0
  0
LINE
  5
33B
  8
SIZE
  6
CONTINUOUS
 62
    30
 10
-490.0
 20
-447.6
 30
0.0
 11
-460.0
 21
-447.6
 31
0.0
  0
CIRCLE
  5
33C
  8
SIZE
  6
CONTINUOUS
 62
    30
 10
-500.0
 20
-447.6
 30
0.0
 40
5.0
  0
LINE
  5
33D
  8
SIZE
  6
CONTINUOUS
 62
    30
 10
-500.0
 20
-447.6
 30
0.0
 11
-490.0
 21
-447.6
 31
0.0
  0
CIRCLE
  5
33E
  8
SIZE
  6
CONTINUOUS
 62
    30
 10
-450.0
 20
-447.6
 30
0.0
 40
5.0
  0
LINE
  5
33F
  8
SIZE
  6
CONTINUOUS
 62
    30
 10
-450.0
 20
-447.6
 30
0.0
 11
-460.0
 21
-447.6
 31
0.0
  0
TEXT
  5
340
  8
SIZE
  6
CONTINUOUS
 62
    30
 10
-497.5
 20
-437.6
 30
0.0
 40
30.0
  1
50
 72
     1
 11
-475.0
 21
-437.6
 31
0.0
  0
POINT
  5
341
  8
DEFPOINTS
  6
CONTINUOUS
 62
    30
 10
-500.0
 20
0.0
 30
0.0
  0
POINT
  5
342
  8
DEFPOINTS
  6
CONTINUOUS
 62
    30
 10
-450.0
 20
130.0
 30
0.0
  0
POINT
  5
343
  8
DEFPOINTS
  6
CONTINUOUS
 62
    30
 10
-450.0
 20
-447.6
 30
0.0
  0
LINE
  5
344
  8
SIZE
  6
CONTINUOUS
 62
    30
 10
-481.0
 20
-30.0
 30
0.0
 11
-481.0
 21
-260.1
 31
0.0
  0
LINE
  5
345
  8
SIZE
  6
CONTINUOUS
 62
    30
 10
-500.0
 20
-10.0
 30
0.0
 11
-500.0
 21
-260.1
 31
0.0
  0
LINE
  5
346
  8
SIZE
  6
CONTINUOUS
 62
    30
 10
-471.0
 20
-247.6
 30
0.0
 11
-461.0
 21
-247.6
 31
0.0
  0
LINE
  5
347
  8
SIZE
  6
CONTINUOUS
 62
    30
 10
-510.0
 20
-247.6
 30
0.0
 11
-520.0
 21
-247.6
 31
0.0
  0
LINE
  5
348
  8
SIZE
  6
CONTINUOUS
 62
    30
 10
-481.0
 20
-247.6
 30
0.0
 11
-500.0
 21
-247.6
 31
0.0
  0
CIRCLE
  5
349
  8
SIZE
  6
CONTINUOUS
 62
    30
 10
-481.0
 20
-247.6
 30
0.0
 40
5.0
  0
LINE
  5
34A
  8
SIZE
  6
CONTINUOUS
 62
    30
 10
-481.0
 20
-247.6
 30
0.0
 11
-471.0
 21
-247.6
 31
0.0
  0
CIRCLE
  5
34B
  8
SIZE
  6
CONTINUOUS
 62
    30
 10
-500.0
 20
-247.6
 30
0.0
 40
5.0
  0
LINE
  5
34C
  8
SIZE
  6
CONTINUOUS
 62
    30
 10
-500.0
 20
-247.6
 30
0.0
 11
-510.0
 21
-247.6
 31
0.0
  0
TEXT
  5
34D
  8
SIZE
  6
CONTINUOUS
 62
    30
 10
-510.5
 20
-237.6
 30
0.0
 40
30.0
  1
19
 72
     1
 11
-490.5
 21
-237.6
 31
0.0
  0
POINT
  5
34E
  8
DEFPOINTS
  6
CONTINUOUS
 62
    30
 10
-481.0
 20
-20.0
 30
0.0
  0
POINT
  5
34F
  8
DEFPOINTS
  6
CONTINUOUS
 62
    30
 10
-500.0
 20
0.0
 30
0.0
  0
POINT
  5
350
  8
DEFPOINTS
  6
CONTINUOUS
 62
    30
 10
-500.0
 20
-247.6
 30
0.0
  0
LINE
  5
351
  8
SIZE
  6
CONTINUOUS
 62
    30
 10
0.0
 20
140.0
 30
0.0
 11
0.0
 21
-260.1
 31
0.0
  0
LINE
  5
352
  8
SIZE
  6
CONTINUOUS
 62
    30
 10
-115.0
 20
-30.0
 30
0.0
 11
-115.0
 21
-260.1
 31
0.0
  0
LINE
  5
353
  8
SIZE
  6
CONTINUOUS
 62
    30
 10
-10.0
 20
-247.6
 30
0.0
 11
-105.0
 21
-247.6
 31
0.0
  0
CIRCLE
  5
354
  8
SIZE
  6
CONTINUOUS
 62
    30
 10
0.0
 20
-247.6
 30
0.0
 40
5.0
  0
LINE
  5
355
  8
SIZE
  6
CONTINUOUS
 62
    30
 10
0.0
 20
-247.6
 30
0.0
 11
-10.0
 21
-247.6
 31
0.0
  0
CIRCLE
  5
356
  8
SIZE
  6
CONTINUOUS
 62
    30
 10
-115.0
 20
-247.6
 30
0.0
 40
5.0
  0
LINE
  5
357
  8
SIZE
  6
CONTINUOUS
 62
    30
 10
-115.0
 20
-247.6
 30
0.0
 11
-105.0
 21
-247.6
 31
0.0
  0
TEXT
  5
358
  8
SIZE
  6
CONTINUOUS
 62
    30
 10
-87.5
 20
-237.6
 30
0.0
 40
30.0
  1
115
 72
     1
 11
-57.5
 21
-237.6
 31
0.0
  0
POINT
  5
359
  8
DEFPOINTS
  6
CONTINUOUS
 62
    30
 10
0.0
 20
150.0
 30
0.0
  0
POINT
  5
35A
  8
DEFPOINTS
  6
CONTINUOUS
 62
    30
 10
-115.0
 20
-20.0
 30
0.0
  0
POINT
  5
35B
  8
DEFPOINTS
  6
CONTINUOUS
 62
    30
 10
-115.0
 20
-247.6
 30
0.0
  0
LINE
  5
35C
  8
SIZE
  6
CONTINUOUS
 62
    30
 10
-80.0
 20
-30.0
 30
0.0
 11
-80.0
 21
-160.1
 31
0.0
  0
LINE
  5
35D
  8
SIZE
  6
CONTINUOUS
 62
    30
 10
0.0
 20
140.0
 30
0.0
 11
0.0
 21
-160.1
 31
0.0
  0
LINE
  5
35E
  8
SIZE
  6
CONTINUOUS
 62
    30
 10
-70.0
 20
-147.6
 30
0.0
 11
-10.0
 21
-147.6
 31
0.0
  0
CIRCLE
  5
35F
  8
SIZE
  6
CONTINUOUS
 62
    30
 10
-80.0
 20
-147.6
 30
0.0
 40
5.0
  0
LINE
  5
360
  8
SIZE
  6
CONTINUOUS
 62
    30
 10
-80.0
 20
-147.6
 30
0.0
 11
-70.0
 21
-147.6
 31
0.0
  0
CIRCLE
  5
361
  8
SIZE
  6
CONTINUOUS
 62
    30
 10
0.0
 20
-147.6
 30
0.0
 40
5.0
  0
LINE
  5
362
  8
SIZE
  6
CONTINUOUS
 62
    30
 10
0.0
 20
-147.6
 30
0.0
 11
-10.0
 21
-147.6
 31
0.0
  0
TEXT
  5
363
  8
SIZE
  6
CONTINUOUS
 62
    30
 10
-62.5
 20
-137.6
 30
0.0
 40
30.0
  1
80
 72
     1
 11
-40.0
 21
-137.6
 31
0.0
  0
POINT
  5
364
  8
DEFPOINTS
  6
CONTINUOUS
 62
    30
 10
-80.0
 20
-20.0
 30
0.0
  0
POINT
  5
365
  8
DEFPOINTS
  6
CONTINUOUS
 62
    30
 10
0.0
 20
150.0
 30
0.0
  0
POINT
  5
366
  8
DEFPOINTS
  6
CONTINUOUS
 62
    30
 10
0.0
 20
-147.6
 30
0.0
  0
LINE
  5
367
  8
SIZE
  6
CONTINUOUS
 62
    30
 10
0.0
 20
140.0
 30
0.0
 11
0.0
 21
-760.1
 31
0.0
  0
LINE
  5
368
  8
SIZE
  6
CONTINUOUS
 62
    30
 10
-500.0
 20
-10.0
 30
0.0
 11
-500.0
 21
-760.1
 31
0.0
  0
LINE
  5
369
  8
SIZE
  6
CONTINUOUS
 62
    30
 10
-10.0
 20
-747.6
 30
0.0
 11
-490.0
 21
-747.6
 31
0.0
  0
CIRCLE
  5
36A
  8
SIZE
  6
CONTINUOUS
 62
    30
 10
0.0
 20
-747.6
 30
0.0
 40
5.0
  0
LINE
  5
36B
  8
SIZE
  6
CONTINUOUS
 62
    30
 10
0.0
 20
-747.6
 30
0.0
 11
-10.0
 21
-747.6
 31
0.0
  0
CIRCLE
  5
36C
  8
SIZE
  6
CONTINUOUS
 62
    30
 10
-500.0
 20
-747.6
 30
0.0
 40
5.0
  0
LINE
  5
36D
  8
SIZE
  6
CONTINUOUS
 62
    30
 10
-500.0
 20
-747.6
 30
0.0
 11
-490.0
 21
-747.6
 31
0.0
  0
TEXT
  5
36E
  8
SIZE
  6
CONTINUOUS
 62
    30
 10
-285.0
 20
-737.6
 30
0.0
 40
30.0
  1
500
 72
     1
 11
-250.0
 21
-737.6
 31
0.0
  0
POINT
  5
36F
  8
DEFPOINTS
  6
CONTINUOUS
 62
    30
 10
0.0
 20
150.0
 30
0.0
  0
POINT
  5
370
  8
DEFPOINTS
  6
CONTINUOUS
 62
    30
 10
-500.0
 20
0.0
 30
0.0
  0
POINT
  5
371
  8
DEFPOINTS
  6
CONTINUOUS
 62
    30
 10
-500.0
 20
-747.6
 30
0.0
  0
LINE
  5
372
  8
SIZE
  6
CONTINUOUS
 62
    30
 10
-481.0
 20
-30.0
 30
0.0
 11
-481.0
 21
-260.1
 31
0.0
  0
LINE
  5
373
  8
SIZE
  6
CONTINUOUS
 62
    30
 10
-115.0
 20
-30.0
 30
0.0
 11
-115.0
 21
-260.1
 31
0.0
  0
LINE
  5
374
  8
SIZE
  6
CONTINUOUS
 62
    30
 10
-471.0
 20
-247.6
 30
0.0
 11
-125.0
 21
-247.6
 31
0.0
  0
CIRCLE
  5
375
  8
SIZE
  6
CONTINUOUS
 62
    30
 10
-481.0
 20
-247.6
 30
0.0
 40
5.0
  0
LINE
  5
376
  8
SIZE
  6
CONTINUOUS
 62
    30
 10
-481.0
 20
-247.6
 30
0.0
 11
-471.0
 21
-247.6
 31
0.0
  0
CIRCLE
  5
377
  8
SIZE
  6
CONTINUOUS
 62
    30
 10
-115.0
 20
-247.6
 30
0.0
 40
5.0
  0
LINE
  5
378
  8
SIZE
  6
CONTINUOUS
 62
    30
 10
-115.0
 20
-247.6
 30
0.0
 11
-125.0
 21
-247.6
 31
0.0
  0
TEXT
  5
379
  8
SIZE
  6
CONTINUOUS
 62
    30
 10
-338.0
 20
-237.6
 30
0.0
 40
30.0
  1
366
 72
     1
 11
-298.0
 21
-237.6
 31
0.0
  0
POINT
  5
37A
  8
DEFPOINTS
  6
CONTINUOUS
 62
    30
 10
-481.0
 20
-20.0
 30
0.0
  0
POINT
  5
37B
  8
DEFPOINTS
  6
CONTINUOUS
 62
    30
 10
-115.0
 20
-20.0
 30
0.0
  0
POINT
  5
37C
  8
DEFPOINTS
  6
CONTINUOUS
 62
    30
 10
-115.0
 20
-247.6
 30
0.0
  0
LINE
  5
37D
  8
SIZE
  6
CONTINUOUS
 62
    30
 10
-80.0
 20
-30.0
 30
0.0
 11
-80.0
 21
-160.1
 31
0.0
  0
LINE
  5
37E
  8
SIZE
  6
CONTINUOUS
 62
    30
 10
-481.0
 20
-30.0
 30
0.0
 11
-481.0
 21
-160.1
 31
0.0
  0
LINE
  5
37F
  8
SIZE
  6
CONTINUOUS
 62
    30
 10
-90.0
 20
-147.6
 30
0.0
 11
-471.0
 21
-147.6
 31
0.0
  0
CIRCLE
  5
380
  8
SIZE
  6
CONTINUOUS
 62
    30
 10
-80.0
 20
-147.6
 30
0.0
 40
5.0
  0
LINE
  5
381
  8
SIZE
  6
CONTINUOUS
 62
    30
 10
-80.0
 20
-147.6
 30
0.0
 11
-90.0
 21
-147.6
 31
0.0
  0
CIRCLE
  5
382
  8
SIZE
  6
CONTINUOUS
 62
    30
 10
-481.0
 20
-147.6
 30
0.0
 40
5.0
  0
LINE
  5
383
  8
SIZE
  6
CONTINUOUS
 62
    30
 10
-481.0
 20
-147.6
 30
0.0
 11
-471.0
 21
-147.6
 31
0.0
  0
TEXT
  5
384
  8
SIZE
  6
CONTINUOUS
 62
    30
 10
-313.0
 20
-137.6
 30
0.0
 40
30.0
  1
401
 72
     1
 11
-280.5
 21
-137.6
 31
0.0
  0
POINT
  5
385
  8
DEFPOINTS
  6
CONTINUOUS
 62
    30
 10
-80.0
 20
-20.0
 30
0.0
  0
POINT
  5
386
  8
DEFPOINTS
  6
CONTINUOUS
 62
    30
 10
-481.0
 20
-20.0
 30
0.0
  0
POINT
  5
387
  8
DEFPOINTS
  6
CONTINUOUS
 62
    30
 10
-481.0
 20
-147.6
 30
0.0
  0
LINE
  5
388
  8
SIZE
  6
CONTINUOUS
 62
    30
 10
-1110.0
 20
0.0
 30
0.0
 11
-1214.9
 21
0.0
 31
0.0
  0
LINE
  5
389
  8
SIZE
  6
CONTINUOUS
 62
    30
 10
-1110.0
 20
1895.0
 30
0.0
 11
-1214.9
 21
1895.0
 31
0.0
  0
LINE
  5
38A
  8
SIZE
  6
CONTINUOUS
 62
    30
 10
-1202.4
 20
10.0
 30
0.0
 11
-1202.4
 21
1885.0
 31
0.0
  0
CIRCLE
  5
38B
  8
SIZE
  6
CONTINUOUS
 62
    30
 10
-1202.4
 20
0.0
 30
0.0
 40
5.0
  0
LINE
  5
38C
  8
SIZE
  6
CONTINUOUS
 62
    30
 10
-1202.4
 20
0.0
 30
0.0
 11
-1202.4
 21
10.0
 31
0.0
  0
CIRCLE
  5
38D
  8
SIZE
  6
CONTINUOUS
 62
    30
 10
-1202.4
 20
1895.0
 30
0.0
 40
5.0
  0
LINE
  5
38E
  8
SIZE
  6
CONTINUOUS
 62
    30
 10
-1202.4
 20
1895.0
 30
0.0
 11
-1202.4
 21
1885.0
 31
0.0
  0
TEXT
  5
38F
  8
SIZE
  6
CONTINUOUS
 62
    30
 10
-1212.4
 20
897.5
 30
0.0
 40
30.0
  1
1895
 50
90.0
 72
     1
 11
-1212.4
 21
947.5
 31
0.0
  0
POINT
  5
390
  8
DEFPOINTS
  6
CONTINUOUS
 62
    30
 10
-1100.0
 20
0.0
 30
0.0
  0
POINT
  5
391
  8
DEFPOINTS
  6
CONTINUOUS
 62
    30
 10
-1100.0
 20
1895.0
 30
0.0
  0
POINT
  5
392
  8
DEFPOINTS
  6
CONTINUOUS
 62
    30
 10
-1202.4
 20
1895.0
 30
0.0
  0
LINE
  5
393
  8
SIZE
  6
CONTINUOUS
 62
    30
 10
10.0
 20
150.0
 30
0.0
 11
160.1
 21
150.0
 31
0.0
  0
LINE
  5
394
  8
SIZE
  6
CONTINUOUS
 62
    30
 10
-90.0
 20
0.0
 30
0.0
 11
160.1
 21
0.0
 31
0.0
  0
LINE
  5
395
  8
SIZE
  6
CONTINUOUS
 62
    30
 10
147.6
 20
140.0
 30
0.0
 11
147.6
 21
10.0
 31
0.0
  0
CIRCLE
  5
396
  8
SIZE
  6
CONTINUOUS
 62
    30
 10
147.6
 20
150.0
 30
0.0
 40
5.0
  0
LINE
  5
397
  8
SIZE
  6
CONTINUOUS
 62
    30
 10
147.6
 20
150.0
 30
0.0
 11
147.6
 21
140.0
 31
0.0
  0
CIRCLE
  5
398
  8
SIZE
  6
CONTINUOUS
 62
    30
 10
147.6
 20
0.0
 30
0.0
 40
5.0
  0
LINE
  5
399
  8
SIZE
  6
CONTINUOUS
 62
    30
 10
147.6
 20
0.0
 30
0.0
 11
147.6
 21
10.0
 31
0.0
  0
TEXT
  5
39A
  8
SIZE
  6
CONTINUOUS
 62
    30
 10
137.6
 20
42.5
 30
0.0
 40
30.0
  1
150
 50
90.0
 72
     1
 11
137.6
 21
75.0
 31
0.0
  0
POINT
  5
39B
  8
DEFPOINTS
  6
CONTINUOUS
 62
    30
 10
0.0
 20
150.0
 30
0.0
  0
POINT
  5
39C
  8
DEFPOINTS
  6
CONTINUOUS
 62
    30
 10
-100.0
 20
0.0
 30
0.0
  0
POINT
  5
39D
  8
DEFPOINTS
  6
CONTINUOUS
 62
    30
 10
147.6
 20
0.0
 30
0.0
  0
LINE
  5
39E
  8
NOTE
  6
CONTINUOUS
 10
426.484619
 20
1933.949707
 30
0.0
 11
170.234634
 21
1933.949707
 31
0.0
  0
LINE
  5
39F
  8
NOTE
  6
CONTINUOUS
 10
170.234634
 20
1933.949707
 30
0.0
 11
80.0
 21
1718.0
 31
0.0
  0
LINE
  5
3A0
  8
NOTE
  6
CONTINUOUS
 10
80.0
 20
1718.0
 30
0.0
 11
80.267198
 21
1719.982071
 31
0.0
  0
LINE
  5
3A1
  8
NOTE
  6
CONTINUOUS
 10
80.0
 20
1718.0
 30
0.0
 11
81.222436
 21
1719.582925
 31
0.0
  0
TEXT
  5
3A2
  8
NOTE
  6
CONTINUOUS
 10
230.984634
 20
1934.949707
 30
0.0
 40
40.0
  1
AH 4-M10
 41
0.644737
  7
STANDARD1
  0
TEXT
  5
3A3
  8
NOTE
  6
CONTINUOUS
 10
62.755283
 20
-221.897232
 30
0.0
 40
40.0
  1
（脚固定金具使用時のみ）
 50
0.000003
 41
0.84375
  7
STANDARD1
  0
LINE
  5
3A4
  8
NOTE
  6
CONTINUOUS
 10
334.305969
 20
-282.036469
 30
0.0
 11
78.055954
 21
-282.036469
 31
0.0
  0
LINE
  5
3A5
  8
NOTE
  6
CONTINUOUS
 10
78.055954
 20
-282.036469
 30
0.0
 11
-115.0
 21
0.0
 31
0.0
  0
LINE
  5
3A6
  8
NOTE
  6
CONTINUOUS
 10
-115.0
 20
0.0
 30
0.0
 11
-113.481641
 21
-1.301763
 31
0.0
  0
LINE
  5
3A7
  8
NOTE
  6
CONTINUOUS
 10
-115.0
 20
0.0
 30
0.0
 11
-114.335944
 21
-1.886539
 31
0.0
  0
TEXT
  5
3A8
  8
NOTE
  6
CONTINUOUS
 10
138.805954
 20
-281.036469
 30
0.0
 40
40.0
  1
AH 6-M10
 50
359.999996
 41
0.644737
  7
STANDARD1
  0
LINE
  5
3A9
  8
NOTE
  6
CONTINUOUS
 10
354.066193
 20
-162.063568
 30
0.0
 11
97.8162
 21
-162.063568
 31
0.0
  0
LINE
  5
3AA
  8
NOTE
  6
CONTINUOUS
 10
97.8162
 20
-162.063568
 30
0.0
 11
-80.0
 21
0.0
 31
0.0
  0
LINE
  5
3AB
  8
NOTE
  6
CONTINUOUS
 10
-80.0
 20
0.0
 30
0.0
 11
-78.223509
 21
-0.918737
 31
0.0
  0
LINE
  5
3AC
  8
NOTE
  6
CONTINUOUS
 10
-80.0
 20
0.0
 30
0.0
 11
-78.920882
 21
-1.683896
 31
0.0
  0
TEXT
  5
3AD
  8
NOTE
  6
CONTINUOUS
 10
158.566193
 20
-161.063568
 30
0.0
 40
40.0
  1
AH 4-M10
 50
359.999996
 41
0.644737
  7
STANDARD1
  0
TEXT
  5
3AE
  8
NOTE
  6
CONTINUOUS
 10
495.000031
 20
1592.75
 30
0.0
 40
40.0
  1
メンテナンススペース
 50
90.000005
 41
0.84375
  7
STANDARD1
  0
LINE
  5
3AF
  8
NOTE
  6
CONTINUOUS
 10
-1012.325439
 20
-303.520477
 30
0.0
 11
-789.075439
 21
-303.520477
 31
0.0
  0
LINE
  5
3B0
  8
NOTE
  6
CONTINUOUS
 10
-789.075439
 20
-303.520477
 30
0.0
 11
-446.0
 21
150.0
 31
0.0
  0
LINE
  5
3B1
  8
NOTE
  6
CONTINUOUS
 10
-446.0
 20
150.0
 30
0.0
 11
-446.752658
 21
148.147028
 31
0.0
  0
LINE
  5
3B2
  8
NOTE
  6
CONTINUOUS
 10
-446.0
 20
150.0
 30
0.0
 11
-447.578307
 21
148.771608
 31
0.0
  0
TEXT
  5
3B3
  8
NOTE
  6
CONTINUOUS
 10
-1012.325439
 20
-302.520477
 30
0.0
 40
40.0
  1
CW φ39
 41
0.702586
  7
STANDARD1
  0
LINE
  5
3B4
  8
NOTE
  6
CONTINUOUS
 10
-447.0
 20
150.0
 30
0.0
 11
-407.0
 21
150.0
 31
0.0
  0
LINE
  5
3B5
  8
NOTE
  6
CONTINUOUS
 10
-427.0
 20
170.0
 30
0.0
 11
-427.0
 21
130.0
 31
0.0
  0
LINE
  5
3B6
  8
NOTE
  6
CONTINUOUS
 10
80.0
 20
1698.0
 30
0.0
 11
80.0
 21
1738.0
 31
0.0
  0
LINE
  5
3B7
  8
NOTE
  6
CONTINUOUS
 10
60.0
 20
1718.0
 30
0.0
 11
100.0
 21
1718.0
 31
0.0
  0
TEXT
  5
3B8
  8
NOTE
  6
CONTINUOUS
 10
-1155.0
 20
745.25
 30
0.0
 40
40.0
  1
メンテナンススペース
 50
90.000005
 41
0.84375
  7
STANDARD1
  0
TEXT
  5
3B9
  8
NOTE
  6
CONTINUOUS
 10
-452.25
 20
2050.0
 30
0.0
 40
40.0
  1
メンテナンススペース
 50
0.000003
 41
0.84375
  7
STANDARD1
  0
TEXT
  5
3BA
  8
NOTE
  6
CONTINUOUS
 10
-1002.25
 20
2050.0
 30
0.0
 40
40.0
  1
メンテナンススペース
 50
0.000003
 41
0.84375
  7
STANDARD1
  0
LINE
  5
3BB
  8
NOTE
  6
CONTINUOUS
 10
-1015.731506
 20
-389.027863
 30
0.0
 11
-792.481506
 21
-389.027863
 31
0.0
  0
LINE
  5
3BC
  8
NOTE
  6
CONTINUOUS
 10
-792.481506
 20
-389.027863
 30
0.0
 11
-446.0
 21
150.0
 31
0.0
  0
LINE
  5
3BD
  8
NOTE
  6
CONTINUOUS
 10
-446.0
 20
150.0
 30
0.0
 11
-446.609146
 21
148.095022
 31
0.0
  0
LINE
  5
3BE
  8
NOTE
  6
CONTINUOUS
 10
-446.0
 20
150.0
 30
0.0
 11
-447.480025
 21
148.654814
 31
0.0
  0
TEXT
  5
3BF
  8
NOTE
  6
CONTINUOUS
 10
-1015.731506
 20
-388.027863
 30
0.0
 40
40.0
  1
EL φ39
 41
0.702586
  7
STANDARD1
  0
LINE
  5
3C0
  8
NOTE
  6
CONTINUOUS
 10
-1050.307373
 20
-133.810043
 30
0.0
 11
-827.057373
 21
-133.810043
 31
0.0
  0
LINE
  5
3C1
  8
NOTE
  6
CONTINUOUS
 10
-827.057373
 20
-133.810043
 30
0.0
 11
-461.0
 21
150.0
 31
0.0
  0
LINE
  5
3C2
  8
NOTE
  6
CONTINUOUS
 10
-461.0
 20
150.0
 30
0.0
 11
-462.20956
 21
148.407215
 31
0.0
  0
LINE
  5
3C3
  8
NOTE
  6
CONTINUOUS
 10
-461.0
 20
150.0
 30
0.0
 11
-462.843902
 21
149.225388
 31
0.0
  0
TEXT
  5
3C4
  8
NOTE
  6
CONTINUOUS
 10
-1050.307373
 20
-132.810043
 30
0.0
 40
40.0
  1
HW φ39
 50
0.000003
 41
0.702586
  7
STANDARD1
  0
LINE
  5
3C5
  8
NOTE
  6
CONTINUOUS
 10
-986.437378
 20
-466.519165
 30
0.0
 11
-763.187378
 21
-466.519165
 31
0.0
  0
LINE
  5
3C6
  8
NOTE
  6
CONTINUOUS
 10
-763.187378
 20
-466.519165
 30
0.0
 11
-427.0
 21
150.0
 31
0.0
  0
LINE
  5
3C7
  8
NOTE
  6
CONTINUOUS
 10
-427.0
 20
150.0
 30
0.0
 11
-427.470406
 21
148.056108
 31
0.0
  0
LINE
  5
3C8
  8
NOTE
  6
CONTINUOUS
 10
-427.0
 20
150.0
 30
0.0
 11
-428.37933
 21
148.551743
 31
0.0
  0
TEXT
  5
3C9
  8
NOTE
  6
CONTINUOUS
 10
-986.437378
 20
-465.519165
 30
0.0
 40
40.0
  1
WD φ45
 41
0.702586
  7
STANDARD1
  0
LINE
  5
3CA
  8
NOTE
  6
CONTINUOUS
 10
-1027.95459
 20
-220.128174
 30
0.0
 11
-804.704529
 21
-220.128174
 31
0.0
  0
LINE
  5
3CB
  8
NOTE
  6
CONTINUOUS
 10
-804.704529
 20
-220.128174
 30
0.0
 11
-450.0
 21
150.0
 31
0.0
  0
LINE
  5
3CC
  8
NOTE
  6
CONTINUOUS
 10
-450.0
 20
150.0
 30
0.0
 11
-450.962926
 21
148.247067
 31
0.0
  0
LINE
  5
3CD
  8
NOTE
  6
CONTINUOUS
 10
-450.0
 20
150.0
 30
0.0
 11
-451.710385
 21
148.963379
 31
0.0
  0
TEXT
  5
3CE
  8
NOTE
  6
CONTINUOUS
 10
-1027.95459
 20
-219.128174
 30
0.0
 40
40.0
  1
CL φ21
 50
0.000003
 41
0.702586
  7
STANDARD1
  0
LINE
  5
3CF
  8
NOTE
  6
CONTINUOUS
 10
-430.0
 20
150.0
 30
0.0
 11
-470.0
 21
150.0
 31
0.0
  0
LINE
  5
3D0
  8
NOTE
  6
CONTINUOUS
 10
-441.0
 20
150.0
 30
0.0
 11
-481.0
 21
150.0
 31
0.0
  0
LINE
  5
3D1
  8
NOTE
  6
CONTINUOUS
 10
-426.0
 20
150.0
 30
0.0
 11
-466.0
 21
150.0
 31
0.0
  0
LINE
  5
3D2
  8
NOTE
  6
CONTINUOUS
 10
-446.0
 20
170.0
 30
0.0
 11
-446.0
 21
130.0
 31
0.0
  0
LINE
  5
3D3
  8
NOTE
  6
CONTINUOUS
 10
-450.0
 20
170.0
 30
0.0
 11
-450.0
 21
130.0
 31
0.0
  0
LINE
  5
3D4
  8
NOTE
  6
CONTINUOUS
 10
-461.0
 20
170.0
 30
0.0
 11
-461.0
 21
130.0
 31
0.0
  0
LINE
  5
3D5
  8
NOTE
  6
CONTINUOUS
 10
-100.0
 20
0.0
 30
0.0
 11
-60.0
 21
0.0
 31
0.0
  0
LINE
  5
3D6
  8
NOTE
  6
CONTINUOUS
 10
-135.0
 20
0.0
 30
0.0
 11
-95.0
 21
0.0
 31
0.0
  0
LINE
  5
3D7
  8
NOTE
  6
CONTINUOUS
 10
-501.0
 20
0.0
 30
0.0
 11
-461.0
 21
0.0
 31
0.0
  0
LINE
  5
3D8
  8
NOTE
  6
CONTINUOUS
 10
-481.0
 20
-20.0
 30
0.0
 11
-481.0
 21
20.0
 31
0.0
  0
LINE
  5
3D9
  8
NOTE
  6
CONTINUOUS
 10
-115.0
 20
-20.0
 30
0.0
 11
-115.0
 21
20.0
 31
0.0
  0
LINE
  5
3DA
  8
NOTE
  6
CONTINUOUS
 10
-80.0
 20
-20.0
 30
0.0
 11
-80.0
 21
20.0
 31
0.0
  0
CIRCLE
  5
3DB
  8
ARRANGE
  6
CONTINUOUS
 10
0.0
 20
0.0
 30
0.0
 40
15.0
  0
CIRCLE
  5
3DC
  8
FIX
  6
CONTINUOUS
 10
-80.0
 20
0.0
 30
0.0
 40
5.0
  0
CIRCLE
  5
3DD
  8
FIX
  6
CONTINUOUS
 10
-115.0
 20
0.0
 30
0.0
 40
5.0
  0
CIRCLE
  5
3DE
  8
FIX
  6
CONTINUOUS
 10
-481.0
 20
0.0
 30
0.0
 40
5.0
  0
CIRCLE
  5
3DF
  8
FIX
  6
CONTINUOUS
 10
80.279438
 20
1717.899571
 30
0.0
 40
10.0
  0
LINE
  5
3E0
  8
SERVICESPACE
  6
DASHDOT
 10
-1100.0
 20
1895.0
 30
0.0
 11
-500.0
 21
0.0
 31
0.0
  0
LINE
  5
3E1
  8
SERVICESPACE
  6
DASHDOT
 10
-500.0
 20
1895.0
 30
0.0
 11
-1100.0
 21
0.0
 31
0.0
  0
LINE
  5
3E2
  8
SERVICESPACE
  6
DASHDOT
 10
-500.0
 20
1895.0
 30
0.0
 11
0.0
 21
1695.0
 31
0.0
  0
LINE
  5
3E3
  8
SERVICESPACE
  6
DASHDOT
 10
0.0
 20
1895.0
 30
0.0
 11
-500.0
 21
1695.0
 31
0.0
  0
LINE
  5
3E4
  8
SERVICESPACE
  6
DASHDOT
 10
-500.0
 20
0.0
 30
0.0
 11
-500.0
 21
1895.0
 31
0.0
  0
LINE
  5
3E5
  8
SERVICESPACE
  6
DASHDOT
 10
-1100.0
 20
0.0
 30
0.0
 11
-1100.0
 21
1895.0
 31
0.0
  0
LINE
  5
3E6
  8
SERVICESPACE
  6
DASHDOT
 10
-1100.0
 20
0.0
 30
0.0
 11
-500.0
 21
0.0
 31
0.0
  0
LINE
  5
3E7
  8
SERVICESPACE
  6
DASHDOT
 10
-1100.0
 20
1895.0
 30
0.0
 11
0.0
 21
1895.0
 31
0.0
  0
LINE
  5
3E8
  8
SERVICESPACE
  6
DASHDOT
 10
0.0
 20
1695.0
 30
0.0
 11
-500.0
 21
1695.0
 31
0.0
  0
LINE
  5
3E9
  8
SERVICESPACE
  6
DASHDOT
 10
0.0
 20
1695.0
 30
0.0
 11
0.0
 21
1895.0
 31
0.0
  0
TEXT
  5
3EA
  8
ETC
  6
CONTINUOUS
 10
237.83783
 20
2097.026855
 30
0.0
 40
40.0
  1
TG3764S4
 50
0.000003
 41
0.6125
  7
STANDARD1
  0
TEXT
  5
3EB
  8
ETC
  6
CONTINUOUS
 10
237.83783
 20
2027.026978
 30
0.0
 40
40.0
  1
電気温水器
 50
0.000003
 41
0.84375
  7
STANDARD1
  0
ENDSEC
  0
EOF
