  0
SECTION
  2
HEADER
  9
$ACADVER
  1
AC1009
  9
$INSBASE
 10
0.0
 20
0.0
 30
0.0
  9
$EXTMIN
 10
-911.612307
 20
-1533.293414
 30
0.0
  9
$EXTMAX
 10
745.238891
 20
361.453682
 30
0.0
  9
$LIMMIN
 10
0.0
 20
0.0
  9
$LIMMAX
 10
12.0
 20
9.0
  9
$ORTHOMODE
 70
     0
  9
$REGENMODE
 70
     1
  9
$FILLMODE
 70
     1
  9
$QTEXTMODE
 70
     0
  9
$MIRRTEXT
 70
     1
  9
$DRAGMODE
 70
     2
  9
$LTSCALE
 40
1.0
  9
$OSMODE
 70
     0
  9
$ATTMODE
 70
     1
  9
$TEXTSIZE
 40
40.0
  9
$TRACEWID
 40
0.05
  9
$TEXTSTYLE
  7
STANDARD1
  9
$CLAYER
  8
0
  9
$CELTYPE
  6
CONTINUOUS
  9
$CECOLOR
 62
   256
  9
$DIMSCALE
 40
1.0
  9
$DIMASZ
 40
10.0
  9
$DIMEXO
 40
10.0
  9
$DIMDLI
 40
8.0
  9
$DIMRND
 40
0.0
  9
$DIMDLE
 40
0.0
  9
$DIMEXE
 40
12.5
  9
$DIMTP
 40
0.0
  9
$DIMTM
 40
0.0
  9
$DIMTXT
 40
30.0
  9
$DIMCEN
 40
2.5
  9
$DIMTSZ
 40
0.0
  9
$DIMTOL
 70
     0
  9
$DIMLIM
 70
     0
  9
$DIMTIH
 70
     0
  9
$DIMTOH
 70
     0
  9
$DIMSE1
 70
     0
  9
$DIMSE2
 70
     0
  9
$DIMTAD
 70
     3
  9
$DIMZIN
 70
    12
  9
$DIMBLK
  1

  9
$DIMASO
 70
     1
  9
$DIMSHO
 70
     1
  9
$DIMPOST
  1

  9
$DIMAPOST
  1

  9
$DIMALT
 70
     0
  9
$DIMALTD
 70
     4
  9
$DIMALTF
 40
25.4
  9
$DIMLFAC
 40
1.0
  9
$DIMTOFL
 70
     1
  9
$DIMTVP
 40
0.0
  9
$DIMTIX
 70
     0
  9
$DIMSOXD
 70
     0
  9
$DIMSAH
 70
     1
  9
$DIMBLK1
  1
_ORIGIN
  9
$DIMBLK2
  1
_ORIGIN
  9
$DIMSTYLE
  2
STANDARD
  9
$DIMCLRD
 70
     0
  9
$DIMCLRE
 70
     0
  9
$DIMCLRT
 70
     0
  9
$DIMTFAC
 40
1.0
  9
$DIMGAP
 40
0.09
  9
$LUNITS
 70
     2
  9
$LUPREC
 70
     3
  9
$SKETCHINC
 40
0.1
  9
$FILLETRAD
 40
0.0
  9
$AUNITS
 70
     0
  9
$AUPREC
 70
     0
  9
$MENU
  1
acad
  9
$ELEVATION
 40
0.0
  9
$PELEVATION
 40
0.0
  9
$THICKNESS
 40
0.0
  9
$LIMCHECK
 70
     0
  9
$BLIPMODE
 70
     0
  9
$CHAMFERA
 40
0.0
  9
$CHAMFERB
 40
0.0
  9
$SKPOLY
 70
     0
  9
$TDCREATE
 40
2451878.919745
  9
$TDUPDATE
 40
2451878.919745
  9
$TDINDWG
 40
0.0
  9
$TDUSRTIMER
 40
0.0
  9
$USRTIMER
 70
     1
  9
$ANGBASE
 50
0.0
  9
$ANGDIR
 70
     0
  9
$PDMODE
 70
     0
  9
$PDSIZE
 40
0.0
  9
$PLINEWID
 40
0.0
  9
$COORDS
 70
     1
  9
$SPLFRAME
 70
     0
  9
$SPLINETYPE
 70
     6
  9
$SPLINESEGS
 70
     8
  9
$ATTDIA
 70
     0
  9
$ATTREQ
 70
     1
  9
$HANDLING
 70
     1
  9
$HANDSEED
  5
4E7
  9
$SURFTAB1
 70
     6
  9
$SURFTAB2
 70
     6
  9
$SURFTYPE
 70
     6
  9
$SURFU
 70
     6
  9
$SURFV
 70
     6
  9
$UCSNAME
  2

  9
$UCSORG
 10
0.0
 20
0.0
 30
0.0
  9
$UCSXDIR
 10
1.0
 20
0.0
 30
0.0
  9
$UCSYDIR
 10
0.0
 20
1.0
 30
0.0
  9
$PUCSNAME
  2

  9
$PUCSORG
 10
0.0
 20
0.0
 30
0.0
  9
$PUCSXDIR
 10
1.0
 20
0.0
 30
0.0
  9
$PUCSYDIR
 10
0.0
 20
1.0
 30
0.0
  9
$USERI1
 70
     0
  9
$USERI2
 70
     0
  9
$USERI3
 70
     0
  9
$USERI4
 70
     0
  9
$USERI5
 70
     0
  9
$USERR1
 40
0.0
  9
$USERR2
 40
0.0
  9
$USERR3
 40
0.0
  9
$USERR4
 40
0.0
  9
$USERR5
 40
0.0
  9
$WORLDVIEW
 70
     1
  9
$SHADEDGE
 70
     3
  9
$SHADEDIF
 70
    70
  9
$TILEMODE
 70
     1
  9
$MAXACTVP
 70
    48
  9
$PLIMCHECK
 70
     0
  9
$PEXTMIN
 10
1.000000E+020
 20
1.000000E+020
 30
1.000000E+020
  9
$PEXTMAX
 10
-1.000000E+020
 20
-1.000000E+020
 30
-1.000000E+020
  9
$PLIMMIN
 10
0.0
 20
0.0
  9
$PLIMMAX
 10
12.0
 20
9.0
  9
$UNITMODE
 70
     0
  9
$VISRETAIN
 70
     1
  9
$PLINEGEN
 70
     0
  9
$PSLTSCALE
 70
     1
  0
ENDSEC
  0
SECTION
  2
TABLES
  0
TABLE
  2
VPORT
 70
     2
  0
VPORT
  2
*ACTIVE
 70
     0
 10
0.0
 20
0.0
 11
1.0
 21
1.0
 12
-83.186708
 22
-585.919866
 13
0.0
 23
0.0
 14
1.0
 24
1.0
 15
0.0
 25
0.0
 16
0.0
 26
0.0
 36
1.0
 17
0.0
 27
0.0
 37
0.0
 40
1930.952455
 41
2.827476
 42
50.0
 43
0.0
 44
0.0
 50
0.0
 51
0.0
 71
     0
 72
   100
 73
     1
 74
     1
 75
     0
 76
     0
 77
     0
 78
     0
  0
ENDTAB
  0
TABLE
  2
LTYPE
 70
     4
  0
LTYPE
  2
CONTINUOUS
 70
     0
  3
Solid line
 72
    65
 73
     0
 40
0.0
  0
LTYPE
  2
DASHED
 70
     0
  3
-- -- -- -- -- -- -- -- -- -- -- -- -- -- --
 72
    65
 73
     2
 40
0.75
 49
0.5
 49
-0.25
  0
LTYPE
  2
DASHDOT
 70
     0
  3
__ . __ . __ . __ . __ . __ . __ . __ . __ . __
 72
    65
 73
     4
 40
125.0
 49
80.0
 49
-20.0
 49
5.0
 49
-20.0
  0
LTYPE
  2
DIVIDE
 70
     0
  3
__ . . __ . . __ . . __ . . __ . . __ . . __
 72
    65
 73
     6
 40
1.25
 49
0.5
 49
-0.25
 49
0.0
 49
-0.25
 49
0.0
 49
-0.25
  0
ENDTAB
  0
TABLE
  2
LAYER
 70
    12
  0
LAYER
  2
0
 70
     0
 62
     3
  6
CONTINUOUS
  0
LAYER
  2
OUTLINE
 70
     0
 62
     3
  6
CONTINUOUS
  0
LAYER
  2
DETAIL
 70
     0
 62
     5
  6
CONTINUOUS
  0
LAYER
  2
BASIS
 70
     0
 62
     6
  6
CONTINUOUS
  0
LAYER
  2
SIZE
 70
     0
 62
    30
  6
CONTINUOUS
  0
LAYER
  2
NOTE
 70
     0
 62
     4
  6
CONTINUOUS
  0
LAYER
  2
ARRANGE
 70
     0
 62
     1
  6
CONTINUOUS
  0
LAYER
  2
FIX
 70
     0
 62
    11
  6
CONTINUOUS
  0
LAYER
  2
SERVICESPACE
 70
     0
 62
     2
  6
CONTINUOUS
  0
LAYER
  2
ETC
 70
     0
 62
    61
  6
CONTINUOUS
  0
LAYER
  2
SYMBOLLINE
 70
     0
 62
     7
  6
CONTINUOUS
  0
LAYER
  2
DEFPOINTS
 70
     0
 62
     7
  6
CONTINUOUS
  0
ENDTAB
  0
TABLE
  2
STYLE
 70
     5
  0
STYLE
  2
STANDARD
 70
     0
 40
0.0
 41
1.0
 50
0.0
 71
     0
 42
0.2
  3
txt
  4

  0
STYLE
  2
STANDARD1
 70
     0
 40
0.0
 41
1.0
 50
0.0
 71
     0
 42
40.0
  3
MONOTXT
  4
BIGFONT
  0
STYLE
  2
STANDARD2
 70
     4
 40
0.0
 41
1.0
 50
0.0
 71
     0
 42
40.0
  3
MONOTXT
  4
BIGFONT
  0
STYLE
  2
STANDARD3
 70
     0
 40
0.0
 41
1.0
 50
0.0
 71
     0
 42
40.0
  3
MONOTXT
  4

  0
STYLE
  2
STANDARD4
 70
     4
 40
0.0
 41
1.0
 50
0.0
 71
     0
 42
40.0
  3
MONOTXT
  4

  0
ENDTAB
  0
TABLE
  2
VIEW
 70
     0
  0
ENDTAB
  0
TABLE
  2
UCS
 70
     0
  0
ENDTAB
  0
TABLE
  2
APPID
 70
     1
  0
APPID
  2
ACAD
 70
     0
  0
ENDTAB
  0
TABLE
  2
DIMSTYLE
 70
     1
  0
DIMSTYLE
  2
STANDARD
 70
     0
  3

  4

  5

  6

  7

 40
1.0
 41
0.18
 42
0.0625
 43
0.38
 44
0.18
 45
0.0
 46
0.0
 47
0.0
 48
0.0
140
0.18
141
0.09
142
0.0
143
25.4
144
1.0
145
0.0
146
1.0
147
0.09
 71
     0
 72
     0
 73
     1
 74
     1
 75
     0
 76
     0
 77
     0
 78
     0
170
     0
171
     2
172
     0
173
     0
174
     0
175
     0
176
     0
177
     0
178
     0
  0
ENDTAB
  0
ENDSEC
  0
SECTION
  2
BLOCKS
  0
BLOCK
  8
0
  2
$MODEL_SPACE
 70
     0
 10
0.0
 20
0.0
 30
0.0
  3
$MODEL_SPACE
  1

  0
ENDBLK
  5
1A
  8
0
  0
BLOCK
 67
     1
  8
0
  2
$PAPER_SPACE
 70
     0
 10
0.0
 20
0.0
 30
0.0
  3
$PAPER_SPACE
  1

  0
ENDBLK
  5
17
 67
     1
  8
0
  0
BLOCK
  8
SIZE
  2
*D0
 70
     1
 10
0.0
 20
0.0
 30
0.0
  3
*D0
  1

  0
TEXT
  5
35
  8
SIZE
  6
CONTINUOUS
 10
-57.561723
 20
-607.958984
 30
0.0
 40
2.8
  1
65
 50
90.000005
 41
0.7
  7
STANDARD1
  0
LINE
  5
36
  8
SIZE
  6
CONTINUOUS
 10
-66.0
 20
-665.0
 30
0.0
 11
-54.561722
 21
-665.0
 31
0.0
  0
LINE
  5
37
  8
SIZE
  6
CONTINUOUS
 10
-56.561722
 20
-602.638977
 30
0.0
 11
-56.561722
 21
-735.0
 31
0.0
  0
INSERT
  5
39
  8
SIZE
  2
DOT
 10
-56.561722
 20
-665.0
 30
0.0
 50
90.0
  0
INSERT
  5
3A
  8
SIZE
  2
DOT
 10
-56.561722
 20
-730.0
 30
0.0
 50
270.0
  0
POINT
  5
3B
  8
DEFPOINTS
  6
BYBLOCK
 10
-315.0
 20
-730.0
 30
0.0
  0
POINT
  5
3C
  8
DEFPOINTS
  6
BYBLOCK
 10
-67.0
 20
-665.0
 30
0.0
  0
POINT
  5
3D
  8
DEFPOINTS
  6
BYBLOCK
 10
-56.561722
 20
-665.0
 30
0.0
  0
ENDBLK
  5
3E
  8
SIZE
  0
BLOCK
  8
SIZE
  2
DOT
 70
     0
 10
0.0
 20
0.0
 30
0.0
  3
DOT
  1

  0
POLYLINE
  5
40
  8
0
  6
BYBLOCK
 66
     1
 10
0.0
 20
0.0
 30
0.0
 70
     1
 40
0.5
 41
0.5
  0
VERTEX
  5
41
  8
0
  6
BYBLOCK
 10
-0.25
 20
0.0
 30
0.0
 42
1.0
  0
VERTEX
  5
42
  8
0
  6
BYBLOCK
 10
0.25
 20
0.0
 30
0.0
 42
1.0
  0
SEQEND
  5
43
  8
0
  6
BYBLOCK
  0
LINE
  5
44
  8
0
  6
BYBLOCK
 10
-0.5
 20
0.0
 30
0.0
 11
-1.0
 21
0.0
 31
0.0
  0
ENDBLK
  5
45
  8
SIZE
  0
BLOCK
  8
SIZE
  2
*D2
 70
     1
 10
0.0
 20
0.0
 30
0.0
  3
*D2
  1

  0
TEXT
  5
48
  8
SIZE
  6
CONTINUOUS
 10
563.999976
 20
-689.960022
 30
0.0
 40
2.8
  1
84
 50
90.000005
 41
0.7
  7
STANDARD1
  0
LINE
  5
49
  8
SIZE
  6
CONTINUOUS
 10
21.0
 20
-646.0
 30
0.0
 11
567.0
 21
-646.0
 31
0.0
  0
LINE
  5
4A
  8
SIZE
  6
CONTINUOUS
 10
316.0
 20
-730.0
 30
0.0
 11
567.0
 21
-730.0
 31
0.0
  0
LINE
  5
4B
  8
SIZE
  6
CONTINUOUS
 10
565.0
 20
-646.0
 30
0.0
 11
565.0
 21
-730.0
 31
0.0
  0
INSERT
  5
4C
  8
SIZE
  2
DOT
 10
565.0
 20
-646.0
 30
0.0
 50
90.0
  0
INSERT
  5
4D
  8
SIZE
  2
DOT
 10
565.0
 20
-730.0
 30
0.0
 50
270.0
  0
POINT
  5
4E
  8
DEFPOINTS
  6
BYBLOCK
 10
315.0
 20
-730.0
 30
0.0
  0
POINT
  5
4F
  8
DEFPOINTS
  6
BYBLOCK
 10
20.0
 20
-646.0
 30
0.0
  0
POINT
  5
50
  8
DEFPOINTS
  6
BYBLOCK
 10
565.0
 20
-646.0
 30
0.0
  0
ENDBLK
  5
51
  8
SIZE
  0
BLOCK
  8
SIZE
  2
*D3
 70
     1
 10
0.0
 20
0.0
 30
0.0
  3
*D3
  1

  0
TEXT
  5
54
  8
SIZE
  6
CONTINUOUS
 10
563.999976
 20
-363.940002
 30
0.0
 40
2.8
  1
570
 50
90.000005
 41
0.7
  7
STANDARD1
  0
LINE
  5
55
  8
SIZE
  6
CONTINUOUS
 10
316.0
 20
-76.0
 30
0.0
 11
567.0
 21
-76.0
 31
0.0
  0
LINE
  5
56
  8
SIZE
  6
CONTINUOUS
 10
21.0
 20
-646.0
 30
0.0
 11
567.0
 21
-646.0
 31
0.0
  0
LINE
  5
57
  8
SIZE
  6
CONTINUOUS
 10
565.0
 20
-76.0
 30
0.0
 11
565.0
 21
-646.0
 31
0.0
  0
INSERT
  5
58
  8
SIZE
  2
DOT
 10
565.0
 20
-76.0
 30
0.0
 50
90.0
  0
INSERT
  5
59
  8
SIZE
  2
DOT
 10
565.0
 20
-646.0
 30
0.0
 50
270.0
  0
POINT
  5
5A
  8
DEFPOINTS
  6
BYBLOCK
 10
20.0
 20
-646.0
 30
0.0
  0
POINT
  5
5B
  8
DEFPOINTS
  6
BYBLOCK
 10
315.0
 20
-76.0
 30
0.0
  0
POINT
  5
5C
  8
DEFPOINTS
  6
BYBLOCK
 10
565.0
 20
-76.0
 30
0.0
  0
ENDBLK
  5
5D
  8
SIZE
  0
BLOCK
  8
SIZE
  2
*D4
 70
     1
 10
0.0
 20
0.0
 30
0.0
  3
*D4
  1

  0
TEXT
  5
60
  8
SIZE
  6
CONTINUOUS
 10
464.000006
 20
-367.940002
 30
0.0
 40
2.8
  1
534
 50
90.000005
 41
0.7
  7
STANDARD1
  0
LINE
  5
61
  8
SIZE
  6
CONTINUOUS
 10
21.0
 20
-646.0
 30
0.0
 11
467.0
 21
-646.0
 31
0.0
  0
LINE
  5
62
  8
SIZE
  6
CONTINUOUS
 10
269.0
 20
-112.0
 30
0.0
 11
467.0
 21
-112.0
 31
0.0
  0
LINE
  5
63
  8
SIZE
  6
CONTINUOUS
 10
465.0
 20
-646.0
 30
0.0
 11
465.0
 21
-112.0
 31
0.0
  0
INSERT
  5
64
  8
SIZE
  2
DOT
 10
465.0
 20
-646.0
 30
0.0
 50
270.0
  0
INSERT
  5
65
  8
SIZE
  2
DOT
 10
465.0
 20
-112.0
 30
0.0
 50
90.0
  0
POINT
  5
66
  8
DEFPOINTS
  6
BYBLOCK
 10
268.0
 20
-112.0
 30
0.0
  0
POINT
  5
67
  8
DEFPOINTS
  6
BYBLOCK
 10
20.0
 20
-646.0
 30
0.0
  0
POINT
  5
68
  8
DEFPOINTS
  6
BYBLOCK
 10
465.0
 20
-646.0
 30
0.0
  0
ENDBLK
  5
69
  8
SIZE
  0
BLOCK
  8
SIZE
  2
*D5
 70
     1
 10
0.0
 20
0.0
 30
0.0
  3
*D5
  1

  0
TEXT
  5
6C
  8
SIZE
  6
CONTINUOUS
 10
464.000006
 20
56.02895
 30
0.0
 40
2.8
  1
112
 50
90.000005
 41
0.7
  7
STANDARD1
  0
LINE
  5
6D
  8
SIZE
  6
CONTINUOUS
 10
269.0
 20
-112.0
 30
0.0
 11
467.0
 21
-112.0
 31
0.0
  0
LINE
  5
6E
  8
SIZE
  6
CONTINUOUS
 10
316.0
 20
0.0
 30
0.0
 11
467.0
 21
0.0
 31
0.0
  0
LINE
  5
6F
  8
SIZE
  6
CONTINUOUS
 10
465.0
 20
-117.0
 30
0.0
 11
465.0
 21
63.308949
 31
0.0
  0
INSERT
  5
70
  8
SIZE
  2
DOT
 10
465.0
 20
-112.0
 30
0.0
 50
270.0
  0
INSERT
  5
71
  8
SIZE
  2
DOT
 10
465.0
 20
0.0
 30
0.0
 50
90.0
  0
POINT
  5
72
  8
DEFPOINTS
  6
BYBLOCK
 10
315.0
 20
0.0
 30
0.0
  0
POINT
  5
73
  8
DEFPOINTS
  6
BYBLOCK
 10
268.0
 20
-112.0
 30
0.0
  0
POINT
  5
74
  8
DEFPOINTS
  6
BYBLOCK
 10
465.0
 20
-112.0
 30
0.0
  0
ENDBLK
  5
75
  8
SIZE
  0
BLOCK
  8
SIZE
  2
*D6
 70
     1
 10
0.0
 20
0.0
 30
0.0
  3
*D6
  1

  0
TEXT
  5
78
  8
SIZE
  6
CONTINUOUS
 10
563.999976
 20
-39.959999
 30
0.0
 40
2.8
  1
76
 50
90.000005
 41
0.7
  7
STANDARD1
  0
LINE
  5
79
  8
SIZE
  6
CONTINUOUS
 10
316.0
 20
-76.0
 30
0.0
 11
567.0
 21
-76.0
 31
0.0
  0
LINE
  5
7A
  8
SIZE
  6
CONTINUOUS
 10
316.0
 20
0.0
 30
0.0
 11
567.0
 21
0.0
 31
0.0
  0
LINE
  5
7B
  8
SIZE
  6
CONTINUOUS
 10
565.0
 20
-76.0
 30
0.0
 11
565.0
 21
0.0
 31
0.0
  0
INSERT
  5
7C
  8
SIZE
  2
DOT
 10
565.0
 20
-76.0
 30
0.0
 50
270.0
  0
INSERT
  5
7D
  8
SIZE
  2
DOT
 10
565.0
 20
0.0
 30
0.0
 50
90.0
  0
POINT
  5
7E
  8
DEFPOINTS
  6
BYBLOCK
 10
315.0
 20
0.0
 30
0.0
  0
POINT
  5
7F
  8
DEFPOINTS
  6
BYBLOCK
 10
315.0
 20
-76.0
 30
0.0
  0
POINT
  5
80
  8
DEFPOINTS
  6
BYBLOCK
 10
565.0
 20
-76.0
 30
0.0
  0
ENDBLK
  5
81
  8
SIZE
  0
BLOCK
  8
SIZE
  2
*D7
 70
     1
 10
0.0
 20
0.0
 30
0.0
  3
*D7
  1

  0
TEXT
  5
84
  8
SIZE
  6
CONTINUOUS
 10
-415.999994
 20
-700.564697
 30
0.0
 40
2.8
  1
65
 50
90.000005
 41
0.7
  7
STANDARD1
  0
LINE
  5
85
  8
SIZE
  6
CONTINUOUS
 10
-180.0
 20
-665.0
 30
0.0
 11
-417.0
 21
-665.0
 31
0.0
  0
LINE
  5
86
  8
SIZE
  6
CONTINUOUS
 10
-316.0
 20
-730.0
 30
0.0
 11
-417.0
 21
-730.0
 31
0.0
  0
LINE
  5
87
  8
SIZE
  6
CONTINUOUS
 10
-415.0
 20
-665.0
 30
0.0
 11
-415.0
 21
-730.0
 31
0.0
  0
INSERT
  5
88
  8
SIZE
  2
DOT
 10
-415.0
 20
-665.0
 30
0.0
 50
90.0
  0
INSERT
  5
89
  8
SIZE
  2
DOT
 10
-415.0
 20
-730.0
 30
0.0
 50
270.0
  0
POINT
  5
8A
  8
DEFPOINTS
  6
BYBLOCK
 10
-315.0
 20
-730.0
 30
0.0
  0
POINT
  5
8B
  8
DEFPOINTS
  6
BYBLOCK
 10
-179.0
 20
-665.0
 30
0.0
  0
POINT
  5
8C
  8
DEFPOINTS
  6
BYBLOCK
 10
-415.0
 20
-665.0
 30
0.0
  0
ENDBLK
  5
8D
  8
SIZE
  0
BLOCK
  8
SIZE
  2
*D8
 70
     1
 10
0.0
 20
0.0
 30
0.0
  3
*D8
  1

  0
TEXT
  5
90
  8
SIZE
  6
CONTINUOUS
 10
39.581825
 20
-878.999976
 30
0.0
 40
2.8
  1
3
 50
0.000003
 41
0.7
  7
STANDARD1
  0
LINE
  5
91
  8
SIZE
  6
CONTINUOUS
 10
-3.0
 20
-686.0
 30
0.0
 11
-3.0
 21
-882.0
 31
0.0
  0
LINE
  5
92
  8
SIZE
  6
CONTINUOUS
 10
0.0
 20
-763.188293
 30
0.0
 11
0.0
 21
-882.0
 31
0.0
  0
LINE
  5
93
  8
SIZE
  6
CONTINUOUS
 10
-8.0
 20
-880.0
 30
0.0
 11
42.941826
 21
-880.0
 31
0.0
  0
INSERT
  5
94
  8
SIZE
  2
DOT
 10
-3.0
 20
-880.0
 30
0.0
 50
180.0
  0
INSERT
  5
95
  8
SIZE
  2
DOT
 10
0.0
 20
-880.0
 30
0.0
  0
POINT
  5
96
  8
DEFPOINTS
  6
BYBLOCK
 10
0.0
 20
-762.188293
 30
0.0
  0
POINT
  5
97
  8
DEFPOINTS
  6
BYBLOCK
 10
-3.0
 20
-685.0
 30
0.0
  0
POINT
  5
98
  8
DEFPOINTS
  6
BYBLOCK
 10
-3.0
 20
-880.0
 30
0.0
  0
ENDBLK
  5
99
  8
SIZE
  0
BLOCK
  8
SIZE
  2
*D9
 70
     1
 10
0.0
 20
0.0
 30
0.0
  3
*D9
  1

  0
TEXT
  5
9C
  8
SIZE
  6
CONTINUOUS
 10
-46.959999
 20
-878.999976
 30
0.0
 40
2.8
  1
84
 50
0.000003
 41
0.7
  7
STANDARD1
  0
LINE
  5
9D
  8
SIZE
  6
CONTINUOUS
 10
-87.0
 20
-686.0
 30
0.0
 11
-87.0
 21
-882.0
 31
0.0
  0
LINE
  5
9E
  8
SIZE
  6
CONTINUOUS
 10
-3.0
 20
-686.0
 30
0.0
 11
-3.0
 21
-882.0
 31
0.0
  0
LINE
  5
9F
  8
SIZE
  6
CONTINUOUS
 10
-87.0
 20
-880.0
 30
0.0
 11
-3.0
 21
-880.0
 31
0.0
  0
INSERT
  5
A0
  8
SIZE
  2
DOT
 10
-87.0
 20
-880.0
 30
0.0
 50
180.0
  0
INSERT
  5
A1
  8
SIZE
  2
DOT
 10
-3.0
 20
-880.0
 30
0.0
  0
POINT
  5
A2
  8
DEFPOINTS
  6
BYBLOCK
 10
-3.0
 20
-685.0
 30
0.0
  0
POINT
  5
A3
  8
DEFPOINTS
  6
BYBLOCK
 10
-87.0
 20
-685.0
 30
0.0
  0
POINT
  5
A4
  8
DEFPOINTS
  6
BYBLOCK
 10
-87.0
 20
-880.0
 30
0.0
  0
ENDBLK
  5
A5
  8
SIZE
  0
BLOCK
  8
SIZE
  2
*D10
 70
     1
 10
0.0
 20
0.0
 30
0.0
  3
*D10
  1

  0
TEXT
  5
A8
  8
SIZE
  6
CONTINUOUS
 10
40.540001
 20
-978.999976
 30
0.0
 40
2.8
  1
85
 50
0.000003
 41
0.7
  7
STANDARD1
  0
LINE
  5
A9
  8
SIZE
  6
CONTINUOUS
 10
0.0
 20
-763.188293
 30
0.0
 11
0.0
 21
-982.0
 31
0.0
  0
LINE
  5
AA
  8
SIZE
  6
CONTINUOUS
 10
85.0
 20
-686.0
 30
0.0
 11
85.0
 21
-982.0
 31
0.0
  0
LINE
  5
AB
  8
SIZE
  6
CONTINUOUS
 10
0.0
 20
-980.0
 30
0.0
 11
85.0
 21
-980.0
 31
0.0
  0
INSERT
  5
AC
  8
SIZE
  2
DOT
 10
0.0
 20
-980.0
 30
0.0
 50
180.0
  0
INSERT
  5
AD
  8
SIZE
  2
DOT
 10
85.0
 20
-980.0
 30
0.0
  0
POINT
  5
AE
  8
DEFPOINTS
  6
BYBLOCK
 10
85.0
 20
-685.0
 30
0.0
  0
POINT
  5
AF
  8
DEFPOINTS
  6
BYBLOCK
 10
0.0
 20
-762.188293
 30
0.0
  0
POINT
  5
B0
  8
DEFPOINTS
  6
BYBLOCK
 10
0.0
 20
-980.0
 30
0.0
  0
ENDBLK
  5
B1
  8
SIZE
  0
BLOCK
  8
SIZE
  2
*D11
 70
     1
 10
0.0
 20
0.0
 30
0.0
  3
*D11
  1

  0
TEXT
  5
B4
  8
SIZE
  6
CONTINUOUS
 10
-80.361595
 20
-978.999976
 30
0.0
 40
2.8
  1
159
 50
0.000003
 41
0.7
  7
STANDARD1
  0
LINE
  5
B5
  8
SIZE
  6
CONTINUOUS
 10
0.0
 20
-763.188293
 30
0.0
 11
0.0
 21
-982.0
 31
0.0
  0
LINE
  5
B6
  8
SIZE
  6
CONTINUOUS
 10
-159.0
 20
-686.0
 30
0.0
 11
-159.0
 21
-982.0
 31
0.0
  0
LINE
  5
B7
  8
SIZE
  6
CONTINUOUS
 10
0.0
 20
-980.0
 30
0.0
 11
-159.0
 21
-980.0
 31
0.0
  0
INSERT
  5
B8
  8
SIZE
  2
DOT
 10
0.0
 20
-980.0
 30
0.0
  0
INSERT
  5
B9
  8
SIZE
  2
DOT
 10
-159.0
 20
-980.0
 30
0.0
 50
180.0
  0
POINT
  5
BA
  8
DEFPOINTS
  6
BYBLOCK
 10
-159.0
 20
-685.0
 30
0.0
  0
POINT
  5
BB
  8
DEFPOINTS
  6
BYBLOCK
 10
0.0
 20
-762.188293
 30
0.0
  0
POINT
  5
BC
  8
DEFPOINTS
  6
BYBLOCK
 10
0.0
 20
-980.0
 30
0.0
  0
ENDBLK
  5
BD
  8
SIZE
  0
BLOCK
  8
SIZE
  2
*D12
 70
     1
 10
0.0
 20
0.0
 30
0.0
  3
*D12
  1

  0
TEXT
  5
C0
  8
SIZE
  6
CONTINUOUS
 10
-198.460007
 20
-978.999976
 30
0.0
 40
2.8
  1
75
 50
0.000003
 41
0.7
  7
STANDARD1
  0
LINE
  5
C1
  8
SIZE
  6
CONTINUOUS
 10
-234.0
 20
-661.0
 30
0.0
 11
-234.0
 21
-982.0
 31
0.0
  0
LINE
  5
C2
  8
SIZE
  6
CONTINUOUS
 10
-159.0
 20
-686.0
 30
0.0
 11
-159.0
 21
-982.0
 31
0.0
  0
LINE
  5
C3
  8
SIZE
  6
CONTINUOUS
 10
-234.0
 20
-980.0
 30
0.0
 11
-159.0
 21
-980.0
 31
0.0
  0
INSERT
  5
C4
  8
SIZE
  2
DOT
 10
-234.0
 20
-980.0
 30
0.0
 50
180.0
  0
INSERT
  5
C5
  8
SIZE
  2
DOT
 10
-159.0
 20
-980.0
 30
0.0
  0
POINT
  5
C6
  8
DEFPOINTS
  6
BYBLOCK
 10
-159.0
 20
-685.0
 30
0.0
  0
POINT
  5
C7
  8
DEFPOINTS
  6
BYBLOCK
 10
-234.0
 20
-660.0
 30
0.0
  0
POINT
  5
C8
  8
DEFPOINTS
  6
BYBLOCK
 10
-234.0
 20
-980.0
 30
0.0
  0
ENDBLK
  5
C9
  8
SIZE
  0
BLOCK
  8
SIZE
  2
*D13
 70
     1
 10
0.0
 20
0.0
 30
0.0
  3
*D13
  1

  0
TEXT
  5
CC
  8
SIZE
  6
CONTINUOUS
 10
-276.459991
 20
-978.999976
 30
0.0
 40
2.8
  1
81
 50
0.000003
 41
0.7
  7
STANDARD1
  0
LINE
  5
CD
  8
SIZE
  6
CONTINUOUS
 10
-234.0
 20
-661.0
 30
0.0
 11
-234.0
 21
-982.0
 31
0.0
  0
LINE
  5
CE
  8
SIZE
  6
CONTINUOUS
 10
-315.0
 20
-980.0
 30
0.0
 11
-234.0
 21
-980.0
 31
0.0
  0
INSERT
  5
CF
  8
SIZE
  2
DOT
 10
-315.0
 20
-980.0
 30
0.0
 50
180.0
  0
INSERT
  5
D0
  8
SIZE
  2
DOT
 10
-234.0
 20
-980.0
 30
0.0
  0
POINT
  5
D1
  8
DEFPOINTS
  6
BYBLOCK
 10
-234.0
 20
-660.0
 30
0.0
  0
POINT
  5
D2
  8
DEFPOINTS
  6
BYBLOCK
 10
-315.0
 20
-730.0
 30
0.0
  0
POINT
  5
D3
  8
DEFPOINTS
  6
BYBLOCK
 10
-315.0
 20
-980.0
 30
0.0
  0
ENDBLK
  5
D4
  8
SIZE
  0
BLOCK
  8
SIZE
  2
*D14
 70
     1
 10
0.0
 20
0.0
 30
0.0
  3
*D14
  1

  0
TEXT
  5
D7
  8
SIZE
  6
CONTINUOUS
 10
464.000006
 20
-699.460022
 30
0.0
 40
2.8
  1
65
 50
90.000005
 41
0.7
  7
STANDARD1
  0
LINE
  5
D8
  8
SIZE
  6
CONTINUOUS
 10
106.0
 20
-665.0
 30
0.0
 11
467.0
 21
-665.0
 31
0.0
  0
LINE
  5
D9
  8
SIZE
  6
CONTINUOUS
 10
316.0
 20
-730.0
 30
0.0
 11
467.0
 21
-730.0
 31
0.0
  0
LINE
  5
DA
  8
SIZE
  6
CONTINUOUS
 10
465.0
 20
-665.0
 30
0.0
 11
465.0
 21
-730.0
 31
0.0
  0
INSERT
  5
DB
  8
SIZE
  2
DOT
 10
465.0
 20
-665.0
 30
0.0
 50
90.0
  0
INSERT
  5
DC
  8
SIZE
  2
DOT
 10
465.0
 20
-730.0
 30
0.0
 50
270.0
  0
POINT
  5
DD
  8
DEFPOINTS
  6
BYBLOCK
 10
315.0
 20
-730.0
 30
0.0
  0
POINT
  5
DE
  8
DEFPOINTS
  6
BYBLOCK
 10
105.0
 20
-665.0
 30
0.0
  0
POINT
  5
DF
  8
DEFPOINTS
  6
BYBLOCK
 10
465.0
 20
-665.0
 30
0.0
  0
ENDBLK
  5
E0
  8
SIZE
  0
BLOCK
  8
SIZE
  2
*D15
 70
     1
 10
0.0
 20
0.0
 30
0.0
  3
*D15
  1

  0
TEXT
  5
E3
  8
SIZE
  6
CONTINUOUS
 10
-516.000024
 20
-494.011627
 30
0.0
 40
2.8
  1
289
 50
90.000005
 41
0.7
  7
STANDARD1
  0
LINE
  5
E4
  8
SIZE
  6
CONTINUOUS
 10
-201.0
 20
-351.0
 30
0.0
 11
-517.0
 21
-351.0
 31
0.0
  0
LINE
  5
E5
  8
SIZE
  6
CONTINUOUS
 10
-255.0
 20
-640.0
 30
0.0
 11
-517.0
 21
-640.0
 31
0.0
  0
LINE
  5
E6
  8
SIZE
  6
CONTINUOUS
 10
-515.0
 20
-351.0
 30
0.0
 11
-515.0
 21
-640.0
 31
0.0
  0
INSERT
  5
E7
  8
SIZE
  2
DOT
 10
-515.0
 20
-351.0
 30
0.0
 50
90.0
  0
INSERT
  5
E8
  8
SIZE
  2
DOT
 10
-515.0
 20
-640.0
 30
0.0
 50
270.0
  0
POINT
  5
E9
  8
DEFPOINTS
  6
BYBLOCK
 10
-254.0
 20
-640.0
 30
0.0
  0
POINT
  5
EA
  8
DEFPOINTS
  6
BYBLOCK
 10
-200.0
 20
-351.0
 30
0.0
  0
POINT
  5
EB
  8
DEFPOINTS
  6
BYBLOCK
 10
-515.0
 20
-351.0
 30
0.0
  0
ENDBLK
  5
EC
  8
SIZE
  0
BLOCK
  8
SIZE
  2
*D16
 70
     1
 10
0.0
 20
0.0
 30
0.0
  3
*D16
  1

  0
TEXT
  5
EF
  8
SIZE
  6
CONTINUOUS
 10
-516.000024
 20
-689.584534
 30
0.0
 40
2.8
  1
90
 50
90.000005
 41
0.7
  7
STANDARD1
  0
LINE
  5
F0
  8
SIZE
  6
CONTINUOUS
 10
-255.0
 20
-640.0
 30
0.0
 11
-517.0
 21
-640.0
 31
0.0
  0
LINE
  5
F1
  8
SIZE
  6
CONTINUOUS
 10
-316.0
 20
-730.0
 30
0.0
 11
-517.0
 21
-730.0
 31
0.0
  0
LINE
  5
F2
  8
SIZE
  6
CONTINUOUS
 10
-515.0
 20
-640.0
 30
0.0
 11
-515.0
 21
-730.0
 31
0.0
  0
INSERT
  5
F3
  8
SIZE
  2
DOT
 10
-515.0
 20
-640.0
 30
0.0
 50
90.0
  0
INSERT
  5
F4
  8
SIZE
  2
DOT
 10
-515.0
 20
-730.0
 30
0.0
 50
270.0
  0
POINT
  5
F5
  8
DEFPOINTS
  6
BYBLOCK
 10
-315.0
 20
-730.0
 30
0.0
  0
POINT
  5
F6
  8
DEFPOINTS
  6
BYBLOCK
 10
-254.0
 20
-640.0
 30
0.0
  0
POINT
  5
F7
  8
DEFPOINTS
  6
BYBLOCK
 10
-515.0
 20
-640.0
 30
0.0
  0
ENDBLK
  5
F8
  8
SIZE
  0
BLOCK
  8
SIZE
  2
*D17
 70
     1
 10
0.0
 20
0.0
 30
0.0
  3
*D17
  1

  0
TEXT
  5
FB
  8
SIZE
  6
CONTINUOUS
 10
-249.212891
 20
-500.000006
 30
0.0
 40
2.8
  1
135
 50
0.000003
 41
0.7
  7
STANDARD1
  0
LINE
  5
FC
  8
SIZE
  6
CONTINUOUS
 10
-180.0
 20
-372.0
 30
0.0
 11
-180.0
 21
-503.0
 31
0.0
  0
LINE
  5
FD
  8
SIZE
  6
CONTINUOUS
 10
-180.0
 20
-501.0
 30
0.0
 11
-315.0
 21
-501.0
 31
0.0
  0
INSERT
  5
FE
  8
SIZE
  2
DOT
 10
-180.0
 20
-501.0
 30
0.0
  0
INSERT
  5
FF
  8
SIZE
  2
DOT
 10
-315.0
 20
-501.0
 30
0.0
 50
180.0
  0
POINT
  5
100
  8
DEFPOINTS
  6
BYBLOCK
 10
-315.0
 20
-730.0
 30
0.0
  0
POINT
  5
101
  8
DEFPOINTS
  6
BYBLOCK
 10
-180.0
 20
-371.0
 30
0.0
  0
POINT
  5
102
  8
DEFPOINTS
  6
BYBLOCK
 10
-180.0
 20
-501.0
 30
0.0
  0
ENDBLK
  5
103
  8
SIZE
  0
BLOCK
  8
SIZE
  2
*D18
 70
     1
 10
0.0
 20
0.0
 30
0.0
  3
*D18
  1

  0
TEXT
  5
106
  8
SIZE
  6
CONTINUOUS
 10
-2.94
 20
101.000002
 30
0.0
 40
2.8
  1
496
 50
0.000003
 41
0.7
  7
STANDARD1
  0
LINE
  5
107
  8
SIZE
  6
CONTINUOUS
 10
-248.0
 20
-91.0
 30
0.0
 11
-248.0
 21
102.0
 31
0.0
  0
LINE
  5
108
  8
SIZE
  6
CONTINUOUS
 10
248.0
 20
-91.0
 30
0.0
 11
248.0
 21
102.0
 31
0.0
  0
LINE
  5
109
  8
SIZE
  6
CONTINUOUS
 10
-248.0
 20
100.0
 30
0.0
 11
248.0
 21
100.0
 31
0.0
  0
INSERT
  5
10A
  8
SIZE
  2
DOT
 10
-248.0
 20
100.0
 30
0.0
 50
180.0
  0
INSERT
  5
10B
  8
SIZE
  2
DOT
 10
248.0
 20
100.0
 30
0.0
  0
POINT
  5
10C
  8
DEFPOINTS
  6
BYBLOCK
 10
248.0
 20
-92.0
 30
0.0
  0
POINT
  5
10D
  8
DEFPOINTS
  6
BYBLOCK
 10
-248.0
 20
-92.0
 30
0.0
  0
POINT
  5
10E
  8
DEFPOINTS
  6
BYBLOCK
 10
-248.0
 20
100.0
 30
0.0
  0
ENDBLK
  5
10F
  8
SIZE
  0
BLOCK
  8
SIZE
  2
*D19
 70
     1
 10
0.0
 20
0.0
 30
0.0
  3
*D19
  1

  0
TEXT
  5
112
  8
SIZE
  6
CONTINUOUS
 10
246.039993
 20
200.999994
 30
0.0
 40
2.8
  1
94
 50
0.000003
 41
0.7
  7
STANDARD1
  0
LINE
  5
113
  8
SIZE
  6
CONTINUOUS
 10
201.0
 20
-55.0
 30
0.0
 11
201.0
 21
202.0
 31
0.0
  0
LINE
  5
114
  8
SIZE
  6
CONTINUOUS
 10
295.0
 20
-55.0
 30
0.0
 11
295.0
 21
202.0
 31
0.0
  0
LINE
  5
115
  8
SIZE
  6
CONTINUOUS
 10
201.0
 20
200.0
 30
0.0
 11
295.0
 21
200.0
 31
0.0
  0
INSERT
  5
116
  8
SIZE
  2
DOT
 10
201.0
 20
200.0
 30
0.0
 50
180.0
  0
INSERT
  5
117
  8
SIZE
  2
DOT
 10
295.0
 20
200.0
 30
0.0
  0
POINT
  5
118
  8
DEFPOINTS
  6
BYBLOCK
 10
295.0
 20
-56.0
 30
0.0
  0
POINT
  5
119
  8
DEFPOINTS
  6
BYBLOCK
 10
201.0
 20
-56.0
 30
0.0
  0
POINT
  5
11A
  8
DEFPOINTS
  6
BYBLOCK
 10
201.0
 20
200.0
 30
0.0
  0
ENDBLK
  5
11B
  8
SIZE
  0
BLOCK
  8
SIZE
  2
*D20
 70
     1
 10
0.0
 20
0.0
 30
0.0
  3
*D20
  1

  0
TEXT
  5
11E
  8
SIZE
  6
CONTINUOUS
 10
-2.884157
 20
200.999994
 30
0.0
 40
2.8
  1
402
 50
0.000003
 41
0.7
  7
STANDARD1
  0
LINE
  5
11F
  8
SIZE
  6
CONTINUOUS
 10
-201.0
 20
-55.0
 30
0.0
 11
-201.0
 21
202.0
 31
0.0
  0
LINE
  5
120
  8
SIZE
  6
CONTINUOUS
 10
201.0
 20
-55.0
 30
0.0
 11
201.0
 21
202.0
 31
0.0
  0
LINE
  5
121
  8
SIZE
  6
CONTINUOUS
 10
-201.0
 20
200.0
 30
0.0
 11
201.0
 21
200.0
 31
0.0
  0
INSERT
  5
122
  8
SIZE
  2
DOT
 10
-201.0
 20
200.0
 30
0.0
 50
180.0
  0
INSERT
  5
123
  8
SIZE
  2
DOT
 10
201.0
 20
200.0
 30
0.0
  0
POINT
  5
124
  8
DEFPOINTS
  6
BYBLOCK
 10
201.0
 20
-56.0
 30
0.0
  0
POINT
  5
125
  8
DEFPOINTS
  6
BYBLOCK
 10
-201.0
 20
-56.0
 30
0.0
  0
POINT
  5
126
  8
DEFPOINTS
  6
BYBLOCK
 10
-201.0
 20
200.0
 30
0.0
  0
ENDBLK
  5
127
  8
SIZE
  0
BLOCK
  8
SIZE
  2
*D21
 70
     1
 10
0.0
 20
0.0
 30
0.0
  3
*D21
  1

  0
TEXT
  5
12A
  8
SIZE
  6
CONTINUOUS
 10
-249.960007
 20
200.999994
 30
0.0
 40
2.8
  1
94
 50
0.000003
 41
0.7
  7
STANDARD1
  0
LINE
  5
12B
  8
SIZE
  6
CONTINUOUS
 10
-295.0
 20
-55.0
 30
0.0
 11
-295.0
 21
202.0
 31
0.0
  0
LINE
  5
12C
  8
SIZE
  6
CONTINUOUS
 10
-201.0
 20
-55.0
 30
0.0
 11
-201.0
 21
202.0
 31
0.0
  0
LINE
  5
12D
  8
SIZE
  6
CONTINUOUS
 10
-295.0
 20
200.0
 30
0.0
 11
-201.0
 21
200.0
 31
0.0
  0
INSERT
  5
12E
  8
SIZE
  2
DOT
 10
-295.0
 20
200.0
 30
0.0
 50
180.0
  0
INSERT
  5
12F
  8
SIZE
  2
DOT
 10
-201.0
 20
200.0
 30
0.0
  0
POINT
  5
130
  8
DEFPOINTS
  6
BYBLOCK
 10
-201.0
 20
-56.0
 30
0.0
  0
POINT
  5
131
  8
DEFPOINTS
  6
BYBLOCK
 10
-295.0
 20
-56.0
 30
0.0
  0
POINT
  5
132
  8
DEFPOINTS
  6
BYBLOCK
 10
-295.0
 20
200.0
 30
0.0
  0
ENDBLK
  5
133
  8
SIZE
  0
BLOCK
  8
SIZE
  2
*D22
 70
     1
 10
0.0
 20
0.0
 30
0.0
  3
*D22
  1

  0
TEXT
  5
136
  8
SIZE
  6
CONTINUOUS
 10
663.999976
 20
-1032.939941
 30
0.0
 40
2.8
  1
600
 50
90.000005
 41
0.7
  7
STANDARD1
  0
LINE
  5
137
  8
SIZE
  6
CONTINUOUS
 10
316.0
 20
-730.0
 30
0.0
 11
667.0
 21
-730.0
 31
0.0
  0
LINE
  5
138
  8
SIZE
  6
CONTINUOUS
 10
316.0
 20
-1330.0
 30
0.0
 11
667.0
 21
-1330.0
 31
0.0
  0
LINE
  5
139
  8
SIZE
  6
CONTINUOUS
 10
665.0
 20
-730.0
 30
0.0
 11
665.0
 21
-1330.0
 31
0.0
  0
INSERT
  5
13A
  8
SIZE
  2
DOT
 10
665.0
 20
-730.0
 30
0.0
 50
90.0
  0
INSERT
  5
13B
  8
SIZE
  2
DOT
 10
665.0
 20
-1330.0
 30
0.0
 50
270.0
  0
POINT
  5
13C
  8
DEFPOINTS
  6
BYBLOCK
 10
315.0
 20
-1330.0
 30
0.0
  0
POINT
  5
13D
  8
DEFPOINTS
  6
BYBLOCK
 10
315.0
 20
-730.0
 30
0.0
  0
POINT
  5
13E
  8
DEFPOINTS
  6
BYBLOCK
 10
665.0
 20
-730.0
 30
0.0
  0
ENDBLK
  5
13F
  8
SIZE
  0
BLOCK
  8
SIZE
  2
*D23
 70
     1
 10
0.0
 20
0.0
 30
0.0
  3
*D23
  1

  0
TEXT
  5
142
  8
SIZE
  6
CONTINUOUS
 10
-2.94
 20
-1478.999976
 30
0.0
 40
2.8
  1
630
 50
0.000003
 41
0.7
  7
STANDARD1
  0
LINE
  5
143
  8
SIZE
  6
CONTINUOUS
 10
-315.0
 20
-1331.0
 30
0.0
 11
-315.0
 21
-1482.0
 31
0.0
  0
LINE
  5
144
  8
SIZE
  6
CONTINUOUS
 10
315.0
 20
-1331.0
 30
0.0
 11
315.0
 21
-1482.0
 31
0.0
  0
LINE
  5
145
  8
SIZE
  6
CONTINUOUS
 10
-315.0
 20
-1480.0
 30
0.0
 11
315.0
 21
-1480.0
 31
0.0
  0
INSERT
  5
146
  8
SIZE
  2
DOT
 10
-315.0
 20
-1480.0
 30
0.0
 50
180.0
  0
INSERT
  5
147
  8
SIZE
  2
DOT
 10
315.0
 20
-1480.0
 30
0.0
  0
POINT
  5
148
  8
DEFPOINTS
  6
BYBLOCK
 10
315.0
 20
-1330.0
 30
0.0
  0
POINT
  5
149
  8
DEFPOINTS
  6
BYBLOCK
 10
-315.0
 20
-1330.0
 30
0.0
  0
POINT
  5
14A
  8
DEFPOINTS
  6
BYBLOCK
 10
-315.0
 20
-1480.0
 30
0.0
  0
ENDBLK
  5
14B
  8
SIZE
  0
BLOCK
  8
SIZE
  2
*D24
 70
     1
 10
0.0
 20
0.0
 30
0.0
  3
*D24
  1

  0
TEXT
  5
14E
  8
SIZE
  6
CONTINUOUS
 10
-30.400673
 20
300.999994
 30
0.0
 40
2.8
  1
630
 50
0.000003
 41
0.714286
  7
STANDARD1
  0
LINE
  5
14F
  8
SIZE
  6
CONTINUOUS
 10
315.0
 20
1.0
 30
0.0
 11
315.0
 21
302.0
 31
0.0
  0
LINE
  5
150
  8
SIZE
  6
CONTINUOUS
 10
-315.0
 20
1.0
 30
0.0
 11
-315.0
 21
302.0
 31
0.0
  0
LINE
  5
151
  8
SIZE
  6
CONTINUOUS
 10
315.0
 20
300.0
 30
0.0
 11
-315.0
 21
300.0
 31
0.0
  0
INSERT
  5
152
  8
SIZE
  2
DOT
 10
315.0
 20
300.0
 30
0.0
  0
INSERT
  5
153
  8
SIZE
  2
DOT
 10
-315.0
 20
300.0
 30
0.0
 50
180.0
  0
POINT
  5
154
  8
DEFPOINTS
  6
BYBLOCK
 10
-315.0
 20
0.0
 30
0.0
  0
POINT
  5
155
  8
DEFPOINTS
  6
BYBLOCK
 10
315.0
 20
0.0
 30
0.0
  0
POINT
  5
156
  8
DEFPOINTS
  6
BYBLOCK
 10
315.0
 20
300.0
 30
0.0
  0
ENDBLK
  5
157
  8
SIZE
  0
BLOCK
  8
SIZE
  2
*D25
 70
     1
 10
0.0
 20
0.0
 30
0.0
  3
*D25
  1

  0
TEXT
  5
15A
  8
SIZE
  6
CONTINUOUS
 10
663.999976
 20
-362.800506
 30
0.0
 40
2.8
  1
730
 50
90.000005
 41
0.714286
  7
STANDARD1
  0
LINE
  5
15B
  8
SIZE
  6
CONTINUOUS
 10
316.0
 20
-730.0
 30
0.0
 11
667.0
 21
-730.0
 31
0.0
  0
LINE
  5
15C
  8
SIZE
  6
CONTINUOUS
 10
316.0
 20
0.0
 30
0.0
 11
667.0
 21
0.0
 31
0.0
  0
LINE
  5
15D
  8
SIZE
  6
CONTINUOUS
 10
665.0
 20
-730.0
 30
0.0
 11
665.0
 21
0.0
 31
0.0
  0
INSERT
  5
15E
  8
SIZE
  2
DOT
 10
665.0
 20
-730.0
 30
0.0
 50
270.0
  0
INSERT
  5
15F
  8
SIZE
  2
DOT
 10
665.0
 20
0.0
 30
0.0
 50
90.0
  0
POINT
  5
160
  8
DEFPOINTS
  6
BYBLOCK
 10
315.0
 20
0.0
 30
0.0
  0
POINT
  5
161
  8
DEFPOINTS
  6
BYBLOCK
 10
315.0
 20
-730.0
 30
0.0
  0
POINT
  5
162
  8
DEFPOINTS
  6
BYBLOCK
 10
665.0
 20
-730.0
 30
0.0
  0
ENDBLK
  5
163
  8
SIZE
  0
BLOCK
  8
0
  2
_ORIGIN
 70
     0
 10
0.0
 20
0.0
 30
0.0
  3
_ORIGIN
  1

  0
CIRCLE
  5
166
  8
0
  6
BYBLOCK
 62
     0
 10
0.0
 20
0.0
 30
0.0
 40
0.5
  0
LINE
  5
167
  8
0
  6
BYBLOCK
 62
     0
 10
0.0
 20
0.0
 30
0.0
 11
-1.0
 21
0.0
 31
0.0
  0
ENDBLK
  5
168
  8
0
  0
BLOCK
  8
0
  2
*D27
 70
     1
 10
0.0
 20
0.0
 30
0.0
  3
*D27
  1

  0
LINE
  5
16B
  8
0
  6
BYBLOCK
 62
     0
 10
325.0
 20
0.0
 30
0.0
 11
675.1
 21
0.0
 31
0.0
  0
LINE
  5
16C
  8
0
  6
BYBLOCK
 62
     0
 10
325.0
 20
-730.0
 30
0.0
 11
675.1
 21
-730.0
 31
0.0
  0
LINE
  5
16D
  8
0
  6
BYBLOCK
 62
     0
 10
662.6
 20
-10.0
 30
0.0
 11
662.6
 21
-720.0
 31
0.0
  0
INSERT
  5
16E
  8
0
  6
BYBLOCK
 62
     0
  2
_ORIGIN
 10
662.6
 20
0.0
 30
0.0
 41
10.0
 42
10.0
 43
10.0
 50
90.0
  0
INSERT
  5
16F
  8
0
  6
BYBLOCK
 62
     0
  2
_ORIGIN
 10
662.6
 20
-730.0
 30
0.0
 41
10.0
 42
10.0
 43
10.0
 50
270.0
  0
TEXT
  5
170
  8
0
  6
BYBLOCK
 62
     0
 10
652.6
 20
-397.300507
 30
0.0
 40
30.0
  1
730
 50
90.0
 72
     1
 11
652.6
 21
-359.800507
 31
0.0
  0
POINT
  5
171
  8
DEFPOINTS
  6
BYBLOCK
 62
     0
 10
315.0
 20
0.0
 30
0.0
  0
POINT
  5
172
  8
DEFPOINTS
  6
BYBLOCK
 62
     0
 10
315.0
 20
-730.0
 30
0.0
  0
POINT
  5
173
  8
DEFPOINTS
  6
BYBLOCK
 62
     0
 10
662.6
 20
-730.0
 30
0.0
  0
ENDBLK
  5
174
  8
0
  0
BLOCK
  8
0
  2
*D28
 70
     1
 10
0.0
 20
0.0
 30
0.0
  3
*D28
  1

  0
LINE
  5
177
  8
0
  6
BYBLOCK
 62
     0
 10
-315.0
 20
10.0
 30
0.0
 11
-315.0
 21
314.9
 31
0.0
  0
LINE
  5
178
  8
0
  6
BYBLOCK
 62
     0
 10
315.0
 20
10.0
 30
0.0
 11
315.0
 21
314.9
 31
0.0
  0
LINE
  5
179
  8
0
  6
BYBLOCK
 62
     0
 10
-305.0
 20
302.4
 30
0.0
 11
305.0
 21
302.4
 31
0.0
  0
INSERT
  5
17A
  8
0
  6
BYBLOCK
 62
     0
  2
_ORIGIN
 10
-315.0
 20
302.4
 30
0.0
 41
10.0
 42
10.0
 43
10.0
 50
180.0
  0
INSERT
  5
17B
  8
0
  6
BYBLOCK
 62
     0
  2
_ORIGIN
 10
315.0
 20
302.4
 30
0.0
 41
10.0
 42
10.0
 43
10.0
  0
TEXT
  5
17C
  8
0
  6
BYBLOCK
 62
     0
 10
-64.900673
 20
312.4
 30
0.0
 40
30.0
  1
630
 72
     1
 11
-27.400673
 21
312.4
 31
0.0
  0
POINT
  5
17D
  8
DEFPOINTS
  6
BYBLOCK
 62
     0
 10
-315.0
 20
0.0
 30
0.0
  0
POINT
  5
17E
  8
DEFPOINTS
  6
BYBLOCK
 62
     0
 10
315.0
 20
0.0
 30
0.0
  0
POINT
  5
17F
  8
DEFPOINTS
  6
BYBLOCK
 62
     0
 10
315.0
 20
302.4
 30
0.0
  0
ENDBLK
  5
180
  8
0
  0
BLOCK
  8
0
  2
*D29
 70
     1
 10
0.0
 20
0.0
 30
0.0
  3
*D29
  1

  0
LINE
  5
183
  8
0
  6
BYBLOCK
 62
     0
 10
315.0
 20
-1340.0
 30
0.0
 11
315.0
 21
-1490.1
 31
0.0
  0
LINE
  5
184
  8
0
  6
BYBLOCK
 62
     0
 10
-315.0
 20
-1340.0
 30
0.0
 11
-315.0
 21
-1490.1
 31
0.0
  0
LINE
  5
185
  8
0
  6
BYBLOCK
 62
     0
 10
305.0
 20
-1477.6
 30
0.0
 11
-305.0
 21
-1477.6
 31
0.0
  0
INSERT
  5
186
  8
0
  6
BYBLOCK
 62
     0
  2
_ORIGIN
 10
315.0
 20
-1477.6
 30
0.0
 41
10.0
 42
10.0
 43
10.0
  0
INSERT
  5
187
  8
0
  6
BYBLOCK
 62
     0
  2
_ORIGIN
 10
-315.0
 20
-1477.6
 30
0.0
 41
10.0
 42
10.0
 43
10.0
 50
180.0
  0
TEXT
  5
188
  8
0
  6
BYBLOCK
 62
     0
 10
-37.5
 20
-1467.6
 30
0.0
 40
30.0
  1
630
 72
     1
 11
0.0
 21
-1467.6
 31
0.0
  0
POINT
  5
189
  8
DEFPOINTS
  6
BYBLOCK
 62
     0
 10
315.0
 20
-1330.0
 30
0.0
  0
POINT
  5
18A
  8
DEFPOINTS
  6
BYBLOCK
 62
     0
 10
-315.0
 20
-1330.0
 30
0.0
  0
POINT
  5
18B
  8
DEFPOINTS
  6
BYBLOCK
 62
     0
 10
-315.0
 20
-1477.6
 30
0.0
  0
ENDBLK
  5
18C
  8
0
  0
BLOCK
  8
0
  2
*D30
 70
     1
 10
0.0
 20
0.0
 30
0.0
  3
*D30
  1

  0
LINE
  5
18F
  8
0
  6
BYBLOCK
 62
     0
 10
325.0
 20
-1330.0
 30
0.0
 11
675.1
 21
-1330.0
 31
0.0
  0
LINE
  5
190
  8
0
  6
BYBLOCK
 62
     0
 10
325.0
 20
-730.0
 30
0.0
 11
675.1
 21
-730.0
 31
0.0
  0
LINE
  5
191
  8
0
  6
BYBLOCK
 62
     0
 10
662.6
 20
-1320.0
 30
0.0
 11
662.6
 21
-740.0
 31
0.0
  0
INSERT
  5
192
  8
0
  6
BYBLOCK
 62
     0
  2
_ORIGIN
 10
662.6
 20
-1330.0
 30
0.0
 41
10.0
 42
10.0
 43
10.0
 50
270.0
  0
INSERT
  5
193
  8
0
  6
BYBLOCK
 62
     0
  2
_ORIGIN
 10
662.6
 20
-730.0
 30
0.0
 41
10.0
 42
10.0
 43
10.0
 50
90.0
  0
TEXT
  5
194
  8
0
  6
BYBLOCK
 62
     0
 10
652.6
 20
-1065.0
 30
0.0
 40
30.0
  1
600
 50
90.0
 72
     1
 11
652.6
 21
-1030.0
 31
0.0
  0
POINT
  5
195
  8
DEFPOINTS
  6
BYBLOCK
 62
     0
 10
315.0
 20
-1330.0
 30
0.0
  0
POINT
  5
196
  8
DEFPOINTS
  6
BYBLOCK
 62
     0
 10
315.0
 20
-730.0
 30
0.0
  0
POINT
  5
197
  8
DEFPOINTS
  6
BYBLOCK
 62
     0
 10
662.6
 20
-730.0
 30
0.0
  0
ENDBLK
  5
198
  8
0
  0
BLOCK
  8
0
  2
*D31
 70
     1
 10
0.0
 20
0.0
 30
0.0
  3
*D31
  1

  0
LINE
  5
19B
  8
0
  6
BYBLOCK
 62
     0
 10
-201.0
 20
-46.0
 30
0.0
 11
-201.0
 21
214.9
 31
0.0
  0
LINE
  5
19C
  8
0
  6
BYBLOCK
 62
     0
 10
-295.0
 20
-46.0
 30
0.0
 11
-295.0
 21
214.9
 31
0.0
  0
LINE
  5
19D
  8
0
  6
BYBLOCK
 62
     0
 10
-211.0
 20
202.4
 30
0.0
 11
-285.0
 21
202.4
 31
0.0
  0
INSERT
  5
19E
  8
0
  6
BYBLOCK
 62
     0
  2
_ORIGIN
 10
-201.0
 20
202.4
 30
0.0
 41
10.0
 42
10.0
 43
10.0
  0
INSERT
  5
19F
  8
0
  6
BYBLOCK
 62
     0
  2
_ORIGIN
 10
-295.0
 20
202.4
 30
0.0
 41
10.0
 42
10.0
 43
10.0
 50
180.0
  0
TEXT
  5
1A0
  8
0
  6
BYBLOCK
 62
     0
 10
-273.0
 20
212.4
 30
0.0
 40
30.0
  1
94
 72
     1
 11
-248.0
 21
212.4
 31
0.0
  0
POINT
  5
1A1
  8
DEFPOINTS
  6
BYBLOCK
 62
     0
 10
-201.0
 20
-56.0
 30
0.0
  0
POINT
  5
1A2
  8
DEFPOINTS
  6
BYBLOCK
 62
     0
 10
-295.0
 20
-56.0
 30
0.0
  0
POINT
  5
1A3
  8
DEFPOINTS
  6
BYBLOCK
 62
     0
 10
-295.0
 20
202.4
 30
0.0
  0
ENDBLK
  5
1A4
  8
0
  0
BLOCK
  8
0
  2
*D32
 70
     1
 10
0.0
 20
0.0
 30
0.0
  3
*D32
  1

  0
LINE
  5
1A7
  8
0
  6
BYBLOCK
 62
     0
 10
201.0
 20
-46.0
 30
0.0
 11
201.0
 21
214.9
 31
0.0
  0
LINE
  5
1A8
  8
0
  6
BYBLOCK
 62
     0
 10
-201.0
 20
-46.0
 30
0.0
 11
-201.0
 21
214.9
 31
0.0
  0
LINE
  5
1A9
  8
0
  6
BYBLOCK
 62
     0
 10
191.0
 20
202.4
 30
0.0
 11
-191.0
 21
202.4
 31
0.0
  0
INSERT
  5
1AA
  8
0
  6
BYBLOCK
 62
     0
  2
_ORIGIN
 10
201.0
 20
202.4
 30
0.0
 41
10.0
 42
10.0
 43
10.0
  0
INSERT
  5
1AB
  8
0
  6
BYBLOCK
 62
     0
  2
_ORIGIN
 10
-201.0
 20
202.4
 30
0.0
 41
10.0
 42
10.0
 43
10.0
 50
180.0
  0
TEXT
  5
1AC
  8
0
  6
BYBLOCK
 62
     0
 10
-37.444157
 20
212.4
 30
0.0
 40
30.0
  1
402
 72
     1
 11
0.055843
 21
212.4
 31
0.0
  0
POINT
  5
1AD
  8
DEFPOINTS
  6
BYBLOCK
 62
     0
 10
201.0
 20
-56.0
 30
0.0
  0
POINT
  5
1AE
  8
DEFPOINTS
  6
BYBLOCK
 62
     0
 10
-201.0
 20
-56.0
 30
0.0
  0
POINT
  5
1AF
  8
DEFPOINTS
  6
BYBLOCK
 62
     0
 10
-201.0
 20
202.4
 30
0.0
  0
ENDBLK
  5
1B0
  8
0
  0
BLOCK
  8
0
  2
*D33
 70
     1
 10
0.0
 20
0.0
 30
0.0
  3
*D33
  1

  0
LINE
  5
1B3
  8
0
  6
BYBLOCK
 62
     0
 10
295.0
 20
-46.0
 30
0.0
 11
295.0
 21
214.9
 31
0.0
  0
LINE
  5
1B4
  8
0
  6
BYBLOCK
 62
     0
 10
201.0
 20
-46.0
 30
0.0
 11
201.0
 21
214.9
 31
0.0
  0
LINE
  5
1B5
  8
0
  6
BYBLOCK
 62
     0
 10
285.0
 20
202.4
 30
0.0
 11
211.0
 21
202.4
 31
0.0
  0
INSERT
  5
1B6
  8
0
  6
BYBLOCK
 62
     0
  2
_ORIGIN
 10
295.0
 20
202.4
 30
0.0
 41
10.0
 42
10.0
 43
10.0
  0
INSERT
  5
1B7
  8
0
  6
BYBLOCK
 62
     0
  2
_ORIGIN
 10
201.0
 20
202.4
 30
0.0
 41
10.0
 42
10.0
 43
10.0
 50
180.0
  0
TEXT
  5
1B8
  8
0
  6
BYBLOCK
 62
     0
 10
223.0
 20
212.4
 30
0.0
 40
30.0
  1
94
 72
     1
 11
248.0
 21
212.4
 31
0.0
  0
POINT
  5
1B9
  8
DEFPOINTS
  6
BYBLOCK
 62
     0
 10
295.0
 20
-56.0
 30
0.0
  0
POINT
  5
1BA
  8
DEFPOINTS
  6
BYBLOCK
 62
     0
 10
201.0
 20
-56.0
 30
0.0
  0
POINT
  5
1BB
  8
DEFPOINTS
  6
BYBLOCK
 62
     0
 10
201.0
 20
202.4
 30
0.0
  0
ENDBLK
  5
1BC
  8
0
  0
BLOCK
  8
0
  2
*D34
 70
     1
 10
0.0
 20
0.0
 30
0.0
  3
*D34
  1

  0
LINE
  5
1BF
  8
0
  6
BYBLOCK
 62
     0
 10
248.0
 20
-82.0
 30
0.0
 11
248.0
 21
114.9
 31
0.0
  0
LINE
  5
1C0
  8
0
  6
BYBLOCK
 62
     0
 10
-248.0
 20
-82.0
 30
0.0
 11
-248.0
 21
114.9
 31
0.0
  0
LINE
  5
1C1
  8
0
  6
BYBLOCK
 62
     0
 10
238.0
 20
102.4
 30
0.0
 11
-238.0
 21
102.4
 31
0.0
  0
INSERT
  5
1C2
  8
0
  6
BYBLOCK
 62
     0
  2
_ORIGIN
 10
248.0
 20
102.4
 30
0.0
 41
10.0
 42
10.0
 43
10.0
  0
INSERT
  5
1C3
  8
0
  6
BYBLOCK
 62
     0
  2
_ORIGIN
 10
-248.0
 20
102.4
 30
0.0
 41
10.0
 42
10.0
 43
10.0
 50
180.0
  0
TEXT
  5
1C4
  8
0
  6
BYBLOCK
 62
     0
 10
-40.0
 20
112.4
 30
0.0
 40
30.0
  1
496
 72
     1
 11
0.0
 21
112.4
 31
0.0
  0
POINT
  5
1C5
  8
DEFPOINTS
  6
BYBLOCK
 62
     0
 10
248.0
 20
-92.0
 30
0.0
  0
POINT
  5
1C6
  8
DEFPOINTS
  6
BYBLOCK
 62
     0
 10
-248.0
 20
-92.0
 30
0.0
  0
POINT
  5
1C7
  8
DEFPOINTS
  6
BYBLOCK
 62
     0
 10
-248.0
 20
102.4
 30
0.0
  0
ENDBLK
  5
1C8
  8
0
  0
BLOCK
  8
0
  2
*D35
 70
     1
 10
0.0
 20
0.0
 30
0.0
  3
*D35
  1

  0
LINE
  5
1CB
  8
0
  6
BYBLOCK
 62
     0
 10
-315.0
 20
-720.0
 30
0.0
 11
-315.0
 21
-486.1
 31
0.0
  0
LINE
  5
1CC
  8
0
  6
BYBLOCK
 62
     0
 10
-180.0
 20
-381.0
 30
0.0
 11
-180.0
 21
-511.1
 31
0.0
  0
LINE
  5
1CD
  8
0
  6
BYBLOCK
 62
     0
 10
-305.0
 20
-498.6
 30
0.0
 11
-190.0
 21
-498.6
 31
0.0
  0
INSERT
  5
1CE
  8
0
  6
BYBLOCK
 62
     0
  2
_ORIGIN
 10
-315.0
 20
-498.6
 30
0.0
 41
10.0
 42
10.0
 43
10.0
 50
180.0
  0
INSERT
  5
1CF
  8
0
  6
BYBLOCK
 62
     0
  2
_ORIGIN
 10
-180.0
 20
-498.6
 30
0.0
 41
10.0
 42
10.0
 43
10.0
  0
TEXT
  5
1D0
  8
0
  6
BYBLOCK
 62
     0
 10
-281.272888
 20
-488.6
 30
0.0
 40
30.0
  1
135
 72
     1
 11
-246.272888
 21
-488.6
 31
0.0
  0
POINT
  5
1D1
  8
DEFPOINTS
  6
BYBLOCK
 62
     0
 10
-315.0
 20
-730.0
 30
0.0
  0
POINT
  5
1D2
  8
DEFPOINTS
  6
BYBLOCK
 62
     0
 10
-180.0
 20
-371.0
 30
0.0
  0
POINT
  5
1D3
  8
DEFPOINTS
  6
BYBLOCK
 62
     0
 10
-180.0
 20
-498.6
 30
0.0
  0
ENDBLK
  5
1D4
  8
0
  0
BLOCK
  8
0
  2
*D36
 70
     1
 10
0.0
 20
0.0
 30
0.0
  3
*D36
  1

  0
LINE
  5
1D7
  8
0
  6
BYBLOCK
 62
     0
 10
-325.0
 20
-730.0
 30
0.0
 11
-529.9
 21
-730.0
 31
0.0
  0
LINE
  5
1D8
  8
0
  6
BYBLOCK
 62
     0
 10
-264.0
 20
-640.0
 30
0.0
 11
-529.9
 21
-640.0
 31
0.0
  0
LINE
  5
1D9
  8
0
  6
BYBLOCK
 62
     0
 10
-517.4
 20
-720.0
 30
0.0
 11
-517.4
 21
-650.0
 31
0.0
  0
INSERT
  5
1DA
  8
0
  6
BYBLOCK
 62
     0
  2
_ORIGIN
 10
-517.4
 20
-730.0
 30
0.0
 41
10.0
 42
10.0
 43
10.0
 50
270.0
  0
INSERT
  5
1DB
  8
0
  6
BYBLOCK
 62
     0
  2
_ORIGIN
 10
-517.4
 20
-640.0
 30
0.0
 41
10.0
 42
10.0
 43
10.0
 50
90.0
  0
TEXT
  5
1DC
  8
0
  6
BYBLOCK
 62
     0
 10
-527.4
 20
-710.124512
 30
0.0
 40
30.0
  1
90
 50
90.0
 72
     1
 11
-527.4
 21
-687.624512
 31
0.0
  0
POINT
  5
1DD
  8
DEFPOINTS
  6
BYBLOCK
 62
     0
 10
-315.0
 20
-730.0
 30
0.0
  0
POINT
  5
1DE
  8
DEFPOINTS
  6
BYBLOCK
 62
     0
 10
-254.0
 20
-640.0
 30
0.0
  0
POINT
  5
1DF
  8
DEFPOINTS
  6
BYBLOCK
 62
     0
 10
-517.4
 20
-640.0
 30
0.0
  0
ENDBLK
  5
1E0
  8
0
  0
BLOCK
  8
0
  2
*D37
 70
     1
 10
0.0
 20
0.0
 30
0.0
  3
*D37
  1

  0
LINE
  5
1E3
  8
0
  6
BYBLOCK
 62
     0
 10
-264.0
 20
-640.0
 30
0.0
 11
-529.9
 21
-640.0
 31
0.0
  0
LINE
  5
1E4
  8
0
  6
BYBLOCK
 62
     0
 10
-210.0
 20
-351.0
 30
0.0
 11
-529.9
 21
-351.0
 31
0.0
  0
LINE
  5
1E5
  8
0
  6
BYBLOCK
 62
     0
 10
-517.4
 20
-630.0
 30
0.0
 11
-517.4
 21
-361.0
 31
0.0
  0
INSERT
  5
1E6
  8
0
  6
BYBLOCK
 62
     0
  2
_ORIGIN
 10
-517.4
 20
-640.0
 30
0.0
 41
10.0
 42
10.0
 43
10.0
 50
270.0
  0
INSERT
  5
1E7
  8
0
  6
BYBLOCK
 62
     0
  2
_ORIGIN
 10
-517.4
 20
-351.0
 30
0.0
 41
10.0
 42
10.0
 43
10.0
 50
90.0
  0
TEXT
  5
1E8
  8
0
  6
BYBLOCK
 62
     0
 10
-527.4
 20
-531.071625
 30
0.0
 40
30.0
  1
289
 50
90.0
 72
     1
 11
-527.4
 21
-491.071625
 31
0.0
  0
POINT
  5
1E9
  8
DEFPOINTS
  6
BYBLOCK
 62
     0
 10
-254.0
 20
-640.0
 30
0.0
  0
POINT
  5
1EA
  8
DEFPOINTS
  6
BYBLOCK
 62
     0
 10
-200.0
 20
-351.0
 30
0.0
  0
POINT
  5
1EB
  8
DEFPOINTS
  6
BYBLOCK
 62
     0
 10
-517.4
 20
-351.0
 30
0.0
  0
ENDBLK
  5
1EC
  8
0
  0
BLOCK
  8
0
  2
*D38
 70
     1
 10
0.0
 20
0.0
 30
0.0
  3
*D38
  1

  0
LINE
  5
1EF
  8
0
  6
BYBLOCK
 62
     0
 10
325.0
 20
-730.0
 30
0.0
 11
475.1
 21
-730.0
 31
0.0
  0
LINE
  5
1F0
  8
0
  6
BYBLOCK
 62
     0
 10
115.0
 20
-665.0
 30
0.0
 11
475.1
 21
-665.0
 31
0.0
  0
LINE
  5
1F1
  8
0
  6
BYBLOCK
 62
     0
 10
462.6
 20
-720.0
 30
0.0
 11
462.6
 21
-675.0
 31
0.0
  0
INSERT
  5
1F2
  8
0
  6
BYBLOCK
 62
     0
  2
_ORIGIN
 10
462.6
 20
-730.0
 30
0.0
 41
10.0
 42
10.0
 43
10.0
 50
270.0
  0
INSERT
  5
1F3
  8
0
  6
BYBLOCK
 62
     0
  2
_ORIGIN
 10
462.6
 20
-665.0
 30
0.0
 41
10.0
 42
10.0
 43
10.0
 50
90.0
  0
TEXT
  5
1F4
  8
0
  6
BYBLOCK
 62
     0
 10
452.6
 20
-722.5
 30
0.0
 40
30.0
  1
65
 50
90.0
 72
     1
 11
452.6
 21
-697.5
 31
0.0
  0
POINT
  5
1F5
  8
DEFPOINTS
  6
BYBLOCK
 62
     0
 10
315.0
 20
-730.0
 30
0.0
  0
POINT
  5
1F6
  8
DEFPOINTS
  6
BYBLOCK
 62
     0
 10
105.0
 20
-665.0
 30
0.0
  0
POINT
  5
1F7
  8
DEFPOINTS
  6
BYBLOCK
 62
     0
 10
462.6
 20
-665.0
 30
0.0
  0
ENDBLK
  5
1F8
  8
0
  0
BLOCK
  8
0
  2
*D39
 70
     1
 10
0.0
 20
0.0
 30
0.0
  3
*D39
  1

  0
LINE
  5
1FB
  8
0
  6
BYBLOCK
 62
     0
 10
-234.0
 20
-670.0
 30
0.0
 11
-234.0
 21
-990.1
 31
0.0
  0
LINE
  5
1FC
  8
0
  6
BYBLOCK
 62
     0
 10
-315.0
 20
-740.0
 30
0.0
 11
-315.0
 21
-990.1
 31
0.0
  0
LINE
  5
1FD
  8
0
  6
BYBLOCK
 62
     0
 10
-244.0
 20
-977.6
 30
0.0
 11
-305.0
 21
-977.6
 31
0.0
  0
INSERT
  5
1FE
  8
0
  6
BYBLOCK
 62
     0
  2
_ORIGIN
 10
-234.0
 20
-977.6
 30
0.0
 41
10.0
 42
10.0
 43
10.0
  0
INSERT
  5
1FF
  8
0
  6
BYBLOCK
 62
     0
  2
_ORIGIN
 10
-315.0
 20
-977.6
 30
0.0
 41
10.0
 42
10.0
 43
10.0
 50
180.0
  0
TEXT
  5
200
  8
0
  6
BYBLOCK
 62
     0
 10
-294.5
 20
-967.6
 30
0.0
 40
30.0
  1
81
 72
     1
 11
-274.5
 21
-967.6
 31
0.0
  0
POINT
  5
201
  8
DEFPOINTS
  6
BYBLOCK
 62
     0
 10
-234.0
 20
-660.0
 30
0.0
  0
POINT
  5
202
  8
DEFPOINTS
  6
BYBLOCK
 62
     0
 10
-315.0
 20
-730.0
 30
0.0
  0
POINT
  5
203
  8
DEFPOINTS
  6
BYBLOCK
 62
     0
 10
-315.0
 20
-977.6
 30
0.0
  0
ENDBLK
  5
204
  8
0
  0
BLOCK
  8
0
  2
*D40
 70
     1
 10
0.0
 20
0.0
 30
0.0
  3
*D40
  1

  0
LINE
  5
207
  8
0
  6
BYBLOCK
 62
     0
 10
-159.0
 20
-695.0
 30
0.0
 11
-159.0
 21
-990.1
 31
0.0
  0
LINE
  5
208
  8
0
  6
BYBLOCK
 62
     0
 10
-234.0
 20
-670.0
 30
0.0
 11
-234.0
 21
-990.1
 31
0.0
  0
LINE
  5
209
  8
0
  6
BYBLOCK
 62
     0
 10
-169.0
 20
-977.6
 30
0.0
 11
-224.0
 21
-977.6
 31
0.0
  0
INSERT
  5
20A
  8
0
  6
BYBLOCK
 62
     0
  2
_ORIGIN
 10
-159.0
 20
-977.6
 30
0.0
 41
10.0
 42
10.0
 43
10.0
  0
INSERT
  5
20B
  8
0
  6
BYBLOCK
 62
     0
  2
_ORIGIN
 10
-234.0
 20
-977.6
 30
0.0
 41
10.0
 42
10.0
 43
10.0
 50
180.0
  0
TEXT
  5
20C
  8
0
  6
BYBLOCK
 62
     0
 10
-221.5
 20
-967.6
 30
0.0
 40
30.0
  1
75
 72
     1
 11
-196.5
 21
-967.6
 31
0.0
  0
POINT
  5
20D
  8
DEFPOINTS
  6
BYBLOCK
 62
     0
 10
-159.0
 20
-685.0
 30
0.0
  0
POINT
  5
20E
  8
DEFPOINTS
  6
BYBLOCK
 62
     0
 10
-234.0
 20
-660.0
 30
0.0
  0
POINT
  5
20F
  8
DEFPOINTS
  6
BYBLOCK
 62
     0
 10
-234.0
 20
-977.6
 30
0.0
  0
ENDBLK
  5
210
  8
0
  0
BLOCK
  8
0
  2
*D41
 70
     1
 10
0.0
 20
0.0
 30
0.0
  3
*D41
  1

  0
LINE
  5
213
  8
0
  6
BYBLOCK
 62
     0
 10
-159.0
 20
-695.0
 30
0.0
 11
-159.0
 21
-990.1
 31
0.0
  0
LINE
  5
214
  8
0
  6
BYBLOCK
 62
     0
 10
0.0
 20
-772.188293
 30
0.0
 11
0.0
 21
-990.1
 31
0.0
  0
LINE
  5
215
  8
0
  6
BYBLOCK
 62
     0
 10
-149.0
 20
-977.6
 30
0.0
 11
-10.0
 21
-977.6
 31
0.0
  0
INSERT
  5
216
  8
0
  6
BYBLOCK
 62
     0
  2
_ORIGIN
 10
-159.0
 20
-977.6
 30
0.0
 41
10.0
 42
10.0
 43
10.0
 50
180.0
  0
INSERT
  5
217
  8
0
  6
BYBLOCK
 62
     0
  2
_ORIGIN
 10
0.0
 20
-977.6
 30
0.0
 41
10.0
 42
10.0
 43
10.0
  0
TEXT
  5
218
  8
0
  6
BYBLOCK
 62
     0
 10
-112.421593
 20
-967.6
 30
0.0
 40
30.0
  1
159
 72
     1
 11
-77.421593
 21
-967.6
 31
0.0
  0
POINT
  5
219
  8
DEFPOINTS
  6
BYBLOCK
 62
     0
 10
-159.0
 20
-685.0
 30
0.0
  0
POINT
  5
21A
  8
DEFPOINTS
  6
BYBLOCK
 62
     0
 10
0.0
 20
-762.188293
 30
0.0
  0
POINT
  5
21B
  8
DEFPOINTS
  6
BYBLOCK
 62
     0
 10
0.0
 20
-977.6
 30
0.0
  0
ENDBLK
  5
21C
  8
0
  0
BLOCK
  8
0
  2
*D42
 70
     1
 10
0.0
 20
0.0
 30
0.0
  3
*D42
  1

  0
LINE
  5
21F
  8
0
  6
BYBLOCK
 62
     0
 10
85.0
 20
-695.0
 30
0.0
 11
85.0
 21
-990.1
 31
0.0
  0
LINE
  5
220
  8
0
  6
BYBLOCK
 62
     0
 10
0.0
 20
-772.188293
 30
0.0
 11
0.0
 21
-990.1
 31
0.0
  0
LINE
  5
221
  8
0
  6
BYBLOCK
 62
     0
 10
75.0
 20
-977.6
 30
0.0
 11
10.0
 21
-977.6
 31
0.0
  0
INSERT
  5
222
  8
0
  6
BYBLOCK
 62
     0
  2
_ORIGIN
 10
85.0
 20
-977.6
 30
0.0
 41
10.0
 42
10.0
 43
10.0
  0
INSERT
  5
223
  8
0
  6
BYBLOCK
 62
     0
  2
_ORIGIN
 10
0.0
 20
-977.6
 30
0.0
 41
10.0
 42
10.0
 43
10.0
 50
180.0
  0
TEXT
  5
224
  8
0
  6
BYBLOCK
 62
     0
 10
17.5
 20
-967.6
 30
0.0
 40
30.0
  1
85
 72
     1
 11
42.5
 21
-967.6
 31
0.0
  0
POINT
  5
225
  8
DEFPOINTS
  6
BYBLOCK
 62
     0
 10
85.0
 20
-685.0
 30
0.0
  0
POINT
  5
226
  8
DEFPOINTS
  6
BYBLOCK
 62
     0
 10
0.0
 20
-762.188293
 30
0.0
  0
POINT
  5
227
  8
DEFPOINTS
  6
BYBLOCK
 62
     0
 10
0.0
 20
-977.6
 30
0.0
  0
ENDBLK
  5
228
  8
0
  0
BLOCK
  8
0
  2
*D43
 70
     1
 10
0.0
 20
0.0
 30
0.0
  3
*D43
  1

  0
LINE
  5
22B
  8
0
  6
BYBLOCK
 62
     0
 10
-3.0
 20
-695.0
 30
0.0
 11
-3.0
 21
-890.1
 31
0.0
  0
LINE
  5
22C
  8
0
  6
BYBLOCK
 62
     0
 10
-87.0
 20
-695.0
 30
0.0
 11
-87.0
 21
-890.1
 31
0.0
  0
LINE
  5
22D
  8
0
  6
BYBLOCK
 62
     0
 10
-13.0
 20
-877.6
 30
0.0
 11
-77.0
 21
-877.6
 31
0.0
  0
INSERT
  5
22E
  8
0
  6
BYBLOCK
 62
     0
  2
_ORIGIN
 10
-3.0
 20
-877.6
 30
0.0
 41
10.0
 42
10.0
 43
10.0
  0
INSERT
  5
22F
  8
0
  6
BYBLOCK
 62
     0
  2
_ORIGIN
 10
-87.0
 20
-877.6
 30
0.0
 41
10.0
 42
10.0
 43
10.0
 50
180.0
  0
TEXT
  5
230
  8
0
  6
BYBLOCK
 62
     0
 10
-70.0
 20
-867.6
 30
0.0
 40
30.0
  1
84
 72
     1
 11
-45.0
 21
-867.6
 31
0.0
  0
POINT
  5
231
  8
DEFPOINTS
  6
BYBLOCK
 62
     0
 10
-3.0
 20
-685.0
 30
0.0
  0
POINT
  5
232
  8
DEFPOINTS
  6
BYBLOCK
 62
     0
 10
-87.0
 20
-685.0
 30
0.0
  0
POINT
  5
233
  8
DEFPOINTS
  6
BYBLOCK
 62
     0
 10
-87.0
 20
-877.6
 30
0.0
  0
ENDBLK
  5
234
  8
0
  0
BLOCK
  8
0
  2
*D44
 70
     1
 10
0.0
 20
0.0
 30
0.0
  3
*D44
  1

  0
LINE
  5
237
  8
0
  6
BYBLOCK
 62
     0
 10
0.0
 20
-772.188293
 30
0.0
 11
0.0
 21
-890.1
 31
0.0
  0
LINE
  5
238
  8
0
  6
BYBLOCK
 62
     0
 10
-3.0
 20
-695.0
 30
0.0
 11
-3.0
 21
-890.1
 31
0.0
  0
LINE
  5
239
  8
0
  6
BYBLOCK
 62
     0
 10
-13.0
 20
-877.6
 30
0.0
 11
-23.0
 21
-877.6
 31
0.0
  0
LINE
  5
23A
  8
0
  6
BYBLOCK
 62
     0
 10
10.0
 20
-877.6
 30
0.0
 11
60.561825
 21
-877.6
 31
0.0
  0
LINE
  5
23B
  8
0
  6
BYBLOCK
 62
     0
 10
-3.0
 20
-877.6
 30
0.0
 11
0.0
 21
-877.6
 31
0.0
  0
INSERT
  5
23C
  8
0
  6
BYBLOCK
 62
     0
  2
_ORIGIN
 10
-3.0
 20
-877.6
 30
0.0
 41
10.0
 42
10.0
 43
10.0
  0
INSERT
  5
23D
  8
0
  6
BYBLOCK
 62
     0
  2
_ORIGIN
 10
0.0
 20
-877.6
 30
0.0
 41
10.0
 42
10.0
 43
10.0
 50
180.0
  0
TEXT
  5
23E
  8
0
  6
BYBLOCK
 62
     0
 10
30.561825
 20
-867.6
 30
0.0
 40
30.0
  1
3
 72
     1
 11
40.561825
 21
-867.6
 31
0.0
  0
POINT
  5
23F
  8
DEFPOINTS
  6
BYBLOCK
 62
     0
 10
0.0
 20
-762.188293
 30
0.0
  0
POINT
  5
240
  8
DEFPOINTS
  6
BYBLOCK
 62
     0
 10
-3.0
 20
-685.0
 30
0.0
  0
POINT
  5
241
  8
DEFPOINTS
  6
BYBLOCK
 62
     0
 10
-3.0
 20
-877.6
 30
0.0
  0
ENDBLK
  5
242
  8
0
  0
BLOCK
  8
0
  2
*D45
 70
     1
 10
0.0
 20
0.0
 30
0.0
  3
*D45
  1

  0
LINE
  5
245
  8
0
  6
BYBLOCK
 62
     0
 10
-325.0
 20
-730.0
 30
0.0
 11
-429.9
 21
-730.0
 31
0.0
  0
LINE
  5
246
  8
0
  6
BYBLOCK
 62
     0
 10
-189.0
 20
-665.0
 30
0.0
 11
-429.9
 21
-665.0
 31
0.0
  0
LINE
  5
247
  8
0
  6
BYBLOCK
 62
     0
 10
-417.4
 20
-720.0
 30
0.0
 11
-417.4
 21
-675.0
 31
0.0
  0
INSERT
  5
248
  8
0
  6
BYBLOCK
 62
     0
  2
_ORIGIN
 10
-417.4
 20
-730.0
 30
0.0
 41
10.0
 42
10.0
 43
10.0
 50
270.0
  0
INSERT
  5
249
  8
0
  6
BYBLOCK
 62
     0
  2
_ORIGIN
 10
-417.4
 20
-665.0
 30
0.0
 41
10.0
 42
10.0
 43
10.0
 50
90.0
  0
TEXT
  5
24A
  8
0
  6
BYBLOCK
 62
     0
 10
-427.4
 20
-722.5
 30
0.0
 40
30.0
  1
65
 50
90.0
 72
     1
 11
-427.4
 21
-697.5
 31
0.0
  0
POINT
  5
24B
  8
DEFPOINTS
  6
BYBLOCK
 62
     0
 10
-315.0
 20
-730.0
 30
0.0
  0
POINT
  5
24C
  8
DEFPOINTS
  6
BYBLOCK
 62
     0
 10
-179.0
 20
-665.0
 30
0.0
  0
POINT
  5
24D
  8
DEFPOINTS
  6
BYBLOCK
 62
     0
 10
-417.4
 20
-665.0
 30
0.0
  0
ENDBLK
  5
24E
  8
0
  0
BLOCK
  8
0
  2
*D46
 70
     1
 10
0.0
 20
0.0
 30
0.0
  3
*D46
  1

  0
LINE
  5
251
  8
0
  6
BYBLOCK
 62
     0
 10
325.0
 20
0.0
 30
0.0
 11
575.1
 21
0.0
 31
0.0
  0
LINE
  5
252
  8
0
  6
BYBLOCK
 62
     0
 10
325.0
 20
-76.0
 30
0.0
 11
575.1
 21
-76.0
 31
0.0
  0
LINE
  5
253
  8
0
  6
BYBLOCK
 62
     0
 10
562.6
 20
-10.0
 30
0.0
 11
562.6
 21
-66.0
 31
0.0
  0
INSERT
  5
254
  8
0
  6
BYBLOCK
 62
     0
  2
_ORIGIN
 10
562.6
 20
0.0
 30
0.0
 41
10.0
 42
10.0
 43
10.0
 50
90.0
  0
INSERT
  5
255
  8
0
  6
BYBLOCK
 62
     0
  2
_ORIGIN
 10
562.6
 20
-76.0
 30
0.0
 41
10.0
 42
10.0
 43
10.0
 50
270.0
  0
TEXT
  5
256
  8
0
  6
BYBLOCK
 62
     0
 10
552.6
 20
-63.0
 30
0.0
 40
30.0
  1
76
 50
90.0
 72
     1
 11
552.6
 21
-38.0
 31
0.0
  0
POINT
  5
257
  8
DEFPOINTS
  6
BYBLOCK
 62
     0
 10
315.0
 20
0.0
 30
0.0
  0
POINT
  5
258
  8
DEFPOINTS
  6
BYBLOCK
 62
     0
 10
315.0
 20
-76.0
 30
0.0
  0
POINT
  5
259
  8
DEFPOINTS
  6
BYBLOCK
 62
     0
 10
562.6
 20
-76.0
 30
0.0
  0
ENDBLK
  5
25A
  8
0
  0
BLOCK
  8
0
  2
*D47
 70
     1
 10
0.0
 20
0.0
 30
0.0
  3
*D47
  1

  0
LINE
  5
25D
  8
0
  6
BYBLOCK
 62
     0
 10
325.0
 20
0.0
 30
0.0
 11
475.1
 21
0.0
 31
0.0
  0
LINE
  5
25E
  8
0
  6
BYBLOCK
 62
     0
 10
278.0
 20
-112.0
 30
0.0
 11
475.1
 21
-112.0
 31
0.0
  0
LINE
  5
25F
  8
0
  6
BYBLOCK
 62
     0
 10
462.6
 20
-102.0
 30
0.0
 11
462.6
 21
-10.0
 31
0.0
  0
LINE
  5
260
  8
0
  6
BYBLOCK
 62
     0
 10
462.6
 20
0.0
 30
0.0
 11
462.6
 21
98.968948
 31
0.0
  0
INSERT
  5
261
  8
0
  6
BYBLOCK
 62
     0
  2
_ORIGIN
 10
462.6
 20
-112.0
 30
0.0
 41
10.0
 42
10.0
 43
10.0
 50
270.0
  0
INSERT
  5
262
  8
0
  6
BYBLOCK
 62
     0
  2
_ORIGIN
 10
462.6
 20
0.0
 30
0.0
 41
10.0
 42
10.0
 43
10.0
 50
90.0
  0
TEXT
  5
263
  8
0
  6
BYBLOCK
 62
     0
 10
452.6
 20
28.968948
 30
0.0
 40
30.0
  1
112
 50
90.0
 72
     1
 11
452.6
 21
58.968948
 31
0.0
  0
POINT
  5
264
  8
DEFPOINTS
  6
BYBLOCK
 62
     0
 10
315.0
 20
0.0
 30
0.0
  0
POINT
  5
265
  8
DEFPOINTS
  6
BYBLOCK
 62
     0
 10
268.0
 20
-112.0
 30
0.0
  0
POINT
  5
266
  8
DEFPOINTS
  6
BYBLOCK
 62
     0
 10
462.6
 20
-112.0
 30
0.0
  0
ENDBLK
  5
267
  8
0
  0
BLOCK
  8
0
  2
*D48
 70
     1
 10
0.0
 20
0.0
 30
0.0
  3
*D48
  1

  0
LINE
  5
26A
  8
0
  6
BYBLOCK
 62
     0
 10
278.0
 20
-112.0
 30
0.0
 11
475.1
 21
-112.0
 31
0.0
  0
LINE
  5
26B
  8
0
  6
BYBLOCK
 62
     0
 10
30.0
 20
-646.0
 30
0.0
 11
475.1
 21
-646.0
 31
0.0
  0
LINE
  5
26C
  8
0
  6
BYBLOCK
 62
     0
 10
462.6
 20
-122.0
 30
0.0
 11
462.6
 21
-636.0
 31
0.0
  0
INSERT
  5
26D
  8
0
  6
BYBLOCK
 62
     0
  2
_ORIGIN
 10
462.6
 20
-112.0
 30
0.0
 41
10.0
 42
10.0
 43
10.0
 50
90.0
  0
INSERT
  5
26E
  8
0
  6
BYBLOCK
 62
     0
  2
_ORIGIN
 10
462.6
 20
-646.0
 30
0.0
 41
10.0
 42
10.0
 43
10.0
 50
270.0
  0
TEXT
  5
26F
  8
0
  6
BYBLOCK
 62
     0
 10
452.6
 20
-405.0
 30
0.0
 40
30.0
  1
534
 50
90.0
 72
     1
 11
452.6
 21
-365.0
 31
0.0
  0
POINT
  5
270
  8
DEFPOINTS
  6
BYBLOCK
 62
     0
 10
268.0
 20
-112.0
 30
0.0
  0
POINT
  5
271
  8
DEFPOINTS
  6
BYBLOCK
 62
     0
 10
20.0
 20
-646.0
 30
0.0
  0
POINT
  5
272
  8
DEFPOINTS
  6
BYBLOCK
 62
     0
 10
462.6
 20
-646.0
 30
0.0
  0
ENDBLK
  5
273
  8
0
  0
BLOCK
  8
0
  2
*D49
 70
     1
 10
0.0
 20
0.0
 30
0.0
  3
*D49
  1

  0
LINE
  5
276
  8
0
  6
BYBLOCK
 62
     0
 10
30.0
 20
-646.0
 30
0.0
 11
575.1
 21
-646.0
 31
0.0
  0
LINE
  5
277
  8
0
  6
BYBLOCK
 62
     0
 10
325.0
 20
-76.0
 30
0.0
 11
575.1
 21
-76.0
 31
0.0
  0
LINE
  5
278
  8
0
  6
BYBLOCK
 62
     0
 10
562.6
 20
-636.0
 30
0.0
 11
562.6
 21
-86.0
 31
0.0
  0
INSERT
  5
279
  8
0
  6
BYBLOCK
 62
     0
  2
_ORIGIN
 10
562.6
 20
-646.0
 30
0.0
 41
10.0
 42
10.0
 43
10.0
 50
270.0
  0
INSERT
  5
27A
  8
0
  6
BYBLOCK
 62
     0
  2
_ORIGIN
 10
562.6
 20
-76.0
 30
0.0
 41
10.0
 42
10.0
 43
10.0
 50
90.0
  0
TEXT
  5
27B
  8
0
  6
BYBLOCK
 62
     0
 10
552.6
 20
-398.5
 30
0.0
 40
30.0
  1
570
 50
90.0
 72
     1
 11
552.6
 21
-361.0
 31
0.0
  0
POINT
  5
27C
  8
DEFPOINTS
  6
BYBLOCK
 62
     0
 10
20.0
 20
-646.0
 30
0.0
  0
POINT
  5
27D
  8
DEFPOINTS
  6
BYBLOCK
 62
     0
 10
315.0
 20
-76.0
 30
0.0
  0
POINT
  5
27E
  8
DEFPOINTS
  6
BYBLOCK
 62
     0
 10
562.6
 20
-76.0
 30
0.0
  0
ENDBLK
  5
27F
  8
0
  0
BLOCK
  8
0
  2
*D50
 70
     1
 10
0.0
 20
0.0
 30
0.0
  3
*D50
  1

  0
LINE
  5
282
  8
0
  6
BYBLOCK
 62
     0
 10
325.0
 20
-730.0
 30
0.0
 11
575.1
 21
-730.0
 31
0.0
  0
LINE
  5
283
  8
0
  6
BYBLOCK
 62
     0
 10
30.0
 20
-646.0
 30
0.0
 11
575.1
 21
-646.0
 31
0.0
  0
LINE
  5
284
  8
0
  6
BYBLOCK
 62
     0
 10
562.6
 20
-720.0
 30
0.0
 11
562.6
 21
-656.0
 31
0.0
  0
INSERT
  5
285
  8
0
  6
BYBLOCK
 62
     0
  2
_ORIGIN
 10
562.6
 20
-730.0
 30
0.0
 41
10.0
 42
10.0
 43
10.0
 50
270.0
  0
INSERT
  5
286
  8
0
  6
BYBLOCK
 62
     0
  2
_ORIGIN
 10
562.6
 20
-646.0
 30
0.0
 41
10.0
 42
10.0
 43
10.0
 50
90.0
  0
TEXT
  5
287
  8
0
  6
BYBLOCK
 62
     0
 10
552.6
 20
-713.0
 30
0.0
 40
30.0
  1
84
 50
90.0
 72
     1
 11
552.6
 21
-688.0
 31
0.0
  0
POINT
  5
288
  8
DEFPOINTS
  6
BYBLOCK
 62
     0
 10
315.0
 20
-730.0
 30
0.0
  0
POINT
  5
289
  8
DEFPOINTS
  6
BYBLOCK
 62
     0
 10
20.0
 20
-646.0
 30
0.0
  0
POINT
  5
28A
  8
DEFPOINTS
  6
BYBLOCK
 62
     0
 10
562.6
 20
-646.0
 30
0.0
  0
ENDBLK
  5
28B
  8
0
  0
BLOCK
  8
0
  2
*D51
 70
     1
 10
0.0
 20
0.0
 30
0.0
  3
*D51
  1

  0
LINE
  5
28E
  8
0
  6
BYBLOCK
 62
     0
 10
-305.0
 20
-730.0
 30
0.0
 11
-46.461722
 21
-730.0
 31
0.0
  0
LINE
  5
28F
  8
0
  6
BYBLOCK
 62
     0
 10
-57.0
 20
-665.0
 30
0.0
 11
-46.461722
 21
-665.0
 31
0.0
  0
LINE
  5
290
  8
0
  6
BYBLOCK
 62
     0
 10
-58.961722
 20
-720.0
 30
0.0
 11
-58.961722
 21
-675.0
 31
0.0
  0
LINE
  5
291
  8
0
  6
BYBLOCK
 62
     0
 10
-58.961722
 20
-665.0
 30
0.0
 11
-58.961722
 21
-570.998985
 31
0.0
  0
INSERT
  5
292
  8
0
  6
BYBLOCK
 62
     0
  2
_ORIGIN
 10
-58.961722
 20
-730.0
 30
0.0
 41
10.0
 42
10.0
 43
10.0
 50
270.0
  0
INSERT
  5
293
  8
0
  6
BYBLOCK
 62
     0
  2
_ORIGIN
 10
-58.961722
 20
-665.0
 30
0.0
 41
10.0
 42
10.0
 43
10.0
 50
90.0
  0
TEXT
  5
294
  8
0
  6
BYBLOCK
 62
     0
 10
-68.961722
 20
-630.998985
 30
0.0
 40
30.0
  1
65
 50
90.0
 72
     1
 11
-68.961722
 21
-605.998985
 31
0.0
  0
POINT
  5
295
  8
DEFPOINTS
  6
BYBLOCK
 62
     0
 10
-315.0
 20
-730.0
 30
0.0
  0
POINT
  5
296
  8
DEFPOINTS
  6
BYBLOCK
 62
     0
 10
-67.0
 20
-665.0
 30
0.0
  0
POINT
  5
297
  8
DEFPOINTS
  6
BYBLOCK
 62
     0
 10
-58.961722
 20
-665.0
 30
0.0
  0
ENDBLK
  5
298
  8
0
  0
ENDSEC
  0
SECTION
  2
ENTITIES
  0
LINE
  5
299
  8
OUTLINE
  6
CONTINUOUS
 10
211.5
 20
-236.0
 30
0.0
 11
284.5
 21
-236.0
 31
0.0
  0
LINE
  5
29A
  8
OUTLINE
  6
CONTINUOUS
 10
284.5
 20
-102.0
 30
0.0
 11
284.5
 21
-236.0
 31
0.0
  0
LINE
  5
29B
  8
OUTLINE
  6
CONTINUOUS
 10
229.06068
 20
-96.0
 30
0.0
 11
266.93932
 21
-96.0
 31
0.0
  0
LINE
  5
29C
  8
OUTLINE
  6
CONTINUOUS
 10
271.411456
 20
-97.055728
 30
0.0
 11
281.3
 21
-102.0
 31
0.0
  0
LINE
  5
29D
  8
OUTLINE
  6
CONTINUOUS
 10
284.5
 20
-102.0
 30
0.0
 11
281.3
 21
-102.0
 31
0.0
  0
LINE
  5
29E
  8
OUTLINE
  6
CONTINUOUS
 10
211.5
 20
-102.0
 30
0.0
 11
211.5
 21
-236.0
 31
0.0
  0
LINE
  5
29F
  8
OUTLINE
  6
CONTINUOUS
 10
224.588544
 20
-97.055728
 30
0.0
 11
214.7
 21
-102.0
 31
0.0
  0
LINE
  5
2A0
  8
OUTLINE
  6
CONTINUOUS
 10
211.5
 20
-102.0
 30
0.0
 11
214.7
 21
-102.0
 31
0.0
  0
ARC
  5
2A1
  8
OUTLINE
  6
CONTINUOUS
 10
229.06068
 20
-106.0
 30
0.0
 40
10.0
 50
90.0
 51
116.565051
  0
ARC
  5
2A2
  8
OUTLINE
  6
CONTINUOUS
 10
266.93932
 20
-106.0
 30
0.0
 40
10.0
 50
63.434949
 51
90.0
  0
LINE
  5
2A3
  8
OUTLINE
  6
CONTINUOUS
 10
-36.5
 20
-532.0
 30
0.0
 11
-33.3
 21
-532.0
 31
0.0
  0
ARC
  5
2A4
  8
OUTLINE
  6
CONTINUOUS
 10
-18.93932
 20
-536.0
 30
0.0
 40
10.0
 50
90.0
 51
116.565051
  0
LINE
  5
2A5
  8
OUTLINE
  6
CONTINUOUS
 10
-23.411456
 20
-527.055728
 30
0.0
 11
-33.3
 21
-532.0
 31
0.0
  0
LINE
  5
2A6
  8
OUTLINE
  6
CONTINUOUS
 10
18.93932
 20
-526.0
 30
0.0
 11
-18.93932
 21
-526.0
 31
0.0
  0
LINE
  5
2A7
  8
OUTLINE
  6
CONTINUOUS
 10
-36.5
 20
-532.0
 30
0.0
 11
-36.5
 21
-666.0
 31
0.0
  0
LINE
  5
2A8
  8
OUTLINE
  6
CONTINUOUS
 10
36.5
 20
-532.0
 30
0.0
 11
36.5
 21
-666.0
 31
0.0
  0
LINE
  5
2A9
  8
OUTLINE
  6
CONTINUOUS
 10
23.411456
 20
-527.055728
 30
0.0
 11
33.3
 21
-532.0
 31
0.0
  0
ARC
  5
2AA
  8
OUTLINE
  6
CONTINUOUS
 10
18.93932
 20
-536.0
 30
0.0
 40
10.0
 50
63.434949
 51
90.0
  0
LINE
  5
2AB
  8
OUTLINE
  6
CONTINUOUS
 10
36.5
 20
-532.0
 30
0.0
 11
33.3
 21
-532.0
 31
0.0
  0
LINE
  5
2AC
  8
OUTLINE
  6
CONTINUOUS
 10
36.5
 20
-666.0
 30
0.0
 11
-36.5
 21
-666.0
 31
0.0
  0
LINE
  5
2AD
  8
OUTLINE
  6
CONTINUOUS
 10
-315.0
 20
0.0
 30
0.0
 11
-315.0
 21
-730.0
 31
0.0
  0
LINE
  5
2AE
  8
OUTLINE
  6
CONTINUOUS
 10
315.0
 20
0.0
 30
0.0
 11
315.0
 21
-730.0
 31
0.0
  0
LINE
  5
2AF
  8
OUTLINE
  6
CONTINUOUS
 10
315.0
 20
-730.0
 30
0.0
 11
-315.0
 21
-730.0
 31
0.0
  0
LINE
  5
2B0
  8
OUTLINE
  6
CONTINUOUS
 10
315.0
 20
0.0
 30
0.0
 11
-315.0
 21
0.0
 31
0.0
  0
LINE
  5
2B1
  8
OUTLINE
  6
CONTINUOUS
 10
-211.5
 20
-102.0
 30
0.0
 11
-211.5
 21
-236.0
 31
0.0
  0
LINE
  5
2B2
  8
OUTLINE
  6
CONTINUOUS
 10
-211.5
 20
-236.0
 30
0.0
 11
-284.5
 21
-236.0
 31
0.0
  0
LINE
  5
2B3
  8
OUTLINE
  6
CONTINUOUS
 10
-284.5
 20
-102.0
 30
0.0
 11
-284.5
 21
-236.0
 31
0.0
  0
LINE
  5
2B4
  8
OUTLINE
  6
CONTINUOUS
 10
-229.06068
 20
-96.0
 30
0.0
 11
-266.93932
 21
-96.0
 31
0.0
  0
LINE
  5
2B5
  8
OUTLINE
  6
CONTINUOUS
 10
-224.588544
 20
-97.055728
 30
0.0
 11
-214.7
 21
-102.0
 31
0.0
  0
LINE
  5
2B6
  8
OUTLINE
  6
CONTINUOUS
 10
-211.5
 20
-102.0
 30
0.0
 11
-214.7
 21
-102.0
 31
0.0
  0
ARC
  5
2B7
  8
OUTLINE
  6
CONTINUOUS
 10
-229.06068
 20
-106.0
 30
0.0
 40
10.0
 50
63.434949
 51
90.0
  0
ARC
  5
2B8
  8
OUTLINE
  6
CONTINUOUS
 10
-266.93932
 20
-106.0
 30
0.0
 40
10.0
 50
90.0
 51
116.565051
  0
LINE
  5
2B9
  8
OUTLINE
  6
CONTINUOUS
 10
-271.411456
 20
-97.055728
 30
0.0
 11
-281.3
 21
-102.0
 31
0.0
  0
LINE
  5
2BA
  8
OUTLINE
  6
CONTINUOUS
 10
-284.5
 20
-102.0
 30
0.0
 11
-281.3
 21
-102.0
 31
0.0
  0
LINE
  5
2BB
  8
DETAIL
  6
CONTINUOUS
 10
95.0
 20
-689.5
 30
0.0
 11
75.0
 21
-689.5
 31
0.0
  0
ARC
  5
2BC
  8
DETAIL
  6
CONTINUOUS
 10
95.0
 20
-665.0
 30
0.0
 40
24.5
 50
270.0
 51
90.0
  0
LINE
  5
2BD
  8
DETAIL
  6
CONTINUOUS
 10
95.0
 20
-640.5
 30
0.0
 11
75.0
 21
-640.5
 31
0.0
  0
ARC
  5
2BE
  8
DETAIL
  6
CONTINUOUS
 10
75.0
 20
-665.0
 30
0.0
 40
24.5
 50
90.0
 51
270.0
  0
LINE
  5
2BF
  8
DETAIL
  6
CONTINUOUS
 10
7.0
 20
-640.5
 30
0.0
 11
-13.0
 21
-640.5
 31
0.0
  0
ARC
  5
2C0
  8
DETAIL
  6
CONTINUOUS
 10
-13.0
 20
-665.0
 30
0.0
 40
24.5
 50
90.0
 51
270.0
  0
LINE
  5
2C1
  8
DETAIL
  6
CONTINUOUS
 10
7.0
 20
-689.5
 30
0.0
 11
-13.0
 21
-689.5
 31
0.0
  0
ARC
  5
2C2
  8
DETAIL
  6
CONTINUOUS
 10
7.0
 20
-665.0
 30
0.0
 40
24.5
 50
270.0
 51
90.0
  0
CIRCLE
  5
2C3
  8
DETAIL
  6
CONTINUOUS
 10
-87.0
 20
-665.0
 30
0.0
 40
16.25
  0
LINE
  5
2C4
  8
DETAIL
  6
CONTINUOUS
 10
-149.0
 20
-689.5
 30
0.0
 11
-169.0
 21
-689.5
 31
0.0
  0
ARC
  5
2C5
  8
DETAIL
  6
CONTINUOUS
 10
-149.0
 20
-665.0
 30
0.0
 40
24.5
 50
270.0
 51
90.0
  0
ARC
  5
2C6
  8
DETAIL
  6
CONTINUOUS
 10
-169.0
 20
-665.0
 30
0.0
 40
24.5
 50
90.0
 51
270.0
  0
LINE
  5
2C7
  8
DETAIL
  6
CONTINUOUS
 10
-149.0
 20
-640.5
 30
0.0
 11
-169.0
 21
-640.5
 31
0.0
  0
LINE
  5
2C8
  8
DETAIL
  6
CONTINUOUS
 10
-188.0
 20
-351.0
 30
0.0
 11
-189.0
 21
-348.0
 31
0.0
  0
ARC
  5
2C9
  8
DETAIL
  6
CONTINUOUS
 10
-180.0
 20
-316.0
 30
0.0
 40
12.0
 50
318.590378
 51
221.409622
  0
LINE
  5
2CA
  8
DETAIL
  6
CONTINUOUS
 10
-189.0
 20
-323.937254
 30
0.0
 11
-189.0
 21
-348.0
 31
0.0
  0
LINE
  5
2CB
  8
DETAIL
  6
CONTINUOUS
 10
-172.0
 20
-351.0
 30
0.0
 11
-188.0
 21
-351.0
 31
0.0
  0
LINE
  5
2CC
  8
DETAIL
  6
CONTINUOUS
 10
-171.0
 20
-348.0
 30
0.0
 11
-189.0
 21
-348.0
 31
0.0
  0
LINE
  5
2CD
  8
DETAIL
  6
CONTINUOUS
 10
-172.0
 20
-351.0
 30
0.0
 11
-171.0
 21
-348.0
 31
0.0
  0
LINE
  5
2CE
  8
DETAIL
  6
CONTINUOUS
 10
-171.0
 20
-323.937254
 30
0.0
 11
-171.0
 21
-348.0
 31
0.0
  0
ARC
  5
2CF
  8
DETAIL
  6
CONTINUOUS
 10
-180.0
 20
-316.0
 30
0.0
 40
23.0
 50
293.035684
 51
246.964316
  0
LINE
  5
2D0
  8
DETAIL
  6
CONTINUOUS
 10
223.0
 20
-96.0
 30
0.0
 11
186.0
 21
-96.0
 31
0.0
  0
LINE
  5
2D1
  8
DETAIL
  6
CONTINUOUS
 10
186.0
 20
-96.0
 30
0.0
 11
186.0
 21
-56.0
 31
0.0
  0
LINE
  5
2D2
  8
DETAIL
  6
CONTINUOUS
 10
223.0
 20
-126.0
 30
0.0
 11
223.0
 21
-96.0
 31
0.0
  0
LINE
  5
2D3
  8
DETAIL
  6
CONTINUOUS
 10
273.0
 20
-126.0
 30
0.0
 11
223.0
 21
-126.0
 31
0.0
  0
LINE
  5
2D4
  8
DETAIL
  6
CONTINUOUS
 10
273.0
 20
-126.0
 30
0.0
 11
273.0
 21
-96.0
 31
0.0
  0
LINE
  5
2D5
  8
DETAIL
  6
CONTINUOUS
 10
310.0
 20
-96.0
 30
0.0
 11
273.0
 21
-96.0
 31
0.0
  0
LINE
  5
2D6
  8
DETAIL
  6
CONTINUOUS
 10
310.0
 20
-56.0
 30
0.0
 11
186.0
 21
-56.0
 31
0.0
  0
LINE
  5
2D7
  8
DETAIL
  6
CONTINUOUS
 10
310.0
 20
-96.0
 30
0.0
 11
310.0
 21
-56.0
 31
0.0
  0
LINE
  5
2D8
  8
DETAIL
  6
CONTINUOUS
 10
-273.0
 20
-96.0
 30
0.0
 11
-310.0
 21
-96.0
 31
0.0
  0
LINE
  5
2D9
  8
DETAIL
  6
CONTINUOUS
 10
-310.0
 20
-96.0
 30
0.0
 11
-310.0
 21
-56.0
 31
0.0
  0
LINE
  5
2DA
  8
DETAIL
  6
CONTINUOUS
 10
-186.0
 20
-96.0
 30
0.0
 11
-223.0
 21
-96.0
 31
0.0
  0
LINE
  5
2DB
  8
DETAIL
  6
CONTINUOUS
 10
-186.0
 20
-96.0
 30
0.0
 11
-186.0
 21
-56.0
 31
0.0
  0
LINE
  5
2DC
  8
DETAIL
  6
CONTINUOUS
 10
-186.0
 20
-56.0
 30
0.0
 11
-310.0
 21
-56.0
 31
0.0
  0
LINE
  5
2DD
  8
DETAIL
  6
CONTINUOUS
 10
-223.0
 20
-126.0
 30
0.0
 11
-223.0
 21
-96.0
 31
0.0
  0
LINE
  5
2DE
  8
DETAIL
  6
CONTINUOUS
 10
-223.0
 20
-126.0
 30
0.0
 11
-273.0
 21
-126.0
 31
0.0
  0
LINE
  5
2DF
  8
DETAIL
  6
CONTINUOUS
 10
-273.0
 20
-126.0
 30
0.0
 11
-273.0
 21
-96.0
 31
0.0
  0
CIRCLE
  5
2E0
  8
DETAIL
  6
CONTINUOUS
 10
-234.0
 20
-640.0
 30
0.0
 40
13.6
  0
ARC
  5
2E1
  8
DETAIL
  6
CONTINUOUS
 10
-248.0
 20
-159.6
 30
0.0
 40
8.0
 50
0.0
 51
180.0
  0
ARC
  5
2E2
  8
DETAIL
  6
CONTINUOUS
 10
-248.0
 20
-216.0
 30
0.0
 40
8.0
 50
180.0
 51
0.0
  0
ARC
  5
2E3
  8
DETAIL
  6
CONTINUOUS
 10
-260.5
 20
-181.3
 30
0.0
 40
8.0
 50
90.0
 51
270.0
  0
ARC
  5
2E4
  8
DETAIL
  6
CONTINUOUS
 10
-235.5
 20
-181.3
 30
0.0
 40
8.0
 50
270.0
 51
90.0
  0
LINE
  5
2E5
  8
DETAIL
  6
CONTINUOUS
 10
-256.0
 20
-168.3
 30
0.0
 11
-256.0
 21
-159.6
 31
0.0
  0
ARC
  5
2E6
  8
DETAIL
  6
CONTINUOUS
 10
-261.0
 20
-168.3
 30
0.0
 40
5.0
 50
270.0
 51
0.0
  0
LINE
  5
2E7
  8
DETAIL
  6
CONTINUOUS
 10
-240.0
 20
-168.3
 30
0.0
 11
-240.0
 21
-159.6
 31
0.0
  0
ARC
  5
2E8
  8
DETAIL
  6
CONTINUOUS
 10
-235.0
 20
-168.3
 30
0.0
 40
5.0
 50
180.0
 51
270.0
  0
LINE
  5
2E9
  8
DETAIL
  6
CONTINUOUS
 10
-256.0
 20
-216.0
 30
0.0
 11
-256.0
 21
-194.3
 31
0.0
  0
ARC
  5
2EA
  8
DETAIL
  6
CONTINUOUS
 10
-261.0
 20
-194.3
 30
0.0
 40
5.0
 50
0.0
 51
90.0
  0
LINE
  5
2EB
  8
DETAIL
  6
CONTINUOUS
 10
-240.0
 20
-216.0
 30
0.0
 11
-240.0
 21
-194.3
 31
0.0
  0
ARC
  5
2EC
  8
DETAIL
  6
CONTINUOUS
 10
-235.0
 20
-194.3
 30
0.0
 40
5.0
 50
90.0
 51
180.0
  0
ARC
  5
2ED
  8
DETAIL
  6
CONTINUOUS
 10
248.0
 20
-159.6
 30
0.0
 40
8.0
 50
0.0
 51
180.0
  0
ARC
  5
2EE
  8
DETAIL
  6
CONTINUOUS
 10
248.0
 20
-216.0
 30
0.0
 40
8.0
 50
180.0
 51
0.0
  0
ARC
  5
2EF
  8
DETAIL
  6
CONTINUOUS
 10
260.5
 20
-181.3
 30
0.0
 40
8.0
 50
270.0
 51
90.0
  0
ARC
  5
2F0
  8
DETAIL
  6
CONTINUOUS
 10
235.5
 20
-181.3
 30
0.0
 40
8.0
 50
90.0
 51
270.0
  0
LINE
  5
2F1
  8
DETAIL
  6
CONTINUOUS
 10
256.0
 20
-168.3
 30
0.0
 11
256.0
 21
-159.6
 31
0.0
  0
ARC
  5
2F2
  8
DETAIL
  6
CONTINUOUS
 10
261.0
 20
-168.3
 30
0.0
 40
5.0
 50
180.0
 51
270.0
  0
LINE
  5
2F3
  8
DETAIL
  6
CONTINUOUS
 10
240.0
 20
-168.3
 30
0.0
 11
240.0
 21
-159.6
 31
0.0
  0
ARC
  5
2F4
  8
DETAIL
  6
CONTINUOUS
 10
235.0
 20
-168.3
 30
0.0
 40
5.0
 50
270.0
 51
0.0
  0
LINE
  5
2F5
  8
DETAIL
  6
CONTINUOUS
 10
256.0
 20
-216.0
 30
0.0
 11
256.0
 21
-194.3
 31
0.0
  0
ARC
  5
2F6
  8
DETAIL
  6
CONTINUOUS
 10
261.0
 20
-194.3
 30
0.0
 40
5.0
 50
90.0
 51
180.0
  0
LINE
  5
2F7
  8
DETAIL
  6
CONTINUOUS
 10
240.0
 20
-216.0
 30
0.0
 11
240.0
 21
-194.3
 31
0.0
  0
ARC
  5
2F8
  8
DETAIL
  6
CONTINUOUS
 10
235.0
 20
-194.3
 30
0.0
 40
5.0
 50
0.0
 51
90.0
  0
LINE
  5
2F9
  8
DETAIL
  6
CONTINUOUS
 10
-8.0
 20
-646.0
 30
0.0
 11
-8.0
 21
-624.3
 31
0.0
  0
ARC
  5
2FA
  8
DETAIL
  6
CONTINUOUS
 10
-13.0
 20
-624.3
 30
0.0
 40
5.0
 50
0.0
 51
90.0
  0
ARC
  5
2FB
  8
DETAIL
  6
CONTINUOUS
 10
-13.0
 20
-598.3
 30
0.0
 40
5.0
 50
270.0
 51
0.0
  0
LINE
  5
2FC
  8
DETAIL
  6
CONTINUOUS
 10
-8.0
 20
-598.3
 30
0.0
 11
-8.0
 21
-589.6
 31
0.0
  0
ARC
  5
2FD
  8
DETAIL
  6
CONTINUOUS
 10
-12.5
 20
-611.3
 30
0.0
 40
8.0
 50
90.0
 51
270.0
  0
ARC
  5
2FE
  8
DETAIL
  6
CONTINUOUS
 10
0.0
 20
-589.6
 30
0.0
 40
8.0
 50
0.0
 51
180.0
  0
LINE
  5
2FF
  8
DETAIL
  6
CONTINUOUS
 10
8.0
 20
-646.0
 30
0.0
 11
8.0
 21
-624.3
 31
0.0
  0
ARC
  5
300
  8
DETAIL
  6
CONTINUOUS
 10
13.0
 20
-624.3
 30
0.0
 40
5.0
 50
90.0
 51
180.0
  0
ARC
  5
301
  8
DETAIL
  6
CONTINUOUS
 10
13.0
 20
-598.3
 30
0.0
 40
5.0
 50
180.0
 51
270.0
  0
LINE
  5
302
  8
DETAIL
  6
CONTINUOUS
 10
8.0
 20
-598.3
 30
0.0
 11
8.0
 21
-589.6
 31
0.0
  0
ARC
  5
303
  8
DETAIL
  6
CONTINUOUS
 10
12.5
 20
-611.3
 30
0.0
 40
8.0
 50
270.0
 51
90.0
  0
CIRCLE
  5
304
  8
DETAIL
  6
CONTINUOUS
 10
0.0
 20
-542.0
 30
0.0
 40
8.0
  0
ARC
  5
305
  8
DETAIL
  6
CONTINUOUS
 10
0.0
 20
-646.0
 30
0.0
 40
8.0
 50
180.0
 51
0.0
  0
LINE
  5
306
  8
DETAIL
  6
CONTINUOUS
 10
-284.5
 20
-102.0
 30
0.0
 11
-281.3
 21
-102.0
 31
0.0
  0
LINE
  5
307
  8
DETAIL
  6
CONTINUOUS
 10
-271.411456
 20
-97.055728
 30
0.0
 11
-281.3
 21
-102.0
 31
0.0
  0
ARC
  5
308
  8
DETAIL
  6
CONTINUOUS
 10
-266.93932
 20
-106.0
 30
0.0
 40
10.0
 50
90.0
 51
116.565051
  0
ARC
  5
309
  8
DETAIL
  6
CONTINUOUS
 10
-229.06068
 20
-106.0
 30
0.0
 40
10.0
 50
63.434949
 51
90.0
  0
LINE
  5
30A
  8
DETAIL
  6
CONTINUOUS
 10
-211.5
 20
-102.0
 30
0.0
 11
-214.7
 21
-102.0
 31
0.0
  0
LINE
  5
30B
  8
DETAIL
  6
CONTINUOUS
 10
-224.588544
 20
-97.055728
 30
0.0
 11
-214.7
 21
-102.0
 31
0.0
  0
LINE
  5
30C
  8
DETAIL
  6
CONTINUOUS
 10
-229.06068
 20
-96.0
 30
0.0
 11
-266.93932
 21
-96.0
 31
0.0
  0
LINE
  5
30D
  8
DETAIL
  6
CONTINUOUS
 10
-284.5
 20
-102.0
 30
0.0
 11
-284.5
 21
-236.0
 31
0.0
  0
LINE
  5
30E
  8
DETAIL
  6
CONTINUOUS
 10
-211.5
 20
-236.0
 30
0.0
 11
-284.5
 21
-236.0
 31
0.0
  0
LINE
  5
30F
  8
DETAIL
  6
CONTINUOUS
 10
-211.5
 20
-102.0
 30
0.0
 11
-211.5
 21
-236.0
 31
0.0
  0
LINE
  5
310
  8
DETAIL
  6
CONTINUOUS
 10
315.0
 20
0.0
 30
0.0
 11
-315.0
 21
0.0
 31
0.0
  0
LINE
  5
311
  8
DETAIL
  6
CONTINUOUS
 10
315.0
 20
-730.0
 30
0.0
 11
-315.0
 21
-730.0
 31
0.0
  0
LINE
  5
312
  8
DETAIL
  6
CONTINUOUS
 10
315.0
 20
0.0
 30
0.0
 11
315.0
 21
-730.0
 31
0.0
  0
LINE
  5
313
  8
DETAIL
  6
CONTINUOUS
 10
-315.0
 20
0.0
 30
0.0
 11
-315.0
 21
-730.0
 31
0.0
  0
LINE
  5
314
  8
DETAIL
  6
CONTINUOUS
 10
36.5
 20
-666.0
 30
0.0
 11
-36.5
 21
-666.0
 31
0.0
  0
LINE
  5
315
  8
DETAIL
  6
CONTINUOUS
 10
36.5
 20
-532.0
 30
0.0
 11
33.3
 21
-532.0
 31
0.0
  0
ARC
  5
316
  8
DETAIL
  6
CONTINUOUS
 10
18.93932
 20
-536.0
 30
0.0
 40
10.0
 50
63.434949
 51
90.0
  0
LINE
  5
317
  8
DETAIL
  6
CONTINUOUS
 10
23.411456
 20
-527.055728
 30
0.0
 11
33.3
 21
-532.0
 31
0.0
  0
LINE
  5
318
  8
DETAIL
  6
CONTINUOUS
 10
36.5
 20
-532.0
 30
0.0
 11
36.5
 21
-666.0
 31
0.0
  0
LINE
  5
319
  8
DETAIL
  6
CONTINUOUS
 10
-36.5
 20
-532.0
 30
0.0
 11
-36.5
 21
-666.0
 31
0.0
  0
LINE
  5
31A
  8
DETAIL
  6
CONTINUOUS
 10
18.93932
 20
-526.0
 30
0.0
 11
-18.93932
 21
-526.0
 31
0.0
  0
LINE
  5
31B
  8
DETAIL
  6
CONTINUOUS
 10
-23.411456
 20
-527.055728
 30
0.0
 11
-33.3
 21
-532.0
 31
0.0
  0
ARC
  5
31C
  8
DETAIL
  6
CONTINUOUS
 10
-18.93932
 20
-536.0
 30
0.0
 40
10.0
 50
90.0
 51
116.565051
  0
LINE
  5
31D
  8
DETAIL
  6
CONTINUOUS
 10
-36.5
 20
-532.0
 30
0.0
 11
-33.3
 21
-532.0
 31
0.0
  0
ARC
  5
31E
  8
DETAIL
  6
CONTINUOUS
 10
266.93932
 20
-106.0
 30
0.0
 40
10.0
 50
63.434949
 51
90.0
  0
ARC
  5
31F
  8
DETAIL
  6
CONTINUOUS
 10
229.06068
 20
-106.0
 30
0.0
 40
10.0
 50
90.0
 51
116.565051
  0
LINE
  5
320
  8
DETAIL
  6
CONTINUOUS
 10
211.5
 20
-102.0
 30
0.0
 11
214.7
 21
-102.0
 31
0.0
  0
LINE
  5
321
  8
DETAIL
  6
CONTINUOUS
 10
224.588544
 20
-97.055728
 30
0.0
 11
214.7
 21
-102.0
 31
0.0
  0
LINE
  5
322
  8
DETAIL
  6
CONTINUOUS
 10
211.5
 20
-102.0
 30
0.0
 11
211.5
 21
-236.0
 31
0.0
  0
LINE
  5
323
  8
DETAIL
  6
CONTINUOUS
 10
284.5
 20
-102.0
 30
0.0
 11
281.3
 21
-102.0
 31
0.0
  0
LINE
  5
324
  8
DETAIL
  6
CONTINUOUS
 10
271.411456
 20
-97.055728
 30
0.0
 11
281.3
 21
-102.0
 31
0.0
  0
LINE
  5
325
  8
DETAIL
  6
CONTINUOUS
 10
229.06068
 20
-96.0
 30
0.0
 11
266.93932
 21
-96.0
 31
0.0
  0
LINE
  5
326
  8
DETAIL
  6
CONTINUOUS
 10
284.5
 20
-102.0
 30
0.0
 11
284.5
 21
-236.0
 31
0.0
  0
LINE
  5
327
  8
DETAIL
  6
CONTINUOUS
 10
211.5
 20
-236.0
 30
0.0
 11
284.5
 21
-236.0
 31
0.0
  0
ARC
  5
328
  8
DETAIL
  6
CONTINUOUS
 10
0.0
 20
-646.0
 30
0.0
 40
8.0
 50
180.0
 51
0.0
  0
CIRCLE
  5
329
  8
DETAIL
  6
CONTINUOUS
 10
0.0
 20
-542.0
 30
0.0
 40
8.0
  0
ARC
  5
32A
  8
DETAIL
  6
CONTINUOUS
 10
12.5
 20
-611.3
 30
0.0
 40
8.0
 50
270.0
 51
90.0
  0
LINE
  5
32B
  8
DETAIL
  6
CONTINUOUS
 10
8.0
 20
-598.3
 30
0.0
 11
8.0
 21
-589.6
 31
0.0
  0
ARC
  5
32C
  8
DETAIL
  6
CONTINUOUS
 10
13.0
 20
-598.3
 30
0.0
 40
5.0
 50
180.0
 51
270.0
  0
ARC
  5
32D
  8
DETAIL
  6
CONTINUOUS
 10
13.0
 20
-624.3
 30
0.0
 40
5.0
 50
90.0
 51
180.0
  0
LINE
  5
32E
  8
DETAIL
  6
CONTINUOUS
 10
8.0
 20
-646.0
 30
0.0
 11
8.0
 21
-624.3
 31
0.0
  0
ARC
  5
32F
  8
DETAIL
  6
CONTINUOUS
 10
0.0
 20
-589.6
 30
0.0
 40
8.0
 50
0.0
 51
180.0
  0
ARC
  5
330
  8
DETAIL
  6
CONTINUOUS
 10
-12.5
 20
-611.3
 30
0.0
 40
8.0
 50
90.0
 51
270.0
  0
LINE
  5
331
  8
DETAIL
  6
CONTINUOUS
 10
-8.0
 20
-598.3
 30
0.0
 11
-8.0
 21
-589.6
 31
0.0
  0
ARC
  5
332
  8
DETAIL
  6
CONTINUOUS
 10
-13.0
 20
-598.3
 30
0.0
 40
5.0
 50
270.0
 51
0.0
  0
ARC
  5
333
  8
DETAIL
  6
CONTINUOUS
 10
-13.0
 20
-624.3
 30
0.0
 40
5.0
 50
0.0
 51
90.0
  0
LINE
  5
334
  8
DETAIL
  6
CONTINUOUS
 10
-8.0
 20
-646.0
 30
0.0
 11
-8.0
 21
-624.3
 31
0.0
  0
ARC
  5
335
  8
DETAIL
  6
CONTINUOUS
 10
235.0
 20
-194.3
 30
0.0
 40
5.0
 50
0.0
 51
90.0
  0
LINE
  5
336
  8
DETAIL
  6
CONTINUOUS
 10
240.0
 20
-216.0
 30
0.0
 11
240.0
 21
-194.3
 31
0.0
  0
ARC
  5
337
  8
DETAIL
  6
CONTINUOUS
 10
261.0
 20
-194.3
 30
0.0
 40
5.0
 50
90.0
 51
180.0
  0
LINE
  5
338
  8
DETAIL
  6
CONTINUOUS
 10
256.0
 20
-216.0
 30
0.0
 11
256.0
 21
-194.3
 31
0.0
  0
ARC
  5
339
  8
DETAIL
  6
CONTINUOUS
 10
235.0
 20
-168.3
 30
0.0
 40
5.0
 50
270.0
 51
0.0
  0
LINE
  5
33A
  8
DETAIL
  6
CONTINUOUS
 10
240.0
 20
-168.3
 30
0.0
 11
240.0
 21
-159.6
 31
0.0
  0
ARC
  5
33B
  8
DETAIL
  6
CONTINUOUS
 10
261.0
 20
-168.3
 30
0.0
 40
5.0
 50
180.0
 51
270.0
  0
LINE
  5
33C
  8
DETAIL
  6
CONTINUOUS
 10
256.0
 20
-168.3
 30
0.0
 11
256.0
 21
-159.6
 31
0.0
  0
ARC
  5
33D
  8
DETAIL
  6
CONTINUOUS
 10
235.5
 20
-181.3
 30
0.0
 40
8.0
 50
90.0
 51
270.0
  0
ARC
  5
33E
  8
DETAIL
  6
CONTINUOUS
 10
260.5
 20
-181.3
 30
0.0
 40
8.0
 50
270.0
 51
90.0
  0
ARC
  5
33F
  8
DETAIL
  6
CONTINUOUS
 10
248.0
 20
-216.0
 30
0.0
 40
8.0
 50
180.0
 51
0.0
  0
ARC
  5
340
  8
DETAIL
  6
CONTINUOUS
 10
248.0
 20
-159.6
 30
0.0
 40
8.0
 50
0.0
 51
180.0
  0
ARC
  5
341
  8
DETAIL
  6
CONTINUOUS
 10
-235.0
 20
-194.3
 30
0.0
 40
5.0
 50
90.0
 51
180.0
  0
LINE
  5
342
  8
DETAIL
  6
CONTINUOUS
 10
-240.0
 20
-216.0
 30
0.0
 11
-240.0
 21
-194.3
 31
0.0
  0
ARC
  5
343
  8
DETAIL
  6
CONTINUOUS
 10
-261.0
 20
-194.3
 30
0.0
 40
5.0
 50
0.0
 51
90.0
  0
LINE
  5
344
  8
DETAIL
  6
CONTINUOUS
 10
-256.0
 20
-216.0
 30
0.0
 11
-256.0
 21
-194.3
 31
0.0
  0
ARC
  5
345
  8
DETAIL
  6
CONTINUOUS
 10
-235.0
 20
-168.3
 30
0.0
 40
5.0
 50
180.0
 51
270.0
  0
LINE
  5
346
  8
DETAIL
  6
CONTINUOUS
 10
-240.0
 20
-168.3
 30
0.0
 11
-240.0
 21
-159.6
 31
0.0
  0
ARC
  5
347
  8
DETAIL
  6
CONTINUOUS
 10
-261.0
 20
-168.3
 30
0.0
 40
5.0
 50
270.0
 51
0.0
  0
LINE
  5
348
  8
DETAIL
  6
CONTINUOUS
 10
-256.0
 20
-168.3
 30
0.0
 11
-256.0
 21
-159.6
 31
0.0
  0
ARC
  5
349
  8
DETAIL
  6
CONTINUOUS
 10
-235.5
 20
-181.3
 30
0.0
 40
8.0
 50
270.0
 51
90.0
  0
ARC
  5
34A
  8
DETAIL
  6
CONTINUOUS
 10
-260.5
 20
-181.3
 30
0.0
 40
8.0
 50
90.0
 51
270.0
  0
ARC
  5
34B
  8
DETAIL
  6
CONTINUOUS
 10
-248.0
 20
-216.0
 30
0.0
 40
8.0
 50
180.0
 51
0.0
  0
ARC
  5
34C
  8
DETAIL
  6
CONTINUOUS
 10
-248.0
 20
-159.6
 30
0.0
 40
8.0
 50
0.0
 51
180.0
  0
CIRCLE
  5
34D
  8
DETAIL
  6
CONTINUOUS
 10
-234.0
 20
-640.0
 30
0.0
 40
13.6
  0
LINE
  5
34E
  8
DETAIL
  6
CONTINUOUS
 10
-273.0
 20
-126.0
 30
0.0
 11
-273.0
 21
-96.0
 31
0.0
  0
LINE
  5
34F
  8
DETAIL
  6
CONTINUOUS
 10
-223.0
 20
-126.0
 30
0.0
 11
-273.0
 21
-126.0
 31
0.0
  0
LINE
  5
350
  8
DETAIL
  6
CONTINUOUS
 10
-223.0
 20
-126.0
 30
0.0
 11
-223.0
 21
-96.0
 31
0.0
  0
LINE
  5
351
  8
DETAIL
  6
CONTINUOUS
 10
-186.0
 20
-56.0
 30
0.0
 11
-310.0
 21
-56.0
 31
0.0
  0
LINE
  5
352
  8
DETAIL
  6
CONTINUOUS
 10
-186.0
 20
-96.0
 30
0.0
 11
-186.0
 21
-56.0
 31
0.0
  0
LINE
  5
353
  8
DETAIL
  6
CONTINUOUS
 10
-186.0
 20
-96.0
 30
0.0
 11
-223.0
 21
-96.0
 31
0.0
  0
LINE
  5
354
  8
DETAIL
  6
CONTINUOUS
 10
-310.0
 20
-96.0
 30
0.0
 11
-310.0
 21
-56.0
 31
0.0
  0
LINE
  5
355
  8
DETAIL
  6
CONTINUOUS
 10
-273.0
 20
-96.0
 30
0.0
 11
-310.0
 21
-96.0
 31
0.0
  0
LINE
  5
356
  8
DETAIL
  6
CONTINUOUS
 10
310.0
 20
-96.0
 30
0.0
 11
310.0
 21
-56.0
 31
0.0
  0
LINE
  5
357
  8
DETAIL
  6
CONTINUOUS
 10
310.0
 20
-56.0
 30
0.0
 11
186.0
 21
-56.0
 31
0.0
  0
LINE
  5
358
  8
DETAIL
  6
CONTINUOUS
 10
310.0
 20
-96.0
 30
0.0
 11
273.0
 21
-96.0
 31
0.0
  0
LINE
  5
359
  8
DETAIL
  6
CONTINUOUS
 10
273.0
 20
-126.0
 30
0.0
 11
273.0
 21
-96.0
 31
0.0
  0
LINE
  5
35A
  8
DETAIL
  6
CONTINUOUS
 10
273.0
 20
-126.0
 30
0.0
 11
223.0
 21
-126.0
 31
0.0
  0
LINE
  5
35B
  8
DETAIL
  6
CONTINUOUS
 10
223.0
 20
-126.0
 30
0.0
 11
223.0
 21
-96.0
 31
0.0
  0
LINE
  5
35C
  8
DETAIL
  6
CONTINUOUS
 10
186.0
 20
-96.0
 30
0.0
 11
186.0
 21
-56.0
 31
0.0
  0
LINE
  5
35D
  8
DETAIL
  6
CONTINUOUS
 10
223.0
 20
-96.0
 30
0.0
 11
186.0
 21
-96.0
 31
0.0
  0
ARC
  5
35E
  8
DETAIL
  6
CONTINUOUS
 10
-180.0
 20
-316.0
 30
0.0
 40
23.0
 50
293.035684
 51
246.964316
  0
LINE
  5
35F
  8
DETAIL
  6
CONTINUOUS
 10
-171.0
 20
-323.937254
 30
0.0
 11
-171.0
 21
-348.0
 31
0.0
  0
LINE
  5
360
  8
DETAIL
  6
CONTINUOUS
 10
-172.0
 20
-351.0
 30
0.0
 11
-171.0
 21
-348.0
 31
0.0
  0
LINE
  5
361
  8
DETAIL
  6
CONTINUOUS
 10
-171.0
 20
-348.0
 30
0.0
 11
-189.0
 21
-348.0
 31
0.0
  0
LINE
  5
362
  8
DETAIL
  6
CONTINUOUS
 10
-172.0
 20
-351.0
 30
0.0
 11
-188.0
 21
-351.0
 31
0.0
  0
LINE
  5
363
  8
DETAIL
  6
CONTINUOUS
 10
-189.0
 20
-323.937254
 30
0.0
 11
-189.0
 21
-348.0
 31
0.0
  0
ARC
  5
364
  8
DETAIL
  6
CONTINUOUS
 10
-180.0
 20
-316.0
 30
0.0
 40
12.0
 50
318.590378
 51
221.409622
  0
LINE
  5
365
  8
DETAIL
  6
CONTINUOUS
 10
-188.0
 20
-351.0
 30
0.0
 11
-189.0
 21
-348.0
 31
0.0
  0
LINE
  5
366
  8
DETAIL
  6
CONTINUOUS
 10
-149.0
 20
-640.5
 30
0.0
 11
-169.0
 21
-640.5
 31
0.0
  0
ARC
  5
367
  8
DETAIL
  6
CONTINUOUS
 10
-169.0
 20
-665.0
 30
0.0
 40
24.5
 50
90.0
 51
270.0
  0
ARC
  5
368
  8
DETAIL
  6
CONTINUOUS
 10
-149.0
 20
-665.0
 30
0.0
 40
24.5
 50
270.0
 51
90.0
  0
LINE
  5
369
  8
DETAIL
  6
CONTINUOUS
 10
-149.0
 20
-689.5
 30
0.0
 11
-169.0
 21
-689.5
 31
0.0
  0
CIRCLE
  5
36A
  8
DETAIL
  6
CONTINUOUS
 10
-87.0
 20
-665.0
 30
0.0
 40
16.25
  0
ARC
  5
36B
  8
DETAIL
  6
CONTINUOUS
 10
7.0
 20
-665.0
 30
0.0
 40
24.5
 50
270.0
 51
90.0
  0
LINE
  5
36C
  8
DETAIL
  6
CONTINUOUS
 10
7.0
 20
-689.5
 30
0.0
 11
-13.0
 21
-689.5
 31
0.0
  0
ARC
  5
36D
  8
DETAIL
  6
CONTINUOUS
 10
-13.0
 20
-665.0
 30
0.0
 40
24.5
 50
90.0
 51
270.0
  0
LINE
  5
36E
  8
DETAIL
  6
CONTINUOUS
 10
7.0
 20
-640.5
 30
0.0
 11
-13.0
 21
-640.5
 31
0.0
  0
ARC
  5
36F
  8
DETAIL
  6
CONTINUOUS
 10
75.0
 20
-665.0
 30
0.0
 40
24.5
 50
90.0
 51
270.0
  0
LINE
  5
370
  8
DETAIL
  6
CONTINUOUS
 10
95.0
 20
-640.5
 30
0.0
 11
75.0
 21
-640.5
 31
0.0
  0
ARC
  5
371
  8
DETAIL
  6
CONTINUOUS
 10
95.0
 20
-665.0
 30
0.0
 40
24.5
 50
270.0
 51
90.0
  0
LINE
  5
372
  8
DETAIL
  6
CONTINUOUS
 10
95.0
 20
-689.5
 30
0.0
 11
75.0
 21
-689.5
 31
0.0
  0
LINE
  5
373
  8
BASIS
  6
DASHDOT
 10
0.0
 20
63.416744
 30
0.0
 11
0.0
 21
-762.188278
 31
0.0
  0
LINE
  5
374
  8
SIZE
  6
CONTINUOUS
 62
    30
 10
-305.0
 20
-730.0
 30
0.0
 11
-46.461722
 21
-730.0
 31
0.0
  0
LINE
  5
375
  8
SIZE
  6
CONTINUOUS
 62
    30
 10
-57.0
 20
-665.0
 30
0.0
 11
-46.461722
 21
-665.0
 31
0.0
  0
LINE
  5
376
  8
SIZE
  6
CONTINUOUS
 62
    30
 10
-58.961722
 20
-720.0
 30
0.0
 11
-58.961722
 21
-675.0
 31
0.0
  0
LINE
  5
377
  8
SIZE
  6
CONTINUOUS
 62
    30
 10
-58.961722
 20
-665.0
 30
0.0
 11
-58.961722
 21
-570.998985
 31
0.0
  0
CIRCLE
  5
378
  8
SIZE
  6
CONTINUOUS
 62
    30
 10
-58.961722
 20
-730.0
 30
0.0
 40
5.0
  0
LINE
  5
379
  8
SIZE
  6
CONTINUOUS
 62
    30
 10
-58.961722
 20
-730.0
 30
0.0
 11
-58.961722
 21
-720.0
 31
0.0
  0
CIRCLE
  5
37A
  8
SIZE
  6
CONTINUOUS
 62
    30
 10
-58.961722
 20
-665.0
 30
0.0
 40
5.0
  0
LINE
  5
37B
  8
SIZE
  6
CONTINUOUS
 62
    30
 10
-58.961722
 20
-665.0
 30
0.0
 11
-58.961722
 21
-675.0
 31
0.0
  0
TEXT
  5
37C
  8
SIZE
  6
CONTINUOUS
 62
    30
 10
-68.961722
 20
-630.998985
 30
0.0
 40
30.0
  1
65
 50
90.0
 72
     1
 11
-68.961722
 21
-605.998985
 31
0.0
  0
POINT
  5
37D
  8
DEFPOINTS
  6
CONTINUOUS
 62
    30
 10
-315.0
 20
-730.0
 30
0.0
  0
POINT
  5
37E
  8
DEFPOINTS
  6
CONTINUOUS
 62
    30
 10
-67.0
 20
-665.0
 30
0.0
  0
POINT
  5
37F
  8
DEFPOINTS
  6
CONTINUOUS
 62
    30
 10
-58.961722
 20
-665.0
 30
0.0
  0
LINE
  5
380
  8
SIZE
  6
CONTINUOUS
 62
    30
 10
325.0
 20
-730.0
 30
0.0
 11
575.1
 21
-730.0
 31
0.0
  0
LINE
  5
381
  8
SIZE
  6
CONTINUOUS
 62
    30
 10
30.0
 20
-646.0
 30
0.0
 11
575.1
 21
-646.0
 31
0.0
  0
LINE
  5
382
  8
SIZE
  6
CONTINUOUS
 62
    30
 10
562.6
 20
-720.0
 30
0.0
 11
562.6
 21
-656.0
 31
0.0
  0
CIRCLE
  5
383
  8
SIZE
  6
CONTINUOUS
 62
    30
 10
562.6
 20
-730.0
 30
0.0
 40
5.0
  0
LINE
  5
384
  8
SIZE
  6
CONTINUOUS
 62
    30
 10
562.6
 20
-730.0
 30
0.0
 11
562.6
 21
-720.0
 31
0.0
  0
CIRCLE
  5
385
  8
SIZE
  6
CONTINUOUS
 62
    30
 10
562.6
 20
-646.0
 30
0.0
 40
5.0
  0
LINE
  5
386
  8
SIZE
  6
CONTINUOUS
 62
    30
 10
562.6
 20
-646.0
 30
0.0
 11
562.6
 21
-656.0
 31
0.0
  0
TEXT
  5
387
  8
SIZE
  6
CONTINUOUS
 62
    30
 10
552.6
 20
-713.0
 30
0.0
 40
30.0
  1
84
 50
90.0
 72
     1
 11
552.6
 21
-688.0
 31
0.0
  0
POINT
  5
388
  8
DEFPOINTS
  6
CONTINUOUS
 62
    30
 10
315.0
 20
-730.0
 30
0.0
  0
POINT
  5
389
  8
DEFPOINTS
  6
CONTINUOUS
 62
    30
 10
20.0
 20
-646.0
 30
0.0
  0
POINT
  5
38A
  8
DEFPOINTS
  6
CONTINUOUS
 62
    30
 10
562.6
 20
-646.0
 30
0.0
  0
LINE
  5
38B
  8
SIZE
  6
CONTINUOUS
 62
    30
 10
30.0
 20
-646.0
 30
0.0
 11
575.1
 21
-646.0
 31
0.0
  0
LINE
  5
38C
  8
SIZE
  6
CONTINUOUS
 62
    30
 10
325.0
 20
-76.0
 30
0.0
 11
575.1
 21
-76.0
 31
0.0
  0
LINE
  5
38D
  8
SIZE
  6
CONTINUOUS
 62
    30
 10
562.6
 20
-636.0
 30
0.0
 11
562.6
 21
-86.0
 31
0.0
  0
CIRCLE
  5
38E
  8
SIZE
  6
CONTINUOUS
 62
    30
 10
562.6
 20
-646.0
 30
0.0
 40
5.0
  0
LINE
  5
38F
  8
SIZE
  6
CONTINUOUS
 62
    30
 10
562.6
 20
-646.0
 30
0.0
 11
562.6
 21
-636.0
 31
0.0
  0
CIRCLE
  5
390
  8
SIZE
  6
CONTINUOUS
 62
    30
 10
562.6
 20
-76.0
 30
0.0
 40
5.0
  0
LINE
  5
391
  8
SIZE
  6
CONTINUOUS
 62
    30
 10
562.6
 20
-76.0
 30
0.0
 11
562.6
 21
-86.0
 31
0.0
  0
TEXT
  5
392
  8
SIZE
  6
CONTINUOUS
 62
    30
 10
552.6
 20
-398.5
 30
0.0
 40
30.0
  1
570
 50
90.0
 72
     1
 11
552.6
 21
-361.0
 31
0.0
  0
POINT
  5
393
  8
DEFPOINTS
  6
CONTINUOUS
 62
    30
 10
20.0
 20
-646.0
 30
0.0
  0
POINT
  5
394
  8
DEFPOINTS
  6
CONTINUOUS
 62
    30
 10
315.0
 20
-76.0
 30
0.0
  0
POINT
  5
395
  8
DEFPOINTS
  6
CONTINUOUS
 62
    30
 10
562.6
 20
-76.0
 30
0.0
  0
LINE
  5
396
  8
SIZE
  6
CONTINUOUS
 62
    30
 10
278.0
 20
-112.0
 30
0.0
 11
475.1
 21
-112.0
 31
0.0
  0
LINE
  5
397
  8
SIZE
  6
CONTINUOUS
 62
    30
 10
30.0
 20
-646.0
 30
0.0
 11
475.1
 21
-646.0
 31
0.0
  0
LINE
  5
398
  8
SIZE
  6
CONTINUOUS
 62
    30
 10
462.6
 20
-122.0
 30
0.0
 11
462.6
 21
-636.0
 31
0.0
  0
CIRCLE
  5
399
  8
SIZE
  6
CONTINUOUS
 62
    30
 10
462.6
 20
-112.0
 30
0.0
 40
5.0
  0
LINE
  5
39A
  8
SIZE
  6
CONTINUOUS
 62
    30
 10
462.6
 20
-112.0
 30
0.0
 11
462.6
 21
-122.0
 31
0.0
  0
CIRCLE
  5
39B
  8
SIZE
  6
CONTINUOUS
 62
    30
 10
462.6
 20
-646.0
 30
0.0
 40
5.0
  0
LINE
  5
39C
  8
SIZE
  6
CONTINUOUS
 62
    30
 10
462.6
 20
-646.0
 30
0.0
 11
462.6
 21
-636.0
 31
0.0
  0
TEXT
  5
39D
  8
SIZE
  6
CONTINUOUS
 62
    30
 10
452.6
 20
-405.0
 30
0.0
 40
30.0
  1
534
 50
90.0
 72
     1
 11
452.6
 21
-365.0
 31
0.0
  0
POINT
  5
39E
  8
DEFPOINTS
  6
CONTINUOUS
 62
    30
 10
268.0
 20
-112.0
 30
0.0
  0
POINT
  5
39F
  8
DEFPOINTS
  6
CONTINUOUS
 62
    30
 10
20.0
 20
-646.0
 30
0.0
  0
POINT
  5
3A0
  8
DEFPOINTS
  6
CONTINUOUS
 62
    30
 10
462.6
 20
-646.0
 30
0.0
  0
LINE
  5
3A1
  8
SIZE
  6
CONTINUOUS
 62
    30
 10
325.0
 20
0.0
 30
0.0
 11
475.1
 21
0.0
 31
0.0
  0
LINE
  5
3A2
  8
SIZE
  6
CONTINUOUS
 62
    30
 10
278.0
 20
-112.0
 30
0.0
 11
475.1
 21
-112.0
 31
0.0
  0
LINE
  5
3A3
  8
SIZE
  6
CONTINUOUS
 62
    30
 10
462.6
 20
-102.0
 30
0.0
 11
462.6
 21
-10.0
 31
0.0
  0
LINE
  5
3A4
  8
SIZE
  6
CONTINUOUS
 62
    30
 10
462.6
 20
0.0
 30
0.0
 11
462.6
 21
98.968948
 31
0.0
  0
CIRCLE
  5
3A5
  8
SIZE
  6
CONTINUOUS
 62
    30
 10
462.6
 20
-112.0
 30
0.0
 40
5.0
  0
LINE
  5
3A6
  8
SIZE
  6
CONTINUOUS
 62
    30
 10
462.6
 20
-112.0
 30
0.0
 11
462.6
 21
-102.0
 31
0.0
  0
CIRCLE
  5
3A7
  8
SIZE
  6
CONTINUOUS
 62
    30
 10
462.6
 20
0.0
 30
0.0
 40
5.0
  0
LINE
  5
3A8
  8
SIZE
  6
CONTINUOUS
 62
    30
 10
462.6
 20
0.0
 30
0.0
 11
462.6
 21
-10.0
 31
0.0
  0
TEXT
  5
3A9
  8
SIZE
  6
CONTINUOUS
 62
    30
 10
452.6
 20
28.968948
 30
0.0
 40
30.0
  1
112
 50
90.0
 72
     1
 11
452.6
 21
58.968948
 31
0.0
  0
POINT
  5
3AA
  8
DEFPOINTS
  6
CONTINUOUS
 62
    30
 10
315.0
 20
0.0
 30
0.0
  0
POINT
  5
3AB
  8
DEFPOINTS
  6
CONTINUOUS
 62
    30
 10
268.0
 20
-112.0
 30
0.0
  0
POINT
  5
3AC
  8
DEFPOINTS
  6
CONTINUOUS
 62
    30
 10
462.6
 20
-112.0
 30
0.0
  0
LINE
  5
3AD
  8
SIZE
  6
CONTINUOUS
 62
    30
 10
325.0
 20
0.0
 30
0.0
 11
575.1
 21
0.0
 31
0.0
  0
LINE
  5
3AE
  8
SIZE
  6
CONTINUOUS
 62
    30
 10
325.0
 20
-76.0
 30
0.0
 11
575.1
 21
-76.0
 31
0.0
  0
LINE
  5
3AF
  8
SIZE
  6
CONTINUOUS
 62
    30
 10
562.6
 20
-10.0
 30
0.0
 11
562.6
 21
-66.0
 31
0.0
  0
CIRCLE
  5
3B0
  8
SIZE
  6
CONTINUOUS
 62
    30
 10
562.6
 20
0.0
 30
0.0
 40
5.0
  0
LINE
  5
3B1
  8
SIZE
  6
CONTINUOUS
 62
    30
 10
562.6
 20
0.0
 30
0.0
 11
562.6
 21
-10.0
 31
0.0
  0
CIRCLE
  5
3B2
  8
SIZE
  6
CONTINUOUS
 62
    30
 10
562.6
 20
-76.0
 30
0.0
 40
5.0
  0
LINE
  5
3B3
  8
SIZE
  6
CONTINUOUS
 62
    30
 10
562.6
 20
-76.0
 30
0.0
 11
562.6
 21
-66.0
 31
0.0
  0
TEXT
  5
3B4
  8
SIZE
  6
CONTINUOUS
 62
    30
 10
552.6
 20
-63.0
 30
0.0
 40
30.0
  1
76
 50
90.0
 72
     1
 11
552.6
 21
-38.0
 31
0.0
  0
POINT
  5
3B5
  8
DEFPOINTS
  6
CONTINUOUS
 62
    30
 10
315.0
 20
0.0
 30
0.0
  0
POINT
  5
3B6
  8
DEFPOINTS
  6
CONTINUOUS
 62
    30
 10
315.0
 20
-76.0
 30
0.0
  0
POINT
  5
3B7
  8
DEFPOINTS
  6
CONTINUOUS
 62
    30
 10
562.6
 20
-76.0
 30
0.0
  0
LINE
  5
3B8
  8
SIZE
  6
CONTINUOUS
 62
    30
 10
-325.0
 20
-730.0
 30
0.0
 11
-429.9
 21
-730.0
 31
0.0
  0
LINE
  5
3B9
  8
SIZE
  6
CONTINUOUS
 62
    30
 10
-189.0
 20
-665.0
 30
0.0
 11
-429.9
 21
-665.0
 31
0.0
  0
LINE
  5
3BA
  8
SIZE
  6
CONTINUOUS
 62
    30
 10
-417.4
 20
-720.0
 30
0.0
 11
-417.4
 21
-675.0
 31
0.0
  0
CIRCLE
  5
3BB
  8
SIZE
  6
CONTINUOUS
 62
    30
 10
-417.4
 20
-730.0
 30
0.0
 40
5.0
  0
LINE
  5
3BC
  8
SIZE
  6
CONTINUOUS
 62
    30
 10
-417.4
 20
-730.0
 30
0.0
 11
-417.4
 21
-720.0
 31
0.0
  0
CIRCLE
  5
3BD
  8
SIZE
  6
CONTINUOUS
 62
    30
 10
-417.4
 20
-665.0
 30
0.0
 40
5.0
  0
LINE
  5
3BE
  8
SIZE
  6
CONTINUOUS
 62
    30
 10
-417.4
 20
-665.0
 30
0.0
 11
-417.4
 21
-675.0
 31
0.0
  0
TEXT
  5
3BF
  8
SIZE
  6
CONTINUOUS
 62
    30
 10
-427.4
 20
-722.5
 30
0.0
 40
30.0
  1
65
 50
90.0
 72
     1
 11
-427.4
 21
-697.5
 31
0.0
  0
POINT
  5
3C0
  8
DEFPOINTS
  6
CONTINUOUS
 62
    30
 10
-315.0
 20
-730.0
 30
0.0
  0
POINT
  5
3C1
  8
DEFPOINTS
  6
CONTINUOUS
 62
    30
 10
-179.0
 20
-665.0
 30
0.0
  0
POINT
  5
3C2
  8
DEFPOINTS
  6
CONTINUOUS
 62
    30
 10
-417.4
 20
-665.0
 30
0.0
  0
LINE
  5
3C3
  8
SIZE
  6
CONTINUOUS
 62
    30
 10
0.0
 20
-772.188293
 30
0.0
 11
0.0
 21
-890.1
 31
0.0
  0
LINE
  5
3C4
  8
SIZE
  6
CONTINUOUS
 62
    30
 10
-3.0
 20
-695.0
 30
0.0
 11
-3.0
 21
-890.1
 31
0.0
  0
LINE
  5
3C5
  8
SIZE
  6
CONTINUOUS
 62
    30
 10
-13.0
 20
-877.6
 30
0.0
 11
-23.0
 21
-877.6
 31
0.0
  0
LINE
  5
3C6
  8
SIZE
  6
CONTINUOUS
 62
    30
 10
10.0
 20
-877.6
 30
0.0
 11
60.561825
 21
-877.6
 31
0.0
  0
LINE
  5
3C7
  8
SIZE
  6
CONTINUOUS
 62
    30
 10
-3.0
 20
-877.6
 30
0.0
 11
0.0
 21
-877.6
 31
0.0
  0
CIRCLE
  5
3C8
  8
SIZE
  6
CONTINUOUS
 62
    30
 10
-3.0
 20
-877.6
 30
0.0
 40
5.0
  0
LINE
  5
3C9
  8
SIZE
  6
CONTINUOUS
 62
    30
 10
-3.0
 20
-877.6
 30
0.0
 11
-13.0
 21
-877.6
 31
0.0
  0
CIRCLE
  5
3CA
  8
SIZE
  6
CONTINUOUS
 62
    30
 10
0.0
 20
-877.6
 30
0.0
 40
5.0
  0
LINE
  5
3CB
  8
SIZE
  6
CONTINUOUS
 62
    30
 10
0.0
 20
-877.6
 30
0.0
 11
10.0
 21
-877.6
 31
0.0
  0
TEXT
  5
3CC
  8
SIZE
  6
CONTINUOUS
 62
    30
 10
30.561825
 20
-867.6
 30
0.0
 40
30.0
  1
3
 72
     1
 11
40.561825
 21
-867.6
 31
0.0
  0
POINT
  5
3CD
  8
DEFPOINTS
  6
CONTINUOUS
 62
    30
 10
0.0
 20
-762.188293
 30
0.0
  0
POINT
  5
3CE
  8
DEFPOINTS
  6
CONTINUOUS
 62
    30
 10
-3.0
 20
-685.0
 30
0.0
  0
POINT
  5
3CF
  8
DEFPOINTS
  6
CONTINUOUS
 62
    30
 10
-3.0
 20
-877.6
 30
0.0
  0
LINE
  5
3D0
  8
SIZE
  6
CONTINUOUS
 62
    30
 10
-3.0
 20
-695.0
 30
0.0
 11
-3.0
 21
-890.1
 31
0.0
  0
LINE
  5
3D1
  8
SIZE
  6
CONTINUOUS
 62
    30
 10
-87.0
 20
-695.0
 30
0.0
 11
-87.0
 21
-890.1
 31
0.0
  0
LINE
  5
3D2
  8
SIZE
  6
CONTINUOUS
 62
    30
 10
-13.0
 20
-877.6
 30
0.0
 11
-77.0
 21
-877.6
 31
0.0
  0
CIRCLE
  5
3D3
  8
SIZE
  6
CONTINUOUS
 62
    30
 10
-3.0
 20
-877.6
 30
0.0
 40
5.0
  0
LINE
  5
3D4
  8
SIZE
  6
CONTINUOUS
 62
    30
 10
-3.0
 20
-877.6
 30
0.0
 11
-13.0
 21
-877.6
 31
0.0
  0
CIRCLE
  5
3D5
  8
SIZE
  6
CONTINUOUS
 62
    30
 10
-87.0
 20
-877.6
 30
0.0
 40
5.0
  0
LINE
  5
3D6
  8
SIZE
  6
CONTINUOUS
 62
    30
 10
-87.0
 20
-877.6
 30
0.0
 11
-77.0
 21
-877.6
 31
0.0
  0
TEXT
  5
3D7
  8
SIZE
  6
CONTINUOUS
 62
    30
 10
-70.0
 20
-867.6
 30
0.0
 40
30.0
  1
84
 72
     1
 11
-45.0
 21
-867.6
 31
0.0
  0
POINT
  5
3D8
  8
DEFPOINTS
  6
CONTINUOUS
 62
    30
 10
-3.0
 20
-685.0
 30
0.0
  0
POINT
  5
3D9
  8
DEFPOINTS
  6
CONTINUOUS
 62
    30
 10
-87.0
 20
-685.0
 30
0.0
  0
POINT
  5
3DA
  8
DEFPOINTS
  6
CONTINUOUS
 62
    30
 10
-87.0
 20
-877.6
 30
0.0
  0
LINE
  5
3DB
  8
SIZE
  6
CONTINUOUS
 62
    30
 10
85.0
 20
-695.0
 30
0.0
 11
85.0
 21
-990.1
 31
0.0
  0
LINE
  5
3DC
  8
SIZE
  6
CONTINUOUS
 62
    30
 10
0.0
 20
-772.188293
 30
0.0
 11
0.0
 21
-990.1
 31
0.0
  0
LINE
  5
3DD
  8
SIZE
  6
CONTINUOUS
 62
    30
 10
75.0
 20
-977.6
 30
0.0
 11
10.0
 21
-977.6
 31
0.0
  0
CIRCLE
  5
3DE
  8
SIZE
  6
CONTINUOUS
 62
    30
 10
85.0
 20
-977.6
 30
0.0
 40
5.0
  0
LINE
  5
3DF
  8
SIZE
  6
CONTINUOUS
 62
    30
 10
85.0
 20
-977.6
 30
0.0
 11
75.0
 21
-977.6
 31
0.0
  0
CIRCLE
  5
3E0
  8
SIZE
  6
CONTINUOUS
 62
    30
 10
0.0
 20
-977.6
 30
0.0
 40
5.0
  0
LINE
  5
3E1
  8
SIZE
  6
CONTINUOUS
 62
    30
 10
0.0
 20
-977.6
 30
0.0
 11
10.0
 21
-977.6
 31
0.0
  0
TEXT
  5
3E2
  8
SIZE
  6
CONTINUOUS
 62
    30
 10
17.5
 20
-967.6
 30
0.0
 40
30.0
  1
85
 72
     1
 11
42.5
 21
-967.6
 31
0.0
  0
POINT
  5
3E3
  8
DEFPOINTS
  6
CONTINUOUS
 62
    30
 10
85.0
 20
-685.0
 30
0.0
  0
POINT
  5
3E4
  8
DEFPOINTS
  6
CONTINUOUS
 62
    30
 10
0.0
 20
-762.188293
 30
0.0
  0
POINT
  5
3E5
  8
DEFPOINTS
  6
CONTINUOUS
 62
    30
 10
0.0
 20
-977.6
 30
0.0
  0
LINE
  5
3E6
  8
SIZE
  6
CONTINUOUS
 62
    30
 10
-159.0
 20
-695.0
 30
0.0
 11
-159.0
 21
-990.1
 31
0.0
  0
LINE
  5
3E7
  8
SIZE
  6
CONTINUOUS
 62
    30
 10
0.0
 20
-772.188293
 30
0.0
 11
0.0
 21
-990.1
 31
0.0
  0
LINE
  5
3E8
  8
SIZE
  6
CONTINUOUS
 62
    30
 10
-149.0
 20
-977.6
 30
0.0
 11
-10.0
 21
-977.6
 31
0.0
  0
CIRCLE
  5
3E9
  8
SIZE
  6
CONTINUOUS
 62
    30
 10
-159.0
 20
-977.6
 30
0.0
 40
5.0
  0
LINE
  5
3EA
  8
SIZE
  6
CONTINUOUS
 62
    30
 10
-159.0
 20
-977.6
 30
0.0
 11
-149.0
 21
-977.6
 31
0.0
  0
CIRCLE
  5
3EB
  8
SIZE
  6
CONTINUOUS
 62
    30
 10
0.0
 20
-977.6
 30
0.0
 40
5.0
  0
LINE
  5
3EC
  8
SIZE
  6
CONTINUOUS
 62
    30
 10
0.0
 20
-977.6
 30
0.0
 11
-10.0
 21
-977.6
 31
0.0
  0
TEXT
  5
3ED
  8
SIZE
  6
CONTINUOUS
 62
    30
 10
-112.421593
 20
-967.6
 30
0.0
 40
30.0
  1
159
 72
     1
 11
-77.421593
 21
-967.6
 31
0.0
  0
POINT
  5
3EE
  8
DEFPOINTS
  6
CONTINUOUS
 62
    30
 10
-159.0
 20
-685.0
 30
0.0
  0
POINT
  5
3EF
  8
DEFPOINTS
  6
CONTINUOUS
 62
    30
 10
0.0
 20
-762.188293
 30
0.0
  0
POINT
  5
3F0
  8
DEFPOINTS
  6
CONTINUOUS
 62
    30
 10
0.0
 20
-977.6
 30
0.0
  0
LINE
  5
3F1
  8
SIZE
  6
CONTINUOUS
 62
    30
 10
-159.0
 20
-695.0
 30
0.0
 11
-159.0
 21
-990.1
 31
0.0
  0
LINE
  5
3F2
  8
SIZE
  6
CONTINUOUS
 62
    30
 10
-234.0
 20
-670.0
 30
0.0
 11
-234.0
 21
-990.1
 31
0.0
  0
LINE
  5
3F3
  8
SIZE
  6
CONTINUOUS
 62
    30
 10
-169.0
 20
-977.6
 30
0.0
 11
-224.0
 21
-977.6
 31
0.0
  0
CIRCLE
  5
3F4
  8
SIZE
  6
CONTINUOUS
 62
    30
 10
-159.0
 20
-977.6
 30
0.0
 40
5.0
  0
LINE
  5
3F5
  8
SIZE
  6
CONTINUOUS
 62
    30
 10
-159.0
 20
-977.6
 30
0.0
 11
-169.0
 21
-977.6
 31
0.0
  0
CIRCLE
  5
3F6
  8
SIZE
  6
CONTINUOUS
 62
    30
 10
-234.0
 20
-977.6
 30
0.0
 40
5.0
  0
LINE
  5
3F7
  8
SIZE
  6
CONTINUOUS
 62
    30
 10
-234.0
 20
-977.6
 30
0.0
 11
-224.0
 21
-977.6
 31
0.0
  0
TEXT
  5
3F8
  8
SIZE
  6
CONTINUOUS
 62
    30
 10
-221.5
 20
-967.6
 30
0.0
 40
30.0
  1
75
 72
     1
 11
-196.5
 21
-967.6
 31
0.0
  0
POINT
  5
3F9
  8
DEFPOINTS
  6
CONTINUOUS
 62
    30
 10
-159.0
 20
-685.0
 30
0.0
  0
POINT
  5
3FA
  8
DEFPOINTS
  6
CONTINUOUS
 62
    30
 10
-234.0
 20
-660.0
 30
0.0
  0
POINT
  5
3FB
  8
DEFPOINTS
  6
CONTINUOUS
 62
    30
 10
-234.0
 20
-977.6
 30
0.0
  0
LINE
  5
3FC
  8
SIZE
  6
CONTINUOUS
 62
    30
 10
-234.0
 20
-670.0
 30
0.0
 11
-234.0
 21
-990.1
 31
0.0
  0
LINE
  5
3FD
  8
SIZE
  6
CONTINUOUS
 62
    30
 10
-315.0
 20
-740.0
 30
0.0
 11
-315.0
 21
-990.1
 31
0.0
  0
LINE
  5
3FE
  8
SIZE
  6
CONTINUOUS
 62
    30
 10
-244.0
 20
-977.6
 30
0.0
 11
-305.0
 21
-977.6
 31
0.0
  0
CIRCLE
  5
3FF
  8
SIZE
  6
CONTINUOUS
 62
    30
 10
-234.0
 20
-977.6
 30
0.0
 40
5.0
  0
LINE
  5
400
  8
SIZE
  6
CONTINUOUS
 62
    30
 10
-234.0
 20
-977.6
 30
0.0
 11
-244.0
 21
-977.6
 31
0.0
  0
CIRCLE
  5
401
  8
SIZE
  6
CONTINUOUS
 62
    30
 10
-315.0
 20
-977.6
 30
0.0
 40
5.0
  0
LINE
  5
402
  8
SIZE
  6
CONTINUOUS
 62
    30
 10
-315.0
 20
-977.6
 30
0.0
 11
-305.0
 21
-977.6
 31
0.0
  0
TEXT
  5
403
  8
SIZE
  6
CONTINUOUS
 62
    30
 10
-294.5
 20
-967.6
 30
0.0
 40
30.0
  1
81
 72
     1
 11
-274.5
 21
-967.6
 31
0.0
  0
POINT
  5
404
  8
DEFPOINTS
  6
CONTINUOUS
 62
    30
 10
-234.0
 20
-660.0
 30
0.0
  0
POINT
  5
405
  8
DEFPOINTS
  6
CONTINUOUS
 62
    30
 10
-315.0
 20
-730.0
 30
0.0
  0
POINT
  5
406
  8
DEFPOINTS
  6
CONTINUOUS
 62
    30
 10
-315.0
 20
-977.6
 30
0.0
  0
LINE
  5
407
  8
SIZE
  6
CONTINUOUS
 62
    30
 10
325.0
 20
-730.0
 30
0.0
 11
475.1
 21
-730.0
 31
0.0
  0
LINE
  5
408
  8
SIZE
  6
CONTINUOUS
 62
    30
 10
115.0
 20
-665.0
 30
0.0
 11
475.1
 21
-665.0
 31
0.0
  0
LINE
  5
409
  8
SIZE
  6
CONTINUOUS
 62
    30
 10
462.6
 20
-720.0
 30
0.0
 11
462.6
 21
-675.0
 31
0.0
  0
CIRCLE
  5
40A
  8
SIZE
  6
CONTINUOUS
 62
    30
 10
462.6
 20
-730.0
 30
0.0
 40
5.0
  0
LINE
  5
40B
  8
SIZE
  6
CONTINUOUS
 62
    30
 10
462.6
 20
-730.0
 30
0.0
 11
462.6
 21
-720.0
 31
0.0
  0
CIRCLE
  5
40C
  8
SIZE
  6
CONTINUOUS
 62
    30
 10
462.6
 20
-665.0
 30
0.0
 40
5.0
  0
LINE
  5
40D
  8
SIZE
  6
CONTINUOUS
 62
    30
 10
462.6
 20
-665.0
 30
0.0
 11
462.6
 21
-675.0
 31
0.0
  0
TEXT
  5
40E
  8
SIZE
  6
CONTINUOUS
 62
    30
 10
452.6
 20
-722.5
 30
0.0
 40
30.0
  1
65
 50
90.0
 72
     1
 11
452.6
 21
-697.5
 31
0.0
  0
POINT
  5
40F
  8
DEFPOINTS
  6
CONTINUOUS
 62
    30
 10
315.0
 20
-730.0
 30
0.0
  0
POINT
  5
410
  8
DEFPOINTS
  6
CONTINUOUS
 62
    30
 10
105.0
 20
-665.0
 30
0.0
  0
POINT
  5
411
  8
DEFPOINTS
  6
CONTINUOUS
 62
    30
 10
462.6
 20
-665.0
 30
0.0
  0
LINE
  5
412
  8
SIZE
  6
CONTINUOUS
 62
    30
 10
-264.0
 20
-640.0
 30
0.0
 11
-529.9
 21
-640.0
 31
0.0
  0
LINE
  5
413
  8
SIZE
  6
CONTINUOUS
 62
    30
 10
-210.0
 20
-351.0
 30
0.0
 11
-529.9
 21
-351.0
 31
0.0
  0
LINE
  5
414
  8
SIZE
  6
CONTINUOUS
 62
    30
 10
-517.4
 20
-630.0
 30
0.0
 11
-517.4
 21
-361.0
 31
0.0
  0
CIRCLE
  5
415
  8
SIZE
  6
CONTINUOUS
 62
    30
 10
-517.4
 20
-640.0
 30
0.0
 40
5.0
  0
LINE
  5
416
  8
SIZE
  6
CONTINUOUS
 62
    30
 10
-517.4
 20
-640.0
 30
0.0
 11
-517.4
 21
-630.0
 31
0.0
  0
CIRCLE
  5
417
  8
SIZE
  6
CONTINUOUS
 62
    30
 10
-517.4
 20
-351.0
 30
0.0
 40
5.0
  0
LINE
  5
418
  8
SIZE
  6
CONTINUOUS
 62
    30
 10
-517.4
 20
-351.0
 30
0.0
 11
-517.4
 21
-361.0
 31
0.0
  0
TEXT
  5
419
  8
SIZE
  6
CONTINUOUS
 62
    30
 10
-527.4
 20
-531.071625
 30
0.0
 40
30.0
  1
289
 50
90.0
 72
     1
 11
-527.4
 21
-491.071625
 31
0.0
  0
POINT
  5
41A
  8
DEFPOINTS
  6
CONTINUOUS
 62
    30
 10
-254.0
 20
-640.0
 30
0.0
  0
POINT
  5
41B
  8
DEFPOINTS
  6
CONTINUOUS
 62
    30
 10
-200.0
 20
-351.0
 30
0.0
  0
POINT
  5
41C
  8
DEFPOINTS
  6
CONTINUOUS
 62
    30
 10
-517.4
 20
-351.0
 30
0.0
  0
LINE
  5
41D
  8
SIZE
  6
CONTINUOUS
 62
    30
 10
-325.0
 20
-730.0
 30
0.0
 11
-529.9
 21
-730.0
 31
0.0
  0
LINE
  5
41E
  8
SIZE
  6
CONTINUOUS
 62
    30
 10
-264.0
 20
-640.0
 30
0.0
 11
-529.9
 21
-640.0
 31
0.0
  0
LINE
  5
41F
  8
SIZE
  6
CONTINUOUS
 62
    30
 10
-517.4
 20
-720.0
 30
0.0
 11
-517.4
 21
-650.0
 31
0.0
  0
CIRCLE
  5
420
  8
SIZE
  6
CONTINUOUS
 62
    30
 10
-517.4
 20
-730.0
 30
0.0
 40
5.0
  0
LINE
  5
421
  8
SIZE
  6
CONTINUOUS
 62
    30
 10
-517.4
 20
-730.0
 30
0.0
 11
-517.4
 21
-720.0
 31
0.0
  0
CIRCLE
  5
422
  8
SIZE
  6
CONTINUOUS
 62
    30
 10
-517.4
 20
-640.0
 30
0.0
 40
5.0
  0
LINE
  5
423
  8
SIZE
  6
CONTINUOUS
 62
    30
 10
-517.4
 20
-640.0
 30
0.0
 11
-517.4
 21
-650.0
 31
0.0
  0
TEXT
  5
424
  8
SIZE
  6
CONTINUOUS
 62
    30
 10
-527.4
 20
-710.124512
 30
0.0
 40
30.0
  1
90
 50
90.0
 72
     1
 11
-527.4
 21
-687.624512
 31
0.0
  0
POINT
  5
425
  8
DEFPOINTS
  6
CONTINUOUS
 62
    30
 10
-315.0
 20
-730.0
 30
0.0
  0
POINT
  5
426
  8
DEFPOINTS
  6
CONTINUOUS
 62
    30
 10
-254.0
 20
-640.0
 30
0.0
  0
POINT
  5
427
  8
DEFPOINTS
  6
CONTINUOUS
 62
    30
 10
-517.4
 20
-640.0
 30
0.0
  0
LINE
  5
428
  8
SIZE
  6
CONTINUOUS
 62
    30
 10
-315.0
 20
-720.0
 30
0.0
 11
-315.0
 21
-486.1
 31
0.0
  0
LINE
  5
429
  8
SIZE
  6
CONTINUOUS
 62
    30
 10
-180.0
 20
-381.0
 30
0.0
 11
-180.0
 21
-511.1
 31
0.0
  0
LINE
  5
42A
  8
SIZE
  6
CONTINUOUS
 62
    30
 10
-305.0
 20
-498.6
 30
0.0
 11
-190.0
 21
-498.6
 31
0.0
  0
CIRCLE
  5
42B
  8
SIZE
  6
CONTINUOUS
 62
    30
 10
-315.0
 20
-498.6
 30
0.0
 40
5.0
  0
LINE
  5
42C
  8
SIZE
  6
CONTINUOUS
 62
    30
 10
-315.0
 20
-498.6
 30
0.0
 11
-305.0
 21
-498.6
 31
0.0
  0
CIRCLE
  5
42D
  8
SIZE
  6
CONTINUOUS
 62
    30
 10
-180.0
 20
-498.6
 30
0.0
 40
5.0
  0
LINE
  5
42E
  8
SIZE
  6
CONTINUOUS
 62
    30
 10
-180.0
 20
-498.6
 30
0.0
 11
-190.0
 21
-498.6
 31
0.0
  0
TEXT
  5
42F
  8
SIZE
  6
CONTINUOUS
 62
    30
 10
-281.272888
 20
-488.6
 30
0.0
 40
30.0
  1
135
 72
     1
 11
-246.272888
 21
-488.6
 31
0.0
  0
POINT
  5
430
  8
DEFPOINTS
  6
CONTINUOUS
 62
    30
 10
-315.0
 20
-730.0
 30
0.0
  0
POINT
  5
431
  8
DEFPOINTS
  6
CONTINUOUS
 62
    30
 10
-180.0
 20
-371.0
 30
0.0
  0
POINT
  5
432
  8
DEFPOINTS
  6
CONTINUOUS
 62
    30
 10
-180.0
 20
-498.6
 30
0.0
  0
LINE
  5
433
  8
SIZE
  6
CONTINUOUS
 62
    30
 10
248.0
 20
-82.0
 30
0.0
 11
248.0
 21
114.9
 31
0.0
  0
LINE
  5
434
  8
SIZE
  6
CONTINUOUS
 62
    30
 10
-248.0
 20
-82.0
 30
0.0
 11
-248.0
 21
114.9
 31
0.0
  0
LINE
  5
435
  8
SIZE
  6
CONTINUOUS
 62
    30
 10
238.0
 20
102.4
 30
0.0
 11
-238.0
 21
102.4
 31
0.0
  0
CIRCLE
  5
436
  8
SIZE
  6
CONTINUOUS
 62
    30
 10
248.0
 20
102.4
 30
0.0
 40
5.0
  0
LINE
  5
437
  8
SIZE
  6
CONTINUOUS
 62
    30
 10
248.0
 20
102.4
 30
0.0
 11
238.0
 21
102.4
 31
0.0
  0
CIRCLE
  5
438
  8
SIZE
  6
CONTINUOUS
 62
    30
 10
-248.0
 20
102.4
 30
0.0
 40
5.0
  0
LINE
  5
439
  8
SIZE
  6
CONTINUOUS
 62
    30
 10
-248.0
 20
102.4
 30
0.0
 11
-238.0
 21
102.4
 31
0.0
  0
TEXT
  5
43A
  8
SIZE
  6
CONTINUOUS
 62
    30
 10
-40.0
 20
112.4
 30
0.0
 40
30.0
  1
496
 72
     1
 11
0.0
 21
112.4
 31
0.0
  0
POINT
  5
43B
  8
DEFPOINTS
  6
CONTINUOUS
 62
    30
 10
248.0
 20
-92.0
 30
0.0
  0
POINT
  5
43C
  8
DEFPOINTS
  6
CONTINUOUS
 62
    30
 10
-248.0
 20
-92.0
 30
0.0
  0
POINT
  5
43D
  8
DEFPOINTS
  6
CONTINUOUS
 62
    30
 10
-248.0
 20
102.4
 30
0.0
  0
LINE
  5
43E
  8
SIZE
  6
CONTINUOUS
 62
    30
 10
295.0
 20
-46.0
 30
0.0
 11
295.0
 21
214.9
 31
0.0
  0
LINE
  5
43F
  8
SIZE
  6
CONTINUOUS
 62
    30
 10
201.0
 20
-46.0
 30
0.0
 11
201.0
 21
214.9
 31
0.0
  0
LINE
  5
440
  8
SIZE
  6
CONTINUOUS
 62
    30
 10
285.0
 20
202.4
 30
0.0
 11
211.0
 21
202.4
 31
0.0
  0
CIRCLE
  5
441
  8
SIZE
  6
CONTINUOUS
 62
    30
 10
295.0
 20
202.4
 30
0.0
 40
5.0
  0
LINE
  5
442
  8
SIZE
  6
CONTINUOUS
 62
    30
 10
295.0
 20
202.4
 30
0.0
 11
285.0
 21
202.4
 31
0.0
  0
CIRCLE
  5
443
  8
SIZE
  6
CONTINUOUS
 62
    30
 10
201.0
 20
202.4
 30
0.0
 40
5.0
  0
LINE
  5
444
  8
SIZE
  6
CONTINUOUS
 62
    30
 10
201.0
 20
202.4
 30
0.0
 11
211.0
 21
202.4
 31
0.0
  0
TEXT
  5
445
  8
SIZE
  6
CONTINUOUS
 62
    30
 10
223.0
 20
212.4
 30
0.0
 40
30.0
  1
94
 72
     1
 11
248.0
 21
212.4
 31
0.0
  0
POINT
  5
446
  8
DEFPOINTS
  6
CONTINUOUS
 62
    30
 10
295.0
 20
-56.0
 30
0.0
  0
POINT
  5
447
  8
DEFPOINTS
  6
CONTINUOUS
 62
    30
 10
201.0
 20
-56.0
 30
0.0
  0
POINT
  5
448
  8
DEFPOINTS
  6
CONTINUOUS
 62
    30
 10
201.0
 20
202.4
 30
0.0
  0
LINE
  5
449
  8
SIZE
  6
CONTINUOUS
 62
    30
 10
201.0
 20
-46.0
 30
0.0
 11
201.0
 21
214.9
 31
0.0
  0
LINE
  5
44A
  8
SIZE
  6
CONTINUOUS
 62
    30
 10
-201.0
 20
-46.0
 30
0.0
 11
-201.0
 21
214.9
 31
0.0
  0
LINE
  5
44B
  8
SIZE
  6
CONTINUOUS
 62
    30
 10
191.0
 20
202.4
 30
0.0
 11
-191.0
 21
202.4
 31
0.0
  0
CIRCLE
  5
44C
  8
SIZE
  6
CONTINUOUS
 62
    30
 10
201.0
 20
202.4
 30
0.0
 40
5.0
  0
LINE
  5
44D
  8
SIZE
  6
CONTINUOUS
 62
    30
 10
201.0
 20
202.4
 30
0.0
 11
191.0
 21
202.4
 31
0.0
  0
CIRCLE
  5
44E
  8
SIZE
  6
CONTINUOUS
 62
    30
 10
-201.0
 20
202.4
 30
0.0
 40
5.0
  0
LINE
  5
44F
  8
SIZE
  6
CONTINUOUS
 62
    30
 10
-201.0
 20
202.4
 30
0.0
 11
-191.0
 21
202.4
 31
0.0
  0
TEXT
  5
450
  8
SIZE
  6
CONTINUOUS
 62
    30
 10
-37.444157
 20
212.4
 30
0.0
 40
30.0
  1
402
 72
     1
 11
0.055843
 21
212.4
 31
0.0
  0
POINT
  5
451
  8
DEFPOINTS
  6
CONTINUOUS
 62
    30
 10
201.0
 20
-56.0
 30
0.0
  0
POINT
  5
452
  8
DEFPOINTS
  6
CONTINUOUS
 62
    30
 10
-201.0
 20
-56.0
 30
0.0
  0
POINT
  5
453
  8
DEFPOINTS
  6
CONTINUOUS
 62
    30
 10
-201.0
 20
202.4
 30
0.0
  0
LINE
  5
454
  8
SIZE
  6
CONTINUOUS
 62
    30
 10
-201.0
 20
-46.0
 30
0.0
 11
-201.0
 21
214.9
 31
0.0
  0
LINE
  5
455
  8
SIZE
  6
CONTINUOUS
 62
    30
 10
-295.0
 20
-46.0
 30
0.0
 11
-295.0
 21
214.9
 31
0.0
  0
LINE
  5
456
  8
SIZE
  6
CONTINUOUS
 62
    30
 10
-211.0
 20
202.4
 30
0.0
 11
-285.0
 21
202.4
 31
0.0
  0
CIRCLE
  5
457
  8
SIZE
  6
CONTINUOUS
 62
    30
 10
-201.0
 20
202.4
 30
0.0
 40
5.0
  0
LINE
  5
458
  8
SIZE
  6
CONTINUOUS
 62
    30
 10
-201.0
 20
202.4
 30
0.0
 11
-211.0
 21
202.4
 31
0.0
  0
CIRCLE
  5
459
  8
SIZE
  6
CONTINUOUS
 62
    30
 10
-295.0
 20
202.4
 30
0.0
 40
5.0
  0
LINE
  5
45A
  8
SIZE
  6
CONTINUOUS
 62
    30
 10
-295.0
 20
202.4
 30
0.0
 11
-285.0
 21
202.4
 31
0.0
  0
TEXT
  5
45B
  8
SIZE
  6
CONTINUOUS
 62
    30
 10
-273.0
 20
212.4
 30
0.0
 40
30.0
  1
94
 72
     1
 11
-248.0
 21
212.4
 31
0.0
  0
POINT
  5
45C
  8
DEFPOINTS
  6
CONTINUOUS
 62
    30
 10
-201.0
 20
-56.0
 30
0.0
  0
POINT
  5
45D
  8
DEFPOINTS
  6
CONTINUOUS
 62
    30
 10
-295.0
 20
-56.0
 30
0.0
  0
POINT
  5
45E
  8
DEFPOINTS
  6
CONTINUOUS
 62
    30
 10
-295.0
 20
202.4
 30
0.0
  0
LINE
  5
45F
  8
SIZE
  6
CONTINUOUS
 62
    30
 10
325.0
 20
-1330.0
 30
0.0
 11
675.1
 21
-1330.0
 31
0.0
  0
LINE
  5
460
  8
SIZE
  6
CONTINUOUS
 62
    30
 10
325.0
 20
-730.0
 30
0.0
 11
675.1
 21
-730.0
 31
0.0
  0
LINE
  5
461
  8
SIZE
  6
CONTINUOUS
 62
    30
 10
662.6
 20
-1320.0
 30
0.0
 11
662.6
 21
-740.0
 31
0.0
  0
CIRCLE
  5
462
  8
SIZE
  6
CONTINUOUS
 62
    30
 10
662.6
 20
-1330.0
 30
0.0
 40
5.0
  0
LINE
  5
463
  8
SIZE
  6
CONTINUOUS
 62
    30
 10
662.6
 20
-1330.0
 30
0.0
 11
662.6
 21
-1320.0
 31
0.0
  0
CIRCLE
  5
464
  8
SIZE
  6
CONTINUOUS
 62
    30
 10
662.6
 20
-730.0
 30
0.0
 40
5.0
  0
LINE
  5
465
  8
SIZE
  6
CONTINUOUS
 62
    30
 10
662.6
 20
-730.0
 30
0.0
 11
662.6
 21
-740.0
 31
0.0
  0
TEXT
  5
466
  8
SIZE
  6
CONTINUOUS
 62
    30
 10
652.6
 20
-1065.0
 30
0.0
 40
30.0
  1
600
 50
90.0
 72
     1
 11
652.6
 21
-1030.0
 31
0.0
  0
POINT
  5
467
  8
DEFPOINTS
  6
CONTINUOUS
 62
    30
 10
315.0
 20
-1330.0
 30
0.0
  0
POINT
  5
468
  8
DEFPOINTS
  6
CONTINUOUS
 62
    30
 10
315.0
 20
-730.0
 30
0.0
  0
POINT
  5
469
  8
DEFPOINTS
  6
CONTINUOUS
 62
    30
 10
662.6
 20
-730.0
 30
0.0
  0
LINE
  5
46A
  8
SIZE
  6
CONTINUOUS
 62
    30
 10
315.0
 20
-1340.0
 30
0.0
 11
315.0
 21
-1490.1
 31
0.0
  0
LINE
  5
46B
  8
SIZE
  6
CONTINUOUS
 62
    30
 10
-315.0
 20
-1340.0
 30
0.0
 11
-315.0
 21
-1490.1
 31
0.0
  0
LINE
  5
46C
  8
SIZE
  6
CONTINUOUS
 62
    30
 10
305.0
 20
-1477.6
 30
0.0
 11
-305.0
 21
-1477.6
 31
0.0
  0
CIRCLE
  5
46D
  8
SIZE
  6
CONTINUOUS
 62
    30
 10
315.0
 20
-1477.6
 30
0.0
 40
5.0
  0
LINE
  5
46E
  8
SIZE
  6
CONTINUOUS
 62
    30
 10
315.0
 20
-1477.6
 30
0.0
 11
305.0
 21
-1477.6
 31
0.0
  0
CIRCLE
  5
46F
  8
SIZE
  6
CONTINUOUS
 62
    30
 10
-315.0
 20
-1477.6
 30
0.0
 40
5.0
  0
LINE
  5
470
  8
SIZE
  6
CONTINUOUS
 62
    30
 10
-315.0
 20
-1477.6
 30
0.0
 11
-305.0
 21
-1477.6
 31
0.0
  0
TEXT
  5
471
  8
SIZE
  6
CONTINUOUS
 62
    30
 10
-37.5
 20
-1467.6
 30
0.0
 40
30.0
  1
630
 72
     1
 11
0.0
 21
-1467.6
 31
0.0
  0
POINT
  5
472
  8
DEFPOINTS
  6
CONTINUOUS
 62
    30
 10
315.0
 20
-1330.0
 30
0.0
  0
POINT
  5
473
  8
DEFPOINTS
  6
CONTINUOUS
 62
    30
 10
-315.0
 20
-1330.0
 30
0.0
  0
POINT
  5
474
  8
DEFPOINTS
  6
CONTINUOUS
 62
    30
 10
-315.0
 20
-1477.6
 30
0.0
  0
LINE
  5
475
  8
SIZE
  6
CONTINUOUS
 62
    30
 10
-315.0
 20
10.0
 30
0.0
 11
-315.0
 21
314.9
 31
0.0
  0
LINE
  5
476
  8
SIZE
  6
CONTINUOUS
 62
    30
 10
315.0
 20
10.0
 30
0.0
 11
315.0
 21
314.9
 31
0.0
  0
LINE
  5
477
  8
SIZE
  6
CONTINUOUS
 62
    30
 10
-305.0
 20
302.4
 30
0.0
 11
305.0
 21
302.4
 31
0.0
  0
CIRCLE
  5
478
  8
SIZE
  6
CONTINUOUS
 62
    30
 10
-315.0
 20
302.4
 30
0.0
 40
5.0
  0
LINE
  5
479
  8
SIZE
  6
CONTINUOUS
 62
    30
 10
-315.0
 20
302.4
 30
0.0
 11
-305.0
 21
302.4
 31
0.0
  0
CIRCLE
  5
47A
  8
SIZE
  6
CONTINUOUS
 62
    30
 10
315.0
 20
302.4
 30
0.0
 40
5.0
  0
LINE
  5
47B
  8
SIZE
  6
CONTINUOUS
 62
    30
 10
315.0
 20
302.4
 30
0.0
 11
305.0
 21
302.4
 31
0.0
  0
TEXT
  5
47C
  8
SIZE
  6
CONTINUOUS
 62
    30
 10
-64.900673
 20
312.4
 30
0.0
 40
30.0
  1
630
 72
     1
 11
-27.400673
 21
312.4
 31
0.0
  0
POINT
  5
47D
  8
DEFPOINTS
  6
CONTINUOUS
 62
    30
 10
-315.0
 20
0.0
 30
0.0
  0
POINT
  5
47E
  8
DEFPOINTS
  6
CONTINUOUS
 62
    30
 10
315.0
 20
0.0
 30
0.0
  0
POINT
  5
47F
  8
DEFPOINTS
  6
CONTINUOUS
 62
    30
 10
315.0
 20
302.4
 30
0.0
  0
LINE
  5
480
  8
SIZE
  6
CONTINUOUS
 62
    30
 10
325.0
 20
0.0
 30
0.0
 11
675.1
 21
0.0
 31
0.0
  0
LINE
  5
481
  8
SIZE
  6
CONTINUOUS
 62
    30
 10
325.0
 20
-730.0
 30
0.0
 11
675.1
 21
-730.0
 31
0.0
  0
LINE
  5
482
  8
SIZE
  6
CONTINUOUS
 62
    30
 10
662.6
 20
-10.0
 30
0.0
 11
662.6
 21
-720.0
 31
0.0
  0
CIRCLE
  5
483
  8
SIZE
  6
CONTINUOUS
 62
    30
 10
662.6
 20
0.0
 30
0.0
 40
5.0
  0
LINE
  5
484
  8
SIZE
  6
CONTINUOUS
 62
    30
 10
662.6
 20
0.0
 30
0.0
 11
662.6
 21
-10.0
 31
0.0
  0
CIRCLE
  5
485
  8
SIZE
  6
CONTINUOUS
 62
    30
 10
662.6
 20
-730.0
 30
0.0
 40
5.0
  0
LINE
  5
486
  8
SIZE
  6
CONTINUOUS
 62
    30
 10
662.6
 20
-730.0
 30
0.0
 11
662.6
 21
-720.0
 31
0.0
  0
TEXT
  5
487
  8
SIZE
  6
CONTINUOUS
 62
    30
 10
652.6
 20
-397.300507
 30
0.0
 40
30.0
  1
730
 50
90.0
 72
     1
 11
652.6
 21
-359.800507
 31
0.0
  0
POINT
  5
488
  8
DEFPOINTS
  6
CONTINUOUS
 62
    30
 10
315.0
 20
0.0
 30
0.0
  0
POINT
  5
489
  8
DEFPOINTS
  6
CONTINUOUS
 62
    30
 10
315.0
 20
-730.0
 30
0.0
  0
POINT
  5
48A
  8
DEFPOINTS
  6
CONTINUOUS
 62
    30
 10
662.6
 20
-730.0
 30
0.0
  0
LINE
  5
48B
  8
NOTE
  6
CONTINUOUS
 10
0.0
 20
-666.0
 30
0.0
 11
0.0
 21
-626.0
 31
0.0
  0
LINE
  5
48C
  8
NOTE
  6
CONTINUOUS
 10
20.0
 20
-646.0
 30
0.0
 11
-20.0
 21
-646.0
 31
0.0
  0
LINE
  5
48D
  8
NOTE
  6
CONTINUOUS
 10
315.0
 20
-76.0
 30
0.0
 11
275.0
 21
-76.0
 31
0.0
  0
LINE
  5
48E
  8
NOTE
  6
CONTINUOUS
 10
295.0
 20
-96.0
 30
0.0
 11
295.0
 21
-56.0
 31
0.0
  0
LINE
  5
48F
  8
NOTE
  6
CONTINUOUS
 10
268.0
 20
-112.0
 30
0.0
 11
228.0
 21
-112.0
 31
0.0
  0
LINE
  5
490
  8
NOTE
  6
CONTINUOUS
 10
248.0
 20
-132.0
 30
0.0
 11
248.0
 21
-92.0
 31
0.0
  0
LINE
  5
491
  8
NOTE
  6
CONTINUOUS
 10
221.0
 20
-76.0
 30
0.0
 11
181.0
 21
-76.0
 31
0.0
  0
LINE
  5
492
  8
NOTE
  6
CONTINUOUS
 10
201.0
 20
-96.0
 30
0.0
 11
201.0
 21
-56.0
 31
0.0
  0
LINE
  5
493
  8
NOTE
  6
CONTINUOUS
 10
-181.0
 20
-76.0
 30
0.0
 11
-221.0
 21
-76.0
 31
0.0
  0
LINE
  5
494
  8
NOTE
  6
CONTINUOUS
 10
-201.0
 20
-96.0
 30
0.0
 11
-201.0
 21
-56.0
 31
0.0
  0
LINE
  5
495
  8
NOTE
  6
CONTINUOUS
 10
-275.0
 20
-76.0
 30
0.0
 11
-315.0
 21
-76.0
 31
0.0
  0
LINE
  5
496
  8
NOTE
  6
CONTINUOUS
 10
-295.0
 20
-96.0
 30
0.0
 11
-295.0
 21
-56.0
 31
0.0
  0
LINE
  5
497
  8
NOTE
  6
CONTINUOUS
 10
-228.0
 20
-112.0
 30
0.0
 11
-268.0
 21
-112.0
 31
0.0
  0
LINE
  5
498
  8
NOTE
  6
CONTINUOUS
 10
-248.0
 20
-132.0
 30
0.0
 11
-248.0
 21
-92.0
 31
0.0
  0
LINE
  5
499
  8
NOTE
  6
CONTINUOUS
 10
-160.0
 20
-351.0
 30
0.0
 11
-200.0
 21
-351.0
 31
0.0
  0
LINE
  5
49A
  8
NOTE
  6
CONTINUOUS
 10
-180.0
 20
-371.0
 30
0.0
 11
-180.0
 21
-331.0
 31
0.0
  0
LINE
  5
49B
  8
NOTE
  6
CONTINUOUS
 10
105.0
 20
-665.0
 30
0.0
 11
65.0
 21
-665.0
 31
0.0
  0
LINE
  5
49C
  8
NOTE
  6
CONTINUOUS
 10
85.0
 20
-685.0
 30
0.0
 11
85.0
 21
-645.0
 31
0.0
  0
LINE
  5
49D
  8
NOTE
  6
CONTINUOUS
 10
17.0
 20
-665.0
 30
0.0
 11
-23.0
 21
-665.0
 31
0.0
  0
LINE
  5
49E
  8
NOTE
  6
CONTINUOUS
 10
-3.0
 20
-685.0
 30
0.0
 11
-3.0
 21
-645.0
 31
0.0
  0
LINE
  5
49F
  8
NOTE
  6
CONTINUOUS
 10
-67.0
 20
-665.0
 30
0.0
 11
-107.0
 21
-665.0
 31
0.0
  0
LINE
  5
4A0
  8
NOTE
  6
CONTINUOUS
 10
-87.0
 20
-685.0
 30
0.0
 11
-87.0
 21
-645.0
 31
0.0
  0
LINE
  5
4A1
  8
NOTE
  6
CONTINUOUS
 10
-139.0
 20
-665.0
 30
0.0
 11
-179.0
 21
-665.0
 31
0.0
  0
LINE
  5
4A2
  8
NOTE
  6
CONTINUOUS
 10
-159.0
 20
-685.0
 30
0.0
 11
-159.0
 21
-645.0
 31
0.0
  0
LINE
  5
4A3
  8
NOTE
  6
CONTINUOUS
 10
-214.0
 20
-640.0
 30
0.0
 11
-254.0
 21
-640.0
 31
0.0
  0
LINE
  5
4A4
  8
NOTE
  6
CONTINUOUS
 10
-234.0
 20
-660.0
 30
0.0
 11
-234.0
 21
-620.0
 31
0.0
  0
TEXT
  5
4A5
  8
NOTE
  6
CONTINUOUS
 10
-209.460052
 20
-1535.960083
 30
0.0
 40
40.0
  1
メンテナンススペース
 50
0.000003
 41
0.84375
  7
STANDARD1
  0
TEXT
  5
4A6
  8
NOTE
  6
CONTINUOUS
 10
721.610718
 20
-1220.828369
 30
0.0
 40
40.0
  1
メンテナンススペース
 50
90.000005
 41
0.84375
  7
STANDARD1
  0
LINE
  5
4A7
  8
NOTE
  6
CONTINUOUS
 10
610.662354
 20
-855.25647
 30
0.0
 11
297.912384
 21
-855.25647
 31
0.0
  0
LINE
  5
4A8
  8
NOTE
  6
CONTINUOUS
 10
297.912384
 20
-855.25647
 30
0.0
 11
85.0
 21
-665.0
 31
0.0
  0
LINE
  5
4A9
  8
NOTE
  6
CONTINUOUS
 10
85.0
 20
-665.0
 30
0.0
 11
86.785429
 21
-665.901246
 31
0.0
  0
LINE
  5
4AA
  8
NOTE
  6
CONTINUOUS
 10
85.0
 20
-665.0
 30
0.0
 11
86.095603
 21
-666.673216
 31
0.0
  0
TEXT
  5
4AB
  8
NOTE
  6
CONTINUOUS
 10
358.662384
 20
-854.25647
 30
0.0
 40
40.0
  1
CW φ49×69
 50
0.000003
 41
0.701389
  7
STANDARD1
  0
LINE
  5
4AC
  8
NOTE
  6
CONTINUOUS
 10
-911.612305
 20
-565.497803
 30
0.0
 11
-492.362335
 21
-565.497803
 31
0.0
  0
LINE
  5
4AD
  8
NOTE
  6
CONTINUOUS
 10
-492.362335
 20
-565.497803
 30
0.0
 11
-234.0
 21
-640.0
 31
0.0
  0
LINE
  5
4AE
  8
NOTE
  6
CONTINUOUS
 10
-234.0
 20
-640.0
 30
0.0
 11
-235.999641
 21
-639.962107
 31
0.0
  0
LINE
  5
4AF
  8
NOTE
  6
CONTINUOUS
 10
-234.0
 20
-640.0
 30
0.0
 11
-235.712793
 21
-638.967363
 31
0.0
  0
TEXT
  5
4B0
  8
NOTE
  6
CONTINUOUS
 10
-911.612305
 20
-564.497803
 30
0.0
 40
40.0
  1
WD R3/4(φ27.2)
 50
0.000003
 41
0.650362
  7
STANDARD1
  0
LINE
  5
4B1
  8
NOTE
  6
CONTINUOUS
 10
-696.307251
 20
-956.848877
 30
0.0
 11
-424.057281
 21
-956.848877
 31
0.0
  0
LINE
  5
4B2
  8
NOTE
  6
CONTINUOUS
 10
-424.057281
 20
-956.848877
 30
0.0
 11
-87.0
 21
-665.0
 31
0.0
  0
LINE
  5
4B3
  8
NOTE
  6
CONTINUOUS
 10
-87.0
 20
-665.0
 30
0.0
 11
-88.121613
 21
-666.655894
 31
0.0
  0
LINE
  5
4B4
  8
NOTE
  6
CONTINUOUS
 10
-87.0
 20
-665.0
 30
0.0
 11
-88.799292
 21
-665.87324
 31
0.0
  0
TEXT
  5
4B5
  8
NOTE
  6
CONTINUOUS
 10
-696.307312
 20
-955.848877
 30
0.0
 40
40.0
  1
CL φ32.5
 50
0.000003
 41
0.679487
  7
STANDARD1
  0
LINE
  5
4B6
  8
NOTE
  6
CONTINUOUS
 10
-755.016479
 20
-847.59375
 30
0.0
 11
-442.266479
 21
-847.59375
 31
0.0
  0
LINE
  5
4B7
  8
NOTE
  6
CONTINUOUS
 10
-442.266479
 20
-847.59375
 30
0.0
 11
-159.0
 21
-665.0
 31
0.0
  0
LINE
  5
4B8
  8
NOTE
  6
CONTINUOUS
 10
-159.0
 20
-665.0
 30
0.0
 11
-160.34329
 21
-666.481746
 31
0.0
  0
LINE
  5
4B9
  8
NOTE
  6
CONTINUOUS
 10
-159.0
 20
-665.0
 30
0.0
 11
-160.904196
 21
-665.611585
 31
0.0
  0
TEXT
  5
4BA
  8
NOTE
  6
CONTINUOUS
 10
-755.016479
 20
-846.59375
 30
0.0
 40
40.0
  1
HW φ49×69
 50
0.000003
 41
0.701389
  7
STANDARD1
  0
LINE
  5
4BB
  8
NOTE
  6
CONTINUOUS
 10
606.994019
 20
-957.971252
 30
0.0
 11
294.243988
 21
-957.971252
 31
0.0
  0
LINE
  5
4BC
  8
NOTE
  6
CONTINUOUS
 10
294.243988
 20
-957.971252
 30
0.0
 11
-3.0
 21
-665.0
 31
0.0
  0
LINE
  5
4BD
  8
NOTE
  6
CONTINUOUS
 10
-3.0
 20
-665.0
 30
0.0
 11
-1.260755
 21
-665.987435
 31
0.0
  0
LINE
  5
4BE
  8
NOTE
  6
CONTINUOUS
 10
-3.0
 20
-665.0
 30
0.0
 11
-1.987488
 21
-666.724766
 31
0.0
  0
TEXT
  5
4BF
  8
NOTE
  6
CONTINUOUS
 10
354.993988
 20
-956.971252
 30
0.0
 40
40.0
  1
EL φ49×69
 50
359.999996
 41
0.701389
  7
STANDARD1
  0
LINE
  5
4C0
  8
NOTE
  6
CONTINUOUS
 10
-698.274414
 20
-404.350952
 30
0.0
 11
-499.524414
 21
-404.350952
 31
0.0
  0
LINE
  5
4C1
  8
NOTE
  6
CONTINUOUS
 10
-499.524414
 20
-404.350952
 30
0.0
 11
-180.0
 21
-351.0
 31
0.0
  0
LINE
  5
4C2
  8
NOTE
  6
CONTINUOUS
 10
-180.0
 20
-351.0
 30
0.0
 11
-181.820223
 21
-351.828727
 31
0.0
  0
LINE
  5
4C3
  8
NOTE
  6
CONTINUOUS
 10
-180.0
 20
-351.0
 30
0.0
 11
-181.990723
 21
-350.807587
 31
0.0
  0
TEXT
  5
4C4
  8
NOTE
  6
CONTINUOUS
 10
-698.274414
 20
-403.350952
 30
0.0
 40
40.0
  1
D φ18
 50
0.000003
 41
0.721354
  7
STANDARD1
  0
TEXT
  5
4C5
  8
NOTE
  6
CONTINUOUS
 10
-882.695862
 20
-175.164307
 30
0.0
 40
40.0
  1
（脚固定金具使用時のみ）
 50
0.000003
 41
0.84375
  7
STANDARD1
  0
LINE
  5
4C6
  8
NOTE
  6
CONTINUOUS
 10
669.81543
 20
126.597832
 30
0.0
 11
413.565399
 21
126.597832
 31
0.0
  0
LINE
  5
4C7
  8
NOTE
  6
CONTINUOUS
 10
413.565399
 20
126.597832
 30
0.0
 11
248.0
 21
-112.0
 31
0.0
  0
LINE
  5
4C8
  8
NOTE
  6
CONTINUOUS
 10
248.0
 20
-112.0
 30
0.0
 11
248.676069
 21
-110.117732
 31
0.0
  0
LINE
  5
4C9
  8
NOTE
  6
CONTINUOUS
 10
248.0
 20
-112.0
 30
0.0
 11
249.526627
 21
-110.707943
 31
0.0
  0
TEXT
  5
4CA
  8
NOTE
  6
CONTINUOUS
 10
474.315399
 20
127.597832
 30
0.0
 40
40.0
  1
AH 3-M12
 50
0.000003
 41
0.644737
  7
STANDARD1
  0
LINE
  5
4CB
  8
NOTE
  6
CONTINUOUS
 10
-655.047974
 20
10.276211
 30
0.0
 11
-392.297974
 21
10.276211
 31
0.0
  0
LINE
  5
4CC
  8
NOTE
  6
CONTINUOUS
 10
-392.297974
 20
10.276211
 30
0.0
 11
-268.0
 21
-56.0
 31
0.0
  0
LINE
  5
4CD
  8
NOTE
  6
CONTINUOUS
 10
-268.0
 20
-56.0
 30
0.0
 11
-269.948215
 21
-55.547829
 31
0.0
  0
LINE
  5
4CE
  8
NOTE
  6
CONTINUOUS
 10
-268.0
 20
-56.0
 30
0.0
 11
-269.461118
 21
-54.634301
 31
0.0
  0
TEXT
  5
4CF
  8
NOTE
  6
CONTINUOUS
 10
-655.047974
 20
11.276202
 30
0.0
 40
40.0
  1
脚固定金具
 50
0.000003
 41
0.84375
  7
STANDARD1
  0
LINE
  5
4D0
  8
NOTE
  6
CONTINUOUS
 10
-673.561768
 20
-123.053909
 30
0.0
 11
-417.311768
 21
-123.053909
 31
0.0
  0
LINE
  5
4D1
  8
NOTE
  6
CONTINUOUS
 10
-417.311768
 20
-123.053909
 30
0.0
 11
-295.0
 21
-76.0
 31
0.0
  0
LINE
  5
4D2
  8
NOTE
  6
CONTINUOUS
 10
-295.0
 20
-76.0
 30
0.0
 11
-296.617172
 21
-77.176755
 31
0.0
  0
LINE
  5
4D3
  8
NOTE
  6
CONTINUOUS
 10
-295.0
 20
-76.0
 30
0.0
 11
-296.98889
 21
-76.210514
 31
0.0
  0
TEXT
  5
4D4
  8
NOTE
  6
CONTINUOUS
 10
-673.561768
 20
-122.053894
 30
0.0
 40
40.0
  1
AH 4-M12
 50
359.999996
 41
0.644737
  7
STANDARD1
  0
CIRCLE
  5
4D5
  8
ARRANGE
  6
CONTINUOUS
 10
0.0
 20
0.0
 30
0.0
 40
15.0
  0
CIRCLE
  5
4D6
  8
FIX
  6
CONTINUOUS
 10
0.0
 20
-646.0
 30
0.0
 40
6.0
  0
CIRCLE
  5
4D7
  8
FIX
  6
CONTINUOUS
 10
201.0
 20
-76.0
 30
0.0
 40
6.0
  0
CIRCLE
  5
4D8
  8
FIX
  6
CONTINUOUS
 10
248.0
 20
-112.0
 30
0.0
 40
6.0
  0
CIRCLE
  5
4D9
  8
FIX
  6
CONTINUOUS
 10
295.0
 20
-76.0
 30
0.0
 40
6.0
  0
CIRCLE
  5
4DA
  8
FIX
  6
CONTINUOUS
 10
-248.0
 20
-112.0
 30
0.0
 40
6.0
  0
CIRCLE
  5
4DB
  8
FIX
  6
CONTINUOUS
 10
-201.0
 20
-76.0
 30
0.0
 40
6.0
  0
CIRCLE
  5
4DC
  8
FIX
  6
CONTINUOUS
 10
-295.0
 20
-76.0
 30
0.0
 40
6.0
  0
LINE
  5
4DD
  8
SERVICESPACE
  6
DASHDOT
 10
315.0
 20
-730.0
 30
0.0
 11
-315.0
 21
-1330.0
 31
0.0
  0
LINE
  5
4DE
  8
SERVICESPACE
  6
DASHDOT
 10
-315.0
 20
-730.0
 30
0.0
 11
315.0
 21
-1330.0
 31
0.0
  0
LINE
  5
4DF
  8
SERVICESPACE
  6
DASHDOT
 10
-315.0
 20
-730.0
 30
0.0
 11
315.0
 21
-730.0
 31
0.0
  0
LINE
  5
4E0
  8
SERVICESPACE
  6
DASHDOT
 10
315.0
 20
-1330.0
 30
0.0
 11
315.0
 21
-730.0
 31
0.0
  0
LINE
  5
4E1
  8
SERVICESPACE
  6
DASHDOT
 10
-315.0
 20
-1330.0
 30
0.0
 11
-315.0
 21
-730.0
 31
0.0
  0
LINE
  5
4E2
  8
SERVICESPACE
  6
DASHDOT
 10
-315.0
 20
-1330.0
 30
0.0
 11
315.0
 21
-1330.0
 31
0.0
  0
TEXT
  5
4E3
  8
ETC
  6
CONTINUOUS
 10
551.738892
 20
321.453674
 30
0.0
 40
40.0
  1
TG37666
 50
0.000003
 41
0.6125
  7
STANDARD1
  0
TEXT
  5
4E4
  8
ETC
  6
CONTINUOUS
 10
551.738892
 20
251.45369
 30
0.0
 40
40.0
  1
電気温水器
 50
0.000003
 41
0.84375
  7
STANDARD1
  0
ENDSEC
  0
EOF
