  0
SECTION
  2
HEADER
  9
$ACADVER
  1
AC1009
  9
$INSBASE
 10
0.0
 20
0.0
 30
0.0
  9
$EXTMIN
 10
-788.046937
 20
-1292.333331
 30
0.0
  9
$EXTMAX
 10
794.634276
 20
522.4
 30
0.0
  9
$LIMMIN
 10
0.0
 20
0.0
  9
$LIMMAX
 10
12.0
 20
9.0
  9
$ORTHOMODE
 70
     0
  9
$REGENMODE
 70
     1
  9
$FILLMODE
 70
     1
  9
$QTEXTMODE
 70
     0
  9
$MIRRTEXT
 70
     1
  9
$DRAGMODE
 70
     2
  9
$LTSCALE
 40
1.0
  9
$OSMODE
 70
     0
  9
$ATTMODE
 70
     1
  9
$TEXTSIZE
 40
40.0
  9
$TRACEWID
 40
0.05
  9
$TEXTSTYLE
  7
STANDARD1
  9
$CLAYER
  8
0
  9
$CELTYPE
  6
CONTINUOUS
  9
$CECOLOR
 62
   256
  9
$DIMSCALE
 40
1.0
  9
$DIMASZ
 40
10.0
  9
$DIMEXO
 40
10.0
  9
$DIMDLI
 40
8.0
  9
$DIMRND
 40
0.0
  9
$DIMDLE
 40
0.0
  9
$DIMEXE
 40
12.5
  9
$DIMTP
 40
0.0
  9
$DIMTM
 40
0.0
  9
$DIMTXT
 40
30.0
  9
$DIMCEN
 40
2.5
  9
$DIMTSZ
 40
0.0
  9
$DIMTOL
 70
     0
  9
$DIMLIM
 70
     0
  9
$DIMTIH
 70
     0
  9
$DIMTOH
 70
     0
  9
$DIMSE1
 70
     0
  9
$DIMSE2
 70
     0
  9
$DIMTAD
 70
     3
  9
$DIMZIN
 70
    12
  9
$DIMBLK
  1

  9
$DIMASO
 70
     1
  9
$DIMSHO
 70
     1
  9
$DIMPOST
  1

  9
$DIMAPOST
  1

  9
$DIMALT
 70
     0
  9
$DIMALTD
 70
     4
  9
$DIMALTF
 40
25.4
  9
$DIMLFAC
 40
1.0
  9
$DIMTOFL
 70
     1
  9
$DIMTVP
 40
0.0
  9
$DIMTIX
 70
     0
  9
$DIMSOXD
 70
     0
  9
$DIMSAH
 70
     1
  9
$DIMBLK1
  1
_ORIGIN
  9
$DIMBLK2
  1
_ORIGIN
  9
$DIMSTYLE
  2
STANDARD
  9
$DIMCLRD
 70
     0
  9
$DIMCLRE
 70
     0
  9
$DIMCLRT
 70
     0
  9
$DIMTFAC
 40
1.0
  9
$DIMGAP
 40
0.09
  9
$LUNITS
 70
     2
  9
$LUPREC
 70
     3
  9
$SKETCHINC
 40
0.1
  9
$FILLETRAD
 40
0.0
  9
$AUNITS
 70
     0
  9
$AUPREC
 70
     0
  9
$MENU
  1
acad
  9
$ELEVATION
 40
0.0
  9
$PELEVATION
 40
0.0
  9
$THICKNESS
 40
0.0
  9
$LIMCHECK
 70
     0
  9
$BLIPMODE
 70
     0
  9
$CHAMFERA
 40
0.0
  9
$CHAMFERB
 40
0.0
  9
$SKPOLY
 70
     0
  9
$TDCREATE
 40
2451878.91941
  9
$TDUPDATE
 40
2451878.91941
  9
$TDINDWG
 40
0.0
  9
$TDUSRTIMER
 40
0.0
  9
$USRTIMER
 70
     1
  9
$ANGBASE
 50
0.0
  9
$ANGDIR
 70
     0
  9
$PDMODE
 70
     0
  9
$PDSIZE
 40
0.0
  9
$PLINEWID
 40
0.0
  9
$COORDS
 70
     1
  9
$SPLFRAME
 70
     0
  9
$SPLINETYPE
 70
     6
  9
$SPLINESEGS
 70
     8
  9
$ATTDIA
 70
     0
  9
$ATTREQ
 70
     1
  9
$HANDLING
 70
     1
  9
$HANDSEED
  5
1F0
  9
$SURFTAB1
 70
     6
  9
$SURFTAB2
 70
     6
  9
$SURFTYPE
 70
     6
  9
$SURFU
 70
     6
  9
$SURFV
 70
     6
  9
$UCSNAME
  2

  9
$UCSORG
 10
0.0
 20
0.0
 30
0.0
  9
$UCSXDIR
 10
1.0
 20
0.0
 30
0.0
  9
$UCSYDIR
 10
0.0
 20
1.0
 30
0.0
  9
$PUCSNAME
  2

  9
$PUCSORG
 10
0.0
 20
0.0
 30
0.0
  9
$PUCSXDIR
 10
1.0
 20
0.0
 30
0.0
  9
$PUCSYDIR
 10
0.0
 20
1.0
 30
0.0
  9
$USERI1
 70
     0
  9
$USERI2
 70
     0
  9
$USERI3
 70
     0
  9
$USERI4
 70
     0
  9
$USERI5
 70
     0
  9
$USERR1
 40
0.0
  9
$USERR2
 40
0.0
  9
$USERR3
 40
0.0
  9
$USERR4
 40
0.0
  9
$USERR5
 40
0.0
  9
$WORLDVIEW
 70
     1
  9
$SHADEDGE
 70
     3
  9
$SHADEDIF
 70
    70
  9
$TILEMODE
 70
     1
  9
$MAXACTVP
 70
    48
  9
$PLIMCHECK
 70
     0
  9
$PEXTMIN
 10
1.000000E+020
 20
1.000000E+020
 30
1.000000E+020
  9
$PEXTMAX
 10
-1.000000E+020
 20
-1.000000E+020
 30
-1.000000E+020
  9
$PLIMMIN
 10
0.0
 20
0.0
  9
$PLIMMAX
 10
12.0
 20
9.0
  9
$UNITMODE
 70
     0
  9
$VISRETAIN
 70
     1
  9
$PLINEGEN
 70
     0
  9
$PSLTSCALE
 70
     1
  0
ENDSEC
  0
SECTION
  2
TABLES
  0
TABLE
  2
VPORT
 70
     2
  0
VPORT
  2
*ACTIVE
 70
     0
 10
0.0
 20
0.0
 11
1.0
 21
1.0
 12
3.29367
 22
-384.966665
 13
0.0
 23
0.0
 14
1.0
 24
1.0
 15
0.0
 25
0.0
 16
0.0
 26
0.0
 36
1.0
 17
0.0
 27
0.0
 37
0.0
 40
1849.409764
 41
2.827476
 42
50.0
 43
0.0
 44
0.0
 50
0.0
 51
0.0
 71
     0
 72
   100
 73
     1
 74
     1
 75
     0
 76
     0
 77
     0
 78
     0
  0
ENDTAB
  0
TABLE
  2
LTYPE
 70
     4
  0
LTYPE
  2
CONTINUOUS
 70
     0
  3
Solid line
 72
    65
 73
     0
 40
0.0
  0
LTYPE
  2
DASHED
 70
     0
  3
-- -- -- -- -- -- -- -- -- -- -- -- -- -- --
 72
    65
 73
     2
 40
0.75
 49
0.5
 49
-0.25
  0
LTYPE
  2
DASHDOT
 70
     0
  3
__ . __ . __ . __ . __ . __ . __ . __ . __ . __
 72
    65
 73
     4
 40
125.0
 49
80.0
 49
-20.0
 49
5.0
 49
-20.0
  0
LTYPE
  2
DIVIDE
 70
     0
  3
__ . . __ . . __ . . __ . . __ . . __ . . __
 72
    65
 73
     6
 40
1.25
 49
0.5
 49
-0.25
 49
0.0
 49
-0.25
 49
0.0
 49
-0.25
  0
ENDTAB
  0
TABLE
  2
LAYER
 70
    12
  0
LAYER
  2
0
 70
     0
 62
     3
  6
CONTINUOUS
  0
LAYER
  2
OUTLINE
 70
     0
 62
     3
  6
CONTINUOUS
  0
LAYER
  2
DETAIL
 70
     0
 62
     5
  6
CONTINUOUS
  0
LAYER
  2
BASIS
 70
     0
 62
     6
  6
CONTINUOUS
  0
LAYER
  2
SIZE
 70
     0
 62
    30
  6
CONTINUOUS
  0
LAYER
  2
NOTE
 70
     0
 62
     4
  6
CONTINUOUS
  0
LAYER
  2
ARRANGE
 70
     0
 62
     1
  6
CONTINUOUS
  0
LAYER
  2
FIX
 70
     0
 62
    11
  6
CONTINUOUS
  0
LAYER
  2
SERVICESPACE
 70
     0
 62
     2
  6
CONTINUOUS
  0
LAYER
  2
ETC
 70
     0
 62
    61
  6
CONTINUOUS
  0
LAYER
  2
SYMBOLLINE
 70
     0
 62
     7
  6
CONTINUOUS
  0
LAYER
  2
DEFPOINTS
 70
     0
 62
     7
  6
CONTINUOUS
  0
ENDTAB
  0
TABLE
  2
STYLE
 70
     5
  0
STYLE
  2
STANDARD
 70
     0
 40
0.0
 41
1.0
 50
0.0
 71
     0
 42
0.2
  3
txt
  4

  0
STYLE
  2
STANDARD1
 70
     0
 40
0.0
 41
1.0
 50
0.0
 71
     0
 42
40.0
  3
MONOTXT
  4
BIGFONT
  0
STYLE
  2
STANDARD2
 70
     4
 40
0.0
 41
1.0
 50
0.0
 71
     0
 42
40.0
  3
MONOTXT
  4
BIGFONT
  0
STYLE
  2
STANDARD3
 70
     0
 40
0.0
 41
1.0
 50
0.0
 71
     0
 42
40.0
  3
MONOTXT
  4

  0
STYLE
  2
STANDARD4
 70
     4
 40
0.0
 41
1.0
 50
0.0
 71
     0
 42
40.0
  3
MONOTXT
  4

  0
ENDTAB
  0
TABLE
  2
VIEW
 70
     0
  0
ENDTAB
  0
TABLE
  2
UCS
 70
     0
  0
ENDTAB
  0
TABLE
  2
APPID
 70
     1
  0
APPID
  2
ACAD
 70
     0
  0
ENDTAB
  0
TABLE
  2
DIMSTYLE
 70
     1
  0
DIMSTYLE
  2
STANDARD
 70
     0
  3

  4

  5

  6

  7

 40
1.0
 41
0.18
 42
0.0625
 43
0.38
 44
0.18
 45
0.0
 46
0.0
 47
0.0
 48
0.0
140
0.18
141
0.09
142
0.0
143
25.4
144
1.0
145
0.0
146
1.0
147
0.09
 71
     0
 72
     0
 73
     1
 74
     1
 75
     0
 76
     0
 77
     0
 78
     0
170
     0
171
     2
172
     0
173
     0
174
     0
175
     0
176
     0
177
     0
178
     0
  0
ENDTAB
  0
ENDSEC
  0
SECTION
  2
BLOCKS
  0
BLOCK
  8
0
  2
$MODEL_SPACE
 70
     0
 10
0.0
 20
0.0
 30
0.0
  3
$MODEL_SPACE
  1

  0
ENDBLK
  5
1A
  8
0
  0
BLOCK
 67
     1
  8
0
  2
$PAPER_SPACE
 70
     0
 10
0.0
 20
0.0
 30
0.0
  3
$PAPER_SPACE
  1

  0
ENDBLK
  5
17
 67
     1
  8
0
  0
BLOCK
  8
SIZE
  2
*D0
 70
     1
 10
0.0
 20
0.0
 30
0.0
  3
*D0
  1

  0
TEXT
  5
35
  8
SIZE
  6
CONTINUOUS
 10
-2.94
 20
-1248.999976
 30
0.0
 40
2.8
  1
970
 50
0.000003
 41
0.7
  7
STANDARD1
  0
LINE
  5
36
  8
SIZE
  6
CONTINUOUS
 10
-485.0
 20
-1101.0
 30
0.0
 11
-485.0
 21
-1252.0
 31
0.0
  0
LINE
  5
37
  8
SIZE
  6
CONTINUOUS
 10
485.0
 20
-1101.0
 30
0.0
 11
485.0
 21
-1252.0
 31
0.0
  0
LINE
  5
38
  8
SIZE
  6
CONTINUOUS
 10
-485.0
 20
-1250.0
 30
0.0
 11
485.0
 21
-1250.0
 31
0.0
  0
INSERT
  5
3A
  8
SIZE
  2
DOT
 10
-485.0
 20
-1250.0
 30
0.0
 50
180.0
  0
INSERT
  5
3B
  8
SIZE
  2
DOT
 10
485.0
 20
-1250.0
 30
0.0
  0
POINT
  5
3C
  8
DEFPOINTS
  6
BYBLOCK
 10
485.0
 20
-1100.0
 30
0.0
  0
POINT
  5
3D
  8
DEFPOINTS
  6
BYBLOCK
 10
-485.0
 20
-1100.0
 30
0.0
  0
POINT
  5
3E
  8
DEFPOINTS
  6
BYBLOCK
 10
-485.0
 20
-1250.0
 30
0.0
  0
ENDBLK
  5
3F
  8
SIZE
  0
BLOCK
  8
SIZE
  2
DOT
 70
     0
 10
0.0
 20
0.0
 30
0.0
  3
DOT
  1

  0
POLYLINE
  5
41
  8
0
  6
BYBLOCK
 66
     1
 10
0.0
 20
0.0
 30
0.0
 70
     1
 40
0.5
 41
0.5
  0
VERTEX
  5
42
  8
0
  6
BYBLOCK
 10
-0.25
 20
0.0
 30
0.0
 42
1.0
  0
VERTEX
  5
43
  8
0
  6
BYBLOCK
 10
0.25
 20
0.0
 30
0.0
 42
1.0
  0
SEQEND
  5
44
  8
0
  6
BYBLOCK
  0
LINE
  5
45
  8
0
  6
BYBLOCK
 10
-0.5
 20
0.0
 30
0.0
 11
-1.0
 21
0.0
 31
0.0
  0
ENDBLK
  5
46
  8
SIZE
  0
BLOCK
  8
SIZE
  2
*D2
 70
     1
 10
0.0
 20
0.0
 30
0.0
  3
*D2
  1

  0
TEXT
  5
49
  8
SIZE
  6
CONTINUOUS
 10
633.999976
 20
-252.940002
 30
0.0
 40
2.8
  1
500
 50
90.000005
 41
0.7
  7
STANDARD1
  0
LINE
  5
4A
  8
SIZE
  6
CONTINUOUS
 10
486.0
 20
0.0
 30
0.0
 11
637.0
 21
0.0
 31
0.0
  0
LINE
  5
4B
  8
SIZE
  6
CONTINUOUS
 10
486.0
 20
-500.0
 30
0.0
 11
637.0
 21
-500.0
 31
0.0
  0
LINE
  5
4C
  8
SIZE
  6
CONTINUOUS
 10
635.0
 20
0.0
 30
0.0
 11
635.0
 21
-500.0
 31
0.0
  0
INSERT
  5
4D
  8
SIZE
  2
DOT
 10
635.0
 20
0.0
 30
0.0
 50
90.0
  0
INSERT
  5
4E
  8
SIZE
  2
DOT
 10
635.0
 20
-500.0
 30
0.0
 50
270.0
  0
POINT
  5
4F
  8
DEFPOINTS
  6
BYBLOCK
 10
485.0
 20
-500.0
 30
0.0
  0
POINT
  5
50
  8
DEFPOINTS
  6
BYBLOCK
 10
485.0
 20
0.0
 30
0.0
  0
POINT
  5
51
  8
DEFPOINTS
  6
BYBLOCK
 10
635.0
 20
0.0
 30
0.0
  0
ENDBLK
  5
52
  8
SIZE
  0
BLOCK
  8
SIZE
  2
*D3
 70
     1
 10
0.0
 20
0.0
 30
0.0
  3
*D3
  1

  0
TEXT
  5
55
  8
SIZE
  6
CONTINUOUS
 10
633.999976
 20
-802.940002
 30
0.0
 40
2.8
  1
600
 50
90.000005
 41
0.7
  7
STANDARD1
  0
LINE
  5
56
  8
SIZE
  6
CONTINUOUS
 10
486.0
 20
-500.0
 30
0.0
 11
637.0
 21
-500.0
 31
0.0
  0
LINE
  5
57
  8
SIZE
  6
CONTINUOUS
 10
486.0
 20
-1100.0
 30
0.0
 11
637.0
 21
-1100.0
 31
0.0
  0
LINE
  5
58
  8
SIZE
  6
CONTINUOUS
 10
635.0
 20
-500.0
 30
0.0
 11
635.0
 21
-1100.0
 31
0.0
  0
INSERT
  5
59
  8
SIZE
  2
DOT
 10
635.0
 20
-500.0
 30
0.0
 50
90.0
  0
INSERT
  5
5A
  8
SIZE
  2
DOT
 10
635.0
 20
-1100.0
 30
0.0
 50
270.0
  0
POINT
  5
5B
  8
DEFPOINTS
  6
BYBLOCK
 10
485.0
 20
-1100.0
 30
0.0
  0
POINT
  5
5C
  8
DEFPOINTS
  6
BYBLOCK
 10
485.0
 20
-500.0
 30
0.0
  0
POINT
  5
5D
  8
DEFPOINTS
  6
BYBLOCK
 10
635.0
 20
-500.0
 30
0.0
  0
ENDBLK
  5
5E
  8
SIZE
  0
BLOCK
  8
SIZE
  2
*D4
 70
     1
 10
0.0
 20
0.0
 30
0.0
  3
*D4
  1

  0
TEXT
  5
61
  8
SIZE
  6
CONTINUOUS
 10
-2.94
 20
480.999994
 30
0.0
 40
2.8
  1
970
 50
0.000003
 41
0.7
  7
STANDARD1
  0
LINE
  5
62
  8
SIZE
  6
CONTINUOUS
 10
485.0
 20
1.0
 30
0.0
 11
485.0
 21
482.0
 31
0.0
  0
LINE
  5
63
  8
SIZE
  6
CONTINUOUS
 10
-485.0
 20
1.0
 30
0.0
 11
-485.0
 21
482.0
 31
0.0
  0
LINE
  5
64
  8
SIZE
  6
CONTINUOUS
 10
485.0
 20
480.0
 30
0.0
 11
-485.0
 21
480.0
 31
0.0
  0
INSERT
  5
65
  8
SIZE
  2
DOT
 10
485.0
 20
480.0
 30
0.0
  0
INSERT
  5
66
  8
SIZE
  2
DOT
 10
-485.0
 20
480.0
 30
0.0
 50
180.0
  0
POINT
  5
67
  8
DEFPOINTS
  6
BYBLOCK
 10
-485.0
 20
0.0
 30
0.0
  0
POINT
  5
68
  8
DEFPOINTS
  6
BYBLOCK
 10
485.0
 20
0.0
 30
0.0
  0
POINT
  5
69
  8
DEFPOINTS
  6
BYBLOCK
 10
485.0
 20
480.0
 30
0.0
  0
ENDBLK
  5
6A
  8
SIZE
  0
BLOCK
  8
SIZE
  2
*D5
 70
     1
 10
0.0
 20
0.0
 30
0.0
  3
*D5
  1

  0
TEXT
  5
6D
  8
SIZE
  6
CONTINUOUS
 10
633.999976
 20
36.080002
 30
0.0
 40
2.8
  1
最大
 50
90.000005
 41
0.583333
  7
STANDARD1
  0
TEXT
  5
6E
  8
SIZE
  6
CONTINUOUS
 10
633.999976
 20
40.0
 30
0.0
 40
2.8
  1
80
 50
90.000005
 41
0.7
  7
STANDARD1
  0
LINE
  5
6F
  8
SIZE
  6
CONTINUOUS
 10
376.0
 20
80.0
 30
0.0
 11
637.0
 21
80.0
 31
0.0
  0
LINE
  5
70
  8
SIZE
  6
CONTINUOUS
 10
486.0
 20
0.0
 30
0.0
 11
637.0
 21
0.0
 31
0.0
  0
LINE
  5
71
  8
SIZE
  6
CONTINUOUS
 10
635.0
 20
80.0
 30
0.0
 11
635.0
 21
0.0
 31
0.0
  0
INSERT
  5
72
  8
SIZE
  2
DOT
 10
635.0
 20
80.0
 30
0.0
 50
90.0
  0
INSERT
  5
73
  8
SIZE
  2
DOT
 10
635.0
 20
0.0
 30
0.0
 50
270.0
  0
POINT
  5
74
  8
DEFPOINTS
  6
BYBLOCK
 10
485.0
 20
0.0
 30
0.0
  0
POINT
  5
75
  8
DEFPOINTS
  6
BYBLOCK
 10
375.0
 20
80.0
 30
0.0
  0
POINT
  5
76
  8
DEFPOINTS
  6
BYBLOCK
 10
635.0
 20
80.0
 30
0.0
  0
ENDBLK
  5
77
  8
SIZE
  0
BLOCK
  8
SIZE
  2
*D6
 70
     1
 10
0.0
 20
0.0
 30
0.0
  3
*D6
  1

  0
TEXT
  5
7A
  8
SIZE
  6
CONTINUOUS
 10
-2.94
 20
180.999994
 30
0.0
 40
2.8
  1
450
 50
0.000003
 41
0.7
  7
STANDARD1
  0
LINE
  5
7B
  8
SIZE
  6
CONTINUOUS
 10
225.0
 20
-141.888672
 30
0.0
 11
225.0
 21
182.0
 31
0.0
  0
LINE
  5
7C
  8
SIZE
  6
CONTINUOUS
 10
-225.0
 20
-141.888672
 30
0.0
 11
-225.0
 21
182.0
 31
0.0
  0
LINE
  5
7D
  8
SIZE
  6
CONTINUOUS
 10
225.0
 20
180.0
 30
0.0
 11
-225.0
 21
180.0
 31
0.0
  0
INSERT
  5
7E
  8
SIZE
  2
DOT
 10
225.0
 20
180.0
 30
0.0
  0
INSERT
  5
7F
  8
SIZE
  2
DOT
 10
-225.0
 20
180.0
 30
0.0
 50
180.0
  0
POINT
  5
80
  8
DEFPOINTS
  6
BYBLOCK
 10
-225.0
 20
-142.888672
 30
0.0
  0
POINT
  5
81
  8
DEFPOINTS
  6
BYBLOCK
 10
225.0
 20
-142.888672
 30
0.0
  0
POINT
  5
82
  8
DEFPOINTS
  6
BYBLOCK
 10
225.0
 20
180.0
 30
0.0
  0
ENDBLK
  5
83
  8
SIZE
  0
BLOCK
  8
SIZE
  2
*D7
 70
     1
 10
0.0
 20
0.0
 30
0.0
  3
*D7
  1

  0
TEXT
  5
86
  8
SIZE
  6
CONTINUOUS
 10
-1.815277
 20
280.999994
 30
0.0
 40
2.8
  1
660
 50
0.000003
 41
0.7
  7
STANDARD1
  0
LINE
  5
87
  8
SIZE
  6
CONTINUOUS
 10
330.0
 20
56.19873
 30
0.0
 11
330.0
 21
282.0
 31
0.0
  0
LINE
  5
88
  8
SIZE
  6
CONTINUOUS
 10
-330.0
 20
56.19873
 30
0.0
 11
-330.0
 21
282.0
 31
0.0
  0
LINE
  5
89
  8
SIZE
  6
CONTINUOUS
 10
330.0
 20
280.0
 30
0.0
 11
-330.0
 21
280.0
 31
0.0
  0
INSERT
  5
8A
  8
SIZE
  2
DOT
 10
330.0
 20
280.0
 30
0.0
  0
INSERT
  5
8B
  8
SIZE
  2
DOT
 10
-330.0
 20
280.0
 30
0.0
 50
180.0
  0
POINT
  5
8C
  8
DEFPOINTS
  6
BYBLOCK
 10
-330.0
 20
55.19873
 30
0.0
  0
POINT
  5
8D
  8
DEFPOINTS
  6
BYBLOCK
 10
330.0
 20
55.19873
 30
0.0
  0
POINT
  5
8E
  8
DEFPOINTS
  6
BYBLOCK
 10
330.0
 20
280.0
 30
0.0
  0
ENDBLK
  5
8F
  8
SIZE
  0
BLOCK
  8
SIZE
  2
*D8
 70
     1
 10
0.0
 20
0.0
 30
0.0
  3
*D8
  1

  0
TEXT
  5
92
  8
SIZE
  6
CONTINUOUS
 10
329.284332
 20
380.999994
 30
0.0
 40
2.8
  1
90
 50
0.000003
 41
0.7
  7
STANDARD1
  0
LINE
  5
93
  8
SIZE
  6
CONTINUOUS
 10
375.0
 20
81.0
 30
0.0
 11
375.0
 21
382.0
 31
0.0
  0
LINE
  5
94
  8
SIZE
  6
CONTINUOUS
 10
285.0
 20
81.0
 30
0.0
 11
285.0
 21
382.0
 31
0.0
  0
LINE
  5
95
  8
SIZE
  6
CONTINUOUS
 10
375.0
 20
380.0
 30
0.0
 11
285.0
 21
380.0
 31
0.0
  0
INSERT
  5
96
  8
SIZE
  2
DOT
 10
375.0
 20
380.0
 30
0.0
  0
INSERT
  5
97
  8
SIZE
  2
DOT
 10
285.0
 20
380.0
 30
0.0
 50
180.0
  0
POINT
  5
98
  8
DEFPOINTS
  6
BYBLOCK
 10
285.0
 20
80.0
 30
0.0
  0
POINT
  5
99
  8
DEFPOINTS
  6
BYBLOCK
 10
375.0
 20
80.0
 30
0.0
  0
POINT
  5
9A
  8
DEFPOINTS
  6
BYBLOCK
 10
375.0
 20
380.0
 30
0.0
  0
ENDBLK
  5
9B
  8
SIZE
  0
BLOCK
  8
SIZE
  2
*D9
 70
     1
 10
0.0
 20
0.0
 30
0.0
  3
*D9
  1

  0
TEXT
  5
9E
  8
SIZE
  6
CONTINUOUS
 10
-314.320007
 20
380.999994
 30
0.0
 40
2.8
  1
90
 50
0.000003
 41
0.7
  7
STANDARD1
  0
LINE
  5
9F
  8
SIZE
  6
CONTINUOUS
 10
-375.0
 20
81.0
 30
0.0
 11
-375.0
 21
382.0
 31
0.0
  0
LINE
  5
A0
  8
SIZE
  6
CONTINUOUS
 10
-285.0
 20
81.0
 30
0.0
 11
-285.0
 21
382.0
 31
0.0
  0
LINE
  5
A1
  8
SIZE
  6
CONTINUOUS
 10
-375.0
 20
380.0
 30
0.0
 11
-285.0
 21
380.0
 31
0.0
  0
INSERT
  5
A2
  8
SIZE
  2
DOT
 10
-375.0
 20
380.0
 30
0.0
 50
180.0
  0
INSERT
  5
A3
  8
SIZE
  2
DOT
 10
-285.0
 20
380.0
 30
0.0
  0
POINT
  5
A4
  8
DEFPOINTS
  6
BYBLOCK
 10
-285.0
 20
80.0
 30
0.0
  0
POINT
  5
A5
  8
DEFPOINTS
  6
BYBLOCK
 10
-375.0
 20
80.0
 30
0.0
  0
POINT
  5
A6
  8
DEFPOINTS
  6
BYBLOCK
 10
-375.0
 20
380.0
 30
0.0
  0
ENDBLK
  5
A7
  8
SIZE
  0
BLOCK
  8
SIZE
  2
*D10
 70
     1
 10
0.0
 20
0.0
 30
0.0
  3
*D10
  1

  0
TEXT
  5
AA
  8
SIZE
  6
CONTINUOUS
 10
-586.000024
 20
-87.940002
 30
0.0
 40
2.8
  1
170
 50
90.000005
 41
0.7
  7
STANDARD1
  0
LINE
  5
AB
  8
SIZE
  6
CONTINUOUS
 10
-306.0
 20
-170.0
 30
0.0
 11
-587.0
 21
-170.0
 31
0.0
  0
LINE
  5
AC
  8
SIZE
  6
CONTINUOUS
 10
-486.0
 20
0.0
 30
0.0
 11
-587.0
 21
0.0
 31
0.0
  0
LINE
  5
AD
  8
SIZE
  6
CONTINUOUS
 10
-585.0
 20
-170.0
 30
0.0
 11
-585.0
 21
0.0
 31
0.0
  0
INSERT
  5
AE
  8
SIZE
  2
DOT
 10
-585.0
 20
-170.0
 30
0.0
 50
270.0
  0
INSERT
  5
AF
  8
SIZE
  2
DOT
 10
-585.0
 20
0.0
 30
0.0
 50
90.0
  0
POINT
  5
B0
  8
DEFPOINTS
  6
BYBLOCK
 10
-485.0
 20
0.0
 30
0.0
  0
POINT
  5
B1
  8
DEFPOINTS
  6
BYBLOCK
 10
-305.0
 20
-170.0
 30
0.0
  0
POINT
  5
B2
  8
DEFPOINTS
  6
BYBLOCK
 10
-585.0
 20
-170.0
 30
0.0
  0
ENDBLK
  5
B3
  8
SIZE
  0
BLOCK
  8
0
  2
_ORIGIN
 70
     0
 10
0.0
 20
0.0
 30
0.0
  3
_ORIGIN
  1

  0
CIRCLE
  5
B6
  8
0
  6
BYBLOCK
 62
     0
 10
0.0
 20
0.0
 30
0.0
 40
0.5
  0
LINE
  5
B7
  8
0
  6
BYBLOCK
 62
     0
 10
0.0
 20
0.0
 30
0.0
 11
-1.0
 21
0.0
 31
0.0
  0
ENDBLK
  5
B8
  8
0
  0
BLOCK
  8
0
  2
*D12
 70
     1
 10
0.0
 20
0.0
 30
0.0
  3
*D12
  1

  0
LINE
  5
BB
  8
0
  6
BYBLOCK
 62
     0
 10
-495.0
 20
0.0
 30
0.0
 11
-599.9
 21
0.0
 31
0.0
  0
LINE
  5
BC
  8
0
  6
BYBLOCK
 62
     0
 10
-315.0
 20
-170.0
 30
0.0
 11
-599.9
 21
-170.0
 31
0.0
  0
LINE
  5
BD
  8
0
  6
BYBLOCK
 62
     0
 10
-587.4
 20
-10.0
 30
0.0
 11
-587.4
 21
-160.0
 31
0.0
  0
INSERT
  5
BE
  8
0
  6
BYBLOCK
 62
     0
  2
_ORIGIN
 10
-587.4
 20
0.0
 30
0.0
 41
10.0
 42
10.0
 43
10.0
 50
90.0
  0
INSERT
  5
BF
  8
0
  6
BYBLOCK
 62
     0
  2
_ORIGIN
 10
-587.4
 20
-170.0
 30
0.0
 41
10.0
 42
10.0
 43
10.0
 50
270.0
  0
TEXT
  5
C0
  8
0
  6
BYBLOCK
 62
     0
 10
-597.4
 20
-117.5
 30
0.0
 40
30.0
  1
170
 50
90.0
 72
     1
 11
-597.4
 21
-85.0
 31
0.0
  0
POINT
  5
C1
  8
DEFPOINTS
  6
BYBLOCK
 62
     0
 10
-485.0
 20
0.0
 30
0.0
  0
POINT
  5
C2
  8
DEFPOINTS
  6
BYBLOCK
 62
     0
 10
-305.0
 20
-170.0
 30
0.0
  0
POINT
  5
C3
  8
DEFPOINTS
  6
BYBLOCK
 62
     0
 10
-587.4
 20
-170.0
 30
0.0
  0
ENDBLK
  5
C4
  8
0
  0
BLOCK
  8
0
  2
*D13
 70
     1
 10
0.0
 20
0.0
 30
0.0
  3
*D13
  1

  0
LINE
  5
C7
  8
0
  6
BYBLOCK
 62
     0
 10
-285.0
 20
90.0
 30
0.0
 11
-285.0
 21
394.9
 31
0.0
  0
LINE
  5
C8
  8
0
  6
BYBLOCK
 62
     0
 10
-375.0
 20
90.0
 30
0.0
 11
-375.0
 21
394.9
 31
0.0
  0
LINE
  5
C9
  8
0
  6
BYBLOCK
 62
     0
 10
-295.0
 20
382.4
 30
0.0
 11
-365.0
 21
382.4
 31
0.0
  0
INSERT
  5
CA
  8
0
  6
BYBLOCK
 62
     0
  2
_ORIGIN
 10
-285.0
 20
382.4
 30
0.0
 41
10.0
 42
10.0
 43
10.0
  0
INSERT
  5
CB
  8
0
  6
BYBLOCK
 62
     0
  2
_ORIGIN
 10
-375.0
 20
382.4
 30
0.0
 41
10.0
 42
10.0
 43
10.0
 50
180.0
  0
TEXT
  5
CC
  8
0
  6
BYBLOCK
 62
     0
 10
-350.0
 20
392.4
 30
0.0
 40
30.0
  1
90
 72
     1
 11
-327.5
 21
392.4
 31
0.0
  0
POINT
  5
CD
  8
DEFPOINTS
  6
BYBLOCK
 62
     0
 10
-285.0
 20
80.0
 30
0.0
  0
POINT
  5
CE
  8
DEFPOINTS
  6
BYBLOCK
 62
     0
 10
-375.0
 20
80.0
 30
0.0
  0
POINT
  5
CF
  8
DEFPOINTS
  6
BYBLOCK
 62
     0
 10
-375.0
 20
382.4
 30
0.0
  0
ENDBLK
  5
D0
  8
0
  0
BLOCK
  8
0
  2
*D14
 70
     1
 10
0.0
 20
0.0
 30
0.0
  3
*D14
  1

  0
LINE
  5
D3
  8
0
  6
BYBLOCK
 62
     0
 10
285.0
 20
90.0
 30
0.0
 11
285.0
 21
394.9
 31
0.0
  0
LINE
  5
D4
  8
0
  6
BYBLOCK
 62
     0
 10
375.0
 20
90.0
 30
0.0
 11
375.0
 21
394.9
 31
0.0
  0
LINE
  5
D5
  8
0
  6
BYBLOCK
 62
     0
 10
295.0
 20
382.4
 30
0.0
 11
365.0
 21
382.4
 31
0.0
  0
INSERT
  5
D6
  8
0
  6
BYBLOCK
 62
     0
  2
_ORIGIN
 10
285.0
 20
382.4
 30
0.0
 41
10.0
 42
10.0
 43
10.0
 50
180.0
  0
INSERT
  5
D7
  8
0
  6
BYBLOCK
 62
     0
  2
_ORIGIN
 10
375.0
 20
382.4
 30
0.0
 41
10.0
 42
10.0
 43
10.0
  0
TEXT
  5
D8
  8
0
  6
BYBLOCK
 62
     0
 10
308.744324
 20
392.4
 30
0.0
 40
30.0
  1
90
 72
     1
 11
331.244324
 21
392.4
 31
0.0
  0
POINT
  5
D9
  8
DEFPOINTS
  6
BYBLOCK
 62
     0
 10
285.0
 20
80.0
 30
0.0
  0
POINT
  5
DA
  8
DEFPOINTS
  6
BYBLOCK
 62
     0
 10
375.0
 20
80.0
 30
0.0
  0
POINT
  5
DB
  8
DEFPOINTS
  6
BYBLOCK
 62
     0
 10
375.0
 20
382.4
 30
0.0
  0
ENDBLK
  5
DC
  8
0
  0
BLOCK
  8
0
  2
*D15
 70
     1
 10
0.0
 20
0.0
 30
0.0
  3
*D15
  1

  0
LINE
  5
DF
  8
0
  6
BYBLOCK
 62
     0
 10
-330.0
 20
65.19873
 30
0.0
 11
-330.0
 21
294.9
 31
0.0
  0
LINE
  5
E0
  8
0
  6
BYBLOCK
 62
     0
 10
330.0
 20
65.19873
 30
0.0
 11
330.0
 21
294.9
 31
0.0
  0
LINE
  5
E1
  8
0
  6
BYBLOCK
 62
     0
 10
-320.0
 20
282.4
 30
0.0
 11
320.0
 21
282.4
 31
0.0
  0
INSERT
  5
E2
  8
0
  6
BYBLOCK
 62
     0
  2
_ORIGIN
 10
-330.0
 20
282.4
 30
0.0
 41
10.0
 42
10.0
 43
10.0
 50
180.0
  0
INSERT
  5
E3
  8
0
  6
BYBLOCK
 62
     0
  2
_ORIGIN
 10
330.0
 20
282.4
 30
0.0
 41
10.0
 42
10.0
 43
10.0
  0
TEXT
  5
E4
  8
0
  6
BYBLOCK
 62
     0
 10
-36.375277
 20
292.4
 30
0.0
 40
30.0
  1
660
 72
     1
 11
1.124723
 21
292.4
 31
0.0
  0
POINT
  5
E5
  8
DEFPOINTS
  6
BYBLOCK
 62
     0
 10
-330.0
 20
55.19873
 30
0.0
  0
POINT
  5
E6
  8
DEFPOINTS
  6
BYBLOCK
 62
     0
 10
330.0
 20
55.19873
 30
0.0
  0
POINT
  5
E7
  8
DEFPOINTS
  6
BYBLOCK
 62
     0
 10
330.0
 20
282.4
 30
0.0
  0
ENDBLK
  5
E8
  8
0
  0
BLOCK
  8
0
  2
*D16
 70
     1
 10
0.0
 20
0.0
 30
0.0
  3
*D16
  1

  0
LINE
  5
EB
  8
0
  6
BYBLOCK
 62
     0
 10
-225.0
 20
-132.888672
 30
0.0
 11
-225.0
 21
194.9
 31
0.0
  0
LINE
  5
EC
  8
0
  6
BYBLOCK
 62
     0
 10
225.0
 20
-132.888672
 30
0.0
 11
225.0
 21
194.9
 31
0.0
  0
LINE
  5
ED
  8
0
  6
BYBLOCK
 62
     0
 10
-215.0
 20
182.4
 30
0.0
 11
215.0
 21
182.4
 31
0.0
  0
INSERT
  5
EE
  8
0
  6
BYBLOCK
 62
     0
  2
_ORIGIN
 10
-225.0
 20
182.4
 30
0.0
 41
10.0
 42
10.0
 43
10.0
 50
180.0
  0
INSERT
  5
EF
  8
0
  6
BYBLOCK
 62
     0
  2
_ORIGIN
 10
225.0
 20
182.4
 30
0.0
 41
10.0
 42
10.0
 43
10.0
  0
TEXT
  5
F0
  8
0
  6
BYBLOCK
 62
     0
 10
-37.5
 20
192.4
 30
0.0
 40
30.0
  1
450
 72
     1
 11
0.0
 21
192.4
 31
0.0
  0
POINT
  5
F1
  8
DEFPOINTS
  6
BYBLOCK
 62
     0
 10
-225.0
 20
-142.888672
 30
0.0
  0
POINT
  5
F2
  8
DEFPOINTS
  6
BYBLOCK
 62
     0
 10
225.0
 20
-142.888672
 30
0.0
  0
POINT
  5
F3
  8
DEFPOINTS
  6
BYBLOCK
 62
     0
 10
225.0
 20
182.4
 30
0.0
  0
ENDBLK
  5
F4
  8
0
  0
BLOCK
  8
0
  2
*D17
 70
     1
 10
0.0
 20
0.0
 30
0.0
  3
*D17
  1

  0
LINE
  5
F7
  8
0
  6
BYBLOCK
 62
     0
 10
495.0
 20
0.0
 30
0.0
 11
645.1
 21
0.0
 31
0.0
  0
LINE
  5
F8
  8
0
  6
BYBLOCK
 62
     0
 10
385.0
 20
80.0
 30
0.0
 11
645.1
 21
80.0
 31
0.0
  0
LINE
  5
F9
  8
0
  6
BYBLOCK
 62
     0
 10
632.6
 20
10.0
 30
0.0
 11
632.6
 21
70.0
 31
0.0
  0
INSERT
  5
FA
  8
0
  6
BYBLOCK
 62
     0
  2
_ORIGIN
 10
632.6
 20
0.0
 30
0.0
 41
10.0
 42
10.0
 43
10.0
 50
270.0
  0
INSERT
  5
FB
  8
0
  6
BYBLOCK
 62
     0
  2
_ORIGIN
 10
632.6
 20
80.0
 30
0.0
 41
10.0
 42
10.0
 43
10.0
 50
90.0
  0
TEXT
  5
FC
  8
0
  6
BYBLOCK
 62
     0
 10
622.6
 20
17.5
 30
0.0
 40
30.0
  1
80
 50
90.0
 72
     1
 11
622.6
 21
40.0
 31
0.0
  0
POINT
  5
FD
  8
DEFPOINTS
  6
BYBLOCK
 62
     0
 10
485.0
 20
0.0
 30
0.0
  0
POINT
  5
FE
  8
DEFPOINTS
  6
BYBLOCK
 62
     0
 10
375.0
 20
80.0
 30
0.0
  0
POINT
  5
FF
  8
DEFPOINTS
  6
BYBLOCK
 62
     0
 10
632.6
 20
80.0
 30
0.0
  0
ENDBLK
  5
100
  8
0
  0
BLOCK
  8
0
  2
*D18
 70
     1
 10
0.0
 20
0.0
 30
0.0
  3
*D18
  1

  0
LINE
  5
103
  8
0
  6
BYBLOCK
 62
     0
 10
-485.0
 20
10.0
 30
0.0
 11
-485.0
 21
494.9
 31
0.0
  0
LINE
  5
104
  8
0
  6
BYBLOCK
 62
     0
 10
485.0
 20
10.0
 30
0.0
 11
485.0
 21
494.9
 31
0.0
  0
LINE
  5
105
  8
0
  6
BYBLOCK
 62
     0
 10
-475.0
 20
482.4
 30
0.0
 11
475.0
 21
482.4
 31
0.0
  0
INSERT
  5
106
  8
0
  6
BYBLOCK
 62
     0
  2
_ORIGIN
 10
-485.0
 20
482.4
 30
0.0
 41
10.0
 42
10.0
 43
10.0
 50
180.0
  0
INSERT
  5
107
  8
0
  6
BYBLOCK
 62
     0
  2
_ORIGIN
 10
485.0
 20
482.4
 30
0.0
 41
10.0
 42
10.0
 43
10.0
  0
TEXT
  5
108
  8
0
  6
BYBLOCK
 62
     0
 10
-37.5
 20
492.4
 30
0.0
 40
30.0
  1
970
 72
     1
 11
0.0
 21
492.4
 31
0.0
  0
POINT
  5
109
  8
DEFPOINTS
  6
BYBLOCK
 62
     0
 10
-485.0
 20
0.0
 30
0.0
  0
POINT
  5
10A
  8
DEFPOINTS
  6
BYBLOCK
 62
     0
 10
485.0
 20
0.0
 30
0.0
  0
POINT
  5
10B
  8
DEFPOINTS
  6
BYBLOCK
 62
     0
 10
485.0
 20
482.4
 30
0.0
  0
ENDBLK
  5
10C
  8
0
  0
BLOCK
  8
0
  2
*D19
 70
     1
 10
0.0
 20
0.0
 30
0.0
  3
*D19
  1

  0
LINE
  5
10F
  8
0
  6
BYBLOCK
 62
     0
 10
495.0
 20
-1100.0
 30
0.0
 11
645.1
 21
-1100.0
 31
0.0
  0
LINE
  5
110
  8
0
  6
BYBLOCK
 62
     0
 10
495.0
 20
-500.0
 30
0.0
 11
645.1
 21
-500.0
 31
0.0
  0
LINE
  5
111
  8
0
  6
BYBLOCK
 62
     0
 10
632.6
 20
-1090.0
 30
0.0
 11
632.6
 21
-510.0
 31
0.0
  0
INSERT
  5
112
  8
0
  6
BYBLOCK
 62
     0
  2
_ORIGIN
 10
632.6
 20
-1100.0
 30
0.0
 41
10.0
 42
10.0
 43
10.0
 50
270.0
  0
INSERT
  5
113
  8
0
  6
BYBLOCK
 62
     0
  2
_ORIGIN
 10
632.6
 20
-500.0
 30
0.0
 41
10.0
 42
10.0
 43
10.0
 50
90.0
  0
TEXT
  5
114
  8
0
  6
BYBLOCK
 62
     0
 10
622.6
 20
-835.0
 30
0.0
 40
30.0
  1
600
 50
90.0
 72
     1
 11
622.6
 21
-800.0
 31
0.0
  0
POINT
  5
115
  8
DEFPOINTS
  6
BYBLOCK
 62
     0
 10
485.0
 20
-1100.0
 30
0.0
  0
POINT
  5
116
  8
DEFPOINTS
  6
BYBLOCK
 62
     0
 10
485.0
 20
-500.0
 30
0.0
  0
POINT
  5
117
  8
DEFPOINTS
  6
BYBLOCK
 62
     0
 10
632.6
 20
-500.0
 30
0.0
  0
ENDBLK
  5
118
  8
0
  0
BLOCK
  8
0
  2
*D20
 70
     1
 10
0.0
 20
0.0
 30
0.0
  3
*D20
  1

  0
LINE
  5
11B
  8
0
  6
BYBLOCK
 62
     0
 10
495.0
 20
-500.0
 30
0.0
 11
645.1
 21
-500.0
 31
0.0
  0
LINE
  5
11C
  8
0
  6
BYBLOCK
 62
     0
 10
495.0
 20
0.0
 30
0.0
 11
645.1
 21
0.0
 31
0.0
  0
LINE
  5
11D
  8
0
  6
BYBLOCK
 62
     0
 10
632.6
 20
-490.0
 30
0.0
 11
632.6
 21
-10.0
 31
0.0
  0
INSERT
  5
11E
  8
0
  6
BYBLOCK
 62
     0
  2
_ORIGIN
 10
632.6
 20
-500.0
 30
0.0
 41
10.0
 42
10.0
 43
10.0
 50
270.0
  0
INSERT
  5
11F
  8
0
  6
BYBLOCK
 62
     0
  2
_ORIGIN
 10
632.6
 20
0.0
 30
0.0
 41
10.0
 42
10.0
 43
10.0
 50
90.0
  0
TEXT
  5
120
  8
0
  6
BYBLOCK
 62
     0
 10
622.6
 20
-285.0
 30
0.0
 40
30.0
  1
500
 50
90.0
 72
     1
 11
622.6
 21
-250.0
 31
0.0
  0
POINT
  5
121
  8
DEFPOINTS
  6
BYBLOCK
 62
     0
 10
485.0
 20
-500.0
 30
0.0
  0
POINT
  5
122
  8
DEFPOINTS
  6
BYBLOCK
 62
     0
 10
485.0
 20
0.0
 30
0.0
  0
POINT
  5
123
  8
DEFPOINTS
  6
BYBLOCK
 62
     0
 10
632.6
 20
0.0
 30
0.0
  0
ENDBLK
  5
124
  8
0
  0
BLOCK
  8
0
  2
*D21
 70
     1
 10
0.0
 20
0.0
 30
0.0
  3
*D21
  1

  0
LINE
  5
127
  8
0
  6
BYBLOCK
 62
     0
 10
485.0
 20
-1110.0
 30
0.0
 11
485.0
 21
-1260.1
 31
0.0
  0
LINE
  5
128
  8
0
  6
BYBLOCK
 62
     0
 10
-485.0
 20
-1110.0
 30
0.0
 11
-485.0
 21
-1260.1
 31
0.0
  0
LINE
  5
129
  8
0
  6
BYBLOCK
 62
     0
 10
475.0
 20
-1247.6
 30
0.0
 11
-475.0
 21
-1247.6
 31
0.0
  0
INSERT
  5
12A
  8
0
  6
BYBLOCK
 62
     0
  2
_ORIGIN
 10
485.0
 20
-1247.6
 30
0.0
 41
10.0
 42
10.0
 43
10.0
  0
INSERT
  5
12B
  8
0
  6
BYBLOCK
 62
     0
  2
_ORIGIN
 10
-485.0
 20
-1247.6
 30
0.0
 41
10.0
 42
10.0
 43
10.0
 50
180.0
  0
TEXT
  5
12C
  8
0
  6
BYBLOCK
 62
     0
 10
-37.5
 20
-1237.6
 30
0.0
 40
30.0
  1
970
 72
     1
 11
0.0
 21
-1237.6
 31
0.0
  0
POINT
  5
12D
  8
DEFPOINTS
  6
BYBLOCK
 62
     0
 10
485.0
 20
-1100.0
 30
0.0
  0
POINT
  5
12E
  8
DEFPOINTS
  6
BYBLOCK
 62
     0
 10
-485.0
 20
-1100.0
 30
0.0
  0
POINT
  5
12F
  8
DEFPOINTS
  6
BYBLOCK
 62
     0
 10
-485.0
 20
-1247.6
 30
0.0
  0
ENDBLK
  5
130
  8
0
  0
ENDSEC
  0
SECTION
  2
ENTITIES
  0
LINE
  5
131
  8
OUTLINE
  6
CONTINUOUS
 10
485.0
 20
0.0
 30
0.0
 11
-485.0
 21
0.0
 31
0.0
  0
LINE
  5
132
  8
OUTLINE
  6
CONTINUOUS
 10
485.0
 20
0.0
 30
0.0
 11
485.0
 21
-500.0
 31
0.0
  0
LINE
  5
133
  8
OUTLINE
  6
CONTINUOUS
 10
-485.0
 20
0.0
 30
0.0
 11
-485.0
 21
-500.0
 31
0.0
  0
LINE
  5
134
  8
OUTLINE
  6
CONTINUOUS
 10
485.0
 20
-500.0
 30
0.0
 11
-485.0
 21
-500.0
 31
0.0
  0
LINE
  5
135
  8
DETAIL
  6
CONTINUOUS
 10
-485.0
 20
0.0
 30
0.0
 11
-485.0
 21
-500.0
 31
0.0
  0
LINE
  5
136
  8
DETAIL
  6
CONTINUOUS
 10
485.0
 20
-500.0
 30
0.0
 11
-485.0
 21
-500.0
 31
0.0
  0
LINE
  5
137
  8
DETAIL
  6
CONTINUOUS
 10
485.0
 20
0.0
 30
0.0
 11
485.0
 21
-500.0
 31
0.0
  0
LINE
  5
138
  8
DETAIL
  6
CONTINUOUS
 10
485.0
 20
0.0
 30
0.0
 11
-485.0
 21
0.0
 31
0.0
  0
LINE
  5
139
  8
DETAIL
  6
CONTINUOUS
 10
370.0
 20
-138.8
 30
0.0
 11
290.0
 21
-138.8
 31
0.0
  0
LINE
  5
13A
  8
DETAIL
  6
CONTINUOUS
 10
375.0
 20
-133.8
 30
0.0
 11
375.0
 21
3.2
 31
0.0
  0
ARC
  5
13B
  8
DETAIL
  6
CONTINUOUS
 10
370.0
 20
-133.8
 30
0.0
 40
5.0
 50
270.0
 51
0.0
  0
ARC
  5
13C
  8
DETAIL
  6
CONTINUOUS
 10
290.0
 20
-133.8
 30
0.0
 40
5.0
 50
180.0
 51
270.0
  0
LINE
  5
13D
  8
DETAIL
  6
CONTINUOUS
 10
285.0
 20
-133.8
 30
0.0
 11
285.0
 21
3.2
 31
0.0
  0
LINE
  5
13E
  8
DETAIL
  6
CONTINUOUS
 10
375.0
 20
3.2
 30
0.0
 11
285.0
 21
3.2
 31
0.0
  0
LINE
  5
13F
  8
DETAIL
  6
DIVIDE
 10
375.0
 20
80.0
 30
0.0
 11
285.0
 21
80.0
 31
0.0
  0
LINE
  5
140
  8
DETAIL
  6
DIVIDE
 10
375.0
 20
3.2
 30
0.0
 11
375.0
 21
80.0
 31
0.0
  0
LINE
  5
141
  8
DETAIL
  6
DIVIDE
 10
285.0
 20
3.2
 30
0.0
 11
285.0
 21
80.0
 31
0.0
  0
LINE
  5
142
  8
DETAIL
  6
DIVIDE
 10
-285.0
 20
3.2
 30
0.0
 11
-285.0
 21
80.0
 31
0.0
  0
LINE
  5
143
  8
DETAIL
  6
DIVIDE
 10
-375.0
 20
3.2
 30
0.0
 11
-375.0
 21
80.0
 31
0.0
  0
LINE
  5
144
  8
DETAIL
  6
DIVIDE
 10
-375.0
 20
80.0
 30
0.0
 11
-285.0
 21
80.0
 31
0.0
  0
LINE
  5
145
  8
DETAIL
  6
CONTINUOUS
 10
-375.0
 20
3.2
 30
0.0
 11
-285.0
 21
3.2
 31
0.0
  0
LINE
  5
146
  8
DETAIL
  6
CONTINUOUS
 10
-285.0
 20
-133.8
 30
0.0
 11
-285.0
 21
3.2
 31
0.0
  0
ARC
  5
147
  8
DETAIL
  6
CONTINUOUS
 10
-290.0
 20
-133.8
 30
0.0
 40
5.0
 50
270.0
 51
0.0
  0
ARC
  5
148
  8
DETAIL
  6
CONTINUOUS
 10
-370.0
 20
-133.8
 30
0.0
 40
5.0
 50
180.0
 51
270.0
  0
LINE
  5
149
  8
DETAIL
  6
CONTINUOUS
 10
-375.0
 20
-133.8
 30
0.0
 11
-375.0
 21
3.2
 31
0.0
  0
LINE
  5
14A
  8
DETAIL
  6
CONTINUOUS
 10
-370.0
 20
-138.8
 30
0.0
 11
-290.0
 21
-138.8
 31
0.0
  0
LINE
  5
14B
  8
DETAIL
  6
CONTINUOUS
 10
145.0
 20
-190.0
 30
0.0
 11
305.0
 21
-190.0
 31
0.0
  0
LINE
  5
14C
  8
DETAIL
  6
CONTINUOUS
 10
305.0
 20
-170.0
 30
0.0
 11
305.0
 21
-190.0
 31
0.0
  0
LINE
  5
14D
  8
DETAIL
  6
CONTINUOUS
 10
145.0
 20
-170.0
 30
0.0
 11
145.0
 21
-190.0
 31
0.0
  0
LINE
  5
14E
  8
DETAIL
  6
CONTINUOUS
 10
145.0
 20
-170.0
 30
0.0
 11
305.0
 21
-170.0
 31
0.0
  0
LINE
  5
14F
  8
DETAIL
  6
CONTINUOUS
 10
287.0
 20
-170.0
 30
0.0
 11
287.0
 21
-190.0
 31
0.0
  0
LINE
  5
150
  8
DETAIL
  6
CONTINUOUS
 10
163.0
 20
-170.0
 30
0.0
 11
163.0
 21
-190.0
 31
0.0
  0
LINE
  5
151
  8
DETAIL
  6
CONTINUOUS
 10
-145.0
 20
-190.0
 30
0.0
 11
-305.0
 21
-190.0
 31
0.0
  0
LINE
  5
152
  8
DETAIL
  6
CONTINUOUS
 10
-305.0
 20
-170.0
 30
0.0
 11
-305.0
 21
-190.0
 31
0.0
  0
LINE
  5
153
  8
DETAIL
  6
CONTINUOUS
 10
-145.0
 20
-170.0
 30
0.0
 11
-145.0
 21
-190.0
 31
0.0
  0
LINE
  5
154
  8
DETAIL
  6
CONTINUOUS
 10
-145.0
 20
-170.0
 30
0.0
 11
-305.0
 21
-170.0
 31
0.0
  0
LINE
  5
155
  8
DETAIL
  6
CONTINUOUS
 10
-287.0
 20
-170.0
 30
0.0
 11
-287.0
 21
-190.0
 31
0.0
  0
LINE
  5
156
  8
DETAIL
  6
CONTINUOUS
 10
-163.0
 20
-170.0
 30
0.0
 11
-163.0
 21
-190.0
 31
0.0
  0
LINE
  5
157
  8
BASIS
  6
DASHDOT
 10
0.0
 20
34.760855
 30
0.0
 11
0.0
 21
-538.053002
 31
0.0
  0
LINE
  5
158
  8
BASIS
  6
DASHDOT
 10
330.0
 20
55.198692
 30
0.0
 11
330.0
 21
-168.009878
 31
0.0
  0
LINE
  5
159
  8
BASIS
  6
DASHDOT
 10
-330.0
 20
55.198692
 30
0.0
 11
-330.0
 21
-168.009878
 31
0.0
  0
LINE
  5
15A
  8
BASIS
  6
DASHDOT
 10
-225.0
 20
-142.888601
 30
0.0
 11
-225.0
 21
-215.153801
 31
0.0
  0
LINE
  5
15B
  8
BASIS
  6
DASHDOT
 10
225.0
 20
-142.888601
 30
0.0
 11
225.0
 21
-215.153801
 31
0.0
  0
LINE
  5
15C
  8
SIZE
  6
CONTINUOUS
 62
    30
 10
485.0
 20
-1110.0
 30
0.0
 11
485.0
 21
-1260.1
 31
0.0
  0
LINE
  5
15D
  8
SIZE
  6
CONTINUOUS
 62
    30
 10
-485.0
 20
-1110.0
 30
0.0
 11
-485.0
 21
-1260.1
 31
0.0
  0
LINE
  5
15E
  8
SIZE
  6
CONTINUOUS
 62
    30
 10
475.0
 20
-1247.6
 30
0.0
 11
-475.0
 21
-1247.6
 31
0.0
  0
CIRCLE
  5
15F
  8
SIZE
  6
CONTINUOUS
 62
    30
 10
485.0
 20
-1247.6
 30
0.0
 40
5.0
  0
LINE
  5
160
  8
SIZE
  6
CONTINUOUS
 62
    30
 10
485.0
 20
-1247.6
 30
0.0
 11
475.0
 21
-1247.6
 31
0.0
  0
CIRCLE
  5
161
  8
SIZE
  6
CONTINUOUS
 62
    30
 10
-485.0
 20
-1247.6
 30
0.0
 40
5.0
  0
LINE
  5
162
  8
SIZE
  6
CONTINUOUS
 62
    30
 10
-485.0
 20
-1247.6
 30
0.0
 11
-475.0
 21
-1247.6
 31
0.0
  0
TEXT
  5
163
  8
SIZE
  6
CONTINUOUS
 62
    30
 10
-37.5
 20
-1237.6
 30
0.0
 40
30.0
  1
970
 72
     1
 11
0.0
 21
-1237.6
 31
0.0
  0
POINT
  5
164
  8
DEFPOINTS
  6
CONTINUOUS
 62
    30
 10
485.0
 20
-1100.0
 30
0.0
  0
POINT
  5
165
  8
DEFPOINTS
  6
CONTINUOUS
 62
    30
 10
-485.0
 20
-1100.0
 30
0.0
  0
POINT
  5
166
  8
DEFPOINTS
  6
CONTINUOUS
 62
    30
 10
-485.0
 20
-1247.6
 30
0.0
  0
LINE
  5
167
  8
SIZE
  6
CONTINUOUS
 62
    30
 10
495.0
 20
-500.0
 30
0.0
 11
645.1
 21
-500.0
 31
0.0
  0
LINE
  5
168
  8
SIZE
  6
CONTINUOUS
 62
    30
 10
495.0
 20
0.0
 30
0.0
 11
645.1
 21
0.0
 31
0.0
  0
LINE
  5
169
  8
SIZE
  6
CONTINUOUS
 62
    30
 10
632.6
 20
-490.0
 30
0.0
 11
632.6
 21
-10.0
 31
0.0
  0
CIRCLE
  5
16A
  8
SIZE
  6
CONTINUOUS
 62
    30
 10
632.6
 20
-500.0
 30
0.0
 40
5.0
  0
LINE
  5
16B
  8
SIZE
  6
CONTINUOUS
 62
    30
 10
632.6
 20
-500.0
 30
0.0
 11
632.6
 21
-490.0
 31
0.0
  0
CIRCLE
  5
16C
  8
SIZE
  6
CONTINUOUS
 62
    30
 10
632.6
 20
0.0
 30
0.0
 40
5.0
  0
LINE
  5
16D
  8
SIZE
  6
CONTINUOUS
 62
    30
 10
632.6
 20
0.0
 30
0.0
 11
632.6
 21
-10.0
 31
0.0
  0
TEXT
  5
16E
  8
SIZE
  6
CONTINUOUS
 62
    30
 10
622.6
 20
-285.0
 30
0.0
 40
30.0
  1
500
 50
90.0
 72
     1
 11
622.6
 21
-250.0
 31
0.0
  0
POINT
  5
16F
  8
DEFPOINTS
  6
CONTINUOUS
 62
    30
 10
485.0
 20
-500.0
 30
0.0
  0
POINT
  5
170
  8
DEFPOINTS
  6
CONTINUOUS
 62
    30
 10
485.0
 20
0.0
 30
0.0
  0
POINT
  5
171
  8
DEFPOINTS
  6
CONTINUOUS
 62
    30
 10
632.6
 20
0.0
 30
0.0
  0
LINE
  5
172
  8
SIZE
  6
CONTINUOUS
 62
    30
 10
495.0
 20
-1100.0
 30
0.0
 11
645.1
 21
-1100.0
 31
0.0
  0
LINE
  5
173
  8
SIZE
  6
CONTINUOUS
 62
    30
 10
495.0
 20
-500.0
 30
0.0
 11
645.1
 21
-500.0
 31
0.0
  0
LINE
  5
174
  8
SIZE
  6
CONTINUOUS
 62
    30
 10
632.6
 20
-1090.0
 30
0.0
 11
632.6
 21
-510.0
 31
0.0
  0
CIRCLE
  5
175
  8
SIZE
  6
CONTINUOUS
 62
    30
 10
632.6
 20
-1100.0
 30
0.0
 40
5.0
  0
LINE
  5
176
  8
SIZE
  6
CONTINUOUS
 62
    30
 10
632.6
 20
-1100.0
 30
0.0
 11
632.6
 21
-1090.0
 31
0.0
  0
CIRCLE
  5
177
  8
SIZE
  6
CONTINUOUS
 62
    30
 10
632.6
 20
-500.0
 30
0.0
 40
5.0
  0
LINE
  5
178
  8
SIZE
  6
CONTINUOUS
 62
    30
 10
632.6
 20
-500.0
 30
0.0
 11
632.6
 21
-510.0
 31
0.0
  0
TEXT
  5
179
  8
SIZE
  6
CONTINUOUS
 62
    30
 10
622.6
 20
-835.0
 30
0.0
 40
30.0
  1
600
 50
90.0
 72
     1
 11
622.6
 21
-800.0
 31
0.0
  0
POINT
  5
17A
  8
DEFPOINTS
  6
CONTINUOUS
 62
    30
 10
485.0
 20
-1100.0
 30
0.0
  0
POINT
  5
17B
  8
DEFPOINTS
  6
CONTINUOUS
 62
    30
 10
485.0
 20
-500.0
 30
0.0
  0
POINT
  5
17C
  8
DEFPOINTS
  6
CONTINUOUS
 62
    30
 10
632.6
 20
-500.0
 30
0.0
  0
LINE
  5
17D
  8
SIZE
  6
CONTINUOUS
 62
    30
 10
-485.0
 20
10.0
 30
0.0
 11
-485.0
 21
494.9
 31
0.0
  0
LINE
  5
17E
  8
SIZE
  6
CONTINUOUS
 62
    30
 10
485.0
 20
10.0
 30
0.0
 11
485.0
 21
494.9
 31
0.0
  0
LINE
  5
17F
  8
SIZE
  6
CONTINUOUS
 62
    30
 10
-475.0
 20
482.4
 30
0.0
 11
475.0
 21
482.4
 31
0.0
  0
CIRCLE
  5
180
  8
SIZE
  6
CONTINUOUS
 62
    30
 10
-485.0
 20
482.4
 30
0.0
 40
5.0
  0
LINE
  5
181
  8
SIZE
  6
CONTINUOUS
 62
    30
 10
-485.0
 20
482.4
 30
0.0
 11
-475.0
 21
482.4
 31
0.0
  0
CIRCLE
  5
182
  8
SIZE
  6
CONTINUOUS
 62
    30
 10
485.0
 20
482.4
 30
0.0
 40
5.0
  0
LINE
  5
183
  8
SIZE
  6
CONTINUOUS
 62
    30
 10
485.0
 20
482.4
 30
0.0
 11
475.0
 21
482.4
 31
0.0
  0
TEXT
  5
184
  8
SIZE
  6
CONTINUOUS
 62
    30
 10
-37.5
 20
492.4
 30
0.0
 40
30.0
  1
970
 72
     1
 11
0.0
 21
492.4
 31
0.0
  0
POINT
  5
185
  8
DEFPOINTS
  6
CONTINUOUS
 62
    30
 10
-485.0
 20
0.0
 30
0.0
  0
POINT
  5
186
  8
DEFPOINTS
  6
CONTINUOUS
 62
    30
 10
485.0
 20
0.0
 30
0.0
  0
POINT
  5
187
  8
DEFPOINTS
  6
CONTINUOUS
 62
    30
 10
485.0
 20
482.4
 30
0.0
  0
LINE
  5
188
  8
SIZE
  6
CONTINUOUS
 62
    30
 10
495.0
 20
0.0
 30
0.0
 11
645.1
 21
0.0
 31
0.0
  0
LINE
  5
189
  8
SIZE
  6
CONTINUOUS
 62
    30
 10
385.0
 20
80.0
 30
0.0
 11
645.1
 21
80.0
 31
0.0
  0
LINE
  5
18A
  8
SIZE
  6
CONTINUOUS
 62
    30
 10
632.6
 20
10.0
 30
0.0
 11
632.6
 21
70.0
 31
0.0
  0
CIRCLE
  5
18B
  8
SIZE
  6
CONTINUOUS
 62
    30
 10
632.6
 20
0.0
 30
0.0
 40
5.0
  0
LINE
  5
18C
  8
SIZE
  6
CONTINUOUS
 62
    30
 10
632.6
 20
0.0
 30
0.0
 11
632.6
 21
10.0
 31
0.0
  0
CIRCLE
  5
18D
  8
SIZE
  6
CONTINUOUS
 62
    30
 10
632.6
 20
80.0
 30
0.0
 40
5.0
  0
LINE
  5
18E
  8
SIZE
  6
CONTINUOUS
 62
    30
 10
632.6
 20
80.0
 30
0.0
 11
632.6
 21
70.0
 31
0.0
  0
TEXT
  5
18F
  8
SIZE
  6
CONTINUOUS
 62
    30
 10
622.6
 20
17.5
 30
0.0
 40
30.0
  1
80
 50
90.0
 72
     1
 11
622.6
 21
40.0
 31
0.0
  0
POINT
  5
190
  8
DEFPOINTS
  6
CONTINUOUS
 62
    30
 10
485.0
 20
0.0
 30
0.0
  0
POINT
  5
191
  8
DEFPOINTS
  6
CONTINUOUS
 62
    30
 10
375.0
 20
80.0
 30
0.0
  0
POINT
  5
192
  8
DEFPOINTS
  6
CONTINUOUS
 62
    30
 10
632.6
 20
80.0
 30
0.0
  0
LINE
  5
193
  8
SIZE
  6
CONTINUOUS
 62
    30
 10
-225.0
 20
-132.888672
 30
0.0
 11
-225.0
 21
194.9
 31
0.0
  0
LINE
  5
194
  8
SIZE
  6
CONTINUOUS
 62
    30
 10
225.0
 20
-132.888672
 30
0.0
 11
225.0
 21
194.9
 31
0.0
  0
LINE
  5
195
  8
SIZE
  6
CONTINUOUS
 62
    30
 10
-215.0
 20
182.4
 30
0.0
 11
215.0
 21
182.4
 31
0.0
  0
CIRCLE
  5
196
  8
SIZE
  6
CONTINUOUS
 62
    30
 10
-225.0
 20
182.4
 30
0.0
 40
5.0
  0
LINE
  5
197
  8
SIZE
  6
CONTINUOUS
 62
    30
 10
-225.0
 20
182.4
 30
0.0
 11
-215.0
 21
182.4
 31
0.0
  0
CIRCLE
  5
198
  8
SIZE
  6
CONTINUOUS
 62
    30
 10
225.0
 20
182.4
 30
0.0
 40
5.0
  0
LINE
  5
199
  8
SIZE
  6
CONTINUOUS
 62
    30
 10
225.0
 20
182.4
 30
0.0
 11
215.0
 21
182.4
 31
0.0
  0
TEXT
  5
19A
  8
SIZE
  6
CONTINUOUS
 62
    30
 10
-37.5
 20
192.4
 30
0.0
 40
30.0
  1
450
 72
     1
 11
0.0
 21
192.4
 31
0.0
  0
POINT
  5
19B
  8
DEFPOINTS
  6
CONTINUOUS
 62
    30
 10
-225.0
 20
-142.888672
 30
0.0
  0
POINT
  5
19C
  8
DEFPOINTS
  6
CONTINUOUS
 62
    30
 10
225.0
 20
-142.888672
 30
0.0
  0
POINT
  5
19D
  8
DEFPOINTS
  6
CONTINUOUS
 62
    30
 10
225.0
 20
182.4
 30
0.0
  0
LINE
  5
19E
  8
SIZE
  6
CONTINUOUS
 62
    30
 10
-330.0
 20
65.19873
 30
0.0
 11
-330.0
 21
294.9
 31
0.0
  0
LINE
  5
19F
  8
SIZE
  6
CONTINUOUS
 62
    30
 10
330.0
 20
65.19873
 30
0.0
 11
330.0
 21
294.9
 31
0.0
  0
LINE
  5
1A0
  8
SIZE
  6
CONTINUOUS
 62
    30
 10
-320.0
 20
282.4
 30
0.0
 11
320.0
 21
282.4
 31
0.0
  0
CIRCLE
  5
1A1
  8
SIZE
  6
CONTINUOUS
 62
    30
 10
-330.0
 20
282.4
 30
0.0
 40
5.0
  0
LINE
  5
1A2
  8
SIZE
  6
CONTINUOUS
 62
    30
 10
-330.0
 20
282.4
 30
0.0
 11
-320.0
 21
282.4
 31
0.0
  0
CIRCLE
  5
1A3
  8
SIZE
  6
CONTINUOUS
 62
    30
 10
330.0
 20
282.4
 30
0.0
 40
5.0
  0
LINE
  5
1A4
  8
SIZE
  6
CONTINUOUS
 62
    30
 10
330.0
 20
282.4
 30
0.0
 11
320.0
 21
282.4
 31
0.0
  0
TEXT
  5
1A5
  8
SIZE
  6
CONTINUOUS
 62
    30
 10
-36.375277
 20
292.4
 30
0.0
 40
30.0
  1
660
 72
     1
 11
1.124723
 21
292.4
 31
0.0
  0
POINT
  5
1A6
  8
DEFPOINTS
  6
CONTINUOUS
 62
    30
 10
-330.0
 20
55.19873
 30
0.0
  0
POINT
  5
1A7
  8
DEFPOINTS
  6
CONTINUOUS
 62
    30
 10
330.0
 20
55.19873
 30
0.0
  0
POINT
  5
1A8
  8
DEFPOINTS
  6
CONTINUOUS
 62
    30
 10
330.0
 20
282.4
 30
0.0
  0
LINE
  5
1A9
  8
SIZE
  6
CONTINUOUS
 62
    30
 10
285.0
 20
90.0
 30
0.0
 11
285.0
 21
394.9
 31
0.0
  0
LINE
  5
1AA
  8
SIZE
  6
CONTINUOUS
 62
    30
 10
375.0
 20
90.0
 30
0.0
 11
375.0
 21
394.9
 31
0.0
  0
LINE
  5
1AB
  8
SIZE
  6
CONTINUOUS
 62
    30
 10
295.0
 20
382.4
 30
0.0
 11
365.0
 21
382.4
 31
0.0
  0
CIRCLE
  5
1AC
  8
SIZE
  6
CONTINUOUS
 62
    30
 10
285.0
 20
382.4
 30
0.0
 40
5.0
  0
LINE
  5
1AD
  8
SIZE
  6
CONTINUOUS
 62
    30
 10
285.0
 20
382.4
 30
0.0
 11
295.0
 21
382.4
 31
0.0
  0
CIRCLE
  5
1AE
  8
SIZE
  6
CONTINUOUS
 62
    30
 10
375.0
 20
382.4
 30
0.0
 40
5.0
  0
LINE
  5
1AF
  8
SIZE
  6
CONTINUOUS
 62
    30
 10
375.0
 20
382.4
 30
0.0
 11
365.0
 21
382.4
 31
0.0
  0
TEXT
  5
1B0
  8
SIZE
  6
CONTINUOUS
 62
    30
 10
308.744324
 20
392.4
 30
0.0
 40
30.0
  1
90
 72
     1
 11
331.244324
 21
392.4
 31
0.0
  0
POINT
  5
1B1
  8
DEFPOINTS
  6
CONTINUOUS
 62
    30
 10
285.0
 20
80.0
 30
0.0
  0
POINT
  5
1B2
  8
DEFPOINTS
  6
CONTINUOUS
 62
    30
 10
375.0
 20
80.0
 30
0.0
  0
POINT
  5
1B3
  8
DEFPOINTS
  6
CONTINUOUS
 62
    30
 10
375.0
 20
382.4
 30
0.0
  0
LINE
  5
1B4
  8
SIZE
  6
CONTINUOUS
 62
    30
 10
-285.0
 20
90.0
 30
0.0
 11
-285.0
 21
394.9
 31
0.0
  0
LINE
  5
1B5
  8
SIZE
  6
CONTINUOUS
 62
    30
 10
-375.0
 20
90.0
 30
0.0
 11
-375.0
 21
394.9
 31
0.0
  0
LINE
  5
1B6
  8
SIZE
  6
CONTINUOUS
 62
    30
 10
-295.0
 20
382.4
 30
0.0
 11
-365.0
 21
382.4
 31
0.0
  0
CIRCLE
  5
1B7
  8
SIZE
  6
CONTINUOUS
 62
    30
 10
-285.0
 20
382.4
 30
0.0
 40
5.0
  0
LINE
  5
1B8
  8
SIZE
  6
CONTINUOUS
 62
    30
 10
-285.0
 20
382.4
 30
0.0
 11
-295.0
 21
382.4
 31
0.0
  0
CIRCLE
  5
1B9
  8
SIZE
  6
CONTINUOUS
 62
    30
 10
-375.0
 20
382.4
 30
0.0
 40
5.0
  0
LINE
  5
1BA
  8
SIZE
  6
CONTINUOUS
 62
    30
 10
-375.0
 20
382.4
 30
0.0
 11
-365.0
 21
382.4
 31
0.0
  0
TEXT
  5
1BB
  8
SIZE
  6
CONTINUOUS
 62
    30
 10
-350.0
 20
392.4
 30
0.0
 40
30.0
  1
90
 72
     1
 11
-327.5
 21
392.4
 31
0.0
  0
POINT
  5
1BC
  8
DEFPOINTS
  6
CONTINUOUS
 62
    30
 10
-285.0
 20
80.0
 30
0.0
  0
POINT
  5
1BD
  8
DEFPOINTS
  6
CONTINUOUS
 62
    30
 10
-375.0
 20
80.0
 30
0.0
  0
POINT
  5
1BE
  8
DEFPOINTS
  6
CONTINUOUS
 62
    30
 10
-375.0
 20
382.4
 30
0.0
  0
LINE
  5
1BF
  8
SIZE
  6
CONTINUOUS
 62
    30
 10
-495.0
 20
0.0
 30
0.0
 11
-599.9
 21
0.0
 31
0.0
  0
LINE
  5
1C0
  8
SIZE
  6
CONTINUOUS
 62
    30
 10
-315.0
 20
-170.0
 30
0.0
 11
-599.9
 21
-170.0
 31
0.0
  0
LINE
  5
1C1
  8
SIZE
  6
CONTINUOUS
 62
    30
 10
-587.4
 20
-10.0
 30
0.0
 11
-587.4
 21
-160.0
 31
0.0
  0
CIRCLE
  5
1C2
  8
SIZE
  6
CONTINUOUS
 62
    30
 10
-587.4
 20
0.0
 30
0.0
 40
5.0
  0
LINE
  5
1C3
  8
SIZE
  6
CONTINUOUS
 62
    30
 10
-587.4
 20
0.0
 30
0.0
 11
-587.4
 21
-10.0
 31
0.0
  0
CIRCLE
  5
1C4
  8
SIZE
  6
CONTINUOUS
 62
    30
 10
-587.4
 20
-170.0
 30
0.0
 40
5.0
  0
LINE
  5
1C5
  8
SIZE
  6
CONTINUOUS
 62
    30
 10
-587.4
 20
-170.0
 30
0.0
 11
-587.4
 21
-160.0
 31
0.0
  0
TEXT
  5
1C6
  8
SIZE
  6
CONTINUOUS
 62
    30
 10
-597.4
 20
-117.5
 30
0.0
 40
30.0
  1
170
 50
90.0
 72
     1
 11
-597.4
 21
-85.0
 31
0.0
  0
POINT
  5
1C7
  8
DEFPOINTS
  6
CONTINUOUS
 62
    30
 10
-485.0
 20
0.0
 30
0.0
  0
POINT
  5
1C8
  8
DEFPOINTS
  6
CONTINUOUS
 62
    30
 10
-305.0
 20
-170.0
 30
0.0
  0
POINT
  5
1C9
  8
DEFPOINTS
  6
CONTINUOUS
 62
    30
 10
-587.4
 20
-170.0
 30
0.0
  0
LINE
  5
1CA
  8
NOTE
  6
CONTINUOUS
 10
-212.157318
 20
331.751709
 30
0.0
 11
285.0
 21
-69.307655
 31
0.0
  0
LINE
  5
1CB
  8
NOTE
  6
CONTINUOUS
 10
285.0
 20
-69.307655
 30
0.0
 11
283.171397
 21
-68.497586
 31
0.0
  0
LINE
  5
1CC
  8
NOTE
  6
CONTINUOUS
 10
285.0
 20
-69.307655
 30
0.0
 11
283.821418
 21
-67.691813
 31
0.0
  0
TEXT
  5
1CD
  8
NOTE
  6
CONTINUOUS
 10
680.0
 20
-1002.25
 30
0.0
 40
40.0
  1
メンテナンススペース
 50
90.000005
 41
0.84375
  7
STANDARD1
  0
TEXT
  5
1CE
  8
NOTE
  6
CONTINUOUS
 10
-202.25
 20
-1295.0
 30
0.0
 40
40.0
  1
メンテナンススペース
 50
0.000003
 41
0.84375
  7
STANDARD1
  0
LINE
  5
1CF
  8
NOTE
  6
CONTINUOUS
 10
-788.046936
 20
167.510986
 30
0.0
 11
-531.796936
 21
167.510986
 31
0.0
  0
LINE
  5
1D0
  8
NOTE
  6
CONTINUOUS
 10
-531.796936
 20
167.510986
 30
0.0
 11
-360.0
 21
80.0
 31
0.0
  0
LINE
  5
1D1
  8
NOTE
  6
CONTINUOUS
 10
-360.0
 20
80.0
 30
0.0
 11
-361.956341
 21
80.415607
 31
0.0
  0
LINE
  5
1D2
  8
NOTE
  6
CONTINUOUS
 10
-360.0
 20
80.0
 30
0.0
 11
-361.486438
 21
81.338097
 31
0.0
  0
TEXT
  5
1D3
  8
NOTE
  6
CONTINUOUS
 10
-788.046936
 20
168.510971
 30
0.0
 40
40.0
  1
AH 4-M10
 50
0.000003
 41
0.644737
  7
STANDARD1
  0
LINE
  5
1D4
  8
NOTE
  6
CONTINUOUS
 10
-360.0
 20
100.0
 30
0.0
 11
-360.0
 21
60.0
 31
0.0
  0
LINE
  5
1D5
  8
NOTE
  6
CONTINUOUS
 10
-340.0
 20
80.0
 30
0.0
 11
-380.0
 21
80.0
 31
0.0
  0
LINE
  5
1D6
  8
NOTE
  6
CONTINUOUS
 10
-300.0
 20
100.0
 30
0.0
 11
-300.0
 21
60.0
 31
0.0
  0
LINE
  5
1D7
  8
NOTE
  6
CONTINUOUS
 10
-320.0
 20
80.0
 30
0.0
 11
-280.0
 21
80.0
 31
0.0
  0
LINE
  5
1D8
  8
NOTE
  6
CONTINUOUS
 10
300.0
 20
100.0
 30
0.0
 11
300.0
 21
60.0
 31
0.0
  0
LINE
  5
1D9
  8
NOTE
  6
CONTINUOUS
 10
320.0
 20
80.0
 30
0.0
 11
280.0
 21
80.0
 31
0.0
  0
LINE
  5
1DA
  8
NOTE
  6
CONTINUOUS
 10
340.0
 20
80.0
 30
0.0
 11
380.0
 21
80.0
 31
0.0
  0
LINE
  5
1DB
  8
NOTE
  6
CONTINUOUS
 10
360.0
 20
100.0
 30
0.0
 11
360.0
 21
60.0
 31
0.0
  0
LINE
  5
1DC
  8
NOTE
  6
CONTINUOUS
 10
212.592697
 20
331.751709
 30
0.0
 11
-212.157318
 21
331.751709
 31
0.0
  0
LINE
  5
1DD
  8
NOTE
  6
CONTINUOUS
 10
-212.157318
 20
331.751709
 30
0.0
 11
-285.0
 21
-64.835205
 31
0.0
  0
LINE
  5
1DE
  8
NOTE
  6
CONTINUOUS
 10
-285.0
 20
-64.835205
 30
0.0
 11
-285.160129
 21
-62.841626
 31
0.0
  0
LINE
  5
1DF
  8
NOTE
  6
CONTINUOUS
 10
-285.0
 20
-64.835205
 30
0.0
 11
-284.141886
 21
-63.02865
 31
0.0
  0
TEXT
  5
1E0
  8
NOTE
  6
CONTINUOUS
 10
-151.407318
 20
332.751709
 30
0.0
 40
40.0
  1
上部振れ止め金具　
 41
0.84375
  7
STANDARD1
  0
CIRCLE
  5
1E1
  8
ARRANGE
  6
CONTINUOUS
 10
0.0
 20
0.0
 30
0.0
 40
15.0
  0
CIRCLE
  5
1E2
  8
FIX
  6
CONTINUOUS
 10
360.0
 20
80.0
 30
0.0
 40
5.0
  0
CIRCLE
  5
1E3
  8
FIX
  6
CONTINUOUS
 10
300.0
 20
80.0
 30
0.0
 40
5.0
  0
CIRCLE
  5
1E4
  8
FIX
  6
CONTINUOUS
 10
-300.0
 20
80.0
 30
0.0
 40
5.0
  0
CIRCLE
  5
1E5
  8
FIX
  6
CONTINUOUS
 10
-360.0
 20
80.0
 30
0.0
 40
5.0
  0
LINE
  5
1E6
  8
SERVICESPACE
  6
DASHDOT
 10
-485.0
 20
-500.0
 30
0.0
 11
485.0
 21
-1100.0
 31
0.0
  0
LINE
  5
1E7
  8
SERVICESPACE
  6
DASHDOT
 10
485.0
 20
-500.0
 30
0.0
 11
-485.0
 21
-1100.0
 31
0.0
  0
LINE
  5
1E8
  8
SERVICESPACE
  6
DASHDOT
 10
-485.0
 20
-500.0
 30
0.0
 11
485.0
 21
-500.0
 31
0.0
  0
LINE
  5
1E9
  8
SERVICESPACE
  6
DASHDOT
 10
485.0
 20
-1100.0
 30
0.0
 11
-485.0
 21
-1100.0
 31
0.0
  0
LINE
  5
1EA
  8
SERVICESPACE
  6
DASHDOT
 10
485.0
 20
-1100.0
 30
0.0
 11
485.0
 21
-500.0
 31
0.0
  0
LINE
  5
1EB
  8
SERVICESPACE
  6
DASHDOT
 10
-485.0
 20
-1100.0
 30
0.0
 11
-485.0
 21
-500.0
 31
0.0
  0
TEXT
  5
1EC
  8
ETC
  6
CONTINUOUS
 10
601.134277
 20
240.198639
 30
0.0
 40
40.0
  1
TG3764S1
 50
0.000003
 41
0.6125
  7
STANDARD1
  0
TEXT
  5
1ED
  8
ETC
  6
CONTINUOUS
 10
601.134277
 20
170.198639
 30
0.0
 40
40.0
  1
電気温水器
 50
0.000003
 41
0.84375
  7
STANDARD1
  0
ENDSEC
  0
EOF
