  0
SECTION
  2
HEADER
  9
$ACADVER
  1
AC1009
  9
$INSBASE
 10
0.0
 20
0.0
 30
0.0
  9
$EXTMIN
 10
-884.350222
 20
-560.1
 30
0.0
  9
$EXTMAX
 10
1059.914795
 20
2762.4
 30
0.0
  9
$LIMMIN
 10
0.0
 20
0.0
  9
$LIMMAX
 10
12.0
 20
9.0
  9
$ORTHOMODE
 70
     0
  9
$REGENMODE
 70
     1
  9
$FILLMODE
 70
     1
  9
$QTEXTMODE
 70
     0
  9
$MIRRTEXT
 70
     1
  9
$DRAGMODE
 70
     2
  9
$LTSCALE
 40
1.0
  9
$OSMODE
 70
     0
  9
$ATTMODE
 70
     1
  9
$TEXTSIZE
 40
7.0
  9
$TRACEWID
 40
0.05
  9
$TEXTSTYLE
  7
STANDARD1
  9
$CLAYER
  8
0
  9
$CELTYPE
  6
CONTINUOUS
  9
$CECOLOR
 62
   256
  9
$DIMSCALE
 40
1.0
  9
$DIMASZ
 40
10.0
  9
$DIMEXO
 40
10.0
  9
$DIMDLI
 40
8.0
  9
$DIMRND
 40
0.0
  9
$DIMDLE
 40
0.0
  9
$DIMEXE
 40
12.5
  9
$DIMTP
 40
0.0
  9
$DIMTM
 40
0.0
  9
$DIMTXT
 40
30.0
  9
$DIMCEN
 40
2.5
  9
$DIMTSZ
 40
0.0
  9
$DIMTOL
 70
     0
  9
$DIMLIM
 70
     0
  9
$DIMTIH
 70
     0
  9
$DIMTOH
 70
     0
  9
$DIMSE1
 70
     0
  9
$DIMSE2
 70
     0
  9
$DIMTAD
 70
     3
  9
$DIMZIN
 70
    12
  9
$DIMBLK
  1

  9
$DIMASO
 70
     1
  9
$DIMSHO
 70
     1
  9
$DIMPOST
  1

  9
$DIMAPOST
  1

  9
$DIMALT
 70
     0
  9
$DIMALTD
 70
     4
  9
$DIMALTF
 40
25.4
  9
$DIMLFAC
 40
1.0
  9
$DIMTOFL
 70
     1
  9
$DIMTVP
 40
0.0
  9
$DIMTIX
 70
     0
  9
$DIMSOXD
 70
     0
  9
$DIMSAH
 70
     1
  9
$DIMBLK1
  1
_ORIGIN
  9
$DIMBLK2
  1
_ORIGIN
  9
$DIMSTYLE
  2
STANDARD
  9
$DIMCLRD
 70
     0
  9
$DIMCLRE
 70
     0
  9
$DIMCLRT
 70
     0
  9
$DIMTFAC
 40
1.0
  9
$DIMGAP
 40
0.09
  9
$LUNITS
 70
     2
  9
$LUPREC
 70
     3
  9
$SKETCHINC
 40
0.1
  9
$FILLETRAD
 40
0.0
  9
$AUNITS
 70
     0
  9
$AUPREC
 70
     0
  9
$MENU
  1
acad
  9
$ELEVATION
 40
0.0
  9
$PELEVATION
 40
0.0
  9
$THICKNESS
 40
0.0
  9
$LIMCHECK
 70
     0
  9
$BLIPMODE
 70
     0
  9
$CHAMFERA
 40
0.0
  9
$CHAMFERB
 40
0.0
  9
$SKPOLY
 70
     0
  9
$TDCREATE
 40
2452583.411898
  9
$TDUPDATE
 40
2452583.411898
  9
$TDINDWG
 40
0.0
  9
$TDUSRTIMER
 40
0.0
  9
$USRTIMER
 70
     1
  9
$ANGBASE
 50
0.0
  9
$ANGDIR
 70
     0
  9
$PDMODE
 70
     0
  9
$PDSIZE
 40
0.0
  9
$PLINEWID
 40
0.0
  9
$COORDS
 70
     1
  9
$SPLFRAME
 70
     0
  9
$SPLINETYPE
 70
     6
  9
$SPLINESEGS
 70
     8
  9
$ATTDIA
 70
     0
  9
$ATTREQ
 70
     1
  9
$HANDLING
 70
     1
  9
$HANDSEED
  5
6F2
  9
$SURFTAB1
 70
     6
  9
$SURFTAB2
 70
     6
  9
$SURFTYPE
 70
     6
  9
$SURFU
 70
     6
  9
$SURFV
 70
     6
  9
$UCSNAME
  2

  9
$UCSORG
 10
0.0
 20
0.0
 30
0.0
  9
$UCSXDIR
 10
1.0
 20
0.0
 30
0.0
  9
$UCSYDIR
 10
0.0
 20
1.0
 30
0.0
  9
$PUCSNAME
  2

  9
$PUCSORG
 10
0.0
 20
0.0
 30
0.0
  9
$PUCSXDIR
 10
1.0
 20
0.0
 30
0.0
  9
$PUCSYDIR
 10
0.0
 20
1.0
 30
0.0
  9
$USERI1
 70
     0
  9
$USERI2
 70
     0
  9
$USERI3
 70
     0
  9
$USERI4
 70
     0
  9
$USERI5
 70
     0
  9
$USERR1
 40
0.0
  9
$USERR2
 40
0.0
  9
$USERR3
 40
0.0
  9
$USERR4
 40
0.0
  9
$USERR5
 40
0.0
  9
$WORLDVIEW
 70
     1
  9
$SHADEDGE
 70
     3
  9
$SHADEDIF
 70
    70
  9
$TILEMODE
 70
     1
  9
$MAXACTVP
 70
    48
  9
$PLIMCHECK
 70
     0
  9
$PEXTMIN
 10
1.000000E+020
 20
1.000000E+020
 30
1.000000E+020
  9
$PEXTMAX
 10
-1.000000E+020
 20
-1.000000E+020
 30
-1.000000E+020
  9
$PLIMMIN
 10
0.0
 20
0.0
  9
$PLIMMAX
 10
12.0
 20
9.0
  9
$UNITMODE
 70
     0
  9
$VISRETAIN
 70
     1
  9
$PLINEGEN
 70
     0
  9
$PSLTSCALE
 70
     1
  0
ENDSEC
  0
SECTION
  2
TABLES
  0
TABLE
  2
VPORT
 70
     2
  0
VPORT
  2
*ACTIVE
 70
     0
 10
0.0
 20
0.0
 11
1.0
 21
1.0
 12
87.782286
 22
1101.15
 13
0.0
 23
0.0
 14
1.0
 24
1.0
 15
0.0
 25
0.0
 16
0.0
 26
0.0
 36
1.0
 17
0.0
 27
0.0
 37
0.0
 40
3385.987261
 41
2.827476
 42
50.0
 43
0.0
 44
0.0
 50
0.0
 51
0.0
 71
     0
 72
   100
 73
     1
 74
     1
 75
     0
 76
     0
 77
     0
 78
     0
  0
ENDTAB
  0
TABLE
  2
LTYPE
 70
     4
  0
LTYPE
  2
CONTINUOUS
 70
     0
  3
Solid line
 72
    65
 73
     0
 40
0.0
  0
LTYPE
  2
DASHED
 70
     0
  3
-- -- -- -- -- -- -- -- -- -- -- -- -- -- --
 72
    65
 73
     2
 40
0.75
 49
0.5
 49
-0.25
  0
LTYPE
  2
DASHDOT
 70
     0
  3
__ . __ . __ . __ . __ . __ . __ . __ . __ . __
 72
    65
 73
     4
 40
125.0
 49
80.0
 49
-20.0
 49
5.0
 49
-20.0
  0
LTYPE
  2
DIVIDE
 70
     0
  3
__ . . __ . . __ . . __ . . __ . . __ . . __
 72
    65
 73
     6
 40
1.25
 49
0.5
 49
-0.25
 49
0.0
 49
-0.25
 49
0.0
 49
-0.25
  0
ENDTAB
  0
TABLE
  2
LAYER
 70
    12
  0
LAYER
  2
0
 70
     0
 62
     3
  6
CONTINUOUS
  0
LAYER
  2
OUTLINE
 70
     0
 62
     3
  6
CONTINUOUS
  0
LAYER
  2
DETAIL
 70
     0
 62
     5
  6
CONTINUOUS
  0
LAYER
  2
BASIS
 70
     0
 62
     6
  6
CONTINUOUS
  0
LAYER
  2
SIZE
 70
     0
 62
    30
  6
CONTINUOUS
  0
LAYER
  2
NOTE
 70
     0
 62
     4
  6
CONTINUOUS
  0
LAYER
  2
ARRANGE
 70
     0
 62
     1
  6
CONTINUOUS
  0
LAYER
  2
FIX
 70
     0
 62
    11
  6
CONTINUOUS
  0
LAYER
  2
SERVICESPACE
 70
     0
 62
     2
  6
CONTINUOUS
  0
LAYER
  2
ETC
 70
     0
 62
    61
  6
CONTINUOUS
  0
LAYER
  2
SYMBOLLINE
 70
     0
 62
     7
  6
CONTINUOUS
  0
LAYER
  2
DEFPOINTS
 70
     0
 62
     7
  6
CONTINUOUS
  0
ENDTAB
  0
TABLE
  2
STYLE
 70
     5
  0
STYLE
  2
STANDARD
 70
     0
 40
0.0
 41
1.0
 50
0.0
 71
     0
 42
0.2
  3
txt
  4

  0
STYLE
  2
STANDARD1
 70
     0
 40
0.0
 41
1.0
 50
0.0
 71
     0
 42
7.0
  3
MONOTXT
  4
BIGFONT
  0
STYLE
  2
STANDARD2
 70
     4
 40
0.0
 41
1.0
 50
0.0
 71
     0
 42
7.0
  3
MONOTXT
  4
BIGFONT
  0
STYLE
  2
STANDARD3
 70
     0
 40
0.0
 41
1.0
 50
0.0
 71
     0
 42
7.0
  3
MONOTXT
  4

  0
STYLE
  2
STANDARD4
 70
     4
 40
0.0
 41
1.0
 50
0.0
 71
     0
 42
7.0
  3
MONOTXT
  4

  0
ENDTAB
  0
TABLE
  2
VIEW
 70
     0
  0
ENDTAB
  0
TABLE
  2
UCS
 70
     0
  0
ENDTAB
  0
TABLE
  2
APPID
 70
     1
  0
APPID
  2
ACAD
 70
     0
  0
ENDTAB
  0
TABLE
  2
DIMSTYLE
 70
     1
  0
DIMSTYLE
  2
STANDARD
 70
     0
  3

  4

  5

  6

  7

 40
1.0
 41
0.18
 42
0.0625
 43
0.38
 44
0.18
 45
0.0
 46
0.0
 47
0.0
 48
0.0
140
0.18
141
0.09
142
0.0
143
25.4
144
1.0
145
0.0
146
1.0
147
0.09
 71
     0
 72
     0
 73
     1
 74
     1
 75
     0
 76
     0
 77
     0
 78
     0
170
     0
171
     2
172
     0
173
     0
174
     0
175
     0
176
     0
177
     0
178
     0
  0
ENDTAB
  0
ENDSEC
  0
SECTION
  2
BLOCKS
  0
BLOCK
  8
0
  2
$MODEL_SPACE
 70
     0
 10
0.0
 20
0.0
 30
0.0
  3
$MODEL_SPACE
  1

  0
ENDBLK
  5
1A
  8
0
  0
BLOCK
 67
     1
  8
0
  2
$PAPER_SPACE
 70
     0
 10
0.0
 20
0.0
 30
0.0
  3
$PAPER_SPACE
  1

  0
ENDBLK
  5
17
 67
     1
  8
0
  0
BLOCK
  8
SIZE
  2
*D0
 70
     1
 10
0.0
 20
0.0
 30
0.0
  3
*D0
  1

  0
TEXT
  5
35
  8
SIZE
  6
CONTINUOUS
 10
-82.440002
 20
-249.000006
 30
0.0
 40
2.8
  1
159
 50
0.000003
 41
0.7
  7
STANDARD1
  0
LINE
  5
36
  8
SIZE
  6
CONTINUOUS
 10
-159.0
 20
179.0
 30
0.0
 11
-159.0
 21
-252.0
 31
0.0
  0
LINE
  5
37
  8
SIZE
  6
CONTINUOUS
 10
0.0
 20
-51.0
 30
0.0
 11
0.0
 21
-252.0
 31
0.0
  0
LINE
  5
38
  8
SIZE
  6
CONTINUOUS
 10
-159.0
 20
-250.0
 30
0.0
 11
0.0
 21
-250.0
 31
0.0
  0
INSERT
  5
3A
  8
SIZE
  2
DOT
 10
-159.0
 20
-250.0
 30
0.0
 50
180.0
  0
INSERT
  5
3B
  8
SIZE
  2
DOT
 10
0.0
 20
-250.0
 30
0.0
  0
POINT
  5
3C
  8
DEFPOINTS
  6
BYBLOCK
 10
0.0
 20
-50.0
 30
0.0
  0
POINT
  5
3D
  8
DEFPOINTS
  6
BYBLOCK
 10
-159.0
 20
180.0
 30
0.0
  0
POINT
  5
3E
  8
DEFPOINTS
  6
BYBLOCK
 10
-159.0
 20
-250.0
 30
0.0
  0
ENDBLK
  5
3F
  8
SIZE
  0
BLOCK
  8
SIZE
  2
DOT
 70
     0
 10
0.0
 20
0.0
 30
0.0
  3
DOT
  1

  0
POLYLINE
  5
41
  8
0
  6
BYBLOCK
 66
     1
 10
0.0
 20
0.0
 30
0.0
 70
     1
 40
0.5
 41
0.5
  0
VERTEX
  5
42
  8
0
  6
BYBLOCK
 10
-0.25
 20
0.0
 30
0.0
 42
1.0
  0
VERTEX
  5
43
  8
0
  6
BYBLOCK
 10
0.25
 20
0.0
 30
0.0
 42
1.0
  0
SEQEND
  5
44
  8
0
  6
BYBLOCK
  0
LINE
  5
45
  8
0
  6
BYBLOCK
 10
-0.5
 20
0.0
 30
0.0
 11
-1.0
 21
0.0
 31
0.0
  0
ENDBLK
  5
46
  8
SIZE
  0
BLOCK
  8
SIZE
  2
*D2
 70
     1
 10
0.0
 20
0.0
 30
0.0
  3
*D2
  1

  0
TEXT
  5
49
  8
SIZE
  6
CONTINUOUS
 10
40.540001
 20
-249.000006
 30
0.0
 40
2.8
  1
85
 50
0.000003
 41
0.7
  7
STANDARD1
  0
LINE
  5
4A
  8
SIZE
  6
CONTINUOUS
 10
0.0
 20
-51.0
 30
0.0
 11
0.0
 21
-252.0
 31
0.0
  0
LINE
  5
4B
  8
SIZE
  6
CONTINUOUS
 10
85.0
 20
179.0
 30
0.0
 11
85.0
 21
-252.0
 31
0.0
  0
LINE
  5
4C
  8
SIZE
  6
CONTINUOUS
 10
0.0
 20
-250.0
 30
0.0
 11
85.0
 21
-250.0
 31
0.0
  0
INSERT
  5
4D
  8
SIZE
  2
DOT
 10
0.0
 20
-250.0
 30
0.0
 50
180.0
  0
INSERT
  5
4E
  8
SIZE
  2
DOT
 10
85.0
 20
-250.0
 30
0.0
  0
POINT
  5
4F
  8
DEFPOINTS
  6
BYBLOCK
 10
85.0
 20
180.0
 30
0.0
  0
POINT
  5
50
  8
DEFPOINTS
  6
BYBLOCK
 10
0.0
 20
-50.0
 30
0.0
  0
POINT
  5
51
  8
DEFPOINTS
  6
BYBLOCK
 10
0.0
 20
-250.0
 30
0.0
  0
ENDBLK
  5
52
  8
SIZE
  0
BLOCK
  8
SIZE
  2
*D3
 70
     1
 10
0.0
 20
0.0
 30
0.0
  3
*D3
  1

  0
TEXT
  5
55
  8
SIZE
  6
CONTINUOUS
 10
-46.959999
 20
-149.000006
 30
0.0
 40
2.8
  1
84
 50
0.000003
 41
0.7
  7
STANDARD1
  0
LINE
  5
56
  8
SIZE
  6
CONTINUOUS
 10
-87.0
 20
179.0
 30
0.0
 11
-87.0
 21
-152.0
 31
0.0
  0
LINE
  5
57
  8
SIZE
  6
CONTINUOUS
 10
-3.0
 20
179.0
 30
0.0
 11
-3.0
 21
-152.0
 31
0.0
  0
LINE
  5
58
  8
SIZE
  6
CONTINUOUS
 10
-87.0
 20
-150.0
 30
0.0
 11
-3.0
 21
-150.0
 31
0.0
  0
INSERT
  5
59
  8
SIZE
  2
DOT
 10
-87.0
 20
-150.0
 30
0.0
 50
180.0
  0
INSERT
  5
5A
  8
SIZE
  2
DOT
 10
-3.0
 20
-150.0
 30
0.0
  0
POINT
  5
5B
  8
DEFPOINTS
  6
BYBLOCK
 10
-3.0
 20
180.0
 30
0.0
  0
POINT
  5
5C
  8
DEFPOINTS
  6
BYBLOCK
 10
-87.0
 20
180.0
 30
0.0
  0
POINT
  5
5D
  8
DEFPOINTS
  6
BYBLOCK
 10
-87.0
 20
-150.0
 30
0.0
  0
ENDBLK
  5
5E
  8
SIZE
  0
BLOCK
  8
SIZE
  2
*D4
 70
     1
 10
0.0
 20
0.0
 30
0.0
  3
*D4
  1

  0
TEXT
  5
61
  8
SIZE
  6
CONTINUOUS
 10
33.27153
 20
-149.000006
 30
0.0
 40
2.8
  1
3
 50
0.000003
 41
0.7
  7
STANDARD1
  0
LINE
  5
62
  8
SIZE
  6
CONTINUOUS
 10
-3.0
 20
179.0
 30
0.0
 11
-3.0
 21
-152.0
 31
0.0
  0
LINE
  5
63
  8
SIZE
  6
CONTINUOUS
 10
0.0
 20
-51.0
 30
0.0
 11
0.0
 21
-152.0
 31
0.0
  0
LINE
  5
64
  8
SIZE
  6
CONTINUOUS
 10
-8.0
 20
-150.0
 30
0.0
 11
36.631531
 21
-150.0
 31
0.0
  0
INSERT
  5
65
  8
SIZE
  2
DOT
 10
-3.0
 20
-150.0
 30
0.0
 50
180.0
  0
INSERT
  5
66
  8
SIZE
  2
DOT
 10
0.0
 20
-150.0
 30
0.0
  0
POINT
  5
67
  8
DEFPOINTS
  6
BYBLOCK
 10
0.0
 20
-50.0
 30
0.0
  0
POINT
  5
68
  8
DEFPOINTS
  6
BYBLOCK
 10
-3.0
 20
180.0
 30
0.0
  0
POINT
  5
69
  8
DEFPOINTS
  6
BYBLOCK
 10
-3.0
 20
-150.0
 30
0.0
  0
ENDBLK
  5
6A
  8
SIZE
  0
BLOCK
  8
SIZE
  2
*D5
 70
     1
 10
0.0
 20
0.0
 30
0.0
  3
*D5
  1

  0
TEXT
  5
6D
  8
SIZE
  6
CONTINUOUS
 10
-516.000024
 20
81.349999
 30
0.0
 40
2.8
  1
172.5
 50
90.000005
 41
0.7
  7
STANDARD1
  0
LINE
  5
6E
  8
SIZE
  6
CONTINUOUS
 10
-154.82309
 20
172.5
 30
0.0
 11
-517.0
 21
172.5
 31
0.0
  0
LINE
  5
6F
  8
SIZE
  6
CONTINUOUS
 10
-316.0
 20
0.0
 30
0.0
 11
-517.0
 21
0.0
 31
0.0
  0
LINE
  5
70
  8
SIZE
  6
CONTINUOUS
 10
-515.0
 20
172.5
 30
0.0
 11
-515.0
 21
0.0
 31
0.0
  0
INSERT
  5
71
  8
SIZE
  2
DOT
 10
-515.0
 20
172.5
 30
0.0
 50
90.0
  0
INSERT
  5
72
  8
SIZE
  2
DOT
 10
-515.0
 20
0.0
 30
0.0
 50
270.0
  0
POINT
  5
73
  8
DEFPOINTS
  6
BYBLOCK
 10
-315.0
 20
0.0
 30
0.0
  0
POINT
  5
74
  8
DEFPOINTS
  6
BYBLOCK
 10
-153.82309
 20
172.5
 30
0.0
  0
POINT
  5
75
  8
DEFPOINTS
  6
BYBLOCK
 10
-515.0
 20
172.5
 30
0.0
  0
ENDBLK
  5
76
  8
SIZE
  0
BLOCK
  8
SIZE
  2
*D6
 70
     1
 10
0.0
 20
0.0
 30
0.0
  3
*D6
  1

  0
TEXT
  5
79
  8
SIZE
  6
CONTINUOUS
 10
191.850006
 20
1852.000024
 30
0.0
 40
2.8
  1
236.5
 50
0.000003
 41
0.7
  7
STANDARD1
  0
LINE
  5
7A
  8
SIZE
  6
CONTINUOUS
 10
78.5
 20
2008.0
 30
0.0
 11
78.5
 21
1849.0
 31
0.0
  0
LINE
  5
7B
  8
SIZE
  6
CONTINUOUS
 10
78.5
 20
1851.0
 30
0.0
 11
315.0
 21
1851.0
 31
0.0
  0
INSERT
  5
7C
  8
SIZE
  2
DOT
 10
78.5
 20
1851.0
 30
0.0
 50
180.0
  0
INSERT
  5
7D
  8
SIZE
  2
DOT
 10
315.0
 20
1851.0
 30
0.0
  0
POINT
  5
7E
  8
DEFPOINTS
  6
BYBLOCK
 10
315.0
 20
2170.0
 30
0.0
  0
POINT
  5
7F
  8
DEFPOINTS
  6
BYBLOCK
 10
78.5
 20
2009.0
 30
0.0
  0
POINT
  5
80
  8
DEFPOINTS
  6
BYBLOCK
 10
78.5
 20
1851.0
 30
0.0
  0
ENDBLK
  5
81
  8
SIZE
  0
BLOCK
  8
SIZE
  2
*D7
 70
     1
 10
0.0
 20
0.0
 30
0.0
  3
*D7
  1

  0
TEXT
  5
84
  8
SIZE
  6
CONTINUOUS
 10
-2.94
 20
1852.000024
 30
0.0
 40
2.8
  1
157
 50
0.000003
 41
0.7
  7
STANDARD1
  0
LINE
  5
85
  8
SIZE
  6
CONTINUOUS
 10
-78.5
 20
2008.0
 30
0.0
 11
-78.5
 21
1849.0
 31
0.0
  0
LINE
  5
86
  8
SIZE
  6
CONTINUOUS
 10
78.5
 20
2008.0
 30
0.0
 11
78.5
 21
1849.0
 31
0.0
  0
LINE
  5
87
  8
SIZE
  6
CONTINUOUS
 10
-78.5
 20
1851.0
 30
0.0
 11
78.5
 21
1851.0
 31
0.0
  0
INSERT
  5
88
  8
SIZE
  2
DOT
 10
-78.5
 20
1851.0
 30
0.0
 50
180.0
  0
INSERT
  5
89
  8
SIZE
  2
DOT
 10
78.5
 20
1851.0
 30
0.0
  0
POINT
  5
8A
  8
DEFPOINTS
  6
BYBLOCK
 10
78.5
 20
2009.0
 30
0.0
  0
POINT
  5
8B
  8
DEFPOINTS
  6
BYBLOCK
 10
-78.5
 20
2009.0
 30
0.0
  0
POINT
  5
8C
  8
DEFPOINTS
  6
BYBLOCK
 10
-78.5
 20
1851.0
 30
0.0
  0
ENDBLK
  5
8D
  8
SIZE
  0
BLOCK
  8
SIZE
  2
*D8
 70
     1
 10
0.0
 20
0.0
 30
0.0
  3
*D8
  1

  0
TEXT
  5
90
  8
SIZE
  6
CONTINUOUS
 10
198.559998
 20
1599.000024
 30
0.0
 40
2.8
  1
157
 50
0.000003
 41
0.7
  7
STANDARD1
  0
LINE
  5
91
  8
SIZE
  6
CONTINUOUS
 10
123.0
 20
1491.0
 30
0.0
 11
123.0
 21
1600.0
 31
0.0
  0
LINE
  5
92
  8
SIZE
  6
CONTINUOUS
 10
280.0
 20
1491.0
 30
0.0
 11
280.0
 21
1600.0
 31
0.0
  0
LINE
  5
93
  8
SIZE
  6
CONTINUOUS
 10
123.0
 20
1598.0
 30
0.0
 11
280.0
 21
1598.0
 31
0.0
  0
INSERT
  5
94
  8
SIZE
  2
DOT
 10
123.0
 20
1598.0
 30
0.0
 50
180.0
  0
INSERT
  5
95
  8
SIZE
  2
DOT
 10
280.0
 20
1598.0
 30
0.0
  0
POINT
  5
96
  8
DEFPOINTS
  6
BYBLOCK
 10
280.0
 20
1490.0
 30
0.0
  0
POINT
  5
97
  8
DEFPOINTS
  6
BYBLOCK
 10
123.0
 20
1490.0
 30
0.0
  0
POINT
  5
98
  8
DEFPOINTS
  6
BYBLOCK
 10
123.0
 20
1598.0
 30
0.0
  0
ENDBLK
  5
99
  8
SIZE
  0
BLOCK
  8
SIZE
  2
*D9
 70
     1
 10
0.0
 20
0.0
 30
0.0
  3
*D9
  1

  0
TEXT
  5
9C
  8
SIZE
  6
CONTINUOUS
 10
347.034943
 20
1599.000024
 30
0.0
 40
2.8
  1
35
 50
0.000003
 41
0.7
  7
STANDARD1
  0
LINE
  5
9D
  8
SIZE
  6
CONTINUOUS
 10
280.0
 20
1491.0
 30
0.0
 11
280.0
 21
1600.0
 31
0.0
  0
LINE
  5
9E
  8
SIZE
  6
CONTINUOUS
 10
275.0
 20
1598.0
 30
0.0
 11
352.35495
 21
1598.0
 31
0.0
  0
INSERT
  5
9F
  8
SIZE
  2
DOT
 10
280.0
 20
1598.0
 30
0.0
 50
180.0
  0
INSERT
  5
A0
  8
SIZE
  2
DOT
 10
315.0
 20
1598.0
 30
0.0
  0
POINT
  5
A1
  8
DEFPOINTS
  6
BYBLOCK
 10
315.0
 20
2170.0
 30
0.0
  0
POINT
  5
A2
  8
DEFPOINTS
  6
BYBLOCK
 10
280.0
 20
1490.0
 30
0.0
  0
POINT
  5
A3
  8
DEFPOINTS
  6
BYBLOCK
 10
280.0
 20
1598.0
 30
0.0
  0
ENDBLK
  5
A4
  8
SIZE
  0
BLOCK
  8
SIZE
  2
*D10
 70
     1
 10
0.0
 20
0.0
 30
0.0
  3
*D10
  1

  0
TEXT
  5
A7
  8
SIZE
  6
CONTINUOUS
 10
563.999976
 20
996.580017
 30
0.0
 40
2.8
  1
2001
 50
90.000005
 41
0.7
  7
STANDARD1
  0
LINE
  5
A8
  8
SIZE
  6
CONTINUOUS
 10
71.5
 20
2001.0
 30
0.0
 11
567.0
 21
2001.0
 31
0.0
  0
LINE
  5
A9
  8
SIZE
  6
CONTINUOUS
 10
311.0
 20
0.0
 30
0.0
 11
567.0
 21
0.0
 31
0.0
  0
LINE
  5
AA
  8
SIZE
  6
CONTINUOUS
 10
565.0
 20
2001.0
 30
0.0
 11
565.0
 21
0.0
 31
0.0
  0
INSERT
  5
AB
  8
SIZE
  2
DOT
 10
565.0
 20
2001.0
 30
0.0
 50
90.0
  0
INSERT
  5
AC
  8
SIZE
  2
DOT
 10
565.0
 20
0.0
 30
0.0
 50
270.0
  0
POINT
  5
AD
  8
DEFPOINTS
  6
BYBLOCK
 10
310.0
 20
0.0
 30
0.0
  0
POINT
  5
AE
  8
DEFPOINTS
  6
BYBLOCK
 10
70.5
 20
2001.0
 30
0.0
  0
POINT
  5
AF
  8
DEFPOINTS
  6
BYBLOCK
 10
565.0
 20
2001.0
 30
0.0
  0
ENDBLK
  5
B0
  8
SIZE
  0
BLOCK
  8
SIZE
  2
*D11
 70
     1
 10
0.0
 20
0.0
 30
0.0
  3
*D11
  1

  0
TEXT
  5
B3
  8
SIZE
  6
CONTINUOUS
 10
563.999976
 20
2063.060059
 30
0.0
 40
2.8
  1
130
 50
90.000005
 41
0.7
  7
STANDARD1
  0
LINE
  5
B4
  8
SIZE
  6
CONTINUOUS
 10
71.5
 20
2001.0
 30
0.0
 11
567.0
 21
2001.0
 31
0.0
  0
LINE
  5
B5
  8
SIZE
  6
CONTINUOUS
 10
71.5
 20
2131.0
 30
0.0
 11
567.0
 21
2131.0
 31
0.0
  0
LINE
  5
B6
  8
SIZE
  6
CONTINUOUS
 10
565.0
 20
2001.0
 30
0.0
 11
565.0
 21
2131.0
 31
0.0
  0
INSERT
  5
B7
  8
SIZE
  2
DOT
 10
565.0
 20
2001.0
 30
0.0
 50
270.0
  0
INSERT
  5
B8
  8
SIZE
  2
DOT
 10
565.0
 20
2131.0
 30
0.0
 50
90.0
  0
POINT
  5
B9
  8
DEFPOINTS
  6
BYBLOCK
 10
70.5
 20
2131.0
 30
0.0
  0
POINT
  5
BA
  8
DEFPOINTS
  6
BYBLOCK
 10
70.5
 20
2001.0
 30
0.0
  0
POINT
  5
BB
  8
DEFPOINTS
  6
BYBLOCK
 10
565.0
 20
2001.0
 30
0.0
  0
ENDBLK
  5
BC
  8
SIZE
  0
BLOCK
  8
SIZE
  2
*D12
 70
     1
 10
0.0
 20
0.0
 30
0.0
  3
*D12
  1

  0
TEXT
  5
BF
  8
SIZE
  6
CONTINUOUS
 10
464.000006
 20
1430.060059
 30
0.0
 40
2.8
  1
130
 50
90.000005
 41
0.7
  7
STANDARD1
  0
LINE
  5
C0
  8
SIZE
  6
CONTINUOUS
 10
273.0
 20
1368.0
 30
0.0
 11
467.0
 21
1368.0
 31
0.0
  0
LINE
  5
C1
  8
SIZE
  6
CONTINUOUS
 10
273.0
 20
1498.0
 30
0.0
 11
467.0
 21
1498.0
 31
0.0
  0
LINE
  5
C2
  8
SIZE
  6
CONTINUOUS
 10
465.0
 20
1368.0
 30
0.0
 11
465.0
 21
1498.0
 31
0.0
  0
INSERT
  5
C3
  8
SIZE
  2
DOT
 10
465.0
 20
1368.0
 30
0.0
 50
270.0
  0
INSERT
  5
C4
  8
SIZE
  2
DOT
 10
465.0
 20
1498.0
 30
0.0
 50
90.0
  0
POINT
  5
C5
  8
DEFPOINTS
  6
BYBLOCK
 10
272.0
 20
1498.0
 30
0.0
  0
POINT
  5
C6
  8
DEFPOINTS
  6
BYBLOCK
 10
272.0
 20
1368.0
 30
0.0
  0
POINT
  5
C7
  8
DEFPOINTS
  6
BYBLOCK
 10
465.0
 20
1368.0
 30
0.0
  0
ENDBLK
  5
C8
  8
SIZE
  0
BLOCK
  8
SIZE
  2
*D13
 70
     1
 10
0.0
 20
0.0
 30
0.0
  3
*D13
  1

  0
TEXT
  5
CB
  8
SIZE
  6
CONTINUOUS
 10
464.000006
 20
680.080017
 30
0.0
 40
2.8
  1
1368
 50
90.000005
 41
0.7
  7
STANDARD1
  0
LINE
  5
CC
  8
SIZE
  6
CONTINUOUS
 10
273.0
 20
1368.0
 30
0.0
 11
467.0
 21
1368.0
 31
0.0
  0
LINE
  5
CD
  8
SIZE
  6
CONTINUOUS
 10
311.0
 20
0.0
 30
0.0
 11
467.0
 21
0.0
 31
0.0
  0
LINE
  5
CE
  8
SIZE
  6
CONTINUOUS
 10
465.0
 20
1368.0
 30
0.0
 11
465.0
 21
0.0
 31
0.0
  0
INSERT
  5
CF
  8
SIZE
  2
DOT
 10
465.0
 20
1368.0
 30
0.0
 50
90.0
  0
INSERT
  5
D0
  8
SIZE
  2
DOT
 10
465.0
 20
0.0
 30
0.0
 50
270.0
  0
POINT
  5
D1
  8
DEFPOINTS
  6
BYBLOCK
 10
310.0
 20
0.0
 30
0.0
  0
POINT
  5
D2
  8
DEFPOINTS
  6
BYBLOCK
 10
272.0
 20
1368.0
 30
0.0
  0
POINT
  5
D3
  8
DEFPOINTS
  6
BYBLOCK
 10
465.0
 20
1368.0
 30
0.0
  0
ENDBLK
  5
D4
  8
SIZE
  0
BLOCK
  8
SIZE
  2
*D14
 70
     1
 10
0.0
 20
0.0
 30
0.0
  3
*D14
  1

  0
TEXT
  5
D7
  8
SIZE
  6
CONTINUOUS
 10
-219.440002
 20
463.999994
 30
0.0
 40
2.8
  1
157
 50
0.000003
 41
0.7
  7
STANDARD1
  0
LINE
  5
D8
  8
SIZE
  6
CONTINUOUS
 10
-295.0
 20
356.0
 30
0.0
 11
-295.0
 21
465.0
 31
0.0
  0
LINE
  5
D9
  8
SIZE
  6
CONTINUOUS
 10
-138.0
 20
356.0
 30
0.0
 11
-138.0
 21
465.0
 31
0.0
  0
LINE
  5
DA
  8
SIZE
  6
CONTINUOUS
 10
-295.0
 20
463.0
 30
0.0
 11
-138.0
 21
463.0
 31
0.0
  0
INSERT
  5
DB
  8
SIZE
  2
DOT
 10
-295.0
 20
463.0
 30
0.0
 50
180.0
  0
INSERT
  5
DC
  8
SIZE
  2
DOT
 10
-138.0
 20
463.0
 30
0.0
  0
POINT
  5
DD
  8
DEFPOINTS
  6
BYBLOCK
 10
-138.0
 20
355.0
 30
0.0
  0
POINT
  5
DE
  8
DEFPOINTS
  6
BYBLOCK
 10
-295.0
 20
355.0
 30
0.0
  0
POINT
  5
DF
  8
DEFPOINTS
  6
BYBLOCK
 10
-295.0
 20
463.0
 30
0.0
  0
ENDBLK
  5
E0
  8
SIZE
  0
BLOCK
  8
SIZE
  2
*D15
 70
     1
 10
0.0
 20
0.0
 30
0.0
  3
*D15
  1

  0
TEXT
  5
E3
  8
SIZE
  6
CONTINUOUS
 10
-380.505096
 20
463.999994
 30
0.0
 40
2.8
  1
20
 50
0.000003
 41
0.7
  7
STANDARD1
  0
LINE
  5
E4
  8
SIZE
  6
CONTINUOUS
 10
-295.0
 20
356.0
 30
0.0
 11
-295.0
 21
465.0
 31
0.0
  0
LINE
  5
E5
  8
SIZE
  6
CONTINUOUS
 10
-290.0
 20
463.0
 30
0.0
 11
-381.90509
 21
463.0
 31
0.0
  0
INSERT
  5
E6
  8
SIZE
  2
DOT
 10
-295.0
 20
463.0
 30
0.0
  0
INSERT
  5
E7
  8
SIZE
  2
DOT
 10
-315.0
 20
463.0
 30
0.0
 50
180.0
  0
POINT
  5
E8
  8
DEFPOINTS
  6
BYBLOCK
 10
-315.0
 20
200.0
 30
0.0
  0
POINT
  5
E9
  8
DEFPOINTS
  6
BYBLOCK
 10
-295.0
 20
355.0
 30
0.0
  0
POINT
  5
EA
  8
DEFPOINTS
  6
BYBLOCK
 10
-295.0
 20
463.0
 30
0.0
  0
ENDBLK
  5
EB
  8
SIZE
  0
BLOCK
  8
SIZE
  2
*D16
 70
     1
 10
0.0
 20
0.0
 30
0.0
  3
*D16
  1

  0
TEXT
  5
EE
  8
SIZE
  6
CONTINUOUS
 10
-616.000024
 20
295.059998
 30
0.0
 40
2.8
  1
130
 50
90.000005
 41
0.7
  7
STANDARD1
  0
LINE
  5
EF
  8
SIZE
  6
CONTINUOUS
 10
-288.0
 20
363.0
 30
0.0
 11
-617.0
 21
363.0
 31
0.0
  0
LINE
  5
F0
  8
SIZE
  6
CONTINUOUS
 10
-288.0
 20
233.0
 30
0.0
 11
-617.0
 21
233.0
 31
0.0
  0
LINE
  5
F1
  8
SIZE
  6
CONTINUOUS
 10
-615.0
 20
363.0
 30
0.0
 11
-615.0
 21
233.0
 31
0.0
  0
INSERT
  5
F2
  8
SIZE
  2
DOT
 10
-615.0
 20
363.0
 30
0.0
 50
90.0
  0
INSERT
  5
F3
  8
SIZE
  2
DOT
 10
-615.0
 20
233.0
 30
0.0
 50
270.0
  0
POINT
  5
F4
  8
DEFPOINTS
  6
BYBLOCK
 10
-287.0
 20
233.0
 30
0.0
  0
POINT
  5
F5
  8
DEFPOINTS
  6
BYBLOCK
 10
-287.0
 20
363.0
 30
0.0
  0
POINT
  5
F6
  8
DEFPOINTS
  6
BYBLOCK
 10
-615.0
 20
363.0
 30
0.0
  0
ENDBLK
  5
F7
  8
SIZE
  0
BLOCK
  8
SIZE
  2
*D17
 70
     1
 10
0.0
 20
0.0
 30
0.0
  3
*D17
  1

  0
TEXT
  5
FA
  8
SIZE
  6
CONTINUOUS
 10
-616.000024
 20
113.559998
 30
0.0
 40
2.8
  1
233
 50
90.000005
 41
0.7
  7
STANDARD1
  0
LINE
  5
FB
  8
SIZE
  6
CONTINUOUS
 10
-311.0
 20
0.0
 30
0.0
 11
-617.0
 21
0.0
 31
0.0
  0
LINE
  5
FC
  8
SIZE
  6
CONTINUOUS
 10
-288.0
 20
233.0
 30
0.0
 11
-617.0
 21
233.0
 31
0.0
  0
LINE
  5
FD
  8
SIZE
  6
CONTINUOUS
 10
-615.0
 20
0.0
 30
0.0
 11
-615.0
 21
233.0
 31
0.0
  0
INSERT
  5
FE
  8
SIZE
  2
DOT
 10
-615.0
 20
0.0
 30
0.0
 50
270.0
  0
INSERT
  5
FF
  8
SIZE
  2
DOT
 10
-615.0
 20
233.0
 30
0.0
 50
90.0
  0
POINT
  5
100
  8
DEFPOINTS
  6
BYBLOCK
 10
-287.0
 20
233.0
 30
0.0
  0
POINT
  5
101
  8
DEFPOINTS
  6
BYBLOCK
 10
-310.0
 20
0.0
 30
0.0
  0
POINT
  5
102
  8
DEFPOINTS
  6
BYBLOCK
 10
-615.0
 20
0.0
 30
0.0
  0
ENDBLK
  5
103
  8
SIZE
  0
BLOCK
  8
SIZE
  2
*D18
 70
     1
 10
0.0
 20
0.0
 30
0.0
  3
*D18
  1

  0
TEXT
  5
106
  8
SIZE
  6
CONTINUOUS
 10
153.059998
 20
-249.000006
 30
0.0
 40
2.8
  1
142
 50
0.000003
 41
0.7
  7
STANDARD1
  0
LINE
  5
107
  8
SIZE
  6
CONTINUOUS
 10
85.0
 20
179.0
 30
0.0
 11
85.0
 21
-252.0
 31
0.0
  0
LINE
  5
108
  8
SIZE
  6
CONTINUOUS
 10
227.0
 20
179.0
 30
0.0
 11
227.0
 21
-252.0
 31
0.0
  0
LINE
  5
109
  8
SIZE
  6
CONTINUOUS
 10
85.0
 20
-250.0
 30
0.0
 11
227.0
 21
-250.0
 31
0.0
  0
INSERT
  5
10A
  8
SIZE
  2
DOT
 10
85.0
 20
-250.0
 30
0.0
 50
180.0
  0
INSERT
  5
10B
  8
SIZE
  2
DOT
 10
227.0
 20
-250.0
 30
0.0
  0
POINT
  5
10C
  8
DEFPOINTS
  6
BYBLOCK
 10
227.0
 20
180.0
 30
0.0
  0
POINT
  5
10D
  8
DEFPOINTS
  6
BYBLOCK
 10
85.0
 20
180.0
 30
0.0
  0
POINT
  5
10E
  8
DEFPOINTS
  6
BYBLOCK
 10
85.0
 20
-250.0
 30
0.0
  0
ENDBLK
  5
10F
  8
SIZE
  0
BLOCK
  8
SIZE
  2
*D19
 70
     1
 10
0.0
 20
0.0
 30
0.0
  3
*D19
  1

  0
TEXT
  5
112
  8
SIZE
  6
CONTINUOUS
 10
464.000006
 20
2222.090332
 30
0.0
 40
2.8
  1
30
 50
90.000005
 41
0.7
  7
STANDARD1
  0
LINE
  5
113
  8
SIZE
  6
CONTINUOUS
 10
263.703766
 20
2200.0
 30
0.0
 11
467.0
 21
2200.0
 31
0.0
  0
LINE
  5
114
  8
SIZE
  6
CONTINUOUS
 10
316.0
 20
2170.0
 30
0.0
 11
467.0
 21
2170.0
 31
0.0
  0
LINE
  5
115
  8
SIZE
  6
CONTINUOUS
 10
465.0
 20
2227.4104
 30
0.0
 11
465.0
 21
2165.0
 31
0.0
  0
INSERT
  5
116
  8
SIZE
  2
DOT
 10
465.0
 20
2200.0
 30
0.0
 50
90.0
  0
INSERT
  5
117
  8
SIZE
  2
DOT
 10
465.0
 20
2170.0
 30
0.0
 50
270.0
  0
POINT
  5
118
  8
DEFPOINTS
  6
BYBLOCK
 10
315.0
 20
2170.0
 30
0.0
  0
POINT
  5
119
  8
DEFPOINTS
  6
BYBLOCK
 10
262.703766
 20
2200.0
 30
0.0
  0
POINT
  5
11A
  8
DEFPOINTS
  6
BYBLOCK
 10
465.0
 20
2200.0
 30
0.0
  0
ENDBLK
  5
11B
  8
SIZE
  0
BLOCK
  8
SIZE
  2
*D20
 70
     1
 10
0.0
 20
0.0
 30
0.0
  3
*D20
  1

  0
TEXT
  5
11E
  8
SIZE
  6
CONTINUOUS
 10
-1.414172
 20
2570.999902
 30
0.0
 40
2.8
  1
90
 50
0.000003
 41
0.7
  7
STANDARD1
  0
LINE
  5
11F
  8
SIZE
  6
CONTINUOUS
 10
-45.0
 20
2211.0
 30
0.0
 11
-45.0
 21
2572.0
 31
0.0
  0
LINE
  5
120
  8
SIZE
  6
CONTINUOUS
 10
45.0
 20
2211.0
 30
0.0
 11
45.0
 21
2572.0
 31
0.0
  0
LINE
  5
121
  8
SIZE
  6
CONTINUOUS
 10
-45.0
 20
2570.0
 30
0.0
 11
45.0
 21
2570.0
 31
0.0
  0
INSERT
  5
122
  8
SIZE
  2
DOT
 10
-45.0
 20
2570.0
 30
0.0
 50
180.0
  0
INSERT
  5
123
  8
SIZE
  2
DOT
 10
45.0
 20
2570.0
 30
0.0
  0
POINT
  5
124
  8
DEFPOINTS
  6
BYBLOCK
 10
45.0
 20
2210.0
 30
0.0
  0
POINT
  5
125
  8
DEFPOINTS
  6
BYBLOCK
 10
-45.0
 20
2210.0
 30
0.0
  0
POINT
  5
126
  8
DEFPOINTS
  6
BYBLOCK
 10
-45.0
 20
2570.0
 30
0.0
  0
ENDBLK
  5
127
  8
SIZE
  0
BLOCK
  8
SIZE
  2
*D21
 70
     1
 10
0.0
 20
0.0
 30
0.0
  3
*D21
  1

  0
TEXT
  5
12A
  8
SIZE
  6
CONTINUOUS
 10
0.00224
 20
2720.999902
 30
0.0
 40
2.8
  1
630
 50
0.000003
 41
0.7
  7
STANDARD1
  0
LINE
  5
12B
  8
SIZE
  6
CONTINUOUS
 10
315.0
 20
2371.0
 30
0.0
 11
315.0
 21
2722.0
 31
0.0
  0
LINE
  5
12C
  8
SIZE
  6
CONTINUOUS
 10
-315.0
 20
2371.0
 30
0.0
 11
-315.0
 21
2722.0
 31
0.0
  0
LINE
  5
12D
  8
SIZE
  6
CONTINUOUS
 10
315.0
 20
2720.0
 30
0.0
 11
-315.0
 21
2720.0
 31
0.0
  0
INSERT
  5
12E
  8
SIZE
  2
DOT
 10
315.0
 20
2720.0
 30
0.0
  0
INSERT
  5
12F
  8
SIZE
  2
DOT
 10
-315.0
 20
2720.0
 30
0.0
 50
180.0
  0
POINT
  5
130
  8
DEFPOINTS
  6
BYBLOCK
 10
-315.0
 20
2370.0
 30
0.0
  0
POINT
  5
131
  8
DEFPOINTS
  6
BYBLOCK
 10
315.0
 20
2370.0
 30
0.0
  0
POINT
  5
132
  8
DEFPOINTS
  6
BYBLOCK
 10
315.0
 20
2720.0
 30
0.0
  0
ENDBLK
  5
133
  8
SIZE
  0
BLOCK
  8
SIZE
  2
*D22
 70
     1
 10
0.0
 20
0.0
 30
0.0
  3
*D22
  1

  0
TEXT
  5
136
  8
SIZE
  6
CONTINUOUS
 10
663.999976
 20
2266.856201
 30
0.0
 40
2.8
  1
200
 50
90.000005
 41
0.7
  7
STANDARD1
  0
LINE
  5
137
  8
SIZE
  6
CONTINUOUS
 10
316.0
 20
2370.0
 30
0.0
 11
667.0
 21
2370.0
 31
0.0
  0
LINE
  5
138
  8
SIZE
  6
CONTINUOUS
 10
316.0
 20
2170.0
 30
0.0
 11
667.0
 21
2170.0
 31
0.0
  0
LINE
  5
139
  8
SIZE
  6
CONTINUOUS
 10
665.0
 20
2370.0
 30
0.0
 11
665.0
 21
2170.0
 31
0.0
  0
INSERT
  5
13A
  8
SIZE
  2
DOT
 10
665.0
 20
2370.0
 30
0.0
 50
90.0
  0
INSERT
  5
13B
  8
SIZE
  2
DOT
 10
665.0
 20
2170.0
 30
0.0
 50
270.0
  0
POINT
  5
13C
  8
DEFPOINTS
  6
BYBLOCK
 10
315.0
 20
2170.0
 30
0.0
  0
POINT
  5
13D
  8
DEFPOINTS
  6
BYBLOCK
 10
315.0
 20
2370.0
 30
0.0
  0
POINT
  5
13E
  8
DEFPOINTS
  6
BYBLOCK
 10
665.0
 20
2370.0
 30
0.0
  0
ENDBLK
  5
13F
  8
SIZE
  0
BLOCK
  8
SIZE
  2
*D23
 70
     1
 10
0.0
 20
0.0
 30
0.0
  3
*D23
  1

  0
TEXT
  5
142
  8
SIZE
  6
CONTINUOUS
 10
-1.96
 20
2470.999902
 30
0.0
 40
2.8
  1
60
 50
0.000003
 41
0.7
  7
STANDARD1
  0
LINE
  5
143
  8
SIZE
  6
CONTINUOUS
 10
-30.0
 20
2214.0
 30
0.0
 11
-30.0
 21
2472.0
 31
0.0
  0
LINE
  5
144
  8
SIZE
  6
CONTINUOUS
 10
30.0
 20
2214.0
 30
0.0
 11
30.0
 21
2472.0
 31
0.0
  0
LINE
  5
145
  8
SIZE
  6
CONTINUOUS
 10
-30.0
 20
2470.0
 30
0.0
 11
30.0
 21
2470.0
 31
0.0
  0
INSERT
  5
146
  8
SIZE
  2
DOT
 10
-30.0
 20
2470.0
 30
0.0
 50
180.0
  0
INSERT
  5
147
  8
SIZE
  2
DOT
 10
30.0
 20
2470.0
 30
0.0
  0
POINT
  5
148
  8
DEFPOINTS
  6
BYBLOCK
 10
30.0
 20
2213.0
 30
0.0
  0
POINT
  5
149
  8
DEFPOINTS
  6
BYBLOCK
 10
-30.0
 20
2213.0
 30
0.0
  0
POINT
  5
14A
  8
DEFPOINTS
  6
BYBLOCK
 10
-30.0
 20
2470.0
 30
0.0
  0
ENDBLK
  5
14B
  8
SIZE
  0
BLOCK
  8
SIZE
  2
*D24
 70
     1
 10
0.0
 20
0.0
 30
0.0
  3
*D24
  1

  0
TEXT
  5
14E
  8
SIZE
  6
CONTINUOUS
 10
663.999976
 20
97.059998
 30
0.0
 40
2.8
  1
200
 50
90.000005
 41
0.7
  7
STANDARD1
  0
LINE
  5
14F
  8
SIZE
  6
CONTINUOUS
 10
311.0
 20
0.0
 30
0.0
 11
667.0
 21
0.0
 31
0.0
  0
LINE
  5
150
  8
SIZE
  6
CONTINUOUS
 10
316.0
 20
200.0
 30
0.0
 11
667.0
 21
200.0
 31
0.0
  0
LINE
  5
151
  8
SIZE
  6
CONTINUOUS
 10
665.0
 20
0.0
 30
0.0
 11
665.0
 21
200.0
 31
0.0
  0
INSERT
  5
152
  8
SIZE
  2
DOT
 10
665.0
 20
0.0
 30
0.0
 50
270.0
  0
INSERT
  5
153
  8
SIZE
  2
DOT
 10
665.0
 20
200.0
 30
0.0
 50
90.0
  0
POINT
  5
154
  8
DEFPOINTS
  6
BYBLOCK
 10
315.0
 20
200.0
 30
0.0
  0
POINT
  5
155
  8
DEFPOINTS
  6
BYBLOCK
 10
310.0
 20
0.0
 30
0.0
  0
POINT
  5
156
  8
DEFPOINTS
  6
BYBLOCK
 10
665.0
 20
0.0
 30
0.0
  0
ENDBLK
  5
157
  8
SIZE
  0
BLOCK
  8
SIZE
  2
*D25
 70
     1
 10
0.0
 20
0.0
 30
0.0
  3
*D25
  1

  0
TEXT
  5
15A
  8
SIZE
  6
CONTINUOUS
 10
3.020641
 20
-548.999976
 30
0.0
 40
2.8
  1
630
 50
0.000003
 41
0.7
  7
STANDARD1
  0
LINE
  5
15B
  8
SIZE
  6
CONTINUOUS
 10
-315.0
 20
199.0
 30
0.0
 11
-315.0
 21
-552.0
 31
0.0
  0
LINE
  5
15C
  8
SIZE
  6
CONTINUOUS
 10
315.0
 20
199.0
 30
0.0
 11
315.0
 21
-552.0
 31
0.0
  0
LINE
  5
15D
  8
SIZE
  6
CONTINUOUS
 10
-315.0
 20
-550.0
 30
0.0
 11
315.0
 21
-550.0
 31
0.0
  0
INSERT
  5
15E
  8
SIZE
  2
DOT
 10
-315.0
 20
-550.0
 30
0.0
 50
180.0
  0
INSERT
  5
15F
  8
SIZE
  2
DOT
 10
315.0
 20
-550.0
 30
0.0
  0
POINT
  5
160
  8
DEFPOINTS
  6
BYBLOCK
 10
315.0
 20
200.0
 30
0.0
  0
POINT
  5
161
  8
DEFPOINTS
  6
BYBLOCK
 10
-315.0
 20
200.0
 30
0.0
  0
POINT
  5
162
  8
DEFPOINTS
  6
BYBLOCK
 10
-315.0
 20
-550.0
 30
0.0
  0
ENDBLK
  5
163
  8
SIZE
  0
BLOCK
  8
SIZE
  2
*D26
 70
     1
 10
0.0
 20
0.0
 30
0.0
  3
*D26
  1

  0
TEXT
  5
166
  8
SIZE
  6
CONTINUOUS
 10
-2.94
 20
-449.000006
 30
0.0
 40
2.8
  1
402
 50
0.000003
 41
0.7
  7
STANDARD1
  0
LINE
  5
167
  8
SIZE
  6
CONTINUOUS
 10
201.0
 20
-21.0
 30
0.0
 11
201.0
 21
-452.0
 31
0.0
  0
LINE
  5
168
  8
SIZE
  6
CONTINUOUS
 10
-201.0
 20
-21.0
 30
0.0
 11
-201.0
 21
-452.0
 31
0.0
  0
LINE
  5
169
  8
SIZE
  6
CONTINUOUS
 10
201.0
 20
-450.0
 30
0.0
 11
-201.0
 21
-450.0
 31
0.0
  0
INSERT
  5
16A
  8
SIZE
  2
DOT
 10
201.0
 20
-450.0
 30
0.0
  0
INSERT
  5
16B
  8
SIZE
  2
DOT
 10
-201.0
 20
-450.0
 30
0.0
 50
180.0
  0
POINT
  5
16C
  8
DEFPOINTS
  6
BYBLOCK
 10
-201.0
 20
-20.0
 30
0.0
  0
POINT
  5
16D
  8
DEFPOINTS
  6
BYBLOCK
 10
201.0
 20
-20.0
 30
0.0
  0
POINT
  5
16E
  8
DEFPOINTS
  6
BYBLOCK
 10
201.0
 20
-450.0
 30
0.0
  0
ENDBLK
  5
16F
  8
SIZE
  0
BLOCK
  8
SIZE
  2
*D27
 70
     1
 10
0.0
 20
0.0
 30
0.0
  3
*D27
  1

  0
TEXT
  5
172
  8
SIZE
  6
CONTINUOUS
 10
246.039993
 20
-449.000006
 30
0.0
 40
2.8
  1
94
 50
0.000003
 41
0.7
  7
STANDARD1
  0
LINE
  5
173
  8
SIZE
  6
CONTINUOUS
 10
295.0
 20
-21.0
 30
0.0
 11
295.0
 21
-452.0
 31
0.0
  0
LINE
  5
174
  8
SIZE
  6
CONTINUOUS
 10
201.0
 20
-21.0
 30
0.0
 11
201.0
 21
-452.0
 31
0.0
  0
LINE
  5
175
  8
SIZE
  6
CONTINUOUS
 10
295.0
 20
-450.0
 30
0.0
 11
201.0
 21
-450.0
 31
0.0
  0
INSERT
  5
176
  8
SIZE
  2
DOT
 10
295.0
 20
-450.0
 30
0.0
  0
INSERT
  5
177
  8
SIZE
  2
DOT
 10
201.0
 20
-450.0
 30
0.0
 50
180.0
  0
POINT
  5
178
  8
DEFPOINTS
  6
BYBLOCK
 10
201.0
 20
-20.0
 30
0.0
  0
POINT
  5
179
  8
DEFPOINTS
  6
BYBLOCK
 10
295.0
 20
-20.0
 30
0.0
  0
POINT
  5
17A
  8
DEFPOINTS
  6
BYBLOCK
 10
295.0
 20
-450.0
 30
0.0
  0
ENDBLK
  5
17B
  8
SIZE
  0
BLOCK
  8
SIZE
  2
*D28
 70
     1
 10
0.0
 20
0.0
 30
0.0
  3
*D28
  1

  0
TEXT
  5
17E
  8
SIZE
  6
CONTINUOUS
 10
-249.960007
 20
-449.000006
 30
0.0
 40
2.8
  1
94
 50
0.000003
 41
0.7
  7
STANDARD1
  0
LINE
  5
17F
  8
SIZE
  6
CONTINUOUS
 10
-201.0
 20
-21.0
 30
0.0
 11
-201.0
 21
-452.0
 31
0.0
  0
LINE
  5
180
  8
SIZE
  6
CONTINUOUS
 10
-295.0
 20
-21.0
 30
0.0
 11
-295.0
 21
-452.0
 31
0.0
  0
LINE
  5
181
  8
SIZE
  6
CONTINUOUS
 10
-201.0
 20
-450.0
 30
0.0
 11
-295.0
 21
-450.0
 31
0.0
  0
INSERT
  5
182
  8
SIZE
  2
DOT
 10
-201.0
 20
-450.0
 30
0.0
  0
INSERT
  5
183
  8
SIZE
  2
DOT
 10
-295.0
 20
-450.0
 30
0.0
 50
180.0
  0
POINT
  5
184
  8
DEFPOINTS
  6
BYBLOCK
 10
-295.0
 20
-20.0
 30
0.0
  0
POINT
  5
185
  8
DEFPOINTS
  6
BYBLOCK
 10
-201.0
 20
-20.0
 30
0.0
  0
POINT
  5
186
  8
DEFPOINTS
  6
BYBLOCK
 10
-201.0
 20
-450.0
 30
0.0
  0
ENDBLK
  5
187
  8
SIZE
  0
BLOCK
  8
SIZE
  2
*D29
 70
     1
 10
0.0
 20
0.0
 30
0.0
  3
*D29
  1

  0
TEXT
  5
18A
  8
SIZE
  6
CONTINUOUS
 10
-2.94
 20
-349.000006
 30
0.0
 40
2.8
  1
496
 50
0.000003
 41
0.7
  7
STANDARD1
  0
LINE
  5
18B
  8
SIZE
  6
CONTINUOUS
 10
-248.0
 20
-21.0
 30
0.0
 11
-248.0
 21
-352.0
 31
0.0
  0
LINE
  5
18C
  8
SIZE
  6
CONTINUOUS
 10
248.0
 20
-21.0
 30
0.0
 11
248.0
 21
-352.0
 31
0.0
  0
LINE
  5
18D
  8
SIZE
  6
CONTINUOUS
 10
-248.0
 20
-350.0
 30
0.0
 11
248.0
 21
-350.0
 31
0.0
  0
INSERT
  5
18E
  8
SIZE
  2
DOT
 10
-248.0
 20
-350.0
 30
0.0
 50
180.0
  0
INSERT
  5
18F
  8
SIZE
  2
DOT
 10
248.0
 20
-350.0
 30
0.0
  0
POINT
  5
190
  8
DEFPOINTS
  6
BYBLOCK
 10
248.0
 20
-20.0
 30
0.0
  0
POINT
  5
191
  8
DEFPOINTS
  6
BYBLOCK
 10
-248.0
 20
-20.0
 30
0.0
  0
POINT
  5
192
  8
DEFPOINTS
  6
BYBLOCK
 10
-248.0
 20
-350.0
 30
0.0
  0
ENDBLK
  5
193
  8
SIZE
  0
BLOCK
  8
SIZE
  2
*D30
 70
     1
 10
0.0
 20
0.0
 30
0.0
  3
*D30
  1

  0
TEXT
  5
196
  8
SIZE
  6
CONTINUOUS
 10
-716.000024
 20
1092.579956
 30
0.0
 40
2.8
  1
2193
 50
90.000005
 41
0.7
  7
STANDARD1
  0
LINE
  5
197
  8
SIZE
  6
CONTINUOUS
 10
-311.0
 20
0.0
 30
0.0
 11
-717.0
 21
0.0
 31
0.0
  0
LINE
  5
198
  8
SIZE
  6
CONTINUOUS
 10
-51.0
 20
2193.0
 30
0.0
 11
-717.0
 21
2193.0
 31
0.0
  0
LINE
  5
199
  8
SIZE
  6
CONTINUOUS
 10
-715.0
 20
0.0
 30
0.0
 11
-715.0
 21
2193.0
 31
0.0
  0
INSERT
  5
19A
  8
SIZE
  2
DOT
 10
-715.0
 20
0.0
 30
0.0
 50
270.0
  0
INSERT
  5
19B
  8
SIZE
  2
DOT
 10
-715.0
 20
2193.0
 30
0.0
 50
90.0
  0
POINT
  5
19C
  8
DEFPOINTS
  6
BYBLOCK
 10
-50.0
 20
2193.0
 30
0.0
  0
POINT
  5
19D
  8
DEFPOINTS
  6
BYBLOCK
 10
-310.0
 20
0.0
 30
0.0
  0
POINT
  5
19E
  8
DEFPOINTS
  6
BYBLOCK
 10
-715.0
 20
0.0
 30
0.0
  0
ENDBLK
  5
19F
  8
SIZE
  0
BLOCK
  8
SIZE
  2
*D31
 70
     1
 10
0.0
 20
0.0
 30
0.0
  3
*D31
  1

  0
TEXT
  5
1A2
  8
SIZE
  6
CONTINUOUS
 10
-816.000024
 20
1093.653809
 30
0.0
 40
2.8
  1
2215
 50
90.000005
 41
0.7
  7
STANDARD1
  0
LINE
  5
1A3
  8
SIZE
  6
CONTINUOUS
 10
-41.0
 20
2215.0
 30
0.0
 11
-817.0
 21
2215.0
 31
0.0
  0
LINE
  5
1A4
  8
SIZE
  6
CONTINUOUS
 10
-311.0
 20
0.0
 30
0.0
 11
-817.0
 21
0.0
 31
0.0
  0
LINE
  5
1A5
  8
SIZE
  6
CONTINUOUS
 10
-815.0
 20
2215.0
 30
0.0
 11
-815.0
 21
0.0
 31
0.0
  0
INSERT
  5
1A6
  8
SIZE
  2
DOT
 10
-815.0
 20
2215.0
 30
0.0
 50
90.0
  0
INSERT
  5
1A7
  8
SIZE
  2
DOT
 10
-815.0
 20
0.0
 30
0.0
 50
270.0
  0
POINT
  5
1A8
  8
DEFPOINTS
  6
BYBLOCK
 10
-310.0
 20
0.0
 30
0.0
  0
POINT
  5
1A9
  8
DEFPOINTS
  6
BYBLOCK
 10
-40.0
 20
2215.0
 30
0.0
  0
POINT
  5
1AA
  8
DEFPOINTS
  6
BYBLOCK
 10
-815.0
 20
2215.0
 30
0.0
  0
ENDBLK
  5
1AB
  8
SIZE
  0
BLOCK
  8
SIZE
  2
*D32
 70
     1
 10
0.0
 20
0.0
 30
0.0
  3
*D32
  1

  0
TEXT
  5
1AE
  8
SIZE
  6
CONTINUOUS
 10
663.999976
 20
1181.079956
 30
0.0
 40
2.8
  1
1970
 50
90.000005
 41
0.7
  7
STANDARD1
  0
LINE
  5
1AF
  8
SIZE
  6
CONTINUOUS
 10
316.0
 20
200.0
 30
0.0
 11
667.0
 21
200.0
 31
0.0
  0
LINE
  5
1B0
  8
SIZE
  6
CONTINUOUS
 10
316.0
 20
2170.0
 30
0.0
 11
667.0
 21
2170.0
 31
0.0
  0
LINE
  5
1B1
  8
SIZE
  6
CONTINUOUS
 10
665.0
 20
200.0
 30
0.0
 11
665.0
 21
2170.0
 31
0.0
  0
INSERT
  5
1B2
  8
SIZE
  2
DOT
 10
665.0
 20
200.0
 30
0.0
 50
270.0
  0
INSERT
  5
1B3
  8
SIZE
  2
DOT
 10
665.0
 20
2170.0
 30
0.0
 50
90.0
  0
POINT
  5
1B4
  8
DEFPOINTS
  6
BYBLOCK
 10
315.0
 20
2170.0
 30
0.0
  0
POINT
  5
1B5
  8
DEFPOINTS
  6
BYBLOCK
 10
315.0
 20
200.0
 30
0.0
  0
POINT
  5
1B6
  8
DEFPOINTS
  6
BYBLOCK
 10
665.0
 20
200.0
 30
0.0
  0
ENDBLK
  5
1B7
  8
SIZE
  0
BLOCK
  8
SIZE
  2
*D33
 70
     1
 10
0.0
 20
0.0
 30
0.0
  3
*D33
  1

  0
TEXT
  5
1BA
  8
SIZE
  6
CONTINUOUS
 10
763.999976
 20
1186.091431
 30
0.0
 40
2.8
  1
2200
 50
90.000005
 41
0.7
  7
STANDARD1
  0
LINE
  5
1BB
  8
SIZE
  6
CONTINUOUS
 10
263.703766
 20
2200.0
 30
0.0
 11
767.0
 21
2200.0
 31
0.0
  0
LINE
  5
1BC
  8
SIZE
  6
CONTINUOUS
 10
311.0
 20
0.0
 30
0.0
 11
767.0
 21
0.0
 31
0.0
  0
LINE
  5
1BD
  8
SIZE
  6
CONTINUOUS
 10
765.0
 20
2200.0
 30
0.0
 11
765.0
 21
0.0
 31
0.0
  0
INSERT
  5
1BE
  8
SIZE
  2
DOT
 10
765.0
 20
2200.0
 30
0.0
 50
90.0
  0
INSERT
  5
1BF
  8
SIZE
  2
DOT
 10
765.0
 20
0.0
 30
0.0
 50
270.0
  0
POINT
  5
1C0
  8
DEFPOINTS
  6
BYBLOCK
 10
310.0
 20
0.0
 30
0.0
  0
POINT
  5
1C1
  8
DEFPOINTS
  6
BYBLOCK
 10
262.703766
 20
2200.0
 30
0.0
  0
POINT
  5
1C2
  8
DEFPOINTS
  6
BYBLOCK
 10
765.0
 20
2200.0
 30
0.0
  0
ENDBLK
  5
1C3
  8
SIZE
  0
BLOCK
  8
SIZE
  2
*D34
 70
     1
 10
0.0
 20
0.0
 30
0.0
  3
*D34
  1

  0
TEXT
  5
1C6
  8
SIZE
  6
CONTINUOUS
 10
-389.694427
 20
-249.000006
 30
0.0
 40
2.8
  1
75
 50
0.000003
 41
0.7
  7
STANDARD1
  0
LINE
  5
1C7
  8
SIZE
  6
CONTINUOUS
 10
-159.0
 20
179.0
 30
0.0
 11
-159.0
 21
-252.0
 31
0.0
  0
LINE
  5
1C8
  8
SIZE
  6
CONTINUOUS
 10
-234.0
 20
134.5
 30
0.0
 11
-234.0
 21
-252.0
 31
0.0
  0
LINE
  5
1C9
  8
SIZE
  6
CONTINUOUS
 10
-154.0
 20
-250.0
 30
0.0
 11
-391.094421
 21
-250.0
 31
0.0
  0
INSERT
  5
1CA
  8
SIZE
  2
DOT
 10
-159.0
 20
-250.0
 30
0.0
  0
INSERT
  5
1CB
  8
SIZE
  2
DOT
 10
-234.0
 20
-250.0
 30
0.0
 50
180.0
  0
POINT
  5
1CC
  8
DEFPOINTS
  6
BYBLOCK
 10
-234.0
 20
135.5
 30
0.0
  0
POINT
  5
1CD
  8
DEFPOINTS
  6
BYBLOCK
 10
-159.0
 20
180.0
 30
0.0
  0
POINT
  5
1CE
  8
DEFPOINTS
  6
BYBLOCK
 10
-159.0
 20
-250.0
 30
0.0
  0
ENDBLK
  5
1CF
  8
SIZE
  0
BLOCK
  8
SIZE
  2
*D35
 70
     1
 10
0.0
 20
0.0
 30
0.0
  3
*D35
  1

  0
TEXT
  5
1D2
  8
SIZE
  6
CONTINUOUS
 10
-415.999994
 20
72.849999
 30
0.0
 40
2.8
  1
155.5
 50
90.000005
 41
0.7
  7
STANDARD1
  0
LINE
  5
1D3
  8
SIZE
  6
CONTINUOUS
 10
-311.0
 20
0.0
 30
0.0
 11
-417.0
 21
0.0
 31
0.0
  0
LINE
  5
1D4
  8
SIZE
  6
CONTINUOUS
 10
-255.0
 20
155.5
 30
0.0
 11
-417.0
 21
155.5
 31
0.0
  0
LINE
  5
1D5
  8
SIZE
  6
CONTINUOUS
 10
-415.0
 20
0.0
 30
0.0
 11
-415.0
 21
155.5
 31
0.0
  0
INSERT
  5
1D6
  8
SIZE
  2
DOT
 10
-415.0
 20
0.0
 30
0.0
 50
270.0
  0
INSERT
  5
1D7
  8
SIZE
  2
DOT
 10
-415.0
 20
155.5
 30
0.0
 50
90.0
  0
POINT
  5
1D8
  8
DEFPOINTS
  6
BYBLOCK
 10
-254.0
 20
155.5
 30
0.0
  0
POINT
  5
1D9
  8
DEFPOINTS
  6
BYBLOCK
 10
-310.0
 20
0.0
 30
0.0
  0
POINT
  5
1DA
  8
DEFPOINTS
  6
BYBLOCK
 10
-415.0
 20
0.0
 30
0.0
  0
ENDBLK
  5
1DB
  8
SIZE
  0
BLOCK
  8
0
  2
_ORIGIN
 70
     0
 10
0.0
 20
0.0
 30
0.0
  3
_ORIGIN
  1

  0
CIRCLE
  5
1DE
  8
0
  6
BYBLOCK
 62
     0
 10
0.0
 20
0.0
 30
0.0
 40
0.5
  0
LINE
  5
1DF
  8
0
  6
BYBLOCK
 62
     0
 10
0.0
 20
0.0
 30
0.0
 11
-1.0
 21
0.0
 31
0.0
  0
ENDBLK
  5
1E0
  8
0
  0
BLOCK
  8
0
  2
*D37
 70
     1
 10
0.0
 20
0.0
 30
0.0
  3
*D37
  1

  0
LINE
  5
1E3
  8
0
  6
BYBLOCK
 62
     0
 10
-264.0
 20
155.5
 30
0.0
 11
-429.9
 21
155.5
 31
0.0
  0
LINE
  5
1E4
  8
0
  6
BYBLOCK
 62
     0
 10
-320.0
 20
0.0
 30
0.0
 11
-429.9
 21
0.0
 31
0.0
  0
LINE
  5
1E5
  8
0
  6
BYBLOCK
 62
     0
 10
-417.4
 20
145.5
 30
0.0
 11
-417.4
 21
10.0
 31
0.0
  0
INSERT
  5
1E6
  8
0
  6
BYBLOCK
 62
     0
  2
_ORIGIN
 10
-417.4
 20
155.5
 30
0.0
 41
10.0
 42
10.0
 43
10.0
 50
90.0
  0
INSERT
  5
1E7
  8
0
  6
BYBLOCK
 62
     0
  2
_ORIGIN
 10
-417.4
 20
0.0
 30
0.0
 41
10.0
 42
10.0
 43
10.0
 50
270.0
  0
TEXT
  5
1E8
  8
0
  6
BYBLOCK
 62
     0
 10
-427.4
 20
42.75
 30
0.0
 40
30.0
  1
156
 50
90.0
 72
     1
 11
-427.4
 21
77.75
 31
0.0
  0
POINT
  5
1E9
  8
DEFPOINTS
  6
BYBLOCK
 62
     0
 10
-254.0
 20
155.5
 30
0.0
  0
POINT
  5
1EA
  8
DEFPOINTS
  6
BYBLOCK
 62
     0
 10
-310.0
 20
0.0
 30
0.0
  0
POINT
  5
1EB
  8
DEFPOINTS
  6
BYBLOCK
 62
     0
 10
-417.4
 20
0.0
 30
0.0
  0
ENDBLK
  5
1EC
  8
0
  0
BLOCK
  8
0
  2
*D38
 70
     1
 10
0.0
 20
0.0
 30
0.0
  3
*D38
  1

  0
LINE
  5
1EF
  8
0
  6
BYBLOCK
 62
     0
 10
-234.0
 20
125.5
 30
0.0
 11
-234.0
 21
-260.1
 31
0.0
  0
LINE
  5
1F0
  8
0
  6
BYBLOCK
 62
     0
 10
-159.0
 20
170.0
 30
0.0
 11
-159.0
 21
-260.1
 31
0.0
  0
LINE
  5
1F1
  8
0
  6
BYBLOCK
 62
     0
 10
-169.0
 20
-247.6
 30
0.0
 11
-224.0
 21
-247.6
 31
0.0
  0
LINE
  5
1F2
  8
0
  6
BYBLOCK
 62
     0
 10
-234.0
 20
-247.6
 30
0.0
 11
-422.734428
 21
-247.6
 31
0.0
  0
INSERT
  5
1F3
  8
0
  6
BYBLOCK
 62
     0
  2
_ORIGIN
 10
-159.0
 20
-247.6
 30
0.0
 41
10.0
 42
10.0
 43
10.0
  0
INSERT
  5
1F4
  8
0
  6
BYBLOCK
 62
     0
  2
_ORIGIN
 10
-234.0
 20
-247.6
 30
0.0
 41
10.0
 42
10.0
 43
10.0
 50
180.0
  0
TEXT
  5
1F5
  8
0
  6
BYBLOCK
 62
     0
 10
-412.734428
 20
-237.6
 30
0.0
 40
30.0
  1
75
 72
     1
 11
-387.734428
 21
-237.6
 31
0.0
  0
POINT
  5
1F6
  8
DEFPOINTS
  6
BYBLOCK
 62
     0
 10
-234.0
 20
135.5
 30
0.0
  0
POINT
  5
1F7
  8
DEFPOINTS
  6
BYBLOCK
 62
     0
 10
-159.0
 20
180.0
 30
0.0
  0
POINT
  5
1F8
  8
DEFPOINTS
  6
BYBLOCK
 62
     0
 10
-159.0
 20
-247.6
 30
0.0
  0
ENDBLK
  5
1F9
  8
0
  0
BLOCK
  8
0
  2
*D39
 70
     1
 10
0.0
 20
0.0
 30
0.0
  3
*D39
  1

  0
LINE
  5
1FC
  8
0
  6
BYBLOCK
 62
     0
 10
320.0
 20
0.0
 30
0.0
 11
775.1
 21
0.0
 31
0.0
  0
LINE
  5
1FD
  8
0
  6
BYBLOCK
 62
     0
 10
272.703766
 20
2200.0
 30
0.0
 11
775.1
 21
2200.0
 31
0.0
  0
LINE
  5
1FE
  8
0
  6
BYBLOCK
 62
     0
 10
762.6
 20
10.0
 30
0.0
 11
762.6
 21
2190.0
 31
0.0
  0
INSERT
  5
1FF
  8
0
  6
BYBLOCK
 62
     0
  2
_ORIGIN
 10
762.6
 20
0.0
 30
0.0
 41
10.0
 42
10.0
 43
10.0
 50
270.0
  0
INSERT
  5
200
  8
0
  6
BYBLOCK
 62
     0
  2
_ORIGIN
 10
762.6
 20
2200.0
 30
0.0
 41
10.0
 42
10.0
 43
10.0
 50
90.0
  0
TEXT
  5
201
  8
0
  6
BYBLOCK
 62
     0
 10
752.6
 20
1140.011474
 30
0.0
 40
30.0
  1
2200
 50
90.0
 72
     1
 11
752.6
 21
1190.011474
 31
0.0
  0
POINT
  5
202
  8
DEFPOINTS
  6
BYBLOCK
 62
     0
 10
310.0
 20
0.0
 30
0.0
  0
POINT
  5
203
  8
DEFPOINTS
  6
BYBLOCK
 62
     0
 10
262.703766
 20
2200.0
 30
0.0
  0
POINT
  5
204
  8
DEFPOINTS
  6
BYBLOCK
 62
     0
 10
762.6
 20
2200.0
 30
0.0
  0
ENDBLK
  5
205
  8
0
  0
BLOCK
  8
0
  2
*D40
 70
     1
 10
0.0
 20
0.0
 30
0.0
  3
*D40
  1

  0
LINE
  5
208
  8
0
  6
BYBLOCK
 62
     0
 10
325.0
 20
2170.0
 30
0.0
 11
675.1
 21
2170.0
 31
0.0
  0
LINE
  5
209
  8
0
  6
BYBLOCK
 62
     0
 10
325.0
 20
200.0
 30
0.0
 11
675.1
 21
200.0
 31
0.0
  0
LINE
  5
20A
  8
0
  6
BYBLOCK
 62
     0
 10
662.6
 20
2160.0
 30
0.0
 11
662.6
 21
210.0
 31
0.0
  0
INSERT
  5
20B
  8
0
  6
BYBLOCK
 62
     0
  2
_ORIGIN
 10
662.6
 20
2170.0
 30
0.0
 41
10.0
 42
10.0
 43
10.0
 50
90.0
  0
INSERT
  5
20C
  8
0
  6
BYBLOCK
 62
     0
  2
_ORIGIN
 10
662.6
 20
200.0
 30
0.0
 41
10.0
 42
10.0
 43
10.0
 50
270.0
  0
TEXT
  5
20D
  8
0
  6
BYBLOCK
 62
     0
 10
652.6
 20
1137.5
 30
0.0
 40
30.0
  1
1970
 50
90.0
 72
     1
 11
652.6
 21
1185.0
 31
0.0
  0
POINT
  5
20E
  8
DEFPOINTS
  6
BYBLOCK
 62
     0
 10
315.0
 20
2170.0
 30
0.0
  0
POINT
  5
20F
  8
DEFPOINTS
  6
BYBLOCK
 62
     0
 10
315.0
 20
200.0
 30
0.0
  0
POINT
  5
210
  8
DEFPOINTS
  6
BYBLOCK
 62
     0
 10
662.6
 20
200.0
 30
0.0
  0
ENDBLK
  5
211
  8
0
  0
BLOCK
  8
0
  2
*D41
 70
     1
 10
0.0
 20
0.0
 30
0.0
  3
*D41
  1

  0
LINE
  5
214
  8
0
  6
BYBLOCK
 62
     0
 10
-320.0
 20
0.0
 30
0.0
 11
-829.9
 21
0.0
 31
0.0
  0
LINE
  5
215
  8
0
  6
BYBLOCK
 62
     0
 10
-50.0
 20
2215.0
 30
0.0
 11
-829.9
 21
2215.0
 31
0.0
  0
LINE
  5
216
  8
0
  6
BYBLOCK
 62
     0
 10
-817.4
 20
10.0
 30
0.0
 11
-817.4
 21
2205.0
 31
0.0
  0
INSERT
  5
217
  8
0
  6
BYBLOCK
 62
     0
  2
_ORIGIN
 10
-817.4
 20
0.0
 30
0.0
 41
10.0
 42
10.0
 43
10.0
 50
270.0
  0
INSERT
  5
218
  8
0
  6
BYBLOCK
 62
     0
  2
_ORIGIN
 10
-817.4
 20
2215.0
 30
0.0
 41
10.0
 42
10.0
 43
10.0
 50
90.0
  0
TEXT
  5
219
  8
0
  6
BYBLOCK
 62
     0
 10
-827.4
 20
1047.573852
 30
0.0
 40
30.0
  1
2215
 50
90.0
 72
     1
 11
-827.4
 21
1097.573852
 31
0.0
  0
POINT
  5
21A
  8
DEFPOINTS
  6
BYBLOCK
 62
     0
 10
-310.0
 20
0.0
 30
0.0
  0
POINT
  5
21B
  8
DEFPOINTS
  6
BYBLOCK
 62
     0
 10
-40.0
 20
2215.0
 30
0.0
  0
POINT
  5
21C
  8
DEFPOINTS
  6
BYBLOCK
 62
     0
 10
-817.4
 20
2215.0
 30
0.0
  0
ENDBLK
  5
21D
  8
0
  0
BLOCK
  8
0
  2
*D42
 70
     1
 10
0.0
 20
0.0
 30
0.0
  3
*D42
  1

  0
LINE
  5
220
  8
0
  6
BYBLOCK
 62
     0
 10
-60.0
 20
2193.0
 30
0.0
 11
-729.9
 21
2193.0
 31
0.0
  0
LINE
  5
221
  8
0
  6
BYBLOCK
 62
     0
 10
-320.0
 20
0.0
 30
0.0
 11
-729.9
 21
0.0
 31
0.0
  0
LINE
  5
222
  8
0
  6
BYBLOCK
 62
     0
 10
-717.4
 20
2183.0
 30
0.0
 11
-717.4
 21
10.0
 31
0.0
  0
INSERT
  5
223
  8
0
  6
BYBLOCK
 62
     0
  2
_ORIGIN
 10
-717.4
 20
2193.0
 30
0.0
 41
10.0
 42
10.0
 43
10.0
 50
90.0
  0
INSERT
  5
224
  8
0
  6
BYBLOCK
 62
     0
  2
_ORIGIN
 10
-717.4
 20
0.0
 30
0.0
 41
10.0
 42
10.0
 43
10.0
 50
270.0
  0
TEXT
  5
225
  8
0
  6
BYBLOCK
 62
     0
 10
-727.4
 20
1046.5
 30
0.0
 40
30.0
  1
2193
 50
90.0
 72
     1
 11
-727.4
 21
1096.5
 31
0.0
  0
POINT
  5
226
  8
DEFPOINTS
  6
BYBLOCK
 62
     0
 10
-50.0
 20
2193.0
 30
0.0
  0
POINT
  5
227
  8
DEFPOINTS
  6
BYBLOCK
 62
     0
 10
-310.0
 20
0.0
 30
0.0
  0
POINT
  5
228
  8
DEFPOINTS
  6
BYBLOCK
 62
     0
 10
-717.4
 20
0.0
 30
0.0
  0
ENDBLK
  5
229
  8
0
  0
BLOCK
  8
0
  2
*D43
 70
     1
 10
0.0
 20
0.0
 30
0.0
  3
*D43
  1

  0
LINE
  5
22C
  8
0
  6
BYBLOCK
 62
     0
 10
248.0
 20
-30.0
 30
0.0
 11
248.0
 21
-360.1
 31
0.0
  0
LINE
  5
22D
  8
0
  6
BYBLOCK
 62
     0
 10
-248.0
 20
-30.0
 30
0.0
 11
-248.0
 21
-360.1
 31
0.0
  0
LINE
  5
22E
  8
0
  6
BYBLOCK
 62
     0
 10
238.0
 20
-347.6
 30
0.0
 11
-238.0
 21
-347.6
 31
0.0
  0
INSERT
  5
22F
  8
0
  6
BYBLOCK
 62
     0
  2
_ORIGIN
 10
248.0
 20
-347.6
 30
0.0
 41
10.0
 42
10.0
 43
10.0
  0
INSERT
  5
230
  8
0
  6
BYBLOCK
 62
     0
  2
_ORIGIN
 10
-248.0
 20
-347.6
 30
0.0
 41
10.0
 42
10.0
 43
10.0
 50
180.0
  0
TEXT
  5
231
  8
0
  6
BYBLOCK
 62
     0
 10
-40.0
 20
-337.6
 30
0.0
 40
30.0
  1
496
 72
     1
 11
0.0
 21
-337.6
 31
0.0
  0
POINT
  5
232
  8
DEFPOINTS
  6
BYBLOCK
 62
     0
 10
248.0
 20
-20.0
 30
0.0
  0
POINT
  5
233
  8
DEFPOINTS
  6
BYBLOCK
 62
     0
 10
-248.0
 20
-20.0
 30
0.0
  0
POINT
  5
234
  8
DEFPOINTS
  6
BYBLOCK
 62
     0
 10
-248.0
 20
-347.6
 30
0.0
  0
ENDBLK
  5
235
  8
0
  0
BLOCK
  8
0
  2
*D44
 70
     1
 10
0.0
 20
0.0
 30
0.0
  3
*D44
  1

  0
LINE
  5
238
  8
0
  6
BYBLOCK
 62
     0
 10
-295.0
 20
-30.0
 30
0.0
 11
-295.0
 21
-460.1
 31
0.0
  0
LINE
  5
239
  8
0
  6
BYBLOCK
 62
     0
 10
-201.0
 20
-30.0
 30
0.0
 11
-201.0
 21
-460.1
 31
0.0
  0
LINE
  5
23A
  8
0
  6
BYBLOCK
 62
     0
 10
-285.0
 20
-447.6
 30
0.0
 11
-211.0
 21
-447.6
 31
0.0
  0
INSERT
  5
23B
  8
0
  6
BYBLOCK
 62
     0
  2
_ORIGIN
 10
-295.0
 20
-447.6
 30
0.0
 41
10.0
 42
10.0
 43
10.0
 50
180.0
  0
INSERT
  5
23C
  8
0
  6
BYBLOCK
 62
     0
  2
_ORIGIN
 10
-201.0
 20
-447.6
 30
0.0
 41
10.0
 42
10.0
 43
10.0
  0
TEXT
  5
23D
  8
0
  6
BYBLOCK
 62
     0
 10
-273.0
 20
-437.6
 30
0.0
 40
30.0
  1
94
 72
     1
 11
-248.0
 21
-437.6
 31
0.0
  0
POINT
  5
23E
  8
DEFPOINTS
  6
BYBLOCK
 62
     0
 10
-295.0
 20
-20.0
 30
0.0
  0
POINT
  5
23F
  8
DEFPOINTS
  6
BYBLOCK
 62
     0
 10
-201.0
 20
-20.0
 30
0.0
  0
POINT
  5
240
  8
DEFPOINTS
  6
BYBLOCK
 62
     0
 10
-201.0
 20
-447.6
 30
0.0
  0
ENDBLK
  5
241
  8
0
  0
BLOCK
  8
0
  2
*D45
 70
     1
 10
0.0
 20
0.0
 30
0.0
  3
*D45
  1

  0
LINE
  5
244
  8
0
  6
BYBLOCK
 62
     0
 10
201.0
 20
-30.0
 30
0.0
 11
201.0
 21
-460.1
 31
0.0
  0
LINE
  5
245
  8
0
  6
BYBLOCK
 62
     0
 10
295.0
 20
-30.0
 30
0.0
 11
295.0
 21
-460.1
 31
0.0
  0
LINE
  5
246
  8
0
  6
BYBLOCK
 62
     0
 10
211.0
 20
-447.6
 30
0.0
 11
285.0
 21
-447.6
 31
0.0
  0
INSERT
  5
247
  8
0
  6
BYBLOCK
 62
     0
  2
_ORIGIN
 10
201.0
 20
-447.6
 30
0.0
 41
10.0
 42
10.0
 43
10.0
 50
180.0
  0
INSERT
  5
248
  8
0
  6
BYBLOCK
 62
     0
  2
_ORIGIN
 10
295.0
 20
-447.6
 30
0.0
 41
10.0
 42
10.0
 43
10.0
  0
TEXT
  5
249
  8
0
  6
BYBLOCK
 62
     0
 10
223.0
 20
-437.6
 30
0.0
 40
30.0
  1
94
 72
     1
 11
248.0
 21
-437.6
 31
0.0
  0
POINT
  5
24A
  8
DEFPOINTS
  6
BYBLOCK
 62
     0
 10
201.0
 20
-20.0
 30
0.0
  0
POINT
  5
24B
  8
DEFPOINTS
  6
BYBLOCK
 62
     0
 10
295.0
 20
-20.0
 30
0.0
  0
POINT
  5
24C
  8
DEFPOINTS
  6
BYBLOCK
 62
     0
 10
295.0
 20
-447.6
 30
0.0
  0
ENDBLK
  5
24D
  8
0
  0
BLOCK
  8
0
  2
*D46
 70
     1
 10
0.0
 20
0.0
 30
0.0
  3
*D46
  1

  0
LINE
  5
250
  8
0
  6
BYBLOCK
 62
     0
 10
-201.0
 20
-30.0
 30
0.0
 11
-201.0
 21
-460.1
 31
0.0
  0
LINE
  5
251
  8
0
  6
BYBLOCK
 62
     0
 10
201.0
 20
-30.0
 30
0.0
 11
201.0
 21
-460.1
 31
0.0
  0
LINE
  5
252
  8
0
  6
BYBLOCK
 62
     0
 10
-191.0
 20
-447.6
 30
0.0
 11
191.0
 21
-447.6
 31
0.0
  0
INSERT
  5
253
  8
0
  6
BYBLOCK
 62
     0
  2
_ORIGIN
 10
-201.0
 20
-447.6
 30
0.0
 41
10.0
 42
10.0
 43
10.0
 50
180.0
  0
INSERT
  5
254
  8
0
  6
BYBLOCK
 62
     0
  2
_ORIGIN
 10
201.0
 20
-447.6
 30
0.0
 41
10.0
 42
10.0
 43
10.0
  0
TEXT
  5
255
  8
0
  6
BYBLOCK
 62
     0
 10
-37.5
 20
-437.6
 30
0.0
 40
30.0
  1
402
 72
     1
 11
0.0
 21
-437.6
 31
0.0
  0
POINT
  5
256
  8
DEFPOINTS
  6
BYBLOCK
 62
     0
 10
-201.0
 20
-20.0
 30
0.0
  0
POINT
  5
257
  8
DEFPOINTS
  6
BYBLOCK
 62
     0
 10
201.0
 20
-20.0
 30
0.0
  0
POINT
  5
258
  8
DEFPOINTS
  6
BYBLOCK
 62
     0
 10
201.0
 20
-447.6
 30
0.0
  0
ENDBLK
  5
259
  8
0
  0
BLOCK
  8
0
  2
*D47
 70
     1
 10
0.0
 20
0.0
 30
0.0
  3
*D47
  1

  0
LINE
  5
25C
  8
0
  6
BYBLOCK
 62
     0
 10
315.0
 20
190.0
 30
0.0
 11
315.0
 21
-560.1
 31
0.0
  0
LINE
  5
25D
  8
0
  6
BYBLOCK
 62
     0
 10
-315.0
 20
190.0
 30
0.0
 11
-315.0
 21
-560.1
 31
0.0
  0
LINE
  5
25E
  8
0
  6
BYBLOCK
 62
     0
 10
305.0
 20
-547.6
 30
0.0
 11
-305.0
 21
-547.6
 31
0.0
  0
INSERT
  5
25F
  8
0
  6
BYBLOCK
 62
     0
  2
_ORIGIN
 10
315.0
 20
-547.6
 30
0.0
 41
10.0
 42
10.0
 43
10.0
  0
INSERT
  5
260
  8
0
  6
BYBLOCK
 62
     0
  2
_ORIGIN
 10
-315.0
 20
-547.6
 30
0.0
 41
10.0
 42
10.0
 43
10.0
 50
180.0
  0
TEXT
  5
261
  8
0
  6
BYBLOCK
 62
     0
 10
-31.539359
 20
-537.6
 30
0.0
 40
30.0
  1
630
 72
     1
 11
5.960641
 21
-537.6
 31
0.0
  0
POINT
  5
262
  8
DEFPOINTS
  6
BYBLOCK
 62
     0
 10
315.0
 20
200.0
 30
0.0
  0
POINT
  5
263
  8
DEFPOINTS
  6
BYBLOCK
 62
     0
 10
-315.0
 20
200.0
 30
0.0
  0
POINT
  5
264
  8
DEFPOINTS
  6
BYBLOCK
 62
     0
 10
-315.0
 20
-547.6
 30
0.0
  0
ENDBLK
  5
265
  8
0
  0
BLOCK
  8
0
  2
*D48
 70
     1
 10
0.0
 20
0.0
 30
0.0
  3
*D48
  1

  0
LINE
  5
268
  8
0
  6
BYBLOCK
 62
     0
 10
325.0
 20
200.0
 30
0.0
 11
675.1
 21
200.0
 31
0.0
  0
LINE
  5
269
  8
0
  6
BYBLOCK
 62
     0
 10
320.0
 20
0.0
 30
0.0
 11
675.1
 21
0.0
 31
0.0
  0
LINE
  5
26A
  8
0
  6
BYBLOCK
 62
     0
 10
662.6
 20
190.0
 30
0.0
 11
662.6
 21
10.0
 31
0.0
  0
INSERT
  5
26B
  8
0
  6
BYBLOCK
 62
     0
  2
_ORIGIN
 10
662.6
 20
200.0
 30
0.0
 41
10.0
 42
10.0
 43
10.0
 50
90.0
  0
INSERT
  5
26C
  8
0
  6
BYBLOCK
 62
     0
  2
_ORIGIN
 10
662.6
 20
0.0
 30
0.0
 41
10.0
 42
10.0
 43
10.0
 50
270.0
  0
TEXT
  5
26D
  8
0
  6
BYBLOCK
 62
     0
 10
652.6
 20
65.0
 30
0.0
 40
30.0
  1
200
 50
90.0
 72
     1
 11
652.6
 21
100.0
 31
0.0
  0
POINT
  5
26E
  8
DEFPOINTS
  6
BYBLOCK
 62
     0
 10
315.0
 20
200.0
 30
0.0
  0
POINT
  5
26F
  8
DEFPOINTS
  6
BYBLOCK
 62
     0
 10
310.0
 20
0.0
 30
0.0
  0
POINT
  5
270
  8
DEFPOINTS
  6
BYBLOCK
 62
     0
 10
662.6
 20
0.0
 30
0.0
  0
ENDBLK
  5
271
  8
0
  0
BLOCK
  8
0
  2
*D49
 70
     1
 10
0.0
 20
0.0
 30
0.0
  3
*D49
  1

  0
LINE
  5
274
  8
0
  6
BYBLOCK
 62
     0
 10
30.0
 20
2223.0
 30
0.0
 11
30.0
 21
2484.9
 31
0.0
  0
LINE
  5
275
  8
0
  6
BYBLOCK
 62
     0
 10
-30.0
 20
2223.0
 30
0.0
 11
-30.0
 21
2484.9
 31
0.0
  0
LINE
  5
276
  8
0
  6
BYBLOCK
 62
     0
 10
20.0
 20
2472.4
 30
0.0
 11
-20.0
 21
2472.4
 31
0.0
  0
INSERT
  5
277
  8
0
  6
BYBLOCK
 62
     0
  2
_ORIGIN
 10
30.0
 20
2472.4
 30
0.0
 41
10.0
 42
10.0
 43
10.0
  0
INSERT
  5
278
  8
0
  6
BYBLOCK
 62
     0
  2
_ORIGIN
 10
-30.0
 20
2472.4
 30
0.0
 41
10.0
 42
10.0
 43
10.0
 50
180.0
  0
TEXT
  5
279
  8
0
  6
BYBLOCK
 62
     0
 10
-22.5
 20
2482.4
 30
0.0
 40
30.0
  1
60
 72
     1
 11
0.0
 21
2482.4
 31
0.0
  0
POINT
  5
27A
  8
DEFPOINTS
  6
BYBLOCK
 62
     0
 10
30.0
 20
2213.0
 30
0.0
  0
POINT
  5
27B
  8
DEFPOINTS
  6
BYBLOCK
 62
     0
 10
-30.0
 20
2213.0
 30
0.0
  0
POINT
  5
27C
  8
DEFPOINTS
  6
BYBLOCK
 62
     0
 10
-30.0
 20
2472.4
 30
0.0
  0
ENDBLK
  5
27D
  8
0
  0
BLOCK
  8
0
  2
*D50
 70
     1
 10
0.0
 20
0.0
 30
0.0
  3
*D50
  1

  0
LINE
  5
280
  8
0
  6
BYBLOCK
 62
     0
 10
325.0
 20
2170.0
 30
0.0
 11
675.1
 21
2170.0
 31
0.0
  0
LINE
  5
281
  8
0
  6
BYBLOCK
 62
     0
 10
325.0
 20
2370.0
 30
0.0
 11
675.1
 21
2370.0
 31
0.0
  0
LINE
  5
282
  8
0
  6
BYBLOCK
 62
     0
 10
662.6
 20
2180.0
 30
0.0
 11
662.6
 21
2360.0
 31
0.0
  0
INSERT
  5
283
  8
0
  6
BYBLOCK
 62
     0
  2
_ORIGIN
 10
662.6
 20
2170.0
 30
0.0
 41
10.0
 42
10.0
 43
10.0
 50
270.0
  0
INSERT
  5
284
  8
0
  6
BYBLOCK
 62
     0
  2
_ORIGIN
 10
662.6
 20
2370.0
 30
0.0
 41
10.0
 42
10.0
 43
10.0
 50
90.0
  0
TEXT
  5
285
  8
0
  6
BYBLOCK
 62
     0
 10
652.6
 20
2234.796142
 30
0.0
 40
30.0
  1
200
 50
90.0
 72
     1
 11
652.6
 21
2269.796142
 31
0.0
  0
POINT
  5
286
  8
DEFPOINTS
  6
BYBLOCK
 62
     0
 10
315.0
 20
2170.0
 30
0.0
  0
POINT
  5
287
  8
DEFPOINTS
  6
BYBLOCK
 62
     0
 10
315.0
 20
2370.0
 30
0.0
  0
POINT
  5
288
  8
DEFPOINTS
  6
BYBLOCK
 62
     0
 10
662.6
 20
2370.0
 30
0.0
  0
ENDBLK
  5
289
  8
0
  0
BLOCK
  8
0
  2
*D51
 70
     1
 10
0.0
 20
0.0
 30
0.0
  3
*D51
  1

  0
LINE
  5
28C
  8
0
  6
BYBLOCK
 62
     0
 10
-315.0
 20
2380.0
 30
0.0
 11
-315.0
 21
2734.9
 31
0.0
  0
LINE
  5
28D
  8
0
  6
BYBLOCK
 62
     0
 10
315.0
 20
2380.0
 30
0.0
 11
315.0
 21
2734.9
 31
0.0
  0
LINE
  5
28E
  8
0
  6
BYBLOCK
 62
     0
 10
-305.0
 20
2722.4
 30
0.0
 11
305.0
 21
2722.4
 31
0.0
  0
INSERT
  5
28F
  8
0
  6
BYBLOCK
 62
     0
  2
_ORIGIN
 10
-315.0
 20
2722.4
 30
0.0
 41
10.0
 42
10.0
 43
10.0
 50
180.0
  0
INSERT
  5
290
  8
0
  6
BYBLOCK
 62
     0
  2
_ORIGIN
 10
315.0
 20
2722.4
 30
0.0
 41
10.0
 42
10.0
 43
10.0
  0
TEXT
  5
291
  8
0
  6
BYBLOCK
 62
     0
 10
-34.557761
 20
2732.4
 30
0.0
 40
30.0
  1
630
 72
     1
 11
2.942239
 21
2732.4
 31
0.0
  0
POINT
  5
292
  8
DEFPOINTS
  6
BYBLOCK
 62
     0
 10
-315.0
 20
2370.0
 30
0.0
  0
POINT
  5
293
  8
DEFPOINTS
  6
BYBLOCK
 62
     0
 10
315.0
 20
2370.0
 30
0.0
  0
POINT
  5
294
  8
DEFPOINTS
  6
BYBLOCK
 62
     0
 10
315.0
 20
2722.4
 30
0.0
  0
ENDBLK
  5
295
  8
0
  0
BLOCK
  8
0
  2
*D52
 70
     1
 10
0.0
 20
0.0
 30
0.0
  3
*D52
  1

  0
LINE
  5
298
  8
0
  6
BYBLOCK
 62
     0
 10
45.0
 20
2220.0
 30
0.0
 11
45.0
 21
2584.9
 31
0.0
  0
LINE
  5
299
  8
0
  6
BYBLOCK
 62
     0
 10
-45.0
 20
2220.0
 30
0.0
 11
-45.0
 21
2584.9
 31
0.0
  0
LINE
  5
29A
  8
0
  6
BYBLOCK
 62
     0
 10
35.0
 20
2572.4
 30
0.0
 11
-35.0
 21
2572.4
 31
0.0
  0
INSERT
  5
29B
  8
0
  6
BYBLOCK
 62
     0
  2
_ORIGIN
 10
45.0
 20
2572.4
 30
0.0
 41
10.0
 42
10.0
 43
10.0
  0
INSERT
  5
29C
  8
0
  6
BYBLOCK
 62
     0
  2
_ORIGIN
 10
-45.0
 20
2572.4
 30
0.0
 41
10.0
 42
10.0
 43
10.0
 50
180.0
  0
TEXT
  5
29D
  8
0
  6
BYBLOCK
 62
     0
 10
-21.954172
 20
2582.4
 30
0.0
 40
30.0
  1
90
 72
     1
 11
0.545828
 21
2582.4
 31
0.0
  0
POINT
  5
29E
  8
DEFPOINTS
  6
BYBLOCK
 62
     0
 10
45.0
 20
2210.0
 30
0.0
  0
POINT
  5
29F
  8
DEFPOINTS
  6
BYBLOCK
 62
     0
 10
-45.0
 20
2210.0
 30
0.0
  0
POINT
  5
2A0
  8
DEFPOINTS
  6
BYBLOCK
 62
     0
 10
-45.0
 20
2572.4
 30
0.0
  0
ENDBLK
  5
2A1
  8
0
  0
BLOCK
  8
0
  2
*D53
 70
     1
 10
0.0
 20
0.0
 30
0.0
  3
*D53
  1

  0
LINE
  5
2A4
  8
0
  6
BYBLOCK
 62
     0
 10
325.0
 20
2170.0
 30
0.0
 11
475.1
 21
2170.0
 31
0.0
  0
LINE
  5
2A5
  8
0
  6
BYBLOCK
 62
     0
 10
272.703766
 20
2200.0
 30
0.0
 11
475.1
 21
2200.0
 31
0.0
  0
LINE
  5
2A6
  8
0
  6
BYBLOCK
 62
     0
 10
462.6
 20
2160.0
 30
0.0
 11
462.6
 21
2150.0
 31
0.0
  0
LINE
  5
2A7
  8
0
  6
BYBLOCK
 62
     0
 10
462.6
 20
2210.0
 30
0.0
 11
462.6
 21
2285.0
 31
0.0
  0
LINE
  5
2A8
  8
0
  6
BYBLOCK
 62
     0
 10
462.6
 20
2170.0
 30
0.0
 11
462.6
 21
2200.0
 31
0.0
  0
INSERT
  5
2A9
  8
0
  6
BYBLOCK
 62
     0
  2
_ORIGIN
 10
462.6
 20
2170.0
 30
0.0
 41
10.0
 42
10.0
 43
10.0
 50
90.0
  0
INSERT
  5
2AA
  8
0
  6
BYBLOCK
 62
     0
  2
_ORIGIN
 10
462.6
 20
2200.0
 30
0.0
 41
10.0
 42
10.0
 43
10.0
 50
270.0
  0
TEXT
  5
2AB
  8
0
  6
BYBLOCK
 62
     0
 10
452.6
 20
2230.0
 30
0.0
 40
30.0
  1
30
 50
90.0
 72
     1
 11
452.6
 21
2252.5
 31
0.0
  0
POINT
  5
2AC
  8
DEFPOINTS
  6
BYBLOCK
 62
     0
 10
315.0
 20
2170.0
 30
0.0
  0
POINT
  5
2AD
  8
DEFPOINTS
  6
BYBLOCK
 62
     0
 10
262.703766
 20
2200.0
 30
0.0
  0
POINT
  5
2AE
  8
DEFPOINTS
  6
BYBLOCK
 62
     0
 10
462.6
 20
2200.0
 30
0.0
  0
ENDBLK
  5
2AF
  8
0
  0
BLOCK
  8
0
  2
*D54
 70
     1
 10
0.0
 20
0.0
 30
0.0
  3
*D54
  1

  0
LINE
  5
2B2
  8
0
  6
BYBLOCK
 62
     0
 10
227.0
 20
170.0
 30
0.0
 11
227.0
 21
-260.1
 31
0.0
  0
LINE
  5
2B3
  8
0
  6
BYBLOCK
 62
     0
 10
85.0
 20
170.0
 30
0.0
 11
85.0
 21
-260.1
 31
0.0
  0
LINE
  5
2B4
  8
0
  6
BYBLOCK
 62
     0
 10
217.0
 20
-247.6
 30
0.0
 11
95.0
 21
-247.6
 31
0.0
  0
INSERT
  5
2B5
  8
0
  6
BYBLOCK
 62
     0
  2
_ORIGIN
 10
227.0
 20
-247.6
 30
0.0
 41
10.0
 42
10.0
 43
10.0
  0
INSERT
  5
2B6
  8
0
  6
BYBLOCK
 62
     0
  2
_ORIGIN
 10
85.0
 20
-247.6
 30
0.0
 41
10.0
 42
10.0
 43
10.0
 50
180.0
  0
TEXT
  5
2B7
  8
0
  6
BYBLOCK
 62
     0
 10
121.0
 20
-237.6
 30
0.0
 40
30.0
  1
142
 72
     1
 11
156.0
 21
-237.6
 31
0.0
  0
POINT
  5
2B8
  8
DEFPOINTS
  6
BYBLOCK
 62
     0
 10
227.0
 20
180.0
 30
0.0
  0
POINT
  5
2B9
  8
DEFPOINTS
  6
BYBLOCK
 62
     0
 10
85.0
 20
180.0
 30
0.0
  0
POINT
  5
2BA
  8
DEFPOINTS
  6
BYBLOCK
 62
     0
 10
85.0
 20
-247.6
 30
0.0
  0
ENDBLK
  5
2BB
  8
0
  0
BLOCK
  8
0
  2
*D55
 70
     1
 10
0.0
 20
0.0
 30
0.0
  3
*D55
  1

  0
LINE
  5
2BE
  8
0
  6
BYBLOCK
 62
     0
 10
-297.0
 20
233.0
 30
0.0
 11
-629.9
 21
233.0
 31
0.0
  0
LINE
  5
2BF
  8
0
  6
BYBLOCK
 62
     0
 10
-320.0
 20
0.0
 30
0.0
 11
-629.9
 21
0.0
 31
0.0
  0
LINE
  5
2C0
  8
0
  6
BYBLOCK
 62
     0
 10
-617.4
 20
223.0
 30
0.0
 11
-617.4
 21
10.0
 31
0.0
  0
INSERT
  5
2C1
  8
0
  6
BYBLOCK
 62
     0
  2
_ORIGIN
 10
-617.4
 20
233.0
 30
0.0
 41
10.0
 42
10.0
 43
10.0
 50
90.0
  0
INSERT
  5
2C2
  8
0
  6
BYBLOCK
 62
     0
  2
_ORIGIN
 10
-617.4
 20
0.0
 30
0.0
 41
10.0
 42
10.0
 43
10.0
 50
270.0
  0
TEXT
  5
2C3
  8
0
  6
BYBLOCK
 62
     0
 10
-627.4
 20
76.5
 30
0.0
 40
30.0
  1
233
 50
90.0
 72
     1
 11
-627.4
 21
116.5
 31
0.0
  0
POINT
  5
2C4
  8
DEFPOINTS
  6
BYBLOCK
 62
     0
 10
-287.0
 20
233.0
 30
0.0
  0
POINT
  5
2C5
  8
DEFPOINTS
  6
BYBLOCK
 62
     0
 10
-310.0
 20
0.0
 30
0.0
  0
POINT
  5
2C6
  8
DEFPOINTS
  6
BYBLOCK
 62
     0
 10
-617.4
 20
0.0
 30
0.0
  0
ENDBLK
  5
2C7
  8
0
  0
BLOCK
  8
0
  2
*D56
 70
     1
 10
0.0
 20
0.0
 30
0.0
  3
*D56
  1

  0
LINE
  5
2CA
  8
0
  6
BYBLOCK
 62
     0
 10
-297.0
 20
233.0
 30
0.0
 11
-629.9
 21
233.0
 31
0.0
  0
LINE
  5
2CB
  8
0
  6
BYBLOCK
 62
     0
 10
-297.0
 20
363.0
 30
0.0
 11
-629.9
 21
363.0
 31
0.0
  0
LINE
  5
2CC
  8
0
  6
BYBLOCK
 62
     0
 10
-617.4
 20
243.0
 30
0.0
 11
-617.4
 21
353.0
 31
0.0
  0
INSERT
  5
2CD
  8
0
  6
BYBLOCK
 62
     0
  2
_ORIGIN
 10
-617.4
 20
233.0
 30
0.0
 41
10.0
 42
10.0
 43
10.0
 50
270.0
  0
INSERT
  5
2CE
  8
0
  6
BYBLOCK
 62
     0
  2
_ORIGIN
 10
-617.4
 20
363.0
 30
0.0
 41
10.0
 42
10.0
 43
10.0
 50
90.0
  0
TEXT
  5
2CF
  8
0
  6
BYBLOCK
 62
     0
 10
-627.4
 20
265.5
 30
0.0
 40
30.0
  1
130
 50
90.0
 72
     1
 11
-627.4
 21
298.0
 31
0.0
  0
POINT
  5
2D0
  8
DEFPOINTS
  6
BYBLOCK
 62
     0
 10
-287.0
 20
233.0
 30
0.0
  0
POINT
  5
2D1
  8
DEFPOINTS
  6
BYBLOCK
 62
     0
 10
-287.0
 20
363.0
 30
0.0
  0
POINT
  5
2D2
  8
DEFPOINTS
  6
BYBLOCK
 62
     0
 10
-617.4
 20
363.0
 30
0.0
  0
ENDBLK
  5
2D3
  8
0
  0
BLOCK
  8
0
  2
*D57
 70
     1
 10
0.0
 20
0.0
 30
0.0
  3
*D57
  1

  0
LINE
  5
2D6
  8
0
  6
BYBLOCK
 62
     0
 10
-315.0
 20
210.0
 30
0.0
 11
-315.0
 21
477.9
 31
0.0
  0
LINE
  5
2D7
  8
0
  6
BYBLOCK
 62
     0
 10
-295.0
 20
365.0
 30
0.0
 11
-295.0
 21
477.9
 31
0.0
  0
LINE
  5
2D8
  8
0
  6
BYBLOCK
 62
     0
 10
-285.0
 20
465.4
 30
0.0
 11
-275.0
 21
465.4
 31
0.0
  0
LINE
  5
2D9
  8
0
  6
BYBLOCK
 62
     0
 10
-325.0
 20
465.4
 30
0.0
 11
-411.045105
 21
465.4
 31
0.0
  0
LINE
  5
2DA
  8
0
  6
BYBLOCK
 62
     0
 10
-295.0
 20
465.4
 30
0.0
 11
-315.0
 21
465.4
 31
0.0
  0
INSERT
  5
2DB
  8
0
  6
BYBLOCK
 62
     0
  2
_ORIGIN
 10
-295.0
 20
465.4
 30
0.0
 41
10.0
 42
10.0
 43
10.0
 50
180.0
  0
INSERT
  5
2DC
  8
0
  6
BYBLOCK
 62
     0
  2
_ORIGIN
 10
-315.0
 20
465.4
 30
0.0
 41
10.0
 42
10.0
 43
10.0
  0
TEXT
  5
2DD
  8
0
  6
BYBLOCK
 62
     0
 10
-401.045105
 20
475.4
 30
0.0
 40
30.0
  1
20
 72
     1
 11
-378.545105
 21
475.4
 31
0.0
  0
POINT
  5
2DE
  8
DEFPOINTS
  6
BYBLOCK
 62
     0
 10
-315.0
 20
200.0
 30
0.0
  0
POINT
  5
2DF
  8
DEFPOINTS
  6
BYBLOCK
 62
     0
 10
-295.0
 20
355.0
 30
0.0
  0
POINT
  5
2E0
  8
DEFPOINTS
  6
BYBLOCK
 62
     0
 10
-295.0
 20
465.4
 30
0.0
  0
ENDBLK
  5
2E1
  8
0
  0
BLOCK
  8
0
  2
*D58
 70
     1
 10
0.0
 20
0.0
 30
0.0
  3
*D58
  1

  0
LINE
  5
2E4
  8
0
  6
BYBLOCK
 62
     0
 10
-138.0
 20
365.0
 30
0.0
 11
-138.0
 21
477.9
 31
0.0
  0
LINE
  5
2E5
  8
0
  6
BYBLOCK
 62
     0
 10
-295.0
 20
365.0
 30
0.0
 11
-295.0
 21
477.9
 31
0.0
  0
LINE
  5
2E6
  8
0
  6
BYBLOCK
 62
     0
 10
-148.0
 20
465.4
 30
0.0
 11
-285.0
 21
465.4
 31
0.0
  0
INSERT
  5
2E7
  8
0
  6
BYBLOCK
 62
     0
  2
_ORIGIN
 10
-138.0
 20
465.4
 30
0.0
 41
10.0
 42
10.0
 43
10.0
  0
INSERT
  5
2E8
  8
0
  6
BYBLOCK
 62
     0
  2
_ORIGIN
 10
-295.0
 20
465.4
 30
0.0
 41
10.0
 42
10.0
 43
10.0
 50
180.0
  0
TEXT
  5
2E9
  8
0
  6
BYBLOCK
 62
     0
 10
-251.5
 20
475.4
 30
0.0
 40
30.0
  1
157
 72
     1
 11
-216.5
 21
475.4
 31
0.0
  0
POINT
  5
2EA
  8
DEFPOINTS
  6
BYBLOCK
 62
     0
 10
-138.0
 20
355.0
 30
0.0
  0
POINT
  5
2EB
  8
DEFPOINTS
  6
BYBLOCK
 62
     0
 10
-295.0
 20
355.0
 30
0.0
  0
POINT
  5
2EC
  8
DEFPOINTS
  6
BYBLOCK
 62
     0
 10
-295.0
 20
465.4
 30
0.0
  0
ENDBLK
  5
2ED
  8
0
  0
BLOCK
  8
0
  2
*D59
 70
     1
 10
0.0
 20
0.0
 30
0.0
  3
*D59
  1

  0
LINE
  5
2F0
  8
0
  6
BYBLOCK
 62
     0
 10
320.0
 20
0.0
 30
0.0
 11
475.1
 21
0.0
 31
0.0
  0
LINE
  5
2F1
  8
0
  6
BYBLOCK
 62
     0
 10
282.0
 20
1368.0
 30
0.0
 11
475.1
 21
1368.0
 31
0.0
  0
LINE
  5
2F2
  8
0
  6
BYBLOCK
 62
     0
 10
462.6
 20
10.0
 30
0.0
 11
462.6
 21
1358.0
 31
0.0
  0
INSERT
  5
2F3
  8
0
  6
BYBLOCK
 62
     0
  2
_ORIGIN
 10
462.6
 20
0.0
 30
0.0
 41
10.0
 42
10.0
 43
10.0
 50
270.0
  0
INSERT
  5
2F4
  8
0
  6
BYBLOCK
 62
     0
  2
_ORIGIN
 10
462.6
 20
1368.0
 30
0.0
 41
10.0
 42
10.0
 43
10.0
 50
90.0
  0
TEXT
  5
2F5
  8
0
  6
BYBLOCK
 62
     0
 10
452.6
 20
634.0
 30
0.0
 40
30.0
  1
1368
 50
90.0
 72
     1
 11
452.6
 21
684.0
 31
0.0
  0
POINT
  5
2F6
  8
DEFPOINTS
  6
BYBLOCK
 62
     0
 10
310.0
 20
0.0
 30
0.0
  0
POINT
  5
2F7
  8
DEFPOINTS
  6
BYBLOCK
 62
     0
 10
272.0
 20
1368.0
 30
0.0
  0
POINT
  5
2F8
  8
DEFPOINTS
  6
BYBLOCK
 62
     0
 10
462.6
 20
1368.0
 30
0.0
  0
ENDBLK
  5
2F9
  8
0
  0
BLOCK
  8
0
  2
*D60
 70
     1
 10
0.0
 20
0.0
 30
0.0
  3
*D60
  1

  0
LINE
  5
2FC
  8
0
  6
BYBLOCK
 62
     0
 10
282.0
 20
1498.0
 30
0.0
 11
475.1
 21
1498.0
 31
0.0
  0
LINE
  5
2FD
  8
0
  6
BYBLOCK
 62
     0
 10
282.0
 20
1368.0
 30
0.0
 11
475.1
 21
1368.0
 31
0.0
  0
LINE
  5
2FE
  8
0
  6
BYBLOCK
 62
     0
 10
462.6
 20
1488.0
 30
0.0
 11
462.6
 21
1378.0
 31
0.0
  0
INSERT
  5
2FF
  8
0
  6
BYBLOCK
 62
     0
  2
_ORIGIN
 10
462.6
 20
1498.0
 30
0.0
 41
10.0
 42
10.0
 43
10.0
 50
90.0
  0
INSERT
  5
300
  8
0
  6
BYBLOCK
 62
     0
  2
_ORIGIN
 10
462.6
 20
1368.0
 30
0.0
 41
10.0
 42
10.0
 43
10.0
 50
270.0
  0
TEXT
  5
301
  8
0
  6
BYBLOCK
 62
     0
 10
452.6
 20
1400.5
 30
0.0
 40
30.0
  1
130
 50
90.0
 72
     1
 11
452.6
 21
1433.0
 31
0.0
  0
POINT
  5
302
  8
DEFPOINTS
  6
BYBLOCK
 62
     0
 10
272.0
 20
1498.0
 30
0.0
  0
POINT
  5
303
  8
DEFPOINTS
  6
BYBLOCK
 62
     0
 10
272.0
 20
1368.0
 30
0.0
  0
POINT
  5
304
  8
DEFPOINTS
  6
BYBLOCK
 62
     0
 10
462.6
 20
1368.0
 30
0.0
  0
ENDBLK
  5
305
  8
0
  0
BLOCK
  8
0
  2
*D61
 70
     1
 10
0.0
 20
0.0
 30
0.0
  3
*D61
  1

  0
LINE
  5
308
  8
0
  6
BYBLOCK
 62
     0
 10
80.5
 20
2131.0
 30
0.0
 11
575.1
 21
2131.0
 31
0.0
  0
LINE
  5
309
  8
0
  6
BYBLOCK
 62
     0
 10
80.5
 20
2001.0
 30
0.0
 11
575.1
 21
2001.0
 31
0.0
  0
LINE
  5
30A
  8
0
  6
BYBLOCK
 62
     0
 10
562.6
 20
2121.0
 30
0.0
 11
562.6
 21
2011.0
 31
0.0
  0
INSERT
  5
30B
  8
0
  6
BYBLOCK
 62
     0
  2
_ORIGIN
 10
562.6
 20
2131.0
 30
0.0
 41
10.0
 42
10.0
 43
10.0
 50
90.0
  0
INSERT
  5
30C
  8
0
  6
BYBLOCK
 62
     0
  2
_ORIGIN
 10
562.6
 20
2001.0
 30
0.0
 41
10.0
 42
10.0
 43
10.0
 50
270.0
  0
TEXT
  5
30D
  8
0
  6
BYBLOCK
 62
     0
 10
552.6
 20
2033.5
 30
0.0
 40
30.0
  1
130
 50
90.0
 72
     1
 11
552.6
 21
2066.0
 31
0.0
  0
POINT
  5
30E
  8
DEFPOINTS
  6
BYBLOCK
 62
     0
 10
70.5
 20
2131.0
 30
0.0
  0
POINT
  5
30F
  8
DEFPOINTS
  6
BYBLOCK
 62
     0
 10
70.5
 20
2001.0
 30
0.0
  0
POINT
  5
310
  8
DEFPOINTS
  6
BYBLOCK
 62
     0
 10
562.6
 20
2001.0
 30
0.0
  0
ENDBLK
  5
311
  8
0
  0
BLOCK
  8
0
  2
*D62
 70
     1
 10
0.0
 20
0.0
 30
0.0
  3
*D62
  1

  0
LINE
  5
314
  8
0
  6
BYBLOCK
 62
     0
 10
320.0
 20
0.0
 30
0.0
 11
575.1
 21
0.0
 31
0.0
  0
LINE
  5
315
  8
0
  6
BYBLOCK
 62
     0
 10
80.5
 20
2001.0
 30
0.0
 11
575.1
 21
2001.0
 31
0.0
  0
LINE
  5
316
  8
0
  6
BYBLOCK
 62
     0
 10
562.6
 20
10.0
 30
0.0
 11
562.6
 21
1991.0
 31
0.0
  0
INSERT
  5
317
  8
0
  6
BYBLOCK
 62
     0
  2
_ORIGIN
 10
562.6
 20
0.0
 30
0.0
 41
10.0
 42
10.0
 43
10.0
 50
270.0
  0
INSERT
  5
318
  8
0
  6
BYBLOCK
 62
     0
  2
_ORIGIN
 10
562.6
 20
2001.0
 30
0.0
 41
10.0
 42
10.0
 43
10.0
 50
90.0
  0
TEXT
  5
319
  8
0
  6
BYBLOCK
 62
     0
 10
552.6
 20
955.5
 30
0.0
 40
30.0
  1
2001
 50
90.0
 72
     1
 11
552.6
 21
1000.5
 31
0.0
  0
POINT
  5
31A
  8
DEFPOINTS
  6
BYBLOCK
 62
     0
 10
310.0
 20
0.0
 30
0.0
  0
POINT
  5
31B
  8
DEFPOINTS
  6
BYBLOCK
 62
     0
 10
70.5
 20
2001.0
 30
0.0
  0
POINT
  5
31C
  8
DEFPOINTS
  6
BYBLOCK
 62
     0
 10
562.6
 20
2001.0
 30
0.0
  0
ENDBLK
  5
31D
  8
0
  0
BLOCK
  8
0
  2
*D63
 70
     1
 10
0.0
 20
0.0
 30
0.0
  3
*D63
  1

  0
LINE
  5
320
  8
0
  6
BYBLOCK
 62
     0
 10
315.0
 20
2160.0
 30
0.0
 11
315.0
 21
1587.9
 31
0.0
  0
LINE
  5
321
  8
0
  6
BYBLOCK
 62
     0
 10
280.0
 20
1500.0
 30
0.0
 11
280.0
 21
1612.9
 31
0.0
  0
LINE
  5
322
  8
0
  6
BYBLOCK
 62
     0
 10
270.0
 20
1600.4
 30
0.0
 11
260.0
 21
1600.4
 31
0.0
  0
LINE
  5
323
  8
0
  6
BYBLOCK
 62
     0
 10
325.0
 20
1600.4
 30
0.0
 11
405.0
 21
1600.4
 31
0.0
  0
LINE
  5
324
  8
0
  6
BYBLOCK
 62
     0
 10
280.0
 20
1600.4
 30
0.0
 11
315.0
 21
1600.4
 31
0.0
  0
INSERT
  5
325
  8
0
  6
BYBLOCK
 62
     0
  2
_ORIGIN
 10
280.0
 20
1600.4
 30
0.0
 41
10.0
 42
10.0
 43
10.0
  0
INSERT
  5
326
  8
0
  6
BYBLOCK
 62
     0
  2
_ORIGIN
 10
315.0
 20
1600.4
 30
0.0
 41
10.0
 42
10.0
 43
10.0
 50
180.0
  0
TEXT
  5
327
  8
0
  6
BYBLOCK
 62
     0
 10
345.0
 20
1610.4
 30
0.0
 40
30.0
  1
35
 72
     1
 11
370.0
 21
1610.4
 31
0.0
  0
POINT
  5
328
  8
DEFPOINTS
  6
BYBLOCK
 62
     0
 10
315.0
 20
2170.0
 30
0.0
  0
POINT
  5
329
  8
DEFPOINTS
  6
BYBLOCK
 62
     0
 10
280.0
 20
1490.0
 30
0.0
  0
POINT
  5
32A
  8
DEFPOINTS
  6
BYBLOCK
 62
     0
 10
280.0
 20
1600.4
 30
0.0
  0
ENDBLK
  5
32B
  8
0
  0
BLOCK
  8
0
  2
*D64
 70
     1
 10
0.0
 20
0.0
 30
0.0
  3
*D64
  1

  0
LINE
  5
32E
  8
0
  6
BYBLOCK
 62
     0
 10
280.0
 20
1500.0
 30
0.0
 11
280.0
 21
1612.9
 31
0.0
  0
LINE
  5
32F
  8
0
  6
BYBLOCK
 62
     0
 10
123.0
 20
1500.0
 30
0.0
 11
123.0
 21
1612.9
 31
0.0
  0
LINE
  5
330
  8
0
  6
BYBLOCK
 62
     0
 10
270.0
 20
1600.4
 30
0.0
 11
133.0
 21
1600.4
 31
0.0
  0
INSERT
  5
331
  8
0
  6
BYBLOCK
 62
     0
  2
_ORIGIN
 10
280.0
 20
1600.4
 30
0.0
 41
10.0
 42
10.0
 43
10.0
  0
INSERT
  5
332
  8
0
  6
BYBLOCK
 62
     0
  2
_ORIGIN
 10
123.0
 20
1600.4
 30
0.0
 41
10.0
 42
10.0
 43
10.0
 50
180.0
  0
TEXT
  5
333
  8
0
  6
BYBLOCK
 62
     0
 10
166.5
 20
1610.4
 30
0.0
 40
30.0
  1
157
 72
     1
 11
201.5
 21
1610.4
 31
0.0
  0
POINT
  5
334
  8
DEFPOINTS
  6
BYBLOCK
 62
     0
 10
280.0
 20
1490.0
 30
0.0
  0
POINT
  5
335
  8
DEFPOINTS
  6
BYBLOCK
 62
     0
 10
123.0
 20
1490.0
 30
0.0
  0
POINT
  5
336
  8
DEFPOINTS
  6
BYBLOCK
 62
     0
 10
123.0
 20
1600.4
 30
0.0
  0
ENDBLK
  5
337
  8
0
  0
BLOCK
  8
0
  2
*D65
 70
     1
 10
0.0
 20
0.0
 30
0.0
  3
*D65
  1

  0
LINE
  5
33A
  8
0
  6
BYBLOCK
 62
     0
 10
78.5
 20
1999.0
 30
0.0
 11
78.5
 21
1840.9
 31
0.0
  0
LINE
  5
33B
  8
0
  6
BYBLOCK
 62
     0
 10
-78.5
 20
1999.0
 30
0.0
 11
-78.5
 21
1840.9
 31
0.0
  0
LINE
  5
33C
  8
0
  6
BYBLOCK
 62
     0
 10
68.5
 20
1853.4
 30
0.0
 11
-68.5
 21
1853.4
 31
0.0
  0
INSERT
  5
33D
  8
0
  6
BYBLOCK
 62
     0
  2
_ORIGIN
 10
78.5
 20
1853.4
 30
0.0
 41
10.0
 42
10.0
 43
10.0
  0
INSERT
  5
33E
  8
0
  6
BYBLOCK
 62
     0
  2
_ORIGIN
 10
-78.5
 20
1853.4
 30
0.0
 41
10.0
 42
10.0
 43
10.0
 50
180.0
  0
TEXT
  5
33F
  8
0
  6
BYBLOCK
 62
     0
 10
-35.0
 20
1863.4
 30
0.0
 40
30.0
  1
157
 72
     1
 11
0.0
 21
1863.4
 31
0.0
  0
POINT
  5
340
  8
DEFPOINTS
  6
BYBLOCK
 62
     0
 10
78.5
 20
2009.0
 30
0.0
  0
POINT
  5
341
  8
DEFPOINTS
  6
BYBLOCK
 62
     0
 10
-78.5
 20
2009.0
 30
0.0
  0
POINT
  5
342
  8
DEFPOINTS
  6
BYBLOCK
 62
     0
 10
-78.5
 20
1853.4
 30
0.0
  0
ENDBLK
  5
343
  8
0
  0
BLOCK
  8
0
  2
*D66
 70
     1
 10
0.0
 20
0.0
 30
0.0
  3
*D66
  1

  0
LINE
  5
346
  8
0
  6
BYBLOCK
 62
     0
 10
315.0
 20
2160.0
 30
0.0
 11
315.0
 21
1840.9
 31
0.0
  0
LINE
  5
347
  8
0
  6
BYBLOCK
 62
     0
 10
78.5
 20
1999.0
 30
0.0
 11
78.5
 21
1840.9
 31
0.0
  0
LINE
  5
348
  8
0
  6
BYBLOCK
 62
     0
 10
305.0
 20
1853.4
 30
0.0
 11
88.5
 21
1853.4
 31
0.0
  0
INSERT
  5
349
  8
0
  6
BYBLOCK
 62
     0
  2
_ORIGIN
 10
315.0
 20
1853.4
 30
0.0
 41
10.0
 42
10.0
 43
10.0
  0
INSERT
  5
34A
  8
0
  6
BYBLOCK
 62
     0
  2
_ORIGIN
 10
78.5
 20
1853.4
 30
0.0
 41
10.0
 42
10.0
 43
10.0
 50
180.0
  0
TEXT
  5
34B
  8
0
  6
BYBLOCK
 62
     0
 10
156.75
 20
1863.4
 30
0.0
 40
30.0
  1
237
 72
     1
 11
196.75
 21
1863.4
 31
0.0
  0
POINT
  5
34C
  8
DEFPOINTS
  6
BYBLOCK
 62
     0
 10
315.0
 20
2170.0
 30
0.0
  0
POINT
  5
34D
  8
DEFPOINTS
  6
BYBLOCK
 62
     0
 10
78.5
 20
2009.0
 30
0.0
  0
POINT
  5
34E
  8
DEFPOINTS
  6
BYBLOCK
 62
     0
 10
78.5
 20
1853.4
 30
0.0
  0
ENDBLK
  5
34F
  8
0
  0
BLOCK
  8
0
  2
*D67
 70
     1
 10
0.0
 20
0.0
 30
0.0
  3
*D67
  1

  0
LINE
  5
352
  8
0
  6
BYBLOCK
 62
     0
 10
-325.0
 20
0.0
 30
0.0
 11
-529.9
 21
0.0
 31
0.0
  0
LINE
  5
353
  8
0
  6
BYBLOCK
 62
     0
 10
-163.82309
 20
172.5
 30
0.0
 11
-529.9
 21
172.5
 31
0.0
  0
LINE
  5
354
  8
0
  6
BYBLOCK
 62
     0
 10
-517.4
 20
10.0
 30
0.0
 11
-517.4
 21
162.5
 31
0.0
  0
INSERT
  5
355
  8
0
  6
BYBLOCK
 62
     0
  2
_ORIGIN
 10
-517.4
 20
0.0
 30
0.0
 41
10.0
 42
10.0
 43
10.0
 50
270.0
  0
INSERT
  5
356
  8
0
  6
BYBLOCK
 62
     0
  2
_ORIGIN
 10
-517.4
 20
172.5
 30
0.0
 41
10.0
 42
10.0
 43
10.0
 50
90.0
  0
TEXT
  5
357
  8
0
  6
BYBLOCK
 62
     0
 10
-527.4
 20
51.25
 30
0.0
 40
30.0
  1
173
 50
90.0
 72
     1
 11
-527.4
 21
86.25
 31
0.0
  0
POINT
  5
358
  8
DEFPOINTS
  6
BYBLOCK
 62
     0
 10
-315.0
 20
0.0
 30
0.0
  0
POINT
  5
359
  8
DEFPOINTS
  6
BYBLOCK
 62
     0
 10
-153.82309
 20
172.5
 30
0.0
  0
POINT
  5
35A
  8
DEFPOINTS
  6
BYBLOCK
 62
     0
 10
-517.4
 20
172.5
 30
0.0
  0
ENDBLK
  5
35B
  8
0
  0
BLOCK
  8
0
  2
*D68
 70
     1
 10
0.0
 20
0.0
 30
0.0
  3
*D68
  1

  0
LINE
  5
35E
  8
0
  6
BYBLOCK
 62
     0
 10
0.0
 20
-60.0
 30
0.0
 11
0.0
 21
-160.1
 31
0.0
  0
LINE
  5
35F
  8
0
  6
BYBLOCK
 62
     0
 10
-3.0
 20
170.0
 30
0.0
 11
-3.0
 21
-160.1
 31
0.0
  0
LINE
  5
360
  8
0
  6
BYBLOCK
 62
     0
 10
-13.0
 20
-147.6
 30
0.0
 11
-23.0
 21
-147.6
 31
0.0
  0
LINE
  5
361
  8
0
  6
BYBLOCK
 62
     0
 10
10.0
 20
-147.6
 30
0.0
 11
60.0
 21
-147.6
 31
0.0
  0
LINE
  5
362
  8
0
  6
BYBLOCK
 62
     0
 10
-3.0
 20
-147.6
 30
0.0
 11
0.0
 21
-147.6
 31
0.0
  0
INSERT
  5
363
  8
0
  6
BYBLOCK
 62
     0
  2
_ORIGIN
 10
-3.0
 20
-147.6
 30
0.0
 41
10.0
 42
10.0
 43
10.0
  0
INSERT
  5
364
  8
0
  6
BYBLOCK
 62
     0
  2
_ORIGIN
 10
0.0
 20
-147.6
 30
0.0
 41
10.0
 42
10.0
 43
10.0
 50
180.0
  0
TEXT
  5
365
  8
0
  6
BYBLOCK
 62
     0
 10
30.0
 20
-137.6
 30
0.0
 40
30.0
  1
3
 72
     1
 11
40.0
 21
-137.6
 31
0.0
  0
POINT
  5
366
  8
DEFPOINTS
  6
BYBLOCK
 62
     0
 10
0.0
 20
-50.0
 30
0.0
  0
POINT
  5
367
  8
DEFPOINTS
  6
BYBLOCK
 62
     0
 10
-3.0
 20
180.0
 30
0.0
  0
POINT
  5
368
  8
DEFPOINTS
  6
BYBLOCK
 62
     0
 10
-3.0
 20
-147.6
 30
0.0
  0
ENDBLK
  5
369
  8
0
  0
BLOCK
  8
0
  2
*D69
 70
     1
 10
0.0
 20
0.0
 30
0.0
  3
*D69
  1

  0
LINE
  5
36C
  8
0
  6
BYBLOCK
 62
     0
 10
-3.0
 20
170.0
 30
0.0
 11
-3.0
 21
-160.1
 31
0.0
  0
LINE
  5
36D
  8
0
  6
BYBLOCK
 62
     0
 10
-87.0
 20
170.0
 30
0.0
 11
-87.0
 21
-160.1
 31
0.0
  0
LINE
  5
36E
  8
0
  6
BYBLOCK
 62
     0
 10
-13.0
 20
-147.6
 30
0.0
 11
-77.0
 21
-147.6
 31
0.0
  0
INSERT
  5
36F
  8
0
  6
BYBLOCK
 62
     0
  2
_ORIGIN
 10
-3.0
 20
-147.6
 30
0.0
 41
10.0
 42
10.0
 43
10.0
  0
INSERT
  5
370
  8
0
  6
BYBLOCK
 62
     0
  2
_ORIGIN
 10
-87.0
 20
-147.6
 30
0.0
 41
10.0
 42
10.0
 43
10.0
 50
180.0
  0
TEXT
  5
371
  8
0
  6
BYBLOCK
 62
     0
 10
-70.0
 20
-137.6
 30
0.0
 40
30.0
  1
84
 72
     1
 11
-45.0
 21
-137.6
 31
0.0
  0
POINT
  5
372
  8
DEFPOINTS
  6
BYBLOCK
 62
     0
 10
-3.0
 20
180.0
 30
0.0
  0
POINT
  5
373
  8
DEFPOINTS
  6
BYBLOCK
 62
     0
 10
-87.0
 20
180.0
 30
0.0
  0
POINT
  5
374
  8
DEFPOINTS
  6
BYBLOCK
 62
     0
 10
-87.0
 20
-147.6
 30
0.0
  0
ENDBLK
  5
375
  8
0
  0
BLOCK
  8
0
  2
*D70
 70
     1
 10
0.0
 20
0.0
 30
0.0
  3
*D70
  1

  0
LINE
  5
378
  8
0
  6
BYBLOCK
 62
     0
 10
85.0
 20
170.0
 30
0.0
 11
85.0
 21
-260.1
 31
0.0
  0
LINE
  5
379
  8
0
  6
BYBLOCK
 62
     0
 10
0.0
 20
-60.0
 30
0.0
 11
0.0
 21
-260.1
 31
0.0
  0
LINE
  5
37A
  8
0
  6
BYBLOCK
 62
     0
 10
75.0
 20
-247.6
 30
0.0
 11
10.0
 21
-247.6
 31
0.0
  0
INSERT
  5
37B
  8
0
  6
BYBLOCK
 62
     0
  2
_ORIGIN
 10
85.0
 20
-247.6
 30
0.0
 41
10.0
 42
10.0
 43
10.0
  0
INSERT
  5
37C
  8
0
  6
BYBLOCK
 62
     0
  2
_ORIGIN
 10
0.0
 20
-247.6
 30
0.0
 41
10.0
 42
10.0
 43
10.0
 50
180.0
  0
TEXT
  5
37D
  8
0
  6
BYBLOCK
 62
     0
 10
17.5
 20
-237.6
 30
0.0
 40
30.0
  1
85
 72
     1
 11
42.5
 21
-237.6
 31
0.0
  0
POINT
  5
37E
  8
DEFPOINTS
  6
BYBLOCK
 62
     0
 10
85.0
 20
180.0
 30
0.0
  0
POINT
  5
37F
  8
DEFPOINTS
  6
BYBLOCK
 62
     0
 10
0.0
 20
-50.0
 30
0.0
  0
POINT
  5
380
  8
DEFPOINTS
  6
BYBLOCK
 62
     0
 10
0.0
 20
-247.6
 30
0.0
  0
ENDBLK
  5
381
  8
0
  0
BLOCK
  8
0
  2
*D71
 70
     1
 10
0.0
 20
0.0
 30
0.0
  3
*D71
  1

  0
LINE
  5
384
  8
0
  6
BYBLOCK
 62
     0
 10
0.0
 20
-60.0
 30
0.0
 11
0.0
 21
-260.1
 31
0.0
  0
LINE
  5
385
  8
0
  6
BYBLOCK
 62
     0
 10
-159.0
 20
170.0
 30
0.0
 11
-159.0
 21
-260.1
 31
0.0
  0
LINE
  5
386
  8
0
  6
BYBLOCK
 62
     0
 10
-10.0
 20
-247.6
 30
0.0
 11
-149.0
 21
-247.6
 31
0.0
  0
INSERT
  5
387
  8
0
  6
BYBLOCK
 62
     0
  2
_ORIGIN
 10
0.0
 20
-247.6
 30
0.0
 41
10.0
 42
10.0
 43
10.0
  0
INSERT
  5
388
  8
0
  6
BYBLOCK
 62
     0
  2
_ORIGIN
 10
-159.0
 20
-247.6
 30
0.0
 41
10.0
 42
10.0
 43
10.0
 50
180.0
  0
TEXT
  5
389
  8
0
  6
BYBLOCK
 62
     0
 10
-114.5
 20
-237.6
 30
0.0
 40
30.0
  1
159
 72
     1
 11
-79.5
 21
-237.6
 31
0.0
  0
POINT
  5
38A
  8
DEFPOINTS
  6
BYBLOCK
 62
     0
 10
0.0
 20
-50.0
 30
0.0
  0
POINT
  5
38B
  8
DEFPOINTS
  6
BYBLOCK
 62
     0
 10
-159.0
 20
180.0
 30
0.0
  0
POINT
  5
38C
  8
DEFPOINTS
  6
BYBLOCK
 62
     0
 10
-159.0
 20
-247.6
 30
0.0
  0
ENDBLK
  5
38D
  8
0
  0
ENDSEC
  0
SECTION
  2
ENTITIES
  0
LINE
  5
38E
  8
OUTLINE
  6
CONTINUOUS
 10
284.5
 20
0.0
 30
0.0
 11
211.5
 21
0.0
 31
0.0
  0
LINE
  5
38F
  8
OUTLINE
  6
CONTINUOUS
 10
315.0
 20
200.0
 30
0.0
 11
-315.0
 21
200.0
 31
0.0
  0
LINE
  5
390
  8
OUTLINE
  6
CONTINUOUS
 10
315.0
 20
2170.0
 30
0.0
 11
-315.0
 21
2170.0
 31
0.0
  0
LINE
  5
391
  8
OUTLINE
  6
CONTINUOUS
 10
315.0
 20
200.0
 30
0.0
 11
315.0
 21
2170.0
 31
0.0
  0
LINE
  5
392
  8
OUTLINE
  6
CONTINUOUS
 10
-315.0
 20
2170.0
 30
0.0
 11
-315.0
 21
200.0
 31
0.0
  0
LINE
  5
393
  8
OUTLINE
  6
CONTINUOUS
 10
284.5
 20
200.0
 30
0.0
 11
284.5
 21
0.0
 31
0.0
  0
LINE
  5
394
  8
OUTLINE
  6
CONTINUOUS
 10
211.5
 20
200.0
 30
0.0
 11
211.5
 21
0.0
 31
0.0
  0
LINE
  5
395
  8
OUTLINE
  6
CONTINUOUS
 10
36.5
 20
200.0
 30
0.0
 11
36.5
 21
0.0
 31
0.0
  0
LINE
  5
396
  8
OUTLINE
  6
CONTINUOUS
 10
36.5
 20
0.0
 30
0.0
 11
-36.5
 21
0.0
 31
0.0
  0
LINE
  5
397
  8
OUTLINE
  6
CONTINUOUS
 10
-284.5
 20
200.0
 30
0.0
 11
-284.5
 21
0.0
 31
0.0
  0
LINE
  5
398
  8
OUTLINE
  6
CONTINUOUS
 10
-211.5
 20
188.0
 30
0.0
 11
-211.5
 21
0.0
 31
0.0
  0
LINE
  5
399
  8
OUTLINE
  6
CONTINUOUS
 10
-284.5
 20
0.0
 30
0.0
 11
-211.5
 21
0.0
 31
0.0
  0
LINE
  5
39A
  8
OUTLINE
  6
CONTINUOUS
 10
-36.5
 20
200.0
 30
0.0
 11
-36.5
 21
0.0
 31
0.0
  0
LINE
  5
39B
  8
DETAIL
  6
CONTINUOUS
 10
-129.0
 20
192.0
 30
0.0
 11
-201.0
 21
192.0
 31
0.0
  0
ARC
  5
39C
  8
DETAIL
  6
CONTINUOUS
 10
-179.0
 20
143.0
 30
0.0
 40
4.0
 50
180.0
 51
270.0
  0
LINE
  5
39D
  8
DETAIL
  6
CONTINUOUS
 10
-196.5
 20
188.5
 30
0.0
 11
-196.5
 21
192.0
 31
0.0
  0
LINE
  5
39E
  8
DETAIL
  6
CONTINUOUS
 10
-133.5
 20
188.5
 30
0.0
 11
-196.5
 21
188.5
 31
0.0
  0
LINE
  5
39F
  8
DETAIL
  6
CONTINUOUS
 10
-133.5
 20
188.5
 30
0.0
 11
-133.5
 21
192.0
 31
0.0
  0
LINE
  5
3A0
  8
DETAIL
  6
CONTINUOUS
 10
-136.421162
 20
139.0
 30
0.0
 11
-179.0
 21
139.0
 31
0.0
  0
LINE
  5
3A1
  8
DETAIL
  6
CONTINUOUS
 10
-183.0
 20
143.0
 30
0.0
 11
-183.0
 21
188.5
 31
0.0
  0
POLYLINE
  5
3A2
  8
DETAIL
  6
CONTINUOUS
 66
     1
 10
0.0
 20
0.0
 30
0.0
  0
VERTEX
  5
3A3
  8
DETAIL
  6
CONTINUOUS
 10
-137.633597
 20
181.439799
 30
0.0
  0
VERTEX
  5
3A4
  8
DETAIL
  6
CONTINUOUS
 10
-138.475422
 20
181.476899
 30
0.0
  0
VERTEX
  5
3A5
  8
DETAIL
  6
CONTINUOUS
 10
-139.305965
 20
181.199692
 30
0.0
  0
VERTEX
  5
3A6
  8
DETAIL
  6
CONTINUOUS
 10
-140.096147
 20
180.617883
 30
0.0
  0
VERTEX
  5
3A7
  8
DETAIL
  6
CONTINUOUS
 10
-140.818301
 20
179.751842
 30
0.0
  0
VERTEX
  5
3A8
  8
DETAIL
  6
CONTINUOUS
 10
-141.447142
 20
178.631893
 30
0.0
  0
VERTEX
  5
3A9
  8
DETAIL
  6
CONTINUOUS
 10
-141.960653
 20
177.297248
 30
0.0
  0
VERTEX
  5
3AA
  8
DETAIL
  6
CONTINUOUS
 10
-142.340854
 20
175.794637
 30
0.0
  0
VERTEX
  5
3AB
  8
DETAIL
  6
CONTINUOUS
 10
-142.574433
 20
174.176671
 30
0.0
  0
VERTEX
  5
3AC
  8
DETAIL
  6
CONTINUOUS
 10
-142.653212
 20
172.5
 30
0.0
  0
VERTEX
  5
3AD
  8
DETAIL
  6
CONTINUOUS
 10
-142.574433
 20
170.823329
 30
0.0
  0
VERTEX
  5
3AE
  8
DETAIL
  6
CONTINUOUS
 10
-142.340854
 20
169.205363
 30
0.0
  0
VERTEX
  5
3AF
  8
DETAIL
  6
CONTINUOUS
 10
-141.960653
 20
167.702752
 30
0.0
  0
VERTEX
  5
3B0
  8
DETAIL
  6
CONTINUOUS
 10
-141.447142
 20
166.368107
 30
0.0
  0
VERTEX
  5
3B1
  8
DETAIL
  6
CONTINUOUS
 10
-140.818301
 20
165.248158
 30
0.0
  0
VERTEX
  5
3B2
  8
DETAIL
  6
CONTINUOUS
 10
-140.096147
 20
164.382117
 30
0.0
  0
VERTEX
  5
3B3
  8
DETAIL
  6
CONTINUOUS
 10
-139.305965
 20
163.800308
 30
0.0
  0
VERTEX
  5
3B4
  8
DETAIL
  6
CONTINUOUS
 10
-138.475422
 20
163.523101
 30
0.0
  0
VERTEX
  5
3B5
  8
DETAIL
  6
CONTINUOUS
 10
-137.633597
 20
163.560201
 30
0.0
  0
SEQEND
  5
3B6
  8
DETAIL
  6
CONTINUOUS
  0
ARC
  5
3B7
  8
DETAIL
  6
CONTINUOUS
 10
-138.095765
 20
150.451716
 30
0.0
 40
16.292754
 50
207.725834
 51
223.676258
  0
ARC
  5
3B8
  8
DETAIL
  6
CONTINUOUS
 10
-149.419705
 20
144.5
 30
0.0
 40
3.5
 50
152.274166
 51
207.725834
  0
ARC
  5
3B9
  8
DETAIL
  6
CONTINUOUS
 10
-149.411543
 20
149.352908
 30
0.0
 40
0.647092
 50
90.0
 51
136.323742
  0
ARC
  5
3BA
  8
DETAIL
  6
CONTINUOUS
 10
-138.095765
 20
138.548284
 30
0.0
 40
16.292754
 50
136.323742
 51
152.274166
  0
POLYLINE
  5
3BB
  8
DETAIL
  6
CONTINUOUS
 66
     1
 10
0.0
 20
0.0
 30
0.0
 70
     1
  0
VERTEX
  5
3BC
  8
DETAIL
  6
CONTINUOUS
 10
-136.421162
 20
148.0
 30
0.0
  0
VERTEX
  5
3BD
  8
DETAIL
  6
CONTINUOUS
 10
-136.76257
 20
147.932748
 30
0.0
  0
VERTEX
  5
3BE
  8
DETAIL
  6
CONTINUOUS
 10
-137.090858
 20
147.733578
 30
0.0
  0
VERTEX
  5
3BF
  8
DETAIL
  6
CONTINUOUS
 10
-137.39341
 20
147.410144
 30
0.0
  0
VERTEX
  5
3C0
  8
DETAIL
  6
CONTINUOUS
 10
-137.658599
 20
146.974874
 30
0.0
  0
VERTEX
  5
3C1
  8
DETAIL
  6
CONTINUOUS
 10
-137.876233
 20
146.444496
 30
0.0
  0
VERTEX
  5
3C2
  8
DETAIL
  6
CONTINUOUS
 10
-138.037951
 20
145.839392
 30
0.0
  0
VERTEX
  5
3C3
  8
DETAIL
  6
CONTINUOUS
 10
-138.137536
 20
145.182816
 30
0.0
  0
VERTEX
  5
3C4
  8
DETAIL
  6
CONTINUOUS
 10
-138.171162
 20
144.5
 30
0.0
  0
VERTEX
  5
3C5
  8
DETAIL
  6
CONTINUOUS
 10
-138.137536
 20
143.817184
 30
0.0
  0
VERTEX
  5
3C6
  8
DETAIL
  6
CONTINUOUS
 10
-138.037951
 20
143.160608
 30
0.0
  0
VERTEX
  5
3C7
  8
DETAIL
  6
CONTINUOUS
 10
-137.876233
 20
142.555504
 30
0.0
  0
VERTEX
  5
3C8
  8
DETAIL
  6
CONTINUOUS
 10
-137.658599
 20
142.025126
 30
0.0
  0
VERTEX
  5
3C9
  8
DETAIL
  6
CONTINUOUS
 10
-137.39341
 20
141.589856
 30
0.0
  0
VERTEX
  5
3CA
  8
DETAIL
  6
CONTINUOUS
 10
-137.090858
 20
141.266422
 30
0.0
  0
VERTEX
  5
3CB
  8
DETAIL
  6
CONTINUOUS
 10
-136.76257
 20
141.067252
 30
0.0
  0
VERTEX
  5
3CC
  8
DETAIL
  6
CONTINUOUS
 10
-136.421162
 20
141.0
 30
0.0
  0
VERTEX
  5
3CD
  8
DETAIL
  6
CONTINUOUS
 10
-136.079754
 20
141.067252
 30
0.0
  0
VERTEX
  5
3CE
  8
DETAIL
  6
CONTINUOUS
 10
-135.751466
 20
141.266422
 30
0.0
  0
VERTEX
  5
3CF
  8
DETAIL
  6
CONTINUOUS
 10
-135.448914
 20
141.589856
 30
0.0
  0
VERTEX
  5
3D0
  8
DETAIL
  6
CONTINUOUS
 10
-135.183725
 20
142.025126
 30
0.0
  0
VERTEX
  5
3D1
  8
DETAIL
  6
CONTINUOUS
 10
-134.96609
 20
142.555504
 30
0.0
  0
VERTEX
  5
3D2
  8
DETAIL
  6
CONTINUOUS
 10
-134.804372
 20
143.160608
 30
0.0
  0
VERTEX
  5
3D3
  8
DETAIL
  6
CONTINUOUS
 10
-134.704787
 20
143.817184
 30
0.0
  0
VERTEX
  5
3D4
  8
DETAIL
  6
CONTINUOUS
 10
-134.671162
 20
144.5
 30
0.0
  0
VERTEX
  5
3D5
  8
DETAIL
  6
CONTINUOUS
 10
-134.704787
 20
145.182816
 30
0.0
  0
VERTEX
  5
3D6
  8
DETAIL
  6
CONTINUOUS
 10
-134.804372
 20
145.839392
 30
0.0
  0
VERTEX
  5
3D7
  8
DETAIL
  6
CONTINUOUS
 10
-134.96609
 20
146.444496
 30
0.0
  0
VERTEX
  5
3D8
  8
DETAIL
  6
CONTINUOUS
 10
-135.183725
 20
146.974874
 30
0.0
  0
VERTEX
  5
3D9
  8
DETAIL
  6
CONTINUOUS
 10
-135.448914
 20
147.410144
 30
0.0
  0
VERTEX
  5
3DA
  8
DETAIL
  6
CONTINUOUS
 10
-135.751466
 20
147.733578
 30
0.0
  0
VERTEX
  5
3DB
  8
DETAIL
  6
CONTINUOUS
 10
-136.079754
 20
147.932748
 30
0.0
  0
SEQEND
  5
3DC
  8
DETAIL
  6
CONTINUOUS
  0
POLYLINE
  5
3DD
  8
DETAIL
  6
CONTINUOUS
 66
     1
 10
0.0
 20
0.0
 30
0.0
 70
     1
  0
VERTEX
  5
3DE
  8
DETAIL
  6
CONTINUOUS
 10
-136.421162
 20
150.0
 30
0.0
  0
VERTEX
  5
3DF
  8
DETAIL
  6
CONTINUOUS
 10
-136.95766
 20
149.894319
 30
0.0
  0
VERTEX
  5
3E0
  8
DETAIL
  6
CONTINUOUS
 10
-137.473541
 20
149.581337
 30
0.0
  0
VERTEX
  5
3E1
  8
DETAIL
  6
CONTINUOUS
 10
-137.94898
 20
149.073083
 30
0.0
  0
VERTEX
  5
3E2
  8
DETAIL
  6
CONTINUOUS
 10
-138.365705
 20
148.389087
 30
0.0
  0
VERTEX
  5
3E3
  8
DETAIL
  6
CONTINUOUS
 10
-138.707703
 20
147.555636
 30
0.0
  0
VERTEX
  5
3E4
  8
DETAIL
  6
CONTINUOUS
 10
-138.96183
 20
146.604759
 30
0.0
  0
VERTEX
  5
3E5
  8
DETAIL
  6
CONTINUOUS
 10
-139.118321
 20
145.572997
 30
0.0
  0
VERTEX
  5
3E6
  8
DETAIL
  6
CONTINUOUS
 10
-139.171162
 20
144.5
 30
0.0
  0
VERTEX
  5
3E7
  8
DETAIL
  6
CONTINUOUS
 10
-139.118321
 20
143.427003
 30
0.0
  0
VERTEX
  5
3E8
  8
DETAIL
  6
CONTINUOUS
 10
-138.96183
 20
142.395241
 30
0.0
  0
VERTEX
  5
3E9
  8
DETAIL
  6
CONTINUOUS
 10
-138.707703
 20
141.444364
 30
0.0
  0
VERTEX
  5
3EA
  8
DETAIL
  6
CONTINUOUS
 10
-138.365705
 20
140.610913
 30
0.0
  0
VERTEX
  5
3EB
  8
DETAIL
  6
CONTINUOUS
 10
-137.94898
 20
139.926917
 30
0.0
  0
VERTEX
  5
3EC
  8
DETAIL
  6
CONTINUOUS
 10
-137.473541
 20
139.418663
 30
0.0
  0
VERTEX
  5
3ED
  8
DETAIL
  6
CONTINUOUS
 10
-136.95766
 20
139.105681
 30
0.0
  0
VERTEX
  5
3EE
  8
DETAIL
  6
CONTINUOUS
 10
-136.421162
 20
139.0
 30
0.0
  0
VERTEX
  5
3EF
  8
DETAIL
  6
CONTINUOUS
 10
-135.884663
 20
139.105681
 30
0.0
  0
VERTEX
  5
3F0
  8
DETAIL
  6
CONTINUOUS
 10
-135.368782
 20
139.418663
 30
0.0
  0
VERTEX
  5
3F1
  8
DETAIL
  6
CONTINUOUS
 10
-134.893344
 20
139.926917
 30
0.0
  0
VERTEX
  5
3F2
  8
DETAIL
  6
CONTINUOUS
 10
-134.476618
 20
140.610913
 30
0.0
  0
VERTEX
  5
3F3
  8
DETAIL
  6
CONTINUOUS
 10
-134.13462
 20
141.444364
 30
0.0
  0
VERTEX
  5
3F4
  8
DETAIL
  6
CONTINUOUS
 10
-133.880493
 20
142.395241
 30
0.0
  0
VERTEX
  5
3F5
  8
DETAIL
  6
CONTINUOUS
 10
-133.724002
 20
143.427003
 30
0.0
  0
VERTEX
  5
3F6
  8
DETAIL
  6
CONTINUOUS
 10
-133.671162
 20
144.5
 30
0.0
  0
VERTEX
  5
3F7
  8
DETAIL
  6
CONTINUOUS
 10
-133.724002
 20
145.572997
 30
0.0
  0
VERTEX
  5
3F8
  8
DETAIL
  6
CONTINUOUS
 10
-133.880493
 20
146.604759
 30
0.0
  0
VERTEX
  5
3F9
  8
DETAIL
  6
CONTINUOUS
 10
-134.13462
 20
147.555636
 30
0.0
  0
VERTEX
  5
3FA
  8
DETAIL
  6
CONTINUOUS
 10
-134.476618
 20
148.389087
 30
0.0
  0
VERTEX
  5
3FB
  8
DETAIL
  6
CONTINUOUS
 10
-134.893344
 20
149.073083
 30
0.0
  0
VERTEX
  5
3FC
  8
DETAIL
  6
CONTINUOUS
 10
-135.368782
 20
149.581337
 30
0.0
  0
VERTEX
  5
3FD
  8
DETAIL
  6
CONTINUOUS
 10
-135.884663
 20
149.894319
 30
0.0
  0
SEQEND
  5
3FE
  8
DETAIL
  6
CONTINUOUS
  0
LINE
  5
3FF
  8
DETAIL
  6
CONTINUOUS
 10
-136.421162
 20
150.0
 30
0.0
 11
-149.411543
 21
150.0
 31
0.0
  0
ARC
  5
400
  8
DETAIL
  6
CONTINUOUS
 10
-149.411543
 20
180.278431
 30
0.0
 40
1.221569
 50
90.0
 51
132.828404
  0
ARC
  5
401
  8
DETAIL
  6
CONTINUOUS
 10
-149.411543
 20
164.721569
 30
0.0
 40
1.221569
 50
227.171596
 51
270.0
  0
LINE
  5
402
  8
DETAIL
  6
CONTINUOUS
 10
-138.153212
 20
181.5
 30
0.0
 11
-149.411543
 21
181.5
 31
0.0
  0
LINE
  5
403
  8
DETAIL
  6
CONTINUOUS
 10
-138.153212
 20
163.5
 30
0.0
 11
-149.411543
 21
163.5
 31
0.0
  0
ARC
  5
404
  8
DETAIL
  6
CONTINUOUS
 10
-130.795259
 20
160.194654
 30
0.0
 40
28.606311
 50
132.828404
 51
148.582282
  0
ARC
  5
405
  8
DETAIL
  6
CONTINUOUS
 10
-130.795259
 20
184.805346
 30
0.0
 40
28.606311
 50
211.417718
 51
227.171596
  0
ARC
  5
406
  8
DETAIL
  6
CONTINUOUS
 10
-150.940641
 20
172.5
 30
0.0
 40
5.0
 50
148.582282
 51
211.417718
  0
LINE
  5
407
  8
DETAIL
  6
CONTINUOUS
 10
-147.0
 20
150.0
 30
0.0
 11
-147.0
 21
163.5
 31
0.0
  0
LINE
  5
408
  8
DETAIL
  6
CONTINUOUS
 10
-147.0
 20
181.5
 30
0.0
 11
-147.0
 21
188.5
 31
0.0
  0
ARC
  5
409
  8
DETAIL
  6
CONTINUOUS
 10
-149.411543
 20
139.647092
 30
0.0
 40
0.647092
 50
223.676258
 51
270.0
  0
LINE
  5
40A
  8
DETAIL
  6
CONTINUOUS
 10
-129.0
 20
192.0
 30
0.0
 11
-121.0
 21
200.0
 31
0.0
  0
LINE
  5
40B
  8
DETAIL
  6
CONTINUOUS
 10
-201.0
 20
192.0
 30
0.0
 11
-209.0
 21
200.0
 31
0.0
  0
POLYLINE
  5
40C
  8
DETAIL
  6
CONTINUOUS
 66
     1
 10
0.0
 20
0.0
 30
0.0
 70
     1
  0
VERTEX
  5
40D
  8
DETAIL
  6
CONTINUOUS
 10
-133.823085
 20
179.5
 30
0.0
  0
VERTEX
  5
40E
  8
DETAIL
  6
CONTINUOUS
 10
-134.505902
 20
179.365497
 30
0.0
  0
VERTEX
  5
40F
  8
DETAIL
  6
CONTINUOUS
 10
-135.162477
 20
178.967157
 30
0.0
  0
VERTEX
  5
410
  8
DETAIL
  6
CONTINUOUS
 10
-135.767581
 20
178.320287
 30
0.0
  0
VERTEX
  5
411
  8
DETAIL
  6
CONTINUOUS
 10
-136.297959
 20
177.449747
 30
0.0
  0
VERTEX
  5
412
  8
DETAIL
  6
CONTINUOUS
 10
-136.733229
 20
176.388992
 30
0.0
  0
VERTEX
  5
413
  8
DETAIL
  6
CONTINUOUS
 10
-137.056664
 20
175.178784
 30
0.0
  0
VERTEX
  5
414
  8
DETAIL
  6
CONTINUOUS
 10
-137.255834
 20
173.865632
 30
0.0
  0
VERTEX
  5
415
  8
DETAIL
  6
CONTINUOUS
 10
-137.323085
 20
172.5
 30
0.0
  0
VERTEX
  5
416
  8
DETAIL
  6
CONTINUOUS
 10
-137.255834
 20
171.134368
 30
0.0
  0
VERTEX
  5
417
  8
DETAIL
  6
CONTINUOUS
 10
-137.056664
 20
169.821216
 30
0.0
  0
VERTEX
  5
418
  8
DETAIL
  6
CONTINUOUS
 10
-136.733229
 20
168.611008
 30
0.0
  0
VERTEX
  5
419
  8
DETAIL
  6
CONTINUOUS
 10
-136.297959
 20
167.550253
 30
0.0
  0
VERTEX
  5
41A
  8
DETAIL
  6
CONTINUOUS
 10
-135.767581
 20
166.679713
 30
0.0
  0
VERTEX
  5
41B
  8
DETAIL
  6
CONTINUOUS
 10
-135.162477
 20
166.032843
 30
0.0
  0
VERTEX
  5
41C
  8
DETAIL
  6
CONTINUOUS
 10
-134.505902
 20
165.634503
 30
0.0
  0
VERTEX
  5
41D
  8
DETAIL
  6
CONTINUOUS
 10
-133.823085
 20
165.5
 30
0.0
  0
VERTEX
  5
41E
  8
DETAIL
  6
CONTINUOUS
 10
-133.140269
 20
165.634503
 30
0.0
  0
VERTEX
  5
41F
  8
DETAIL
  6
CONTINUOUS
 10
-132.483693
 20
166.032843
 30
0.0
  0
VERTEX
  5
420
  8
DETAIL
  6
CONTINUOUS
 10
-131.87859
 20
166.679713
 30
0.0
  0
VERTEX
  5
421
  8
DETAIL
  6
CONTINUOUS
 10
-131.348212
 20
167.550253
 30
0.0
  0
VERTEX
  5
422
  8
DETAIL
  6
CONTINUOUS
 10
-130.912942
 20
168.611008
 30
0.0
  0
VERTEX
  5
423
  8
DETAIL
  6
CONTINUOUS
 10
-130.589507
 20
169.821216
 30
0.0
  0
VERTEX
  5
424
  8
DETAIL
  6
CONTINUOUS
 10
-130.390337
 20
171.134368
 30
0.0
  0
VERTEX
  5
425
  8
DETAIL
  6
CONTINUOUS
 10
-130.323085
 20
172.5
 30
0.0
  0
VERTEX
  5
426
  8
DETAIL
  6
CONTINUOUS
 10
-130.390337
 20
173.865632
 30
0.0
  0
VERTEX
  5
427
  8
DETAIL
  6
CONTINUOUS
 10
-130.589507
 20
175.178784
 30
0.0
  0
VERTEX
  5
428
  8
DETAIL
  6
CONTINUOUS
 10
-130.912942
 20
176.388992
 30
0.0
  0
VERTEX
  5
429
  8
DETAIL
  6
CONTINUOUS
 10
-131.348212
 20
177.449747
 30
0.0
  0
VERTEX
  5
42A
  8
DETAIL
  6
CONTINUOUS
 10
-131.87859
 20
178.320287
 30
0.0
  0
VERTEX
  5
42B
  8
DETAIL
  6
CONTINUOUS
 10
-132.483693
 20
178.967157
 30
0.0
  0
VERTEX
  5
42C
  8
DETAIL
  6
CONTINUOUS
 10
-133.140269
 20
179.365497
 30
0.0
  0
SEQEND
  5
42D
  8
DETAIL
  6
CONTINUOUS
  0
POLYLINE
  5
42E
  8
DETAIL
  6
CONTINUOUS
 66
     1
 10
0.0
 20
0.0
 30
0.0
 70
     1
  0
VERTEX
  5
42F
  8
DETAIL
  6
CONTINUOUS
 10
-133.823085
 20
180.7
 30
0.0
  0
VERTEX
  5
430
  8
DETAIL
  6
CONTINUOUS
 10
-134.622956
 20
180.542439
 30
0.0
  0
VERTEX
  5
431
  8
DETAIL
  6
CONTINUOUS
 10
-135.392088
 20
180.075812
 30
0.0
  0
VERTEX
  5
432
  8
DETAIL
  6
CONTINUOUS
 10
-136.100923
 20
179.318051
 30
0.0
  0
VERTEX
  5
433
  8
DETAIL
  6
CONTINUOUS
 10
-136.722223
 20
178.298276
 30
0.0
  0
VERTEX
  5
434
  8
DETAIL
  6
CONTINUOUS
 10
-137.232111
 20
177.055676
 30
0.0
  0
VERTEX
  5
435
  8
DETAIL
  6
CONTINUOUS
 10
-137.610992
 20
175.638004
 30
0.0
  0
VERTEX
  5
436
  8
DETAIL
  6
CONTINUOUS
 10
-137.844305
 20
174.099741
 30
0.0
  0
VERTEX
  5
437
  8
DETAIL
  6
CONTINUOUS
 10
-137.923085
 20
172.5
 30
0.0
  0
VERTEX
  5
438
  8
DETAIL
  6
CONTINUOUS
 10
-137.844305
 20
170.900259
 30
0.0
  0
VERTEX
  5
439
  8
DETAIL
  6
CONTINUOUS
 10
-137.610992
 20
169.361996
 30
0.0
  0
VERTEX
  5
43A
  8
DETAIL
  6
CONTINUOUS
 10
-137.232111
 20
167.944324
 30
0.0
  0
VERTEX
  5
43B
  8
DETAIL
  6
CONTINUOUS
 10
-136.722223
 20
166.701724
 30
0.0
  0
VERTEX
  5
43C
  8
DETAIL
  6
CONTINUOUS
 10
-136.100923
 20
165.681949
 30
0.0
  0
VERTEX
  5
43D
  8
DETAIL
  6
CONTINUOUS
 10
-135.392088
 20
164.924188
 30
0.0
  0
VERTEX
  5
43E
  8
DETAIL
  6
CONTINUOUS
 10
-134.622956
 20
164.457561
 30
0.0
  0
VERTEX
  5
43F
  8
DETAIL
  6
CONTINUOUS
 10
-133.823085
 20
164.3
 30
0.0
  0
VERTEX
  5
440
  8
DETAIL
  6
CONTINUOUS
 10
-133.023215
 20
164.457561
 30
0.0
  0
VERTEX
  5
441
  8
DETAIL
  6
CONTINUOUS
 10
-132.254083
 20
164.924188
 30
0.0
  0
VERTEX
  5
442
  8
DETAIL
  6
CONTINUOUS
 10
-131.545248
 20
165.681949
 30
0.0
  0
VERTEX
  5
443
  8
DETAIL
  6
CONTINUOUS
 10
-130.923948
 20
166.701724
 30
0.0
  0
VERTEX
  5
444
  8
DETAIL
  6
CONTINUOUS
 10
-130.41406
 20
167.944324
 30
0.0
  0
VERTEX
  5
445
  8
DETAIL
  6
CONTINUOUS
 10
-130.035179
 20
169.361996
 30
0.0
  0
VERTEX
  5
446
  8
DETAIL
  6
CONTINUOUS
 10
-129.801866
 20
170.900259
 30
0.0
  0
VERTEX
  5
447
  8
DETAIL
  6
CONTINUOUS
 10
-129.723085
 20
172.5
 30
0.0
  0
VERTEX
  5
448
  8
DETAIL
  6
CONTINUOUS
 10
-129.801866
 20
174.099741
 30
0.0
  0
VERTEX
  5
449
  8
DETAIL
  6
CONTINUOUS
 10
-130.035179
 20
175.638004
 30
0.0
  0
VERTEX
  5
44A
  8
DETAIL
  6
CONTINUOUS
 10
-130.41406
 20
177.055676
 30
0.0
  0
VERTEX
  5
44B
  8
DETAIL
  6
CONTINUOUS
 10
-130.923948
 20
178.298276
 30
0.0
  0
VERTEX
  5
44C
  8
DETAIL
  6
CONTINUOUS
 10
-131.545248
 20
179.318051
 30
0.0
  0
VERTEX
  5
44D
  8
DETAIL
  6
CONTINUOUS
 10
-132.254083
 20
180.075812
 30
0.0
  0
VERTEX
  5
44E
  8
DETAIL
  6
CONTINUOUS
 10
-133.023215
 20
180.542439
 30
0.0
  0
SEQEND
  5
44F
  8
DETAIL
  6
CONTINUOUS
  0
LINE
  5
450
  8
DETAIL
  6
CONTINUOUS
 10
-133.444344
 20
164.335062
 30
0.0
 11
-137.73752
 21
163.538482
 31
0.0
  0
LINE
  5
451
  8
DETAIL
  6
CONTINUOUS
 10
-133.444344
 20
180.664938
 30
0.0
 11
-137.73752
 21
181.461518
 31
0.0
  0
LINE
  5
452
  8
DETAIL
  6
CONTINUOUS
 10
-258.22967
 20
2195.0
 30
0.0
 11
-171.77033
 21
2195.0
 31
0.0
  0
LINE
  5
453
  8
DETAIL
  6
CONTINUOUS
 10
-295.0
 20
2175.0
 30
0.0
 11
-295.0
 21
2170.0
 31
0.0
  0
LINE
  5
454
  8
DETAIL
  6
CONTINUOUS
 10
-135.0
 20
2175.0
 30
0.0
 11
-135.0
 21
2170.0
 31
0.0
  0
LINE
  5
455
  8
DETAIL
  6
CONTINUOUS
 10
-295.0
 20
2175.0
 30
0.0
 11
-292.09017
 21
2175.0
 31
0.0
  0
LINE
  5
456
  8
DETAIL
  6
CONTINUOUS
 10
-275.0
 20
2170.0
 30
0.0
 11
-267.514437
 21
2188.713907
 31
0.0
  0
LINE
  5
457
  8
DETAIL
  6
CONTINUOUS
 10
-155.0
 20
2170.0
 30
0.0
 11
-162.485563
 21
2188.713907
 31
0.0
  0
ARC
  5
458
  8
DETAIL
  6
CONTINUOUS
 10
-171.77033
 20
2185.0
 30
0.0
 40
10.0
 50
21.801409
 51
90.0
  0
ARC
  5
459
  8
DETAIL
  6
CONTINUOUS
 10
-258.22967
 20
2185.0
 30
0.0
 40
10.0
 50
90.0
 51
158.198591
  0
LINE
  5
45A
  8
DETAIL
  6
CONTINUOUS
 10
-288.116621
 20
2176.913308
 30
0.0
 11
-274.50424
 21
2194.260077
 31
0.0
  0
ARC
  5
45B
  8
DETAIL
  6
CONTINUOUS
 10
-292.050109
 20
2180.0
 30
0.0
 40
5.0
 50
270.0
 51
321.877966
  0
ARC
  5
45C
  8
DETAIL
  6
CONTINUOUS
 10
-262.703775
 20
2185.0
 30
0.0
 40
15.0
 50
90.0
 51
141.877966
  0
LINE
  5
45D
  8
DETAIL
  6
CONTINUOUS
 10
-141.883379
 20
2176.913308
 30
0.0
 11
-155.49576
 21
2194.260077
 31
0.0
  0
ARC
  5
45E
  8
DETAIL
  6
CONTINUOUS
 10
-137.949891
 20
2180.0
 30
0.0
 40
5.0
 50
218.122034
 51
270.0
  0
LINE
  5
45F
  8
DETAIL
  6
CONTINUOUS
 10
-137.949891
 20
2175.0
 30
0.0
 11
-135.0
 21
2175.0
 31
0.0
  0
LINE
  5
460
  8
DETAIL
  6
CONTINUOUS
 10
-262.703775
 20
2200.0
 30
0.0
 11
-167.296225
 21
2200.0
 31
0.0
  0
ARC
  5
461
  8
DETAIL
  6
CONTINUOUS
 10
-167.296225
 20
2185.0
 30
0.0
 40
15.0
 50
38.122034
 51
90.0
  0
LINE
  5
462
  8
DETAIL
  6
CONTINUOUS
 10
258.22967
 20
2195.0
 30
0.0
 11
171.77033
 21
2195.0
 31
0.0
  0
LINE
  5
463
  8
DETAIL
  6
CONTINUOUS
 10
295.0
 20
2175.0
 30
0.0
 11
295.0
 21
2170.0
 31
0.0
  0
LINE
  5
464
  8
DETAIL
  6
CONTINUOUS
 10
135.0
 20
2175.0
 30
0.0
 11
135.0
 21
2170.0
 31
0.0
  0
LINE
  5
465
  8
DETAIL
  6
CONTINUOUS
 10
295.0
 20
2175.0
 30
0.0
 11
292.09017
 21
2175.0
 31
0.0
  0
LINE
  5
466
  8
DETAIL
  6
CONTINUOUS
 10
275.0
 20
2170.0
 30
0.0
 11
267.514437
 21
2188.713907
 31
0.0
  0
LINE
  5
467
  8
DETAIL
  6
CONTINUOUS
 10
155.0
 20
2170.0
 30
0.0
 11
162.485563
 21
2188.713907
 31
0.0
  0
ARC
  5
468
  8
DETAIL
  6
CONTINUOUS
 10
171.77033
 20
2185.0
 30
0.0
 40
10.0
 50
90.0
 51
158.198591
  0
ARC
  5
469
  8
DETAIL
  6
CONTINUOUS
 10
258.22967
 20
2185.0
 30
0.0
 40
10.0
 50
21.801409
 51
90.0
  0
LINE
  5
46A
  8
DETAIL
  6
CONTINUOUS
 10
288.116621
 20
2176.913308
 30
0.0
 11
274.50424
 21
2194.260077
 31
0.0
  0
ARC
  5
46B
  8
DETAIL
  6
CONTINUOUS
 10
292.050109
 20
2180.0
 30
0.0
 40
5.0
 50
218.122034
 51
270.0
  0
ARC
  5
46C
  8
DETAIL
  6
CONTINUOUS
 10
262.703775
 20
2185.0
 30
0.0
 40
15.0
 50
38.122034
 51
90.0
  0
LINE
  5
46D
  8
DETAIL
  6
CONTINUOUS
 10
141.883379
 20
2176.913308
 30
0.0
 11
155.49576
 21
2194.260077
 31
0.0
  0
ARC
  5
46E
  8
DETAIL
  6
CONTINUOUS
 10
137.949891
 20
2180.0
 30
0.0
 40
5.0
 50
270.0
 51
321.877966
  0
LINE
  5
46F
  8
DETAIL
  6
CONTINUOUS
 10
137.949891
 20
2175.0
 30
0.0
 11
135.0
 21
2175.0
 31
0.0
  0
LINE
  5
470
  8
DETAIL
  6
CONTINUOUS
 10
262.703775
 20
2200.0
 30
0.0
 11
167.296225
 21
2200.0
 31
0.0
  0
ARC
  5
471
  8
DETAIL
  6
CONTINUOUS
 10
167.296225
 20
2185.0
 30
0.0
 40
15.0
 50
90.0
 51
141.877966
  0
LINE
  5
472
  8
DETAIL
  6
CONTINUOUS
 10
315.0
 20
2143.0
 30
0.0
 11
-315.0
 21
2143.0
 31
0.0
  0
LINE
  5
473
  8
DETAIL
  6
CONTINUOUS
 10
45.0
 20
2170.0
 30
0.0
 11
45.0
 21
2210.0
 31
0.0
  0
ARC
  5
474
  8
DETAIL
  6
CONTINUOUS
 10
40.0
 20
2210.0
 30
0.0
 40
5.0
 50
0.0
 51
90.0
  0
LINE
  5
475
  8
DETAIL
  6
CONTINUOUS
 10
-45.0
 20
2170.0
 30
0.0
 11
-45.0
 21
2210.0
 31
0.0
  0
LINE
  5
476
  8
DETAIL
  6
CONTINUOUS
 10
40.0
 20
2215.0
 30
0.0
 11
-40.0
 21
2215.0
 31
0.0
  0
ARC
  5
477
  8
DETAIL
  6
CONTINUOUS
 10
-40.0
 20
2210.0
 30
0.0
 40
5.0
 50
90.0
 51
180.0
  0
LINE
  5
478
  8
DETAIL
  6
CONTINUOUS
 10
-214.0
 20
185.5
 30
0.0
 11
-210.0
 21
189.5
 31
0.0
  0
LINE
  5
479
  8
DETAIL
  6
CONTINUOUS
 10
-210.0
 20
200.0
 30
0.0
 11
-210.0
 21
189.5
 31
0.0
  0
LINE
  5
47A
  8
DETAIL
  6
CONTINUOUS
 10
-254.0
 20
185.5
 30
0.0
 11
-258.0
 21
189.5
 31
0.0
  0
LINE
  5
47B
  8
DETAIL
  6
CONTINUOUS
 10
-258.0
 20
200.0
 30
0.0
 11
-258.0
 21
189.5
 31
0.0
  0
LINE
  5
47C
  8
DETAIL
  6
CONTINUOUS
 10
-210.0
 20
189.5
 30
0.0
 11
-258.0
 21
189.5
 31
0.0
  0
LINE
  5
47D
  8
DETAIL
  6
CONTINUOUS
 10
-254.0
 20
185.5
 30
0.0
 11
-214.0
 21
185.5
 31
0.0
  0
LINE
  5
47E
  8
DETAIL
  6
CONTINUOUS
 10
-251.783055
 20
185.5
 30
0.0
 11
-251.783055
 21
170.5
 31
0.0
  0
LINE
  5
47F
  8
DETAIL
  6
CONTINUOUS
 10
-251.783055
 20
170.5
 30
0.0
 11
-216.216945
 21
170.5
 31
0.0
  0
LINE
  5
480
  8
DETAIL
  6
CONTINUOUS
 10
-216.216945
 20
185.5
 30
0.0
 11
-216.216945
 21
170.5
 31
0.0
  0
LINE
  5
481
  8
DETAIL
  6
CONTINUOUS
 10
-246.6875
 20
155.5
 30
0.0
 11
-221.3125
 21
155.5
 31
0.0
  0
LINE
  5
482
  8
DETAIL
  6
CONTINUOUS
 10
-246.6875
 20
155.5
 30
0.0
 11
-247.625
 21
170.5
 31
0.0
  0
LINE
  5
483
  8
DETAIL
  6
CONTINUOUS
 10
-221.3125
 20
155.5
 30
0.0
 11
-220.375
 21
170.5
 31
0.0
  0
ARC
  5
484
  8
DETAIL
  6
CONTINUOUS
 10
-239.818893
 20
171.0
 30
0.0
 40
0.5
 50
180.0
 51
270.0
  0
LINE
  5
485
  8
DETAIL
  6
CONTINUOUS
 10
-186.0
 20
0.0
 30
0.0
 11
-186.0
 21
3.2
 31
0.0
  0
LINE
  5
486
  8
DETAIL
  6
CONTINUOUS
 10
-211.5
 20
3.2
 30
0.0
 11
-186.0
 21
3.2
 31
0.0
  0
LINE
  5
487
  8
DETAIL
  6
CONTINUOUS
 10
-211.5
 20
0.0
 30
0.0
 11
-186.0
 21
0.0
 31
0.0
  0
LINE
  5
488
  8
DETAIL
  6
CONTINUOUS
 10
-310.0
 20
0.0
 30
0.0
 11
-310.0
 21
3.2
 31
0.0
  0
LINE
  5
489
  8
DETAIL
  6
CONTINUOUS
 10
-284.5
 20
3.2
 30
0.0
 11
-310.0
 21
3.2
 31
0.0
  0
LINE
  5
48A
  8
DETAIL
  6
CONTINUOUS
 10
-284.5
 20
0.0
 30
0.0
 11
-310.0
 21
0.0
 31
0.0
  0
LINE
  5
48B
  8
DETAIL
  6
CONTINUOUS
 10
186.0
 20
0.0
 30
0.0
 11
186.0
 21
3.2
 31
0.0
  0
LINE
  5
48C
  8
DETAIL
  6
CONTINUOUS
 10
310.0
 20
0.0
 30
0.0
 11
310.0
 21
3.2
 31
0.0
  0
LINE
  5
48D
  8
DETAIL
  6
CONTINUOUS
 10
211.5
 20
3.2
 30
0.0
 11
186.0
 21
3.2
 31
0.0
  0
LINE
  5
48E
  8
DETAIL
  6
CONTINUOUS
 10
284.5
 20
3.2
 30
0.0
 11
310.0
 21
3.2
 31
0.0
  0
LINE
  5
48F
  8
DETAIL
  6
CONTINUOUS
 10
284.5
 20
0.0
 30
0.0
 11
310.0
 21
0.0
 31
0.0
  0
LINE
  5
490
  8
DETAIL
  6
CONTINUOUS
 10
211.5
 20
0.0
 30
0.0
 11
186.0
 21
0.0
 31
0.0
  0
LINE
  5
491
  8
DETAIL
  6
CONTINUOUS
 10
-36.5
 20
200.0
 30
0.0
 11
-36.5
 21
0.0
 31
0.0
  0
LINE
  5
492
  8
DETAIL
  6
CONTINUOUS
 10
-284.5
 20
0.0
 30
0.0
 11
-211.5
 21
0.0
 31
0.0
  0
LINE
  5
493
  8
DETAIL
  6
CONTINUOUS
 10
-211.5
 20
188.0
 30
0.0
 11
-211.5
 21
0.0
 31
0.0
  0
LINE
  5
494
  8
DETAIL
  6
CONTINUOUS
 10
-284.5
 20
200.0
 30
0.0
 11
-284.5
 21
0.0
 31
0.0
  0
LINE
  5
495
  8
DETAIL
  6
CONTINUOUS
 10
36.5
 20
0.0
 30
0.0
 11
-36.5
 21
0.0
 31
0.0
  0
LINE
  5
496
  8
DETAIL
  6
CONTINUOUS
 10
36.5
 20
200.0
 30
0.0
 11
36.5
 21
0.0
 31
0.0
  0
LINE
  5
497
  8
DETAIL
  6
CONTINUOUS
 10
211.5
 20
200.0
 30
0.0
 11
211.5
 21
0.0
 31
0.0
  0
LINE
  5
498
  8
DETAIL
  6
CONTINUOUS
 10
284.5
 20
200.0
 30
0.0
 11
284.5
 21
0.0
 31
0.0
  0
LINE
  5
499
  8
DETAIL
  6
CONTINUOUS
 10
-315.0
 20
2170.0
 30
0.0
 11
-315.0
 21
200.0
 31
0.0
  0
LINE
  5
49A
  8
DETAIL
  6
CONTINUOUS
 10
315.0
 20
200.0
 30
0.0
 11
315.0
 21
2170.0
 31
0.0
  0
LINE
  5
49B
  8
DETAIL
  6
CONTINUOUS
 10
315.0
 20
2170.0
 30
0.0
 11
-315.0
 21
2170.0
 31
0.0
  0
LINE
  5
49C
  8
DETAIL
  6
CONTINUOUS
 10
315.0
 20
200.0
 30
0.0
 11
-315.0
 21
200.0
 31
0.0
  0
LINE
  5
49D
  8
DETAIL
  6
CONTINUOUS
 10
284.5
 20
0.0
 30
0.0
 11
211.5
 21
0.0
 31
0.0
  0
LINE
  5
49E
  8
DETAIL
  6
CONTINUOUS
 10
280.0
 20
1490.0
 30
0.0
 11
280.0
 21
1376.0
 31
0.0
  0
ARC
  5
49F
  8
DETAIL
  6
CONTINUOUS
 10
272.0
 20
1490.0
 30
0.0
 40
8.0
 50
0.0
 51
90.0
  0
ARC
  5
4A0
  8
DETAIL
  6
CONTINUOUS
 10
131.0
 20
1490.0
 30
0.0
 40
8.0
 50
90.0
 51
180.0
  0
LINE
  5
4A1
  8
DETAIL
  6
CONTINUOUS
 10
272.0
 20
1368.0
 30
0.0
 11
131.0
 21
1368.0
 31
0.0
  0
ARC
  5
4A2
  8
DETAIL
  6
CONTINUOUS
 10
272.0
 20
1376.0
 30
0.0
 40
8.0
 50
270.0
 51
0.0
  0
LINE
  5
4A3
  8
DETAIL
  6
CONTINUOUS
 10
123.0
 20
1490.0
 30
0.0
 11
123.0
 21
1376.0
 31
0.0
  0
ARC
  5
4A4
  8
DETAIL
  6
CONTINUOUS
 10
131.0
 20
1376.0
 30
0.0
 40
8.0
 50
180.0
 51
270.0
  0
CIRCLE
  5
4A5
  8
DETAIL
  6
CONTINUOUS
 10
201.5
 20
1384.5
 30
0.0
 40
5.5
  0
LINE
  5
4A6
  8
DETAIL
  6
CONTINUOUS
 10
131.0
 20
1498.0
 30
0.0
 11
272.0
 21
1498.0
 31
0.0
  0
LINE
  5
4A7
  8
DETAIL
  6
CONTINUOUS
 10
211.5
 20
0.0
 30
0.0
 11
186.0
 21
0.0
 31
0.0
  0
LINE
  5
4A8
  8
DETAIL
  6
CONTINUOUS
 10
284.5
 20
0.0
 30
0.0
 11
310.0
 21
0.0
 31
0.0
  0
LINE
  5
4A9
  8
DETAIL
  6
CONTINUOUS
 10
284.5
 20
3.2
 30
0.0
 11
310.0
 21
3.2
 31
0.0
  0
LINE
  5
4AA
  8
DETAIL
  6
CONTINUOUS
 10
211.5
 20
3.2
 30
0.0
 11
186.0
 21
3.2
 31
0.0
  0
LINE
  5
4AB
  8
DETAIL
  6
CONTINUOUS
 10
310.0
 20
0.0
 30
0.0
 11
310.0
 21
3.2
 31
0.0
  0
LINE
  5
4AC
  8
DETAIL
  6
CONTINUOUS
 10
186.0
 20
0.0
 30
0.0
 11
186.0
 21
3.2
 31
0.0
  0
LINE
  5
4AD
  8
DETAIL
  6
CONTINUOUS
 10
-284.5
 20
0.0
 30
0.0
 11
-310.0
 21
0.0
 31
0.0
  0
LINE
  5
4AE
  8
DETAIL
  6
CONTINUOUS
 10
-284.5
 20
3.2
 30
0.0
 11
-310.0
 21
3.2
 31
0.0
  0
LINE
  5
4AF
  8
DETAIL
  6
CONTINUOUS
 10
-310.0
 20
0.0
 30
0.0
 11
-310.0
 21
3.2
 31
0.0
  0
LINE
  5
4B0
  8
DETAIL
  6
CONTINUOUS
 10
-211.5
 20
0.0
 30
0.0
 11
-186.0
 21
0.0
 31
0.0
  0
LINE
  5
4B1
  8
DETAIL
  6
CONTINUOUS
 10
-211.5
 20
3.2
 30
0.0
 11
-186.0
 21
3.2
 31
0.0
  0
LINE
  5
4B2
  8
DETAIL
  6
CONTINUOUS
 10
-186.0
 20
0.0
 30
0.0
 11
-186.0
 21
3.2
 31
0.0
  0
ARC
  5
4B3
  8
DETAIL
  6
CONTINUOUS
 10
-239.818893
 20
171.0
 30
0.0
 40
0.5
 50
180.0
 51
270.0
  0
LINE
  5
4B4
  8
DETAIL
  6
CONTINUOUS
 10
-221.3125
 20
155.5
 30
0.0
 11
-220.375
 21
170.5
 31
0.0
  0
LINE
  5
4B5
  8
DETAIL
  6
CONTINUOUS
 10
-246.6875
 20
155.5
 30
0.0
 11
-247.625
 21
170.5
 31
0.0
  0
LINE
  5
4B6
  8
DETAIL
  6
CONTINUOUS
 10
-246.6875
 20
155.5
 30
0.0
 11
-221.3125
 21
155.5
 31
0.0
  0
LINE
  5
4B7
  8
DETAIL
  6
CONTINUOUS
 10
-216.216945
 20
185.5
 30
0.0
 11
-216.216945
 21
170.5
 31
0.0
  0
LINE
  5
4B8
  8
DETAIL
  6
CONTINUOUS
 10
-251.783055
 20
170.5
 30
0.0
 11
-216.216945
 21
170.5
 31
0.0
  0
LINE
  5
4B9
  8
DETAIL
  6
CONTINUOUS
 10
-251.783055
 20
185.5
 30
0.0
 11
-251.783055
 21
170.5
 31
0.0
  0
LINE
  5
4BA
  8
DETAIL
  6
CONTINUOUS
 10
-254.0
 20
185.5
 30
0.0
 11
-214.0
 21
185.5
 31
0.0
  0
LINE
  5
4BB
  8
DETAIL
  6
CONTINUOUS
 10
-210.0
 20
189.5
 30
0.0
 11
-258.0
 21
189.5
 31
0.0
  0
LINE
  5
4BC
  8
DETAIL
  6
CONTINUOUS
 10
-258.0
 20
200.0
 30
0.0
 11
-258.0
 21
189.5
 31
0.0
  0
LINE
  5
4BD
  8
DETAIL
  6
CONTINUOUS
 10
-254.0
 20
185.5
 30
0.0
 11
-258.0
 21
189.5
 31
0.0
  0
LINE
  5
4BE
  8
DETAIL
  6
CONTINUOUS
 10
-210.0
 20
200.0
 30
0.0
 11
-210.0
 21
189.5
 31
0.0
  0
LINE
  5
4BF
  8
DETAIL
  6
CONTINUOUS
 10
-214.0
 20
185.5
 30
0.0
 11
-210.0
 21
189.5
 31
0.0
  0
ARC
  5
4C0
  8
DETAIL
  6
CONTINUOUS
 10
-40.0
 20
2210.0
 30
0.0
 40
5.0
 50
90.0
 51
180.0
  0
LINE
  5
4C1
  8
DETAIL
  6
CONTINUOUS
 10
40.0
 20
2215.0
 30
0.0
 11
-40.0
 21
2215.0
 31
0.0
  0
LINE
  5
4C2
  8
DETAIL
  6
CONTINUOUS
 10
-45.0
 20
2170.0
 30
0.0
 11
-45.0
 21
2210.0
 31
0.0
  0
ARC
  5
4C3
  8
DETAIL
  6
CONTINUOUS
 10
40.0
 20
2210.0
 30
0.0
 40
5.0
 50
0.0
 51
90.0
  0
LINE
  5
4C4
  8
DETAIL
  6
CONTINUOUS
 10
45.0
 20
2170.0
 30
0.0
 11
45.0
 21
2210.0
 31
0.0
  0
LINE
  5
4C5
  8
DETAIL
  6
CONTINUOUS
 10
315.0
 20
2143.0
 30
0.0
 11
-315.0
 21
2143.0
 31
0.0
  0
ARC
  5
4C6
  8
DETAIL
  6
CONTINUOUS
 10
-287.0
 20
355.0
 30
0.0
 40
8.0
 50
90.0
 51
180.0
  0
ARC
  5
4C7
  8
DETAIL
  6
CONTINUOUS
 10
-146.0
 20
355.0
 30
0.0
 40
8.0
 50
0.0
 51
90.0
  0
LINE
  5
4C8
  8
DETAIL
  6
CONTINUOUS
 10
-287.0
 20
363.0
 30
0.0
 11
-146.0
 21
363.0
 31
0.0
  0
LINE
  5
4C9
  8
DETAIL
  6
CONTINUOUS
 10
78.5
 20
2123.0
 30
0.0
 11
78.5
 21
2009.0
 31
0.0
  0
ARC
  5
4CA
  8
DETAIL
  6
CONTINUOUS
 10
70.5
 20
2123.0
 30
0.0
 40
8.0
 50
0.0
 51
90.0
  0
LINE
  5
4CB
  8
DETAIL
  6
CONTINUOUS
 10
-70.5
 20
2131.0
 30
0.0
 11
70.5
 21
2131.0
 31
0.0
  0
ARC
  5
4CC
  8
DETAIL
  6
CONTINUOUS
 10
-70.5
 20
2123.0
 30
0.0
 40
8.0
 50
90.0
 51
180.0
  0
LINE
  5
4CD
  8
DETAIL
  6
CONTINUOUS
 10
70.5
 20
2001.0
 30
0.0
 11
-70.5
 21
2001.0
 31
0.0
  0
ARC
  5
4CE
  8
DETAIL
  6
CONTINUOUS
 10
70.5
 20
2009.0
 30
0.0
 40
8.0
 50
270.0
 51
0.0
  0
LINE
  5
4CF
  8
DETAIL
  6
CONTINUOUS
 10
-78.5
 20
2123.0
 30
0.0
 11
-78.5
 21
2009.0
 31
0.0
  0
ARC
  5
4D0
  8
DETAIL
  6
CONTINUOUS
 10
-70.5
 20
2009.0
 30
0.0
 40
8.0
 50
180.0
 51
270.0
  0
CIRCLE
  5
4D1
  8
DETAIL
  6
CONTINUOUS
 10
0.0
 20
2017.5
 30
0.0
 40
5.5
  0
ARC
  5
4D2
  8
DETAIL
  6
CONTINUOUS
 10
167.296225
 20
2185.0
 30
0.0
 40
15.0
 50
90.0
 51
141.877966
  0
LINE
  5
4D3
  8
DETAIL
  6
CONTINUOUS
 10
262.703775
 20
2200.0
 30
0.0
 11
167.296225
 21
2200.0
 31
0.0
  0
LINE
  5
4D4
  8
DETAIL
  6
CONTINUOUS
 10
137.949891
 20
2175.0
 30
0.0
 11
135.0
 21
2175.0
 31
0.0
  0
ARC
  5
4D5
  8
DETAIL
  6
CONTINUOUS
 10
137.949891
 20
2180.0
 30
0.0
 40
5.0
 50
270.0
 51
321.877966
  0
LINE
  5
4D6
  8
DETAIL
  6
CONTINUOUS
 10
141.883379
 20
2176.913308
 30
0.0
 11
155.49576
 21
2194.260077
 31
0.0
  0
ARC
  5
4D7
  8
DETAIL
  6
CONTINUOUS
 10
262.703775
 20
2185.0
 30
0.0
 40
15.0
 50
38.122034
 51
90.0
  0
ARC
  5
4D8
  8
DETAIL
  6
CONTINUOUS
 10
292.050109
 20
2180.0
 30
0.0
 40
5.0
 50
218.122034
 51
270.0
  0
LINE
  5
4D9
  8
DETAIL
  6
CONTINUOUS
 10
288.116621
 20
2176.913308
 30
0.0
 11
274.50424
 21
2194.260077
 31
0.0
  0
ARC
  5
4DA
  8
DETAIL
  6
CONTINUOUS
 10
258.22967
 20
2185.0
 30
0.0
 40
10.0
 50
21.801409
 51
90.0
  0
ARC
  5
4DB
  8
DETAIL
  6
CONTINUOUS
 10
171.77033
 20
2185.0
 30
0.0
 40
10.0
 50
90.0
 51
158.198591
  0
LINE
  5
4DC
  8
DETAIL
  6
CONTINUOUS
 10
155.0
 20
2170.0
 30
0.0
 11
162.485563
 21
2188.713907
 31
0.0
  0
LINE
  5
4DD
  8
DETAIL
  6
CONTINUOUS
 10
275.0
 20
2170.0
 30
0.0
 11
267.514437
 21
2188.713907
 31
0.0
  0
LINE
  5
4DE
  8
DETAIL
  6
CONTINUOUS
 10
295.0
 20
2175.0
 30
0.0
 11
292.09017
 21
2175.0
 31
0.0
  0
LINE
  5
4DF
  8
DETAIL
  6
CONTINUOUS
 10
135.0
 20
2175.0
 30
0.0
 11
135.0
 21
2170.0
 31
0.0
  0
LINE
  5
4E0
  8
DETAIL
  6
CONTINUOUS
 10
295.0
 20
2175.0
 30
0.0
 11
295.0
 21
2170.0
 31
0.0
  0
LINE
  5
4E1
  8
DETAIL
  6
CONTINUOUS
 10
258.22967
 20
2195.0
 30
0.0
 11
171.77033
 21
2195.0
 31
0.0
  0
ARC
  5
4E2
  8
DETAIL
  6
CONTINUOUS
 10
-167.296225
 20
2185.0
 30
0.0
 40
15.0
 50
38.122034
 51
90.0
  0
LINE
  5
4E3
  8
DETAIL
  6
CONTINUOUS
 10
-262.703775
 20
2200.0
 30
0.0
 11
-167.296225
 21
2200.0
 31
0.0
  0
LINE
  5
4E4
  8
DETAIL
  6
CONTINUOUS
 10
-137.949891
 20
2175.0
 30
0.0
 11
-135.0
 21
2175.0
 31
0.0
  0
ARC
  5
4E5
  8
DETAIL
  6
CONTINUOUS
 10
-137.949891
 20
2180.0
 30
0.0
 40
5.0
 50
218.122034
 51
270.0
  0
LINE
  5
4E6
  8
DETAIL
  6
CONTINUOUS
 10
-141.883379
 20
2176.913308
 30
0.0
 11
-155.49576
 21
2194.260077
 31
0.0
  0
ARC
  5
4E7
  8
DETAIL
  6
CONTINUOUS
 10
-262.703775
 20
2185.0
 30
0.0
 40
15.0
 50
90.0
 51
141.877966
  0
ARC
  5
4E8
  8
DETAIL
  6
CONTINUOUS
 10
-292.050109
 20
2180.0
 30
0.0
 40
5.0
 50
270.0
 51
321.877966
  0
LINE
  5
4E9
  8
DETAIL
  6
CONTINUOUS
 10
-288.116621
 20
2176.913308
 30
0.0
 11
-274.50424
 21
2194.260077
 31
0.0
  0
ARC
  5
4EA
  8
DETAIL
  6
CONTINUOUS
 10
-258.22967
 20
2185.0
 30
0.0
 40
10.0
 50
90.0
 51
158.198591
  0
ARC
  5
4EB
  8
DETAIL
  6
CONTINUOUS
 10
-171.77033
 20
2185.0
 30
0.0
 40
10.0
 50
21.801409
 51
90.0
  0
LINE
  5
4EC
  8
DETAIL
  6
CONTINUOUS
 10
-155.0
 20
2170.0
 30
0.0
 11
-162.485563
 21
2188.713907
 31
0.0
  0
LINE
  5
4ED
  8
DETAIL
  6
CONTINUOUS
 10
-275.0
 20
2170.0
 30
0.0
 11
-267.514437
 21
2188.713907
 31
0.0
  0
LINE
  5
4EE
  8
DETAIL
  6
CONTINUOUS
 10
-295.0
 20
2175.0
 30
0.0
 11
-292.09017
 21
2175.0
 31
0.0
  0
LINE
  5
4EF
  8
DETAIL
  6
CONTINUOUS
 10
-135.0
 20
2175.0
 30
0.0
 11
-135.0
 21
2170.0
 31
0.0
  0
LINE
  5
4F0
  8
DETAIL
  6
CONTINUOUS
 10
-295.0
 20
2175.0
 30
0.0
 11
-295.0
 21
2170.0
 31
0.0
  0
LINE
  5
4F1
  8
DETAIL
  6
CONTINUOUS
 10
-258.22967
 20
2195.0
 30
0.0
 11
-171.77033
 21
2195.0
 31
0.0
  0
CIRCLE
  5
4F2
  8
DETAIL
  6
CONTINUOUS
 10
-216.5
 20
249.5
 30
0.0
 40
5.5
  0
LINE
  5
4F3
  8
DETAIL
  6
CONTINUOUS
 10
-295.0
 20
355.0
 30
0.0
 11
-295.0
 21
241.0
 31
0.0
  0
LINE
  5
4F4
  8
DETAIL
  6
CONTINUOUS
 10
-138.0
 20
355.0
 30
0.0
 11
-138.0
 21
241.0
 31
0.0
  0
LINE
  5
4F5
  8
DETAIL
  6
CONTINUOUS
 10
-146.0
 20
233.0
 30
0.0
 11
-287.0
 21
233.0
 31
0.0
  0
ARC
  5
4F6
  8
DETAIL
  6
CONTINUOUS
 10
-287.0
 20
241.0
 30
0.0
 40
8.0
 50
180.0
 51
270.0
  0
ARC
  5
4F7
  8
DETAIL
  6
CONTINUOUS
 10
-146.0
 20
241.0
 30
0.0
 40
8.0
 50
270.0
 51
0.0
  0
LINE
  5
4F8
  8
BASIS
  6
DASHDOT
 10
0.0
 20
2265.0
 30
0.0
 11
0.0
 21
-50.0
 31
0.0
  0
LINE
  5
4F9
  8
SIZE
  6
CONTINUOUS
 62
    30
 10
0.0
 20
-60.0
 30
0.0
 11
0.0
 21
-260.1
 31
0.0
  0
LINE
  5
4FA
  8
SIZE
  6
CONTINUOUS
 62
    30
 10
-159.0
 20
170.0
 30
0.0
 11
-159.0
 21
-260.1
 31
0.0
  0
LINE
  5
4FB
  8
SIZE
  6
CONTINUOUS
 62
    30
 10
-10.0
 20
-247.6
 30
0.0
 11
-149.0
 21
-247.6
 31
0.0
  0
CIRCLE
  5
4FC
  8
SIZE
  6
CONTINUOUS
 62
    30
 10
0.0
 20
-247.6
 30
0.0
 40
5.0
  0
LINE
  5
4FD
  8
SIZE
  6
CONTINUOUS
 62
    30
 10
0.0
 20
-247.6
 30
0.0
 11
-10.0
 21
-247.6
 31
0.0
  0
CIRCLE
  5
4FE
  8
SIZE
  6
CONTINUOUS
 62
    30
 10
-159.0
 20
-247.6
 30
0.0
 40
5.0
  0
LINE
  5
4FF
  8
SIZE
  6
CONTINUOUS
 62
    30
 10
-159.0
 20
-247.6
 30
0.0
 11
-149.0
 21
-247.6
 31
0.0
  0
TEXT
  5
500
  8
SIZE
  6
CONTINUOUS
 62
    30
 10
-114.5
 20
-237.6
 30
0.0
 40
30.0
  1
159
 72
     1
 11
-79.5
 21
-237.6
 31
0.0
  0
POINT
  5
501
  8
DEFPOINTS
  6
CONTINUOUS
 62
    30
 10
0.0
 20
-50.0
 30
0.0
  0
POINT
  5
502
  8
DEFPOINTS
  6
CONTINUOUS
 62
    30
 10
-159.0
 20
180.0
 30
0.0
  0
POINT
  5
503
  8
DEFPOINTS
  6
CONTINUOUS
 62
    30
 10
-159.0
 20
-247.6
 30
0.0
  0
LINE
  5
504
  8
SIZE
  6
CONTINUOUS
 62
    30
 10
85.0
 20
170.0
 30
0.0
 11
85.0
 21
-260.1
 31
0.0
  0
LINE
  5
505
  8
SIZE
  6
CONTINUOUS
 62
    30
 10
0.0
 20
-60.0
 30
0.0
 11
0.0
 21
-260.1
 31
0.0
  0
LINE
  5
506
  8
SIZE
  6
CONTINUOUS
 62
    30
 10
75.0
 20
-247.6
 30
0.0
 11
10.0
 21
-247.6
 31
0.0
  0
CIRCLE
  5
507
  8
SIZE
  6
CONTINUOUS
 62
    30
 10
85.0
 20
-247.6
 30
0.0
 40
5.0
  0
LINE
  5
508
  8
SIZE
  6
CONTINUOUS
 62
    30
 10
85.0
 20
-247.6
 30
0.0
 11
75.0
 21
-247.6
 31
0.0
  0
CIRCLE
  5
509
  8
SIZE
  6
CONTINUOUS
 62
    30
 10
0.0
 20
-247.6
 30
0.0
 40
5.0
  0
LINE
  5
50A
  8
SIZE
  6
CONTINUOUS
 62
    30
 10
0.0
 20
-247.6
 30
0.0
 11
10.0
 21
-247.6
 31
0.0
  0
TEXT
  5
50B
  8
SIZE
  6
CONTINUOUS
 62
    30
 10
17.5
 20
-237.6
 30
0.0
 40
30.0
  1
85
 72
     1
 11
42.5
 21
-237.6
 31
0.0
  0
POINT
  5
50C
  8
DEFPOINTS
  6
CONTINUOUS
 62
    30
 10
85.0
 20
180.0
 30
0.0
  0
POINT
  5
50D
  8
DEFPOINTS
  6
CONTINUOUS
 62
    30
 10
0.0
 20
-50.0
 30
0.0
  0
POINT
  5
50E
  8
DEFPOINTS
  6
CONTINUOUS
 62
    30
 10
0.0
 20
-247.6
 30
0.0
  0
LINE
  5
50F
  8
SIZE
  6
CONTINUOUS
 62
    30
 10
-3.0
 20
170.0
 30
0.0
 11
-3.0
 21
-160.1
 31
0.0
  0
LINE
  5
510
  8
SIZE
  6
CONTINUOUS
 62
    30
 10
-87.0
 20
170.0
 30
0.0
 11
-87.0
 21
-160.1
 31
0.0
  0
LINE
  5
511
  8
SIZE
  6
CONTINUOUS
 62
    30
 10
-13.0
 20
-147.6
 30
0.0
 11
-77.0
 21
-147.6
 31
0.0
  0
CIRCLE
  5
512
  8
SIZE
  6
CONTINUOUS
 62
    30
 10
-3.0
 20
-147.6
 30
0.0
 40
5.0
  0
LINE
  5
513
  8
SIZE
  6
CONTINUOUS
 62
    30
 10
-3.0
 20
-147.6
 30
0.0
 11
-13.0
 21
-147.6
 31
0.0
  0
CIRCLE
  5
514
  8
SIZE
  6
CONTINUOUS
 62
    30
 10
-87.0
 20
-147.6
 30
0.0
 40
5.0
  0
LINE
  5
515
  8
SIZE
  6
CONTINUOUS
 62
    30
 10
-87.0
 20
-147.6
 30
0.0
 11
-77.0
 21
-147.6
 31
0.0
  0
TEXT
  5
516
  8
SIZE
  6
CONTINUOUS
 62
    30
 10
-70.0
 20
-137.6
 30
0.0
 40
30.0
  1
84
 72
     1
 11
-45.0
 21
-137.6
 31
0.0
  0
POINT
  5
517
  8
DEFPOINTS
  6
CONTINUOUS
 62
    30
 10
-3.0
 20
180.0
 30
0.0
  0
POINT
  5
518
  8
DEFPOINTS
  6
CONTINUOUS
 62
    30
 10
-87.0
 20
180.0
 30
0.0
  0
POINT
  5
519
  8
DEFPOINTS
  6
CONTINUOUS
 62
    30
 10
-87.0
 20
-147.6
 30
0.0
  0
LINE
  5
51A
  8
SIZE
  6
CONTINUOUS
 62
    30
 10
0.0
 20
-60.0
 30
0.0
 11
0.0
 21
-160.1
 31
0.0
  0
LINE
  5
51B
  8
SIZE
  6
CONTINUOUS
 62
    30
 10
-3.0
 20
170.0
 30
0.0
 11
-3.0
 21
-160.1
 31
0.0
  0
LINE
  5
51C
  8
SIZE
  6
CONTINUOUS
 62
    30
 10
-13.0
 20
-147.6
 30
0.0
 11
-23.0
 21
-147.6
 31
0.0
  0
LINE
  5
51D
  8
SIZE
  6
CONTINUOUS
 62
    30
 10
10.0
 20
-147.6
 30
0.0
 11
60.0
 21
-147.6
 31
0.0
  0
LINE
  5
51E
  8
SIZE
  6
CONTINUOUS
 62
    30
 10
-3.0
 20
-147.6
 30
0.0
 11
0.0
 21
-147.6
 31
0.0
  0
CIRCLE
  5
51F
  8
SIZE
  6
CONTINUOUS
 62
    30
 10
-3.0
 20
-147.6
 30
0.0
 40
5.0
  0
LINE
  5
520
  8
SIZE
  6
CONTINUOUS
 62
    30
 10
-3.0
 20
-147.6
 30
0.0
 11
-13.0
 21
-147.6
 31
0.0
  0
CIRCLE
  5
521
  8
SIZE
  6
CONTINUOUS
 62
    30
 10
0.0
 20
-147.6
 30
0.0
 40
5.0
  0
LINE
  5
522
  8
SIZE
  6
CONTINUOUS
 62
    30
 10
0.0
 20
-147.6
 30
0.0
 11
10.0
 21
-147.6
 31
0.0
  0
TEXT
  5
523
  8
SIZE
  6
CONTINUOUS
 62
    30
 10
30.0
 20
-137.6
 30
0.0
 40
30.0
  1
3
 72
     1
 11
40.0
 21
-137.6
 31
0.0
  0
POINT
  5
524
  8
DEFPOINTS
  6
CONTINUOUS
 62
    30
 10
0.0
 20
-50.0
 30
0.0
  0
POINT
  5
525
  8
DEFPOINTS
  6
CONTINUOUS
 62
    30
 10
-3.0
 20
180.0
 30
0.0
  0
POINT
  5
526
  8
DEFPOINTS
  6
CONTINUOUS
 62
    30
 10
-3.0
 20
-147.6
 30
0.0
  0
LINE
  5
527
  8
SIZE
  6
CONTINUOUS
 62
    30
 10
-325.0
 20
0.0
 30
0.0
 11
-529.9
 21
0.0
 31
0.0
  0
LINE
  5
528
  8
SIZE
  6
CONTINUOUS
 62
    30
 10
-163.82309
 20
172.5
 30
0.0
 11
-529.9
 21
172.5
 31
0.0
  0
LINE
  5
529
  8
SIZE
  6
CONTINUOUS
 62
    30
 10
-517.4
 20
10.0
 30
0.0
 11
-517.4
 21
162.5
 31
0.0
  0
CIRCLE
  5
52A
  8
SIZE
  6
CONTINUOUS
 62
    30
 10
-517.4
 20
0.0
 30
0.0
 40
5.0
  0
LINE
  5
52B
  8
SIZE
  6
CONTINUOUS
 62
    30
 10
-517.4
 20
0.0
 30
0.0
 11
-517.4
 21
10.0
 31
0.0
  0
CIRCLE
  5
52C
  8
SIZE
  6
CONTINUOUS
 62
    30
 10
-517.4
 20
172.5
 30
0.0
 40
5.0
  0
LINE
  5
52D
  8
SIZE
  6
CONTINUOUS
 62
    30
 10
-517.4
 20
172.5
 30
0.0
 11
-517.4
 21
162.5
 31
0.0
  0
TEXT
  5
52E
  8
SIZE
  6
CONTINUOUS
 62
    30
 10
-527.4
 20
51.25
 30
0.0
 40
30.0
  1
173
 50
90.0
 72
     1
 11
-527.4
 21
86.25
 31
0.0
  0
POINT
  5
52F
  8
DEFPOINTS
  6
CONTINUOUS
 62
    30
 10
-315.0
 20
0.0
 30
0.0
  0
POINT
  5
530
  8
DEFPOINTS
  6
CONTINUOUS
 62
    30
 10
-153.82309
 20
172.5
 30
0.0
  0
POINT
  5
531
  8
DEFPOINTS
  6
CONTINUOUS
 62
    30
 10
-517.4
 20
172.5
 30
0.0
  0
LINE
  5
532
  8
SIZE
  6
CONTINUOUS
 62
    30
 10
315.0
 20
2160.0
 30
0.0
 11
315.0
 21
1840.9
 31
0.0
  0
LINE
  5
533
  8
SIZE
  6
CONTINUOUS
 62
    30
 10
78.5
 20
1999.0
 30
0.0
 11
78.5
 21
1840.9
 31
0.0
  0
LINE
  5
534
  8
SIZE
  6
CONTINUOUS
 62
    30
 10
305.0
 20
1853.4
 30
0.0
 11
88.5
 21
1853.4
 31
0.0
  0
CIRCLE
  5
535
  8
SIZE
  6
CONTINUOUS
 62
    30
 10
315.0
 20
1853.4
 30
0.0
 40
5.0
  0
LINE
  5
536
  8
SIZE
  6
CONTINUOUS
 62
    30
 10
315.0
 20
1853.4
 30
0.0
 11
305.0
 21
1853.4
 31
0.0
  0
CIRCLE
  5
537
  8
SIZE
  6
CONTINUOUS
 62
    30
 10
78.5
 20
1853.4
 30
0.0
 40
5.0
  0
LINE
  5
538
  8
SIZE
  6
CONTINUOUS
 62
    30
 10
78.5
 20
1853.4
 30
0.0
 11
88.5
 21
1853.4
 31
0.0
  0
TEXT
  5
539
  8
SIZE
  6
CONTINUOUS
 62
    30
 10
156.75
 20
1863.4
 30
0.0
 40
30.0
  1
237
 72
     1
 11
196.75
 21
1863.4
 31
0.0
  0
POINT
  5
53A
  8
DEFPOINTS
  6
CONTINUOUS
 62
    30
 10
315.0
 20
2170.0
 30
0.0
  0
POINT
  5
53B
  8
DEFPOINTS
  6
CONTINUOUS
 62
    30
 10
78.5
 20
2009.0
 30
0.0
  0
POINT
  5
53C
  8
DEFPOINTS
  6
CONTINUOUS
 62
    30
 10
78.5
 20
1853.4
 30
0.0
  0
LINE
  5
53D
  8
SIZE
  6
CONTINUOUS
 62
    30
 10
78.5
 20
1999.0
 30
0.0
 11
78.5
 21
1840.9
 31
0.0
  0
LINE
  5
53E
  8
SIZE
  6
CONTINUOUS
 62
    30
 10
-78.5
 20
1999.0
 30
0.0
 11
-78.5
 21
1840.9
 31
0.0
  0
LINE
  5
53F
  8
SIZE
  6
CONTINUOUS
 62
    30
 10
68.5
 20
1853.4
 30
0.0
 11
-68.5
 21
1853.4
 31
0.0
  0
CIRCLE
  5
540
  8
SIZE
  6
CONTINUOUS
 62
    30
 10
78.5
 20
1853.4
 30
0.0
 40
5.0
  0
LINE
  5
541
  8
SIZE
  6
CONTINUOUS
 62
    30
 10
78.5
 20
1853.4
 30
0.0
 11
68.5
 21
1853.4
 31
0.0
  0
CIRCLE
  5
542
  8
SIZE
  6
CONTINUOUS
 62
    30
 10
-78.5
 20
1853.4
 30
0.0
 40
5.0
  0
LINE
  5
543
  8
SIZE
  6
CONTINUOUS
 62
    30
 10
-78.5
 20
1853.4
 30
0.0
 11
-68.5
 21
1853.4
 31
0.0
  0
TEXT
  5
544
  8
SIZE
  6
CONTINUOUS
 62
    30
 10
-35.0
 20
1863.4
 30
0.0
 40
30.0
  1
157
 72
     1
 11
0.0
 21
1863.4
 31
0.0
  0
POINT
  5
545
  8
DEFPOINTS
  6
CONTINUOUS
 62
    30
 10
78.5
 20
2009.0
 30
0.0
  0
POINT
  5
546
  8
DEFPOINTS
  6
CONTINUOUS
 62
    30
 10
-78.5
 20
2009.0
 30
0.0
  0
POINT
  5
547
  8
DEFPOINTS
  6
CONTINUOUS
 62
    30
 10
-78.5
 20
1853.4
 30
0.0
  0
LINE
  5
548
  8
SIZE
  6
CONTINUOUS
 62
    30
 10
280.0
 20
1500.0
 30
0.0
 11
280.0
 21
1612.9
 31
0.0
  0
LINE
  5
549
  8
SIZE
  6
CONTINUOUS
 62
    30
 10
123.0
 20
1500.0
 30
0.0
 11
123.0
 21
1612.9
 31
0.0
  0
LINE
  5
54A
  8
SIZE
  6
CONTINUOUS
 62
    30
 10
270.0
 20
1600.4
 30
0.0
 11
133.0
 21
1600.4
 31
0.0
  0
CIRCLE
  5
54B
  8
SIZE
  6
CONTINUOUS
 62
    30
 10
280.0
 20
1600.4
 30
0.0
 40
5.0
  0
LINE
  5
54C
  8
SIZE
  6
CONTINUOUS
 62
    30
 10
280.0
 20
1600.4
 30
0.0
 11
270.0
 21
1600.4
 31
0.0
  0
CIRCLE
  5
54D
  8
SIZE
  6
CONTINUOUS
 62
    30
 10
123.0
 20
1600.4
 30
0.0
 40
5.0
  0
LINE
  5
54E
  8
SIZE
  6
CONTINUOUS
 62
    30
 10
123.0
 20
1600.4
 30
0.0
 11
133.0
 21
1600.4
 31
0.0
  0
TEXT
  5
54F
  8
SIZE
  6
CONTINUOUS
 62
    30
 10
166.5
 20
1610.4
 30
0.0
 40
30.0
  1
157
 72
     1
 11
201.5
 21
1610.4
 31
0.0
  0
POINT
  5
550
  8
DEFPOINTS
  6
CONTINUOUS
 62
    30
 10
280.0
 20
1490.0
 30
0.0
  0
POINT
  5
551
  8
DEFPOINTS
  6
CONTINUOUS
 62
    30
 10
123.0
 20
1490.0
 30
0.0
  0
POINT
  5
552
  8
DEFPOINTS
  6
CONTINUOUS
 62
    30
 10
123.0
 20
1600.4
 30
0.0
  0
LINE
  5
553
  8
SIZE
  6
CONTINUOUS
 62
    30
 10
315.0
 20
2160.0
 30
0.0
 11
315.0
 21
1587.9
 31
0.0
  0
LINE
  5
554
  8
SIZE
  6
CONTINUOUS
 62
    30
 10
280.0
 20
1500.0
 30
0.0
 11
280.0
 21
1612.9
 31
0.0
  0
LINE
  5
555
  8
SIZE
  6
CONTINUOUS
 62
    30
 10
270.0
 20
1600.4
 30
0.0
 11
260.0
 21
1600.4
 31
0.0
  0
LINE
  5
556
  8
SIZE
  6
CONTINUOUS
 62
    30
 10
325.0
 20
1600.4
 30
0.0
 11
405.0
 21
1600.4
 31
0.0
  0
LINE
  5
557
  8
SIZE
  6
CONTINUOUS
 62
    30
 10
280.0
 20
1600.4
 30
0.0
 11
315.0
 21
1600.4
 31
0.0
  0
CIRCLE
  5
558
  8
SIZE
  6
CONTINUOUS
 62
    30
 10
280.0
 20
1600.4
 30
0.0
 40
5.0
  0
LINE
  5
559
  8
SIZE
  6
CONTINUOUS
 62
    30
 10
280.0
 20
1600.4
 30
0.0
 11
270.0
 21
1600.4
 31
0.0
  0
CIRCLE
  5
55A
  8
SIZE
  6
CONTINUOUS
 62
    30
 10
315.0
 20
1600.4
 30
0.0
 40
5.0
  0
LINE
  5
55B
  8
SIZE
  6
CONTINUOUS
 62
    30
 10
315.0
 20
1600.4
 30
0.0
 11
325.0
 21
1600.4
 31
0.0
  0
TEXT
  5
55C
  8
SIZE
  6
CONTINUOUS
 62
    30
 10
345.0
 20
1610.4
 30
0.0
 40
30.0
  1
35
 72
     1
 11
370.0
 21
1610.4
 31
0.0
  0
POINT
  5
55D
  8
DEFPOINTS
  6
CONTINUOUS
 62
    30
 10
315.0
 20
2170.0
 30
0.0
  0
POINT
  5
55E
  8
DEFPOINTS
  6
CONTINUOUS
 62
    30
 10
280.0
 20
1490.0
 30
0.0
  0
POINT
  5
55F
  8
DEFPOINTS
  6
CONTINUOUS
 62
    30
 10
280.0
 20
1600.4
 30
0.0
  0
LINE
  5
560
  8
SIZE
  6
CONTINUOUS
 62
    30
 10
320.0
 20
0.0
 30
0.0
 11
575.1
 21
0.0
 31
0.0
  0
LINE
  5
561
  8
SIZE
  6
CONTINUOUS
 62
    30
 10
80.5
 20
2001.0
 30
0.0
 11
575.1
 21
2001.0
 31
0.0
  0
LINE
  5
562
  8
SIZE
  6
CONTINUOUS
 62
    30
 10
562.6
 20
10.0
 30
0.0
 11
562.6
 21
1991.0
 31
0.0
  0
CIRCLE
  5
563
  8
SIZE
  6
CONTINUOUS
 62
    30
 10
562.6
 20
0.0
 30
0.0
 40
5.0
  0
LINE
  5
564
  8
SIZE
  6
CONTINUOUS
 62
    30
 10
562.6
 20
0.0
 30
0.0
 11
562.6
 21
10.0
 31
0.0
  0
CIRCLE
  5
565
  8
SIZE
  6
CONTINUOUS
 62
    30
 10
562.6
 20
2001.0
 30
0.0
 40
5.0
  0
LINE
  5
566
  8
SIZE
  6
CONTINUOUS
 62
    30
 10
562.6
 20
2001.0
 30
0.0
 11
562.6
 21
1991.0
 31
0.0
  0
TEXT
  5
567
  8
SIZE
  6
CONTINUOUS
 62
    30
 10
552.6
 20
955.5
 30
0.0
 40
30.0
  1
2001
 50
90.0
 72
     1
 11
552.6
 21
1000.5
 31
0.0
  0
POINT
  5
568
  8
DEFPOINTS
  6
CONTINUOUS
 62
    30
 10
310.0
 20
0.0
 30
0.0
  0
POINT
  5
569
  8
DEFPOINTS
  6
CONTINUOUS
 62
    30
 10
70.5
 20
2001.0
 30
0.0
  0
POINT
  5
56A
  8
DEFPOINTS
  6
CONTINUOUS
 62
    30
 10
562.6
 20
2001.0
 30
0.0
  0
LINE
  5
56B
  8
SIZE
  6
CONTINUOUS
 62
    30
 10
80.5
 20
2131.0
 30
0.0
 11
575.1
 21
2131.0
 31
0.0
  0
LINE
  5
56C
  8
SIZE
  6
CONTINUOUS
 62
    30
 10
80.5
 20
2001.0
 30
0.0
 11
575.1
 21
2001.0
 31
0.0
  0
LINE
  5
56D
  8
SIZE
  6
CONTINUOUS
 62
    30
 10
562.6
 20
2121.0
 30
0.0
 11
562.6
 21
2011.0
 31
0.0
  0
CIRCLE
  5
56E
  8
SIZE
  6
CONTINUOUS
 62
    30
 10
562.6
 20
2131.0
 30
0.0
 40
5.0
  0
LINE
  5
56F
  8
SIZE
  6
CONTINUOUS
 62
    30
 10
562.6
 20
2131.0
 30
0.0
 11
562.6
 21
2121.0
 31
0.0
  0
CIRCLE
  5
570
  8
SIZE
  6
CONTINUOUS
 62
    30
 10
562.6
 20
2001.0
 30
0.0
 40
5.0
  0
LINE
  5
571
  8
SIZE
  6
CONTINUOUS
 62
    30
 10
562.6
 20
2001.0
 30
0.0
 11
562.6
 21
2011.0
 31
0.0
  0
TEXT
  5
572
  8
SIZE
  6
CONTINUOUS
 62
    30
 10
552.6
 20
2033.5
 30
0.0
 40
30.0
  1
130
 50
90.0
 72
     1
 11
552.6
 21
2066.0
 31
0.0
  0
POINT
  5
573
  8
DEFPOINTS
  6
CONTINUOUS
 62
    30
 10
70.5
 20
2131.0
 30
0.0
  0
POINT
  5
574
  8
DEFPOINTS
  6
CONTINUOUS
 62
    30
 10
70.5
 20
2001.0
 30
0.0
  0
POINT
  5
575
  8
DEFPOINTS
  6
CONTINUOUS
 62
    30
 10
562.6
 20
2001.0
 30
0.0
  0
LINE
  5
576
  8
SIZE
  6
CONTINUOUS
 62
    30
 10
282.0
 20
1498.0
 30
0.0
 11
475.1
 21
1498.0
 31
0.0
  0
LINE
  5
577
  8
SIZE
  6
CONTINUOUS
 62
    30
 10
282.0
 20
1368.0
 30
0.0
 11
475.1
 21
1368.0
 31
0.0
  0
LINE
  5
578
  8
SIZE
  6
CONTINUOUS
 62
    30
 10
462.6
 20
1488.0
 30
0.0
 11
462.6
 21
1378.0
 31
0.0
  0
CIRCLE
  5
579
  8
SIZE
  6
CONTINUOUS
 62
    30
 10
462.6
 20
1498.0
 30
0.0
 40
5.0
  0
LINE
  5
57A
  8
SIZE
  6
CONTINUOUS
 62
    30
 10
462.6
 20
1498.0
 30
0.0
 11
462.6
 21
1488.0
 31
0.0
  0
CIRCLE
  5
57B
  8
SIZE
  6
CONTINUOUS
 62
    30
 10
462.6
 20
1368.0
 30
0.0
 40
5.0
  0
LINE
  5
57C
  8
SIZE
  6
CONTINUOUS
 62
    30
 10
462.6
 20
1368.0
 30
0.0
 11
462.6
 21
1378.0
 31
0.0
  0
TEXT
  5
57D
  8
SIZE
  6
CONTINUOUS
 62
    30
 10
452.6
 20
1400.5
 30
0.0
 40
30.0
  1
130
 50
90.0
 72
     1
 11
452.6
 21
1433.0
 31
0.0
  0
POINT
  5
57E
  8
DEFPOINTS
  6
CONTINUOUS
 62
    30
 10
272.0
 20
1498.0
 30
0.0
  0
POINT
  5
57F
  8
DEFPOINTS
  6
CONTINUOUS
 62
    30
 10
272.0
 20
1368.0
 30
0.0
  0
POINT
  5
580
  8
DEFPOINTS
  6
CONTINUOUS
 62
    30
 10
462.6
 20
1368.0
 30
0.0
  0
LINE
  5
581
  8
SIZE
  6
CONTINUOUS
 62
    30
 10
320.0
 20
0.0
 30
0.0
 11
475.1
 21
0.0
 31
0.0
  0
LINE
  5
582
  8
SIZE
  6
CONTINUOUS
 62
    30
 10
282.0
 20
1368.0
 30
0.0
 11
475.1
 21
1368.0
 31
0.0
  0
LINE
  5
583
  8
SIZE
  6
CONTINUOUS
 62
    30
 10
462.6
 20
10.0
 30
0.0
 11
462.6
 21
1358.0
 31
0.0
  0
CIRCLE
  5
584
  8
SIZE
  6
CONTINUOUS
 62
    30
 10
462.6
 20
0.0
 30
0.0
 40
5.0
  0
LINE
  5
585
  8
SIZE
  6
CONTINUOUS
 62
    30
 10
462.6
 20
0.0
 30
0.0
 11
462.6
 21
10.0
 31
0.0
  0
CIRCLE
  5
586
  8
SIZE
  6
CONTINUOUS
 62
    30
 10
462.6
 20
1368.0
 30
0.0
 40
5.0
  0
LINE
  5
587
  8
SIZE
  6
CONTINUOUS
 62
    30
 10
462.6
 20
1368.0
 30
0.0
 11
462.6
 21
1358.0
 31
0.0
  0
TEXT
  5
588
  8
SIZE
  6
CONTINUOUS
 62
    30
 10
452.6
 20
634.0
 30
0.0
 40
30.0
  1
1368
 50
90.0
 72
     1
 11
452.6
 21
684.0
 31
0.0
  0
POINT
  5
589
  8
DEFPOINTS
  6
CONTINUOUS
 62
    30
 10
310.0
 20
0.0
 30
0.0
  0
POINT
  5
58A
  8
DEFPOINTS
  6
CONTINUOUS
 62
    30
 10
272.0
 20
1368.0
 30
0.0
  0
POINT
  5
58B
  8
DEFPOINTS
  6
CONTINUOUS
 62
    30
 10
462.6
 20
1368.0
 30
0.0
  0
LINE
  5
58C
  8
SIZE
  6
CONTINUOUS
 62
    30
 10
-138.0
 20
365.0
 30
0.0
 11
-138.0
 21
477.9
 31
0.0
  0
LINE
  5
58D
  8
SIZE
  6
CONTINUOUS
 62
    30
 10
-295.0
 20
365.0
 30
0.0
 11
-295.0
 21
477.9
 31
0.0
  0
LINE
  5
58E
  8
SIZE
  6
CONTINUOUS
 62
    30
 10
-148.0
 20
465.4
 30
0.0
 11
-285.0
 21
465.4
 31
0.0
  0
CIRCLE
  5
58F
  8
SIZE
  6
CONTINUOUS
 62
    30
 10
-138.0
 20
465.4
 30
0.0
 40
5.0
  0
LINE
  5
590
  8
SIZE
  6
CONTINUOUS
 62
    30
 10
-138.0
 20
465.4
 30
0.0
 11
-148.0
 21
465.4
 31
0.0
  0
CIRCLE
  5
591
  8
SIZE
  6
CONTINUOUS
 62
    30
 10
-295.0
 20
465.4
 30
0.0
 40
5.0
  0
LINE
  5
592
  8
SIZE
  6
CONTINUOUS
 62
    30
 10
-295.0
 20
465.4
 30
0.0
 11
-285.0
 21
465.4
 31
0.0
  0
TEXT
  5
593
  8
SIZE
  6
CONTINUOUS
 62
    30
 10
-251.5
 20
475.4
 30
0.0
 40
30.0
  1
157
 72
     1
 11
-216.5
 21
475.4
 31
0.0
  0
POINT
  5
594
  8
DEFPOINTS
  6
CONTINUOUS
 62
    30
 10
-138.0
 20
355.0
 30
0.0
  0
POINT
  5
595
  8
DEFPOINTS
  6
CONTINUOUS
 62
    30
 10
-295.0
 20
355.0
 30
0.0
  0
POINT
  5
596
  8
DEFPOINTS
  6
CONTINUOUS
 62
    30
 10
-295.0
 20
465.4
 30
0.0
  0
LINE
  5
597
  8
SIZE
  6
CONTINUOUS
 62
    30
 10
-315.0
 20
210.0
 30
0.0
 11
-315.0
 21
477.9
 31
0.0
  0
LINE
  5
598
  8
SIZE
  6
CONTINUOUS
 62
    30
 10
-295.0
 20
365.0
 30
0.0
 11
-295.0
 21
477.9
 31
0.0
  0
LINE
  5
599
  8
SIZE
  6
CONTINUOUS
 62
    30
 10
-285.0
 20
465.4
 30
0.0
 11
-275.0
 21
465.4
 31
0.0
  0
LINE
  5
59A
  8
SIZE
  6
CONTINUOUS
 62
    30
 10
-325.0
 20
465.4
 30
0.0
 11
-411.045105
 21
465.4
 31
0.0
  0
LINE
  5
59B
  8
SIZE
  6
CONTINUOUS
 62
    30
 10
-295.0
 20
465.4
 30
0.0
 11
-315.0
 21
465.4
 31
0.0
  0
CIRCLE
  5
59C
  8
SIZE
  6
CONTINUOUS
 62
    30
 10
-295.0
 20
465.4
 30
0.0
 40
5.0
  0
LINE
  5
59D
  8
SIZE
  6
CONTINUOUS
 62
    30
 10
-295.0
 20
465.4
 30
0.0
 11
-285.0
 21
465.4
 31
0.0
  0
CIRCLE
  5
59E
  8
SIZE
  6
CONTINUOUS
 62
    30
 10
-315.0
 20
465.4
 30
0.0
 40
5.0
  0
LINE
  5
59F
  8
SIZE
  6
CONTINUOUS
 62
    30
 10
-315.0
 20
465.4
 30
0.0
 11
-325.0
 21
465.4
 31
0.0
  0
TEXT
  5
5A0
  8
SIZE
  6
CONTINUOUS
 62
    30
 10
-401.045105
 20
475.4
 30
0.0
 40
30.0
  1
20
 72
     1
 11
-378.545105
 21
475.4
 31
0.0
  0
POINT
  5
5A1
  8
DEFPOINTS
  6
CONTINUOUS
 62
    30
 10
-315.0
 20
200.0
 30
0.0
  0
POINT
  5
5A2
  8
DEFPOINTS
  6
CONTINUOUS
 62
    30
 10
-295.0
 20
355.0
 30
0.0
  0
POINT
  5
5A3
  8
DEFPOINTS
  6
CONTINUOUS
 62
    30
 10
-295.0
 20
465.4
 30
0.0
  0
LINE
  5
5A4
  8
SIZE
  6
CONTINUOUS
 62
    30
 10
-297.0
 20
233.0
 30
0.0
 11
-629.9
 21
233.0
 31
0.0
  0
LINE
  5
5A5
  8
SIZE
  6
CONTINUOUS
 62
    30
 10
-297.0
 20
363.0
 30
0.0
 11
-629.9
 21
363.0
 31
0.0
  0
LINE
  5
5A6
  8
SIZE
  6
CONTINUOUS
 62
    30
 10
-617.4
 20
243.0
 30
0.0
 11
-617.4
 21
353.0
 31
0.0
  0
CIRCLE
  5
5A7
  8
SIZE
  6
CONTINUOUS
 62
    30
 10
-617.4
 20
233.0
 30
0.0
 40
5.0
  0
LINE
  5
5A8
  8
SIZE
  6
CONTINUOUS
 62
    30
 10
-617.4
 20
233.0
 30
0.0
 11
-617.4
 21
243.0
 31
0.0
  0
CIRCLE
  5
5A9
  8
SIZE
  6
CONTINUOUS
 62
    30
 10
-617.4
 20
363.0
 30
0.0
 40
5.0
  0
LINE
  5
5AA
  8
SIZE
  6
CONTINUOUS
 62
    30
 10
-617.4
 20
363.0
 30
0.0
 11
-617.4
 21
353.0
 31
0.0
  0
TEXT
  5
5AB
  8
SIZE
  6
CONTINUOUS
 62
    30
 10
-627.4
 20
265.5
 30
0.0
 40
30.0
  1
130
 50
90.0
 72
     1
 11
-627.4
 21
298.0
 31
0.0
  0
POINT
  5
5AC
  8
DEFPOINTS
  6
CONTINUOUS
 62
    30
 10
-287.0
 20
233.0
 30
0.0
  0
POINT
  5
5AD
  8
DEFPOINTS
  6
CONTINUOUS
 62
    30
 10
-287.0
 20
363.0
 30
0.0
  0
POINT
  5
5AE
  8
DEFPOINTS
  6
CONTINUOUS
 62
    30
 10
-617.4
 20
363.0
 30
0.0
  0
LINE
  5
5AF
  8
SIZE
  6
CONTINUOUS
 62
    30
 10
-297.0
 20
233.0
 30
0.0
 11
-629.9
 21
233.0
 31
0.0
  0
LINE
  5
5B0
  8
SIZE
  6
CONTINUOUS
 62
    30
 10
-320.0
 20
0.0
 30
0.0
 11
-629.9
 21
0.0
 31
0.0
  0
LINE
  5
5B1
  8
SIZE
  6
CONTINUOUS
 62
    30
 10
-617.4
 20
223.0
 30
0.0
 11
-617.4
 21
10.0
 31
0.0
  0
CIRCLE
  5
5B2
  8
SIZE
  6
CONTINUOUS
 62
    30
 10
-617.4
 20
233.0
 30
0.0
 40
5.0
  0
LINE
  5
5B3
  8
SIZE
  6
CONTINUOUS
 62
    30
 10
-617.4
 20
233.0
 30
0.0
 11
-617.4
 21
223.0
 31
0.0
  0
CIRCLE
  5
5B4
  8
SIZE
  6
CONTINUOUS
 62
    30
 10
-617.4
 20
0.0
 30
0.0
 40
5.0
  0
LINE
  5
5B5
  8
SIZE
  6
CONTINUOUS
 62
    30
 10
-617.4
 20
0.0
 30
0.0
 11
-617.4
 21
10.0
 31
0.0
  0
TEXT
  5
5B6
  8
SIZE
  6
CONTINUOUS
 62
    30
 10
-627.4
 20
76.5
 30
0.0
 40
30.0
  1
233
 50
90.0
 72
     1
 11
-627.4
 21
116.5
 31
0.0
  0
POINT
  5
5B7
  8
DEFPOINTS
  6
CONTINUOUS
 62
    30
 10
-287.0
 20
233.0
 30
0.0
  0
POINT
  5
5B8
  8
DEFPOINTS
  6
CONTINUOUS
 62
    30
 10
-310.0
 20
0.0
 30
0.0
  0
POINT
  5
5B9
  8
DEFPOINTS
  6
CONTINUOUS
 62
    30
 10
-617.4
 20
0.0
 30
0.0
  0
LINE
  5
5BA
  8
SIZE
  6
CONTINUOUS
 62
    30
 10
227.0
 20
170.0
 30
0.0
 11
227.0
 21
-260.1
 31
0.0
  0
LINE
  5
5BB
  8
SIZE
  6
CONTINUOUS
 62
    30
 10
85.0
 20
170.0
 30
0.0
 11
85.0
 21
-260.1
 31
0.0
  0
LINE
  5
5BC
  8
SIZE
  6
CONTINUOUS
 62
    30
 10
217.0
 20
-247.6
 30
0.0
 11
95.0
 21
-247.6
 31
0.0
  0
CIRCLE
  5
5BD
  8
SIZE
  6
CONTINUOUS
 62
    30
 10
227.0
 20
-247.6
 30
0.0
 40
5.0
  0
LINE
  5
5BE
  8
SIZE
  6
CONTINUOUS
 62
    30
 10
227.0
 20
-247.6
 30
0.0
 11
217.0
 21
-247.6
 31
0.0
  0
CIRCLE
  5
5BF
  8
SIZE
  6
CONTINUOUS
 62
    30
 10
85.0
 20
-247.6
 30
0.0
 40
5.0
  0
LINE
  5
5C0
  8
SIZE
  6
CONTINUOUS
 62
    30
 10
85.0
 20
-247.6
 30
0.0
 11
95.0
 21
-247.6
 31
0.0
  0
TEXT
  5
5C1
  8
SIZE
  6
CONTINUOUS
 62
    30
 10
121.0
 20
-237.6
 30
0.0
 40
30.0
  1
142
 72
     1
 11
156.0
 21
-237.6
 31
0.0
  0
POINT
  5
5C2
  8
DEFPOINTS
  6
CONTINUOUS
 62
    30
 10
227.0
 20
180.0
 30
0.0
  0
POINT
  5
5C3
  8
DEFPOINTS
  6
CONTINUOUS
 62
    30
 10
85.0
 20
180.0
 30
0.0
  0
POINT
  5
5C4
  8
DEFPOINTS
  6
CONTINUOUS
 62
    30
 10
85.0
 20
-247.6
 30
0.0
  0
LINE
  5
5C5
  8
SIZE
  6
CONTINUOUS
 62
    30
 10
325.0
 20
2170.0
 30
0.0
 11
475.1
 21
2170.0
 31
0.0
  0
LINE
  5
5C6
  8
SIZE
  6
CONTINUOUS
 62
    30
 10
272.703766
 20
2200.0
 30
0.0
 11
475.1
 21
2200.0
 31
0.0
  0
LINE
  5
5C7
  8
SIZE
  6
CONTINUOUS
 62
    30
 10
462.6
 20
2160.0
 30
0.0
 11
462.6
 21
2150.0
 31
0.0
  0
LINE
  5
5C8
  8
SIZE
  6
CONTINUOUS
 62
    30
 10
462.6
 20
2210.0
 30
0.0
 11
462.6
 21
2285.0
 31
0.0
  0
LINE
  5
5C9
  8
SIZE
  6
CONTINUOUS
 62
    30
 10
462.6
 20
2170.0
 30
0.0
 11
462.6
 21
2200.0
 31
0.0
  0
CIRCLE
  5
5CA
  8
SIZE
  6
CONTINUOUS
 62
    30
 10
462.6
 20
2170.0
 30
0.0
 40
5.0
  0
LINE
  5
5CB
  8
SIZE
  6
CONTINUOUS
 62
    30
 10
462.6
 20
2170.0
 30
0.0
 11
462.6
 21
2160.0
 31
0.0
  0
CIRCLE
  5
5CC
  8
SIZE
  6
CONTINUOUS
 62
    30
 10
462.6
 20
2200.0
 30
0.0
 40
5.0
  0
LINE
  5
5CD
  8
SIZE
  6
CONTINUOUS
 62
    30
 10
462.6
 20
2200.0
 30
0.0
 11
462.6
 21
2210.0
 31
0.0
  0
TEXT
  5
5CE
  8
SIZE
  6
CONTINUOUS
 62
    30
 10
452.6
 20
2230.0
 30
0.0
 40
30.0
  1
30
 50
90.0
 72
     1
 11
452.6
 21
2252.5
 31
0.0
  0
POINT
  5
5CF
  8
DEFPOINTS
  6
CONTINUOUS
 62
    30
 10
315.0
 20
2170.0
 30
0.0
  0
POINT
  5
5D0
  8
DEFPOINTS
  6
CONTINUOUS
 62
    30
 10
262.703766
 20
2200.0
 30
0.0
  0
POINT
  5
5D1
  8
DEFPOINTS
  6
CONTINUOUS
 62
    30
 10
462.6
 20
2200.0
 30
0.0
  0
LINE
  5
5D2
  8
SIZE
  6
CONTINUOUS
 62
    30
 10
45.0
 20
2220.0
 30
0.0
 11
45.0
 21
2584.9
 31
0.0
  0
LINE
  5
5D3
  8
SIZE
  6
CONTINUOUS
 62
    30
 10
-45.0
 20
2220.0
 30
0.0
 11
-45.0
 21
2584.9
 31
0.0
  0
LINE
  5
5D4
  8
SIZE
  6
CONTINUOUS
 62
    30
 10
35.0
 20
2572.4
 30
0.0
 11
-35.0
 21
2572.4
 31
0.0
  0
CIRCLE
  5
5D5
  8
SIZE
  6
CONTINUOUS
 62
    30
 10
45.0
 20
2572.4
 30
0.0
 40
5.0
  0
LINE
  5
5D6
  8
SIZE
  6
CONTINUOUS
 62
    30
 10
45.0
 20
2572.4
 30
0.0
 11
35.0
 21
2572.4
 31
0.0
  0
CIRCLE
  5
5D7
  8
SIZE
  6
CONTINUOUS
 62
    30
 10
-45.0
 20
2572.4
 30
0.0
 40
5.0
  0
LINE
  5
5D8
  8
SIZE
  6
CONTINUOUS
 62
    30
 10
-45.0
 20
2572.4
 30
0.0
 11
-35.0
 21
2572.4
 31
0.0
  0
TEXT
  5
5D9
  8
SIZE
  6
CONTINUOUS
 62
    30
 10
-21.954172
 20
2582.4
 30
0.0
 40
30.0
  1
90
 72
     1
 11
0.545828
 21
2582.4
 31
0.0
  0
POINT
  5
5DA
  8
DEFPOINTS
  6
CONTINUOUS
 62
    30
 10
45.0
 20
2210.0
 30
0.0
  0
POINT
  5
5DB
  8
DEFPOINTS
  6
CONTINUOUS
 62
    30
 10
-45.0
 20
2210.0
 30
0.0
  0
POINT
  5
5DC
  8
DEFPOINTS
  6
CONTINUOUS
 62
    30
 10
-45.0
 20
2572.4
 30
0.0
  0
LINE
  5
5DD
  8
SIZE
  6
CONTINUOUS
 62
    30
 10
-315.0
 20
2380.0
 30
0.0
 11
-315.0
 21
2734.9
 31
0.0
  0
LINE
  5
5DE
  8
SIZE
  6
CONTINUOUS
 62
    30
 10
315.0
 20
2380.0
 30
0.0
 11
315.0
 21
2734.9
 31
0.0
  0
LINE
  5
5DF
  8
SIZE
  6
CONTINUOUS
 62
    30
 10
-305.0
 20
2722.4
 30
0.0
 11
305.0
 21
2722.4
 31
0.0
  0
CIRCLE
  5
5E0
  8
SIZE
  6
CONTINUOUS
 62
    30
 10
-315.0
 20
2722.4
 30
0.0
 40
5.0
  0
LINE
  5
5E1
  8
SIZE
  6
CONTINUOUS
 62
    30
 10
-315.0
 20
2722.4
 30
0.0
 11
-305.0
 21
2722.4
 31
0.0
  0
CIRCLE
  5
5E2
  8
SIZE
  6
CONTINUOUS
 62
    30
 10
315.0
 20
2722.4
 30
0.0
 40
5.0
  0
LINE
  5
5E3
  8
SIZE
  6
CONTINUOUS
 62
    30
 10
315.0
 20
2722.4
 30
0.0
 11
305.0
 21
2722.4
 31
0.0
  0
TEXT
  5
5E4
  8
SIZE
  6
CONTINUOUS
 62
    30
 10
-34.557761
 20
2732.4
 30
0.0
 40
30.0
  1
630
 72
     1
 11
2.942239
 21
2732.4
 31
0.0
  0
POINT
  5
5E5
  8
DEFPOINTS
  6
CONTINUOUS
 62
    30
 10
-315.0
 20
2370.0
 30
0.0
  0
POINT
  5
5E6
  8
DEFPOINTS
  6
CONTINUOUS
 62
    30
 10
315.0
 20
2370.0
 30
0.0
  0
POINT
  5
5E7
  8
DEFPOINTS
  6
CONTINUOUS
 62
    30
 10
315.0
 20
2722.4
 30
0.0
  0
LINE
  5
5E8
  8
SIZE
  6
CONTINUOUS
 62
    30
 10
325.0
 20
2170.0
 30
0.0
 11
675.1
 21
2170.0
 31
0.0
  0
LINE
  5
5E9
  8
SIZE
  6
CONTINUOUS
 62
    30
 10
325.0
 20
2370.0
 30
0.0
 11
675.1
 21
2370.0
 31
0.0
  0
LINE
  5
5EA
  8
SIZE
  6
CONTINUOUS
 62
    30
 10
662.6
 20
2180.0
 30
0.0
 11
662.6
 21
2360.0
 31
0.0
  0
CIRCLE
  5
5EB
  8
SIZE
  6
CONTINUOUS
 62
    30
 10
662.6
 20
2170.0
 30
0.0
 40
5.0
  0
LINE
  5
5EC
  8
SIZE
  6
CONTINUOUS
 62
    30
 10
662.6
 20
2170.0
 30
0.0
 11
662.6
 21
2180.0
 31
0.0
  0
CIRCLE
  5
5ED
  8
SIZE
  6
CONTINUOUS
 62
    30
 10
662.6
 20
2370.0
 30
0.0
 40
5.0
  0
LINE
  5
5EE
  8
SIZE
  6
CONTINUOUS
 62
    30
 10
662.6
 20
2370.0
 30
0.0
 11
662.6
 21
2360.0
 31
0.0
  0
TEXT
  5
5EF
  8
SIZE
  6
CONTINUOUS
 62
    30
 10
652.6
 20
2234.796142
 30
0.0
 40
30.0
  1
200
 50
90.0
 72
     1
 11
652.6
 21
2269.796142
 31
0.0
  0
POINT
  5
5F0
  8
DEFPOINTS
  6
CONTINUOUS
 62
    30
 10
315.0
 20
2170.0
 30
0.0
  0
POINT
  5
5F1
  8
DEFPOINTS
  6
CONTINUOUS
 62
    30
 10
315.0
 20
2370.0
 30
0.0
  0
POINT
  5
5F2
  8
DEFPOINTS
  6
CONTINUOUS
 62
    30
 10
662.6
 20
2370.0
 30
0.0
  0
LINE
  5
5F3
  8
SIZE
  6
CONTINUOUS
 62
    30
 10
30.0
 20
2223.0
 30
0.0
 11
30.0
 21
2484.9
 31
0.0
  0
LINE
  5
5F4
  8
SIZE
  6
CONTINUOUS
 62
    30
 10
-30.0
 20
2223.0
 30
0.0
 11
-30.0
 21
2484.9
 31
0.0
  0
LINE
  5
5F5
  8
SIZE
  6
CONTINUOUS
 62
    30
 10
20.0
 20
2472.4
 30
0.0
 11
-20.0
 21
2472.4
 31
0.0
  0
CIRCLE
  5
5F6
  8
SIZE
  6
CONTINUOUS
 62
    30
 10
30.0
 20
2472.4
 30
0.0
 40
5.0
  0
LINE
  5
5F7
  8
SIZE
  6
CONTINUOUS
 62
    30
 10
30.0
 20
2472.4
 30
0.0
 11
20.0
 21
2472.4
 31
0.0
  0
CIRCLE
  5
5F8
  8
SIZE
  6
CONTINUOUS
 62
    30
 10
-30.0
 20
2472.4
 30
0.0
 40
5.0
  0
LINE
  5
5F9
  8
SIZE
  6
CONTINUOUS
 62
    30
 10
-30.0
 20
2472.4
 30
0.0
 11
-20.0
 21
2472.4
 31
0.0
  0
TEXT
  5
5FA
  8
SIZE
  6
CONTINUOUS
 62
    30
 10
-22.5
 20
2482.4
 30
0.0
 40
30.0
  1
60
 72
     1
 11
0.0
 21
2482.4
 31
0.0
  0
POINT
  5
5FB
  8
DEFPOINTS
  6
CONTINUOUS
 62
    30
 10
30.0
 20
2213.0
 30
0.0
  0
POINT
  5
5FC
  8
DEFPOINTS
  6
CONTINUOUS
 62
    30
 10
-30.0
 20
2213.0
 30
0.0
  0
POINT
  5
5FD
  8
DEFPOINTS
  6
CONTINUOUS
 62
    30
 10
-30.0
 20
2472.4
 30
0.0
  0
LINE
  5
5FE
  8
SIZE
  6
CONTINUOUS
 62
    30
 10
325.0
 20
200.0
 30
0.0
 11
675.1
 21
200.0
 31
0.0
  0
LINE
  5
5FF
  8
SIZE
  6
CONTINUOUS
 62
    30
 10
320.0
 20
0.0
 30
0.0
 11
675.1
 21
0.0
 31
0.0
  0
LINE
  5
600
  8
SIZE
  6
CONTINUOUS
 62
    30
 10
662.6
 20
190.0
 30
0.0
 11
662.6
 21
10.0
 31
0.0
  0
CIRCLE
  5
601
  8
SIZE
  6
CONTINUOUS
 62
    30
 10
662.6
 20
200.0
 30
0.0
 40
5.0
  0
LINE
  5
602
  8
SIZE
  6
CONTINUOUS
 62
    30
 10
662.6
 20
200.0
 30
0.0
 11
662.6
 21
190.0
 31
0.0
  0
CIRCLE
  5
603
  8
SIZE
  6
CONTINUOUS
 62
    30
 10
662.6
 20
0.0
 30
0.0
 40
5.0
  0
LINE
  5
604
  8
SIZE
  6
CONTINUOUS
 62
    30
 10
662.6
 20
0.0
 30
0.0
 11
662.6
 21
10.0
 31
0.0
  0
TEXT
  5
605
  8
SIZE
  6
CONTINUOUS
 62
    30
 10
652.6
 20
65.0
 30
0.0
 40
30.0
  1
200
 50
90.0
 72
     1
 11
652.6
 21
100.0
 31
0.0
  0
POINT
  5
606
  8
DEFPOINTS
  6
CONTINUOUS
 62
    30
 10
315.0
 20
200.0
 30
0.0
  0
POINT
  5
607
  8
DEFPOINTS
  6
CONTINUOUS
 62
    30
 10
310.0
 20
0.0
 30
0.0
  0
POINT
  5
608
  8
DEFPOINTS
  6
CONTINUOUS
 62
    30
 10
662.6
 20
0.0
 30
0.0
  0
LINE
  5
609
  8
SIZE
  6
CONTINUOUS
 62
    30
 10
315.0
 20
190.0
 30
0.0
 11
315.0
 21
-560.1
 31
0.0
  0
LINE
  5
60A
  8
SIZE
  6
CONTINUOUS
 62
    30
 10
-315.0
 20
190.0
 30
0.0
 11
-315.0
 21
-560.1
 31
0.0
  0
LINE
  5
60B
  8
SIZE
  6
CONTINUOUS
 62
    30
 10
305.0
 20
-547.6
 30
0.0
 11
-305.0
 21
-547.6
 31
0.0
  0
CIRCLE
  5
60C
  8
SIZE
  6
CONTINUOUS
 62
    30
 10
315.0
 20
-547.6
 30
0.0
 40
5.0
  0
LINE
  5
60D
  8
SIZE
  6
CONTINUOUS
 62
    30
 10
315.0
 20
-547.6
 30
0.0
 11
305.0
 21
-547.6
 31
0.0
  0
CIRCLE
  5
60E
  8
SIZE
  6
CONTINUOUS
 62
    30
 10
-315.0
 20
-547.6
 30
0.0
 40
5.0
  0
LINE
  5
60F
  8
SIZE
  6
CONTINUOUS
 62
    30
 10
-315.0
 20
-547.6
 30
0.0
 11
-305.0
 21
-547.6
 31
0.0
  0
TEXT
  5
610
  8
SIZE
  6
CONTINUOUS
 62
    30
 10
-31.539359
 20
-537.6
 30
0.0
 40
30.0
  1
630
 72
     1
 11
5.960641
 21
-537.6
 31
0.0
  0
POINT
  5
611
  8
DEFPOINTS
  6
CONTINUOUS
 62
    30
 10
315.0
 20
200.0
 30
0.0
  0
POINT
  5
612
  8
DEFPOINTS
  6
CONTINUOUS
 62
    30
 10
-315.0
 20
200.0
 30
0.0
  0
POINT
  5
613
  8
DEFPOINTS
  6
CONTINUOUS
 62
    30
 10
-315.0
 20
-547.6
 30
0.0
  0
LINE
  5
614
  8
SIZE
  6
CONTINUOUS
 62
    30
 10
-201.0
 20
-30.0
 30
0.0
 11
-201.0
 21
-460.1
 31
0.0
  0
LINE
  5
615
  8
SIZE
  6
CONTINUOUS
 62
    30
 10
201.0
 20
-30.0
 30
0.0
 11
201.0
 21
-460.1
 31
0.0
  0
LINE
  5
616
  8
SIZE
  6
CONTINUOUS
 62
    30
 10
-191.0
 20
-447.6
 30
0.0
 11
191.0
 21
-447.6
 31
0.0
  0
CIRCLE
  5
617
  8
SIZE
  6
CONTINUOUS
 62
    30
 10
-201.0
 20
-447.6
 30
0.0
 40
5.0
  0
LINE
  5
618
  8
SIZE
  6
CONTINUOUS
 62
    30
 10
-201.0
 20
-447.6
 30
0.0
 11
-191.0
 21
-447.6
 31
0.0
  0
CIRCLE
  5
619
  8
SIZE
  6
CONTINUOUS
 62
    30
 10
201.0
 20
-447.6
 30
0.0
 40
5.0
  0
LINE
  5
61A
  8
SIZE
  6
CONTINUOUS
 62
    30
 10
201.0
 20
-447.6
 30
0.0
 11
191.0
 21
-447.6
 31
0.0
  0
TEXT
  5
61B
  8
SIZE
  6
CONTINUOUS
 62
    30
 10
-37.5
 20
-437.6
 30
0.0
 40
30.0
  1
402
 72
     1
 11
0.0
 21
-437.6
 31
0.0
  0
POINT
  5
61C
  8
DEFPOINTS
  6
CONTINUOUS
 62
    30
 10
-201.0
 20
-20.0
 30
0.0
  0
POINT
  5
61D
  8
DEFPOINTS
  6
CONTINUOUS
 62
    30
 10
201.0
 20
-20.0
 30
0.0
  0
POINT
  5
61E
  8
DEFPOINTS
  6
CONTINUOUS
 62
    30
 10
201.0
 20
-447.6
 30
0.0
  0
LINE
  5
61F
  8
SIZE
  6
CONTINUOUS
 62
    30
 10
201.0
 20
-30.0
 30
0.0
 11
201.0
 21
-460.1
 31
0.0
  0
LINE
  5
620
  8
SIZE
  6
CONTINUOUS
 62
    30
 10
295.0
 20
-30.0
 30
0.0
 11
295.0
 21
-460.1
 31
0.0
  0
LINE
  5
621
  8
SIZE
  6
CONTINUOUS
 62
    30
 10
211.0
 20
-447.6
 30
0.0
 11
285.0
 21
-447.6
 31
0.0
  0
CIRCLE
  5
622
  8
SIZE
  6
CONTINUOUS
 62
    30
 10
201.0
 20
-447.6
 30
0.0
 40
5.0
  0
LINE
  5
623
  8
SIZE
  6
CONTINUOUS
 62
    30
 10
201.0
 20
-447.6
 30
0.0
 11
211.0
 21
-447.6
 31
0.0
  0
CIRCLE
  5
624
  8
SIZE
  6
CONTINUOUS
 62
    30
 10
295.0
 20
-447.6
 30
0.0
 40
5.0
  0
LINE
  5
625
  8
SIZE
  6
CONTINUOUS
 62
    30
 10
295.0
 20
-447.6
 30
0.0
 11
285.0
 21
-447.6
 31
0.0
  0
TEXT
  5
626
  8
SIZE
  6
CONTINUOUS
 62
    30
 10
223.0
 20
-437.6
 30
0.0
 40
30.0
  1
94
 72
     1
 11
248.0
 21
-437.6
 31
0.0
  0
POINT
  5
627
  8
DEFPOINTS
  6
CONTINUOUS
 62
    30
 10
201.0
 20
-20.0
 30
0.0
  0
POINT
  5
628
  8
DEFPOINTS
  6
CONTINUOUS
 62
    30
 10
295.0
 20
-20.0
 30
0.0
  0
POINT
  5
629
  8
DEFPOINTS
  6
CONTINUOUS
 62
    30
 10
295.0
 20
-447.6
 30
0.0
  0
LINE
  5
62A
  8
SIZE
  6
CONTINUOUS
 62
    30
 10
-295.0
 20
-30.0
 30
0.0
 11
-295.0
 21
-460.1
 31
0.0
  0
LINE
  5
62B
  8
SIZE
  6
CONTINUOUS
 62
    30
 10
-201.0
 20
-30.0
 30
0.0
 11
-201.0
 21
-460.1
 31
0.0
  0
LINE
  5
62C
  8
SIZE
  6
CONTINUOUS
 62
    30
 10
-285.0
 20
-447.6
 30
0.0
 11
-211.0
 21
-447.6
 31
0.0
  0
CIRCLE
  5
62D
  8
SIZE
  6
CONTINUOUS
 62
    30
 10
-295.0
 20
-447.6
 30
0.0
 40
5.0
  0
LINE
  5
62E
  8
SIZE
  6
CONTINUOUS
 62
    30
 10
-295.0
 20
-447.6
 30
0.0
 11
-285.0
 21
-447.6
 31
0.0
  0
CIRCLE
  5
62F
  8
SIZE
  6
CONTINUOUS
 62
    30
 10
-201.0
 20
-447.6
 30
0.0
 40
5.0
  0
LINE
  5
630
  8
SIZE
  6
CONTINUOUS
 62
    30
 10
-201.0
 20
-447.6
 30
0.0
 11
-211.0
 21
-447.6
 31
0.0
  0
TEXT
  5
631
  8
SIZE
  6
CONTINUOUS
 62
    30
 10
-273.0
 20
-437.6
 30
0.0
 40
30.0
  1
94
 72
     1
 11
-248.0
 21
-437.6
 31
0.0
  0
POINT
  5
632
  8
DEFPOINTS
  6
CONTINUOUS
 62
    30
 10
-295.0
 20
-20.0
 30
0.0
  0
POINT
  5
633
  8
DEFPOINTS
  6
CONTINUOUS
 62
    30
 10
-201.0
 20
-20.0
 30
0.0
  0
POINT
  5
634
  8
DEFPOINTS
  6
CONTINUOUS
 62
    30
 10
-201.0
 20
-447.6
 30
0.0
  0
LINE
  5
635
  8
SIZE
  6
CONTINUOUS
 62
    30
 10
248.0
 20
-30.0
 30
0.0
 11
248.0
 21
-360.1
 31
0.0
  0
LINE
  5
636
  8
SIZE
  6
CONTINUOUS
 62
    30
 10
-248.0
 20
-30.0
 30
0.0
 11
-248.0
 21
-360.1
 31
0.0
  0
LINE
  5
637
  8
SIZE
  6
CONTINUOUS
 62
    30
 10
238.0
 20
-347.6
 30
0.0
 11
-238.0
 21
-347.6
 31
0.0
  0
CIRCLE
  5
638
  8
SIZE
  6
CONTINUOUS
 62
    30
 10
248.0
 20
-347.6
 30
0.0
 40
5.0
  0
LINE
  5
639
  8
SIZE
  6
CONTINUOUS
 62
    30
 10
248.0
 20
-347.6
 30
0.0
 11
238.0
 21
-347.6
 31
0.0
  0
CIRCLE
  5
63A
  8
SIZE
  6
CONTINUOUS
 62
    30
 10
-248.0
 20
-347.6
 30
0.0
 40
5.0
  0
LINE
  5
63B
  8
SIZE
  6
CONTINUOUS
 62
    30
 10
-248.0
 20
-347.6
 30
0.0
 11
-238.0
 21
-347.6
 31
0.0
  0
TEXT
  5
63C
  8
SIZE
  6
CONTINUOUS
 62
    30
 10
-40.0
 20
-337.6
 30
0.0
 40
30.0
  1
496
 72
     1
 11
0.0
 21
-337.6
 31
0.0
  0
POINT
  5
63D
  8
DEFPOINTS
  6
CONTINUOUS
 62
    30
 10
248.0
 20
-20.0
 30
0.0
  0
POINT
  5
63E
  8
DEFPOINTS
  6
CONTINUOUS
 62
    30
 10
-248.0
 20
-20.0
 30
0.0
  0
POINT
  5
63F
  8
DEFPOINTS
  6
CONTINUOUS
 62
    30
 10
-248.0
 20
-347.6
 30
0.0
  0
LINE
  5
640
  8
SIZE
  6
CONTINUOUS
 62
    30
 10
-60.0
 20
2193.0
 30
0.0
 11
-729.9
 21
2193.0
 31
0.0
  0
LINE
  5
641
  8
SIZE
  6
CONTINUOUS
 62
    30
 10
-320.0
 20
0.0
 30
0.0
 11
-729.9
 21
0.0
 31
0.0
  0
LINE
  5
642
  8
SIZE
  6
CONTINUOUS
 62
    30
 10
-717.4
 20
2183.0
 30
0.0
 11
-717.4
 21
10.0
 31
0.0
  0
CIRCLE
  5
643
  8
SIZE
  6
CONTINUOUS
 62
    30
 10
-717.4
 20
2193.0
 30
0.0
 40
5.0
  0
LINE
  5
644
  8
SIZE
  6
CONTINUOUS
 62
    30
 10
-717.4
 20
2193.0
 30
0.0
 11
-717.4
 21
2183.0
 31
0.0
  0
CIRCLE
  5
645
  8
SIZE
  6
CONTINUOUS
 62
    30
 10
-717.4
 20
0.0
 30
0.0
 40
5.0
  0
LINE
  5
646
  8
SIZE
  6
CONTINUOUS
 62
    30
 10
-717.4
 20
0.0
 30
0.0
 11
-717.4
 21
10.0
 31
0.0
  0
TEXT
  5
647
  8
SIZE
  6
CONTINUOUS
 62
    30
 10
-727.4
 20
1046.5
 30
0.0
 40
30.0
  1
2193
 50
90.0
 72
     1
 11
-727.4
 21
1096.5
 31
0.0
  0
POINT
  5
648
  8
DEFPOINTS
  6
CONTINUOUS
 62
    30
 10
-50.0
 20
2193.0
 30
0.0
  0
POINT
  5
649
  8
DEFPOINTS
  6
CONTINUOUS
 62
    30
 10
-310.0
 20
0.0
 30
0.0
  0
POINT
  5
64A
  8
DEFPOINTS
  6
CONTINUOUS
 62
    30
 10
-717.4
 20
0.0
 30
0.0
  0
LINE
  5
64B
  8
SIZE
  6
CONTINUOUS
 62
    30
 10
-320.0
 20
0.0
 30
0.0
 11
-829.9
 21
0.0
 31
0.0
  0
LINE
  5
64C
  8
SIZE
  6
CONTINUOUS
 62
    30
 10
-50.0
 20
2215.0
 30
0.0
 11
-829.9
 21
2215.0
 31
0.0
  0
LINE
  5
64D
  8
SIZE
  6
CONTINUOUS
 62
    30
 10
-817.4
 20
10.0
 30
0.0
 11
-817.4
 21
2205.0
 31
0.0
  0
CIRCLE
  5
64E
  8
SIZE
  6
CONTINUOUS
 62
    30
 10
-817.4
 20
0.0
 30
0.0
 40
5.0
  0
LINE
  5
64F
  8
SIZE
  6
CONTINUOUS
 62
    30
 10
-817.4
 20
0.0
 30
0.0
 11
-817.4
 21
10.0
 31
0.0
  0
CIRCLE
  5
650
  8
SIZE
  6
CONTINUOUS
 62
    30
 10
-817.4
 20
2215.0
 30
0.0
 40
5.0
  0
LINE
  5
651
  8
SIZE
  6
CONTINUOUS
 62
    30
 10
-817.4
 20
2215.0
 30
0.0
 11
-817.4
 21
2205.0
 31
0.0
  0
TEXT
  5
652
  8
SIZE
  6
CONTINUOUS
 62
    30
 10
-827.4
 20
1047.573852
 30
0.0
 40
30.0
  1
2215
 50
90.0
 72
     1
 11
-827.4
 21
1097.573852
 31
0.0
  0
POINT
  5
653
  8
DEFPOINTS
  6
CONTINUOUS
 62
    30
 10
-310.0
 20
0.0
 30
0.0
  0
POINT
  5
654
  8
DEFPOINTS
  6
CONTINUOUS
 62
    30
 10
-40.0
 20
2215.0
 30
0.0
  0
POINT
  5
655
  8
DEFPOINTS
  6
CONTINUOUS
 62
    30
 10
-817.4
 20
2215.0
 30
0.0
  0
LINE
  5
656
  8
SIZE
  6
CONTINUOUS
 62
    30
 10
325.0
 20
2170.0
 30
0.0
 11
675.1
 21
2170.0
 31
0.0
  0
LINE
  5
657
  8
SIZE
  6
CONTINUOUS
 62
    30
 10
325.0
 20
200.0
 30
0.0
 11
675.1
 21
200.0
 31
0.0
  0
LINE
  5
658
  8
SIZE
  6
CONTINUOUS
 62
    30
 10
662.6
 20
2160.0
 30
0.0
 11
662.6
 21
210.0
 31
0.0
  0
CIRCLE
  5
659
  8
SIZE
  6
CONTINUOUS
 62
    30
 10
662.6
 20
2170.0
 30
0.0
 40
5.0
  0
LINE
  5
65A
  8
SIZE
  6
CONTINUOUS
 62
    30
 10
662.6
 20
2170.0
 30
0.0
 11
662.6
 21
2160.0
 31
0.0
  0
CIRCLE
  5
65B
  8
SIZE
  6
CONTINUOUS
 62
    30
 10
662.6
 20
200.0
 30
0.0
 40
5.0
  0
LINE
  5
65C
  8
SIZE
  6
CONTINUOUS
 62
    30
 10
662.6
 20
200.0
 30
0.0
 11
662.6
 21
210.0
 31
0.0
  0
TEXT
  5
65D
  8
SIZE
  6
CONTINUOUS
 62
    30
 10
652.6
 20
1137.5
 30
0.0
 40
30.0
  1
1970
 50
90.0
 72
     1
 11
652.6
 21
1185.0
 31
0.0
  0
POINT
  5
65E
  8
DEFPOINTS
  6
CONTINUOUS
 62
    30
 10
315.0
 20
2170.0
 30
0.0
  0
POINT
  5
65F
  8
DEFPOINTS
  6
CONTINUOUS
 62
    30
 10
315.0
 20
200.0
 30
0.0
  0
POINT
  5
660
  8
DEFPOINTS
  6
CONTINUOUS
 62
    30
 10
662.6
 20
200.0
 30
0.0
  0
LINE
  5
661
  8
SIZE
  6
CONTINUOUS
 62
    30
 10
320.0
 20
0.0
 30
0.0
 11
775.1
 21
0.0
 31
0.0
  0
LINE
  5
662
  8
SIZE
  6
CONTINUOUS
 62
    30
 10
272.703766
 20
2200.0
 30
0.0
 11
775.1
 21
2200.0
 31
0.0
  0
LINE
  5
663
  8
SIZE
  6
CONTINUOUS
 62
    30
 10
762.6
 20
10.0
 30
0.0
 11
762.6
 21
2190.0
 31
0.0
  0
CIRCLE
  5
664
  8
SIZE
  6
CONTINUOUS
 62
    30
 10
762.6
 20
0.0
 30
0.0
 40
5.0
  0
LINE
  5
665
  8
SIZE
  6
CONTINUOUS
 62
    30
 10
762.6
 20
0.0
 30
0.0
 11
762.6
 21
10.0
 31
0.0
  0
CIRCLE
  5
666
  8
SIZE
  6
CONTINUOUS
 62
    30
 10
762.6
 20
2200.0
 30
0.0
 40
5.0
  0
LINE
  5
667
  8
SIZE
  6
CONTINUOUS
 62
    30
 10
762.6
 20
2200.0
 30
0.0
 11
762.6
 21
2190.0
 31
0.0
  0
TEXT
  5
668
  8
SIZE
  6
CONTINUOUS
 62
    30
 10
752.6
 20
1140.011474
 30
0.0
 40
30.0
  1
2200
 50
90.0
 72
     1
 11
752.6
 21
1190.011474
 31
0.0
  0
POINT
  5
669
  8
DEFPOINTS
  6
CONTINUOUS
 62
    30
 10
310.0
 20
0.0
 30
0.0
  0
POINT
  5
66A
  8
DEFPOINTS
  6
CONTINUOUS
 62
    30
 10
262.703766
 20
2200.0
 30
0.0
  0
POINT
  5
66B
  8
DEFPOINTS
  6
CONTINUOUS
 62
    30
 10
762.6
 20
2200.0
 30
0.0
  0
LINE
  5
66C
  8
SIZE
  6
CONTINUOUS
 62
    30
 10
-234.0
 20
125.5
 30
0.0
 11
-234.0
 21
-260.1
 31
0.0
  0
LINE
  5
66D
  8
SIZE
  6
CONTINUOUS
 62
    30
 10
-159.0
 20
170.0
 30
0.0
 11
-159.0
 21
-260.1
 31
0.0
  0
LINE
  5
66E
  8
SIZE
  6
CONTINUOUS
 62
    30
 10
-169.0
 20
-247.6
 30
0.0
 11
-224.0
 21
-247.6
 31
0.0
  0
LINE
  5
66F
  8
SIZE
  6
CONTINUOUS
 62
    30
 10
-234.0
 20
-247.6
 30
0.0
 11
-422.734428
 21
-247.6
 31
0.0
  0
CIRCLE
  5
670
  8
SIZE
  6
CONTINUOUS
 62
    30
 10
-159.0
 20
-247.6
 30
0.0
 40
5.0
  0
LINE
  5
671
  8
SIZE
  6
CONTINUOUS
 62
    30
 10
-159.0
 20
-247.6
 30
0.0
 11
-169.0
 21
-247.6
 31
0.0
  0
CIRCLE
  5
672
  8
SIZE
  6
CONTINUOUS
 62
    30
 10
-234.0
 20
-247.6
 30
0.0
 40
5.0
  0
LINE
  5
673
  8
SIZE
  6
CONTINUOUS
 62
    30
 10
-234.0
 20
-247.6
 30
0.0
 11
-224.0
 21
-247.6
 31
0.0
  0
TEXT
  5
674
  8
SIZE
  6
CONTINUOUS
 62
    30
 10
-412.734428
 20
-237.6
 30
0.0
 40
30.0
  1
75
 72
     1
 11
-387.734428
 21
-237.6
 31
0.0
  0
POINT
  5
675
  8
DEFPOINTS
  6
CONTINUOUS
 62
    30
 10
-234.0
 20
135.5
 30
0.0
  0
POINT
  5
676
  8
DEFPOINTS
  6
CONTINUOUS
 62
    30
 10
-159.0
 20
180.0
 30
0.0
  0
POINT
  5
677
  8
DEFPOINTS
  6
CONTINUOUS
 62
    30
 10
-159.0
 20
-247.6
 30
0.0
  0
LINE
  5
678
  8
SIZE
  6
CONTINUOUS
 62
    30
 10
-264.0
 20
155.5
 30
0.0
 11
-429.9
 21
155.5
 31
0.0
  0
LINE
  5
679
  8
SIZE
  6
CONTINUOUS
 62
    30
 10
-320.0
 20
0.0
 30
0.0
 11
-429.9
 21
0.0
 31
0.0
  0
LINE
  5
67A
  8
SIZE
  6
CONTINUOUS
 62
    30
 10
-417.4
 20
145.5
 30
0.0
 11
-417.4
 21
10.0
 31
0.0
  0
CIRCLE
  5
67B
  8
SIZE
  6
CONTINUOUS
 62
    30
 10
-417.4
 20
155.5
 30
0.0
 40
5.0
  0
LINE
  5
67C
  8
SIZE
  6
CONTINUOUS
 62
    30
 10
-417.4
 20
155.5
 30
0.0
 11
-417.4
 21
145.5
 31
0.0
  0
CIRCLE
  5
67D
  8
SIZE
  6
CONTINUOUS
 62
    30
 10
-417.4
 20
0.0
 30
0.0
 40
5.0
  0
LINE
  5
67E
  8
SIZE
  6
CONTINUOUS
 62
    30
 10
-417.4
 20
0.0
 30
0.0
 11
-417.4
 21
10.0
 31
0.0
  0
TEXT
  5
67F
  8
SIZE
  6
CONTINUOUS
 62
    30
 10
-427.4
 20
42.75
 30
0.0
 40
30.0
  1
156
 50
90.0
 72
     1
 11
-427.4
 21
77.75
 31
0.0
  0
POINT
  5
680
  8
DEFPOINTS
  6
CONTINUOUS
 62
    30
 10
-254.0
 20
155.5
 30
0.0
  0
POINT
  5
681
  8
DEFPOINTS
  6
CONTINUOUS
 62
    30
 10
-310.0
 20
0.0
 30
0.0
  0
POINT
  5
682
  8
DEFPOINTS
  6
CONTINUOUS
 62
    30
 10
-417.4
 20
0.0
 30
0.0
  0
LINE
  5
683
  8
NOTE
  6
CONTINUOUS
 10
1059.914795
 20
300.0
 30
0.0
 11
747.164856
 21
300.0
 31
0.0
  0
LINE
  5
684
  8
NOTE
  6
CONTINUOUS
 10
747.164856
 20
300.0
 30
0.0
 11
227.0
 21
200.0
 31
0.0
  0
LINE
  5
685
  8
NOTE
  6
CONTINUOUS
 10
227.0
 20
200.0
 30
0.0
 11
228.799387
 21
200.873043
 31
0.0
  0
LINE
  5
686
  8
NOTE
  6
CONTINUOUS
 10
227.0
 20
200.0
 30
0.0
 11
228.994837
 21
199.856384
 31
0.0
  0
TEXT
  5
687
  8
NOTE
  6
CONTINUOUS
 10
807.914856
 20
301.0
 30
0.0
 40
40.0
  1
BH φ49×69
 50
359.999989
 41
0.701389
  7
STANDARD1
  0
LINE
  5
688
  8
NOTE
  6
CONTINUOUS
 10
1059.914795
 20
400.0
 30
0.0
 11
747.164856
 21
400.0
 31
0.0
  0
LINE
  5
689
  8
NOTE
  6
CONTINUOUS
 10
747.164856
 20
400.0
 30
0.0
 11
85.0
 21
200.0
 31
0.0
  0
LINE
  5
68A
  8
NOTE
  6
CONTINUOUS
 10
85.0
 20
200.0
 30
0.0
 11
86.699668
 21
201.054101
 31
0.0
  0
LINE
  5
68B
  8
NOTE
  6
CONTINUOUS
 10
85.0
 20
200.0
 30
0.0
 11
86.999006
 21
200.063045
 31
0.0
  0
TEXT
  5
68C
  8
NOTE
  6
CONTINUOUS
 10
807.914856
 20
401.0
 30
0.0
 40
40.0
  1
CW φ49×69
 50
0.000003
 41
0.701389
  7
STANDARD1
  0
LINE
  5
68D
  8
NOTE
  6
CONTINUOUS
 10
676.317261
 20
-150.0
 30
0.0
 11
420.067291
 21
-150.0
 31
0.0
  0
LINE
  5
68E
  8
NOTE
  6
CONTINUOUS
 10
420.067291
 20
-150.0
 30
0.0
 11
295.0
 21
0.0
 31
0.0
  0
LINE
  5
68F
  8
NOTE
  6
CONTINUOUS
 10
295.0
 20
0.0
 30
0.0
 11
296.634707
 21
-1.152273
 31
0.0
  0
LINE
  5
690
  8
NOTE
  6
CONTINUOUS
 10
295.0
 20
0.0
 30
0.0
 11
295.839561
 21
-1.815251
 31
0.0
  0
TEXT
  5
691
  8
NOTE
  6
CONTINUOUS
 10
480.817291
 20
-149.0
 30
0.0
 40
40.0
  1
AH 4-M12
 50
0.000003
 41
0.644737
  7
STANDARD1
  0
LINE
  5
692
  8
NOTE
  6
CONTINUOUS
 10
676.317261
 20
-300.0
 30
0.0
 11
420.067291
 21
-300.0
 31
0.0
  0
LINE
  5
693
  8
NOTE
  6
CONTINUOUS
 10
420.067291
 20
-300.0
 30
0.0
 11
248.0
 21
0.0
 31
0.0
  0
LINE
  5
694
  8
NOTE
  6
CONTINUOUS
 10
248.0
 20
0.0
 30
0.0
 11
249.410179
 21
-1.418237
 31
0.0
  0
LINE
  5
695
  8
NOTE
  6
CONTINUOUS
 10
248.0
 20
0.0
 30
0.0
 11
248.512132
 21
-1.933319
 31
0.0
  0
TEXT
  5
696
  8
NOTE
  6
CONTINUOUS
 10
480.817291
 20
-299.0
 30
0.0
 40
40.0
  1
AH 3-M12
 50
0.000003
 41
0.644737
  7
STANDARD1
  0
TEXT
  5
697
  8
NOTE
  6
CONTINUOUS
 10
440.44046
 20
-202.25502
 30
0.0
 40
40.0
  1
（脚固定金具使用時のみ）
 50
0.000003
 41
0.84375
  7
STANDARD1
  0
LINE
  5
698
  8
NOTE
  6
CONTINUOUS
 10
-665.545959
 20
-250.0
 30
0.0
 11
-466.795959
 21
-250.0
 31
0.0
  0
LINE
  5
699
  8
NOTE
  6
CONTINUOUS
 10
-466.795959
 20
-250.0
 30
0.0
 11
-133.82309
 21
172.5
 31
0.0
  0
LINE
  5
69A
  8
NOTE
  6
CONTINUOUS
 10
-133.82309
 20
172.5
 30
0.0
 11
-134.612311
 21
170.662303
 31
0.0
  0
LINE
  5
69B
  8
NOTE
  6
CONTINUOUS
 10
-133.82309
 20
172.5
 30
0.0
 11
-135.425424
 21
171.303119
 31
0.0
  0
TEXT
  5
69C
  8
NOTE
  6
CONTINUOUS
 10
-665.545959
 20
-248.999985
 30
0.0
 40
40.0
  1
D φ18
 50
359.999996
 41
0.721354
  7
STANDARD1
  0
LINE
  5
69D
  8
NOTE
  6
CONTINUOUS
 10
-884.35022
 20
-150.0
 30
0.0
 11
-465.100189
 21
-150.0
 31
0.0
  0
LINE
  5
69E
  8
NOTE
  6
CONTINUOUS
 10
-465.100189
 20
-150.0
 30
0.0
 11
-234.0
 21
155.5
 31
0.0
  0
LINE
  5
69F
  8
NOTE
  6
CONTINUOUS
 10
-234.0
 20
155.5
 30
0.0
 11
-234.752651
 21
153.647025
 31
0.0
  0
LINE
  5
6A0
  8
NOTE
  6
CONTINUOUS
 10
-234.0
 20
155.5
 30
0.0
 11
-235.578302
 21
154.271602
 31
0.0
  0
TEXT
  5
6A1
  8
NOTE
  6
CONTINUOUS
 10
-884.35022
 20
-149.000015
 30
0.0
 40
40.0
  1
WD R3/4(φ27.2)
 50
0.000003
 41
0.650362
  7
STANDARD1
  0
LINE
  5
6A2
  8
NOTE
  6
CONTINUOUS
 10
-670.654785
 20
563.0
 30
0.0
 11
-357.904816
 21
563.0
 31
0.0
  0
LINE
  5
6A3
  8
NOTE
  6
CONTINUOUS
 10
-357.904816
 20
563.0
 30
0.0
 11
-159.0
 21
200.0
 31
0.0
  0
LINE
  5
6A4
  8
NOTE
  6
CONTINUOUS
 10
-159.0
 20
200.0
 30
0.0
 11
-160.38228
 21
201.445442
 31
0.0
  0
LINE
  5
6A5
  8
NOTE
  6
CONTINUOUS
 10
-159.0
 20
200.0
 30
0.0
 11
-159.474369
 21
201.942929
 31
0.0
  0
TEXT
  5
6A6
  8
NOTE
  6
CONTINUOUS
 10
-670.654846
 20
564.0
 30
0.0
 40
40.0
  1
HW φ49×69
 50
0.000003
 41
0.701389
  7
STANDARD1
  0
LINE
  5
6A7
  8
NOTE
  6
CONTINUOUS
 10
-630.154785
 20
663.0
 30
0.0
 11
-357.904816
 21
663.0
 31
0.0
  0
LINE
  5
6A8
  8
NOTE
  6
CONTINUOUS
 10
-357.904816
 20
663.0
 30
0.0
 11
-87.0
 21
200.0
 31
0.0
  0
LINE
  5
6A9
  8
NOTE
  6
CONTINUOUS
 10
-87.0
 20
200.0
 30
0.0
 11
-88.42239
 21
201.40599
 31
0.0
  0
LINE
  5
6AA
  8
NOTE
  6
CONTINUOUS
 10
-87.0
 20
200.0
 30
0.0
 11
-87.528831
 21
201.928818
 31
0.0
  0
TEXT
  5
6AB
  8
NOTE
  6
CONTINUOUS
 10
-630.154846
 20
664.0
 30
0.0
 40
40.0
  1
CL φ32.5
 50
0.000003
 41
0.679487
  7
STANDARD1
  0
LINE
  5
6AC
  8
NOTE
  6
CONTINUOUS
 10
-670.654785
 20
763.0
 30
0.0
 11
-357.904816
 21
763.0
 31
0.0
  0
LINE
  5
6AD
  8
NOTE
  6
CONTINUOUS
 10
-357.904816
 20
763.0
 30
0.0
 11
-3.0
 21
200.0
 31
0.0
  0
LINE
  5
6AE
  8
NOTE
  6
CONTINUOUS
 10
-3.0
 20
200.0
 30
0.0
 11
-4.46809
 21
201.358202
 31
0.0
  0
LINE
  5
6AF
  8
NOTE
  6
CONTINUOUS
 10
-3.0
 20
200.0
 30
0.0
 11
-3.592302
 21
201.910282
 31
0.0
  0
TEXT
  5
6B0
  8
NOTE
  6
CONTINUOUS
 10
-670.654846
 20
764.0
 30
0.0
 40
40.0
  1
EL φ49×69
 50
0.000003
 41
0.701389
  7
STANDARD1
  0
LINE
  5
6B1
  8
NOTE
  6
CONTINUOUS
 10
207.0
 20
200.0
 30
0.0
 11
247.0
 21
200.0
 31
0.0
  0
LINE
  5
6B2
  8
NOTE
  6
CONTINUOUS
 10
227.0
 20
180.0
 30
0.0
 11
227.0
 21
220.0
 31
0.0
  0
LINE
  5
6B3
  8
NOTE
  6
CONTINUOUS
 10
-672.894897
 20
2470.0
 30
0.0
 11
-288.644928
 21
2470.0
 31
0.0
  0
LINE
  5
6B4
  8
NOTE
  6
CONTINUOUS
 10
-288.644928
 20
2470.0
 30
0.0
 11
-20.0
 21
2215.0
 31
0.0
  0
LINE
  5
6B5
  8
NOTE
  6
CONTINUOUS
 10
-20.0
 20
2215.0
 30
0.0
 11
-21.757512
 21
2215.954543
 31
0.0
  0
LINE
  5
6B6
  8
NOTE
  6
CONTINUOUS
 10
-20.0
 20
2215.0
 30
0.0
 11
-21.044778
 21
2216.705414
 31
0.0
  0
TEXT
  5
6B7
  8
NOTE
  6
CONTINUOUS
 10
-672.894897
 20
2471.0
 30
0.0
 40
40.0
  1
上部振れ止め金具
 50
0.000003
 41
0.84375
  7
STANDARD1
  0
TEXT
  5
6B8
  8
NOTE
  6
CONTINUOUS
 10
-188.287018
 20
2669.579834
 30
0.0
 40
40.0
  1
メンテナンススペース
 50
0.000003
 41
0.84375
  7
STANDARD1
  0
LINE
  5
6B9
  8
NOTE
  6
CONTINUOUS
 10
544.781372
 20
2470.0
 30
0.0
 11
288.531372
 21
2470.0
 31
0.0
  0
LINE
  5
6BA
  8
NOTE
  6
CONTINUOUS
 10
288.531372
 20
2470.0
 30
0.0
 11
30.0
 21
2193.0
 31
0.0
  0
LINE
  5
6BB
  8
NOTE
  6
CONTINUOUS
 10
30.0
 20
2193.0
 30
0.0
 11
30.939709
 21
2194.765488
 31
0.0
  0
LINE
  5
6BC
  8
NOTE
  6
CONTINUOUS
 10
30.0
 20
2193.0
 30
0.0
 11
31.696556
 21
2194.059103
 31
0.0
  0
TEXT
  5
6BD
  8
NOTE
  6
CONTINUOUS
 10
349.281372
 20
2471.0
 30
0.0
 40
40.0
  1
AH 2-M10
 50
0.000003
 41
0.644737
  7
STANDARD1
  0
TEXT
  5
6BE
  8
NOTE
  6
CONTINUOUS
 10
717.854858
 20
2218.80835
 30
0.0
 40
40.0
  1
メンテナンススペース
 50
90.000005
 41
0.84375
  7
STANDARD1
  0
LINE
  5
6BF
  8
NOTE
  6
CONTINUOUS
 10
-30.0
 20
2173.0
 30
0.0
 11
-30.0
 21
2213.0
 31
0.0
  0
LINE
  5
6C0
  8
NOTE
  6
CONTINUOUS
 10
-10.0
 20
2193.0
 30
0.0
 11
-50.0
 21
2193.0
 31
0.0
  0
LINE
  5
6C1
  8
NOTE
  6
CONTINUOUS
 10
30.0
 20
2173.0
 30
0.0
 11
30.0
 21
2213.0
 31
0.0
  0
LINE
  5
6C2
  8
NOTE
  6
CONTINUOUS
 10
10.0
 20
2193.0
 30
0.0
 11
50.0
 21
2193.0
 31
0.0
  0
LINE
  5
6C3
  8
NOTE
  6
CONTINUOUS
 10
-159.0
 20
180.0
 30
0.0
 11
-159.0
 21
220.0
 31
0.0
  0
LINE
  5
6C4
  8
NOTE
  6
CONTINUOUS
 10
-179.0
 20
200.0
 30
0.0
 11
-139.0
 21
200.0
 31
0.0
  0
LINE
  5
6C5
  8
NOTE
  6
CONTINUOUS
 10
-87.0
 20
180.0
 30
0.0
 11
-87.0
 21
220.0
 31
0.0
  0
LINE
  5
6C6
  8
NOTE
  6
CONTINUOUS
 10
-107.0
 20
200.0
 30
0.0
 11
-67.0
 21
200.0
 31
0.0
  0
LINE
  5
6C7
  8
NOTE
  6
CONTINUOUS
 10
-3.0
 20
180.0
 30
0.0
 11
-3.0
 21
220.0
 31
0.0
  0
LINE
  5
6C8
  8
NOTE
  6
CONTINUOUS
 10
-23.0
 20
200.0
 30
0.0
 11
17.0
 21
200.0
 31
0.0
  0
LINE
  5
6C9
  8
NOTE
  6
CONTINUOUS
 10
65.0
 20
200.0
 30
0.0
 11
105.0
 21
200.0
 31
0.0
  0
LINE
  5
6CA
  8
NOTE
  6
CONTINUOUS
 10
85.0
 20
180.0
 30
0.0
 11
85.0
 21
220.0
 31
0.0
  0
LINE
  5
6CB
  8
NOTE
  6
CONTINUOUS
 10
-201.0
 20
-20.0
 30
0.0
 11
-201.0
 21
20.0
 31
0.0
  0
LINE
  5
6CC
  8
NOTE
  6
CONTINUOUS
 10
-181.0
 20
0.0
 30
0.0
 11
-221.0
 21
0.0
 31
0.0
  0
LINE
  5
6CD
  8
NOTE
  6
CONTINUOUS
 10
-295.0
 20
-20.0
 30
0.0
 11
-295.0
 21
20.0
 31
0.0
  0
LINE
  5
6CE
  8
NOTE
  6
CONTINUOUS
 10
-315.0
 20
0.0
 30
0.0
 11
-275.0
 21
0.0
 31
0.0
  0
LINE
  5
6CF
  8
NOTE
  6
CONTINUOUS
 10
201.0
 20
-20.0
 30
0.0
 11
201.0
 21
20.0
 31
0.0
  0
LINE
  5
6D0
  8
NOTE
  6
CONTINUOUS
 10
181.0
 20
0.0
 30
0.0
 11
221.0
 21
0.0
 31
0.0
  0
LINE
  5
6D1
  8
NOTE
  6
CONTINUOUS
 10
315.0
 20
0.0
 30
0.0
 11
275.0
 21
0.0
 31
0.0
  0
LINE
  5
6D2
  8
NOTE
  6
CONTINUOUS
 10
295.0
 20
-20.0
 30
0.0
 11
295.0
 21
20.0
 31
0.0
  0
LINE
  5
6D3
  8
NOTE
  6
CONTINUOUS
 10
-113.823085
 20
172.5
 30
0.0
 11
-153.823085
 21
172.5
 31
0.0
  0
LINE
  5
6D4
  8
NOTE
  6
CONTINUOUS
 10
-133.823085
 20
152.5
 30
0.0
 11
-133.823085
 21
192.5
 31
0.0
  0
LINE
  5
6D5
  8
NOTE
  6
CONTINUOUS
 10
-214.0
 20
155.5
 30
0.0
 11
-254.0
 21
155.5
 31
0.0
  0
LINE
  5
6D6
  8
NOTE
  6
CONTINUOUS
 10
-234.0
 20
135.5
 30
0.0
 11
-234.0
 21
175.5
 31
0.0
  0
LINE
  5
6D7
  8
NOTE
  6
CONTINUOUS
 10
-248.0
 20
-20.0
 30
0.0
 11
-248.0
 21
20.0
 31
0.0
  0
LINE
  5
6D8
  8
NOTE
  6
CONTINUOUS
 10
-228.0
 20
0.0
 30
0.0
 11
-268.0
 21
0.0
 31
0.0
  0
LINE
  5
6D9
  8
NOTE
  6
CONTINUOUS
 10
20.0
 20
0.0
 30
0.0
 11
-20.0
 21
0.0
 31
0.0
  0
LINE
  5
6DA
  8
NOTE
  6
CONTINUOUS
 10
248.0
 20
-20.0
 30
0.0
 11
248.0
 21
20.0
 31
0.0
  0
LINE
  5
6DB
  8
NOTE
  6
CONTINUOUS
 10
268.0
 20
0.0
 30
0.0
 11
228.0
 21
0.0
 31
0.0
  0
LINE
  5
6DC
  8
NOTE
  6
CONTINUOUS
 10
0.0
 20
-20.0
 30
0.0
 11
0.0
 21
20.0
 31
0.0
  0
CIRCLE
  5
6DD
  8
ARRANGE
  6
CONTINUOUS
 10
0.0
 20
0.0
 30
0.0
 40
15.0
  0
CIRCLE
  5
6DE
  8
FIX
  6
CONTINUOUS
 10
-30.0
 20
2193.0
 30
0.0
 40
5.0
  0
CIRCLE
  5
6DF
  8
FIX
  6
CONTINUOUS
 10
30.0
 20
2193.0
 30
0.0
 40
5.0
  0
CIRCLE
  5
6E0
  8
FIX
  6
CONTINUOUS
 10
295.0
 20
0.0
 30
0.0
 40
6.0
  0
CIRCLE
  5
6E1
  8
FIX
  6
CONTINUOUS
 10
248.0
 20
0.0
 30
0.0
 40
6.0
  0
CIRCLE
  5
6E2
  8
FIX
  6
CONTINUOUS
 10
201.0
 20
0.0
 30
0.0
 40
6.0
  0
CIRCLE
  5
6E3
  8
FIX
  6
CONTINUOUS
 10
-201.0
 20
0.0
 30
0.0
 40
6.0
  0
CIRCLE
  5
6E4
  8
FIX
  6
CONTINUOUS
 10
-295.0
 20
0.0
 30
0.0
 40
6.0
  0
CIRCLE
  5
6E5
  8
FIX
  6
CONTINUOUS
 10
-248.0
 20
0.0
 30
0.0
 40
6.0
  0
CIRCLE
  5
6E6
  8
FIX
  6
CONTINUOUS
 10
0.0
 20
0.0
 30
0.0
 40
6.0
  0
CIRCLE
  5
6E7
  8
FIX
  6
CONTINUOUS
 10
248.0
 20
0.0
 30
0.0
 40
6.0
  0
LINE
  5
6E8
  8
SERVICESPACE
  6
DASHDOT
 10
-315.0
 20
2370.0
 30
0.0
 11
315.0
 21
2370.0
 31
0.0
  0
LINE
  5
6E9
  8
SERVICESPACE
  6
DASHDOT
 10
315.0
 20
2170.0
 30
0.0
 11
315.0
 21
2370.0
 31
0.0
  0
LINE
  5
6EA
  8
SERVICESPACE
  6
DASHDOT
 10
-315.0
 20
2170.0
 30
0.0
 11
315.0
 21
2170.0
 31
0.0
  0
LINE
  5
6EB
  8
SERVICESPACE
  6
DASHDOT
 10
-315.0
 20
2170.0
 30
0.0
 11
-315.0
 21
2370.0
 31
0.0
  0
LINE
  5
6EC
  8
SERVICESPACE
  6
DASHDOT
 10
-315.0
 20
2370.0
 30
0.0
 11
315.0
 21
2170.0
 31
0.0
  0
LINE
  5
6ED
  8
SERVICESPACE
  6
DASHDOT
 10
315.0
 20
2370.0
 30
0.0
 11
-315.0
 21
2170.0
 31
0.0
  0
TEXT
  5
6EE
  8
ETC
  6
CONTINUOUS
 10
637.942749
 20
2719.321533
 30
0.0
 40
40.0
  1
TT4667C2
 50
0.000003
 41
0.6125
  7
STANDARD1
  0
TEXT
  5
6EF
  8
ETC
  6
CONTINUOUS
 10
637.942749
 20
2649.321533
 30
0.0
 40
40.0
  1
電気温水器
 50
0.000003
 41
0.84375
  7
STANDARD1
  0
ENDSEC
  0
EOF
