  0
SECTION
  2
HEADER
  9
$ACADVER
  1
AC1009
  9
$INSBASE
 10
0.0
 20
0.0
 30
0.0
  9
$EXTMIN
 10
-889.515558
 20
-560.1
 30
0.0
  9
$EXTMAX
 10
1075.678955
 20
2462.4
 30
0.0
  9
$LIMMIN
 10
0.0
 20
0.0
  9
$LIMMAX
 10
12.0
 20
9.0
  9
$ORTHOMODE
 70
     0
  9
$REGENMODE
 70
     1
  9
$FILLMODE
 70
     1
  9
$QTEXTMODE
 70
     0
  9
$MIRRTEXT
 70
     1
  9
$DRAGMODE
 70
     2
  9
$LTSCALE
 40
1.0
  9
$OSMODE
 70
     0
  9
$ATTMODE
 70
     1
  9
$TEXTSIZE
 40
7.0
  9
$TRACEWID
 40
0.05
  9
$TEXTSTYLE
  7
STANDARD1
  9
$CLAYER
  8
0
  9
$CELTYPE
  6
CONTINUOUS
  9
$CECOLOR
 62
   256
  9
$DIMSCALE
 40
1.0
  9
$DIMASZ
 40
10.0
  9
$DIMEXO
 40
10.0
  9
$DIMDLI
 40
8.0
  9
$DIMRND
 40
0.0
  9
$DIMDLE
 40
0.0
  9
$DIMEXE
 40
12.5
  9
$DIMTP
 40
0.0
  9
$DIMTM
 40
0.0
  9
$DIMTXT
 40
30.0
  9
$DIMCEN
 40
2.5
  9
$DIMTSZ
 40
0.0
  9
$DIMTOL
 70
     0
  9
$DIMLIM
 70
     0
  9
$DIMTIH
 70
     0
  9
$DIMTOH
 70
     0
  9
$DIMSE1
 70
     0
  9
$DIMSE2
 70
     0
  9
$DIMTAD
 70
     3
  9
$DIMZIN
 70
    12
  9
$DIMBLK
  1

  9
$DIMASO
 70
     1
  9
$DIMSHO
 70
     1
  9
$DIMPOST
  1

  9
$DIMAPOST
  1

  9
$DIMALT
 70
     0
  9
$DIMALTD
 70
     4
  9
$DIMALTF
 40
25.4
  9
$DIMLFAC
 40
1.0
  9
$DIMTOFL
 70
     1
  9
$DIMTVP
 40
0.0
  9
$DIMTIX
 70
     0
  9
$DIMSOXD
 70
     0
  9
$DIMSAH
 70
     1
  9
$DIMBLK1
  1
_ORIGIN
  9
$DIMBLK2
  1
_ORIGIN
  9
$DIMSTYLE
  2
STANDARD
  9
$DIMCLRD
 70
     0
  9
$DIMCLRE
 70
     0
  9
$DIMCLRT
 70
     0
  9
$DIMTFAC
 40
1.0
  9
$DIMGAP
 40
0.09
  9
$LUNITS
 70
     2
  9
$LUPREC
 70
     3
  9
$SKETCHINC
 40
0.1
  9
$FILLETRAD
 40
0.0
  9
$AUNITS
 70
     0
  9
$AUPREC
 70
     0
  9
$MENU
  1
acad
  9
$ELEVATION
 40
0.0
  9
$PELEVATION
 40
0.0
  9
$THICKNESS
 40
0.0
  9
$LIMCHECK
 70
     0
  9
$BLIPMODE
 70
     0
  9
$CHAMFERA
 40
0.0
  9
$CHAMFERB
 40
0.0
  9
$SKPOLY
 70
     0
  9
$TDCREATE
 40
2452583.414479
  9
$TDUPDATE
 40
2452583.414479
  9
$TDINDWG
 40
0.0
  9
$TDUSRTIMER
 40
0.0
  9
$USRTIMER
 70
     1
  9
$ANGBASE
 50
0.0
  9
$ANGDIR
 70
     0
  9
$PDMODE
 70
     0
  9
$PDSIZE
 40
0.0
  9
$PLINEWID
 40
0.0
  9
$COORDS
 70
     1
  9
$SPLFRAME
 70
     0
  9
$SPLINETYPE
 70
     6
  9
$SPLINESEGS
 70
     8
  9
$ATTDIA
 70
     0
  9
$ATTREQ
 70
     1
  9
$HANDLING
 70
     1
  9
$HANDSEED
  5
4C1
  9
$SURFTAB1
 70
     6
  9
$SURFTAB2
 70
     6
  9
$SURFTYPE
 70
     6
  9
$SURFU
 70
     6
  9
$SURFV
 70
     6
  9
$UCSNAME
  2

  9
$UCSORG
 10
0.0
 20
0.0
 30
0.0
  9
$UCSXDIR
 10
1.0
 20
0.0
 30
0.0
  9
$UCSYDIR
 10
0.0
 20
1.0
 30
0.0
  9
$PUCSNAME
  2

  9
$PUCSORG
 10
0.0
 20
0.0
 30
0.0
  9
$PUCSXDIR
 10
1.0
 20
0.0
 30
0.0
  9
$PUCSYDIR
 10
0.0
 20
1.0
 30
0.0
  9
$USERI1
 70
     0
  9
$USERI2
 70
     0
  9
$USERI3
 70
     0
  9
$USERI4
 70
     0
  9
$USERI5
 70
     0
  9
$USERR1
 40
0.0
  9
$USERR2
 40
0.0
  9
$USERR3
 40
0.0
  9
$USERR4
 40
0.0
  9
$USERR5
 40
0.0
  9
$WORLDVIEW
 70
     1
  9
$SHADEDGE
 70
     3
  9
$SHADEDIF
 70
    70
  9
$TILEMODE
 70
     1
  9
$MAXACTVP
 70
    48
  9
$PLIMCHECK
 70
     0
  9
$PEXTMIN
 10
1.000000E+020
 20
1.000000E+020
 30
1.000000E+020
  9
$PEXTMAX
 10
-1.000000E+020
 20
-1.000000E+020
 30
-1.000000E+020
  9
$PLIMMIN
 10
0.0
 20
0.0
  9
$PLIMMAX
 10
12.0
 20
9.0
  9
$UNITMODE
 70
     0
  9
$VISRETAIN
 70
     1
  9
$PLINEGEN
 70
     0
  9
$PSLTSCALE
 70
     1
  0
ENDSEC
  0
SECTION
  2
TABLES
  0
TABLE
  2
VPORT
 70
     2
  0
VPORT
  2
*ACTIVE
 70
     0
 10
0.0
 20
0.0
 11
1.0
 21
1.0
 12
93.081698
 22
951.15
 13
0.0
 23
0.0
 14
1.0
 24
1.0
 15
0.0
 25
0.0
 16
0.0
 26
0.0
 36
1.0
 17
0.0
 27
0.0
 37
0.0
 40
3080.254777
 41
2.827476
 42
50.0
 43
0.0
 44
0.0
 50
0.0
 51
0.0
 71
     0
 72
   100
 73
     1
 74
     1
 75
     0
 76
     0
 77
     0
 78
     0
  0
ENDTAB
  0
TABLE
  2
LTYPE
 70
     4
  0
LTYPE
  2
CONTINUOUS
 70
     0
  3
Solid line
 72
    65
 73
     0
 40
0.0
  0
LTYPE
  2
DASHED
 70
     0
  3
-- -- -- -- -- -- -- -- -- -- -- -- -- -- --
 72
    65
 73
     2
 40
0.75
 49
0.5
 49
-0.25
  0
LTYPE
  2
DASHDOT
 70
     0
  3
__ . __ . __ . __ . __ . __ . __ . __ . __ . __
 72
    65
 73
     4
 40
125.0
 49
80.0
 49
-20.0
 49
5.0
 49
-20.0
  0
LTYPE
  2
DIVIDE
 70
     0
  3
__ . . __ . . __ . . __ . . __ . . __ . . __
 72
    65
 73
     6
 40
1.25
 49
0.5
 49
-0.25
 49
0.0
 49
-0.25
 49
0.0
 49
-0.25
  0
ENDTAB
  0
TABLE
  2
LAYER
 70
    12
  0
LAYER
  2
0
 70
     0
 62
     3
  6
CONTINUOUS
  0
LAYER
  2
OUTLINE
 70
     0
 62
     3
  6
CONTINUOUS
  0
LAYER
  2
DETAIL
 70
     0
 62
     5
  6
CONTINUOUS
  0
LAYER
  2
BASIS
 70
     0
 62
     6
  6
CONTINUOUS
  0
LAYER
  2
SIZE
 70
     0
 62
    30
  6
CONTINUOUS
  0
LAYER
  2
NOTE
 70
     0
 62
     4
  6
CONTINUOUS
  0
LAYER
  2
ARRANGE
 70
     0
 62
     1
  6
CONTINUOUS
  0
LAYER
  2
FIX
 70
     0
 62
    11
  6
CONTINUOUS
  0
LAYER
  2
SERVICESPACE
 70
     0
 62
     2
  6
CONTINUOUS
  0
LAYER
  2
ETC
 70
     0
 62
    61
  6
CONTINUOUS
  0
LAYER
  2
SYMBOLLINE
 70
     0
 62
     7
  6
CONTINUOUS
  0
LAYER
  2
DEFPOINTS
 70
     0
 62
     7
  6
CONTINUOUS
  0
ENDTAB
  0
TABLE
  2
STYLE
 70
     5
  0
STYLE
  2
STANDARD
 70
     0
 40
0.0
 41
1.0
 50
0.0
 71
     0
 42
0.2
  3
txt
  4

  0
STYLE
  2
STANDARD1
 70
     0
 40
0.0
 41
1.0
 50
0.0
 71
     0
 42
7.0
  3
MONOTXT
  4
BIGFONT
  0
STYLE
  2
STANDARD2
 70
     4
 40
0.0
 41
1.0
 50
0.0
 71
     0
 42
7.0
  3
MONOTXT
  4
BIGFONT
  0
STYLE
  2
STANDARD3
 70
     0
 40
0.0
 41
1.0
 50
0.0
 71
     0
 42
7.0
  3
MONOTXT
  4

  0
STYLE
  2
STANDARD4
 70
     4
 40
0.0
 41
1.0
 50
0.0
 71
     0
 42
7.0
  3
MONOTXT
  4

  0
ENDTAB
  0
TABLE
  2
VIEW
 70
     0
  0
ENDTAB
  0
TABLE
  2
UCS
 70
     0
  0
ENDTAB
  0
TABLE
  2
APPID
 70
     1
  0
APPID
  2
ACAD
 70
     0
  0
ENDTAB
  0
TABLE
  2
DIMSTYLE
 70
     1
  0
DIMSTYLE
  2
STANDARD
 70
     0
  3

  4

  5

  6

  7

 40
1.0
 41
0.18
 42
0.0625
 43
0.38
 44
0.18
 45
0.0
 46
0.0
 47
0.0
 48
0.0
140
0.18
141
0.09
142
0.0
143
25.4
144
1.0
145
0.0
146
1.0
147
0.09
 71
     0
 72
     0
 73
     1
 74
     1
 75
     0
 76
     0
 77
     0
 78
     0
170
     0
171
     2
172
     0
173
     0
174
     0
175
     0
176
     0
177
     0
178
     0
  0
ENDTAB
  0
ENDSEC
  0
SECTION
  2
BLOCKS
  0
BLOCK
  8
0
  2
$MODEL_SPACE
 70
     0
 10
0.0
 20
0.0
 30
0.0
  3
$MODEL_SPACE
  1

  0
ENDBLK
  5
1A
  8
0
  0
BLOCK
 67
     1
  8
0
  2
$PAPER_SPACE
 70
     0
 10
0.0
 20
0.0
 30
0.0
  3
$PAPER_SPACE
  1

  0
ENDBLK
  5
17
 67
     1
  8
0
  0
BLOCK
  8
SIZE
  2
*D0
 70
     1
 10
0.0
 20
0.0
 30
0.0
  3
*D0
  1

  0
TEXT
  5
35
  8
SIZE
  6
CONTINUOUS
 10
352.339325
 20
-249.000006
 30
0.0
 40
2.8
  1
75
 50
0.000003
 41
0.7
  7
STANDARD1
  0
LINE
  5
36
  8
SIZE
  6
CONTINUOUS
 10
189.0
 20
179.0
 30
0.0
 11
189.0
 21
-252.0
 31
0.0
  0
LINE
  5
37
  8
SIZE
  6
CONTINUOUS
 10
264.0
 20
134.5
 30
0.0
 11
264.0
 21
-252.0
 31
0.0
  0
LINE
  5
38
  8
SIZE
  6
CONTINUOUS
 10
184.0
 20
-250.0
 30
0.0
 11
357.659332
 21
-250.0
 31
0.0
  0
INSERT
  5
3A
  8
SIZE
  2
DOT
 10
189.0
 20
-250.0
 30
0.0
 50
180.0
  0
INSERT
  5
3B
  8
SIZE
  2
DOT
 10
264.0
 20
-250.0
 30
0.0
  0
POINT
  5
3C
  8
DEFPOINTS
  6
BYBLOCK
 10
264.0
 20
135.5
 30
0.0
  0
POINT
  5
3D
  8
DEFPOINTS
  6
BYBLOCK
 10
189.0
 20
180.0
 30
0.0
  0
POINT
  5
3E
  8
DEFPOINTS
  6
BYBLOCK
 10
189.0
 20
-250.0
 30
0.0
  0
ENDBLK
  5
3F
  8
SIZE
  0
BLOCK
  8
SIZE
  2
DOT
 70
     0
 10
0.0
 20
0.0
 30
0.0
  3
DOT
  1

  0
POLYLINE
  5
41
  8
0
  6
BYBLOCK
 66
     1
 10
0.0
 20
0.0
 30
0.0
 70
     1
 40
0.5
 41
0.5
  0
VERTEX
  5
42
  8
0
  6
BYBLOCK
 10
-0.25
 20
0.0
 30
0.0
 42
1.0
  0
VERTEX
  5
43
  8
0
  6
BYBLOCK
 10
0.25
 20
0.0
 30
0.0
 42
1.0
  0
SEQEND
  5
44
  8
0
  6
BYBLOCK
  0
LINE
  5
45
  8
0
  6
BYBLOCK
 10
-0.5
 20
0.0
 30
0.0
 11
-1.0
 21
0.0
 31
0.0
  0
ENDBLK
  5
46
  8
SIZE
  0
BLOCK
  8
SIZE
  2
*D2
 70
     1
 10
0.0
 20
0.0
 30
0.0
  3
*D2
  1

  0
TEXT
  5
49
  8
SIZE
  6
CONTINUOUS
 10
494.000006
 20
72.849999
 30
0.0
 40
2.8
  1
155.5
 50
90.000005
 41
0.7
  7
STANDARD1
  0
LINE
  5
4A
  8
SIZE
  6
CONTINUOUS
 10
285.0
 20
155.5
 30
0.0
 11
497.0
 21
155.5
 31
0.0
  0
LINE
  5
4B
  8
SIZE
  6
CONTINUOUS
 10
335.0
 20
0.0
 30
0.0
 11
497.0
 21
0.0
 31
0.0
  0
LINE
  5
4C
  8
SIZE
  6
CONTINUOUS
 10
495.0
 20
155.5
 30
0.0
 11
495.0
 21
0.0
 31
0.0
  0
INSERT
  5
4D
  8
SIZE
  2
DOT
 10
495.0
 20
155.5
 30
0.0
 50
90.0
  0
INSERT
  5
4E
  8
SIZE
  2
DOT
 10
495.0
 20
0.0
 30
0.0
 50
270.0
  0
POINT
  5
4F
  8
DEFPOINTS
  6
BYBLOCK
 10
334.0
 20
0.0
 30
0.0
  0
POINT
  5
50
  8
DEFPOINTS
  6
BYBLOCK
 10
284.0
 20
155.5
 30
0.0
  0
POINT
  5
51
  8
DEFPOINTS
  6
BYBLOCK
 10
495.0
 20
155.5
 30
0.0
  0
ENDBLK
  5
52
  8
SIZE
  0
BLOCK
  8
SIZE
  2
*D3
 70
     1
 10
0.0
 20
0.0
 30
0.0
  3
*D3
  1

  0
TEXT
  5
55
  8
SIZE
  6
CONTINUOUS
 10
-60.439999
 20
-249.000006
 30
0.0
 40
2.8
  1
115
 50
0.000003
 41
0.7
  7
STANDARD1
  0
LINE
  5
56
  8
SIZE
  6
CONTINUOUS
 10
0.0
 20
-51.0
 30
0.0
 11
0.0
 21
-252.0
 31
0.0
  0
LINE
  5
57
  8
SIZE
  6
CONTINUOUS
 10
-115.0
 20
179.0
 30
0.0
 11
-115.0
 21
-252.0
 31
0.0
  0
LINE
  5
58
  8
SIZE
  6
CONTINUOUS
 10
0.0
 20
-250.0
 30
0.0
 11
-115.0
 21
-250.0
 31
0.0
  0
INSERT
  5
59
  8
SIZE
  2
DOT
 10
0.0
 20
-250.0
 30
0.0
  0
INSERT
  5
5A
  8
SIZE
  2
DOT
 10
-115.0
 20
-250.0
 30
0.0
 50
180.0
  0
POINT
  5
5B
  8
DEFPOINTS
  6
BYBLOCK
 10
-115.0
 20
180.0
 30
0.0
  0
POINT
  5
5C
  8
DEFPOINTS
  6
BYBLOCK
 10
0.0
 20
-50.0
 30
0.0
  0
POINT
  5
5D
  8
DEFPOINTS
  6
BYBLOCK
 10
0.0
 20
-250.0
 30
0.0
  0
ENDBLK
  5
5E
  8
SIZE
  0
BLOCK
  8
SIZE
  2
*D4
 70
     1
 10
0.0
 20
0.0
 30
0.0
  3
*D4
  1

  0
TEXT
  5
61
  8
SIZE
  6
CONTINUOUS
 10
91.559998
 20
-249.000006
 30
0.0
 40
2.8
  1
189
 50
0.000003
 41
0.7
  7
STANDARD1
  0
LINE
  5
62
  8
SIZE
  6
CONTINUOUS
 10
0.0
 20
-51.0
 30
0.0
 11
0.0
 21
-252.0
 31
0.0
  0
LINE
  5
63
  8
SIZE
  6
CONTINUOUS
 10
189.0
 20
179.0
 30
0.0
 11
189.0
 21
-252.0
 31
0.0
  0
LINE
  5
64
  8
SIZE
  6
CONTINUOUS
 10
0.0
 20
-250.0
 30
0.0
 11
189.0
 21
-250.0
 31
0.0
  0
INSERT
  5
65
  8
SIZE
  2
DOT
 10
0.0
 20
-250.0
 30
0.0
 50
180.0
  0
INSERT
  5
66
  8
SIZE
  2
DOT
 10
189.0
 20
-250.0
 30
0.0
  0
POINT
  5
67
  8
DEFPOINTS
  6
BYBLOCK
 10
189.0
 20
180.0
 30
0.0
  0
POINT
  5
68
  8
DEFPOINTS
  6
BYBLOCK
 10
0.0
 20
-50.0
 30
0.0
  0
POINT
  5
69
  8
DEFPOINTS
  6
BYBLOCK
 10
0.0
 20
-250.0
 30
0.0
  0
ENDBLK
  5
6A
  8
SIZE
  0
BLOCK
  8
SIZE
  2
*D5
 70
     1
 10
0.0
 20
0.0
 30
0.0
  3
*D5
  1

  0
TEXT
  5
6D
  8
SIZE
  6
CONTINUOUS
 10
55.560001
 20
-149.000006
 30
0.0
 40
2.8
  1
117
 50
0.000003
 41
0.7
  7
STANDARD1
  0
LINE
  5
6E
  8
SIZE
  6
CONTINUOUS
 10
0.0
 20
-51.0
 30
0.0
 11
0.0
 21
-152.0
 31
0.0
  0
LINE
  5
6F
  8
SIZE
  6
CONTINUOUS
 10
117.0
 20
179.0
 30
0.0
 11
117.0
 21
-152.0
 31
0.0
  0
LINE
  5
70
  8
SIZE
  6
CONTINUOUS
 10
0.0
 20
-150.0
 30
0.0
 11
117.0
 21
-150.0
 31
0.0
  0
INSERT
  5
71
  8
SIZE
  2
DOT
 10
0.0
 20
-150.0
 30
0.0
 50
180.0
  0
INSERT
  5
72
  8
SIZE
  2
DOT
 10
117.0
 20
-150.0
 30
0.0
  0
POINT
  5
73
  8
DEFPOINTS
  6
BYBLOCK
 10
117.0
 20
180.0
 30
0.0
  0
POINT
  5
74
  8
DEFPOINTS
  6
BYBLOCK
 10
0.0
 20
-50.0
 30
0.0
  0
POINT
  5
75
  8
DEFPOINTS
  6
BYBLOCK
 10
0.0
 20
-150.0
 30
0.0
  0
ENDBLK
  5
76
  8
SIZE
  0
BLOCK
  8
SIZE
  2
*D6
 70
     1
 10
0.0
 20
0.0
 30
0.0
  3
*D6
  1

  0
TEXT
  5
79
  8
SIZE
  6
CONTINUOUS
 10
593.999976
 20
81.349999
 30
0.0
 40
2.8
  1
172.5
 50
90.000005
 41
0.7
  7
STANDARD1
  0
LINE
  5
7A
  8
SIZE
  6
CONTINUOUS
 10
184.82309
 20
172.5
 30
0.0
 11
597.0
 21
172.5
 31
0.0
  0
LINE
  5
7B
  8
SIZE
  6
CONTINUOUS
 10
335.0
 20
0.0
 30
0.0
 11
597.0
 21
0.0
 31
0.0
  0
LINE
  5
7C
  8
SIZE
  6
CONTINUOUS
 10
595.0
 20
172.5
 30
0.0
 11
595.0
 21
0.0
 31
0.0
  0
INSERT
  5
7D
  8
SIZE
  2
DOT
 10
595.0
 20
172.5
 30
0.0
 50
90.0
  0
INSERT
  5
7E
  8
SIZE
  2
DOT
 10
595.0
 20
0.0
 30
0.0
 50
270.0
  0
POINT
  5
7F
  8
DEFPOINTS
  6
BYBLOCK
 10
334.0
 20
0.0
 30
0.0
  0
POINT
  5
80
  8
DEFPOINTS
  6
BYBLOCK
 10
183.82309
 20
172.5
 30
0.0
  0
POINT
  5
81
  8
DEFPOINTS
  6
BYBLOCK
 10
595.0
 20
172.5
 30
0.0
  0
ENDBLK
  5
82
  8
SIZE
  0
BLOCK
  8
SIZE
  2
*D7
 70
     1
 10
0.0
 20
0.0
 30
0.0
  3
*D7
  1

  0
TEXT
  5
85
  8
SIZE
  6
CONTINUOUS
 10
1.87987
 20
-548.999976
 30
0.0
 40
2.8
  1
690
 50
0.000003
 41
0.7
  7
STANDARD1
  0
LINE
  5
86
  8
SIZE
  6
CONTINUOUS
 10
345.0
 20
199.0
 30
0.0
 11
345.0
 21
-552.0
 31
0.0
  0
LINE
  5
87
  8
SIZE
  6
CONTINUOUS
 10
-345.0
 20
199.0
 30
0.0
 11
-345.0
 21
-552.0
 31
0.0
  0
LINE
  5
88
  8
SIZE
  6
CONTINUOUS
 10
345.0
 20
-550.0
 30
0.0
 11
-345.0
 21
-550.0
 31
0.0
  0
INSERT
  5
89
  8
SIZE
  2
DOT
 10
345.0
 20
-550.0
 30
0.0
  0
INSERT
  5
8A
  8
SIZE
  2
DOT
 10
-345.0
 20
-550.0
 30
0.0
 50
180.0
  0
POINT
  5
8B
  8
DEFPOINTS
  6
BYBLOCK
 10
-345.0
 20
200.0
 30
0.0
  0
POINT
  5
8C
  8
DEFPOINTS
  6
BYBLOCK
 10
345.0
 20
200.0
 30
0.0
  0
POINT
  5
8D
  8
DEFPOINTS
  6
BYBLOCK
 10
345.0
 20
-550.0
 30
0.0
  0
ENDBLK
  5
8E
  8
SIZE
  0
BLOCK
  8
SIZE
  2
*D8
 70
     1
 10
0.0
 20
0.0
 30
0.0
  3
*D8
  1

  0
TEXT
  5
91
  8
SIZE
  6
CONTINUOUS
 10
494.000006
 20
1926.539063
 30
0.0
 40
2.8
  1
30
 50
90.000005
 41
0.7
  7
STANDARD1
  0
LINE
  5
92
  8
SIZE
  6
CONTINUOUS
 10
263.703766
 20
1900.0
 30
0.0
 11
497.0
 21
1900.0
 31
0.0
  0
LINE
  5
93
  8
SIZE
  6
CONTINUOUS
 10
346.0
 20
1870.0
 30
0.0
 11
497.0
 21
1870.0
 31
0.0
  0
LINE
  5
94
  8
SIZE
  6
CONTINUOUS
 10
495.0
 20
1931.859009
 30
0.0
 11
495.0
 21
1865.0
 31
0.0
  0
INSERT
  5
95
  8
SIZE
  2
DOT
 10
495.0
 20
1900.0
 30
0.0
 50
90.0
  0
INSERT
  5
96
  8
SIZE
  2
DOT
 10
495.0
 20
1870.0
 30
0.0
 50
270.0
  0
POINT
  5
97
  8
DEFPOINTS
  6
BYBLOCK
 10
345.0
 20
1870.0
 30
0.0
  0
POINT
  5
98
  8
DEFPOINTS
  6
BYBLOCK
 10
262.703766
 20
1900.0
 30
0.0
  0
POINT
  5
99
  8
DEFPOINTS
  6
BYBLOCK
 10
495.0
 20
1900.0
 30
0.0
  0
ENDBLK
  5
9A
  8
SIZE
  0
BLOCK
  8
SIZE
  2
*D9
 70
     1
 10
0.0
 20
0.0
 30
0.0
  3
*D9
  1

  0
TEXT
  5
9D
  8
SIZE
  6
CONTINUOUS
 10
693.999976
 20
1967.060059
 30
0.0
 40
2.8
  1
200
 50
90.000005
 41
0.7
  7
STANDARD1
  0
LINE
  5
9E
  8
SIZE
  6
CONTINUOUS
 10
346.0
 20
2070.0
 30
0.0
 11
697.0
 21
2070.0
 31
0.0
  0
LINE
  5
9F
  8
SIZE
  6
CONTINUOUS
 10
346.0
 20
1870.0
 30
0.0
 11
697.0
 21
1870.0
 31
0.0
  0
LINE
  5
A0
  8
SIZE
  6
CONTINUOUS
 10
695.0
 20
2070.0
 30
0.0
 11
695.0
 21
1870.0
 31
0.0
  0
INSERT
  5
A1
  8
SIZE
  2
DOT
 10
695.0
 20
2070.0
 30
0.0
 50
90.0
  0
INSERT
  5
A2
  8
SIZE
  2
DOT
 10
695.0
 20
1870.0
 30
0.0
 50
270.0
  0
POINT
  5
A3
  8
DEFPOINTS
  6
BYBLOCK
 10
345.0
 20
1870.0
 30
0.0
  0
POINT
  5
A4
  8
DEFPOINTS
  6
BYBLOCK
 10
345.0
 20
2070.0
 30
0.0
  0
POINT
  5
A5
  8
DEFPOINTS
  6
BYBLOCK
 10
695.0
 20
2070.0
 30
0.0
  0
ENDBLK
  5
A6
  8
SIZE
  0
BLOCK
  8
SIZE
  2
*D10
 70
     1
 10
0.0
 20
0.0
 30
0.0
  3
*D10
  1

  0
TEXT
  5
A9
  8
SIZE
  6
CONTINUOUS
 10
3.991274
 20
2420.999902
 30
0.0
 40
2.8
  1
690
 50
0.000003
 41
0.7
  7
STANDARD1
  0
LINE
  5
AA
  8
SIZE
  6
CONTINUOUS
 10
345.0
 20
2071.0
 30
0.0
 11
345.0
 21
2422.0
 31
0.0
  0
LINE
  5
AB
  8
SIZE
  6
CONTINUOUS
 10
-345.0
 20
2071.0
 30
0.0
 11
-345.0
 21
2422.0
 31
0.0
  0
LINE
  5
AC
  8
SIZE
  6
CONTINUOUS
 10
345.0
 20
2420.0
 30
0.0
 11
-345.0
 21
2420.0
 31
0.0
  0
INSERT
  5
AD
  8
SIZE
  2
DOT
 10
345.0
 20
2420.0
 30
0.0
  0
INSERT
  5
AE
  8
SIZE
  2
DOT
 10
-345.0
 20
2420.0
 30
0.0
 50
180.0
  0
POINT
  5
AF
  8
DEFPOINTS
  6
BYBLOCK
 10
-345.0
 20
2070.0
 30
0.0
  0
POINT
  5
B0
  8
DEFPOINTS
  6
BYBLOCK
 10
345.0
 20
2070.0
 30
0.0
  0
POINT
  5
B1
  8
DEFPOINTS
  6
BYBLOCK
 10
345.0
 20
2420.0
 30
0.0
  0
ENDBLK
  5
B2
  8
SIZE
  0
BLOCK
  8
SIZE
  2
*D11
 70
     1
 10
0.0
 20
0.0
 30
0.0
  3
*D11
  1

  0
TEXT
  5
B5
  8
SIZE
  6
CONTINUOUS
 10
693.999976
 20
1031.079956
 30
0.0
 40
2.8
  1
1670
 50
90.000005
 41
0.7
  7
STANDARD1
  0
LINE
  5
B6
  8
SIZE
  6
CONTINUOUS
 10
346.0
 20
1870.0
 30
0.0
 11
697.0
 21
1870.0
 31
0.0
  0
LINE
  5
B7
  8
SIZE
  6
CONTINUOUS
 10
346.0
 20
200.0
 30
0.0
 11
697.0
 21
200.0
 31
0.0
  0
LINE
  5
B8
  8
SIZE
  6
CONTINUOUS
 10
695.0
 20
1870.0
 30
0.0
 11
695.0
 21
200.0
 31
0.0
  0
INSERT
  5
B9
  8
SIZE
  2
DOT
 10
695.0
 20
1870.0
 30
0.0
 50
90.0
  0
INSERT
  5
BA
  8
SIZE
  2
DOT
 10
695.0
 20
200.0
 30
0.0
 50
270.0
  0
POINT
  5
BB
  8
DEFPOINTS
  6
BYBLOCK
 10
345.0
 20
200.0
 30
0.0
  0
POINT
  5
BC
  8
DEFPOINTS
  6
BYBLOCK
 10
345.0
 20
1870.0
 30
0.0
  0
POINT
  5
BD
  8
DEFPOINTS
  6
BYBLOCK
 10
695.0
 20
1870.0
 30
0.0
  0
ENDBLK
  5
BE
  8
SIZE
  0
BLOCK
  8
SIZE
  2
*D12
 70
     1
 10
0.0
 20
0.0
 30
0.0
  3
*D12
  1

  0
TEXT
  5
C1
  8
SIZE
  6
CONTINUOUS
 10
-1.96
 20
2220.999902
 30
0.0
 40
2.8
  1
60
 50
0.000003
 41
0.7
  7
STANDARD1
  0
LINE
  5
C2
  8
SIZE
  6
CONTINUOUS
 10
-30.0
 20
1914.0
 30
0.0
 11
-30.0
 21
2222.0
 31
0.0
  0
LINE
  5
C3
  8
SIZE
  6
CONTINUOUS
 10
30.0
 20
1914.0
 30
0.0
 11
30.0
 21
2222.0
 31
0.0
  0
LINE
  5
C4
  8
SIZE
  6
CONTINUOUS
 10
-30.0
 20
2220.0
 30
0.0
 11
30.0
 21
2220.0
 31
0.0
  0
INSERT
  5
C5
  8
SIZE
  2
DOT
 10
-30.0
 20
2220.0
 30
0.0
 50
180.0
  0
INSERT
  5
C6
  8
SIZE
  2
DOT
 10
30.0
 20
2220.0
 30
0.0
  0
POINT
  5
C7
  8
DEFPOINTS
  6
BYBLOCK
 10
30.0
 20
1913.0
 30
0.0
  0
POINT
  5
C8
  8
DEFPOINTS
  6
BYBLOCK
 10
-30.0
 20
1913.0
 30
0.0
  0
POINT
  5
C9
  8
DEFPOINTS
  6
BYBLOCK
 10
-30.0
 20
2220.0
 30
0.0
  0
ENDBLK
  5
CA
  8
SIZE
  0
BLOCK
  8
SIZE
  2
*D13
 70
     1
 10
0.0
 20
0.0
 30
0.0
  3
*D13
  1

  0
TEXT
  5
CD
  8
SIZE
  6
CONTINUOUS
 10
-1.96
 20
2320.999902
 30
0.0
 40
2.8
  1
90
 50
0.000003
 41
0.7
  7
STANDARD1
  0
LINE
  5
CE
  8
SIZE
  6
CONTINUOUS
 10
-45.0
 20
1911.0
 30
0.0
 11
-45.0
 21
2322.0
 31
0.0
  0
LINE
  5
CF
  8
SIZE
  6
CONTINUOUS
 10
45.0
 20
1911.0
 30
0.0
 11
45.0
 21
2322.0
 31
0.0
  0
LINE
  5
D0
  8
SIZE
  6
CONTINUOUS
 10
-45.0
 20
2320.0
 30
0.0
 11
45.0
 21
2320.0
 31
0.0
  0
INSERT
  5
D1
  8
SIZE
  2
DOT
 10
-45.0
 20
2320.0
 30
0.0
 50
180.0
  0
INSERT
  5
D2
  8
SIZE
  2
DOT
 10
45.0
 20
2320.0
 30
0.0
  0
POINT
  5
D3
  8
DEFPOINTS
  6
BYBLOCK
 10
45.0
 20
1910.0
 30
0.0
  0
POINT
  5
D4
  8
DEFPOINTS
  6
BYBLOCK
 10
-45.0
 20
1910.0
 30
0.0
  0
POINT
  5
D5
  8
DEFPOINTS
  6
BYBLOCK
 10
-45.0
 20
2320.0
 30
0.0
  0
ENDBLK
  5
D6
  8
SIZE
  0
BLOCK
  8
SIZE
  2
*D14
 70
     1
 10
0.0
 20
0.0
 30
0.0
  3
*D14
  1

  0
TEXT
  5
D9
  8
SIZE
  6
CONTINUOUS
 10
-445.999994
 20
942.580017
 30
0.0
 40
2.8
  1
1893
 50
90.000005
 41
0.7
  7
STANDARD1
  0
LINE
  5
DA
  8
SIZE
  6
CONTINUOUS
 10
-51.0
 20
1893.0
 30
0.0
 11
-447.0
 21
1893.0
 31
0.0
  0
LINE
  5
DB
  8
SIZE
  6
CONTINUOUS
 10
-335.0
 20
0.0
 30
0.0
 11
-447.0
 21
0.0
 31
0.0
  0
LINE
  5
DC
  8
SIZE
  6
CONTINUOUS
 10
-445.0
 20
1893.0
 30
0.0
 11
-445.0
 21
0.0
 31
0.0
  0
INSERT
  5
DD
  8
SIZE
  2
DOT
 10
-445.0
 20
1893.0
 30
0.0
 50
90.0
  0
INSERT
  5
DE
  8
SIZE
  2
DOT
 10
-445.0
 20
0.0
 30
0.0
 50
270.0
  0
POINT
  5
DF
  8
DEFPOINTS
  6
BYBLOCK
 10
-334.0
 20
0.0
 30
0.0
  0
POINT
  5
E0
  8
DEFPOINTS
  6
BYBLOCK
 10
-50.0
 20
1893.0
 30
0.0
  0
POINT
  5
E1
  8
DEFPOINTS
  6
BYBLOCK
 10
-445.0
 20
1893.0
 30
0.0
  0
ENDBLK
  5
E2
  8
SIZE
  0
BLOCK
  8
SIZE
  2
*D15
 70
     1
 10
0.0
 20
0.0
 30
0.0
  3
*D15
  1

  0
TEXT
  5
E5
  8
SIZE
  6
CONTINUOUS
 10
-546.000024
 20
953.580017
 30
0.0
 40
2.8
  1
1915
 50
90.000005
 41
0.7
  7
STANDARD1
  0
LINE
  5
E6
  8
SIZE
  6
CONTINUOUS
 10
-41.0
 20
1915.0
 30
0.0
 11
-547.0
 21
1915.0
 31
0.0
  0
LINE
  5
E7
  8
SIZE
  6
CONTINUOUS
 10
-335.0
 20
0.0
 30
0.0
 11
-547.0
 21
0.0
 31
0.0
  0
LINE
  5
E8
  8
SIZE
  6
CONTINUOUS
 10
-545.0
 20
1915.0
 30
0.0
 11
-545.0
 21
0.0
 31
0.0
  0
INSERT
  5
E9
  8
SIZE
  2
DOT
 10
-545.0
 20
1915.0
 30
0.0
 50
90.0
  0
INSERT
  5
EA
  8
SIZE
  2
DOT
 10
-545.0
 20
0.0
 30
0.0
 50
270.0
  0
POINT
  5
EB
  8
DEFPOINTS
  6
BYBLOCK
 10
-334.0
 20
0.0
 30
0.0
  0
POINT
  5
EC
  8
DEFPOINTS
  6
BYBLOCK
 10
-40.0
 20
1915.0
 30
0.0
  0
POINT
  5
ED
  8
DEFPOINTS
  6
BYBLOCK
 10
-545.0
 20
1915.0
 30
0.0
  0
ENDBLK
  5
EE
  8
SIZE
  0
BLOCK
  8
SIZE
  2
*D16
 70
     1
 10
0.0
 20
0.0
 30
0.0
  3
*D16
  1

  0
TEXT
  5
F1
  8
SIZE
  6
CONTINUOUS
 10
693.999976
 20
97.059998
 30
0.0
 40
2.8
  1
200
 50
90.000005
 41
0.7
  7
STANDARD1
  0
LINE
  5
F2
  8
SIZE
  6
CONTINUOUS
 10
335.0
 20
0.0
 30
0.0
 11
697.0
 21
0.0
 31
0.0
  0
LINE
  5
F3
  8
SIZE
  6
CONTINUOUS
 10
346.0
 20
200.0
 30
0.0
 11
697.0
 21
200.0
 31
0.0
  0
LINE
  5
F4
  8
SIZE
  6
CONTINUOUS
 10
695.0
 20
0.0
 30
0.0
 11
695.0
 21
200.0
 31
0.0
  0
INSERT
  5
F5
  8
SIZE
  2
DOT
 10
695.0
 20
0.0
 30
0.0
 50
270.0
  0
INSERT
  5
F6
  8
SIZE
  2
DOT
 10
695.0
 20
200.0
 30
0.0
 50
90.0
  0
POINT
  5
F7
  8
DEFPOINTS
  6
BYBLOCK
 10
345.0
 20
200.0
 30
0.0
  0
POINT
  5
F8
  8
DEFPOINTS
  6
BYBLOCK
 10
334.0
 20
0.0
 30
0.0
  0
POINT
  5
F9
  8
DEFPOINTS
  6
BYBLOCK
 10
695.0
 20
0.0
 30
0.0
  0
ENDBLK
  5
FA
  8
SIZE
  0
BLOCK
  8
SIZE
  2
*D17
 70
     1
 10
0.0
 20
0.0
 30
0.0
  3
*D17
  1

  0
TEXT
  5
FD
  8
SIZE
  6
CONTINUOUS
 10
793.999976
 20
1030.329468
 30
0.0
 40
2.8
  1
1900
 50
90.000005
 41
0.7
  7
STANDARD1
  0
LINE
  5
FE
  8
SIZE
  6
CONTINUOUS
 10
335.0
 20
0.0
 30
0.0
 11
797.0
 21
0.0
 31
0.0
  0
LINE
  5
FF
  8
SIZE
  6
CONTINUOUS
 10
263.703766
 20
1900.0
 30
0.0
 11
797.0
 21
1900.0
 31
0.0
  0
LINE
  5
100
  8
SIZE
  6
CONTINUOUS
 10
795.0
 20
0.0
 30
0.0
 11
795.0
 21
1900.0
 31
0.0
  0
INSERT
  5
101
  8
SIZE
  2
DOT
 10
795.0
 20
0.0
 30
0.0
 50
270.0
  0
INSERT
  5
102
  8
SIZE
  2
DOT
 10
795.0
 20
1900.0
 30
0.0
 50
90.0
  0
POINT
  5
103
  8
DEFPOINTS
  6
BYBLOCK
 10
262.703766
 20
1900.0
 30
0.0
  0
POINT
  5
104
  8
DEFPOINTS
  6
BYBLOCK
 10
334.0
 20
0.0
 30
0.0
  0
POINT
  5
105
  8
DEFPOINTS
  6
BYBLOCK
 10
795.0
 20
0.0
 30
0.0
  0
ENDBLK
  5
106
  8
SIZE
  0
BLOCK
  8
SIZE
  2
*D18
 70
     1
 10
0.0
 20
0.0
 30
0.0
  3
*D18
  1

  0
TEXT
  5
109
  8
SIZE
  6
CONTINUOUS
 10
-2.94
 20
-349.000006
 30
0.0
 40
2.8
  1
544
 50
0.000003
 41
0.7
  7
STANDARD1
  0
LINE
  5
10A
  8
SIZE
  6
CONTINUOUS
 10
272.0
 20
-21.0
 30
0.0
 11
272.0
 21
-352.0
 31
0.0
  0
LINE
  5
10B
  8
SIZE
  6
CONTINUOUS
 10
-272.0
 20
-21.0
 30
0.0
 11
-272.0
 21
-352.0
 31
0.0
  0
LINE
  5
10C
  8
SIZE
  6
CONTINUOUS
 10
272.0
 20
-350.0
 30
0.0
 11
-272.0
 21
-350.0
 31
0.0
  0
INSERT
  5
10D
  8
SIZE
  2
DOT
 10
272.0
 20
-350.0
 30
0.0
  0
INSERT
  5
10E
  8
SIZE
  2
DOT
 10
-272.0
 20
-350.0
 30
0.0
 50
180.0
  0
POINT
  5
10F
  8
DEFPOINTS
  6
BYBLOCK
 10
-272.0
 20
-20.0
 30
0.0
  0
POINT
  5
110
  8
DEFPOINTS
  6
BYBLOCK
 10
272.0
 20
-20.0
 30
0.0
  0
POINT
  5
111
  8
DEFPOINTS
  6
BYBLOCK
 10
272.0
 20
-350.0
 30
0.0
  0
ENDBLK
  5
112
  8
SIZE
  0
BLOCK
  8
SIZE
  2
*D19
 70
     1
 10
0.0
 20
0.0
 30
0.0
  3
*D19
  1

  0
TEXT
  5
115
  8
SIZE
  6
CONTINUOUS
 10
270.040009
 20
-449.000006
 30
0.0
 40
2.8
  1
94
 50
0.000003
 41
0.7
  7
STANDARD1
  0
LINE
  5
116
  8
SIZE
  6
CONTINUOUS
 10
225.0
 20
-21.0
 30
0.0
 11
225.0
 21
-452.0
 31
0.0
  0
LINE
  5
117
  8
SIZE
  6
CONTINUOUS
 10
319.0
 20
-21.0
 30
0.0
 11
319.0
 21
-452.0
 31
0.0
  0
LINE
  5
118
  8
SIZE
  6
CONTINUOUS
 10
225.0
 20
-450.0
 30
0.0
 11
319.0
 21
-450.0
 31
0.0
  0
INSERT
  5
119
  8
SIZE
  2
DOT
 10
225.0
 20
-450.0
 30
0.0
 50
180.0
  0
INSERT
  5
11A
  8
SIZE
  2
DOT
 10
319.0
 20
-450.0
 30
0.0
  0
POINT
  5
11B
  8
DEFPOINTS
  6
BYBLOCK
 10
319.0
 20
-20.0
 30
0.0
  0
POINT
  5
11C
  8
DEFPOINTS
  6
BYBLOCK
 10
225.0
 20
-20.0
 30
0.0
  0
POINT
  5
11D
  8
DEFPOINTS
  6
BYBLOCK
 10
225.0
 20
-450.0
 30
0.0
  0
ENDBLK
  5
11E
  8
SIZE
  0
BLOCK
  8
SIZE
  2
*D20
 70
     1
 10
0.0
 20
0.0
 30
0.0
  3
*D20
  1

  0
TEXT
  5
121
  8
SIZE
  6
CONTINUOUS
 10
-2.94
 20
-449.000006
 30
0.0
 40
2.8
  1
450
 50
0.000003
 41
0.7
  7
STANDARD1
  0
LINE
  5
122
  8
SIZE
  6
CONTINUOUS
 10
225.0
 20
-21.0
 30
0.0
 11
225.0
 21
-452.0
 31
0.0
  0
LINE
  5
123
  8
SIZE
  6
CONTINUOUS
 10
-225.0
 20
-21.0
 30
0.0
 11
-225.0
 21
-452.0
 31
0.0
  0
LINE
  5
124
  8
SIZE
  6
CONTINUOUS
 10
225.0
 20
-450.0
 30
0.0
 11
-225.0
 21
-450.0
 31
0.0
  0
INSERT
  5
125
  8
SIZE
  2
DOT
 10
225.0
 20
-450.0
 30
0.0
  0
INSERT
  5
126
  8
SIZE
  2
DOT
 10
-225.0
 20
-450.0
 30
0.0
 50
180.0
  0
POINT
  5
127
  8
DEFPOINTS
  6
BYBLOCK
 10
-225.0
 20
-20.0
 30
0.0
  0
POINT
  5
128
  8
DEFPOINTS
  6
BYBLOCK
 10
225.0
 20
-20.0
 30
0.0
  0
POINT
  5
129
  8
DEFPOINTS
  6
BYBLOCK
 10
225.0
 20
-450.0
 30
0.0
  0
ENDBLK
  5
12A
  8
SIZE
  0
BLOCK
  8
SIZE
  2
*D21
 70
     1
 10
0.0
 20
0.0
 30
0.0
  3
*D21
  1

  0
TEXT
  5
12D
  8
SIZE
  6
CONTINUOUS
 10
-273.959991
 20
-449.000006
 30
0.0
 40
2.8
  1
94
 50
0.000003
 41
0.7
  7
STANDARD1
  0
LINE
  5
12E
  8
SIZE
  6
CONTINUOUS
 10
-225.0
 20
-21.0
 30
0.0
 11
-225.0
 21
-452.0
 31
0.0
  0
LINE
  5
12F
  8
SIZE
  6
CONTINUOUS
 10
-319.0
 20
-21.0
 30
0.0
 11
-319.0
 21
-452.0
 31
0.0
  0
LINE
  5
130
  8
SIZE
  6
CONTINUOUS
 10
-225.0
 20
-450.0
 30
0.0
 11
-319.0
 21
-450.0
 31
0.0
  0
INSERT
  5
131
  8
SIZE
  2
DOT
 10
-225.0
 20
-450.0
 30
0.0
  0
INSERT
  5
132
  8
SIZE
  2
DOT
 10
-319.0
 20
-450.0
 30
0.0
 50
180.0
  0
POINT
  5
133
  8
DEFPOINTS
  6
BYBLOCK
 10
-319.0
 20
-20.0
 30
0.0
  0
POINT
  5
134
  8
DEFPOINTS
  6
BYBLOCK
 10
-225.0
 20
-20.0
 30
0.0
  0
POINT
  5
135
  8
DEFPOINTS
  6
BYBLOCK
 10
-225.0
 20
-450.0
 30
0.0
  0
ENDBLK
  5
136
  8
SIZE
  0
BLOCK
  8
SIZE
  2
*D22
 70
     1
 10
0.0
 20
0.0
 30
0.0
  3
*D22
  1

  0
TEXT
  5
139
  8
SIZE
  6
CONTINUOUS
 10
-188.940002
 20
-249.000006
 30
0.0
 40
2.8
  1
142
 50
0.000003
 41
0.7
  7
STANDARD1
  0
LINE
  5
13A
  8
SIZE
  6
CONTINUOUS
 10
-257.0
 20
179.0
 30
0.0
 11
-257.0
 21
-252.0
 31
0.0
  0
LINE
  5
13B
  8
SIZE
  6
CONTINUOUS
 10
-115.0
 20
179.0
 30
0.0
 11
-115.0
 21
-252.0
 31
0.0
  0
LINE
  5
13C
  8
SIZE
  6
CONTINUOUS
 10
-257.0
 20
-250.0
 30
0.0
 11
-115.0
 21
-250.0
 31
0.0
  0
INSERT
  5
13D
  8
SIZE
  2
DOT
 10
-257.0
 20
-250.0
 30
0.0
 50
180.0
  0
INSERT
  5
13E
  8
SIZE
  2
DOT
 10
-115.0
 20
-250.0
 30
0.0
  0
POINT
  5
13F
  8
DEFPOINTS
  6
BYBLOCK
 10
-115.0
 20
180.0
 30
0.0
  0
POINT
  5
140
  8
DEFPOINTS
  6
BYBLOCK
 10
-257.0
 20
180.0
 30
0.0
  0
POINT
  5
141
  8
DEFPOINTS
  6
BYBLOCK
 10
-257.0
 20
-250.0
 30
0.0
  0
ENDBLK
  5
142
  8
SIZE
  0
BLOCK
  8
0
  2
_ORIGIN
 70
     0
 10
0.0
 20
0.0
 30
0.0
  3
_ORIGIN
  1

  0
CIRCLE
  5
145
  8
0
  6
BYBLOCK
 62
     0
 10
0.0
 20
0.0
 30
0.0
 40
0.5
  0
LINE
  5
146
  8
0
  6
BYBLOCK
 62
     0
 10
0.0
 20
0.0
 30
0.0
 11
-1.0
 21
0.0
 31
0.0
  0
ENDBLK
  5
147
  8
0
  0
BLOCK
  8
0
  2
*D24
 70
     1
 10
0.0
 20
0.0
 30
0.0
  3
*D24
  1

  0
LINE
  5
14A
  8
0
  6
BYBLOCK
 62
     0
 10
-115.0
 20
170.0
 30
0.0
 11
-115.0
 21
-260.1
 31
0.0
  0
LINE
  5
14B
  8
0
  6
BYBLOCK
 62
     0
 10
-257.0
 20
170.0
 30
0.0
 11
-257.0
 21
-260.1
 31
0.0
  0
LINE
  5
14C
  8
0
  6
BYBLOCK
 62
     0
 10
-125.0
 20
-247.6
 30
0.0
 11
-247.0
 21
-247.6
 31
0.0
  0
INSERT
  5
14D
  8
0
  6
BYBLOCK
 62
     0
  2
_ORIGIN
 10
-115.0
 20
-247.6
 30
0.0
 41
10.0
 42
10.0
 43
10.0
  0
INSERT
  5
14E
  8
0
  6
BYBLOCK
 62
     0
  2
_ORIGIN
 10
-257.0
 20
-247.6
 30
0.0
 41
10.0
 42
10.0
 43
10.0
 50
180.0
  0
TEXT
  5
14F
  8
0
  6
BYBLOCK
 62
     0
 10
-221.0
 20
-237.6
 30
0.0
 40
30.0
  1
142
 72
     1
 11
-186.0
 21
-237.6
 31
0.0
  0
POINT
  5
150
  8
DEFPOINTS
  6
BYBLOCK
 62
     0
 10
-115.0
 20
180.0
 30
0.0
  0
POINT
  5
151
  8
DEFPOINTS
  6
BYBLOCK
 62
     0
 10
-257.0
 20
180.0
 30
0.0
  0
POINT
  5
152
  8
DEFPOINTS
  6
BYBLOCK
 62
     0
 10
-257.0
 20
-247.6
 30
0.0
  0
ENDBLK
  5
153
  8
0
  0
BLOCK
  8
0
  2
*D25
 70
     1
 10
0.0
 20
0.0
 30
0.0
  3
*D25
  1

  0
LINE
  5
156
  8
0
  6
BYBLOCK
 62
     0
 10
-319.0
 20
-30.0
 30
0.0
 11
-319.0
 21
-460.1
 31
0.0
  0
LINE
  5
157
  8
0
  6
BYBLOCK
 62
     0
 10
-225.0
 20
-30.0
 30
0.0
 11
-225.0
 21
-460.1
 31
0.0
  0
LINE
  5
158
  8
0
  6
BYBLOCK
 62
     0
 10
-309.0
 20
-447.6
 30
0.0
 11
-235.0
 21
-447.6
 31
0.0
  0
INSERT
  5
159
  8
0
  6
BYBLOCK
 62
     0
  2
_ORIGIN
 10
-319.0
 20
-447.6
 30
0.0
 41
10.0
 42
10.0
 43
10.0
 50
180.0
  0
INSERT
  5
15A
  8
0
  6
BYBLOCK
 62
     0
  2
_ORIGIN
 10
-225.0
 20
-447.6
 30
0.0
 41
10.0
 42
10.0
 43
10.0
  0
TEXT
  5
15B
  8
0
  6
BYBLOCK
 62
     0
 10
-297.0
 20
-437.6
 30
0.0
 40
30.0
  1
94
 72
     1
 11
-272.0
 21
-437.6
 31
0.0
  0
POINT
  5
15C
  8
DEFPOINTS
  6
BYBLOCK
 62
     0
 10
-319.0
 20
-20.0
 30
0.0
  0
POINT
  5
15D
  8
DEFPOINTS
  6
BYBLOCK
 62
     0
 10
-225.0
 20
-20.0
 30
0.0
  0
POINT
  5
15E
  8
DEFPOINTS
  6
BYBLOCK
 62
     0
 10
-225.0
 20
-447.6
 30
0.0
  0
ENDBLK
  5
15F
  8
0
  0
BLOCK
  8
0
  2
*D26
 70
     1
 10
0.0
 20
0.0
 30
0.0
  3
*D26
  1

  0
LINE
  5
162
  8
0
  6
BYBLOCK
 62
     0
 10
-225.0
 20
-30.0
 30
0.0
 11
-225.0
 21
-460.1
 31
0.0
  0
LINE
  5
163
  8
0
  6
BYBLOCK
 62
     0
 10
225.0
 20
-30.0
 30
0.0
 11
225.0
 21
-460.1
 31
0.0
  0
LINE
  5
164
  8
0
  6
BYBLOCK
 62
     0
 10
-215.0
 20
-447.6
 30
0.0
 11
215.0
 21
-447.6
 31
0.0
  0
INSERT
  5
165
  8
0
  6
BYBLOCK
 62
     0
  2
_ORIGIN
 10
-225.0
 20
-447.6
 30
0.0
 41
10.0
 42
10.0
 43
10.0
 50
180.0
  0
INSERT
  5
166
  8
0
  6
BYBLOCK
 62
     0
  2
_ORIGIN
 10
225.0
 20
-447.6
 30
0.0
 41
10.0
 42
10.0
 43
10.0
  0
TEXT
  5
167
  8
0
  6
BYBLOCK
 62
     0
 10
-37.5
 20
-437.6
 30
0.0
 40
30.0
  1
450
 72
     1
 11
0.0
 21
-437.6
 31
0.0
  0
POINT
  5
168
  8
DEFPOINTS
  6
BYBLOCK
 62
     0
 10
-225.0
 20
-20.0
 30
0.0
  0
POINT
  5
169
  8
DEFPOINTS
  6
BYBLOCK
 62
     0
 10
225.0
 20
-20.0
 30
0.0
  0
POINT
  5
16A
  8
DEFPOINTS
  6
BYBLOCK
 62
     0
 10
225.0
 20
-447.6
 30
0.0
  0
ENDBLK
  5
16B
  8
0
  0
BLOCK
  8
0
  2
*D27
 70
     1
 10
0.0
 20
0.0
 30
0.0
  3
*D27
  1

  0
LINE
  5
16E
  8
0
  6
BYBLOCK
 62
     0
 10
319.0
 20
-30.0
 30
0.0
 11
319.0
 21
-460.1
 31
0.0
  0
LINE
  5
16F
  8
0
  6
BYBLOCK
 62
     0
 10
225.0
 20
-30.0
 30
0.0
 11
225.0
 21
-460.1
 31
0.0
  0
LINE
  5
170
  8
0
  6
BYBLOCK
 62
     0
 10
309.0
 20
-447.6
 30
0.0
 11
235.0
 21
-447.6
 31
0.0
  0
INSERT
  5
171
  8
0
  6
BYBLOCK
 62
     0
  2
_ORIGIN
 10
319.0
 20
-447.6
 30
0.0
 41
10.0
 42
10.0
 43
10.0
  0
INSERT
  5
172
  8
0
  6
BYBLOCK
 62
     0
  2
_ORIGIN
 10
225.0
 20
-447.6
 30
0.0
 41
10.0
 42
10.0
 43
10.0
 50
180.0
  0
TEXT
  5
173
  8
0
  6
BYBLOCK
 62
     0
 10
247.0
 20
-437.6
 30
0.0
 40
30.0
  1
94
 72
     1
 11
272.0
 21
-437.6
 31
0.0
  0
POINT
  5
174
  8
DEFPOINTS
  6
BYBLOCK
 62
     0
 10
319.0
 20
-20.0
 30
0.0
  0
POINT
  5
175
  8
DEFPOINTS
  6
BYBLOCK
 62
     0
 10
225.0
 20
-20.0
 30
0.0
  0
POINT
  5
176
  8
DEFPOINTS
  6
BYBLOCK
 62
     0
 10
225.0
 20
-447.6
 30
0.0
  0
ENDBLK
  5
177
  8
0
  0
BLOCK
  8
0
  2
*D28
 70
     1
 10
0.0
 20
0.0
 30
0.0
  3
*D28
  1

  0
LINE
  5
17A
  8
0
  6
BYBLOCK
 62
     0
 10
-272.0
 20
-30.0
 30
0.0
 11
-272.0
 21
-360.1
 31
0.0
  0
LINE
  5
17B
  8
0
  6
BYBLOCK
 62
     0
 10
272.0
 20
-30.0
 30
0.0
 11
272.0
 21
-360.1
 31
0.0
  0
LINE
  5
17C
  8
0
  6
BYBLOCK
 62
     0
 10
-262.0
 20
-347.6
 30
0.0
 11
262.0
 21
-347.6
 31
0.0
  0
INSERT
  5
17D
  8
0
  6
BYBLOCK
 62
     0
  2
_ORIGIN
 10
-272.0
 20
-347.6
 30
0.0
 41
10.0
 42
10.0
 43
10.0
 50
180.0
  0
INSERT
  5
17E
  8
0
  6
BYBLOCK
 62
     0
  2
_ORIGIN
 10
272.0
 20
-347.6
 30
0.0
 41
10.0
 42
10.0
 43
10.0
  0
TEXT
  5
17F
  8
0
  6
BYBLOCK
 62
     0
 10
-40.0
 20
-337.6
 30
0.0
 40
30.0
  1
544
 72
     1
 11
0.0
 21
-337.6
 31
0.0
  0
POINT
  5
180
  8
DEFPOINTS
  6
BYBLOCK
 62
     0
 10
-272.0
 20
-20.0
 30
0.0
  0
POINT
  5
181
  8
DEFPOINTS
  6
BYBLOCK
 62
     0
 10
272.0
 20
-20.0
 30
0.0
  0
POINT
  5
182
  8
DEFPOINTS
  6
BYBLOCK
 62
     0
 10
272.0
 20
-347.6
 30
0.0
  0
ENDBLK
  5
183
  8
0
  0
BLOCK
  8
0
  2
*D29
 70
     1
 10
0.0
 20
0.0
 30
0.0
  3
*D29
  1

  0
LINE
  5
186
  8
0
  6
BYBLOCK
 62
     0
 10
272.703766
 20
1900.0
 30
0.0
 11
805.1
 21
1900.0
 31
0.0
  0
LINE
  5
187
  8
0
  6
BYBLOCK
 62
     0
 10
344.0
 20
0.0
 30
0.0
 11
805.1
 21
0.0
 31
0.0
  0
LINE
  5
188
  8
0
  6
BYBLOCK
 62
     0
 10
792.6
 20
1890.0
 30
0.0
 11
792.6
 21
10.0
 31
0.0
  0
INSERT
  5
189
  8
0
  6
BYBLOCK
 62
     0
  2
_ORIGIN
 10
792.6
 20
1900.0
 30
0.0
 41
10.0
 42
10.0
 43
10.0
 50
90.0
  0
INSERT
  5
18A
  8
0
  6
BYBLOCK
 62
     0
  2
_ORIGIN
 10
792.6
 20
0.0
 30
0.0
 41
10.0
 42
10.0
 43
10.0
 50
270.0
  0
TEXT
  5
18B
  8
0
  6
BYBLOCK
 62
     0
 10
782.6
 20
989.249512
 30
0.0
 40
30.0
  1
1900
 50
90.0
 72
     1
 11
782.6
 21
1034.249512
 31
0.0
  0
POINT
  5
18C
  8
DEFPOINTS
  6
BYBLOCK
 62
     0
 10
262.703766
 20
1900.0
 30
0.0
  0
POINT
  5
18D
  8
DEFPOINTS
  6
BYBLOCK
 62
     0
 10
334.0
 20
0.0
 30
0.0
  0
POINT
  5
18E
  8
DEFPOINTS
  6
BYBLOCK
 62
     0
 10
792.6
 20
0.0
 30
0.0
  0
ENDBLK
  5
18F
  8
0
  0
BLOCK
  8
0
  2
*D30
 70
     1
 10
0.0
 20
0.0
 30
0.0
  3
*D30
  1

  0
LINE
  5
192
  8
0
  6
BYBLOCK
 62
     0
 10
355.0
 20
200.0
 30
0.0
 11
705.1
 21
200.0
 31
0.0
  0
LINE
  5
193
  8
0
  6
BYBLOCK
 62
     0
 10
344.0
 20
0.0
 30
0.0
 11
705.1
 21
0.0
 31
0.0
  0
LINE
  5
194
  8
0
  6
BYBLOCK
 62
     0
 10
692.6
 20
190.0
 30
0.0
 11
692.6
 21
10.0
 31
0.0
  0
INSERT
  5
195
  8
0
  6
BYBLOCK
 62
     0
  2
_ORIGIN
 10
692.6
 20
200.0
 30
0.0
 41
10.0
 42
10.0
 43
10.0
 50
90.0
  0
INSERT
  5
196
  8
0
  6
BYBLOCK
 62
     0
  2
_ORIGIN
 10
692.6
 20
0.0
 30
0.0
 41
10.0
 42
10.0
 43
10.0
 50
270.0
  0
TEXT
  5
197
  8
0
  6
BYBLOCK
 62
     0
 10
682.6
 20
65.0
 30
0.0
 40
30.0
  1
200
 50
90.0
 72
     1
 11
682.6
 21
100.0
 31
0.0
  0
POINT
  5
198
  8
DEFPOINTS
  6
BYBLOCK
 62
     0
 10
345.0
 20
200.0
 30
0.0
  0
POINT
  5
199
  8
DEFPOINTS
  6
BYBLOCK
 62
     0
 10
334.0
 20
0.0
 30
0.0
  0
POINT
  5
19A
  8
DEFPOINTS
  6
BYBLOCK
 62
     0
 10
692.6
 20
0.0
 30
0.0
  0
ENDBLK
  5
19B
  8
0
  0
BLOCK
  8
0
  2
*D31
 70
     1
 10
0.0
 20
0.0
 30
0.0
  3
*D31
  1

  0
LINE
  5
19E
  8
0
  6
BYBLOCK
 62
     0
 10
-344.0
 20
0.0
 30
0.0
 11
-559.9
 21
0.0
 31
0.0
  0
LINE
  5
19F
  8
0
  6
BYBLOCK
 62
     0
 10
-50.0
 20
1915.0
 30
0.0
 11
-559.9
 21
1915.0
 31
0.0
  0
LINE
  5
1A0
  8
0
  6
BYBLOCK
 62
     0
 10
-547.4
 20
10.0
 30
0.0
 11
-547.4
 21
1905.0
 31
0.0
  0
INSERT
  5
1A1
  8
0
  6
BYBLOCK
 62
     0
  2
_ORIGIN
 10
-547.4
 20
0.0
 30
0.0
 41
10.0
 42
10.0
 43
10.0
 50
270.0
  0
INSERT
  5
1A2
  8
0
  6
BYBLOCK
 62
     0
  2
_ORIGIN
 10
-547.4
 20
1915.0
 30
0.0
 41
10.0
 42
10.0
 43
10.0
 50
90.0
  0
TEXT
  5
1A3
  8
0
  6
BYBLOCK
 62
     0
 10
-557.4
 20
912.5
 30
0.0
 40
30.0
  1
1915
 50
90.0
 72
     1
 11
-557.4
 21
957.5
 31
0.0
  0
POINT
  5
1A4
  8
DEFPOINTS
  6
BYBLOCK
 62
     0
 10
-334.0
 20
0.0
 30
0.0
  0
POINT
  5
1A5
  8
DEFPOINTS
  6
BYBLOCK
 62
     0
 10
-40.0
 20
1915.0
 30
0.0
  0
POINT
  5
1A6
  8
DEFPOINTS
  6
BYBLOCK
 62
     0
 10
-547.4
 20
1915.0
 30
0.0
  0
ENDBLK
  5
1A7
  8
0
  0
BLOCK
  8
0
  2
*D32
 70
     1
 10
0.0
 20
0.0
 30
0.0
  3
*D32
  1

  0
LINE
  5
1AA
  8
0
  6
BYBLOCK
 62
     0
 10
-344.0
 20
0.0
 30
0.0
 11
-459.9
 21
0.0
 31
0.0
  0
LINE
  5
1AB
  8
0
  6
BYBLOCK
 62
     0
 10
-60.0
 20
1893.0
 30
0.0
 11
-459.9
 21
1893.0
 31
0.0
  0
LINE
  5
1AC
  8
0
  6
BYBLOCK
 62
     0
 10
-447.4
 20
10.0
 30
0.0
 11
-447.4
 21
1883.0
 31
0.0
  0
INSERT
  5
1AD
  8
0
  6
BYBLOCK
 62
     0
  2
_ORIGIN
 10
-447.4
 20
0.0
 30
0.0
 41
10.0
 42
10.0
 43
10.0
 50
270.0
  0
INSERT
  5
1AE
  8
0
  6
BYBLOCK
 62
     0
  2
_ORIGIN
 10
-447.4
 20
1893.0
 30
0.0
 41
10.0
 42
10.0
 43
10.0
 50
90.0
  0
TEXT
  5
1AF
  8
0
  6
BYBLOCK
 62
     0
 10
-457.4
 20
896.5
 30
0.0
 40
30.0
  1
1893
 50
90.0
 72
     1
 11
-457.4
 21
946.5
 31
0.0
  0
POINT
  5
1B0
  8
DEFPOINTS
  6
BYBLOCK
 62
     0
 10
-334.0
 20
0.0
 30
0.0
  0
POINT
  5
1B1
  8
DEFPOINTS
  6
BYBLOCK
 62
     0
 10
-50.0
 20
1893.0
 30
0.0
  0
POINT
  5
1B2
  8
DEFPOINTS
  6
BYBLOCK
 62
     0
 10
-447.4
 20
1893.0
 30
0.0
  0
ENDBLK
  5
1B3
  8
0
  0
BLOCK
  8
0
  2
*D33
 70
     1
 10
0.0
 20
0.0
 30
0.0
  3
*D33
  1

  0
LINE
  5
1B6
  8
0
  6
BYBLOCK
 62
     0
 10
45.0
 20
1920.0
 30
0.0
 11
45.0
 21
2334.9
 31
0.0
  0
LINE
  5
1B7
  8
0
  6
BYBLOCK
 62
     0
 10
-45.0
 20
1920.0
 30
0.0
 11
-45.0
 21
2334.9
 31
0.0
  0
LINE
  5
1B8
  8
0
  6
BYBLOCK
 62
     0
 10
35.0
 20
2322.4
 30
0.0
 11
-35.0
 21
2322.4
 31
0.0
  0
INSERT
  5
1B9
  8
0
  6
BYBLOCK
 62
     0
  2
_ORIGIN
 10
45.0
 20
2322.4
 30
0.0
 41
10.0
 42
10.0
 43
10.0
  0
INSERT
  5
1BA
  8
0
  6
BYBLOCK
 62
     0
  2
_ORIGIN
 10
-45.0
 20
2322.4
 30
0.0
 41
10.0
 42
10.0
 43
10.0
 50
180.0
  0
TEXT
  5
1BB
  8
0
  6
BYBLOCK
 62
     0
 10
-22.5
 20
2332.4
 30
0.0
 40
30.0
  1
90
 72
     1
 11
0.0
 21
2332.4
 31
0.0
  0
POINT
  5
1BC
  8
DEFPOINTS
  6
BYBLOCK
 62
     0
 10
45.0
 20
1910.0
 30
0.0
  0
POINT
  5
1BD
  8
DEFPOINTS
  6
BYBLOCK
 62
     0
 10
-45.0
 20
1910.0
 30
0.0
  0
POINT
  5
1BE
  8
DEFPOINTS
  6
BYBLOCK
 62
     0
 10
-45.0
 20
2322.4
 30
0.0
  0
ENDBLK
  5
1BF
  8
0
  0
BLOCK
  8
0
  2
*D34
 70
     1
 10
0.0
 20
0.0
 30
0.0
  3
*D34
  1

  0
LINE
  5
1C2
  8
0
  6
BYBLOCK
 62
     0
 10
30.0
 20
1923.0
 30
0.0
 11
30.0
 21
2234.9
 31
0.0
  0
LINE
  5
1C3
  8
0
  6
BYBLOCK
 62
     0
 10
-30.0
 20
1923.0
 30
0.0
 11
-30.0
 21
2234.9
 31
0.0
  0
LINE
  5
1C4
  8
0
  6
BYBLOCK
 62
     0
 10
20.0
 20
2222.4
 30
0.0
 11
-20.0
 21
2222.4
 31
0.0
  0
INSERT
  5
1C5
  8
0
  6
BYBLOCK
 62
     0
  2
_ORIGIN
 10
30.0
 20
2222.4
 30
0.0
 41
10.0
 42
10.0
 43
10.0
  0
INSERT
  5
1C6
  8
0
  6
BYBLOCK
 62
     0
  2
_ORIGIN
 10
-30.0
 20
2222.4
 30
0.0
 41
10.0
 42
10.0
 43
10.0
 50
180.0
  0
TEXT
  5
1C7
  8
0
  6
BYBLOCK
 62
     0
 10
-22.5
 20
2232.4
 30
0.0
 40
30.0
  1
60
 72
     1
 11
0.0
 21
2232.4
 31
0.0
  0
POINT
  5
1C8
  8
DEFPOINTS
  6
BYBLOCK
 62
     0
 10
30.0
 20
1913.0
 30
0.0
  0
POINT
  5
1C9
  8
DEFPOINTS
  6
BYBLOCK
 62
     0
 10
-30.0
 20
1913.0
 30
0.0
  0
POINT
  5
1CA
  8
DEFPOINTS
  6
BYBLOCK
 62
     0
 10
-30.0
 20
2222.4
 30
0.0
  0
ENDBLK
  5
1CB
  8
0
  0
BLOCK
  8
0
  2
*D35
 70
     1
 10
0.0
 20
0.0
 30
0.0
  3
*D35
  1

  0
LINE
  5
1CE
  8
0
  6
BYBLOCK
 62
     0
 10
355.0
 20
200.0
 30
0.0
 11
705.1
 21
200.0
 31
0.0
  0
LINE
  5
1CF
  8
0
  6
BYBLOCK
 62
     0
 10
355.0
 20
1870.0
 30
0.0
 11
705.1
 21
1870.0
 31
0.0
  0
LINE
  5
1D0
  8
0
  6
BYBLOCK
 62
     0
 10
692.6
 20
210.0
 30
0.0
 11
692.6
 21
1860.0
 31
0.0
  0
INSERT
  5
1D1
  8
0
  6
BYBLOCK
 62
     0
  2
_ORIGIN
 10
692.6
 20
200.0
 30
0.0
 41
10.0
 42
10.0
 43
10.0
 50
270.0
  0
INSERT
  5
1D2
  8
0
  6
BYBLOCK
 62
     0
  2
_ORIGIN
 10
692.6
 20
1870.0
 30
0.0
 41
10.0
 42
10.0
 43
10.0
 50
90.0
  0
TEXT
  5
1D3
  8
0
  6
BYBLOCK
 62
     0
 10
682.6
 20
987.5
 30
0.0
 40
30.0
  1
1670
 50
90.0
 72
     1
 11
682.6
 21
1035.0
 31
0.0
  0
POINT
  5
1D4
  8
DEFPOINTS
  6
BYBLOCK
 62
     0
 10
345.0
 20
200.0
 30
0.0
  0
POINT
  5
1D5
  8
DEFPOINTS
  6
BYBLOCK
 62
     0
 10
345.0
 20
1870.0
 30
0.0
  0
POINT
  5
1D6
  8
DEFPOINTS
  6
BYBLOCK
 62
     0
 10
692.6
 20
1870.0
 30
0.0
  0
ENDBLK
  5
1D7
  8
0
  0
BLOCK
  8
0
  2
*D36
 70
     1
 10
0.0
 20
0.0
 30
0.0
  3
*D36
  1

  0
LINE
  5
1DA
  8
0
  6
BYBLOCK
 62
     0
 10
-345.0
 20
2080.0
 30
0.0
 11
-345.0
 21
2434.9
 31
0.0
  0
LINE
  5
1DB
  8
0
  6
BYBLOCK
 62
     0
 10
345.0
 20
2080.0
 30
0.0
 11
345.0
 21
2434.9
 31
0.0
  0
LINE
  5
1DC
  8
0
  6
BYBLOCK
 62
     0
 10
-335.0
 20
2422.4
 30
0.0
 11
335.0
 21
2422.4
 31
0.0
  0
INSERT
  5
1DD
  8
0
  6
BYBLOCK
 62
     0
  2
_ORIGIN
 10
-345.0
 20
2422.4
 30
0.0
 41
10.0
 42
10.0
 43
10.0
 50
180.0
  0
INSERT
  5
1DE
  8
0
  6
BYBLOCK
 62
     0
  2
_ORIGIN
 10
345.0
 20
2422.4
 30
0.0
 41
10.0
 42
10.0
 43
10.0
  0
TEXT
  5
1DF
  8
0
  6
BYBLOCK
 62
     0
 10
-30.568726
 20
2432.4
 30
0.0
 40
30.0
  1
690
 72
     1
 11
6.931274
 21
2432.4
 31
0.0
  0
POINT
  5
1E0
  8
DEFPOINTS
  6
BYBLOCK
 62
     0
 10
-345.0
 20
2070.0
 30
0.0
  0
POINT
  5
1E1
  8
DEFPOINTS
  6
BYBLOCK
 62
     0
 10
345.0
 20
2070.0
 30
0.0
  0
POINT
  5
1E2
  8
DEFPOINTS
  6
BYBLOCK
 62
     0
 10
345.0
 20
2422.4
 30
0.0
  0
ENDBLK
  5
1E3
  8
0
  0
BLOCK
  8
0
  2
*D37
 70
     1
 10
0.0
 20
0.0
 30
0.0
  3
*D37
  1

  0
LINE
  5
1E6
  8
0
  6
BYBLOCK
 62
     0
 10
355.0
 20
1870.0
 30
0.0
 11
705.1
 21
1870.0
 31
0.0
  0
LINE
  5
1E7
  8
0
  6
BYBLOCK
 62
     0
 10
355.0
 20
2070.0
 30
0.0
 11
705.1
 21
2070.0
 31
0.0
  0
LINE
  5
1E8
  8
0
  6
BYBLOCK
 62
     0
 10
692.6
 20
1880.0
 30
0.0
 11
692.6
 21
2060.0
 31
0.0
  0
INSERT
  5
1E9
  8
0
  6
BYBLOCK
 62
     0
  2
_ORIGIN
 10
692.6
 20
1870.0
 30
0.0
 41
10.0
 42
10.0
 43
10.0
 50
270.0
  0
INSERT
  5
1EA
  8
0
  6
BYBLOCK
 62
     0
  2
_ORIGIN
 10
692.6
 20
2070.0
 30
0.0
 41
10.0
 42
10.0
 43
10.0
 50
90.0
  0
TEXT
  5
1EB
  8
0
  6
BYBLOCK
 62
     0
 10
682.6
 20
1935.0
 30
0.0
 40
30.0
  1
200
 50
90.0
 72
     1
 11
682.6
 21
1970.0
 31
0.0
  0
POINT
  5
1EC
  8
DEFPOINTS
  6
BYBLOCK
 62
     0
 10
345.0
 20
1870.0
 30
0.0
  0
POINT
  5
1ED
  8
DEFPOINTS
  6
BYBLOCK
 62
     0
 10
345.0
 20
2070.0
 30
0.0
  0
POINT
  5
1EE
  8
DEFPOINTS
  6
BYBLOCK
 62
     0
 10
692.6
 20
2070.0
 30
0.0
  0
ENDBLK
  5
1EF
  8
0
  0
BLOCK
  8
0
  2
*D38
 70
     1
 10
0.0
 20
0.0
 30
0.0
  3
*D38
  1

  0
LINE
  5
1F2
  8
0
  6
BYBLOCK
 62
     0
 10
355.0
 20
1870.0
 30
0.0
 11
505.1
 21
1870.0
 31
0.0
  0
LINE
  5
1F3
  8
0
  6
BYBLOCK
 62
     0
 10
272.703766
 20
1900.0
 30
0.0
 11
505.1
 21
1900.0
 31
0.0
  0
LINE
  5
1F4
  8
0
  6
BYBLOCK
 62
     0
 10
492.6
 20
1860.0
 30
0.0
 11
492.6
 21
1850.0
 31
0.0
  0
LINE
  5
1F5
  8
0
  6
BYBLOCK
 62
     0
 10
492.6
 20
1910.0
 30
0.0
 11
492.6
 21
1985.0
 31
0.0
  0
LINE
  5
1F6
  8
0
  6
BYBLOCK
 62
     0
 10
492.6
 20
1870.0
 30
0.0
 11
492.6
 21
1900.0
 31
0.0
  0
INSERT
  5
1F7
  8
0
  6
BYBLOCK
 62
     0
  2
_ORIGIN
 10
492.6
 20
1870.0
 30
0.0
 41
10.0
 42
10.0
 43
10.0
 50
90.0
  0
INSERT
  5
1F8
  8
0
  6
BYBLOCK
 62
     0
  2
_ORIGIN
 10
492.6
 20
1900.0
 30
0.0
 41
10.0
 42
10.0
 43
10.0
 50
270.0
  0
TEXT
  5
1F9
  8
0
  6
BYBLOCK
 62
     0
 10
482.6
 20
1930.0
 30
0.0
 40
30.0
  1
30
 50
90.0
 72
     1
 11
482.6
 21
1952.5
 31
0.0
  0
POINT
  5
1FA
  8
DEFPOINTS
  6
BYBLOCK
 62
     0
 10
345.0
 20
1870.0
 30
0.0
  0
POINT
  5
1FB
  8
DEFPOINTS
  6
BYBLOCK
 62
     0
 10
262.703766
 20
1900.0
 30
0.0
  0
POINT
  5
1FC
  8
DEFPOINTS
  6
BYBLOCK
 62
     0
 10
492.6
 20
1900.0
 30
0.0
  0
ENDBLK
  5
1FD
  8
0
  0
BLOCK
  8
0
  2
*D39
 70
     1
 10
0.0
 20
0.0
 30
0.0
  3
*D39
  1

  0
LINE
  5
200
  8
0
  6
BYBLOCK
 62
     0
 10
-345.0
 20
190.0
 30
0.0
 11
-345.0
 21
-560.1
 31
0.0
  0
LINE
  5
201
  8
0
  6
BYBLOCK
 62
     0
 10
345.0
 20
190.0
 30
0.0
 11
345.0
 21
-560.1
 31
0.0
  0
LINE
  5
202
  8
0
  6
BYBLOCK
 62
     0
 10
-335.0
 20
-547.6
 30
0.0
 11
335.0
 21
-547.6
 31
0.0
  0
INSERT
  5
203
  8
0
  6
BYBLOCK
 62
     0
  2
_ORIGIN
 10
-345.0
 20
-547.6
 30
0.0
 41
10.0
 42
10.0
 43
10.0
 50
180.0
  0
INSERT
  5
204
  8
0
  6
BYBLOCK
 62
     0
  2
_ORIGIN
 10
345.0
 20
-547.6
 30
0.0
 41
10.0
 42
10.0
 43
10.0
  0
TEXT
  5
205
  8
0
  6
BYBLOCK
 62
     0
 10
-32.680131
 20
-537.6
 30
0.0
 40
30.0
  1
690
 72
     1
 11
4.819869
 21
-537.6
 31
0.0
  0
POINT
  5
206
  8
DEFPOINTS
  6
BYBLOCK
 62
     0
 10
-345.0
 20
200.0
 30
0.0
  0
POINT
  5
207
  8
DEFPOINTS
  6
BYBLOCK
 62
     0
 10
345.0
 20
200.0
 30
0.0
  0
POINT
  5
208
  8
DEFPOINTS
  6
BYBLOCK
 62
     0
 10
345.0
 20
-547.6
 30
0.0
  0
ENDBLK
  5
209
  8
0
  0
BLOCK
  8
0
  2
*D40
 70
     1
 10
0.0
 20
0.0
 30
0.0
  3
*D40
  1

  0
LINE
  5
20C
  8
0
  6
BYBLOCK
 62
     0
 10
344.0
 20
0.0
 30
0.0
 11
605.1
 21
0.0
 31
0.0
  0
LINE
  5
20D
  8
0
  6
BYBLOCK
 62
     0
 10
193.82309
 20
172.5
 30
0.0
 11
605.1
 21
172.5
 31
0.0
  0
LINE
  5
20E
  8
0
  6
BYBLOCK
 62
     0
 10
592.6
 20
10.0
 30
0.0
 11
592.6
 21
162.5
 31
0.0
  0
INSERT
  5
20F
  8
0
  6
BYBLOCK
 62
     0
  2
_ORIGIN
 10
592.6
 20
0.0
 30
0.0
 41
10.0
 42
10.0
 43
10.0
 50
270.0
  0
INSERT
  5
210
  8
0
  6
BYBLOCK
 62
     0
  2
_ORIGIN
 10
592.6
 20
172.5
 30
0.0
 41
10.0
 42
10.0
 43
10.0
 50
90.0
  0
TEXT
  5
211
  8
0
  6
BYBLOCK
 62
     0
 10
582.6
 20
51.25
 30
0.0
 40
30.0
  1
173
 50
90.0
 72
     1
 11
582.6
 21
86.25
 31
0.0
  0
POINT
  5
212
  8
DEFPOINTS
  6
BYBLOCK
 62
     0
 10
334.0
 20
0.0
 30
0.0
  0
POINT
  5
213
  8
DEFPOINTS
  6
BYBLOCK
 62
     0
 10
183.82309
 20
172.5
 30
0.0
  0
POINT
  5
214
  8
DEFPOINTS
  6
BYBLOCK
 62
     0
 10
592.6
 20
172.5
 30
0.0
  0
ENDBLK
  5
215
  8
0
  0
BLOCK
  8
0
  2
*D41
 70
     1
 10
0.0
 20
0.0
 30
0.0
  3
*D41
  1

  0
LINE
  5
218
  8
0
  6
BYBLOCK
 62
     0
 10
117.0
 20
170.0
 30
0.0
 11
117.0
 21
-160.1
 31
0.0
  0
LINE
  5
219
  8
0
  6
BYBLOCK
 62
     0
 10
0.0
 20
-60.0
 30
0.0
 11
0.0
 21
-160.1
 31
0.0
  0
LINE
  5
21A
  8
0
  6
BYBLOCK
 62
     0
 10
107.0
 20
-147.6
 30
0.0
 11
10.0
 21
-147.6
 31
0.0
  0
INSERT
  5
21B
  8
0
  6
BYBLOCK
 62
     0
  2
_ORIGIN
 10
117.0
 20
-147.6
 30
0.0
 41
10.0
 42
10.0
 43
10.0
  0
INSERT
  5
21C
  8
0
  6
BYBLOCK
 62
     0
  2
_ORIGIN
 10
0.0
 20
-147.6
 30
0.0
 41
10.0
 42
10.0
 43
10.0
 50
180.0
  0
TEXT
  5
21D
  8
0
  6
BYBLOCK
 62
     0
 10
28.5
 20
-137.6
 30
0.0
 40
30.0
  1
117
 72
     1
 11
58.5
 21
-137.6
 31
0.0
  0
POINT
  5
21E
  8
DEFPOINTS
  6
BYBLOCK
 62
     0
 10
117.0
 20
180.0
 30
0.0
  0
POINT
  5
21F
  8
DEFPOINTS
  6
BYBLOCK
 62
     0
 10
0.0
 20
-50.0
 30
0.0
  0
POINT
  5
220
  8
DEFPOINTS
  6
BYBLOCK
 62
     0
 10
0.0
 20
-147.6
 30
0.0
  0
ENDBLK
  5
221
  8
0
  0
BLOCK
  8
0
  2
*D42
 70
     1
 10
0.0
 20
0.0
 30
0.0
  3
*D42
  1

  0
LINE
  5
224
  8
0
  6
BYBLOCK
 62
     0
 10
189.0
 20
170.0
 30
0.0
 11
189.0
 21
-260.1
 31
0.0
  0
LINE
  5
225
  8
0
  6
BYBLOCK
 62
     0
 10
0.0
 20
-60.0
 30
0.0
 11
0.0
 21
-260.1
 31
0.0
  0
LINE
  5
226
  8
0
  6
BYBLOCK
 62
     0
 10
179.0
 20
-247.6
 30
0.0
 11
10.0
 21
-247.6
 31
0.0
  0
INSERT
  5
227
  8
0
  6
BYBLOCK
 62
     0
  2
_ORIGIN
 10
189.0
 20
-247.6
 30
0.0
 41
10.0
 42
10.0
 43
10.0
  0
INSERT
  5
228
  8
0
  6
BYBLOCK
 62
     0
  2
_ORIGIN
 10
0.0
 20
-247.6
 30
0.0
 41
10.0
 42
10.0
 43
10.0
 50
180.0
  0
TEXT
  5
229
  8
0
  6
BYBLOCK
 62
     0
 10
59.5
 20
-237.6
 30
0.0
 40
30.0
  1
189
 72
     1
 11
94.5
 21
-237.6
 31
0.0
  0
POINT
  5
22A
  8
DEFPOINTS
  6
BYBLOCK
 62
     0
 10
189.0
 20
180.0
 30
0.0
  0
POINT
  5
22B
  8
DEFPOINTS
  6
BYBLOCK
 62
     0
 10
0.0
 20
-50.0
 30
0.0
  0
POINT
  5
22C
  8
DEFPOINTS
  6
BYBLOCK
 62
     0
 10
0.0
 20
-247.6
 30
0.0
  0
ENDBLK
  5
22D
  8
0
  0
BLOCK
  8
0
  2
*D43
 70
     1
 10
0.0
 20
0.0
 30
0.0
  3
*D43
  1

  0
LINE
  5
230
  8
0
  6
BYBLOCK
 62
     0
 10
-115.0
 20
170.0
 30
0.0
 11
-115.0
 21
-260.1
 31
0.0
  0
LINE
  5
231
  8
0
  6
BYBLOCK
 62
     0
 10
0.0
 20
-60.0
 30
0.0
 11
0.0
 21
-260.1
 31
0.0
  0
LINE
  5
232
  8
0
  6
BYBLOCK
 62
     0
 10
-105.0
 20
-247.6
 30
0.0
 11
-10.0
 21
-247.6
 31
0.0
  0
INSERT
  5
233
  8
0
  6
BYBLOCK
 62
     0
  2
_ORIGIN
 10
-115.0
 20
-247.6
 30
0.0
 41
10.0
 42
10.0
 43
10.0
 50
180.0
  0
INSERT
  5
234
  8
0
  6
BYBLOCK
 62
     0
  2
_ORIGIN
 10
0.0
 20
-247.6
 30
0.0
 41
10.0
 42
10.0
 43
10.0
  0
TEXT
  5
235
  8
0
  6
BYBLOCK
 62
     0
 10
-87.5
 20
-237.6
 30
0.0
 40
30.0
  1
115
 72
     1
 11
-57.5
 21
-237.6
 31
0.0
  0
POINT
  5
236
  8
DEFPOINTS
  6
BYBLOCK
 62
     0
 10
-115.0
 20
180.0
 30
0.0
  0
POINT
  5
237
  8
DEFPOINTS
  6
BYBLOCK
 62
     0
 10
0.0
 20
-50.0
 30
0.0
  0
POINT
  5
238
  8
DEFPOINTS
  6
BYBLOCK
 62
     0
 10
0.0
 20
-247.6
 30
0.0
  0
ENDBLK
  5
239
  8
0
  0
BLOCK
  8
0
  2
*D44
 70
     1
 10
0.0
 20
0.0
 30
0.0
  3
*D44
  1

  0
LINE
  5
23C
  8
0
  6
BYBLOCK
 62
     0
 10
344.0
 20
0.0
 30
0.0
 11
505.1
 21
0.0
 31
0.0
  0
LINE
  5
23D
  8
0
  6
BYBLOCK
 62
     0
 10
294.0
 20
155.5
 30
0.0
 11
505.1
 21
155.5
 31
0.0
  0
LINE
  5
23E
  8
0
  6
BYBLOCK
 62
     0
 10
492.6
 20
10.0
 30
0.0
 11
492.6
 21
145.5
 31
0.0
  0
INSERT
  5
23F
  8
0
  6
BYBLOCK
 62
     0
  2
_ORIGIN
 10
492.6
 20
0.0
 30
0.0
 41
10.0
 42
10.0
 43
10.0
 50
270.0
  0
INSERT
  5
240
  8
0
  6
BYBLOCK
 62
     0
  2
_ORIGIN
 10
492.6
 20
155.5
 30
0.0
 41
10.0
 42
10.0
 43
10.0
 50
90.0
  0
TEXT
  5
241
  8
0
  6
BYBLOCK
 62
     0
 10
482.6
 20
42.75
 30
0.0
 40
30.0
  1
156
 50
90.0
 72
     1
 11
482.6
 21
77.75
 31
0.0
  0
POINT
  5
242
  8
DEFPOINTS
  6
BYBLOCK
 62
     0
 10
334.0
 20
0.0
 30
0.0
  0
POINT
  5
243
  8
DEFPOINTS
  6
BYBLOCK
 62
     0
 10
284.0
 20
155.5
 30
0.0
  0
POINT
  5
244
  8
DEFPOINTS
  6
BYBLOCK
 62
     0
 10
492.6
 20
155.5
 30
0.0
  0
ENDBLK
  5
245
  8
0
  0
BLOCK
  8
0
  2
*D45
 70
     1
 10
0.0
 20
0.0
 30
0.0
  3
*D45
  1

  0
LINE
  5
248
  8
0
  6
BYBLOCK
 62
     0
 10
264.0
 20
125.5
 30
0.0
 11
264.0
 21
-260.1
 31
0.0
  0
LINE
  5
249
  8
0
  6
BYBLOCK
 62
     0
 10
189.0
 20
170.0
 30
0.0
 11
189.0
 21
-260.1
 31
0.0
  0
LINE
  5
24A
  8
0
  6
BYBLOCK
 62
     0
 10
199.0
 20
-247.6
 30
0.0
 11
254.0
 21
-247.6
 31
0.0
  0
LINE
  5
24B
  8
0
  6
BYBLOCK
 62
     0
 10
264.0
 20
-247.6
 30
0.0
 11
389.299325
 21
-247.6
 31
0.0
  0
INSERT
  5
24C
  8
0
  6
BYBLOCK
 62
     0
  2
_ORIGIN
 10
189.0
 20
-247.6
 30
0.0
 41
10.0
 42
10.0
 43
10.0
 50
180.0
  0
INSERT
  5
24D
  8
0
  6
BYBLOCK
 62
     0
  2
_ORIGIN
 10
264.0
 20
-247.6
 30
0.0
 41
10.0
 42
10.0
 43
10.0
  0
TEXT
  5
24E
  8
0
  6
BYBLOCK
 62
     0
 10
329.299325
 20
-237.6
 30
0.0
 40
30.0
  1
75
 72
     1
 11
354.299325
 21
-237.6
 31
0.0
  0
POINT
  5
24F
  8
DEFPOINTS
  6
BYBLOCK
 62
     0
 10
264.0
 20
135.5
 30
0.0
  0
POINT
  5
250
  8
DEFPOINTS
  6
BYBLOCK
 62
     0
 10
189.0
 20
180.0
 30
0.0
  0
POINT
  5
251
  8
DEFPOINTS
  6
BYBLOCK
 62
     0
 10
189.0
 20
-247.6
 30
0.0
  0
ENDBLK
  5
252
  8
0
  0
ENDSEC
  0
SECTION
  2
ENTITIES
  0
LINE
  5
253
  8
OUTLINE
  6
CONTINUOUS
 10
-36.5
 20
200.0
 30
0.0
 11
-36.5
 21
0.0
 31
0.0
  0
LINE
  5
254
  8
OUTLINE
  6
CONTINUOUS
 10
36.5
 20
0.0
 30
0.0
 11
-36.5
 21
0.0
 31
0.0
  0
LINE
  5
255
  8
OUTLINE
  6
CONTINUOUS
 10
36.5
 20
200.0
 30
0.0
 11
36.5
 21
0.0
 31
0.0
  0
LINE
  5
256
  8
OUTLINE
  6
CONTINUOUS
 10
308.5
 20
0.0
 30
0.0
 11
235.5
 21
0.0
 31
0.0
  0
LINE
  5
257
  8
OUTLINE
  6
CONTINUOUS
 10
308.5
 20
200.0
 30
0.0
 11
308.5
 21
0.0
 31
0.0
  0
LINE
  5
258
  8
OUTLINE
  6
CONTINUOUS
 10
235.5
 20
200.0
 30
0.0
 11
235.5
 21
0.0
 31
0.0
  0
LINE
  5
259
  8
OUTLINE
  6
CONTINUOUS
 10
-308.5
 20
0.0
 30
0.0
 11
-235.5
 21
0.0
 31
0.0
  0
LINE
  5
25A
  8
OUTLINE
  6
CONTINUOUS
 10
-235.5
 20
200.0
 30
0.0
 11
-235.5
 21
0.0
 31
0.0
  0
LINE
  5
25B
  8
OUTLINE
  6
CONTINUOUS
 10
-308.5
 20
200.0
 30
0.0
 11
-308.5
 21
0.0
 31
0.0
  0
LINE
  5
25C
  8
OUTLINE
  6
CONTINUOUS
 10
345.0
 20
200.0
 30
0.0
 11
345.0
 21
1870.0
 31
0.0
  0
LINE
  5
25D
  8
OUTLINE
  6
CONTINUOUS
 10
345.0
 20
200.0
 30
0.0
 11
-345.0
 21
200.0
 31
0.0
  0
LINE
  5
25E
  8
OUTLINE
  6
CONTINUOUS
 10
-345.0
 20
1870.0
 30
0.0
 11
-345.0
 21
200.0
 31
0.0
  0
LINE
  5
25F
  8
OUTLINE
  6
CONTINUOUS
 10
345.0
 20
1870.0
 30
0.0
 11
-345.0
 21
1870.0
 31
0.0
  0
LINE
  5
260
  8
DETAIL
  6
DASHED
 10
276.6875
 20
155.5
 30
0.0
 11
251.3125
 21
155.5
 31
0.0
  0
LINE
  5
261
  8
DETAIL
  6
DASHED
 10
251.3125
 20
155.5
 30
0.0
 11
250.375
 21
170.5
 31
0.0
  0
LINE
  5
262
  8
DETAIL
  6
DASHED
 10
276.6875
 20
155.5
 30
0.0
 11
251.3125
 21
155.5
 31
0.0
  0
LINE
  5
263
  8
DETAIL
  6
DASHED
 10
276.6875
 20
155.5
 30
0.0
 11
277.625
 21
170.5
 31
0.0
  0
LINE
  5
264
  8
DETAIL
  6
DASHED
 10
281.783055
 20
170.5
 30
0.0
 11
246.216945
 21
170.5
 31
0.0
  0
LINE
  5
265
  8
DETAIL
  6
DASHED
 10
246.216945
 20
185.5
 30
0.0
 11
246.216945
 21
170.5
 31
0.0
  0
LINE
  5
266
  8
DETAIL
  6
DASHED
 10
240.0
 20
189.5
 30
0.0
 11
288.0
 21
189.5
 31
0.0
  0
LINE
  5
267
  8
DETAIL
  6
DASHED
 10
281.783055
 20
185.5
 30
0.0
 11
281.783055
 21
170.5
 31
0.0
  0
LINE
  5
268
  8
DETAIL
  6
DASHED
 10
288.0
 20
200.0
 30
0.0
 11
288.0
 21
189.5
 31
0.0
  0
LINE
  5
269
  8
DETAIL
  6
DASHED
 10
284.0
 20
185.5
 30
0.0
 11
288.0
 21
189.5
 31
0.0
  0
LINE
  5
26A
  8
DETAIL
  6
DASHED
 10
284.0
 20
185.5
 30
0.0
 11
244.0
 21
185.5
 31
0.0
  0
LINE
  5
26B
  8
DETAIL
  6
DASHED
 10
284.0
 20
185.5
 30
0.0
 11
244.0
 21
185.5
 31
0.0
  0
LINE
  5
26C
  8
DETAIL
  6
DASHED
 10
240.0
 20
200.0
 30
0.0
 11
240.0
 21
189.5
 31
0.0
  0
LINE
  5
26D
  8
DETAIL
  6
DASHED
 10
244.0
 20
185.5
 30
0.0
 11
240.0
 21
189.5
 31
0.0
  0
LINE
  5
26E
  8
DETAIL
  6
CONTINUOUS
 10
163.444344
 20
164.335062
 30
0.0
 11
167.73752
 21
163.538482
 31
0.0
  0
LINE
  5
26F
  8
DETAIL
  6
CONTINUOUS
 10
163.444344
 20
180.664938
 30
0.0
 11
167.73752
 21
181.461518
 31
0.0
  0
POLYLINE
  5
270
  8
DETAIL
  6
CONTINUOUS
 66
     1
 10
0.0
 20
0.0
 30
0.0
  0
VERTEX
  5
271
  8
DETAIL
  6
CONTINUOUS
 10
163.444344
 20
180.664938
 30
0.0
  0
VERTEX
  5
272
  8
DETAIL
  6
CONTINUOUS
 10
162.700694
 20
180.386758
 30
0.0
  0
VERTEX
  5
273
  8
DETAIL
  6
CONTINUOUS
 10
161.99526
 20
179.840042
 30
0.0
  0
VERTEX
  5
274
  8
DETAIL
  6
CONTINUOUS
 10
161.352062
 20
179.043407
 30
0.0
  0
VERTEX
  5
275
  8
DETAIL
  6
CONTINUOUS
 10
160.792999
 20
178.023976
 30
0.0
  0
VERTEX
  5
276
  8
DETAIL
  6
CONTINUOUS
 10
160.337108
 20
176.816461
 30
0.0
  0
VERTEX
  5
277
  8
DETAIL
  6
CONTINUOUS
 10
159.999909
 20
175.461975
 30
0.0
  0
VERTEX
  5
278
  8
DETAIL
  6
CONTINUOUS
 10
159.792886
 20
174.006637
 30
0.0
  0
VERTEX
  5
279
  8
DETAIL
  6
CONTINUOUS
 10
159.723085
 20
172.499999
 30
0.0
  0
VERTEX
  5
27A
  8
DETAIL
  6
CONTINUOUS
 10
159.792886
 20
170.993362
 30
0.0
  0
VERTEX
  5
27B
  8
DETAIL
  6
CONTINUOUS
 10
159.999909
 20
169.538024
 30
0.0
  0
VERTEX
  5
27C
  8
DETAIL
  6
CONTINUOUS
 10
160.337108
 20
168.183538
 30
0.0
  0
VERTEX
  5
27D
  8
DETAIL
  6
CONTINUOUS
 10
160.793
 20
166.976023
 30
0.0
  0
VERTEX
  5
27E
  8
DETAIL
  6
CONTINUOUS
 10
161.352063
 20
165.956592
 30
0.0
  0
VERTEX
  5
27F
  8
DETAIL
  6
CONTINUOUS
 10
161.995261
 20
165.159957
 30
0.0
  0
VERTEX
  5
280
  8
DETAIL
  6
CONTINUOUS
 10
162.700695
 20
164.613242
 30
0.0
  0
VERTEX
  5
281
  8
DETAIL
  6
CONTINUOUS
 10
163.444344
 20
164.335062
 30
0.0
  0
SEQEND
  5
282
  8
DETAIL
  6
CONTINUOUS
  0
LINE
  5
283
  8
DETAIL
  6
CONTINUOUS
 10
159.0
 20
192.0
 30
0.0
 11
151.0
 21
200.0
 31
0.0
  0
LINE
  5
284
  8
DETAIL
  6
CONTINUOUS
 10
231.0
 20
192.0
 30
0.0
 11
235.5
 21
196.5
 31
0.0
  0
ARC
  5
285
  8
DETAIL
  6
CONTINUOUS
 10
179.411543
 20
139.647092
 30
0.0
 40
0.647092
 50
270.0
 51
316.323742
  0
LINE
  5
286
  8
DETAIL
  6
CONTINUOUS
 10
177.0
 20
143.0
 30
0.0
 11
177.0
 21
188.5
 31
0.0
  0
LINE
  5
287
  8
DETAIL
  6
CONTINUOUS
 10
168.153212
 20
163.5
 30
0.0
 11
177.0
 21
163.5
 31
0.0
  0
LINE
  5
288
  8
DETAIL
  6
CONTINUOUS
 10
168.153212
 20
181.5
 30
0.0
 11
177.0
 21
181.5
 31
0.0
  0
LINE
  5
289
  8
DETAIL
  6
CONTINUOUS
 10
166.421162
 20
150.0
 30
0.0
 11
177.0
 21
150.0
 31
0.0
  0
POLYLINE
  5
28A
  8
DETAIL
  6
CONTINUOUS
 66
     1
 10
0.0
 20
0.0
 30
0.0
  0
VERTEX
  5
28B
  8
DETAIL
  6
CONTINUOUS
 10
166.421162
 20
150.0
 30
0.0
  0
VERTEX
  5
28C
  8
DETAIL
  6
CONTINUOUS
 10
165.884663
 20
149.894319
 30
0.0
  0
VERTEX
  5
28D
  8
DETAIL
  6
CONTINUOUS
 10
165.368782
 20
149.581337
 30
0.0
  0
VERTEX
  5
28E
  8
DETAIL
  6
CONTINUOUS
 10
164.893344
 20
149.073083
 30
0.0
  0
VERTEX
  5
28F
  8
DETAIL
  6
CONTINUOUS
 10
164.476618
 20
148.389087
 30
0.0
  0
VERTEX
  5
290
  8
DETAIL
  6
CONTINUOUS
 10
164.13462
 20
147.555636
 30
0.0
  0
VERTEX
  5
291
  8
DETAIL
  6
CONTINUOUS
 10
163.880493
 20
146.604759
 30
0.0
  0
VERTEX
  5
292
  8
DETAIL
  6
CONTINUOUS
 10
163.724002
 20
145.572997
 30
0.0
  0
VERTEX
  5
293
  8
DETAIL
  6
CONTINUOUS
 10
163.671162
 20
144.5
 30
0.0
  0
VERTEX
  5
294
  8
DETAIL
  6
CONTINUOUS
 10
163.724002
 20
143.427003
 30
0.0
  0
VERTEX
  5
295
  8
DETAIL
  6
CONTINUOUS
 10
163.880493
 20
142.395241
 30
0.0
  0
VERTEX
  5
296
  8
DETAIL
  6
CONTINUOUS
 10
164.13462
 20
141.444364
 30
0.0
  0
VERTEX
  5
297
  8
DETAIL
  6
CONTINUOUS
 10
164.476618
 20
140.610913
 30
0.0
  0
VERTEX
  5
298
  8
DETAIL
  6
CONTINUOUS
 10
164.893344
 20
139.926917
 30
0.0
  0
VERTEX
  5
299
  8
DETAIL
  6
CONTINUOUS
 10
165.368782
 20
139.418663
 30
0.0
  0
VERTEX
  5
29A
  8
DETAIL
  6
CONTINUOUS
 10
165.884663
 20
139.105681
 30
0.0
  0
VERTEX
  5
29B
  8
DETAIL
  6
CONTINUOUS
 10
166.421162
 20
139.0
 30
0.0
  0
SEQEND
  5
29C
  8
DETAIL
  6
CONTINUOUS
  0
POLYLINE
  5
29D
  8
DETAIL
  6
CONTINUOUS
 66
     1
 10
0.0
 20
0.0
 30
0.0
  0
VERTEX
  5
29E
  8
DETAIL
  6
CONTINUOUS
 10
167.633597
 20
163.560201
 30
0.0
  0
VERTEX
  5
29F
  8
DETAIL
  6
CONTINUOUS
 10
168.153212
 20
163.5
 30
0.0
  0
SEQEND
  5
2A0
  8
DETAIL
  6
CONTINUOUS
  0
LINE
  5
2A1
  8
DETAIL
  6
CONTINUOUS
 10
213.0
 20
143.0
 30
0.0
 11
213.0
 21
188.5
 31
0.0
  0
LINE
  5
2A2
  8
DETAIL
  6
CONTINUOUS
 10
166.421162
 20
139.0
 30
0.0
 11
209.0
 21
139.0
 31
0.0
  0
LINE
  5
2A3
  8
DETAIL
  6
CONTINUOUS
 10
163.5
 20
188.5
 30
0.0
 11
163.5
 21
192.0
 31
0.0
  0
LINE
  5
2A4
  8
DETAIL
  6
CONTINUOUS
 10
163.5
 20
188.5
 30
0.0
 11
226.5
 21
188.5
 31
0.0
  0
LINE
  5
2A5
  8
DETAIL
  6
CONTINUOUS
 10
226.5
 20
188.5
 30
0.0
 11
226.5
 21
192.0
 31
0.0
  0
ARC
  5
2A6
  8
DETAIL
  6
CONTINUOUS
 10
181.0
 20
143.0
 30
0.0
 40
4.0
 50
180.0
 51
270.0
  0
ARC
  5
2A7
  8
DETAIL
  6
CONTINUOUS
 10
209.0
 20
143.0
 30
0.0
 40
4.0
 50
270.0
 51
0.0
  0
LINE
  5
2A8
  8
DETAIL
  6
CONTINUOUS
 10
159.0
 20
192.0
 30
0.0
 11
231.0
 21
192.0
 31
0.0
  0
POLYLINE
  5
2A9
  8
DETAIL
  6
CONTINUOUS
 66
     1
 10
0.0
 20
0.0
 30
0.0
  0
VERTEX
  5
2AA
  8
DETAIL
  6
CONTINUOUS
 10
168.153212
 20
181.5
 30
0.0
  0
VERTEX
  5
2AB
  8
DETAIL
  6
CONTINUOUS
 10
167.633597
 20
181.439799
 30
0.0
  0
SEQEND
  5
2AC
  8
DETAIL
  6
CONTINUOUS
  0
LINE
  5
2AD
  8
DETAIL
  6
CONTINUOUS
 10
258.22967
 20
1895.0
 30
0.0
 11
171.77033
 21
1895.0
 31
0.0
  0
LINE
  5
2AE
  8
DETAIL
  6
CONTINUOUS
 10
295.0
 20
1875.0
 30
0.0
 11
295.0
 21
1870.0
 31
0.0
  0
LINE
  5
2AF
  8
DETAIL
  6
CONTINUOUS
 10
135.0
 20
1875.0
 30
0.0
 11
135.0
 21
1870.0
 31
0.0
  0
LINE
  5
2B0
  8
DETAIL
  6
CONTINUOUS
 10
295.0
 20
1875.0
 30
0.0
 11
292.09017
 21
1875.0
 31
0.0
  0
LINE
  5
2B1
  8
DETAIL
  6
CONTINUOUS
 10
275.0
 20
1870.0
 30
0.0
 11
267.514437
 21
1888.713907
 31
0.0
  0
LINE
  5
2B2
  8
DETAIL
  6
CONTINUOUS
 10
155.0
 20
1870.0
 30
0.0
 11
162.485563
 21
1888.713907
 31
0.0
  0
ARC
  5
2B3
  8
DETAIL
  6
CONTINUOUS
 10
171.77033
 20
1885.0
 30
0.0
 40
10.0
 50
90.0
 51
158.198591
  0
ARC
  5
2B4
  8
DETAIL
  6
CONTINUOUS
 10
258.22967
 20
1885.0
 30
0.0
 40
10.0
 50
21.801409
 51
90.0
  0
LINE
  5
2B5
  8
DETAIL
  6
CONTINUOUS
 10
288.116621
 20
1876.913308
 30
0.0
 11
274.50424
 21
1894.260077
 31
0.0
  0
ARC
  5
2B6
  8
DETAIL
  6
CONTINUOUS
 10
292.050109
 20
1880.0
 30
0.0
 40
5.0
 50
218.122034
 51
270.0
  0
ARC
  5
2B7
  8
DETAIL
  6
CONTINUOUS
 10
262.703775
 20
1885.0
 30
0.0
 40
15.0
 50
38.122034
 51
90.0
  0
LINE
  5
2B8
  8
DETAIL
  6
CONTINUOUS
 10
141.883379
 20
1876.913308
 30
0.0
 11
155.49576
 21
1894.260077
 31
0.0
  0
ARC
  5
2B9
  8
DETAIL
  6
CONTINUOUS
 10
137.949891
 20
1880.0
 30
0.0
 40
5.0
 50
270.0
 51
321.877966
  0
LINE
  5
2BA
  8
DETAIL
  6
CONTINUOUS
 10
137.949891
 20
1875.0
 30
0.0
 11
135.0
 21
1875.0
 31
0.0
  0
LINE
  5
2BB
  8
DETAIL
  6
CONTINUOUS
 10
262.703775
 20
1900.0
 30
0.0
 11
167.296225
 21
1900.0
 31
0.0
  0
ARC
  5
2BC
  8
DETAIL
  6
CONTINUOUS
 10
167.296225
 20
1885.0
 30
0.0
 40
15.0
 50
90.0
 51
141.877966
  0
LINE
  5
2BD
  8
DETAIL
  6
CONTINUOUS
 10
-258.22967
 20
1895.0
 30
0.0
 11
-171.77033
 21
1895.0
 31
0.0
  0
LINE
  5
2BE
  8
DETAIL
  6
CONTINUOUS
 10
-295.0
 20
1875.0
 30
0.0
 11
-295.0
 21
1870.0
 31
0.0
  0
LINE
  5
2BF
  8
DETAIL
  6
CONTINUOUS
 10
-135.0
 20
1875.0
 30
0.0
 11
-135.0
 21
1870.0
 31
0.0
  0
LINE
  5
2C0
  8
DETAIL
  6
CONTINUOUS
 10
-295.0
 20
1875.0
 30
0.0
 11
-292.09017
 21
1875.0
 31
0.0
  0
LINE
  5
2C1
  8
DETAIL
  6
CONTINUOUS
 10
-275.0
 20
1870.0
 30
0.0
 11
-267.514437
 21
1888.713907
 31
0.0
  0
LINE
  5
2C2
  8
DETAIL
  6
CONTINUOUS
 10
-155.0
 20
1870.0
 30
0.0
 11
-162.485563
 21
1888.713907
 31
0.0
  0
ARC
  5
2C3
  8
DETAIL
  6
CONTINUOUS
 10
-171.77033
 20
1885.0
 30
0.0
 40
10.0
 50
21.801409
 51
90.0
  0
ARC
  5
2C4
  8
DETAIL
  6
CONTINUOUS
 10
-258.22967
 20
1885.0
 30
0.0
 40
10.0
 50
90.0
 51
158.198591
  0
LINE
  5
2C5
  8
DETAIL
  6
CONTINUOUS
 10
-288.116621
 20
1876.913308
 30
0.0
 11
-274.50424
 21
1894.260077
 31
0.0
  0
ARC
  5
2C6
  8
DETAIL
  6
CONTINUOUS
 10
-292.050109
 20
1880.0
 30
0.0
 40
5.0
 50
270.0
 51
321.877966
  0
ARC
  5
2C7
  8
DETAIL
  6
CONTINUOUS
 10
-262.703775
 20
1885.0
 30
0.0
 40
15.0
 50
90.0
 51
141.877966
  0
LINE
  5
2C8
  8
DETAIL
  6
CONTINUOUS
 10
-141.883379
 20
1876.913308
 30
0.0
 11
-155.49576
 21
1894.260077
 31
0.0
  0
ARC
  5
2C9
  8
DETAIL
  6
CONTINUOUS
 10
-137.949891
 20
1880.0
 30
0.0
 40
5.0
 50
218.122034
 51
270.0
  0
LINE
  5
2CA
  8
DETAIL
  6
CONTINUOUS
 10
-137.949891
 20
1875.0
 30
0.0
 11
-135.0
 21
1875.0
 31
0.0
  0
LINE
  5
2CB
  8
DETAIL
  6
CONTINUOUS
 10
-262.703775
 20
1900.0
 30
0.0
 11
-167.296225
 21
1900.0
 31
0.0
  0
ARC
  5
2CC
  8
DETAIL
  6
CONTINUOUS
 10
-167.296225
 20
1885.0
 30
0.0
 40
15.0
 50
38.122034
 51
90.0
  0
LINE
  5
2CD
  8
DETAIL
  6
CONTINUOUS
 10
45.0
 20
1870.0
 30
0.0
 11
45.0
 21
1910.0
 31
0.0
  0
ARC
  5
2CE
  8
DETAIL
  6
CONTINUOUS
 10
40.0
 20
1910.0
 30
0.0
 40
5.0
 50
0.0
 51
90.0
  0
LINE
  5
2CF
  8
DETAIL
  6
CONTINUOUS
 10
-45.0
 20
1870.0
 30
0.0
 11
-45.0
 21
1910.0
 31
0.0
  0
LINE
  5
2D0
  8
DETAIL
  6
CONTINUOUS
 10
40.0
 20
1915.0
 30
0.0
 11
-40.0
 21
1915.0
 31
0.0
  0
ARC
  5
2D1
  8
DETAIL
  6
CONTINUOUS
 10
-40.0
 20
1910.0
 30
0.0
 40
5.0
 50
90.0
 51
180.0
  0
ARC
  5
2D2
  8
DETAIL
  6
CONTINUOUS
 10
245.5
 20
4.7
 30
0.0
 40
4.7
 50
270.0
 51
0.0
  0
LINE
  5
2D3
  8
DETAIL
  6
CONTINUOUS
 10
250.2
 20
4.7
 30
0.0
 11
250.2
 21
13.3
 31
0.0
  0
LINE
  5
2D4
  8
DETAIL
  6
CONTINUOUS
 10
245.5
 20
0.0
 30
0.0
 11
210.0
 21
0.0
 31
0.0
  0
ARC
  5
2D5
  8
DETAIL
  6
CONTINUOUS
 10
298.5
 20
4.7
 30
0.0
 40
4.7
 50
180.0
 51
270.0
  0
LINE
  5
2D6
  8
DETAIL
  6
CONTINUOUS
 10
293.8
 20
4.7
 30
0.0
 11
293.8
 21
13.3
 31
0.0
  0
LINE
  5
2D7
  8
DETAIL
  6
CONTINUOUS
 10
298.5
 20
0.0
 30
0.0
 11
334.0
 21
0.0
 31
0.0
  0
ARC
  5
2D8
  8
DETAIL
  6
CONTINUOUS
 10
292.3
 20
13.3
 30
0.0
 40
4.7
 50
0.0
 51
90.0
  0
LINE
  5
2D9
  8
DETAIL
  6
CONTINUOUS
 10
292.3
 20
18.0
 30
0.0
 11
251.7
 21
18.0
 31
0.0
  0
LINE
  5
2DA
  8
DETAIL
  6
CONTINUOUS
 10
297.0
 20
4.7
 30
0.0
 11
297.0
 21
13.3
 31
0.0
  0
ARC
  5
2DB
  8
DETAIL
  6
CONTINUOUS
 10
251.7
 20
13.3
 30
0.0
 40
4.7
 50
90.0
 51
180.0
  0
LINE
  5
2DC
  8
DETAIL
  6
CONTINUOUS
 10
247.0
 20
4.7
 30
0.0
 11
247.0
 21
13.3
 31
0.0
  0
ARC
  5
2DD
  8
DETAIL
  6
CONTINUOUS
 10
298.5
 20
4.7
 30
0.0
 40
1.5
 50
180.0
 51
270.0
  0
LINE
  5
2DE
  8
DETAIL
  6
CONTINUOUS
 10
298.5
 20
3.2
 30
0.0
 11
334.0
 21
3.2
 31
0.0
  0
ARC
  5
2DF
  8
DETAIL
  6
CONTINUOUS
 10
245.5
 20
4.7
 30
0.0
 40
1.5
 50
270.0
 51
0.0
  0
LINE
  5
2E0
  8
DETAIL
  6
CONTINUOUS
 10
245.5
 20
3.2
 30
0.0
 11
210.0
 21
3.2
 31
0.0
  0
ARC
  5
2E1
  8
DETAIL
  6
CONTINUOUS
 10
292.3
 20
13.3
 30
0.0
 40
1.5
 50
0.0
 51
90.0
  0
LINE
  5
2E2
  8
DETAIL
  6
CONTINUOUS
 10
292.3
 20
14.8
 30
0.0
 11
251.7
 21
14.8
 31
0.0
  0
ARC
  5
2E3
  8
DETAIL
  6
CONTINUOUS
 10
251.7
 20
13.3
 30
0.0
 40
1.5
 50
90.0
 51
180.0
  0
LINE
  5
2E4
  8
DETAIL
  6
CONTINUOUS
 10
334.0
 20
0.0
 30
0.0
 11
334.0
 21
3.2
 31
0.0
  0
LINE
  5
2E5
  8
DETAIL
  6
CONTINUOUS
 10
210.0
 20
0.0
 30
0.0
 11
210.0
 21
3.2
 31
0.0
  0
LINE
  5
2E6
  8
DETAIL
  6
CONTINUOUS
 10
-334.0
 20
0.0
 30
0.0
 11
-334.0
 21
3.2
 31
0.0
  0
LINE
  5
2E7
  8
DETAIL
  6
CONTINUOUS
 10
-210.0
 20
0.0
 30
0.0
 11
-210.0
 21
3.2
 31
0.0
  0
ARC
  5
2E8
  8
DETAIL
  6
CONTINUOUS
 10
-251.7
 20
13.3
 30
0.0
 40
1.5
 50
0.0
 51
90.0
  0
LINE
  5
2E9
  8
DETAIL
  6
CONTINUOUS
 10
-292.3
 20
14.8
 30
0.0
 11
-251.7
 21
14.8
 31
0.0
  0
ARC
  5
2EA
  8
DETAIL
  6
CONTINUOUS
 10
-292.3
 20
13.3
 30
0.0
 40
1.5
 50
90.0
 51
180.0
  0
LINE
  5
2EB
  8
DETAIL
  6
CONTINUOUS
 10
-245.5
 20
3.2
 30
0.0
 11
-210.0
 21
3.2
 31
0.0
  0
ARC
  5
2EC
  8
DETAIL
  6
CONTINUOUS
 10
-245.5
 20
4.7
 30
0.0
 40
1.5
 50
180.0
 51
270.0
  0
LINE
  5
2ED
  8
DETAIL
  6
CONTINUOUS
 10
-298.5
 20
3.2
 30
0.0
 11
-334.0
 21
3.2
 31
0.0
  0
ARC
  5
2EE
  8
DETAIL
  6
CONTINUOUS
 10
-298.5
 20
4.7
 30
0.0
 40
1.5
 50
270.0
 51
0.0
  0
LINE
  5
2EF
  8
DETAIL
  6
CONTINUOUS
 10
-247.0
 20
4.7
 30
0.0
 11
-247.0
 21
13.3
 31
0.0
  0
ARC
  5
2F0
  8
DETAIL
  6
CONTINUOUS
 10
-251.7
 20
13.3
 30
0.0
 40
4.7
 50
0.0
 51
90.0
  0
LINE
  5
2F1
  8
DETAIL
  6
CONTINUOUS
 10
-297.0
 20
4.7
 30
0.0
 11
-297.0
 21
13.3
 31
0.0
  0
LINE
  5
2F2
  8
DETAIL
  6
CONTINUOUS
 10
-292.3
 20
18.0
 30
0.0
 11
-251.7
 21
18.0
 31
0.0
  0
ARC
  5
2F3
  8
DETAIL
  6
CONTINUOUS
 10
-292.3
 20
13.3
 30
0.0
 40
4.7
 50
90.0
 51
180.0
  0
LINE
  5
2F4
  8
DETAIL
  6
CONTINUOUS
 10
-298.5
 20
0.0
 30
0.0
 11
-334.0
 21
0.0
 31
0.0
  0
LINE
  5
2F5
  8
DETAIL
  6
CONTINUOUS
 10
-293.8
 20
4.7
 30
0.0
 11
-293.8
 21
13.3
 31
0.0
  0
ARC
  5
2F6
  8
DETAIL
  6
CONTINUOUS
 10
-298.5
 20
4.7
 30
0.0
 40
4.7
 50
270.0
 51
0.0
  0
LINE
  5
2F7
  8
DETAIL
  6
CONTINUOUS
 10
-245.5
 20
0.0
 30
0.0
 11
-210.0
 21
0.0
 31
0.0
  0
LINE
  5
2F8
  8
DETAIL
  6
CONTINUOUS
 10
-250.2
 20
4.7
 30
0.0
 11
-250.2
 21
13.3
 31
0.0
  0
ARC
  5
2F9
  8
DETAIL
  6
CONTINUOUS
 10
-245.5
 20
4.7
 30
0.0
 40
4.7
 50
180.0
 51
270.0
  0
LINE
  5
2FA
  8
DETAIL
  6
CONTINUOUS
 10
345.0
 20
1843.0
 30
0.0
 11
-345.0
 21
1843.0
 31
0.0
  0
LINE
  5
2FB
  8
DETAIL
  6
CONTINUOUS
 10
345.0
 20
1843.0
 30
0.0
 11
-345.0
 21
1843.0
 31
0.0
  0
ARC
  5
2FC
  8
DETAIL
  6
CONTINUOUS
 10
-245.5
 20
4.7
 30
0.0
 40
4.7
 50
180.0
 51
270.0
  0
LINE
  5
2FD
  8
DETAIL
  6
CONTINUOUS
 10
-250.2
 20
4.7
 30
0.0
 11
-250.2
 21
13.3
 31
0.0
  0
LINE
  5
2FE
  8
DETAIL
  6
CONTINUOUS
 10
-245.5
 20
0.0
 30
0.0
 11
-210.0
 21
0.0
 31
0.0
  0
ARC
  5
2FF
  8
DETAIL
  6
CONTINUOUS
 10
-298.5
 20
4.7
 30
0.0
 40
4.7
 50
270.0
 51
0.0
  0
LINE
  5
300
  8
DETAIL
  6
CONTINUOUS
 10
-293.8
 20
4.7
 30
0.0
 11
-293.8
 21
13.3
 31
0.0
  0
LINE
  5
301
  8
DETAIL
  6
CONTINUOUS
 10
-298.5
 20
0.0
 30
0.0
 11
-334.0
 21
0.0
 31
0.0
  0
ARC
  5
302
  8
DETAIL
  6
CONTINUOUS
 10
-292.3
 20
13.3
 30
0.0
 40
4.7
 50
90.0
 51
180.0
  0
LINE
  5
303
  8
DETAIL
  6
CONTINUOUS
 10
-292.3
 20
18.0
 30
0.0
 11
-251.7
 21
18.0
 31
0.0
  0
LINE
  5
304
  8
DETAIL
  6
CONTINUOUS
 10
-297.0
 20
4.7
 30
0.0
 11
-297.0
 21
13.3
 31
0.0
  0
ARC
  5
305
  8
DETAIL
  6
CONTINUOUS
 10
-251.7
 20
13.3
 30
0.0
 40
4.7
 50
0.0
 51
90.0
  0
LINE
  5
306
  8
DETAIL
  6
CONTINUOUS
 10
-247.0
 20
4.7
 30
0.0
 11
-247.0
 21
13.3
 31
0.0
  0
ARC
  5
307
  8
DETAIL
  6
CONTINUOUS
 10
-298.5
 20
4.7
 30
0.0
 40
1.5
 50
270.0
 51
0.0
  0
LINE
  5
308
  8
DETAIL
  6
CONTINUOUS
 10
-298.5
 20
3.2
 30
0.0
 11
-334.0
 21
3.2
 31
0.0
  0
ARC
  5
309
  8
DETAIL
  6
CONTINUOUS
 10
-245.5
 20
4.7
 30
0.0
 40
1.5
 50
180.0
 51
270.0
  0
LINE
  5
30A
  8
DETAIL
  6
CONTINUOUS
 10
-245.5
 20
3.2
 30
0.0
 11
-210.0
 21
3.2
 31
0.0
  0
ARC
  5
30B
  8
DETAIL
  6
CONTINUOUS
 10
-292.3
 20
13.3
 30
0.0
 40
1.5
 50
90.0
 51
180.0
  0
LINE
  5
30C
  8
DETAIL
  6
CONTINUOUS
 10
-292.3
 20
14.8
 30
0.0
 11
-251.7
 21
14.8
 31
0.0
  0
ARC
  5
30D
  8
DETAIL
  6
CONTINUOUS
 10
-251.7
 20
13.3
 30
0.0
 40
1.5
 50
0.0
 51
90.0
  0
LINE
  5
30E
  8
DETAIL
  6
CONTINUOUS
 10
-210.0
 20
0.0
 30
0.0
 11
-210.0
 21
3.2
 31
0.0
  0
LINE
  5
30F
  8
DETAIL
  6
CONTINUOUS
 10
-334.0
 20
0.0
 30
0.0
 11
-334.0
 21
3.2
 31
0.0
  0
LINE
  5
310
  8
DETAIL
  6
CONTINUOUS
 10
210.0
 20
0.0
 30
0.0
 11
210.0
 21
3.2
 31
0.0
  0
LINE
  5
311
  8
DETAIL
  6
CONTINUOUS
 10
334.0
 20
0.0
 30
0.0
 11
334.0
 21
3.2
 31
0.0
  0
ARC
  5
312
  8
DETAIL
  6
CONTINUOUS
 10
251.7
 20
13.3
 30
0.0
 40
1.5
 50
90.0
 51
180.0
  0
LINE
  5
313
  8
DETAIL
  6
CONTINUOUS
 10
292.3
 20
14.8
 30
0.0
 11
251.7
 21
14.8
 31
0.0
  0
ARC
  5
314
  8
DETAIL
  6
CONTINUOUS
 10
292.3
 20
13.3
 30
0.0
 40
1.5
 50
0.0
 51
90.0
  0
LINE
  5
315
  8
DETAIL
  6
CONTINUOUS
 10
245.5
 20
3.2
 30
0.0
 11
210.0
 21
3.2
 31
0.0
  0
ARC
  5
316
  8
DETAIL
  6
CONTINUOUS
 10
245.5
 20
4.7
 30
0.0
 40
1.5
 50
270.0
 51
0.0
  0
LINE
  5
317
  8
DETAIL
  6
CONTINUOUS
 10
298.5
 20
3.2
 30
0.0
 11
334.0
 21
3.2
 31
0.0
  0
ARC
  5
318
  8
DETAIL
  6
CONTINUOUS
 10
298.5
 20
4.7
 30
0.0
 40
1.5
 50
180.0
 51
270.0
  0
LINE
  5
319
  8
DETAIL
  6
CONTINUOUS
 10
247.0
 20
4.7
 30
0.0
 11
247.0
 21
13.3
 31
0.0
  0
ARC
  5
31A
  8
DETAIL
  6
CONTINUOUS
 10
251.7
 20
13.3
 30
0.0
 40
4.7
 50
90.0
 51
180.0
  0
LINE
  5
31B
  8
DETAIL
  6
CONTINUOUS
 10
297.0
 20
4.7
 30
0.0
 11
297.0
 21
13.3
 31
0.0
  0
LINE
  5
31C
  8
DETAIL
  6
CONTINUOUS
 10
292.3
 20
18.0
 30
0.0
 11
251.7
 21
18.0
 31
0.0
  0
ARC
  5
31D
  8
DETAIL
  6
CONTINUOUS
 10
292.3
 20
13.3
 30
0.0
 40
4.7
 50
0.0
 51
90.0
  0
LINE
  5
31E
  8
DETAIL
  6
CONTINUOUS
 10
298.5
 20
0.0
 30
0.0
 11
334.0
 21
0.0
 31
0.0
  0
LINE
  5
31F
  8
DETAIL
  6
CONTINUOUS
 10
293.8
 20
4.7
 30
0.0
 11
293.8
 21
13.3
 31
0.0
  0
ARC
  5
320
  8
DETAIL
  6
CONTINUOUS
 10
298.5
 20
4.7
 30
0.0
 40
4.7
 50
180.0
 51
270.0
  0
LINE
  5
321
  8
DETAIL
  6
CONTINUOUS
 10
245.5
 20
0.0
 30
0.0
 11
210.0
 21
0.0
 31
0.0
  0
LINE
  5
322
  8
DETAIL
  6
CONTINUOUS
 10
250.2
 20
4.7
 30
0.0
 11
250.2
 21
13.3
 31
0.0
  0
ARC
  5
323
  8
DETAIL
  6
CONTINUOUS
 10
245.5
 20
4.7
 30
0.0
 40
4.7
 50
270.0
 51
0.0
  0
ARC
  5
324
  8
DETAIL
  6
CONTINUOUS
 10
-40.0
 20
1910.0
 30
0.0
 40
5.0
 50
90.0
 51
180.0
  0
LINE
  5
325
  8
DETAIL
  6
CONTINUOUS
 10
40.0
 20
1915.0
 30
0.0
 11
-40.0
 21
1915.0
 31
0.0
  0
LINE
  5
326
  8
DETAIL
  6
CONTINUOUS
 10
-45.0
 20
1870.0
 30
0.0
 11
-45.0
 21
1910.0
 31
0.0
  0
ARC
  5
327
  8
DETAIL
  6
CONTINUOUS
 10
40.0
 20
1910.0
 30
0.0
 40
5.0
 50
0.0
 51
90.0
  0
LINE
  5
328
  8
DETAIL
  6
CONTINUOUS
 10
45.0
 20
1870.0
 30
0.0
 11
45.0
 21
1910.0
 31
0.0
  0
ARC
  5
329
  8
DETAIL
  6
CONTINUOUS
 10
-167.296225
 20
1885.0
 30
0.0
 40
15.0
 50
38.122034
 51
90.0
  0
LINE
  5
32A
  8
DETAIL
  6
CONTINUOUS
 10
-262.703775
 20
1900.0
 30
0.0
 11
-167.296225
 21
1900.0
 31
0.0
  0
LINE
  5
32B
  8
DETAIL
  6
CONTINUOUS
 10
-137.949891
 20
1875.0
 30
0.0
 11
-135.0
 21
1875.0
 31
0.0
  0
ARC
  5
32C
  8
DETAIL
  6
CONTINUOUS
 10
-137.949891
 20
1880.0
 30
0.0
 40
5.0
 50
218.122034
 51
270.0
  0
LINE
  5
32D
  8
DETAIL
  6
CONTINUOUS
 10
-141.883379
 20
1876.913308
 30
0.0
 11
-155.49576
 21
1894.260077
 31
0.0
  0
ARC
  5
32E
  8
DETAIL
  6
CONTINUOUS
 10
-262.703775
 20
1885.0
 30
0.0
 40
15.0
 50
90.0
 51
141.877966
  0
ARC
  5
32F
  8
DETAIL
  6
CONTINUOUS
 10
-292.050109
 20
1880.0
 30
0.0
 40
5.0
 50
270.0
 51
321.877966
  0
LINE
  5
330
  8
DETAIL
  6
CONTINUOUS
 10
-288.116621
 20
1876.913308
 30
0.0
 11
-274.50424
 21
1894.260077
 31
0.0
  0
ARC
  5
331
  8
DETAIL
  6
CONTINUOUS
 10
-258.22967
 20
1885.0
 30
0.0
 40
10.0
 50
90.0
 51
158.198591
  0
ARC
  5
332
  8
DETAIL
  6
CONTINUOUS
 10
-171.77033
 20
1885.0
 30
0.0
 40
10.0
 50
21.801409
 51
90.0
  0
LINE
  5
333
  8
DETAIL
  6
CONTINUOUS
 10
-155.0
 20
1870.0
 30
0.0
 11
-162.485563
 21
1888.713907
 31
0.0
  0
LINE
  5
334
  8
DETAIL
  6
CONTINUOUS
 10
-275.0
 20
1870.0
 30
0.0
 11
-267.514437
 21
1888.713907
 31
0.0
  0
LINE
  5
335
  8
DETAIL
  6
CONTINUOUS
 10
-295.0
 20
1875.0
 30
0.0
 11
-292.09017
 21
1875.0
 31
0.0
  0
LINE
  5
336
  8
DETAIL
  6
CONTINUOUS
 10
-135.0
 20
1875.0
 30
0.0
 11
-135.0
 21
1870.0
 31
0.0
  0
LINE
  5
337
  8
DETAIL
  6
CONTINUOUS
 10
-295.0
 20
1875.0
 30
0.0
 11
-295.0
 21
1870.0
 31
0.0
  0
LINE
  5
338
  8
DETAIL
  6
CONTINUOUS
 10
-258.22967
 20
1895.0
 30
0.0
 11
-171.77033
 21
1895.0
 31
0.0
  0
ARC
  5
339
  8
DETAIL
  6
CONTINUOUS
 10
167.296225
 20
1885.0
 30
0.0
 40
15.0
 50
90.0
 51
141.877966
  0
LINE
  5
33A
  8
DETAIL
  6
CONTINUOUS
 10
262.703775
 20
1900.0
 30
0.0
 11
167.296225
 21
1900.0
 31
0.0
  0
LINE
  5
33B
  8
DETAIL
  6
CONTINUOUS
 10
137.949891
 20
1875.0
 30
0.0
 11
135.0
 21
1875.0
 31
0.0
  0
ARC
  5
33C
  8
DETAIL
  6
CONTINUOUS
 10
137.949891
 20
1880.0
 30
0.0
 40
5.0
 50
270.0
 51
321.877966
  0
LINE
  5
33D
  8
DETAIL
  6
CONTINUOUS
 10
141.883379
 20
1876.913308
 30
0.0
 11
155.49576
 21
1894.260077
 31
0.0
  0
ARC
  5
33E
  8
DETAIL
  6
CONTINUOUS
 10
262.703775
 20
1885.0
 30
0.0
 40
15.0
 50
38.122034
 51
90.0
  0
ARC
  5
33F
  8
DETAIL
  6
CONTINUOUS
 10
292.050109
 20
1880.0
 30
0.0
 40
5.0
 50
218.122034
 51
270.0
  0
LINE
  5
340
  8
DETAIL
  6
CONTINUOUS
 10
288.116621
 20
1876.913308
 30
0.0
 11
274.50424
 21
1894.260077
 31
0.0
  0
ARC
  5
341
  8
DETAIL
  6
CONTINUOUS
 10
258.22967
 20
1885.0
 30
0.0
 40
10.0
 50
21.801409
 51
90.0
  0
ARC
  5
342
  8
DETAIL
  6
CONTINUOUS
 10
171.77033
 20
1885.0
 30
0.0
 40
10.0
 50
90.0
 51
158.198591
  0
LINE
  5
343
  8
DETAIL
  6
CONTINUOUS
 10
155.0
 20
1870.0
 30
0.0
 11
162.485563
 21
1888.713907
 31
0.0
  0
LINE
  5
344
  8
DETAIL
  6
CONTINUOUS
 10
275.0
 20
1870.0
 30
0.0
 11
267.514437
 21
1888.713907
 31
0.0
  0
LINE
  5
345
  8
DETAIL
  6
CONTINUOUS
 10
295.0
 20
1875.0
 30
0.0
 11
292.09017
 21
1875.0
 31
0.0
  0
LINE
  5
346
  8
DETAIL
  6
CONTINUOUS
 10
135.0
 20
1875.0
 30
0.0
 11
135.0
 21
1870.0
 31
0.0
  0
LINE
  5
347
  8
DETAIL
  6
CONTINUOUS
 10
295.0
 20
1875.0
 30
0.0
 11
295.0
 21
1870.0
 31
0.0
  0
LINE
  5
348
  8
DETAIL
  6
CONTINUOUS
 10
258.22967
 20
1895.0
 30
0.0
 11
171.77033
 21
1895.0
 31
0.0
  0
LINE
  5
349
  8
DETAIL
  6
CONTINUOUS
 10
345.0
 20
1870.0
 30
0.0
 11
-345.0
 21
1870.0
 31
0.0
  0
LINE
  5
34A
  8
DETAIL
  6
CONTINUOUS
 10
-345.0
 20
1870.0
 30
0.0
 11
-345.0
 21
200.0
 31
0.0
  0
LINE
  5
34B
  8
DETAIL
  6
CONTINUOUS
 10
345.0
 20
200.0
 30
0.0
 11
-345.0
 21
200.0
 31
0.0
  0
LINE
  5
34C
  8
DETAIL
  6
CONTINUOUS
 10
345.0
 20
200.0
 30
0.0
 11
345.0
 21
1870.0
 31
0.0
  0
LINE
  5
34D
  8
DETAIL
  6
CONTINUOUS
 10
-308.5
 20
200.0
 30
0.0
 11
-308.5
 21
0.0
 31
0.0
  0
LINE
  5
34E
  8
DETAIL
  6
CONTINUOUS
 10
-235.5
 20
200.0
 30
0.0
 11
-235.5
 21
0.0
 31
0.0
  0
LINE
  5
34F
  8
DETAIL
  6
CONTINUOUS
 10
-308.5
 20
0.0
 30
0.0
 11
-235.5
 21
0.0
 31
0.0
  0
LINE
  5
350
  8
DETAIL
  6
CONTINUOUS
 10
235.5
 20
200.0
 30
0.0
 11
235.5
 21
0.0
 31
0.0
  0
LINE
  5
351
  8
DETAIL
  6
CONTINUOUS
 10
308.5
 20
200.0
 30
0.0
 11
308.5
 21
0.0
 31
0.0
  0
LINE
  5
352
  8
DETAIL
  6
CONTINUOUS
 10
308.5
 20
0.0
 30
0.0
 11
235.5
 21
0.0
 31
0.0
  0
LINE
  5
353
  8
DETAIL
  6
CONTINUOUS
 10
36.5
 20
200.0
 30
0.0
 11
36.5
 21
0.0
 31
0.0
  0
LINE
  5
354
  8
DETAIL
  6
CONTINUOUS
 10
36.5
 20
0.0
 30
0.0
 11
-36.5
 21
0.0
 31
0.0
  0
LINE
  5
355
  8
DETAIL
  6
CONTINUOUS
 10
-36.5
 20
200.0
 30
0.0
 11
-36.5
 21
0.0
 31
0.0
  0
LINE
  5
356
  8
BASIS
  6
DASHDOT
 10
0.0
 20
1965.0
 30
0.0
 11
0.0
 21
-50.0
 31
0.0
  0
LINE
  5
357
  8
SIZE
  6
CONTINUOUS
 62
    30
 10
264.0
 20
125.5
 30
0.0
 11
264.0
 21
-260.1
 31
0.0
  0
LINE
  5
358
  8
SIZE
  6
CONTINUOUS
 62
    30
 10
189.0
 20
170.0
 30
0.0
 11
189.0
 21
-260.1
 31
0.0
  0
LINE
  5
359
  8
SIZE
  6
CONTINUOUS
 62
    30
 10
199.0
 20
-247.6
 30
0.0
 11
254.0
 21
-247.6
 31
0.0
  0
LINE
  5
35A
  8
SIZE
  6
CONTINUOUS
 62
    30
 10
264.0
 20
-247.6
 30
0.0
 11
389.299325
 21
-247.6
 31
0.0
  0
CIRCLE
  5
35B
  8
SIZE
  6
CONTINUOUS
 62
    30
 10
189.0
 20
-247.6
 30
0.0
 40
5.0
  0
LINE
  5
35C
  8
SIZE
  6
CONTINUOUS
 62
    30
 10
189.0
 20
-247.6
 30
0.0
 11
199.0
 21
-247.6
 31
0.0
  0
CIRCLE
  5
35D
  8
SIZE
  6
CONTINUOUS
 62
    30
 10
264.0
 20
-247.6
 30
0.0
 40
5.0
  0
LINE
  5
35E
  8
SIZE
  6
CONTINUOUS
 62
    30
 10
264.0
 20
-247.6
 30
0.0
 11
254.0
 21
-247.6
 31
0.0
  0
TEXT
  5
35F
  8
SIZE
  6
CONTINUOUS
 62
    30
 10
329.299325
 20
-237.6
 30
0.0
 40
30.0
  1
75
 72
     1
 11
354.299325
 21
-237.6
 31
0.0
  0
POINT
  5
360
  8
DEFPOINTS
  6
CONTINUOUS
 62
    30
 10
264.0
 20
135.5
 30
0.0
  0
POINT
  5
361
  8
DEFPOINTS
  6
CONTINUOUS
 62
    30
 10
189.0
 20
180.0
 30
0.0
  0
POINT
  5
362
  8
DEFPOINTS
  6
CONTINUOUS
 62
    30
 10
189.0
 20
-247.6
 30
0.0
  0
LINE
  5
363
  8
SIZE
  6
CONTINUOUS
 62
    30
 10
344.0
 20
0.0
 30
0.0
 11
505.1
 21
0.0
 31
0.0
  0
LINE
  5
364
  8
SIZE
  6
CONTINUOUS
 62
    30
 10
294.0
 20
155.5
 30
0.0
 11
505.1
 21
155.5
 31
0.0
  0
LINE
  5
365
  8
SIZE
  6
CONTINUOUS
 62
    30
 10
492.6
 20
10.0
 30
0.0
 11
492.6
 21
145.5
 31
0.0
  0
CIRCLE
  5
366
  8
SIZE
  6
CONTINUOUS
 62
    30
 10
492.6
 20
0.0
 30
0.0
 40
5.0
  0
LINE
  5
367
  8
SIZE
  6
CONTINUOUS
 62
    30
 10
492.6
 20
0.0
 30
0.0
 11
492.6
 21
10.0
 31
0.0
  0
CIRCLE
  5
368
  8
SIZE
  6
CONTINUOUS
 62
    30
 10
492.6
 20
155.5
 30
0.0
 40
5.0
  0
LINE
  5
369
  8
SIZE
  6
CONTINUOUS
 62
    30
 10
492.6
 20
155.5
 30
0.0
 11
492.6
 21
145.5
 31
0.0
  0
TEXT
  5
36A
  8
SIZE
  6
CONTINUOUS
 62
    30
 10
482.6
 20
42.75
 30
0.0
 40
30.0
  1
156
 50
90.0
 72
     1
 11
482.6
 21
77.75
 31
0.0
  0
POINT
  5
36B
  8
DEFPOINTS
  6
CONTINUOUS
 62
    30
 10
334.0
 20
0.0
 30
0.0
  0
POINT
  5
36C
  8
DEFPOINTS
  6
CONTINUOUS
 62
    30
 10
284.0
 20
155.5
 30
0.0
  0
POINT
  5
36D
  8
DEFPOINTS
  6
CONTINUOUS
 62
    30
 10
492.6
 20
155.5
 30
0.0
  0
LINE
  5
36E
  8
SIZE
  6
CONTINUOUS
 62
    30
 10
-115.0
 20
170.0
 30
0.0
 11
-115.0
 21
-260.1
 31
0.0
  0
LINE
  5
36F
  8
SIZE
  6
CONTINUOUS
 62
    30
 10
0.0
 20
-60.0
 30
0.0
 11
0.0
 21
-260.1
 31
0.0
  0
LINE
  5
370
  8
SIZE
  6
CONTINUOUS
 62
    30
 10
-105.0
 20
-247.6
 30
0.0
 11
-10.0
 21
-247.6
 31
0.0
  0
CIRCLE
  5
371
  8
SIZE
  6
CONTINUOUS
 62
    30
 10
-115.0
 20
-247.6
 30
0.0
 40
5.0
  0
LINE
  5
372
  8
SIZE
  6
CONTINUOUS
 62
    30
 10
-115.0
 20
-247.6
 30
0.0
 11
-105.0
 21
-247.6
 31
0.0
  0
CIRCLE
  5
373
  8
SIZE
  6
CONTINUOUS
 62
    30
 10
0.0
 20
-247.6
 30
0.0
 40
5.0
  0
LINE
  5
374
  8
SIZE
  6
CONTINUOUS
 62
    30
 10
0.0
 20
-247.6
 30
0.0
 11
-10.0
 21
-247.6
 31
0.0
  0
TEXT
  5
375
  8
SIZE
  6
CONTINUOUS
 62
    30
 10
-87.5
 20
-237.6
 30
0.0
 40
30.0
  1
115
 72
     1
 11
-57.5
 21
-237.6
 31
0.0
  0
POINT
  5
376
  8
DEFPOINTS
  6
CONTINUOUS
 62
    30
 10
-115.0
 20
180.0
 30
0.0
  0
POINT
  5
377
  8
DEFPOINTS
  6
CONTINUOUS
 62
    30
 10
0.0
 20
-50.0
 30
0.0
  0
POINT
  5
378
  8
DEFPOINTS
  6
CONTINUOUS
 62
    30
 10
0.0
 20
-247.6
 30
0.0
  0
LINE
  5
379
  8
SIZE
  6
CONTINUOUS
 62
    30
 10
189.0
 20
170.0
 30
0.0
 11
189.0
 21
-260.1
 31
0.0
  0
LINE
  5
37A
  8
SIZE
  6
CONTINUOUS
 62
    30
 10
0.0
 20
-60.0
 30
0.0
 11
0.0
 21
-260.1
 31
0.0
  0
LINE
  5
37B
  8
SIZE
  6
CONTINUOUS
 62
    30
 10
179.0
 20
-247.6
 30
0.0
 11
10.0
 21
-247.6
 31
0.0
  0
CIRCLE
  5
37C
  8
SIZE
  6
CONTINUOUS
 62
    30
 10
189.0
 20
-247.6
 30
0.0
 40
5.0
  0
LINE
  5
37D
  8
SIZE
  6
CONTINUOUS
 62
    30
 10
189.0
 20
-247.6
 30
0.0
 11
179.0
 21
-247.6
 31
0.0
  0
CIRCLE
  5
37E
  8
SIZE
  6
CONTINUOUS
 62
    30
 10
0.0
 20
-247.6
 30
0.0
 40
5.0
  0
LINE
  5
37F
  8
SIZE
  6
CONTINUOUS
 62
    30
 10
0.0
 20
-247.6
 30
0.0
 11
10.0
 21
-247.6
 31
0.0
  0
TEXT
  5
380
  8
SIZE
  6
CONTINUOUS
 62
    30
 10
59.5
 20
-237.6
 30
0.0
 40
30.0
  1
189
 72
     1
 11
94.5
 21
-237.6
 31
0.0
  0
POINT
  5
381
  8
DEFPOINTS
  6
CONTINUOUS
 62
    30
 10
189.0
 20
180.0
 30
0.0
  0
POINT
  5
382
  8
DEFPOINTS
  6
CONTINUOUS
 62
    30
 10
0.0
 20
-50.0
 30
0.0
  0
POINT
  5
383
  8
DEFPOINTS
  6
CONTINUOUS
 62
    30
 10
0.0
 20
-247.6
 30
0.0
  0
LINE
  5
384
  8
SIZE
  6
CONTINUOUS
 62
    30
 10
117.0
 20
170.0
 30
0.0
 11
117.0
 21
-160.1
 31
0.0
  0
LINE
  5
385
  8
SIZE
  6
CONTINUOUS
 62
    30
 10
0.0
 20
-60.0
 30
0.0
 11
0.0
 21
-160.1
 31
0.0
  0
LINE
  5
386
  8
SIZE
  6
CONTINUOUS
 62
    30
 10
107.0
 20
-147.6
 30
0.0
 11
10.0
 21
-147.6
 31
0.0
  0
CIRCLE
  5
387
  8
SIZE
  6
CONTINUOUS
 62
    30
 10
117.0
 20
-147.6
 30
0.0
 40
5.0
  0
LINE
  5
388
  8
SIZE
  6
CONTINUOUS
 62
    30
 10
117.0
 20
-147.6
 30
0.0
 11
107.0
 21
-147.6
 31
0.0
  0
CIRCLE
  5
389
  8
SIZE
  6
CONTINUOUS
 62
    30
 10
0.0
 20
-147.6
 30
0.0
 40
5.0
  0
LINE
  5
38A
  8
SIZE
  6
CONTINUOUS
 62
    30
 10
0.0
 20
-147.6
 30
0.0
 11
10.0
 21
-147.6
 31
0.0
  0
TEXT
  5
38B
  8
SIZE
  6
CONTINUOUS
 62
    30
 10
28.5
 20
-137.6
 30
0.0
 40
30.0
  1
117
 72
     1
 11
58.5
 21
-137.6
 31
0.0
  0
POINT
  5
38C
  8
DEFPOINTS
  6
CONTINUOUS
 62
    30
 10
117.0
 20
180.0
 30
0.0
  0
POINT
  5
38D
  8
DEFPOINTS
  6
CONTINUOUS
 62
    30
 10
0.0
 20
-50.0
 30
0.0
  0
POINT
  5
38E
  8
DEFPOINTS
  6
CONTINUOUS
 62
    30
 10
0.0
 20
-147.6
 30
0.0
  0
LINE
  5
38F
  8
SIZE
  6
CONTINUOUS
 62
    30
 10
344.0
 20
0.0
 30
0.0
 11
605.1
 21
0.0
 31
0.0
  0
LINE
  5
390
  8
SIZE
  6
CONTINUOUS
 62
    30
 10
193.82309
 20
172.5
 30
0.0
 11
605.1
 21
172.5
 31
0.0
  0
LINE
  5
391
  8
SIZE
  6
CONTINUOUS
 62
    30
 10
592.6
 20
10.0
 30
0.0
 11
592.6
 21
162.5
 31
0.0
  0
CIRCLE
  5
392
  8
SIZE
  6
CONTINUOUS
 62
    30
 10
592.6
 20
0.0
 30
0.0
 40
5.0
  0
LINE
  5
393
  8
SIZE
  6
CONTINUOUS
 62
    30
 10
592.6
 20
0.0
 30
0.0
 11
592.6
 21
10.0
 31
0.0
  0
CIRCLE
  5
394
  8
SIZE
  6
CONTINUOUS
 62
    30
 10
592.6
 20
172.5
 30
0.0
 40
5.0
  0
LINE
  5
395
  8
SIZE
  6
CONTINUOUS
 62
    30
 10
592.6
 20
172.5
 30
0.0
 11
592.6
 21
162.5
 31
0.0
  0
TEXT
  5
396
  8
SIZE
  6
CONTINUOUS
 62
    30
 10
582.6
 20
51.25
 30
0.0
 40
30.0
  1
173
 50
90.0
 72
     1
 11
582.6
 21
86.25
 31
0.0
  0
POINT
  5
397
  8
DEFPOINTS
  6
CONTINUOUS
 62
    30
 10
334.0
 20
0.0
 30
0.0
  0
POINT
  5
398
  8
DEFPOINTS
  6
CONTINUOUS
 62
    30
 10
183.82309
 20
172.5
 30
0.0
  0
POINT
  5
399
  8
DEFPOINTS
  6
CONTINUOUS
 62
    30
 10
592.6
 20
172.5
 30
0.0
  0
LINE
  5
39A
  8
SIZE
  6
CONTINUOUS
 62
    30
 10
-345.0
 20
190.0
 30
0.0
 11
-345.0
 21
-560.1
 31
0.0
  0
LINE
  5
39B
  8
SIZE
  6
CONTINUOUS
 62
    30
 10
345.0
 20
190.0
 30
0.0
 11
345.0
 21
-560.1
 31
0.0
  0
LINE
  5
39C
  8
SIZE
  6
CONTINUOUS
 62
    30
 10
-335.0
 20
-547.6
 30
0.0
 11
335.0
 21
-547.6
 31
0.0
  0
CIRCLE
  5
39D
  8
SIZE
  6
CONTINUOUS
 62
    30
 10
-345.0
 20
-547.6
 30
0.0
 40
5.0
  0
LINE
  5
39E
  8
SIZE
  6
CONTINUOUS
 62
    30
 10
-345.0
 20
-547.6
 30
0.0
 11
-335.0
 21
-547.6
 31
0.0
  0
CIRCLE
  5
39F
  8
SIZE
  6
CONTINUOUS
 62
    30
 10
345.0
 20
-547.6
 30
0.0
 40
5.0
  0
LINE
  5
3A0
  8
SIZE
  6
CONTINUOUS
 62
    30
 10
345.0
 20
-547.6
 30
0.0
 11
335.0
 21
-547.6
 31
0.0
  0
TEXT
  5
3A1
  8
SIZE
  6
CONTINUOUS
 62
    30
 10
-32.680131
 20
-537.6
 30
0.0
 40
30.0
  1
690
 72
     1
 11
4.819869
 21
-537.6
 31
0.0
  0
POINT
  5
3A2
  8
DEFPOINTS
  6
CONTINUOUS
 62
    30
 10
-345.0
 20
200.0
 30
0.0
  0
POINT
  5
3A3
  8
DEFPOINTS
  6
CONTINUOUS
 62
    30
 10
345.0
 20
200.0
 30
0.0
  0
POINT
  5
3A4
  8
DEFPOINTS
  6
CONTINUOUS
 62
    30
 10
345.0
 20
-547.6
 30
0.0
  0
LINE
  5
3A5
  8
SIZE
  6
CONTINUOUS
 62
    30
 10
355.0
 20
1870.0
 30
0.0
 11
505.1
 21
1870.0
 31
0.0
  0
LINE
  5
3A6
  8
SIZE
  6
CONTINUOUS
 62
    30
 10
272.703766
 20
1900.0
 30
0.0
 11
505.1
 21
1900.0
 31
0.0
  0
LINE
  5
3A7
  8
SIZE
  6
CONTINUOUS
 62
    30
 10
492.6
 20
1860.0
 30
0.0
 11
492.6
 21
1850.0
 31
0.0
  0
LINE
  5
3A8
  8
SIZE
  6
CONTINUOUS
 62
    30
 10
492.6
 20
1910.0
 30
0.0
 11
492.6
 21
1985.0
 31
0.0
  0
LINE
  5
3A9
  8
SIZE
  6
CONTINUOUS
 62
    30
 10
492.6
 20
1870.0
 30
0.0
 11
492.6
 21
1900.0
 31
0.0
  0
CIRCLE
  5
3AA
  8
SIZE
  6
CONTINUOUS
 62
    30
 10
492.6
 20
1870.0
 30
0.0
 40
5.0
  0
LINE
  5
3AB
  8
SIZE
  6
CONTINUOUS
 62
    30
 10
492.6
 20
1870.0
 30
0.0
 11
492.6
 21
1860.0
 31
0.0
  0
CIRCLE
  5
3AC
  8
SIZE
  6
CONTINUOUS
 62
    30
 10
492.6
 20
1900.0
 30
0.0
 40
5.0
  0
LINE
  5
3AD
  8
SIZE
  6
CONTINUOUS
 62
    30
 10
492.6
 20
1900.0
 30
0.0
 11
492.6
 21
1910.0
 31
0.0
  0
TEXT
  5
3AE
  8
SIZE
  6
CONTINUOUS
 62
    30
 10
482.6
 20
1930.0
 30
0.0
 40
30.0
  1
30
 50
90.0
 72
     1
 11
482.6
 21
1952.5
 31
0.0
  0
POINT
  5
3AF
  8
DEFPOINTS
  6
CONTINUOUS
 62
    30
 10
345.0
 20
1870.0
 30
0.0
  0
POINT
  5
3B0
  8
DEFPOINTS
  6
CONTINUOUS
 62
    30
 10
262.703766
 20
1900.0
 30
0.0
  0
POINT
  5
3B1
  8
DEFPOINTS
  6
CONTINUOUS
 62
    30
 10
492.6
 20
1900.0
 30
0.0
  0
LINE
  5
3B2
  8
SIZE
  6
CONTINUOUS
 62
    30
 10
355.0
 20
1870.0
 30
0.0
 11
705.1
 21
1870.0
 31
0.0
  0
LINE
  5
3B3
  8
SIZE
  6
CONTINUOUS
 62
    30
 10
355.0
 20
2070.0
 30
0.0
 11
705.1
 21
2070.0
 31
0.0
  0
LINE
  5
3B4
  8
SIZE
  6
CONTINUOUS
 62
    30
 10
692.6
 20
1880.0
 30
0.0
 11
692.6
 21
2060.0
 31
0.0
  0
CIRCLE
  5
3B5
  8
SIZE
  6
CONTINUOUS
 62
    30
 10
692.6
 20
1870.0
 30
0.0
 40
5.0
  0
LINE
  5
3B6
  8
SIZE
  6
CONTINUOUS
 62
    30
 10
692.6
 20
1870.0
 30
0.0
 11
692.6
 21
1880.0
 31
0.0
  0
CIRCLE
  5
3B7
  8
SIZE
  6
CONTINUOUS
 62
    30
 10
692.6
 20
2070.0
 30
0.0
 40
5.0
  0
LINE
  5
3B8
  8
SIZE
  6
CONTINUOUS
 62
    30
 10
692.6
 20
2070.0
 30
0.0
 11
692.6
 21
2060.0
 31
0.0
  0
TEXT
  5
3B9
  8
SIZE
  6
CONTINUOUS
 62
    30
 10
682.6
 20
1935.0
 30
0.0
 40
30.0
  1
200
 50
90.0
 72
     1
 11
682.6
 21
1970.0
 31
0.0
  0
POINT
  5
3BA
  8
DEFPOINTS
  6
CONTINUOUS
 62
    30
 10
345.0
 20
1870.0
 30
0.0
  0
POINT
  5
3BB
  8
DEFPOINTS
  6
CONTINUOUS
 62
    30
 10
345.0
 20
2070.0
 30
0.0
  0
POINT
  5
3BC
  8
DEFPOINTS
  6
CONTINUOUS
 62
    30
 10
692.6
 20
2070.0
 30
0.0
  0
LINE
  5
3BD
  8
SIZE
  6
CONTINUOUS
 62
    30
 10
-345.0
 20
2080.0
 30
0.0
 11
-345.0
 21
2434.9
 31
0.0
  0
LINE
  5
3BE
  8
SIZE
  6
CONTINUOUS
 62
    30
 10
345.0
 20
2080.0
 30
0.0
 11
345.0
 21
2434.9
 31
0.0
  0
LINE
  5
3BF
  8
SIZE
  6
CONTINUOUS
 62
    30
 10
-335.0
 20
2422.4
 30
0.0
 11
335.0
 21
2422.4
 31
0.0
  0
CIRCLE
  5
3C0
  8
SIZE
  6
CONTINUOUS
 62
    30
 10
-345.0
 20
2422.4
 30
0.0
 40
5.0
  0
LINE
  5
3C1
  8
SIZE
  6
CONTINUOUS
 62
    30
 10
-345.0
 20
2422.4
 30
0.0
 11
-335.0
 21
2422.4
 31
0.0
  0
CIRCLE
  5
3C2
  8
SIZE
  6
CONTINUOUS
 62
    30
 10
345.0
 20
2422.4
 30
0.0
 40
5.0
  0
LINE
  5
3C3
  8
SIZE
  6
CONTINUOUS
 62
    30
 10
345.0
 20
2422.4
 30
0.0
 11
335.0
 21
2422.4
 31
0.0
  0
TEXT
  5
3C4
  8
SIZE
  6
CONTINUOUS
 62
    30
 10
-30.568726
 20
2432.4
 30
0.0
 40
30.0
  1
690
 72
     1
 11
6.931274
 21
2432.4
 31
0.0
  0
POINT
  5
3C5
  8
DEFPOINTS
  6
CONTINUOUS
 62
    30
 10
-345.0
 20
2070.0
 30
0.0
  0
POINT
  5
3C6
  8
DEFPOINTS
  6
CONTINUOUS
 62
    30
 10
345.0
 20
2070.0
 30
0.0
  0
POINT
  5
3C7
  8
DEFPOINTS
  6
CONTINUOUS
 62
    30
 10
345.0
 20
2422.4
 30
0.0
  0
LINE
  5
3C8
  8
SIZE
  6
CONTINUOUS
 62
    30
 10
355.0
 20
200.0
 30
0.0
 11
705.1
 21
200.0
 31
0.0
  0
LINE
  5
3C9
  8
SIZE
  6
CONTINUOUS
 62
    30
 10
355.0
 20
1870.0
 30
0.0
 11
705.1
 21
1870.0
 31
0.0
  0
LINE
  5
3CA
  8
SIZE
  6
CONTINUOUS
 62
    30
 10
692.6
 20
210.0
 30
0.0
 11
692.6
 21
1860.0
 31
0.0
  0
CIRCLE
  5
3CB
  8
SIZE
  6
CONTINUOUS
 62
    30
 10
692.6
 20
200.0
 30
0.0
 40
5.0
  0
LINE
  5
3CC
  8
SIZE
  6
CONTINUOUS
 62
    30
 10
692.6
 20
200.0
 30
0.0
 11
692.6
 21
210.0
 31
0.0
  0
CIRCLE
  5
3CD
  8
SIZE
  6
CONTINUOUS
 62
    30
 10
692.6
 20
1870.0
 30
0.0
 40
5.0
  0
LINE
  5
3CE
  8
SIZE
  6
CONTINUOUS
 62
    30
 10
692.6
 20
1870.0
 30
0.0
 11
692.6
 21
1860.0
 31
0.0
  0
TEXT
  5
3CF
  8
SIZE
  6
CONTINUOUS
 62
    30
 10
682.6
 20
987.5
 30
0.0
 40
30.0
  1
1670
 50
90.0
 72
     1
 11
682.6
 21
1035.0
 31
0.0
  0
POINT
  5
3D0
  8
DEFPOINTS
  6
CONTINUOUS
 62
    30
 10
345.0
 20
200.0
 30
0.0
  0
POINT
  5
3D1
  8
DEFPOINTS
  6
CONTINUOUS
 62
    30
 10
345.0
 20
1870.0
 30
0.0
  0
POINT
  5
3D2
  8
DEFPOINTS
  6
CONTINUOUS
 62
    30
 10
692.6
 20
1870.0
 30
0.0
  0
LINE
  5
3D3
  8
SIZE
  6
CONTINUOUS
 62
    30
 10
30.0
 20
1923.0
 30
0.0
 11
30.0
 21
2234.9
 31
0.0
  0
LINE
  5
3D4
  8
SIZE
  6
CONTINUOUS
 62
    30
 10
-30.0
 20
1923.0
 30
0.0
 11
-30.0
 21
2234.9
 31
0.0
  0
LINE
  5
3D5
  8
SIZE
  6
CONTINUOUS
 62
    30
 10
20.0
 20
2222.4
 30
0.0
 11
-20.0
 21
2222.4
 31
0.0
  0
CIRCLE
  5
3D6
  8
SIZE
  6
CONTINUOUS
 62
    30
 10
30.0
 20
2222.4
 30
0.0
 40
5.0
  0
LINE
  5
3D7
  8
SIZE
  6
CONTINUOUS
 62
    30
 10
30.0
 20
2222.4
 30
0.0
 11
20.0
 21
2222.4
 31
0.0
  0
CIRCLE
  5
3D8
  8
SIZE
  6
CONTINUOUS
 62
    30
 10
-30.0
 20
2222.4
 30
0.0
 40
5.0
  0
LINE
  5
3D9
  8
SIZE
  6
CONTINUOUS
 62
    30
 10
-30.0
 20
2222.4
 30
0.0
 11
-20.0
 21
2222.4
 31
0.0
  0
TEXT
  5
3DA
  8
SIZE
  6
CONTINUOUS
 62
    30
 10
-22.5
 20
2232.4
 30
0.0
 40
30.0
  1
60
 72
     1
 11
0.0
 21
2232.4
 31
0.0
  0
POINT
  5
3DB
  8
DEFPOINTS
  6
CONTINUOUS
 62
    30
 10
30.0
 20
1913.0
 30
0.0
  0
POINT
  5
3DC
  8
DEFPOINTS
  6
CONTINUOUS
 62
    30
 10
-30.0
 20
1913.0
 30
0.0
  0
POINT
  5
3DD
  8
DEFPOINTS
  6
CONTINUOUS
 62
    30
 10
-30.0
 20
2222.4
 30
0.0
  0
LINE
  5
3DE
  8
SIZE
  6
CONTINUOUS
 62
    30
 10
45.0
 20
1920.0
 30
0.0
 11
45.0
 21
2334.9
 31
0.0
  0
LINE
  5
3DF
  8
SIZE
  6
CONTINUOUS
 62
    30
 10
-45.0
 20
1920.0
 30
0.0
 11
-45.0
 21
2334.9
 31
0.0
  0
LINE
  5
3E0
  8
SIZE
  6
CONTINUOUS
 62
    30
 10
35.0
 20
2322.4
 30
0.0
 11
-35.0
 21
2322.4
 31
0.0
  0
CIRCLE
  5
3E1
  8
SIZE
  6
CONTINUOUS
 62
    30
 10
45.0
 20
2322.4
 30
0.0
 40
5.0
  0
LINE
  5
3E2
  8
SIZE
  6
CONTINUOUS
 62
    30
 10
45.0
 20
2322.4
 30
0.0
 11
35.0
 21
2322.4
 31
0.0
  0
CIRCLE
  5
3E3
  8
SIZE
  6
CONTINUOUS
 62
    30
 10
-45.0
 20
2322.4
 30
0.0
 40
5.0
  0
LINE
  5
3E4
  8
SIZE
  6
CONTINUOUS
 62
    30
 10
-45.0
 20
2322.4
 30
0.0
 11
-35.0
 21
2322.4
 31
0.0
  0
TEXT
  5
3E5
  8
SIZE
  6
CONTINUOUS
 62
    30
 10
-22.5
 20
2332.4
 30
0.0
 40
30.0
  1
90
 72
     1
 11
0.0
 21
2332.4
 31
0.0
  0
POINT
  5
3E6
  8
DEFPOINTS
  6
CONTINUOUS
 62
    30
 10
45.0
 20
1910.0
 30
0.0
  0
POINT
  5
3E7
  8
DEFPOINTS
  6
CONTINUOUS
 62
    30
 10
-45.0
 20
1910.0
 30
0.0
  0
POINT
  5
3E8
  8
DEFPOINTS
  6
CONTINUOUS
 62
    30
 10
-45.0
 20
2322.4
 30
0.0
  0
LINE
  5
3E9
  8
SIZE
  6
CONTINUOUS
 62
    30
 10
-344.0
 20
0.0
 30
0.0
 11
-459.9
 21
0.0
 31
0.0
  0
LINE
  5
3EA
  8
SIZE
  6
CONTINUOUS
 62
    30
 10
-60.0
 20
1893.0
 30
0.0
 11
-459.9
 21
1893.0
 31
0.0
  0
LINE
  5
3EB
  8
SIZE
  6
CONTINUOUS
 62
    30
 10
-447.4
 20
10.0
 30
0.0
 11
-447.4
 21
1883.0
 31
0.0
  0
CIRCLE
  5
3EC
  8
SIZE
  6
CONTINUOUS
 62
    30
 10
-447.4
 20
0.0
 30
0.0
 40
5.0
  0
LINE
  5
3ED
  8
SIZE
  6
CONTINUOUS
 62
    30
 10
-447.4
 20
0.0
 30
0.0
 11
-447.4
 21
10.0
 31
0.0
  0
CIRCLE
  5
3EE
  8
SIZE
  6
CONTINUOUS
 62
    30
 10
-447.4
 20
1893.0
 30
0.0
 40
5.0
  0
LINE
  5
3EF
  8
SIZE
  6
CONTINUOUS
 62
    30
 10
-447.4
 20
1893.0
 30
0.0
 11
-447.4
 21
1883.0
 31
0.0
  0
TEXT
  5
3F0
  8
SIZE
  6
CONTINUOUS
 62
    30
 10
-457.4
 20
896.5
 30
0.0
 40
30.0
  1
1893
 50
90.0
 72
     1
 11
-457.4
 21
946.5
 31
0.0
  0
POINT
  5
3F1
  8
DEFPOINTS
  6
CONTINUOUS
 62
    30
 10
-334.0
 20
0.0
 30
0.0
  0
POINT
  5
3F2
  8
DEFPOINTS
  6
CONTINUOUS
 62
    30
 10
-50.0
 20
1893.0
 30
0.0
  0
POINT
  5
3F3
  8
DEFPOINTS
  6
CONTINUOUS
 62
    30
 10
-447.4
 20
1893.0
 30
0.0
  0
LINE
  5
3F4
  8
SIZE
  6
CONTINUOUS
 62
    30
 10
-344.0
 20
0.0
 30
0.0
 11
-559.9
 21
0.0
 31
0.0
  0
LINE
  5
3F5
  8
SIZE
  6
CONTINUOUS
 62
    30
 10
-50.0
 20
1915.0
 30
0.0
 11
-559.9
 21
1915.0
 31
0.0
  0
LINE
  5
3F6
  8
SIZE
  6
CONTINUOUS
 62
    30
 10
-547.4
 20
10.0
 30
0.0
 11
-547.4
 21
1905.0
 31
0.0
  0
CIRCLE
  5
3F7
  8
SIZE
  6
CONTINUOUS
 62
    30
 10
-547.4
 20
0.0
 30
0.0
 40
5.0
  0
LINE
  5
3F8
  8
SIZE
  6
CONTINUOUS
 62
    30
 10
-547.4
 20
0.0
 30
0.0
 11
-547.4
 21
10.0
 31
0.0
  0
CIRCLE
  5
3F9
  8
SIZE
  6
CONTINUOUS
 62
    30
 10
-547.4
 20
1915.0
 30
0.0
 40
5.0
  0
LINE
  5
3FA
  8
SIZE
  6
CONTINUOUS
 62
    30
 10
-547.4
 20
1915.0
 30
0.0
 11
-547.4
 21
1905.0
 31
0.0
  0
TEXT
  5
3FB
  8
SIZE
  6
CONTINUOUS
 62
    30
 10
-557.4
 20
912.5
 30
0.0
 40
30.0
  1
1915
 50
90.0
 72
     1
 11
-557.4
 21
957.5
 31
0.0
  0
POINT
  5
3FC
  8
DEFPOINTS
  6
CONTINUOUS
 62
    30
 10
-334.0
 20
0.0
 30
0.0
  0
POINT
  5
3FD
  8
DEFPOINTS
  6
CONTINUOUS
 62
    30
 10
-40.0
 20
1915.0
 30
0.0
  0
POINT
  5
3FE
  8
DEFPOINTS
  6
CONTINUOUS
 62
    30
 10
-547.4
 20
1915.0
 30
0.0
  0
LINE
  5
3FF
  8
SIZE
  6
CONTINUOUS
 62
    30
 10
355.0
 20
200.0
 30
0.0
 11
705.1
 21
200.0
 31
0.0
  0
LINE
  5
400
  8
SIZE
  6
CONTINUOUS
 62
    30
 10
344.0
 20
0.0
 30
0.0
 11
705.1
 21
0.0
 31
0.0
  0
LINE
  5
401
  8
SIZE
  6
CONTINUOUS
 62
    30
 10
692.6
 20
190.0
 30
0.0
 11
692.6
 21
10.0
 31
0.0
  0
CIRCLE
  5
402
  8
SIZE
  6
CONTINUOUS
 62
    30
 10
692.6
 20
200.0
 30
0.0
 40
5.0
  0
LINE
  5
403
  8
SIZE
  6
CONTINUOUS
 62
    30
 10
692.6
 20
200.0
 30
0.0
 11
692.6
 21
190.0
 31
0.0
  0
CIRCLE
  5
404
  8
SIZE
  6
CONTINUOUS
 62
    30
 10
692.6
 20
0.0
 30
0.0
 40
5.0
  0
LINE
  5
405
  8
SIZE
  6
CONTINUOUS
 62
    30
 10
692.6
 20
0.0
 30
0.0
 11
692.6
 21
10.0
 31
0.0
  0
TEXT
  5
406
  8
SIZE
  6
CONTINUOUS
 62
    30
 10
682.6
 20
65.0
 30
0.0
 40
30.0
  1
200
 50
90.0
 72
     1
 11
682.6
 21
100.0
 31
0.0
  0
POINT
  5
407
  8
DEFPOINTS
  6
CONTINUOUS
 62
    30
 10
345.0
 20
200.0
 30
0.0
  0
POINT
  5
408
  8
DEFPOINTS
  6
CONTINUOUS
 62
    30
 10
334.0
 20
0.0
 30
0.0
  0
POINT
  5
409
  8
DEFPOINTS
  6
CONTINUOUS
 62
    30
 10
692.6
 20
0.0
 30
0.0
  0
LINE
  5
40A
  8
SIZE
  6
CONTINUOUS
 62
    30
 10
272.703766
 20
1900.0
 30
0.0
 11
805.1
 21
1900.0
 31
0.0
  0
LINE
  5
40B
  8
SIZE
  6
CONTINUOUS
 62
    30
 10
344.0
 20
0.0
 30
0.0
 11
805.1
 21
0.0
 31
0.0
  0
LINE
  5
40C
  8
SIZE
  6
CONTINUOUS
 62
    30
 10
792.6
 20
1890.0
 30
0.0
 11
792.6
 21
10.0
 31
0.0
  0
CIRCLE
  5
40D
  8
SIZE
  6
CONTINUOUS
 62
    30
 10
792.6
 20
1900.0
 30
0.0
 40
5.0
  0
LINE
  5
40E
  8
SIZE
  6
CONTINUOUS
 62
    30
 10
792.6
 20
1900.0
 30
0.0
 11
792.6
 21
1890.0
 31
0.0
  0
CIRCLE
  5
40F
  8
SIZE
  6
CONTINUOUS
 62
    30
 10
792.6
 20
0.0
 30
0.0
 40
5.0
  0
LINE
  5
410
  8
SIZE
  6
CONTINUOUS
 62
    30
 10
792.6
 20
0.0
 30
0.0
 11
792.6
 21
10.0
 31
0.0
  0
TEXT
  5
411
  8
SIZE
  6
CONTINUOUS
 62
    30
 10
782.6
 20
989.249512
 30
0.0
 40
30.0
  1
1900
 50
90.0
 72
     1
 11
782.6
 21
1034.249512
 31
0.0
  0
POINT
  5
412
  8
DEFPOINTS
  6
CONTINUOUS
 62
    30
 10
262.703766
 20
1900.0
 30
0.0
  0
POINT
  5
413
  8
DEFPOINTS
  6
CONTINUOUS
 62
    30
 10
334.0
 20
0.0
 30
0.0
  0
POINT
  5
414
  8
DEFPOINTS
  6
CONTINUOUS
 62
    30
 10
792.6
 20
0.0
 30
0.0
  0
LINE
  5
415
  8
SIZE
  6
CONTINUOUS
 62
    30
 10
-272.0
 20
-30.0
 30
0.0
 11
-272.0
 21
-360.1
 31
0.0
  0
LINE
  5
416
  8
SIZE
  6
CONTINUOUS
 62
    30
 10
272.0
 20
-30.0
 30
0.0
 11
272.0
 21
-360.1
 31
0.0
  0
LINE
  5
417
  8
SIZE
  6
CONTINUOUS
 62
    30
 10
-262.0
 20
-347.6
 30
0.0
 11
262.0
 21
-347.6
 31
0.0
  0
CIRCLE
  5
418
  8
SIZE
  6
CONTINUOUS
 62
    30
 10
-272.0
 20
-347.6
 30
0.0
 40
5.0
  0
LINE
  5
419
  8
SIZE
  6
CONTINUOUS
 62
    30
 10
-272.0
 20
-347.6
 30
0.0
 11
-262.0
 21
-347.6
 31
0.0
  0
CIRCLE
  5
41A
  8
SIZE
  6
CONTINUOUS
 62
    30
 10
272.0
 20
-347.6
 30
0.0
 40
5.0
  0
LINE
  5
41B
  8
SIZE
  6
CONTINUOUS
 62
    30
 10
272.0
 20
-347.6
 30
0.0
 11
262.0
 21
-347.6
 31
0.0
  0
TEXT
  5
41C
  8
SIZE
  6
CONTINUOUS
 62
    30
 10
-40.0
 20
-337.6
 30
0.0
 40
30.0
  1
544
 72
     1
 11
0.0
 21
-337.6
 31
0.0
  0
POINT
  5
41D
  8
DEFPOINTS
  6
CONTINUOUS
 62
    30
 10
-272.0
 20
-20.0
 30
0.0
  0
POINT
  5
41E
  8
DEFPOINTS
  6
CONTINUOUS
 62
    30
 10
272.0
 20
-20.0
 30
0.0
  0
POINT
  5
41F
  8
DEFPOINTS
  6
CONTINUOUS
 62
    30
 10
272.0
 20
-347.6
 30
0.0
  0
LINE
  5
420
  8
SIZE
  6
CONTINUOUS
 62
    30
 10
319.0
 20
-30.0
 30
0.0
 11
319.0
 21
-460.1
 31
0.0
  0
LINE
  5
421
  8
SIZE
  6
CONTINUOUS
 62
    30
 10
225.0
 20
-30.0
 30
0.0
 11
225.0
 21
-460.1
 31
0.0
  0
LINE
  5
422
  8
SIZE
  6
CONTINUOUS
 62
    30
 10
309.0
 20
-447.6
 30
0.0
 11
235.0
 21
-447.6
 31
0.0
  0
CIRCLE
  5
423
  8
SIZE
  6
CONTINUOUS
 62
    30
 10
319.0
 20
-447.6
 30
0.0
 40
5.0
  0
LINE
  5
424
  8
SIZE
  6
CONTINUOUS
 62
    30
 10
319.0
 20
-447.6
 30
0.0
 11
309.0
 21
-447.6
 31
0.0
  0
CIRCLE
  5
425
  8
SIZE
  6
CONTINUOUS
 62
    30
 10
225.0
 20
-447.6
 30
0.0
 40
5.0
  0
LINE
  5
426
  8
SIZE
  6
CONTINUOUS
 62
    30
 10
225.0
 20
-447.6
 30
0.0
 11
235.0
 21
-447.6
 31
0.0
  0
TEXT
  5
427
  8
SIZE
  6
CONTINUOUS
 62
    30
 10
247.0
 20
-437.6
 30
0.0
 40
30.0
  1
94
 72
     1
 11
272.0
 21
-437.6
 31
0.0
  0
POINT
  5
428
  8
DEFPOINTS
  6
CONTINUOUS
 62
    30
 10
319.0
 20
-20.0
 30
0.0
  0
POINT
  5
429
  8
DEFPOINTS
  6
CONTINUOUS
 62
    30
 10
225.0
 20
-20.0
 30
0.0
  0
POINT
  5
42A
  8
DEFPOINTS
  6
CONTINUOUS
 62
    30
 10
225.0
 20
-447.6
 30
0.0
  0
LINE
  5
42B
  8
SIZE
  6
CONTINUOUS
 62
    30
 10
-225.0
 20
-30.0
 30
0.0
 11
-225.0
 21
-460.1
 31
0.0
  0
LINE
  5
42C
  8
SIZE
  6
CONTINUOUS
 62
    30
 10
225.0
 20
-30.0
 30
0.0
 11
225.0
 21
-460.1
 31
0.0
  0
LINE
  5
42D
  8
SIZE
  6
CONTINUOUS
 62
    30
 10
-215.0
 20
-447.6
 30
0.0
 11
215.0
 21
-447.6
 31
0.0
  0
CIRCLE
  5
42E
  8
SIZE
  6
CONTINUOUS
 62
    30
 10
-225.0
 20
-447.6
 30
0.0
 40
5.0
  0
LINE
  5
42F
  8
SIZE
  6
CONTINUOUS
 62
    30
 10
-225.0
 20
-447.6
 30
0.0
 11
-215.0
 21
-447.6
 31
0.0
  0
CIRCLE
  5
430
  8
SIZE
  6
CONTINUOUS
 62
    30
 10
225.0
 20
-447.6
 30
0.0
 40
5.0
  0
LINE
  5
431
  8
SIZE
  6
CONTINUOUS
 62
    30
 10
225.0
 20
-447.6
 30
0.0
 11
215.0
 21
-447.6
 31
0.0
  0
TEXT
  5
432
  8
SIZE
  6
CONTINUOUS
 62
    30
 10
-37.5
 20
-437.6
 30
0.0
 40
30.0
  1
450
 72
     1
 11
0.0
 21
-437.6
 31
0.0
  0
POINT
  5
433
  8
DEFPOINTS
  6
CONTINUOUS
 62
    30
 10
-225.0
 20
-20.0
 30
0.0
  0
POINT
  5
434
  8
DEFPOINTS
  6
CONTINUOUS
 62
    30
 10
225.0
 20
-20.0
 30
0.0
  0
POINT
  5
435
  8
DEFPOINTS
  6
CONTINUOUS
 62
    30
 10
225.0
 20
-447.6
 30
0.0
  0
LINE
  5
436
  8
SIZE
  6
CONTINUOUS
 62
    30
 10
-319.0
 20
-30.0
 30
0.0
 11
-319.0
 21
-460.1
 31
0.0
  0
LINE
  5
437
  8
SIZE
  6
CONTINUOUS
 62
    30
 10
-225.0
 20
-30.0
 30
0.0
 11
-225.0
 21
-460.1
 31
0.0
  0
LINE
  5
438
  8
SIZE
  6
CONTINUOUS
 62
    30
 10
-309.0
 20
-447.6
 30
0.0
 11
-235.0
 21
-447.6
 31
0.0
  0
CIRCLE
  5
439
  8
SIZE
  6
CONTINUOUS
 62
    30
 10
-319.0
 20
-447.6
 30
0.0
 40
5.0
  0
LINE
  5
43A
  8
SIZE
  6
CONTINUOUS
 62
    30
 10
-319.0
 20
-447.6
 30
0.0
 11
-309.0
 21
-447.6
 31
0.0
  0
CIRCLE
  5
43B
  8
SIZE
  6
CONTINUOUS
 62
    30
 10
-225.0
 20
-447.6
 30
0.0
 40
5.0
  0
LINE
  5
43C
  8
SIZE
  6
CONTINUOUS
 62
    30
 10
-225.0
 20
-447.6
 30
0.0
 11
-235.0
 21
-447.6
 31
0.0
  0
TEXT
  5
43D
  8
SIZE
  6
CONTINUOUS
 62
    30
 10
-297.0
 20
-437.6
 30
0.0
 40
30.0
  1
94
 72
     1
 11
-272.0
 21
-437.6
 31
0.0
  0
POINT
  5
43E
  8
DEFPOINTS
  6
CONTINUOUS
 62
    30
 10
-319.0
 20
-20.0
 30
0.0
  0
POINT
  5
43F
  8
DEFPOINTS
  6
CONTINUOUS
 62
    30
 10
-225.0
 20
-20.0
 30
0.0
  0
POINT
  5
440
  8
DEFPOINTS
  6
CONTINUOUS
 62
    30
 10
-225.0
 20
-447.6
 30
0.0
  0
LINE
  5
441
  8
SIZE
  6
CONTINUOUS
 62
    30
 10
-115.0
 20
170.0
 30
0.0
 11
-115.0
 21
-260.1
 31
0.0
  0
LINE
  5
442
  8
SIZE
  6
CONTINUOUS
 62
    30
 10
-257.0
 20
170.0
 30
0.0
 11
-257.0
 21
-260.1
 31
0.0
  0
LINE
  5
443
  8
SIZE
  6
CONTINUOUS
 62
    30
 10
-125.0
 20
-247.6
 30
0.0
 11
-247.0
 21
-247.6
 31
0.0
  0
CIRCLE
  5
444
  8
SIZE
  6
CONTINUOUS
 62
    30
 10
-115.0
 20
-247.6
 30
0.0
 40
5.0
  0
LINE
  5
445
  8
SIZE
  6
CONTINUOUS
 62
    30
 10
-115.0
 20
-247.6
 30
0.0
 11
-125.0
 21
-247.6
 31
0.0
  0
CIRCLE
  5
446
  8
SIZE
  6
CONTINUOUS
 62
    30
 10
-257.0
 20
-247.6
 30
0.0
 40
5.0
  0
LINE
  5
447
  8
SIZE
  6
CONTINUOUS
 62
    30
 10
-257.0
 20
-247.6
 30
0.0
 11
-247.0
 21
-247.6
 31
0.0
  0
TEXT
  5
448
  8
SIZE
  6
CONTINUOUS
 62
    30
 10
-221.0
 20
-237.6
 30
0.0
 40
30.0
  1
142
 72
     1
 11
-186.0
 21
-237.6
 31
0.0
  0
POINT
  5
449
  8
DEFPOINTS
  6
CONTINUOUS
 62
    30
 10
-115.0
 20
180.0
 30
0.0
  0
POINT
  5
44A
  8
DEFPOINTS
  6
CONTINUOUS
 62
    30
 10
-257.0
 20
180.0
 30
0.0
  0
POINT
  5
44B
  8
DEFPOINTS
  6
CONTINUOUS
 62
    30
 10
-257.0
 20
-247.6
 30
0.0
  0
LINE
  5
44C
  8
NOTE
  6
CONTINUOUS
 10
264.0
 20
135.5
 30
0.0
 11
264.0
 21
175.5
 31
0.0
  0
LINE
  5
44D
  8
NOTE
  6
CONTINUOUS
 10
244.0
 20
155.5
 30
0.0
 11
284.0
 21
155.5
 31
0.0
  0
LINE
  5
44E
  8
NOTE
  6
CONTINUOUS
 10
614.111938
 20
-250.0
 30
0.0
 11
415.361969
 21
-250.0
 31
0.0
  0
LINE
  5
44F
  8
NOTE
  6
CONTINUOUS
 10
415.361969
 20
-250.0
 30
0.0
 11
163.82309
 21
172.5
 31
0.0
  0
LINE
  5
450
  8
NOTE
  6
CONTINUOUS
 10
163.82309
 20
172.5
 30
0.0
 11
165.256127
 21
171.104864
 31
0.0
  0
LINE
  5
451
  8
NOTE
  6
CONTINUOUS
 10
163.82309
 20
172.5
 30
0.0
 11
164.366569
 21
170.575258
 31
0.0
  0
TEXT
  5
452
  8
NOTE
  6
CONTINUOUS
 10
476.111969
 20
-249.0
 30
0.0
 40
40.0
  1
D φ18
 50
0.000003
 41
0.721354
  7
STANDARD1
  0
LINE
  5
453
  8
NOTE
  6
CONTINUOUS
 10
834.611938
 20
-150.0
 30
0.0
 11
415.361969
 21
-150.0
 31
0.0
  0
LINE
  5
454
  8
NOTE
  6
CONTINUOUS
 10
415.361969
 20
-150.0
 30
0.0
 11
264.0
 21
155.5
 31
0.0
  0
LINE
  5
455
  8
NOTE
  6
CONTINUOUS
 10
264.0
 20
155.5
 30
0.0
 11
265.321482
 21
153.998772
 31
0.0
  0
LINE
  5
456
  8
NOTE
  6
CONTINUOUS
 10
264.0
 20
155.5
 30
0.0
 11
264.393823
 21
153.539158
 31
0.0
  0
TEXT
  5
457
  8
NOTE
  6
CONTINUOUS
 10
476.111969
 20
-149.0
 30
0.0
 40
40.0
  1
WD R3/4(φ27.2)
 50
0.000003
 41
0.650362
  7
STANDARD1
  0
LINE
  5
458
  8
NOTE
  6
CONTINUOUS
 10
1075.678955
 20
500.0
 30
0.0
 11
767.678894
 21
500.0
 31
0.0
  0
LINE
  5
459
  8
NOTE
  6
CONTINUOUS
 10
767.678894
 20
500.0
 30
0.0
 11
0.0
 21
200.0
 31
0.0
  0
LINE
  5
45A
  8
NOTE
  6
CONTINUOUS
 10
0.0
 20
200.0
 30
0.0
 11
1.610927
 21
201.185291
 31
0.0
  0
LINE
  5
45B
  8
NOTE
  6
CONTINUOUS
 10
0.0
 20
200.0
 30
0.0
 11
1.987749
 21
200.221029
 31
0.0
  0
TEXT
  5
45C
  8
NOTE
  6
CONTINUOUS
 10
827.678894
 20
501.0
 30
0.0
 40
40.0
  1
EL φ49×69
 50
0.000003
 41
0.688889
  7
STANDARD1
  0
LINE
  5
45D
  8
NOTE
  6
CONTINUOUS
 10
1035.678955
 20
400.0
 30
0.0
 11
767.678894
 21
400.0
 31
0.0
  0
LINE
  5
45E
  8
NOTE
  6
CONTINUOUS
 10
767.678894
 20
400.0
 30
0.0
 11
117.0
 21
200.0
 31
0.0
  0
LINE
  5
45F
  8
NOTE
  6
CONTINUOUS
 10
117.0
 20
200.0
 30
0.0
 11
118.694505
 21
201.062381
 31
0.0
  0
LINE
  5
460
  8
NOTE
  6
CONTINUOUS
 10
117.0
 20
200.0
 30
0.0
 11
118.998675
 21
200.072796
 31
0.0
  0
TEXT
  5
461
  8
NOTE
  6
CONTINUOUS
 10
827.678894
 20
401.0
 30
0.0
 40
40.0
  1
CL φ32.5
 50
0.000003
 41
0.666667
  7
STANDARD1
  0
LINE
  5
462
  8
NOTE
  6
CONTINUOUS
 10
1075.678955
 20
300.0
 30
0.0
 11
767.678894
 21
300.0
 31
0.0
  0
LINE
  5
463
  8
NOTE
  6
CONTINUOUS
 10
767.678894
 20
300.0
 30
0.0
 11
189.0
 21
200.0
 31
0.0
  0
LINE
  5
464
  8
NOTE
  6
CONTINUOUS
 10
189.0
 20
200.0
 30
0.0
 11
190.815492
 21
200.839041
 31
0.0
  0
LINE
  5
465
  8
NOTE
  6
CONTINUOUS
 10
189.0
 20
200.0
 30
0.0
 11
190.991782
 21
199.818885
 31
0.0
  0
TEXT
  5
466
  8
NOTE
  6
CONTINUOUS
 10
827.678894
 20
301.0
 30
0.0
 40
40.0
  1
HW φ49×69
 50
0.000003
 41
0.688889
  7
STANDARD1
  0
LINE
  5
467
  8
NOTE
  6
CONTINUOUS
 10
-788.093262
 20
100.0
 30
0.0
 11
-525.343262
 21
100.0
 31
0.0
  0
LINE
  5
468
  8
NOTE
  6
CONTINUOUS
 10
-525.343262
 20
100.0
 30
0.0
 11
-292.299988
 21
18.0
 31
0.0
  0
LINE
  5
469
  8
NOTE
  6
CONTINUOUS
 10
-292.299988
 20
18.0
 30
0.0
 11
-294.294133
 21
18.152924
 31
0.0
  0
LINE
  5
46A
  8
NOTE
  6
CONTINUOUS
 10
-292.299988
 20
18.0
 30
0.0
 11
-293.950506
 21
19.129509
 31
0.0
  0
TEXT
  5
46B
  8
NOTE
  6
CONTINUOUS
 10
-788.093262
 20
100.999992
 30
0.0
 40
40.0
  1
脚固定金具
 50
0.000003
 41
0.84375
  7
STANDARD1
  0
LINE
  5
46C
  8
NOTE
  6
CONTINUOUS
 10
143.823085
 20
172.5
 30
0.0
 11
183.823085
 21
172.5
 31
0.0
  0
LINE
  5
46D
  8
NOTE
  6
CONTINUOUS
 10
163.823085
 20
152.5
 30
0.0
 11
163.823085
 21
192.5
 31
0.0
  0
LINE
  5
46E
  8
NOTE
  6
CONTINUOUS
 10
-10.0
 20
1893.0
 30
0.0
 11
-50.0
 21
1893.0
 31
0.0
  0
LINE
  5
46F
  8
NOTE
  6
CONTINUOUS
 10
-30.0
 20
1873.0
 30
0.0
 11
-30.0
 21
1913.0
 31
0.0
  0
LINE
  5
470
  8
NOTE
  6
CONTINUOUS
 10
30.0
 20
1873.0
 30
0.0
 11
30.0
 21
1913.0
 31
0.0
  0
LINE
  5
471
  8
NOTE
  6
CONTINUOUS
 10
572.273682
 20
2220.0
 30
0.0
 11
320.273712
 21
2220.0
 31
0.0
  0
LINE
  5
472
  8
NOTE
  6
CONTINUOUS
 10
320.273712
 20
2220.0
 30
0.0
 11
30.0
 21
1893.0
 31
0.0
  0
LINE
  5
473
  8
NOTE
  6
CONTINUOUS
 10
30.0
 20
1893.0
 30
0.0
 11
30.895364
 21
1894.788386
 31
0.0
  0
LINE
  5
474
  8
NOTE
  6
CONTINUOUS
 10
30.0
 20
1893.0
 30
0.0
 11
31.669601
 21
1894.101106
 31
0.0
  0
TEXT
  5
475
  8
NOTE
  6
CONTINUOUS
 10
380.273712
 20
2221.0
 30
0.0
 40
40.0
  1
AH 2-M10
 50
0.000003
 41
0.631579
  7
STANDARD1
  0
LINE
  5
476
  8
NOTE
  6
CONTINUOUS
 10
10.0
 20
1893.0
 30
0.0
 11
50.0
 21
1893.0
 31
0.0
  0
TEXT
  5
477
  8
NOTE
  6
CONTINUOUS
 10
-196.717773
 20
2375.423096
 30
0.0
 40
40.0
  1
メンテナンススペース
 50
0.000003
 41
0.833333
  7
STANDARD1
  0
TEXT
  5
478
  8
NOTE
  6
CONTINUOUS
 10
749.271912
 20
1915.023926
 30
0.0
 40
40.0
  1
メンテナンススペース
 50
90.000005
 41
0.833333
  7
STANDARD1
  0
LINE
  5
479
  8
NOTE
  6
CONTINUOUS
 10
-696.142212
 20
2220.0
 30
0.0
 11
-316.142181
 21
2220.0
 31
0.0
  0
LINE
  5
47A
  8
NOTE
  6
CONTINUOUS
 10
-316.142181
 20
2220.0
 30
0.0
 11
-20.0
 21
1915.0
 31
0.0
  0
LINE
  5
47B
  8
NOTE
  6
CONTINUOUS
 10
-20.0
 20
1915.0
 30
0.0
 11
-21.717129
 21
1916.02541
 31
0.0
  0
LINE
  5
47C
  8
NOTE
  6
CONTINUOUS
 10
-20.0
 20
1915.0
 30
0.0
 11
-20.974372
 21
1916.746596
 31
0.0
  0
TEXT
  5
47D
  8
NOTE
  6
CONTINUOUS
 10
-696.142151
 20
2221.0
 30
0.0
 40
40.0
  1
上部振れ止め金具
 50
0.000003
 41
0.833333
  7
STANDARD1
  0
LINE
  5
47E
  8
NOTE
  6
CONTINUOUS
 10
-115.0
 20
180.0
 30
0.0
 11
-115.0
 21
220.0
 31
0.0
  0
LINE
  5
47F
  8
NOTE
  6
CONTINUOUS
 10
-95.0
 20
200.0
 30
0.0
 11
-135.0
 21
200.0
 31
0.0
  0
LINE
  5
480
  8
NOTE
  6
CONTINUOUS
 10
20.0
 20
200.0
 30
0.0
 11
-20.0
 21
200.0
 31
0.0
  0
LINE
  5
481
  8
NOTE
  6
CONTINUOUS
 10
0.0
 20
180.0
 30
0.0
 11
0.0
 21
220.0
 31
0.0
  0
LINE
  5
482
  8
NOTE
  6
CONTINUOUS
 10
137.0
 20
200.0
 30
0.0
 11
97.0
 21
200.0
 31
0.0
  0
LINE
  5
483
  8
NOTE
  6
CONTINUOUS
 10
117.0
 20
180.0
 30
0.0
 11
117.0
 21
220.0
 31
0.0
  0
LINE
  5
484
  8
NOTE
  6
CONTINUOUS
 10
209.0
 20
200.0
 30
0.0
 11
169.0
 21
200.0
 31
0.0
  0
LINE
  5
485
  8
NOTE
  6
CONTINUOUS
 10
189.0
 20
180.0
 30
0.0
 11
189.0
 21
220.0
 31
0.0
  0
LINE
  5
486
  8
NOTE
  6
CONTINUOUS
 10
-833.343262
 20
400.0
 30
0.0
 11
-525.343262
 21
400.0
 31
0.0
  0
LINE
  5
487
  8
NOTE
  6
CONTINUOUS
 10
-525.343262
 20
400.0
 30
0.0
 11
-115.0
 21
200.0
 31
0.0
  0
LINE
  5
488
  8
NOTE
  6
CONTINUOUS
 10
-115.0
 20
200.0
 30
0.0
 11
-116.963358
 21
200.381085
 31
0.0
  0
LINE
  5
489
  8
NOTE
  6
CONTINUOUS
 10
-115.0
 20
200.0
 30
0.0
 11
-116.509775
 21
201.311709
 31
0.0
  0
TEXT
  5
48A
  8
NOTE
  6
CONTINUOUS
 10
-833.343262
 20
401.0
 30
0.0
 40
40.0
  1
CW φ49×69
 50
0.000003
 41
0.688889
  7
STANDARD1
  0
LINE
  5
48B
  8
NOTE
  6
CONTINUOUS
 10
-697.587769
 20
-300.0
 30
0.0
 11
-445.587799
 21
-300.0
 31
0.0
  0
LINE
  5
48C
  8
NOTE
  6
CONTINUOUS
 10
-445.587799
 20
-300.0
 30
0.0
 11
-272.0
 21
0.0
 31
0.0
  0
LINE
  5
48D
  8
NOTE
  6
CONTINUOUS
 10
-272.0
 20
0.0
 30
0.0
 11
-272.519485
 21
-1.931356
 31
0.0
  0
LINE
  5
48E
  8
NOTE
  6
CONTINUOUS
 10
-272.0
 20
0.0
 30
0.0
 11
-273.415565
 21
-1.412861
 31
0.0
  0
TEXT
  5
48F
  8
NOTE
  6
CONTINUOUS
 10
-697.58783
 20
-299.0
 30
0.0
 40
40.0
  1
AH 3-M12
 50
0.000003
 41
0.631579
  7
STANDARD1
  0
LINE
  5
490
  8
NOTE
  6
CONTINUOUS
 10
-697.587769
 20
-150.0
 30
0.0
 11
-445.587799
 21
-150.0
 31
0.0
  0
LINE
  5
491
  8
NOTE
  6
CONTINUOUS
 10
-445.587799
 20
-150.0
 30
0.0
 11
-319.0
 21
0.0
 31
0.0
  0
LINE
  5
492
  8
NOTE
  6
CONTINUOUS
 10
-319.0
 20
0.0
 30
0.0
 11
-319.850347
 21
-1.810224
 31
0.0
  0
LINE
  5
493
  8
NOTE
  6
CONTINUOUS
 10
-319.0
 20
0.0
 30
0.0
 11
-320.641534
 21
-1.142526
 31
0.0
  0
TEXT
  5
494
  8
NOTE
  6
CONTINUOUS
 10
-697.58783
 20
-149.000015
 30
0.0
 40
40.0
  1
AH 4-M12
 50
0.000003
 41
0.631579
  7
STANDARD1
  0
LINE
  5
495
  8
NOTE
  6
CONTINUOUS
 10
-292.0
 20
0.0
 30
0.0
 11
-252.0
 21
0.0
 31
0.0
  0
LINE
  5
496
  8
NOTE
  6
CONTINUOUS
 10
-272.0
 20
-20.0
 30
0.0
 11
-272.0
 21
20.0
 31
0.0
  0
LINE
  5
497
  8
NOTE
  6
CONTINUOUS
 10
-319.0
 20
-20.0
 30
0.0
 11
-319.0
 21
20.0
 31
0.0
  0
LINE
  5
498
  8
NOTE
  6
CONTINUOUS
 10
-339.0
 20
0.0
 30
0.0
 11
-299.0
 21
0.0
 31
0.0
  0
LINE
  5
499
  8
NOTE
  6
CONTINUOUS
 10
-205.0
 20
0.0
 30
0.0
 11
-245.0
 21
0.0
 31
0.0
  0
LINE
  5
49A
  8
NOTE
  6
CONTINUOUS
 10
-225.0
 20
-20.0
 30
0.0
 11
-225.0
 21
20.0
 31
0.0
  0
LINE
  5
49B
  8
NOTE
  6
CONTINUOUS
 10
292.0
 20
0.0
 30
0.0
 11
252.0
 21
0.0
 31
0.0
  0
LINE
  5
49C
  8
NOTE
  6
CONTINUOUS
 10
272.0
 20
-20.0
 30
0.0
 11
272.0
 21
20.0
 31
0.0
  0
LINE
  5
49D
  8
NOTE
  6
CONTINUOUS
 10
319.0
 20
-20.0
 30
0.0
 11
319.0
 21
20.0
 31
0.0
  0
LINE
  5
49E
  8
NOTE
  6
CONTINUOUS
 10
339.0
 20
0.0
 30
0.0
 11
299.0
 21
0.0
 31
0.0
  0
LINE
  5
49F
  8
NOTE
  6
CONTINUOUS
 10
205.0
 20
0.0
 30
0.0
 11
245.0
 21
0.0
 31
0.0
  0
LINE
  5
4A0
  8
NOTE
  6
CONTINUOUS
 10
225.0
 20
-20.0
 30
0.0
 11
225.0
 21
20.0
 31
0.0
  0
LINE
  5
4A1
  8
NOTE
  6
CONTINUOUS
 10
20.0
 20
0.0
 30
0.0
 11
-20.0
 21
0.0
 31
0.0
  0
LINE
  5
4A2
  8
NOTE
  6
CONTINUOUS
 10
0.0
 20
-20.0
 30
0.0
 11
0.0
 21
20.0
 31
0.0
  0
TEXT
  5
4A3
  8
NOTE
  6
CONTINUOUS
 10
-905.071106
 20
-205.459854
 30
0.0
 40
40.0
  1
（脚固定金具使用時のみ）
 50
0.000003
 41
0.833333
  7
STANDARD1
  0
LINE
  5
4A4
  8
NOTE
  6
CONTINUOUS
 10
-833.343262
 20
300.0
 30
0.0
 11
-525.343262
 21
300.0
 31
0.0
  0
LINE
  5
4A5
  8
NOTE
  6
CONTINUOUS
 10
-525.343262
 20
300.0
 30
0.0
 11
-257.0
 21
200.0
 31
0.0
  0
LINE
  5
4A6
  8
NOTE
  6
CONTINUOUS
 10
-257.0
 20
200.0
 30
0.0
 11
-258.990998
 21
200.189546
 31
0.0
  0
LINE
  5
4A7
  8
NOTE
  6
CONTINUOUS
 10
-257.0
 20
200.0
 30
0.0
 11
-258.629482
 21
201.159651
 31
0.0
  0
TEXT
  5
4A8
  8
NOTE
  6
CONTINUOUS
 10
-833.343262
 20
301.0
 30
0.0
 40
40.0
  1
BH φ49×69
 50
0.000003
 41
0.688889
  7
STANDARD1
  0
LINE
  5
4A9
  8
NOTE
  6
CONTINUOUS
 10
-237.0
 20
200.0
 30
0.0
 11
-277.0
 21
200.0
 31
0.0
  0
LINE
  5
4AA
  8
NOTE
  6
CONTINUOUS
 10
-257.0
 20
180.0
 30
0.0
 11
-257.0
 21
220.0
 31
0.0
  0
CIRCLE
  5
4AB
  8
ARRANGE
  6
CONTINUOUS
 10
0.0
 20
0.0
 30
0.0
 40
15.0
  0
CIRCLE
  5
4AC
  8
FIX
  6
CONTINUOUS
 10
-30.0
 20
1893.0
 30
0.0
 40
5.0
  0
CIRCLE
  5
4AD
  8
FIX
  6
CONTINUOUS
 10
30.0
 20
1893.0
 30
0.0
 40
5.0
  0
CIRCLE
  5
4AE
  8
FIX
  6
CONTINUOUS
 10
272.0
 20
0.0
 30
0.0
 40
6.0
  0
CIRCLE
  5
4AF
  8
FIX
  6
CONTINUOUS
 10
225.0
 20
0.0
 30
0.0
 40
6.0
  0
CIRCLE
  5
4B0
  8
FIX
  6
CONTINUOUS
 10
272.0
 20
0.0
 30
0.0
 40
6.0
  0
CIRCLE
  5
4B1
  8
FIX
  6
CONTINUOUS
 10
319.0
 20
0.0
 30
0.0
 40
6.0
  0
CIRCLE
  5
4B2
  8
FIX
  6
CONTINUOUS
 10
-272.0
 20
0.0
 30
0.0
 40
6.0
  0
CIRCLE
  5
4B3
  8
FIX
  6
CONTINUOUS
 10
-225.0
 20
0.0
 30
0.0
 40
6.0
  0
CIRCLE
  5
4B4
  8
FIX
  6
CONTINUOUS
 10
-272.0
 20
0.0
 30
0.0
 40
6.0
  0
CIRCLE
  5
4B5
  8
FIX
  6
CONTINUOUS
 10
-319.0
 20
0.0
 30
0.0
 40
6.0
  0
CIRCLE
  5
4B6
  8
FIX
  6
CONTINUOUS
 10
0.0
 20
0.0
 30
0.0
 40
6.0
  0
LINE
  5
4B7
  8
SERVICESPACE
  6
DASHDOT
 10
-345.0
 20
1870.0
 30
0.0
 11
-345.0
 21
2070.0
 31
0.0
  0
LINE
  5
4B8
  8
SERVICESPACE
  6
DASHDOT
 10
-345.0
 20
1870.0
 30
0.0
 11
345.0
 21
1870.0
 31
0.0
  0
LINE
  5
4B9
  8
SERVICESPACE
  6
DASHDOT
 10
-345.0
 20
2070.0
 30
0.0
 11
345.0
 21
2070.0
 31
0.0
  0
LINE
  5
4BA
  8
SERVICESPACE
  6
DASHDOT
 10
345.0
 20
1870.0
 30
0.0
 11
345.0
 21
2070.0
 31
0.0
  0
LINE
  5
4BB
  8
SERVICESPACE
  6
DASHDOT
 10
345.0
 20
2070.0
 30
0.0
 11
-345.0
 21
1870.0
 31
0.0
  0
LINE
  5
4BC
  8
SERVICESPACE
  6
DASHDOT
 10
-345.0
 20
2070.0
 30
0.0
 11
345.0
 21
1870.0
 31
0.0
  0
TEXT
  5
4BD
  8
ETC
  6
CONTINUOUS
 10
699.320984
 20
2419.680664
 30
0.0
 40
40.0
  1
TT467CM3
 50
0.000003
 41
0.6
  7
STANDARD1
  0
TEXT
  5
4BE
  8
ETC
  6
CONTINUOUS
 10
699.320984
 20
2349.680664
 30
0.0
 40
40.0
  1
電気温水器
 50
0.000003
 41
0.833333
  7
STANDARD1
  0
ENDSEC
  0
EOF
