  0
SECTION
  2
HEADER
  9
$ACADVER
  1
AC1009
  9
$INSBASE
 10
0.0
 20
0.0
 30
0.0
  9
$EXTMIN
 10
-872.911005
 20
-1585.527057
 30
0.0
  9
$EXTMAX
 10
845.811112
 20
342.4
 30
0.0
  9
$LIMMIN
 10
0.0
 20
0.0
  9
$LIMMAX
 10
12.0
 20
9.0
  9
$ORTHOMODE
 70
     0
  9
$REGENMODE
 70
     1
  9
$FILLMODE
 70
     1
  9
$QTEXTMODE
 70
     0
  9
$MIRRTEXT
 70
     1
  9
$DRAGMODE
 70
     2
  9
$LTSCALE
 40
1.0
  9
$OSMODE
 70
     0
  9
$ATTMODE
 70
     1
  9
$TEXTSIZE
 40
7.0
  9
$TRACEWID
 40
0.05
  9
$TEXTSTYLE
  7
STANDARD1
  9
$CLAYER
  8
0
  9
$CELTYPE
  6
CONTINUOUS
  9
$CECOLOR
 62
   256
  9
$DIMSCALE
 40
1.0
  9
$DIMASZ
 40
10.0
  9
$DIMEXO
 40
10.0
  9
$DIMDLI
 40
8.0
  9
$DIMRND
 40
0.0
  9
$DIMDLE
 40
0.0
  9
$DIMEXE
 40
12.5
  9
$DIMTP
 40
0.0
  9
$DIMTM
 40
0.0
  9
$DIMTXT
 40
30.0
  9
$DIMCEN
 40
2.5
  9
$DIMTSZ
 40
0.0
  9
$DIMTOL
 70
     0
  9
$DIMLIM
 70
     0
  9
$DIMTIH
 70
     0
  9
$DIMTOH
 70
     0
  9
$DIMSE1
 70
     0
  9
$DIMSE2
 70
     0
  9
$DIMTAD
 70
     3
  9
$DIMZIN
 70
    12
  9
$DIMBLK
  1

  9
$DIMASO
 70
     1
  9
$DIMSHO
 70
     1
  9
$DIMPOST
  1

  9
$DIMAPOST
  1

  9
$DIMALT
 70
     0
  9
$DIMALTD
 70
     4
  9
$DIMALTF
 40
25.4
  9
$DIMLFAC
 40
1.0
  9
$DIMTOFL
 70
     1
  9
$DIMTVP
 40
0.0
  9
$DIMTIX
 70
     0
  9
$DIMSOXD
 70
     0
  9
$DIMSAH
 70
     1
  9
$DIMBLK1
  1
_ORIGIN
  9
$DIMBLK2
  1
_ORIGIN
  9
$DIMSTYLE
  2
STANDARD
  9
$DIMCLRD
 70
     0
  9
$DIMCLRE
 70
     0
  9
$DIMCLRT
 70
     0
  9
$DIMTFAC
 40
1.0
  9
$DIMGAP
 40
0.09
  9
$LUNITS
 70
     2
  9
$LUPREC
 70
     3
  9
$SKETCHINC
 40
0.1
  9
$FILLETRAD
 40
0.0
  9
$AUNITS
 70
     0
  9
$AUPREC
 70
     0
  9
$MENU
  1
acad
  9
$ELEVATION
 40
0.0
  9
$PELEVATION
 40
0.0
  9
$THICKNESS
 40
0.0
  9
$LIMCHECK
 70
     0
  9
$BLIPMODE
 70
     0
  9
$CHAMFERA
 40
0.0
  9
$CHAMFERB
 40
0.0
  9
$SKPOLY
 70
     0
  9
$TDCREATE
 40
2452583.415544
  9
$TDUPDATE
 40
2452583.415544
  9
$TDINDWG
 40
0.0
  9
$TDUSRTIMER
 40
0.0
  9
$USRTIMER
 70
     1
  9
$ANGBASE
 50
0.0
  9
$ANGDIR
 70
     0
  9
$PDMODE
 70
     0
  9
$PDSIZE
 40
0.0
  9
$PLINEWID
 40
0.0
  9
$COORDS
 70
     1
  9
$SPLFRAME
 70
     0
  9
$SPLINETYPE
 70
     6
  9
$SPLINESEGS
 70
     8
  9
$ATTDIA
 70
     0
  9
$ATTREQ
 70
     1
  9
$HANDLING
 70
     1
  9
$HANDSEED
  5
566
  9
$SURFTAB1
 70
     6
  9
$SURFTAB2
 70
     6
  9
$SURFTYPE
 70
     6
  9
$SURFU
 70
     6
  9
$SURFV
 70
     6
  9
$UCSNAME
  2

  9
$UCSORG
 10
0.0
 20
0.0
 30
0.0
  9
$UCSXDIR
 10
1.0
 20
0.0
 30
0.0
  9
$UCSYDIR
 10
0.0
 20
1.0
 30
0.0
  9
$PUCSNAME
  2

  9
$PUCSORG
 10
0.0
 20
0.0
 30
0.0
  9
$PUCSXDIR
 10
1.0
 20
0.0
 30
0.0
  9
$PUCSYDIR
 10
0.0
 20
1.0
 30
0.0
  9
$USERI1
 70
     0
  9
$USERI2
 70
     0
  9
$USERI3
 70
     0
  9
$USERI4
 70
     0
  9
$USERI5
 70
     0
  9
$USERR1
 40
0.0
  9
$USERR2
 40
0.0
  9
$USERR3
 40
0.0
  9
$USERR4
 40
0.0
  9
$USERR5
 40
0.0
  9
$WORLDVIEW
 70
     1
  9
$SHADEDGE
 70
     3
  9
$SHADEDIF
 70
    70
  9
$TILEMODE
 70
     1
  9
$MAXACTVP
 70
    48
  9
$PLIMCHECK
 70
     0
  9
$PEXTMIN
 10
1.000000E+020
 20
1.000000E+020
 30
1.000000E+020
  9
$PEXTMAX
 10
-1.000000E+020
 20
-1.000000E+020
 30
-1.000000E+020
  9
$PLIMMIN
 10
0.0
 20
0.0
  9
$PLIMMAX
 10
12.0
 20
9.0
  9
$UNITMODE
 70
     0
  9
$VISRETAIN
 70
     1
  9
$PLINEGEN
 70
     0
  9
$PSLTSCALE
 70
     1
  0
ENDSEC
  0
SECTION
  2
TABLES
  0
TABLE
  2
VPORT
 70
     2
  0
VPORT
  2
*ACTIVE
 70
     0
 10
0.0
 20
0.0
 11
1.0
 21
1.0
 12
-13.549946
 22
-621.563528
 13
0.0
 23
0.0
 14
1.0
 24
1.0
 15
0.0
 25
0.0
 16
0.0
 26
0.0
 36
1.0
 17
0.0
 27
0.0
 37
0.0
 40
1964.766427
 41
2.827476
 42
50.0
 43
0.0
 44
0.0
 50
0.0
 51
0.0
 71
     0
 72
   100
 73
     1
 74
     1
 75
     0
 76
     0
 77
     0
 78
     0
  0
ENDTAB
  0
TABLE
  2
LTYPE
 70
     4
  0
LTYPE
  2
CONTINUOUS
 70
     0
  3
Solid line
 72
    65
 73
     0
 40
0.0
  0
LTYPE
  2
DASHED
 70
     0
  3
-- -- -- -- -- -- -- -- -- -- -- -- -- -- --
 72
    65
 73
     2
 40
0.75
 49
0.5
 49
-0.25
  0
LTYPE
  2
DASHDOT
 70
     0
  3
__ . __ . __ . __ . __ . __ . __ . __ . __ . __
 72
    65
 73
     4
 40
125.0
 49
80.0
 49
-20.0
 49
5.0
 49
-20.0
  0
LTYPE
  2
DIVIDE
 70
     0
  3
__ . . __ . . __ . . __ . . __ . . __ . . __
 72
    65
 73
     6
 40
1.25
 49
0.5
 49
-0.25
 49
0.0
 49
-0.25
 49
0.0
 49
-0.25
  0
ENDTAB
  0
TABLE
  2
LAYER
 70
    12
  0
LAYER
  2
0
 70
     0
 62
     3
  6
CONTINUOUS
  0
LAYER
  2
OUTLINE
 70
     0
 62
     3
  6
CONTINUOUS
  0
LAYER
  2
DETAIL
 70
     0
 62
     5
  6
CONTINUOUS
  0
LAYER
  2
BASIS
 70
     0
 62
     6
  6
CONTINUOUS
  0
LAYER
  2
SIZE
 70
     0
 62
    30
  6
CONTINUOUS
  0
LAYER
  2
NOTE
 70
     0
 62
     4
  6
CONTINUOUS
  0
LAYER
  2
ARRANGE
 70
     0
 62
     1
  6
CONTINUOUS
  0
LAYER
  2
FIX
 70
     0
 62
    11
  6
CONTINUOUS
  0
LAYER
  2
SERVICESPACE
 70
     0
 62
     2
  6
CONTINUOUS
  0
LAYER
  2
ETC
 70
     0
 62
    61
  6
CONTINUOUS
  0
LAYER
  2
SYMBOLLINE
 70
     0
 62
     7
  6
CONTINUOUS
  0
LAYER
  2
DEFPOINTS
 70
     0
 62
     7
  6
CONTINUOUS
  0
ENDTAB
  0
TABLE
  2
STYLE
 70
     5
  0
STYLE
  2
STANDARD
 70
     0
 40
0.0
 41
1.0
 50
0.0
 71
     0
 42
0.2
  3
txt
  4

  0
STYLE
  2
STANDARD1
 70
     0
 40
0.0
 41
1.0
 50
0.0
 71
     0
 42
7.0
  3
MONOTXT
  4
BIGFONT
  0
STYLE
  2
STANDARD2
 70
     4
 40
0.0
 41
1.0
 50
0.0
 71
     0
 42
7.0
  3
MONOTXT
  4
BIGFONT
  0
STYLE
  2
STANDARD3
 70
     0
 40
0.0
 41
1.0
 50
0.0
 71
     0
 42
7.0
  3
MONOTXT
  4

  0
STYLE
  2
STANDARD4
 70
     4
 40
0.0
 41
1.0
 50
0.0
 71
     0
 42
7.0
  3
MONOTXT
  4

  0
ENDTAB
  0
TABLE
  2
VIEW
 70
     0
  0
ENDTAB
  0
TABLE
  2
UCS
 70
     0
  0
ENDTAB
  0
TABLE
  2
APPID
 70
     1
  0
APPID
  2
ACAD
 70
     0
  0
ENDTAB
  0
TABLE
  2
DIMSTYLE
 70
     1
  0
DIMSTYLE
  2
STANDARD
 70
     0
  3

  4

  5

  6

  7

 40
1.0
 41
0.18
 42
0.0625
 43
0.38
 44
0.18
 45
0.0
 46
0.0
 47
0.0
 48
0.0
140
0.18
141
0.09
142
0.0
143
25.4
144
1.0
145
0.0
146
1.0
147
0.09
 71
     0
 72
     0
 73
     1
 74
     1
 75
     0
 76
     0
 77
     0
 78
     0
170
     0
171
     2
172
     0
173
     0
174
     0
175
     0
176
     0
177
     0
178
     0
  0
ENDTAB
  0
ENDSEC
  0
SECTION
  2
BLOCKS
  0
BLOCK
  8
0
  2
$MODEL_SPACE
 70
     0
 10
0.0
 20
0.0
 30
0.0
  3
$MODEL_SPACE
  1

  0
ENDBLK
  5
1A
  8
0
  0
BLOCK
 67
     1
  8
0
  2
$PAPER_SPACE
 70
     0
 10
0.0
 20
0.0
 30
0.0
  3
$PAPER_SPACE
  1

  0
ENDBLK
  5
17
 67
     1
  8
0
  0
BLOCK
  8
SIZE
  2
*D0
 70
     1
 10
0.0
 20
0.0
 30
0.0
  3
*D0
  1

  0
TEXT
  5
35
  8
SIZE
  6
CONTINUOUS
 10
183.059998
 20
-1038.999976
 30
0.0
 40
2.8
  1
142
 50
0.000003
 41
0.7
  7
STANDARD1
  0
LINE
  5
36
  8
SIZE
  6
CONTINUOUS
 10
115.0
 20
-746.0
 30
0.0
 11
115.0
 21
-1042.0
 31
0.0
  0
LINE
  5
37
  8
SIZE
  6
CONTINUOUS
 10
257.0
 20
-724.0
 30
0.0
 11
257.0
 21
-1042.0
 31
0.0
  0
LINE
  5
38
  8
SIZE
  6
CONTINUOUS
 10
115.0
 20
-1040.0
 30
0.0
 11
257.0
 21
-1040.0
 31
0.0
  0
INSERT
  5
3A
  8
SIZE
  2
DOT
 10
115.0
 20
-1040.0
 30
0.0
 50
180.0
  0
INSERT
  5
3B
  8
SIZE
  2
DOT
 10
257.0
 20
-1040.0
 30
0.0
  0
POINT
  5
3C
  8
DEFPOINTS
  6
BYBLOCK
 10
257.0
 20
-723.0
 30
0.0
  0
POINT
  5
3D
  8
DEFPOINTS
  6
BYBLOCK
 10
115.0
 20
-745.0
 30
0.0
  0
POINT
  5
3E
  8
DEFPOINTS
  6
BYBLOCK
 10
115.0
 20
-1040.0
 30
0.0
  0
ENDBLK
  5
3F
  8
SIZE
  0
BLOCK
  8
SIZE
  2
DOT
 70
     0
 10
0.0
 20
0.0
 30
0.0
  3
DOT
  1

  0
POLYLINE
  5
41
  8
0
  6
BYBLOCK
 66
     1
 10
0.0
 20
0.0
 30
0.0
 70
     1
 40
0.5
 41
0.5
  0
VERTEX
  5
42
  8
0
  6
BYBLOCK
 10
-0.25
 20
0.0
 30
0.0
 42
1.0
  0
VERTEX
  5
43
  8
0
  6
BYBLOCK
 10
0.25
 20
0.0
 30
0.0
 42
1.0
  0
SEQEND
  5
44
  8
0
  6
BYBLOCK
  0
LINE
  5
45
  8
0
  6
BYBLOCK
 10
-0.5
 20
0.0
 30
0.0
 11
-1.0
 21
0.0
 31
0.0
  0
ENDBLK
  5
46
  8
SIZE
  0
BLOCK
  8
SIZE
  2
*D2
 70
     1
 10
0.0
 20
0.0
 30
0.0
  3
*D2
  1

  0
TEXT
  5
49
  8
SIZE
  6
CONTINUOUS
 10
33.19447
 20
-1038.999976
 30
0.0
 40
2.8
  1
115
 50
0.000003
 41
0.7
  7
STANDARD1
  0
LINE
  5
4A
  8
SIZE
  6
CONTINUOUS
 10
0.0
 20
-841.0
 30
0.0
 11
0.0
 21
-1042.0
 31
0.0
  0
LINE
  5
4B
  8
SIZE
  6
CONTINUOUS
 10
115.0
 20
-746.0
 30
0.0
 11
115.0
 21
-1042.0
 31
0.0
  0
LINE
  5
4C
  8
SIZE
  6
CONTINUOUS
 10
0.0
 20
-1040.0
 30
0.0
 11
115.0
 21
-1040.0
 31
0.0
  0
INSERT
  5
4D
  8
SIZE
  2
DOT
 10
0.0
 20
-1040.0
 30
0.0
 50
180.0
  0
INSERT
  5
4E
  8
SIZE
  2
DOT
 10
115.0
 20
-1040.0
 30
0.0
  0
POINT
  5
4F
  8
DEFPOINTS
  6
BYBLOCK
 10
115.0
 20
-745.0
 30
0.0
  0
POINT
  5
50
  8
DEFPOINTS
  6
BYBLOCK
 10
0.0
 20
-840.0
 30
0.0
  0
POINT
  5
51
  8
DEFPOINTS
  6
BYBLOCK
 10
0.0
 20
-1040.0
 30
0.0
  0
ENDBLK
  5
52
  8
SIZE
  0
BLOCK
  8
SIZE
  2
*D3
 70
     1
 10
0.0
 20
0.0
 30
0.0
  3
*D3
  1

  0
TEXT
  5
55
  8
SIZE
  6
CONTINUOUS
 10
-147.728577
 20
-1038.999976
 30
0.0
 40
2.8
  1
189
 50
0.000003
 41
0.7
  7
STANDARD1
  0
LINE
  5
56
  8
SIZE
  6
CONTINUOUS
 10
-189.0
 20
-746.0
 30
0.0
 11
-189.0
 21
-1042.0
 31
0.0
  0
LINE
  5
57
  8
SIZE
  6
CONTINUOUS
 10
0.0
 20
-841.0
 30
0.0
 11
0.0
 21
-1042.0
 31
0.0
  0
LINE
  5
58
  8
SIZE
  6
CONTINUOUS
 10
-189.0
 20
-1040.0
 30
0.0
 11
0.0
 21
-1040.0
 31
0.0
  0
INSERT
  5
59
  8
SIZE
  2
DOT
 10
-189.0
 20
-1040.0
 30
0.0
 50
180.0
  0
INSERT
  5
5A
  8
SIZE
  2
DOT
 10
0.0
 20
-1040.0
 30
0.0
  0
POINT
  5
5B
  8
DEFPOINTS
  6
BYBLOCK
 10
0.0
 20
-840.0
 30
0.0
  0
POINT
  5
5C
  8
DEFPOINTS
  6
BYBLOCK
 10
-189.0
 20
-745.0
 30
0.0
  0
POINT
  5
5D
  8
DEFPOINTS
  6
BYBLOCK
 10
-189.0
 20
-1040.0
 30
0.0
  0
ENDBLK
  5
5E
  8
SIZE
  0
BLOCK
  8
SIZE
  2
*D4
 70
     1
 10
0.0
 20
0.0
 30
0.0
  3
*D4
  1

  0
TEXT
  5
61
  8
SIZE
  6
CONTINUOUS
 10
-61.439999
 20
-938.999976
 30
0.0
 40
2.8
  1
117
 50
0.000003
 41
0.7
  7
STANDARD1
  0
LINE
  5
62
  8
SIZE
  6
CONTINUOUS
 10
0.0
 20
-841.0
 30
0.0
 11
0.0
 21
-942.0
 31
0.0
  0
LINE
  5
63
  8
SIZE
  6
CONTINUOUS
 10
-117.0
 20
-746.0
 30
0.0
 11
-117.0
 21
-942.0
 31
0.0
  0
LINE
  5
64
  8
SIZE
  6
CONTINUOUS
 10
0.0
 20
-940.0
 30
0.0
 11
-117.0
 21
-940.0
 31
0.0
  0
INSERT
  5
65
  8
SIZE
  2
DOT
 10
0.0
 20
-940.0
 30
0.0
  0
INSERT
  5
66
  8
SIZE
  2
DOT
 10
-117.0
 20
-940.0
 30
0.0
 50
180.0
  0
POINT
  5
67
  8
DEFPOINTS
  6
BYBLOCK
 10
-117.0
 20
-745.0
 30
0.0
  0
POINT
  5
68
  8
DEFPOINTS
  6
BYBLOCK
 10
0.0
 20
-840.0
 30
0.0
  0
POINT
  5
69
  8
DEFPOINTS
  6
BYBLOCK
 10
0.0
 20
-940.0
 30
0.0
  0
ENDBLK
  5
6A
  8
SIZE
  0
BLOCK
  8
SIZE
  2
*D5
 70
     1
 10
0.0
 20
0.0
 30
0.0
  3
*D5
  1

  0
TEXT
  5
6D
  8
SIZE
  6
CONTINUOUS
 10
-127.182239
 20
-438.541322
 30
0.0
 40
2.8
  1
30°
 50
345.000006
 41
0.65625
  7
STANDARD1
  0
LINE
  5
6E
  8
SIZE
  6
CONTINUOUS
 10
-153.32309
 20
-630.813479
 30
0.0
 11
-48.999989
 21
-450.120575
 31
0.0
  0
LINE
  5
6F
  8
SIZE
  6
CONTINUOUS
 10
-195.0
 20
-610.0
 30
0.0
 11
-195.0
 21
-411.0
 31
0.0
  0
ARC
  5
70
  8
SIZE
  6
CONTINUOUS
 10
-195.0
 20
-703.0
 30
0.0
 40
271.999996
 50
59.999997
 51
90.0
  0
INSERT
  5
71
  8
SIZE
  2
DOT
 10
-58.999989
 20
-467.441101
 30
0.0
 50
329.999997
  0
INSERT
  5
72
  8
SIZE
  2
DOT
 10
-195.0
 20
-431.0
 30
0.0
 50
180.0
  0
POINT
  5
73
  8
DEFPOINTS
  6
BYBLOCK
 10
0.0
 20
0.0
 30
0.0
  0
POINT
  5
74
  8
DEFPOINTS
  6
BYBLOCK
 10
-195.0
 20
-703.0
 30
0.0
  0
POINT
  5
75
  8
DEFPOINTS
  6
BYBLOCK
 10
-153.82309
 20
-631.679504
 30
0.0
  0
POINT
  5
76
  8
DEFPOINTS
  6
BYBLOCK
 10
-195.0
 20
-611.0
 30
0.0
  0
POINT
  5
77
  8
DEFPOINTS
  6
BYBLOCK
 10
-124.601212
 20
-440.268177
 30
0.0
  0
ENDBLK
  5
78
  8
SIZE
  0
BLOCK
  8
SIZE
  2
*D6
 70
     1
 10
0.0
 20
0.0
 30
0.0
  3
*D6
  1

  0
TEXT
  5
7B
  8
SIZE
  6
CONTINUOUS
 10
-100.440002
 20
-329.585455
 30
0.0
 40
2.8
  1
195
 50
0.000003
 41
0.7
  7
STANDARD1
  0
LINE
  5
7C
  8
SIZE
  6
CONTINUOUS
 10
-195.0
 20
-610.0
 30
0.0
 11
-195.0
 21
-328.585449
 31
0.0
  0
LINE
  5
7D
  8
SIZE
  6
CONTINUOUS
 10
-195.0
 20
-330.585449
 30
0.0
 11
0.0
 21
-330.585449
 31
0.0
  0
INSERT
  5
7E
  8
SIZE
  2
DOT
 10
-195.0
 20
-330.585449
 30
0.0
 50
180.0
  0
INSERT
  5
7F
  8
SIZE
  2
DOT
 10
0.0
 20
-330.585449
 30
0.0
  0
POINT
  5
80
  8
DEFPOINTS
  6
BYBLOCK
 10
0.0
 20
-826.885254
 30
0.0
  0
POINT
  5
81
  8
DEFPOINTS
  6
BYBLOCK
 10
-195.0
 20
-611.0
 30
0.0
  0
POINT
  5
82
  8
DEFPOINTS
  6
BYBLOCK
 10
-195.0
 20
-330.585449
 30
0.0
  0
ENDBLK
  5
83
  8
SIZE
  0
BLOCK
  8
SIZE
  2
*D7
 70
     1
 10
0.0
 20
0.0
 30
0.0
  3
*D7
  1

  0
TEXT
  5
86
  8
SIZE
  6
CONTINUOUS
 10
-546.000024
 20
-667.460022
 30
0.0
 40
2.8
  1
69
 50
90.000005
 41
0.7
  7
STANDARD1
  0
LINE
  5
87
  8
SIZE
  6
CONTINUOUS
 10
-285.0
 20
-700.0
 30
0.0
 11
-547.0
 21
-700.0
 31
0.0
  0
LINE
  5
88
  8
SIZE
  6
CONTINUOUS
 10
-216.0
 20
-631.0
 30
0.0
 11
-547.0
 21
-631.0
 31
0.0
  0
LINE
  5
89
  8
SIZE
  6
CONTINUOUS
 10
-545.0
 20
-700.0
 30
0.0
 11
-545.0
 21
-631.0
 31
0.0
  0
INSERT
  5
8A
  8
SIZE
  2
DOT
 10
-545.0
 20
-700.0
 30
0.0
 50
270.0
  0
INSERT
  5
8B
  8
SIZE
  2
DOT
 10
-545.0
 20
-631.0
 30
0.0
 50
90.0
  0
POINT
  5
8C
  8
DEFPOINTS
  6
BYBLOCK
 10
-215.0
 20
-631.0
 30
0.0
  0
POINT
  5
8D
  8
DEFPOINTS
  6
BYBLOCK
 10
-284.0
 20
-700.0
 30
0.0
  0
POINT
  5
8E
  8
DEFPOINTS
  6
BYBLOCK
 10
-545.0
 20
-700.0
 30
0.0
  0
ENDBLK
  5
8F
  8
SIZE
  0
BLOCK
  8
SIZE
  2
*D8
 70
     1
 10
0.0
 20
0.0
 30
0.0
  3
*D8
  1

  0
TEXT
  5
92
  8
SIZE
  6
CONTINUOUS
 10
-170.883884
 20
-516.75162
 30
0.0
 40
2.8
  1
36
 50
330.000002
 41
0.7
  7
STANDARD1
  0
LINE
  5
93
  8
SIZE
  6
CONTINUOUS
 10
-194.5
 20
-630.133975
 30
0.0
 11
-138.999969
 21
-534.005127
 31
0.0
  0
LINE
  5
94
  8
SIZE
  6
CONTINUOUS
 10
-104.492943
 20
-556.237122
 30
0.0
 11
-172.596313
 21
-516.917664
 31
0.0
  0
INSERT
  5
95
  8
SIZE
  2
DOT
 10
-108.823074
 20
-553.737122
 30
0.0
 50
330.000026
  0
INSERT
  5
96
  8
SIZE
  2
DOT
 10
-139.999969
 20
-535.737122
 30
0.0
 50
149.99999
  0
POINT
  5
97
  8
DEFPOINTS
  6
BYBLOCK
 10
-195.0
 20
-631.0
 30
0.0
  0
POINT
  5
98
  8
DEFPOINTS
  6
BYBLOCK
 10
-153.82309
 20
-631.679504
 30
0.0
  0
POINT
  5
99
  8
DEFPOINTS
  6
BYBLOCK
 10
-108.823074
 20
-553.737122
 30
0.0
  0
ENDBLK
  5
9A
  8
SIZE
  0
BLOCK
  8
SIZE
  2
*D9
 70
     1
 10
0.0
 20
0.0
 30
0.0
  3
*D9
  1

  0
TEXT
  5
9D
  8
SIZE
  6
CONTINUOUS
 10
494.000006
 20
-757.841492
 30
0.0
 40
2.8
  1
87
 50
90.000005
 41
0.7
  7
STANDARD1
  0
LINE
  5
9E
  8
SIZE
  6
CONTINUOUS
 10
346.0
 20
-790.0
 30
0.0
 11
497.0
 21
-790.0
 31
0.0
  0
LINE
  5
9F
  8
SIZE
  6
CONTINUOUS
 10
278.0
 20
-703.0
 30
0.0
 11
497.0
 21
-703.0
 31
0.0
  0
LINE
  5
A0
  8
SIZE
  6
CONTINUOUS
 10
495.0
 20
-790.0
 30
0.0
 11
495.0
 21
-703.0
 31
0.0
  0
INSERT
  5
A1
  8
SIZE
  2
DOT
 10
495.0
 20
-790.0
 30
0.0
 50
270.0
  0
INSERT
  5
A2
  8
SIZE
  2
DOT
 10
495.0
 20
-703.0
 30
0.0
 50
90.0
  0
POINT
  5
A3
  8
DEFPOINTS
  6
BYBLOCK
 10
277.0
 20
-703.0
 30
0.0
  0
POINT
  5
A4
  8
DEFPOINTS
  6
BYBLOCK
 10
345.0
 20
-790.0
 30
0.0
  0
POINT
  5
A5
  8
DEFPOINTS
  6
BYBLOCK
 10
495.0
 20
-790.0
 30
0.0
  0
ENDBLK
  5
A6
  8
SIZE
  0
BLOCK
  8
SIZE
  2
*D10
 70
     1
 10
0.0
 20
0.0
 30
0.0
  3
*D10
  1

  0
TEXT
  5
A9
  8
SIZE
  6
CONTINUOUS
 10
793.999976
 20
-397.940002
 30
0.0
 40
2.8
  1
790
 50
90.000005
 41
0.7
  7
STANDARD1
  0
LINE
  5
AA
  8
SIZE
  6
CONTINUOUS
 10
346.0
 20
0.0
 30
0.0
 11
797.0
 21
0.0
 31
0.0
  0
LINE
  5
AB
  8
SIZE
  6
CONTINUOUS
 10
346.0
 20
-790.0
 30
0.0
 11
797.0
 21
-790.0
 31
0.0
  0
LINE
  5
AC
  8
SIZE
  6
CONTINUOUS
 10
795.0
 20
0.0
 30
0.0
 11
795.0
 21
-790.0
 31
0.0
  0
INSERT
  5
AD
  8
SIZE
  2
DOT
 10
795.0
 20
0.0
 30
0.0
 50
90.0
  0
INSERT
  5
AE
  8
SIZE
  2
DOT
 10
795.0
 20
-790.0
 30
0.0
 50
270.0
  0
POINT
  5
AF
  8
DEFPOINTS
  6
BYBLOCK
 10
345.0
 20
-790.0
 30
0.0
  0
POINT
  5
B0
  8
DEFPOINTS
  6
BYBLOCK
 10
345.0
 20
0.0
 30
0.0
  0
POINT
  5
B1
  8
DEFPOINTS
  6
BYBLOCK
 10
795.0
 20
0.0
 30
0.0
  0
ENDBLK
  5
B2
  8
SIZE
  0
BLOCK
  8
SIZE
  2
*D11
 70
     1
 10
0.0
 20
0.0
 30
0.0
  3
*D11
  1

  0
TEXT
  5
B5
  8
SIZE
  6
CONTINUOUS
 10
-2.94
 20
-1538.999976
 30
0.0
 40
2.8
  1
690
 50
0.000003
 41
0.7
  7
STANDARD1
  0
LINE
  5
B6
  8
SIZE
  6
CONTINUOUS
 10
-345.0
 20
-1391.0
 30
0.0
 11
-345.0
 21
-1542.0
 31
0.0
  0
LINE
  5
B7
  8
SIZE
  6
CONTINUOUS
 10
345.0
 20
-1391.0
 30
0.0
 11
345.0
 21
-1542.0
 31
0.0
  0
LINE
  5
B8
  8
SIZE
  6
CONTINUOUS
 10
-345.0
 20
-1540.0
 30
0.0
 11
345.0
 21
-1540.0
 31
0.0
  0
INSERT
  5
B9
  8
SIZE
  2
DOT
 10
-345.0
 20
-1540.0
 30
0.0
 50
180.0
  0
INSERT
  5
BA
  8
SIZE
  2
DOT
 10
345.0
 20
-1540.0
 30
0.0
  0
POINT
  5
BB
  8
DEFPOINTS
  6
BYBLOCK
 10
345.0
 20
-1390.0
 30
0.0
  0
POINT
  5
BC
  8
DEFPOINTS
  6
BYBLOCK
 10
-345.0
 20
-1390.0
 30
0.0
  0
POINT
  5
BD
  8
DEFPOINTS
  6
BYBLOCK
 10
-345.0
 20
-1540.0
 30
0.0
  0
ENDBLK
  5
BE
  8
SIZE
  0
BLOCK
  8
SIZE
  2
*D12
 70
     1
 10
0.0
 20
0.0
 30
0.0
  3
*D12
  1

  0
TEXT
  5
C1
  8
SIZE
  6
CONTINUOUS
 10
793.999976
 20
-1092.939941
 30
0.0
 40
2.8
  1
600
 50
90.000005
 41
0.7
  7
STANDARD1
  0
LINE
  5
C2
  8
SIZE
  6
CONTINUOUS
 10
346.0
 20
-790.0
 30
0.0
 11
797.0
 21
-790.0
 31
0.0
  0
LINE
  5
C3
  8
SIZE
  6
CONTINUOUS
 10
346.0
 20
-1390.0
 30
0.0
 11
797.0
 21
-1390.0
 31
0.0
  0
LINE
  5
C4
  8
SIZE
  6
CONTINUOUS
 10
795.0
 20
-790.0
 30
0.0
 11
795.0
 21
-1390.0
 31
0.0
  0
INSERT
  5
C5
  8
SIZE
  2
DOT
 10
795.0
 20
-790.0
 30
0.0
 50
90.0
  0
INSERT
  5
C6
  8
SIZE
  2
DOT
 10
795.0
 20
-1390.0
 30
0.0
 50
270.0
  0
POINT
  5
C7
  8
DEFPOINTS
  6
BYBLOCK
 10
345.0
 20
-1390.0
 30
0.0
  0
POINT
  5
C8
  8
DEFPOINTS
  6
BYBLOCK
 10
345.0
 20
-790.0
 30
0.0
  0
POINT
  5
C9
  8
DEFPOINTS
  6
BYBLOCK
 10
795.0
 20
-790.0
 30
0.0
  0
ENDBLK
  5
CA
  8
SIZE
  0
BLOCK
  8
SIZE
  2
*D13
 70
     1
 10
0.0
 20
0.0
 30
0.0
  3
*D13
  1

  0
TEXT
  5
CD
  8
SIZE
  6
CONTINUOUS
 10
270.040009
 20
101.000002
 30
0.0
 40
2.8
  1
94
 50
0.000003
 41
0.7
  7
STANDARD1
  0
LINE
  5
CE
  8
SIZE
  6
CONTINUOUS
 10
319.0
 20
-71.0
 30
0.0
 11
319.0
 21
102.0
 31
0.0
  0
LINE
  5
CF
  8
SIZE
  6
CONTINUOUS
 10
225.0
 20
-71.0
 30
0.0
 11
225.0
 21
102.0
 31
0.0
  0
LINE
  5
D0
  8
SIZE
  6
CONTINUOUS
 10
319.0
 20
100.0
 30
0.0
 11
225.0
 21
100.0
 31
0.0
  0
INSERT
  5
D1
  8
SIZE
  2
DOT
 10
319.0
 20
100.0
 30
0.0
  0
INSERT
  5
D2
  8
SIZE
  2
DOT
 10
225.0
 20
100.0
 30
0.0
 50
180.0
  0
POINT
  5
D3
  8
DEFPOINTS
  6
BYBLOCK
 10
225.0
 20
-72.0
 30
0.0
  0
POINT
  5
D4
  8
DEFPOINTS
  6
BYBLOCK
 10
319.0
 20
-72.0
 30
0.0
  0
POINT
  5
D5
  8
DEFPOINTS
  6
BYBLOCK
 10
319.0
 20
100.0
 30
0.0
  0
ENDBLK
  5
D6
  8
SIZE
  0
BLOCK
  8
SIZE
  2
*D14
 70
     1
 10
0.0
 20
0.0
 30
0.0
  3
*D14
  1

  0
TEXT
  5
D9
  8
SIZE
  6
CONTINUOUS
 10
-2.94
 20
101.000002
 30
0.0
 40
2.8
  1
450
 50
0.000003
 41
0.7
  7
STANDARD1
  0
LINE
  5
DA
  8
SIZE
  6
CONTINUOUS
 10
225.0
 20
-71.0
 30
0.0
 11
225.0
 21
102.0
 31
0.0
  0
LINE
  5
DB
  8
SIZE
  6
CONTINUOUS
 10
-225.0
 20
-71.0
 30
0.0
 11
-225.0
 21
102.0
 31
0.0
  0
LINE
  5
DC
  8
SIZE
  6
CONTINUOUS
 10
225.0
 20
100.0
 30
0.0
 11
-225.0
 21
100.0
 31
0.0
  0
INSERT
  5
DD
  8
SIZE
  2
DOT
 10
225.0
 20
100.0
 30
0.0
  0
INSERT
  5
DE
  8
SIZE
  2
DOT
 10
-225.0
 20
100.0
 30
0.0
 50
180.0
  0
POINT
  5
DF
  8
DEFPOINTS
  6
BYBLOCK
 10
-225.0
 20
-72.0
 30
0.0
  0
POINT
  5
E0
  8
DEFPOINTS
  6
BYBLOCK
 10
225.0
 20
-72.0
 30
0.0
  0
POINT
  5
E1
  8
DEFPOINTS
  6
BYBLOCK
 10
225.0
 20
100.0
 30
0.0
  0
ENDBLK
  5
E2
  8
SIZE
  0
BLOCK
  8
SIZE
  2
*D15
 70
     1
 10
0.0
 20
0.0
 30
0.0
  3
*D15
  1

  0
TEXT
  5
E5
  8
SIZE
  6
CONTINUOUS
 10
-273.959991
 20
101.000002
 30
0.0
 40
2.8
  1
94
 50
0.000003
 41
0.7
  7
STANDARD1
  0
LINE
  5
E6
  8
SIZE
  6
CONTINUOUS
 10
-225.0
 20
-71.0
 30
0.0
 11
-225.0
 21
102.0
 31
0.0
  0
LINE
  5
E7
  8
SIZE
  6
CONTINUOUS
 10
-319.0
 20
-85.0
 30
0.0
 11
-319.0
 21
102.0
 31
0.0
  0
LINE
  5
E8
  8
SIZE
  6
CONTINUOUS
 10
-225.0
 20
100.0
 30
0.0
 11
-319.0
 21
100.0
 31
0.0
  0
INSERT
  5
E9
  8
SIZE
  2
DOT
 10
-225.0
 20
100.0
 30
0.0
  0
INSERT
  5
EA
  8
SIZE
  2
DOT
 10
-319.0
 20
100.0
 30
0.0
 50
180.0
  0
POINT
  5
EB
  8
DEFPOINTS
  6
BYBLOCK
 10
-319.0
 20
-86.0
 30
0.0
  0
POINT
  5
EC
  8
DEFPOINTS
  6
BYBLOCK
 10
-225.0
 20
-72.0
 30
0.0
  0
POINT
  5
ED
  8
DEFPOINTS
  6
BYBLOCK
 10
-225.0
 20
100.0
 30
0.0
  0
ENDBLK
  5
EE
  8
SIZE
  0
BLOCK
  8
SIZE
  2
*D16
 70
     1
 10
0.0
 20
0.0
 30
0.0
  3
*D16
  1

  0
TEXT
  5
F1
  8
SIZE
  6
CONTINUOUS
 10
-2.94
 20
200.999994
 30
0.0
 40
2.8
  1
544
 50
0.000003
 41
0.7
  7
STANDARD1
  0
LINE
  5
F2
  8
SIZE
  6
CONTINUOUS
 10
-272.0
 20
-106.0
 30
0.0
 11
-272.0
 21
202.0
 31
0.0
  0
LINE
  5
F3
  8
SIZE
  6
CONTINUOUS
 10
272.0
 20
-106.0
 30
0.0
 11
272.0
 21
202.0
 31
0.0
  0
LINE
  5
F4
  8
SIZE
  6
CONTINUOUS
 10
-272.0
 20
200.0
 30
0.0
 11
272.0
 21
200.0
 31
0.0
  0
INSERT
  5
F5
  8
SIZE
  2
DOT
 10
-272.0
 20
200.0
 30
0.0
 50
180.0
  0
INSERT
  5
F6
  8
SIZE
  2
DOT
 10
272.0
 20
200.0
 30
0.0
  0
POINT
  5
F7
  8
DEFPOINTS
  6
BYBLOCK
 10
272.0
 20
-107.0
 30
0.0
  0
POINT
  5
F8
  8
DEFPOINTS
  6
BYBLOCK
 10
-272.0
 20
-107.0
 30
0.0
  0
POINT
  5
F9
  8
DEFPOINTS
  6
BYBLOCK
 10
-272.0
 20
200.0
 30
0.0
  0
ENDBLK
  5
FA
  8
SIZE
  0
BLOCK
  8
SIZE
  2
*D17
 70
     1
 10
0.0
 20
0.0
 30
0.0
  3
*D17
  1

  0
TEXT
  5
FD
  8
SIZE
  6
CONTINUOUS
 10
-2.94
 20
300.999994
 30
0.0
 40
2.8
  1
690
 50
0.000003
 41
0.7
  7
STANDARD1
  0
LINE
  5
FE
  8
SIZE
  6
CONTINUOUS
 10
345.0
 20
1.0
 30
0.0
 11
345.0
 21
302.0
 31
0.0
  0
LINE
  5
FF
  8
SIZE
  6
CONTINUOUS
 10
-345.0
 20
1.0
 30
0.0
 11
-345.0
 21
302.0
 31
0.0
  0
LINE
  5
100
  8
SIZE
  6
CONTINUOUS
 10
345.0
 20
300.0
 30
0.0
 11
-345.0
 21
300.0
 31
0.0
  0
INSERT
  5
101
  8
SIZE
  2
DOT
 10
345.0
 20
300.0
 30
0.0
  0
INSERT
  5
102
  8
SIZE
  2
DOT
 10
-345.0
 20
300.0
 30
0.0
 50
180.0
  0
POINT
  5
103
  8
DEFPOINTS
  6
BYBLOCK
 10
-345.0
 20
0.0
 30
0.0
  0
POINT
  5
104
  8
DEFPOINTS
  6
BYBLOCK
 10
345.0
 20
0.0
 30
0.0
  0
POINT
  5
105
  8
DEFPOINTS
  6
BYBLOCK
 10
345.0
 20
300.0
 30
0.0
  0
ENDBLK
  5
106
  8
SIZE
  0
BLOCK
  8
SIZE
  2
*D18
 70
     1
 10
0.0
 20
0.0
 30
0.0
  3
*D18
  1

  0
TEXT
  5
109
  8
SIZE
  6
CONTINUOUS
 10
-546.000024
 20
-746.960022
 30
0.0
 40
2.8
  1
90
 50
90.000005
 41
0.7
  7
STANDARD1
  0
LINE
  5
10A
  8
SIZE
  6
CONTINUOUS
 10
-285.0
 20
-700.0
 30
0.0
 11
-547.0
 21
-700.0
 31
0.0
  0
LINE
  5
10B
  8
SIZE
  6
CONTINUOUS
 10
-346.0
 20
-790.0
 30
0.0
 11
-547.0
 21
-790.0
 31
0.0
  0
LINE
  5
10C
  8
SIZE
  6
CONTINUOUS
 10
-545.0
 20
-700.0
 30
0.0
 11
-545.0
 21
-790.0
 31
0.0
  0
INSERT
  5
10D
  8
SIZE
  2
DOT
 10
-545.0
 20
-700.0
 30
0.0
 50
90.0
  0
INSERT
  5
10E
  8
SIZE
  2
DOT
 10
-545.0
 20
-790.0
 30
0.0
 50
270.0
  0
POINT
  5
10F
  8
DEFPOINTS
  6
BYBLOCK
 10
-345.0
 20
-790.0
 30
0.0
  0
POINT
  5
110
  8
DEFPOINTS
  6
BYBLOCK
 10
-284.0
 20
-700.0
 30
0.0
  0
POINT
  5
111
  8
DEFPOINTS
  6
BYBLOCK
 10
-545.0
 20
-700.0
 30
0.0
  0
ENDBLK
  5
112
  8
SIZE
  0
BLOCK
  8
SIZE
  2
*D19
 70
     1
 10
0.0
 20
0.0
 30
0.0
  3
*D19
  1

  0
TEXT
  5
115
  8
SIZE
  6
CONTINUOUS
 10
-228.460007
 20
-1038.999976
 30
0.0
 40
2.8
  1
75
 50
0.000003
 41
0.7
  7
STANDARD1
  0
LINE
  5
116
  8
SIZE
  6
CONTINUOUS
 10
-189.0
 20
-746.0
 30
0.0
 11
-189.0
 21
-1042.0
 31
0.0
  0
LINE
  5
117
  8
SIZE
  6
CONTINUOUS
 10
-264.0
 20
-721.0
 30
0.0
 11
-264.0
 21
-1042.0
 31
0.0
  0
LINE
  5
118
  8
SIZE
  6
CONTINUOUS
 10
-189.0
 20
-1040.0
 30
0.0
 11
-264.0
 21
-1040.0
 31
0.0
  0
INSERT
  5
119
  8
SIZE
  2
DOT
 10
-189.0
 20
-1040.0
 30
0.0
  0
INSERT
  5
11A
  8
SIZE
  2
DOT
 10
-264.0
 20
-1040.0
 30
0.0
 50
180.0
  0
POINT
  5
11B
  8
DEFPOINTS
  6
BYBLOCK
 10
-264.0
 20
-720.0
 30
0.0
  0
POINT
  5
11C
  8
DEFPOINTS
  6
BYBLOCK
 10
-189.0
 20
-745.0
 30
0.0
  0
POINT
  5
11D
  8
DEFPOINTS
  6
BYBLOCK
 10
-189.0
 20
-1040.0
 30
0.0
  0
ENDBLK
  5
11E
  8
SIZE
  0
BLOCK
  8
SIZE
  2
*D20
 70
     1
 10
0.0
 20
0.0
 30
0.0
  3
*D20
  1

  0
TEXT
  5
121
  8
SIZE
  6
CONTINUOUS
 10
-306.459991
 20
-1038.999976
 30
0.0
 40
2.8
  1
81
 50
0.000003
 41
0.7
  7
STANDARD1
  0
LINE
  5
122
  8
SIZE
  6
CONTINUOUS
 10
-264.0
 20
-721.0
 30
0.0
 11
-264.0
 21
-1042.0
 31
0.0
  0
LINE
  5
123
  8
SIZE
  6
CONTINUOUS
 10
-264.0
 20
-1040.0
 30
0.0
 11
-345.0
 21
-1040.0
 31
0.0
  0
INSERT
  5
124
  8
SIZE
  2
DOT
 10
-264.0
 20
-1040.0
 30
0.0
  0
INSERT
  5
125
  8
SIZE
  2
DOT
 10
-345.0
 20
-1040.0
 30
0.0
 50
180.0
  0
POINT
  5
126
  8
DEFPOINTS
  6
BYBLOCK
 10
-345.0
 20
-790.0
 30
0.0
  0
POINT
  5
127
  8
DEFPOINTS
  6
BYBLOCK
 10
-264.0
 20
-720.0
 30
0.0
  0
POINT
  5
128
  8
DEFPOINTS
  6
BYBLOCK
 10
-264.0
 20
-1040.0
 30
0.0
  0
ENDBLK
  5
129
  8
SIZE
  0
BLOCK
  8
SIZE
  2
*D21
 70
     1
 10
0.0
 20
0.0
 30
0.0
  3
*D21
  1

  0
TEXT
  5
12C
  8
SIZE
  6
CONTINUOUS
 10
593.999976
 20
-759.460022
 30
0.0
 40
2.8
  1
65
 50
90.000005
 41
0.7
  7
STANDARD1
  0
LINE
  5
12D
  8
SIZE
  6
CONTINUOUS
 10
136.0
 20
-725.0
 30
0.0
 11
597.0
 21
-725.0
 31
0.0
  0
LINE
  5
12E
  8
SIZE
  6
CONTINUOUS
 10
346.0
 20
-790.0
 30
0.0
 11
597.0
 21
-790.0
 31
0.0
  0
LINE
  5
12F
  8
SIZE
  6
CONTINUOUS
 10
595.0
 20
-725.0
 30
0.0
 11
595.0
 21
-790.0
 31
0.0
  0
INSERT
  5
130
  8
SIZE
  2
DOT
 10
595.0
 20
-725.0
 30
0.0
 50
90.0
  0
INSERT
  5
131
  8
SIZE
  2
DOT
 10
595.0
 20
-790.0
 30
0.0
 50
270.0
  0
POINT
  5
132
  8
DEFPOINTS
  6
BYBLOCK
 10
345.0
 20
-790.0
 30
0.0
  0
POINT
  5
133
  8
DEFPOINTS
  6
BYBLOCK
 10
135.0
 20
-725.0
 30
0.0
  0
POINT
  5
134
  8
DEFPOINTS
  6
BYBLOCK
 10
595.0
 20
-725.0
 30
0.0
  0
ENDBLK
  5
135
  8
SIZE
  0
BLOCK
  8
SIZE
  2
*D22
 70
     1
 10
0.0
 20
0.0
 30
0.0
  3
*D22
  1

  0
TEXT
  5
138
  8
SIZE
  6
CONTINUOUS
 10
693.999976
 20
-747.960022
 30
0.0
 40
2.8
  1
88
 50
90.000005
 41
0.7
  7
STANDARD1
  0
LINE
  5
139
  8
SIZE
  6
CONTINUOUS
 10
21.0
 20
-702.0
 30
0.0
 11
697.0
 21
-702.0
 31
0.0
  0
LINE
  5
13A
  8
SIZE
  6
CONTINUOUS
 10
346.0
 20
-790.0
 30
0.0
 11
697.0
 21
-790.0
 31
0.0
  0
LINE
  5
13B
  8
SIZE
  6
CONTINUOUS
 10
695.0
 20
-702.0
 30
0.0
 11
695.0
 21
-790.0
 31
0.0
  0
INSERT
  5
13C
  8
SIZE
  2
DOT
 10
695.0
 20
-702.0
 30
0.0
 50
90.0
  0
INSERT
  5
13D
  8
SIZE
  2
DOT
 10
695.0
 20
-790.0
 30
0.0
 50
270.0
  0
POINT
  5
13E
  8
DEFPOINTS
  6
BYBLOCK
 10
345.0
 20
-790.0
 30
0.0
  0
POINT
  5
13F
  8
DEFPOINTS
  6
BYBLOCK
 10
20.0
 20
-702.0
 30
0.0
  0
POINT
  5
140
  8
DEFPOINTS
  6
BYBLOCK
 10
695.0
 20
-702.0
 30
0.0
  0
ENDBLK
  5
141
  8
SIZE
  0
BLOCK
  8
SIZE
  2
*D23
 70
     1
 10
0.0
 20
0.0
 30
0.0
  3
*D23
  1

  0
TEXT
  5
144
  8
SIZE
  6
CONTINUOUS
 10
593.999976
 20
-417.440002
 30
0.0
 40
2.8
  1
575
 50
90.000005
 41
0.7
  7
STANDARD1
  0
LINE
  5
145
  8
SIZE
  6
CONTINUOUS
 10
21.0
 20
-702.0
 30
0.0
 11
597.0
 21
-702.0
 31
0.0
  0
LINE
  5
146
  8
SIZE
  6
CONTINUOUS
 10
293.0
 20
-127.0
 30
0.0
 11
597.0
 21
-127.0
 31
0.0
  0
LINE
  5
147
  8
SIZE
  6
CONTINUOUS
 10
595.0
 20
-702.0
 30
0.0
 11
595.0
 21
-127.0
 31
0.0
  0
INSERT
  5
148
  8
SIZE
  2
DOT
 10
595.0
 20
-702.0
 30
0.0
 50
270.0
  0
INSERT
  5
149
  8
SIZE
  2
DOT
 10
595.0
 20
-127.0
 30
0.0
 50
90.0
  0
POINT
  5
14A
  8
DEFPOINTS
  6
BYBLOCK
 10
292.0
 20
-127.0
 30
0.0
  0
POINT
  5
14B
  8
DEFPOINTS
  6
BYBLOCK
 10
20.0
 20
-702.0
 30
0.0
  0
POINT
  5
14C
  8
DEFPOINTS
  6
BYBLOCK
 10
595.0
 20
-702.0
 30
0.0
  0
ENDBLK
  5
14D
  8
SIZE
  0
BLOCK
  8
SIZE
  2
*D24
 70
     1
 10
0.0
 20
0.0
 30
0.0
  3
*D24
  1

  0
TEXT
  5
150
  8
SIZE
  6
CONTINUOUS
 10
693.999976
 20
-399.940002
 30
0.0
 40
2.8
  1
610
 50
90.000005
 41
0.7
  7
STANDARD1
  0
LINE
  5
151
  8
SIZE
  6
CONTINUOUS
 10
340.0
 20
-92.0
 30
0.0
 11
697.0
 21
-92.0
 31
0.0
  0
LINE
  5
152
  8
SIZE
  6
CONTINUOUS
 10
21.0
 20
-702.0
 30
0.0
 11
697.0
 21
-702.0
 31
0.0
  0
LINE
  5
153
  8
SIZE
  6
CONTINUOUS
 10
695.0
 20
-92.0
 30
0.0
 11
695.0
 21
-702.0
 31
0.0
  0
INSERT
  5
154
  8
SIZE
  2
DOT
 10
695.0
 20
-92.0
 30
0.0
 50
90.0
  0
INSERT
  5
155
  8
SIZE
  2
DOT
 10
695.0
 20
-702.0
 30
0.0
 50
270.0
  0
POINT
  5
156
  8
DEFPOINTS
  6
BYBLOCK
 10
20.0
 20
-702.0
 30
0.0
  0
POINT
  5
157
  8
DEFPOINTS
  6
BYBLOCK
 10
339.0
 20
-92.0
 30
0.0
  0
POINT
  5
158
  8
DEFPOINTS
  6
BYBLOCK
 10
695.0
 20
-92.0
 30
0.0
  0
ENDBLK
  5
159
  8
SIZE
  0
BLOCK
  8
SIZE
  2
*D25
 70
     1
 10
0.0
 20
0.0
 30
0.0
  3
*D25
  1

  0
TEXT
  5
15C
  8
SIZE
  6
CONTINUOUS
 10
693.999976
 20
-47.959999
 30
0.0
 40
2.8
  1
92
 50
90.000005
 41
0.7
  7
STANDARD1
  0
LINE
  5
15D
  8
SIZE
  6
CONTINUOUS
 10
340.0
 20
-92.0
 30
0.0
 11
697.0
 21
-92.0
 31
0.0
  0
LINE
  5
15E
  8
SIZE
  6
CONTINUOUS
 10
346.0
 20
0.0
 30
0.0
 11
697.0
 21
0.0
 31
0.0
  0
LINE
  5
15F
  8
SIZE
  6
CONTINUOUS
 10
695.0
 20
-92.0
 30
0.0
 11
695.0
 21
0.0
 31
0.0
  0
INSERT
  5
160
  8
SIZE
  2
DOT
 10
695.0
 20
-92.0
 30
0.0
 50
270.0
  0
INSERT
  5
161
  8
SIZE
  2
DOT
 10
695.0
 20
0.0
 30
0.0
 50
90.0
  0
POINT
  5
162
  8
DEFPOINTS
  6
BYBLOCK
 10
345.0
 20
0.0
 30
0.0
  0
POINT
  5
163
  8
DEFPOINTS
  6
BYBLOCK
 10
339.0
 20
-92.0
 30
0.0
  0
POINT
  5
164
  8
DEFPOINTS
  6
BYBLOCK
 10
695.0
 20
-92.0
 30
0.0
  0
ENDBLK
  5
165
  8
SIZE
  0
BLOCK
  8
SIZE
  2
*D26
 70
     1
 10
0.0
 20
0.0
 30
0.0
  3
*D26
  1

  0
TEXT
  5
168
  8
SIZE
  6
CONTINUOUS
 10
593.999976
 20
-54.950546
 30
0.0
 40
2.8
  1
127
 50
90.000005
 41
0.7
  7
STANDARD1
  0
LINE
  5
169
  8
SIZE
  6
CONTINUOUS
 10
293.0
 20
-127.0
 30
0.0
 11
597.0
 21
-127.0
 31
0.0
  0
LINE
  5
16A
  8
SIZE
  6
CONTINUOUS
 10
346.0
 20
0.0
 30
0.0
 11
597.0
 21
0.0
 31
0.0
  0
LINE
  5
16B
  8
SIZE
  6
CONTINUOUS
 10
595.0
 20
-127.0
 30
0.0
 11
595.0
 21
0.0
 31
0.0
  0
INSERT
  5
16C
  8
SIZE
  2
DOT
 10
595.0
 20
-127.0
 30
0.0
 50
270.0
  0
INSERT
  5
16D
  8
SIZE
  2
DOT
 10
595.0
 20
0.0
 30
0.0
 50
90.0
  0
POINT
  5
16E
  8
DEFPOINTS
  6
BYBLOCK
 10
345.0
 20
0.0
 30
0.0
  0
POINT
  5
16F
  8
DEFPOINTS
  6
BYBLOCK
 10
292.0
 20
-127.0
 30
0.0
  0
POINT
  5
170
  8
DEFPOINTS
  6
BYBLOCK
 10
595.0
 20
-127.0
 30
0.0
  0
ENDBLK
  5
171
  8
SIZE
  0
BLOCK
  8
SIZE
  2
*D27
 70
     1
 10
0.0
 20
0.0
 30
0.0
  3
*D27
  1

  0
TEXT
  5
174
  8
SIZE
  6
CONTINUOUS
 10
-57.500002
 20
-759.460022
 30
0.0
 40
2.8
  1
65
 50
90.000005
 41
0.7
  7
STANDARD1
  0
LINE
  5
175
  8
SIZE
  6
CONTINUOUS
 10
-96.0
 20
-725.0
 30
0.0
 11
-54.5
 21
-725.0
 31
0.0
  0
LINE
  5
176
  8
SIZE
  6
CONTINUOUS
 10
-56.5
 20
-725.0
 30
0.0
 11
-56.5
 21
-790.0
 31
0.0
  0
INSERT
  5
177
  8
SIZE
  2
DOT
 10
-56.5
 20
-725.0
 30
0.0
 50
90.0
  0
INSERT
  5
178
  8
SIZE
  2
DOT
 10
-56.5
 20
-790.0
 30
0.0
 50
270.0
  0
POINT
  5
179
  8
DEFPOINTS
  6
BYBLOCK
 10
-345.0
 20
-790.0
 30
0.0
  0
POINT
  5
17A
  8
DEFPOINTS
  6
BYBLOCK
 10
-97.0
 20
-725.0
 30
0.0
  0
POINT
  5
17B
  8
DEFPOINTS
  6
BYBLOCK
 10
-56.5
 20
-725.0
 30
0.0
  0
ENDBLK
  5
17C
  8
SIZE
  0
BLOCK
  8
SIZE
  2
*D28
 70
     1
 10
0.0
 20
0.0
 30
0.0
  3
*D28
  1

  0
TEXT
  5
17F
  8
SIZE
  6
CONTINUOUS
 10
-445.999994
 20
-757.627685
 30
0.0
 40
2.8
  1
65
 50
90.000005
 41
0.7
  7
STANDARD1
  0
LINE
  5
180
  8
SIZE
  6
CONTINUOUS
 10
-210.0
 20
-725.0
 30
0.0
 11
-447.0
 21
-725.0
 31
0.0
  0
LINE
  5
181
  8
SIZE
  6
CONTINUOUS
 10
-445.0
 20
-725.0
 30
0.0
 11
-445.0
 21
-790.0
 31
0.0
  0
INSERT
  5
182
  8
SIZE
  2
DOT
 10
-445.0
 20
-725.0
 30
0.0
 50
90.0
  0
INSERT
  5
183
  8
SIZE
  2
DOT
 10
-445.0
 20
-790.0
 30
0.0
 50
270.0
  0
POINT
  5
184
  8
DEFPOINTS
  6
BYBLOCK
 10
-345.0
 20
-790.0
 30
0.0
  0
POINT
  5
185
  8
DEFPOINTS
  6
BYBLOCK
 10
-209.0
 20
-725.0
 30
0.0
  0
POINT
  5
186
  8
DEFPOINTS
  6
BYBLOCK
 10
-445.0
 20
-725.0
 30
0.0
  0
ENDBLK
  5
187
  8
SIZE
  0
BLOCK
  8
0
  2
_ORIGIN
 70
     0
 10
0.0
 20
0.0
 30
0.0
  3
_ORIGIN
  1

  0
CIRCLE
  5
18A
  8
0
  6
BYBLOCK
 62
     0
 10
0.0
 20
0.0
 30
0.0
 40
0.5
  0
LINE
  5
18B
  8
0
  6
BYBLOCK
 62
     0
 10
0.0
 20
0.0
 30
0.0
 11
-1.0
 21
0.0
 31
0.0
  0
ENDBLK
  5
18C
  8
0
  0
BLOCK
  8
0
  2
*D30
 70
     1
 10
0.0
 20
0.0
 30
0.0
  3
*D30
  1

  0
LINE
  5
18F
  8
0
  6
BYBLOCK
 62
     0
 10
-355.0
 20
-790.0
 30
0.0
 11
-459.9
 21
-790.0
 31
0.0
  0
LINE
  5
190
  8
0
  6
BYBLOCK
 62
     0
 10
-219.0
 20
-725.0
 30
0.0
 11
-459.9
 21
-725.0
 31
0.0
  0
LINE
  5
191
  8
0
  6
BYBLOCK
 62
     0
 10
-447.4
 20
-780.0
 30
0.0
 11
-447.4
 21
-735.0
 31
0.0
  0
INSERT
  5
192
  8
0
  6
BYBLOCK
 62
     0
  2
_ORIGIN
 10
-447.4
 20
-790.0
 30
0.0
 41
10.0
 42
10.0
 43
10.0
 50
270.0
  0
INSERT
  5
193
  8
0
  6
BYBLOCK
 62
     0
  2
_ORIGIN
 10
-447.4
 20
-725.0
 30
0.0
 41
10.0
 42
10.0
 43
10.0
 50
90.0
  0
TEXT
  5
194
  8
0
  6
BYBLOCK
 62
     0
 10
-457.4
 20
-782.5
 30
0.0
 40
30.0
  1
65
 50
90.0
 72
     1
 11
-457.4
 21
-757.5
 31
0.0
  0
POINT
  5
195
  8
DEFPOINTS
  6
BYBLOCK
 62
     0
 10
-345.0
 20
-790.0
 30
0.0
  0
POINT
  5
196
  8
DEFPOINTS
  6
BYBLOCK
 62
     0
 10
-209.0
 20
-725.0
 30
0.0
  0
POINT
  5
197
  8
DEFPOINTS
  6
BYBLOCK
 62
     0
 10
-447.4
 20
-725.0
 30
0.0
  0
ENDBLK
  5
198
  8
0
  0
BLOCK
  8
0
  2
*D31
 70
     1
 10
0.0
 20
0.0
 30
0.0
  3
*D31
  1

  0
LINE
  5
19B
  8
0
  6
BYBLOCK
 62
     0
 10
-335.0
 20
-790.0
 30
0.0
 11
-46.4
 21
-790.0
 31
0.0
  0
LINE
  5
19C
  8
0
  6
BYBLOCK
 62
     0
 10
-87.0
 20
-725.0
 30
0.0
 11
-46.4
 21
-725.0
 31
0.0
  0
LINE
  5
19D
  8
0
  6
BYBLOCK
 62
     0
 10
-58.9
 20
-780.0
 30
0.0
 11
-58.9
 21
-735.0
 31
0.0
  0
INSERT
  5
19E
  8
0
  6
BYBLOCK
 62
     0
  2
_ORIGIN
 10
-58.9
 20
-790.0
 30
0.0
 41
10.0
 42
10.0
 43
10.0
 50
270.0
  0
INSERT
  5
19F
  8
0
  6
BYBLOCK
 62
     0
  2
_ORIGIN
 10
-58.9
 20
-725.0
 30
0.0
 41
10.0
 42
10.0
 43
10.0
 50
90.0
  0
TEXT
  5
1A0
  8
0
  6
BYBLOCK
 62
     0
 10
-68.9
 20
-782.5
 30
0.0
 40
30.0
  1
65
 50
90.0
 72
     1
 11
-68.9
 21
-757.5
 31
0.0
  0
POINT
  5
1A1
  8
DEFPOINTS
  6
BYBLOCK
 62
     0
 10
-345.0
 20
-790.0
 30
0.0
  0
POINT
  5
1A2
  8
DEFPOINTS
  6
BYBLOCK
 62
     0
 10
-97.0
 20
-725.0
 30
0.0
  0
POINT
  5
1A3
  8
DEFPOINTS
  6
BYBLOCK
 62
     0
 10
-58.9
 20
-725.0
 30
0.0
  0
ENDBLK
  5
1A4
  8
0
  0
BLOCK
  8
0
  2
*D32
 70
     1
 10
0.0
 20
0.0
 30
0.0
  3
*D32
  1

  0
LINE
  5
1A7
  8
0
  6
BYBLOCK
 62
     0
 10
355.0
 20
0.0
 30
0.0
 11
605.1
 21
0.0
 31
0.0
  0
LINE
  5
1A8
  8
0
  6
BYBLOCK
 62
     0
 10
302.0
 20
-127.0
 30
0.0
 11
605.1
 21
-127.0
 31
0.0
  0
LINE
  5
1A9
  8
0
  6
BYBLOCK
 62
     0
 10
592.6
 20
-10.0
 30
0.0
 11
592.6
 21
-117.0
 31
0.0
  0
INSERT
  5
1AA
  8
0
  6
BYBLOCK
 62
     0
  2
_ORIGIN
 10
592.6
 20
0.0
 30
0.0
 41
10.0
 42
10.0
 43
10.0
 50
90.0
  0
INSERT
  5
1AB
  8
0
  6
BYBLOCK
 62
     0
  2
_ORIGIN
 10
592.6
 20
-127.0
 30
0.0
 41
10.0
 42
10.0
 43
10.0
 50
270.0
  0
TEXT
  5
1AC
  8
0
  6
BYBLOCK
 62
     0
 10
582.6
 20
-87.010548
 30
0.0
 40
30.0
  1
127
 50
90.0
 72
     1
 11
582.6
 21
-52.010548
 31
0.0
  0
POINT
  5
1AD
  8
DEFPOINTS
  6
BYBLOCK
 62
     0
 10
345.0
 20
0.0
 30
0.0
  0
POINT
  5
1AE
  8
DEFPOINTS
  6
BYBLOCK
 62
     0
 10
292.0
 20
-127.0
 30
0.0
  0
POINT
  5
1AF
  8
DEFPOINTS
  6
BYBLOCK
 62
     0
 10
592.6
 20
-127.0
 30
0.0
  0
ENDBLK
  5
1B0
  8
0
  0
BLOCK
  8
0
  2
*D33
 70
     1
 10
0.0
 20
0.0
 30
0.0
  3
*D33
  1

  0
LINE
  5
1B3
  8
0
  6
BYBLOCK
 62
     0
 10
355.0
 20
0.0
 30
0.0
 11
705.1
 21
0.0
 31
0.0
  0
LINE
  5
1B4
  8
0
  6
BYBLOCK
 62
     0
 10
349.0
 20
-92.0
 30
0.0
 11
705.1
 21
-92.0
 31
0.0
  0
LINE
  5
1B5
  8
0
  6
BYBLOCK
 62
     0
 10
692.6
 20
-10.0
 30
0.0
 11
692.6
 21
-82.0
 31
0.0
  0
INSERT
  5
1B6
  8
0
  6
BYBLOCK
 62
     0
  2
_ORIGIN
 10
692.6
 20
0.0
 30
0.0
 41
10.0
 42
10.0
 43
10.0
 50
90.0
  0
INSERT
  5
1B7
  8
0
  6
BYBLOCK
 62
     0
  2
_ORIGIN
 10
692.6
 20
-92.0
 30
0.0
 41
10.0
 42
10.0
 43
10.0
 50
270.0
  0
TEXT
  5
1B8
  8
0
  6
BYBLOCK
 62
     0
 10
682.6
 20
-71.0
 30
0.0
 40
30.0
  1
92
 50
90.0
 72
     1
 11
682.6
 21
-46.0
 31
0.0
  0
POINT
  5
1B9
  8
DEFPOINTS
  6
BYBLOCK
 62
     0
 10
345.0
 20
0.0
 30
0.0
  0
POINT
  5
1BA
  8
DEFPOINTS
  6
BYBLOCK
 62
     0
 10
339.0
 20
-92.0
 30
0.0
  0
POINT
  5
1BB
  8
DEFPOINTS
  6
BYBLOCK
 62
     0
 10
692.6
 20
-92.0
 30
0.0
  0
ENDBLK
  5
1BC
  8
0
  0
BLOCK
  8
0
  2
*D34
 70
     1
 10
0.0
 20
0.0
 30
0.0
  3
*D34
  1

  0
LINE
  5
1BF
  8
0
  6
BYBLOCK
 62
     0
 10
30.0
 20
-702.0
 30
0.0
 11
705.1
 21
-702.0
 31
0.0
  0
LINE
  5
1C0
  8
0
  6
BYBLOCK
 62
     0
 10
349.0
 20
-92.0
 30
0.0
 11
705.1
 21
-92.0
 31
0.0
  0
LINE
  5
1C1
  8
0
  6
BYBLOCK
 62
     0
 10
692.6
 20
-692.0
 30
0.0
 11
692.6
 21
-102.0
 31
0.0
  0
INSERT
  5
1C2
  8
0
  6
BYBLOCK
 62
     0
  2
_ORIGIN
 10
692.6
 20
-702.0
 30
0.0
 41
10.0
 42
10.0
 43
10.0
 50
270.0
  0
INSERT
  5
1C3
  8
0
  6
BYBLOCK
 62
     0
  2
_ORIGIN
 10
692.6
 20
-92.0
 30
0.0
 41
10.0
 42
10.0
 43
10.0
 50
90.0
  0
TEXT
  5
1C4
  8
0
  6
BYBLOCK
 62
     0
 10
682.6
 20
-429.5
 30
0.0
 40
30.0
  1
610
 50
90.0
 72
     1
 11
682.6
 21
-397.0
 31
0.0
  0
POINT
  5
1C5
  8
DEFPOINTS
  6
BYBLOCK
 62
     0
 10
20.0
 20
-702.0
 30
0.0
  0
POINT
  5
1C6
  8
DEFPOINTS
  6
BYBLOCK
 62
     0
 10
339.0
 20
-92.0
 30
0.0
  0
POINT
  5
1C7
  8
DEFPOINTS
  6
BYBLOCK
 62
     0
 10
692.6
 20
-92.0
 30
0.0
  0
ENDBLK
  5
1C8
  8
0
  0
BLOCK
  8
0
  2
*D35
 70
     1
 10
0.0
 20
0.0
 30
0.0
  3
*D35
  1

  0
LINE
  5
1CB
  8
0
  6
BYBLOCK
 62
     0
 10
302.0
 20
-127.0
 30
0.0
 11
605.1
 21
-127.0
 31
0.0
  0
LINE
  5
1CC
  8
0
  6
BYBLOCK
 62
     0
 10
30.0
 20
-702.0
 30
0.0
 11
605.1
 21
-702.0
 31
0.0
  0
LINE
  5
1CD
  8
0
  6
BYBLOCK
 62
     0
 10
592.6
 20
-137.0
 30
0.0
 11
592.6
 21
-692.0
 31
0.0
  0
INSERT
  5
1CE
  8
0
  6
BYBLOCK
 62
     0
  2
_ORIGIN
 10
592.6
 20
-127.0
 30
0.0
 41
10.0
 42
10.0
 43
10.0
 50
90.0
  0
INSERT
  5
1CF
  8
0
  6
BYBLOCK
 62
     0
  2
_ORIGIN
 10
592.6
 20
-702.0
 30
0.0
 41
10.0
 42
10.0
 43
10.0
 50
270.0
  0
TEXT
  5
1D0
  8
0
  6
BYBLOCK
 62
     0
 10
582.6
 20
-454.5
 30
0.0
 40
30.0
  1
575
 50
90.0
 72
     1
 11
582.6
 21
-414.5
 31
0.0
  0
POINT
  5
1D1
  8
DEFPOINTS
  6
BYBLOCK
 62
     0
 10
292.0
 20
-127.0
 30
0.0
  0
POINT
  5
1D2
  8
DEFPOINTS
  6
BYBLOCK
 62
     0
 10
20.0
 20
-702.0
 30
0.0
  0
POINT
  5
1D3
  8
DEFPOINTS
  6
BYBLOCK
 62
     0
 10
592.6
 20
-702.0
 30
0.0
  0
ENDBLK
  5
1D4
  8
0
  0
BLOCK
  8
0
  2
*D36
 70
     1
 10
0.0
 20
0.0
 30
0.0
  3
*D36
  1

  0
LINE
  5
1D7
  8
0
  6
BYBLOCK
 62
     0
 10
355.0
 20
-790.0
 30
0.0
 11
705.1
 21
-790.0
 31
0.0
  0
LINE
  5
1D8
  8
0
  6
BYBLOCK
 62
     0
 10
30.0
 20
-702.0
 30
0.0
 11
705.1
 21
-702.0
 31
0.0
  0
LINE
  5
1D9
  8
0
  6
BYBLOCK
 62
     0
 10
692.6
 20
-780.0
 30
0.0
 11
692.6
 21
-712.0
 31
0.0
  0
INSERT
  5
1DA
  8
0
  6
BYBLOCK
 62
     0
  2
_ORIGIN
 10
692.6
 20
-790.0
 30
0.0
 41
10.0
 42
10.0
 43
10.0
 50
270.0
  0
INSERT
  5
1DB
  8
0
  6
BYBLOCK
 62
     0
  2
_ORIGIN
 10
692.6
 20
-702.0
 30
0.0
 41
10.0
 42
10.0
 43
10.0
 50
90.0
  0
TEXT
  5
1DC
  8
0
  6
BYBLOCK
 62
     0
 10
682.6
 20
-771.0
 30
0.0
 40
30.0
  1
88
 50
90.0
 72
     1
 11
682.6
 21
-746.0
 31
0.0
  0
POINT
  5
1DD
  8
DEFPOINTS
  6
BYBLOCK
 62
     0
 10
345.0
 20
-790.0
 30
0.0
  0
POINT
  5
1DE
  8
DEFPOINTS
  6
BYBLOCK
 62
     0
 10
20.0
 20
-702.0
 30
0.0
  0
POINT
  5
1DF
  8
DEFPOINTS
  6
BYBLOCK
 62
     0
 10
692.6
 20
-702.0
 30
0.0
  0
ENDBLK
  5
1E0
  8
0
  0
BLOCK
  8
0
  2
*D37
 70
     1
 10
0.0
 20
0.0
 30
0.0
  3
*D37
  1

  0
LINE
  5
1E3
  8
0
  6
BYBLOCK
 62
     0
 10
355.0
 20
-790.0
 30
0.0
 11
605.1
 21
-790.0
 31
0.0
  0
LINE
  5
1E4
  8
0
  6
BYBLOCK
 62
     0
 10
145.0
 20
-725.0
 30
0.0
 11
605.1
 21
-725.0
 31
0.0
  0
LINE
  5
1E5
  8
0
  6
BYBLOCK
 62
     0
 10
592.6
 20
-780.0
 30
0.0
 11
592.6
 21
-735.0
 31
0.0
  0
INSERT
  5
1E6
  8
0
  6
BYBLOCK
 62
     0
  2
_ORIGIN
 10
592.6
 20
-790.0
 30
0.0
 41
10.0
 42
10.0
 43
10.0
 50
270.0
  0
INSERT
  5
1E7
  8
0
  6
BYBLOCK
 62
     0
  2
_ORIGIN
 10
592.6
 20
-725.0
 30
0.0
 41
10.0
 42
10.0
 43
10.0
 50
90.0
  0
TEXT
  5
1E8
  8
0
  6
BYBLOCK
 62
     0
 10
582.6
 20
-782.5
 30
0.0
 40
30.0
  1
65
 50
90.0
 72
     1
 11
582.6
 21
-757.5
 31
0.0
  0
POINT
  5
1E9
  8
DEFPOINTS
  6
BYBLOCK
 62
     0
 10
345.0
 20
-790.0
 30
0.0
  0
POINT
  5
1EA
  8
DEFPOINTS
  6
BYBLOCK
 62
     0
 10
135.0
 20
-725.0
 30
0.0
  0
POINT
  5
1EB
  8
DEFPOINTS
  6
BYBLOCK
 62
     0
 10
592.6
 20
-725.0
 30
0.0
  0
ENDBLK
  5
1EC
  8
0
  0
BLOCK
  8
0
  2
*D38
 70
     1
 10
0.0
 20
0.0
 30
0.0
  3
*D38
  1

  0
LINE
  5
1EF
  8
0
  6
BYBLOCK
 62
     0
 10
-345.0
 20
-800.0
 30
0.0
 11
-345.0
 21
-1050.1
 31
0.0
  0
LINE
  5
1F0
  8
0
  6
BYBLOCK
 62
     0
 10
-264.0
 20
-730.0
 30
0.0
 11
-264.0
 21
-1050.1
 31
0.0
  0
LINE
  5
1F1
  8
0
  6
BYBLOCK
 62
     0
 10
-335.0
 20
-1037.6
 30
0.0
 11
-274.0
 21
-1037.6
 31
0.0
  0
INSERT
  5
1F2
  8
0
  6
BYBLOCK
 62
     0
  2
_ORIGIN
 10
-345.0
 20
-1037.6
 30
0.0
 41
10.0
 42
10.0
 43
10.0
 50
180.0
  0
INSERT
  5
1F3
  8
0
  6
BYBLOCK
 62
     0
  2
_ORIGIN
 10
-264.0
 20
-1037.6
 30
0.0
 41
10.0
 42
10.0
 43
10.0
  0
TEXT
  5
1F4
  8
0
  6
BYBLOCK
 62
     0
 10
-324.5
 20
-1027.6
 30
0.0
 40
30.0
  1
81
 72
     1
 11
-304.5
 21
-1027.6
 31
0.0
  0
POINT
  5
1F5
  8
DEFPOINTS
  6
BYBLOCK
 62
     0
 10
-345.0
 20
-790.0
 30
0.0
  0
POINT
  5
1F6
  8
DEFPOINTS
  6
BYBLOCK
 62
     0
 10
-264.0
 20
-720.0
 30
0.0
  0
POINT
  5
1F7
  8
DEFPOINTS
  6
BYBLOCK
 62
     0
 10
-264.0
 20
-1037.6
 30
0.0
  0
ENDBLK
  5
1F8
  8
0
  0
BLOCK
  8
0
  2
*D39
 70
     1
 10
0.0
 20
0.0
 30
0.0
  3
*D39
  1

  0
LINE
  5
1FB
  8
0
  6
BYBLOCK
 62
     0
 10
-264.0
 20
-730.0
 30
0.0
 11
-264.0
 21
-1050.1
 31
0.0
  0
LINE
  5
1FC
  8
0
  6
BYBLOCK
 62
     0
 10
-189.0
 20
-755.0
 30
0.0
 11
-189.0
 21
-1050.1
 31
0.0
  0
LINE
  5
1FD
  8
0
  6
BYBLOCK
 62
     0
 10
-254.0
 20
-1037.6
 30
0.0
 11
-199.0
 21
-1037.6
 31
0.0
  0
INSERT
  5
1FE
  8
0
  6
BYBLOCK
 62
     0
  2
_ORIGIN
 10
-264.0
 20
-1037.6
 30
0.0
 41
10.0
 42
10.0
 43
10.0
 50
180.0
  0
INSERT
  5
1FF
  8
0
  6
BYBLOCK
 62
     0
  2
_ORIGIN
 10
-189.0
 20
-1037.6
 30
0.0
 41
10.0
 42
10.0
 43
10.0
  0
TEXT
  5
200
  8
0
  6
BYBLOCK
 62
     0
 10
-251.5
 20
-1027.6
 30
0.0
 40
30.0
  1
75
 72
     1
 11
-226.5
 21
-1027.6
 31
0.0
  0
POINT
  5
201
  8
DEFPOINTS
  6
BYBLOCK
 62
     0
 10
-264.0
 20
-720.0
 30
0.0
  0
POINT
  5
202
  8
DEFPOINTS
  6
BYBLOCK
 62
     0
 10
-189.0
 20
-745.0
 30
0.0
  0
POINT
  5
203
  8
DEFPOINTS
  6
BYBLOCK
 62
     0
 10
-189.0
 20
-1037.6
 30
0.0
  0
ENDBLK
  5
204
  8
0
  0
BLOCK
  8
0
  2
*D40
 70
     1
 10
0.0
 20
0.0
 30
0.0
  3
*D40
  1

  0
LINE
  5
207
  8
0
  6
BYBLOCK
 62
     0
 10
-355.0
 20
-790.0
 30
0.0
 11
-559.9
 21
-790.0
 31
0.0
  0
LINE
  5
208
  8
0
  6
BYBLOCK
 62
     0
 10
-294.0
 20
-700.0
 30
0.0
 11
-559.9
 21
-700.0
 31
0.0
  0
LINE
  5
209
  8
0
  6
BYBLOCK
 62
     0
 10
-547.4
 20
-780.0
 30
0.0
 11
-547.4
 21
-710.0
 31
0.0
  0
INSERT
  5
20A
  8
0
  6
BYBLOCK
 62
     0
  2
_ORIGIN
 10
-547.4
 20
-790.0
 30
0.0
 41
10.0
 42
10.0
 43
10.0
 50
270.0
  0
INSERT
  5
20B
  8
0
  6
BYBLOCK
 62
     0
  2
_ORIGIN
 10
-547.4
 20
-700.0
 30
0.0
 41
10.0
 42
10.0
 43
10.0
 50
90.0
  0
TEXT
  5
20C
  8
0
  6
BYBLOCK
 62
     0
 10
-557.4
 20
-767.5
 30
0.0
 40
30.0
  1
90
 50
90.0
 72
     1
 11
-557.4
 21
-745.0
 31
0.0
  0
POINT
  5
20D
  8
DEFPOINTS
  6
BYBLOCK
 62
     0
 10
-345.0
 20
-790.0
 30
0.0
  0
POINT
  5
20E
  8
DEFPOINTS
  6
BYBLOCK
 62
     0
 10
-284.0
 20
-700.0
 30
0.0
  0
POINT
  5
20F
  8
DEFPOINTS
  6
BYBLOCK
 62
     0
 10
-547.4
 20
-700.0
 30
0.0
  0
ENDBLK
  5
210
  8
0
  0
BLOCK
  8
0
  2
*D41
 70
     1
 10
0.0
 20
0.0
 30
0.0
  3
*D41
  1

  0
LINE
  5
213
  8
0
  6
BYBLOCK
 62
     0
 10
-345.0
 20
10.0
 30
0.0
 11
-345.0
 21
314.9
 31
0.0
  0
LINE
  5
214
  8
0
  6
BYBLOCK
 62
     0
 10
345.0
 20
10.0
 30
0.0
 11
345.0
 21
314.9
 31
0.0
  0
LINE
  5
215
  8
0
  6
BYBLOCK
 62
     0
 10
-335.0
 20
302.4
 30
0.0
 11
335.0
 21
302.4
 31
0.0
  0
INSERT
  5
216
  8
0
  6
BYBLOCK
 62
     0
  2
_ORIGIN
 10
-345.0
 20
302.4
 30
0.0
 41
10.0
 42
10.0
 43
10.0
 50
180.0
  0
INSERT
  5
217
  8
0
  6
BYBLOCK
 62
     0
  2
_ORIGIN
 10
345.0
 20
302.4
 30
0.0
 41
10.0
 42
10.0
 43
10.0
  0
TEXT
  5
218
  8
0
  6
BYBLOCK
 62
     0
 10
-37.5
 20
312.4
 30
0.0
 40
30.0
  1
690
 72
     1
 11
0.0
 21
312.4
 31
0.0
  0
POINT
  5
219
  8
DEFPOINTS
  6
BYBLOCK
 62
     0
 10
-345.0
 20
0.0
 30
0.0
  0
POINT
  5
21A
  8
DEFPOINTS
  6
BYBLOCK
 62
     0
 10
345.0
 20
0.0
 30
0.0
  0
POINT
  5
21B
  8
DEFPOINTS
  6
BYBLOCK
 62
     0
 10
345.0
 20
302.4
 30
0.0
  0
ENDBLK
  5
21C
  8
0
  0
BLOCK
  8
0
  2
*D42
 70
     1
 10
0.0
 20
0.0
 30
0.0
  3
*D42
  1

  0
LINE
  5
21F
  8
0
  6
BYBLOCK
 62
     0
 10
272.0
 20
-97.0
 30
0.0
 11
272.0
 21
214.9
 31
0.0
  0
LINE
  5
220
  8
0
  6
BYBLOCK
 62
     0
 10
-272.0
 20
-97.0
 30
0.0
 11
-272.0
 21
214.9
 31
0.0
  0
LINE
  5
221
  8
0
  6
BYBLOCK
 62
     0
 10
262.0
 20
202.4
 30
0.0
 11
-262.0
 21
202.4
 31
0.0
  0
INSERT
  5
222
  8
0
  6
BYBLOCK
 62
     0
  2
_ORIGIN
 10
272.0
 20
202.4
 30
0.0
 41
10.0
 42
10.0
 43
10.0
  0
INSERT
  5
223
  8
0
  6
BYBLOCK
 62
     0
  2
_ORIGIN
 10
-272.0
 20
202.4
 30
0.0
 41
10.0
 42
10.0
 43
10.0
 50
180.0
  0
TEXT
  5
224
  8
0
  6
BYBLOCK
 62
     0
 10
-40.0
 20
212.4
 30
0.0
 40
30.0
  1
544
 72
     1
 11
0.0
 21
212.4
 31
0.0
  0
POINT
  5
225
  8
DEFPOINTS
  6
BYBLOCK
 62
     0
 10
272.0
 20
-107.0
 30
0.0
  0
POINT
  5
226
  8
DEFPOINTS
  6
BYBLOCK
 62
     0
 10
-272.0
 20
-107.0
 30
0.0
  0
POINT
  5
227
  8
DEFPOINTS
  6
BYBLOCK
 62
     0
 10
-272.0
 20
202.4
 30
0.0
  0
ENDBLK
  5
228
  8
0
  0
BLOCK
  8
0
  2
*D43
 70
     1
 10
0.0
 20
0.0
 30
0.0
  3
*D43
  1

  0
LINE
  5
22B
  8
0
  6
BYBLOCK
 62
     0
 10
-319.0
 20
-76.0
 30
0.0
 11
-319.0
 21
114.9
 31
0.0
  0
LINE
  5
22C
  8
0
  6
BYBLOCK
 62
     0
 10
-225.0
 20
-62.0
 30
0.0
 11
-225.0
 21
114.9
 31
0.0
  0
LINE
  5
22D
  8
0
  6
BYBLOCK
 62
     0
 10
-309.0
 20
102.4
 30
0.0
 11
-235.0
 21
102.4
 31
0.0
  0
INSERT
  5
22E
  8
0
  6
BYBLOCK
 62
     0
  2
_ORIGIN
 10
-319.0
 20
102.4
 30
0.0
 41
10.0
 42
10.0
 43
10.0
 50
180.0
  0
INSERT
  5
22F
  8
0
  6
BYBLOCK
 62
     0
  2
_ORIGIN
 10
-225.0
 20
102.4
 30
0.0
 41
10.0
 42
10.0
 43
10.0
  0
TEXT
  5
230
  8
0
  6
BYBLOCK
 62
     0
 10
-297.0
 20
112.4
 30
0.0
 40
30.0
  1
94
 72
     1
 11
-272.0
 21
112.4
 31
0.0
  0
POINT
  5
231
  8
DEFPOINTS
  6
BYBLOCK
 62
     0
 10
-319.0
 20
-86.0
 30
0.0
  0
POINT
  5
232
  8
DEFPOINTS
  6
BYBLOCK
 62
     0
 10
-225.0
 20
-72.0
 30
0.0
  0
POINT
  5
233
  8
DEFPOINTS
  6
BYBLOCK
 62
     0
 10
-225.0
 20
102.4
 30
0.0
  0
ENDBLK
  5
234
  8
0
  0
BLOCK
  8
0
  2
*D44
 70
     1
 10
0.0
 20
0.0
 30
0.0
  3
*D44
  1

  0
LINE
  5
237
  8
0
  6
BYBLOCK
 62
     0
 10
-225.0
 20
-62.0
 30
0.0
 11
-225.0
 21
114.9
 31
0.0
  0
LINE
  5
238
  8
0
  6
BYBLOCK
 62
     0
 10
225.0
 20
-62.0
 30
0.0
 11
225.0
 21
114.9
 31
0.0
  0
LINE
  5
239
  8
0
  6
BYBLOCK
 62
     0
 10
-215.0
 20
102.4
 30
0.0
 11
215.0
 21
102.4
 31
0.0
  0
INSERT
  5
23A
  8
0
  6
BYBLOCK
 62
     0
  2
_ORIGIN
 10
-225.0
 20
102.4
 30
0.0
 41
10.0
 42
10.0
 43
10.0
 50
180.0
  0
INSERT
  5
23B
  8
0
  6
BYBLOCK
 62
     0
  2
_ORIGIN
 10
225.0
 20
102.4
 30
0.0
 41
10.0
 42
10.0
 43
10.0
  0
TEXT
  5
23C
  8
0
  6
BYBLOCK
 62
     0
 10
-37.5
 20
112.4
 30
0.0
 40
30.0
  1
450
 72
     1
 11
0.0
 21
112.4
 31
0.0
  0
POINT
  5
23D
  8
DEFPOINTS
  6
BYBLOCK
 62
     0
 10
-225.0
 20
-72.0
 30
0.0
  0
POINT
  5
23E
  8
DEFPOINTS
  6
BYBLOCK
 62
     0
 10
225.0
 20
-72.0
 30
0.0
  0
POINT
  5
23F
  8
DEFPOINTS
  6
BYBLOCK
 62
     0
 10
225.0
 20
102.4
 30
0.0
  0
ENDBLK
  5
240
  8
0
  0
BLOCK
  8
0
  2
*D45
 70
     1
 10
0.0
 20
0.0
 30
0.0
  3
*D45
  1

  0
LINE
  5
243
  8
0
  6
BYBLOCK
 62
     0
 10
225.0
 20
-62.0
 30
0.0
 11
225.0
 21
114.9
 31
0.0
  0
LINE
  5
244
  8
0
  6
BYBLOCK
 62
     0
 10
319.0
 20
-62.0
 30
0.0
 11
319.0
 21
114.9
 31
0.0
  0
LINE
  5
245
  8
0
  6
BYBLOCK
 62
     0
 10
235.0
 20
102.4
 30
0.0
 11
309.0
 21
102.4
 31
0.0
  0
INSERT
  5
246
  8
0
  6
BYBLOCK
 62
     0
  2
_ORIGIN
 10
225.0
 20
102.4
 30
0.0
 41
10.0
 42
10.0
 43
10.0
 50
180.0
  0
INSERT
  5
247
  8
0
  6
BYBLOCK
 62
     0
  2
_ORIGIN
 10
319.0
 20
102.4
 30
0.0
 41
10.0
 42
10.0
 43
10.0
  0
TEXT
  5
248
  8
0
  6
BYBLOCK
 62
     0
 10
247.0
 20
112.4
 30
0.0
 40
30.0
  1
94
 72
     1
 11
272.0
 21
112.4
 31
0.0
  0
POINT
  5
249
  8
DEFPOINTS
  6
BYBLOCK
 62
     0
 10
225.0
 20
-72.0
 30
0.0
  0
POINT
  5
24A
  8
DEFPOINTS
  6
BYBLOCK
 62
     0
 10
319.0
 20
-72.0
 30
0.0
  0
POINT
  5
24B
  8
DEFPOINTS
  6
BYBLOCK
 62
     0
 10
319.0
 20
102.4
 30
0.0
  0
ENDBLK
  5
24C
  8
0
  0
BLOCK
  8
0
  2
*D46
 70
     1
 10
0.0
 20
0.0
 30
0.0
  3
*D46
  1

  0
LINE
  5
24F
  8
0
  6
BYBLOCK
 62
     0
 10
355.0
 20
-1390.0
 30
0.0
 11
805.1
 21
-1390.0
 31
0.0
  0
LINE
  5
250
  8
0
  6
BYBLOCK
 62
     0
 10
355.0
 20
-790.0
 30
0.0
 11
805.1
 21
-790.0
 31
0.0
  0
LINE
  5
251
  8
0
  6
BYBLOCK
 62
     0
 10
792.6
 20
-1380.0
 30
0.0
 11
792.6
 21
-800.0
 31
0.0
  0
INSERT
  5
252
  8
0
  6
BYBLOCK
 62
     0
  2
_ORIGIN
 10
792.6
 20
-1390.0
 30
0.0
 41
10.0
 42
10.0
 43
10.0
 50
270.0
  0
INSERT
  5
253
  8
0
  6
BYBLOCK
 62
     0
  2
_ORIGIN
 10
792.6
 20
-790.0
 30
0.0
 41
10.0
 42
10.0
 43
10.0
 50
90.0
  0
TEXT
  5
254
  8
0
  6
BYBLOCK
 62
     0
 10
782.6
 20
-1125.0
 30
0.0
 40
30.0
  1
600
 50
90.0
 72
     1
 11
782.6
 21
-1090.0
 31
0.0
  0
POINT
  5
255
  8
DEFPOINTS
  6
BYBLOCK
 62
     0
 10
345.0
 20
-1390.0
 30
0.0
  0
POINT
  5
256
  8
DEFPOINTS
  6
BYBLOCK
 62
     0
 10
345.0
 20
-790.0
 30
0.0
  0
POINT
  5
257
  8
DEFPOINTS
  6
BYBLOCK
 62
     0
 10
792.6
 20
-790.0
 30
0.0
  0
ENDBLK
  5
258
  8
0
  0
BLOCK
  8
0
  2
*D47
 70
     1
 10
0.0
 20
0.0
 30
0.0
  3
*D47
  1

  0
LINE
  5
25B
  8
0
  6
BYBLOCK
 62
     0
 10
345.0
 20
-1400.0
 30
0.0
 11
345.0
 21
-1550.1
 31
0.0
  0
LINE
  5
25C
  8
0
  6
BYBLOCK
 62
     0
 10
-345.0
 20
-1400.0
 30
0.0
 11
-345.0
 21
-1550.1
 31
0.0
  0
LINE
  5
25D
  8
0
  6
BYBLOCK
 62
     0
 10
335.0
 20
-1537.6
 30
0.0
 11
-335.0
 21
-1537.6
 31
0.0
  0
INSERT
  5
25E
  8
0
  6
BYBLOCK
 62
     0
  2
_ORIGIN
 10
345.0
 20
-1537.6
 30
0.0
 41
10.0
 42
10.0
 43
10.0
  0
INSERT
  5
25F
  8
0
  6
BYBLOCK
 62
     0
  2
_ORIGIN
 10
-345.0
 20
-1537.6
 30
0.0
 41
10.0
 42
10.0
 43
10.0
 50
180.0
  0
TEXT
  5
260
  8
0
  6
BYBLOCK
 62
     0
 10
-37.5
 20
-1527.6
 30
0.0
 40
30.0
  1
690
 72
     1
 11
0.0
 21
-1527.6
 31
0.0
  0
POINT
  5
261
  8
DEFPOINTS
  6
BYBLOCK
 62
     0
 10
345.0
 20
-1390.0
 30
0.0
  0
POINT
  5
262
  8
DEFPOINTS
  6
BYBLOCK
 62
     0
 10
-345.0
 20
-1390.0
 30
0.0
  0
POINT
  5
263
  8
DEFPOINTS
  6
BYBLOCK
 62
     0
 10
-345.0
 20
-1537.6
 30
0.0
  0
ENDBLK
  5
264
  8
0
  0
BLOCK
  8
0
  2
*D48
 70
     1
 10
0.0
 20
0.0
 30
0.0
  3
*D48
  1

  0
LINE
  5
267
  8
0
  6
BYBLOCK
 62
     0
 10
355.0
 20
-790.0
 30
0.0
 11
805.1
 21
-790.0
 31
0.0
  0
LINE
  5
268
  8
0
  6
BYBLOCK
 62
     0
 10
355.0
 20
0.0
 30
0.0
 11
805.1
 21
0.0
 31
0.0
  0
LINE
  5
269
  8
0
  6
BYBLOCK
 62
     0
 10
792.6
 20
-780.0
 30
0.0
 11
792.6
 21
-10.0
 31
0.0
  0
INSERT
  5
26A
  8
0
  6
BYBLOCK
 62
     0
  2
_ORIGIN
 10
792.6
 20
-790.0
 30
0.0
 41
10.0
 42
10.0
 43
10.0
 50
270.0
  0
INSERT
  5
26B
  8
0
  6
BYBLOCK
 62
     0
  2
_ORIGIN
 10
792.6
 20
0.0
 30
0.0
 41
10.0
 42
10.0
 43
10.0
 50
90.0
  0
TEXT
  5
26C
  8
0
  6
BYBLOCK
 62
     0
 10
782.6
 20
-432.5
 30
0.0
 40
30.0
  1
790
 50
90.0
 72
     1
 11
782.6
 21
-395.0
 31
0.0
  0
POINT
  5
26D
  8
DEFPOINTS
  6
BYBLOCK
 62
     0
 10
345.0
 20
-790.0
 30
0.0
  0
POINT
  5
26E
  8
DEFPOINTS
  6
BYBLOCK
 62
     0
 10
345.0
 20
0.0
 30
0.0
  0
POINT
  5
26F
  8
DEFPOINTS
  6
BYBLOCK
 62
     0
 10
792.6
 20
0.0
 30
0.0
  0
ENDBLK
  5
270
  8
0
  0
BLOCK
  8
0
  2
*D49
 70
     1
 10
0.0
 20
0.0
 30
0.0
  3
*D49
  1

  0
LINE
  5
273
  8
0
  6
BYBLOCK
 62
     0
 10
287.0
 20
-703.0
 30
0.0
 11
505.1
 21
-703.0
 31
0.0
  0
LINE
  5
274
  8
0
  6
BYBLOCK
 62
     0
 10
355.0
 20
-790.0
 30
0.0
 11
505.1
 21
-790.0
 31
0.0
  0
LINE
  5
275
  8
0
  6
BYBLOCK
 62
     0
 10
492.6
 20
-713.0
 30
0.0
 11
492.6
 21
-780.0
 31
0.0
  0
INSERT
  5
276
  8
0
  6
BYBLOCK
 62
     0
  2
_ORIGIN
 10
492.6
 20
-703.0
 30
0.0
 41
10.0
 42
10.0
 43
10.0
 50
90.0
  0
INSERT
  5
277
  8
0
  6
BYBLOCK
 62
     0
  2
_ORIGIN
 10
492.6
 20
-790.0
 30
0.0
 41
10.0
 42
10.0
 43
10.0
 50
270.0
  0
TEXT
  5
278
  8
0
  6
BYBLOCK
 62
     0
 10
482.6
 20
-771.5
 30
0.0
 40
30.0
  1
87
 50
90.0
 72
     1
 11
482.6
 21
-746.5
 31
0.0
  0
POINT
  5
279
  8
DEFPOINTS
  6
BYBLOCK
 62
     0
 10
277.0
 20
-703.0
 30
0.0
  0
POINT
  5
27A
  8
DEFPOINTS
  6
BYBLOCK
 62
     0
 10
345.0
 20
-790.0
 30
0.0
  0
POINT
  5
27B
  8
DEFPOINTS
  6
BYBLOCK
 62
     0
 10
492.6
 20
-790.0
 30
0.0
  0
ENDBLK
  5
27C
  8
0
  0
BLOCK
  8
0
  2
*D50
 70
     1
 10
0.0
 20
0.0
 30
0.0
  3
*D50
  1

  0
LINE
  5
27F
  8
0
  6
BYBLOCK
 62
     0
 10
-189.999998
 20
-622.339747
 30
0.0
 11
-132.549951
 21
-522.83341
 31
0.0
  0
LINE
  5
280
  8
0
  6
BYBLOCK
 62
     0
 10
-148.823087
 20
-623.019252
 30
0.0
 11
-101.373044
 21
-540.833417
 31
0.0
  0
LINE
  5
281
  8
0
  6
BYBLOCK
 62
     0
 10
-98.962794
 20
-556.658735
 30
0.0
 11
-90.302542
 21
-561.658738
 31
0.0
  0
LINE
  5
282
  8
0
  6
BYBLOCK
 62
     0
 10
-147.460207
 20
-528.658724
 30
0.0
 11
-216.742228
 21
-488.658705
 31
0.0
  0
LINE
  5
283
  8
0
  6
BYBLOCK
 62
     0
 10
-107.623047
 20
-551.658733
 30
0.0
 11
-138.799954
 21
-533.658726
 31
0.0
  0
INSERT
  5
284
  8
0
  6
BYBLOCK
 62
     0
  2
_ORIGIN
 10
-107.623047
 20
-551.658733
 30
0.0
 41
10.0
 42
10.0
 43
10.0
 50
149.999985
  0
INSERT
  5
285
  8
0
  6
BYBLOCK
 62
     0
  2
_ORIGIN
 10
-138.799954
 20
-533.658726
 30
0.0
 41
10.0
 42
10.0
 43
10.0
 50
329.999985
  0
TEXT
  5
286
  8
0
  6
BYBLOCK
 62
     0
 10
-203.081973
 20
-484.998456
 30
0.0
 40
30.0
  1
36
 50
329.999988
 72
     1
 11
-181.431341
 21
-497.498461
 31
0.0
  0
POINT
  5
287
  8
DEFPOINTS
  6
BYBLOCK
 62
     0
 10
-195.0
 20
-631.0
 30
0.0
  0
POINT
  5
288
  8
DEFPOINTS
  6
BYBLOCK
 62
     0
 10
-153.82309
 20
-631.679504
 30
0.0
  0
POINT
  5
289
  8
DEFPOINTS
  6
BYBLOCK
 62
     0
 10
-107.623047
 20
-551.658733
 30
0.0
  0
ENDBLK
  5
28A
  8
0
  0
BLOCK
  8
0
  2
*D51
 70
     1
 10
0.0
 20
0.0
 30
0.0
  3
*D51
  1

  0
LINE
  5
28D
  8
0
  6
BYBLOCK
 62
     0
 10
-225.0
 20
-631.0
 30
0.0
 11
-559.9
 21
-631.0
 31
0.0
  0
LINE
  5
28E
  8
0
  6
BYBLOCK
 62
     0
 10
-294.0
 20
-700.0
 30
0.0
 11
-559.9
 21
-700.0
 31
0.0
  0
LINE
  5
28F
  8
0
  6
BYBLOCK
 62
     0
 10
-547.4
 20
-641.0
 30
0.0
 11
-547.4
 21
-690.0
 31
0.0
  0
INSERT
  5
290
  8
0
  6
BYBLOCK
 62
     0
  2
_ORIGIN
 10
-547.4
 20
-631.0
 30
0.0
 41
10.0
 42
10.0
 43
10.0
 50
90.0
  0
INSERT
  5
291
  8
0
  6
BYBLOCK
 62
     0
  2
_ORIGIN
 10
-547.4
 20
-700.0
 30
0.0
 41
10.0
 42
10.0
 43
10.0
 50
270.0
  0
TEXT
  5
292
  8
0
  6
BYBLOCK
 62
     0
 10
-557.4
 20
-690.5
 30
0.0
 40
30.0
  1
69
 50
90.0
 72
     1
 11
-557.4
 21
-665.5
 31
0.0
  0
POINT
  5
293
  8
DEFPOINTS
  6
BYBLOCK
 62
     0
 10
-215.0
 20
-631.0
 30
0.0
  0
POINT
  5
294
  8
DEFPOINTS
  6
BYBLOCK
 62
     0
 10
-284.0
 20
-700.0
 30
0.0
  0
POINT
  5
295
  8
DEFPOINTS
  6
BYBLOCK
 62
     0
 10
-547.4
 20
-700.0
 30
0.0
  0
ENDBLK
  5
296
  8
0
  0
BLOCK
  8
0
  2
*D52
 70
     1
 10
0.0
 20
0.0
 30
0.0
  3
*D52
  1

  0
LINE
  5
299
  8
0
  6
BYBLOCK
 62
     0
 10
0.0
 20
-816.885254
 30
0.0
 11
0.0
 21
-315.685449
 31
0.0
  0
LINE
  5
29A
  8
0
  6
BYBLOCK
 62
     0
 10
-195.0
 20
-601.0
 30
0.0
 11
-195.0
 21
-315.685449
 31
0.0
  0
LINE
  5
29B
  8
0
  6
BYBLOCK
 62
     0
 10
-10.0
 20
-328.185449
 30
0.0
 11
-185.0
 21
-328.185449
 31
0.0
  0
INSERT
  5
29C
  8
0
  6
BYBLOCK
 62
     0
  2
_ORIGIN
 10
0.0
 20
-328.185449
 30
0.0
 41
10.0
 42
10.0
 43
10.0
  0
INSERT
  5
29D
  8
0
  6
BYBLOCK
 62
     0
  2
_ORIGIN
 10
-195.0
 20
-328.185449
 30
0.0
 41
10.0
 42
10.0
 43
10.0
 50
180.0
  0
TEXT
  5
29E
  8
0
  6
BYBLOCK
 62
     0
 10
-132.5
 20
-318.185449
 30
0.0
 40
30.0
  1
195
 72
     1
 11
-97.5
 21
-318.185449
 31
0.0
  0
POINT
  5
29F
  8
DEFPOINTS
  6
BYBLOCK
 62
     0
 10
0.0
 20
-826.885254
 30
0.0
  0
POINT
  5
2A0
  8
DEFPOINTS
  6
BYBLOCK
 62
     0
 10
-195.0
 20
-611.0
 30
0.0
  0
POINT
  5
2A1
  8
DEFPOINTS
  6
BYBLOCK
 62
     0
 10
-195.0
 20
-328.185449
 30
0.0
  0
ENDBLK
  5
2A2
  8
0
  0
BLOCK
  8
0
  2
*D53
 70
     1
 10
0.0
 20
0.0
 30
0.0
  3
*D53
  1

  0
LINE
  5
2A5
  8
0
  6
BYBLOCK
 62
     0
 10
-148.823089
 20
-623.019251
 30
0.0
 11
-51.549992
 21
-454.537317
 31
0.0
  0
LINE
  5
2A6
  8
0
  6
BYBLOCK
 62
     0
 10
-195.0
 20
-601.0
 30
0.0
 11
-195.0
 21
-416.1
 31
0.0
  0
ARC
  5
2A7
  8
0
  6
BYBLOCK
 62
     0
 10
-195.0
 20
-703.0
 30
0.0
 40
274.4
 50
62.088152
 51
87.911846
  0
INSERT
  5
2A8
  8
0
  6
BYBLOCK
 62
     0
  2
_ORIGIN
 10
-57.799993
 20
-465.362634
 30
0.0
 41
10.0
 42
10.0
 43
10.0
 50
331.044075
  0
INSERT
  5
2A9
  8
0
  6
BYBLOCK
 62
     0
  2
_ORIGIN
 10
-195.0
 20
-428.6
 30
0.0
 41
10.0
 42
10.0
 43
10.0
 50
178.955923
  0
TEXT
  5
2AA
  8
0
  6
BYBLOCK
 62
     0
 10
-152.784467
 20
-419.879076
 30
0.0
 40
30.0
  1
30°
 50
345.000005
 72
     1
 11
-121.391877
 21
-428.290692
 31
0.0
  0
POINT
  5
2AB
  8
DEFPOINTS
  6
BYBLOCK
 62
     0
 10
-195.0
 20
-703.0
 30
0.0
  0
POINT
  5
2AC
  8
DEFPOINTS
  6
BYBLOCK
 62
     0
 10
-153.82309
 20
-631.679504
 30
0.0
  0
POINT
  5
2AD
  8
DEFPOINTS
  6
BYBLOCK
 62
     0
 10
-195.0
 20
-611.0
 30
0.0
  0
POINT
  5
2AE
  8
DEFPOINTS
  6
BYBLOCK
 62
     0
 10
-101.149667
 20
-445.148347
 30
0.0
  0
ENDBLK
  5
2AF
  8
0
  0
BLOCK
  8
0
  2
*D54
 70
     1
 10
0.0
 20
0.0
 30
0.0
  3
*D54
  1

  0
LINE
  5
2B2
  8
0
  6
BYBLOCK
 62
     0
 10
-117.0
 20
-755.0
 30
0.0
 11
-117.0
 21
-950.1
 31
0.0
  0
LINE
  5
2B3
  8
0
  6
BYBLOCK
 62
     0
 10
0.0
 20
-850.0
 30
0.0
 11
0.0
 21
-950.1
 31
0.0
  0
LINE
  5
2B4
  8
0
  6
BYBLOCK
 62
     0
 10
-107.0
 20
-937.6
 30
0.0
 11
-10.0
 21
-937.6
 31
0.0
  0
INSERT
  5
2B5
  8
0
  6
BYBLOCK
 62
     0
  2
_ORIGIN
 10
-117.0
 20
-937.6
 30
0.0
 41
10.0
 42
10.0
 43
10.0
 50
180.0
  0
INSERT
  5
2B6
  8
0
  6
BYBLOCK
 62
     0
  2
_ORIGIN
 10
0.0
 20
-937.6
 30
0.0
 41
10.0
 42
10.0
 43
10.0
  0
TEXT
  5
2B7
  8
0
  6
BYBLOCK
 62
     0
 10
-88.5
 20
-927.6
 30
0.0
 40
30.0
  1
117
 72
     1
 11
-58.5
 21
-927.6
 31
0.0
  0
POINT
  5
2B8
  8
DEFPOINTS
  6
BYBLOCK
 62
     0
 10
-117.0
 20
-745.0
 30
0.0
  0
POINT
  5
2B9
  8
DEFPOINTS
  6
BYBLOCK
 62
     0
 10
0.0
 20
-840.0
 30
0.0
  0
POINT
  5
2BA
  8
DEFPOINTS
  6
BYBLOCK
 62
     0
 10
0.0
 20
-937.6
 30
0.0
  0
ENDBLK
  5
2BB
  8
0
  0
BLOCK
  8
0
  2
*D55
 70
     1
 10
0.0
 20
0.0
 30
0.0
  3
*D55
  1

  0
LINE
  5
2BE
  8
0
  6
BYBLOCK
 62
     0
 10
0.0
 20
-850.0
 30
0.0
 11
0.0
 21
-1050.1
 31
0.0
  0
LINE
  5
2BF
  8
0
  6
BYBLOCK
 62
     0
 10
-189.0
 20
-755.0
 30
0.0
 11
-189.0
 21
-1050.1
 31
0.0
  0
LINE
  5
2C0
  8
0
  6
BYBLOCK
 62
     0
 10
-10.0
 20
-1037.6
 30
0.0
 11
-179.0
 21
-1037.6
 31
0.0
  0
INSERT
  5
2C1
  8
0
  6
BYBLOCK
 62
     0
  2
_ORIGIN
 10
0.0
 20
-1037.6
 30
0.0
 41
10.0
 42
10.0
 43
10.0
  0
INSERT
  5
2C2
  8
0
  6
BYBLOCK
 62
     0
  2
_ORIGIN
 10
-189.0
 20
-1037.6
 30
0.0
 41
10.0
 42
10.0
 43
10.0
 50
180.0
  0
TEXT
  5
2C3
  8
0
  6
BYBLOCK
 62
     0
 10
-169.0
 20
-1027.6
 30
0.0
 40
30.0
  1
189
 72
     1
 11
-134.0
 21
-1027.6
 31
0.0
  0
POINT
  5
2C4
  8
DEFPOINTS
  6
BYBLOCK
 62
     0
 10
0.0
 20
-840.0
 30
0.0
  0
POINT
  5
2C5
  8
DEFPOINTS
  6
BYBLOCK
 62
     0
 10
-189.0
 20
-745.0
 30
0.0
  0
POINT
  5
2C6
  8
DEFPOINTS
  6
BYBLOCK
 62
     0
 10
-189.0
 20
-1037.6
 30
0.0
  0
ENDBLK
  5
2C7
  8
0
  0
BLOCK
  8
0
  2
*D56
 70
     1
 10
0.0
 20
0.0
 30
0.0
  3
*D56
  1

  0
LINE
  5
2CA
  8
0
  6
BYBLOCK
 62
     0
 10
115.0
 20
-755.0
 30
0.0
 11
115.0
 21
-1050.1
 31
0.0
  0
LINE
  5
2CB
  8
0
  6
BYBLOCK
 62
     0
 10
0.0
 20
-850.0
 30
0.0
 11
0.0
 21
-1050.1
 31
0.0
  0
LINE
  5
2CC
  8
0
  6
BYBLOCK
 62
     0
 10
105.0
 20
-1037.6
 30
0.0
 11
10.0
 21
-1037.6
 31
0.0
  0
INSERT
  5
2CD
  8
0
  6
BYBLOCK
 62
     0
  2
_ORIGIN
 10
115.0
 20
-1037.6
 30
0.0
 41
10.0
 42
10.0
 43
10.0
  0
INSERT
  5
2CE
  8
0
  6
BYBLOCK
 62
     0
  2
_ORIGIN
 10
0.0
 20
-1037.6
 30
0.0
 41
10.0
 42
10.0
 43
10.0
 50
180.0
  0
TEXT
  5
2CF
  8
0
  6
BYBLOCK
 62
     0
 10
20.0
 20
-1027.6
 30
0.0
 40
30.0
  1
115
 72
     1
 11
50.0
 21
-1027.6
 31
0.0
  0
POINT
  5
2D0
  8
DEFPOINTS
  6
BYBLOCK
 62
     0
 10
115.0
 20
-745.0
 30
0.0
  0
POINT
  5
2D1
  8
DEFPOINTS
  6
BYBLOCK
 62
     0
 10
0.0
 20
-840.0
 30
0.0
  0
POINT
  5
2D2
  8
DEFPOINTS
  6
BYBLOCK
 62
     0
 10
0.0
 20
-1037.6
 30
0.0
  0
ENDBLK
  5
2D3
  8
0
  0
BLOCK
  8
0
  2
*D57
 70
     1
 10
0.0
 20
0.0
 30
0.0
  3
*D57
  1

  0
LINE
  5
2D6
  8
0
  6
BYBLOCK
 62
     0
 10
257.0
 20
-733.0
 30
0.0
 11
257.0
 21
-1050.1
 31
0.0
  0
LINE
  5
2D7
  8
0
  6
BYBLOCK
 62
     0
 10
115.0
 20
-755.0
 30
0.0
 11
115.0
 21
-1050.1
 31
0.0
  0
LINE
  5
2D8
  8
0
  6
BYBLOCK
 62
     0
 10
247.0
 20
-1037.6
 30
0.0
 11
125.0
 21
-1037.6
 31
0.0
  0
INSERT
  5
2D9
  8
0
  6
BYBLOCK
 62
     0
  2
_ORIGIN
 10
257.0
 20
-1037.6
 30
0.0
 41
10.0
 42
10.0
 43
10.0
  0
INSERT
  5
2DA
  8
0
  6
BYBLOCK
 62
     0
  2
_ORIGIN
 10
115.0
 20
-1037.6
 30
0.0
 41
10.0
 42
10.0
 43
10.0
 50
180.0
  0
TEXT
  5
2DB
  8
0
  6
BYBLOCK
 62
     0
 10
151.0
 20
-1027.6
 30
0.0
 40
30.0
  1
142
 72
     1
 11
186.0
 21
-1027.6
 31
0.0
  0
POINT
  5
2DC
  8
DEFPOINTS
  6
BYBLOCK
 62
     0
 10
257.0
 20
-723.0
 30
0.0
  0
POINT
  5
2DD
  8
DEFPOINTS
  6
BYBLOCK
 62
     0
 10
115.0
 20
-745.0
 30
0.0
  0
POINT
  5
2DE
  8
DEFPOINTS
  6
BYBLOCK
 62
     0
 10
115.0
 20
-1037.6
 30
0.0
  0
ENDBLK
  5
2DF
  8
0
  0
ENDSEC
  0
SECTION
  2
ENTITIES
  0
LINE
  5
2E0
  8
OUTLINE
  6
CONTINUOUS
 10
345.0
 20
0.0
 30
0.0
 11
-345.0
 21
0.0
 31
0.0
  0
LINE
  5
2E1
  8
OUTLINE
  6
CONTINUOUS
 10
-36.5
 20
-588.0
 30
0.0
 11
-33.3
 21
-588.0
 31
0.0
  0
ARC
  5
2E2
  8
OUTLINE
  6
CONTINUOUS
 10
-18.93932
 20
-592.0
 30
0.0
 40
10.0
 50
90.0
 51
116.565051
  0
LINE
  5
2E3
  8
OUTLINE
  6
CONTINUOUS
 10
-23.411456
 20
-583.055728
 30
0.0
 11
-33.3
 21
-588.0
 31
0.0
  0
LINE
  5
2E4
  8
OUTLINE
  6
CONTINUOUS
 10
18.93932
 20
-582.0
 30
0.0
 11
-18.93932
 21
-582.0
 31
0.0
  0
LINE
  5
2E5
  8
OUTLINE
  6
CONTINUOUS
 10
-36.5
 20
-588.0
 30
0.0
 11
-36.5
 21
-722.0
 31
0.0
  0
LINE
  5
2E6
  8
OUTLINE
  6
CONTINUOUS
 10
36.5
 20
-588.0
 30
0.0
 11
36.5
 21
-722.0
 31
0.0
  0
LINE
  5
2E7
  8
OUTLINE
  6
CONTINUOUS
 10
23.411456
 20
-583.055728
 30
0.0
 11
33.3
 21
-588.0
 31
0.0
  0
ARC
  5
2E8
  8
OUTLINE
  6
CONTINUOUS
 10
18.93932
 20
-592.0
 30
0.0
 40
10.0
 50
63.434949
 51
90.0
  0
LINE
  5
2E9
  8
OUTLINE
  6
CONTINUOUS
 10
36.5
 20
-588.0
 30
0.0
 11
33.3
 21
-588.0
 31
0.0
  0
LINE
  5
2EA
  8
OUTLINE
  6
CONTINUOUS
 10
36.5
 20
-722.0
 30
0.0
 11
-36.5
 21
-722.0
 31
0.0
  0
LINE
  5
2EB
  8
OUTLINE
  6
CONTINUOUS
 10
235.5
 20
-117.0
 30
0.0
 11
235.5
 21
-251.0
 31
0.0
  0
LINE
  5
2EC
  8
OUTLINE
  6
CONTINUOUS
 10
235.5
 20
-251.0
 30
0.0
 11
308.5
 21
-251.0
 31
0.0
  0
LINE
  5
2ED
  8
OUTLINE
  6
CONTINUOUS
 10
308.5
 20
-117.0
 30
0.0
 11
308.5
 21
-251.0
 31
0.0
  0
LINE
  5
2EE
  8
OUTLINE
  6
CONTINUOUS
 10
253.06068
 20
-111.0
 30
0.0
 11
290.93932
 21
-111.0
 31
0.0
  0
LINE
  5
2EF
  8
OUTLINE
  6
CONTINUOUS
 10
248.588544
 20
-112.055728
 30
0.0
 11
238.7
 21
-117.0
 31
0.0
  0
LINE
  5
2F0
  8
OUTLINE
  6
CONTINUOUS
 10
235.5
 20
-117.0
 30
0.0
 11
238.7
 21
-117.0
 31
0.0
  0
ARC
  5
2F1
  8
OUTLINE
  6
CONTINUOUS
 10
253.06068
 20
-121.0
 30
0.0
 40
10.0
 50
90.0
 51
116.565051
  0
ARC
  5
2F2
  8
OUTLINE
  6
CONTINUOUS
 10
290.93932
 20
-121.0
 30
0.0
 40
10.0
 50
63.434949
 51
90.0
  0
LINE
  5
2F3
  8
OUTLINE
  6
CONTINUOUS
 10
295.411456
 20
-112.055728
 30
0.0
 11
305.3
 21
-117.0
 31
0.0
  0
LINE
  5
2F4
  8
OUTLINE
  6
CONTINUOUS
 10
308.5
 20
-117.0
 30
0.0
 11
305.3
 21
-117.0
 31
0.0
  0
LINE
  5
2F5
  8
OUTLINE
  6
CONTINUOUS
 10
-235.5
 20
-117.0
 30
0.0
 11
-235.5
 21
-251.0
 31
0.0
  0
LINE
  5
2F6
  8
OUTLINE
  6
CONTINUOUS
 10
-235.5
 20
-251.0
 30
0.0
 11
-308.5
 21
-251.0
 31
0.0
  0
LINE
  5
2F7
  8
OUTLINE
  6
CONTINUOUS
 10
-308.5
 20
-117.0
 30
0.0
 11
-308.5
 21
-251.0
 31
0.0
  0
LINE
  5
2F8
  8
OUTLINE
  6
CONTINUOUS
 10
-253.06068
 20
-111.0
 30
0.0
 11
-290.93932
 21
-111.0
 31
0.0
  0
LINE
  5
2F9
  8
OUTLINE
  6
CONTINUOUS
 10
-248.588544
 20
-112.055728
 30
0.0
 11
-238.7
 21
-117.0
 31
0.0
  0
LINE
  5
2FA
  8
OUTLINE
  6
CONTINUOUS
 10
-235.5
 20
-117.0
 30
0.0
 11
-238.7
 21
-117.0
 31
0.0
  0
ARC
  5
2FB
  8
OUTLINE
  6
CONTINUOUS
 10
-253.06068
 20
-121.0
 30
0.0
 40
10.0
 50
63.434949
 51
90.0
  0
ARC
  5
2FC
  8
OUTLINE
  6
CONTINUOUS
 10
-290.93932
 20
-121.0
 30
0.0
 40
10.0
 50
90.0
 51
116.565051
  0
LINE
  5
2FD
  8
OUTLINE
  6
CONTINUOUS
 10
-295.411456
 20
-112.055728
 30
0.0
 11
-305.3
 21
-117.0
 31
0.0
  0
LINE
  5
2FE
  8
OUTLINE
  6
CONTINUOUS
 10
-308.5
 20
-117.0
 30
0.0
 11
-305.3
 21
-117.0
 31
0.0
  0
LINE
  5
2FF
  8
OUTLINE
  6
CONTINUOUS
 10
-345.0
 20
0.0
 30
0.0
 11
-345.0
 21
-790.0
 31
0.0
  0
LINE
  5
300
  8
OUTLINE
  6
CONTINUOUS
 10
345.0
 20
-790.0
 30
0.0
 11
-345.0
 21
-790.0
 31
0.0
  0
LINE
  5
301
  8
OUTLINE
  6
CONTINUOUS
 10
345.0
 20
0.0
 30
0.0
 11
345.0
 21
-790.0
 31
0.0
  0
ARC
  5
302
  8
DETAIL
  6
CONTINUOUS
 10
-177.343671
 20
-641.193886
 30
0.0
 40
6.387772
 50
90.568692
 51
209.431308
  0
LINE
  5
303
  8
DETAIL
  6
CONTINUOUS
 10
-179.620835
 20
-617.362505
 30
0.0
 11
-180.97813
 21
-619.713408
 31
0.0
  0
LINE
  5
304
  8
DETAIL
  6
CONTINUOUS
 10
-199.120835
 20
-651.137495
 30
0.0
 11
-197.76354
 21
-648.786592
 31
0.0
  0
LINE
  5
305
  8
DETAIL
  6
CONTINUOUS
 10
-210.379165
 20
-644.637495
 30
0.0
 11
-209.02187
 21
-642.286592
 31
0.0
  0
ARC
  5
306
  8
DETAIL
  6
CONTINUOUS
 10
-204.75
 20
-647.887495
 30
0.0
 40
6.5
 50
150.0
 51
330.0
  0
ARC
  5
307
  8
DETAIL
  6
CONTINUOUS
 10
-204.75
 20
-647.887495
 30
0.0
 40
3.8
 50
121.510966
 51
358.489034
  0
ARC
  5
308
  8
DETAIL
  6
CONTINUOUS
 10
-185.25
 20
-614.112505
 30
0.0
 40
6.5
 50
330.0
 51
150.0
  0
LINE
  5
309
  8
DETAIL
  6
CONTINUOUS
 10
-190.879165
 20
-610.862505
 30
0.0
 11
-192.23646
 21
-613.213408
 31
0.0
  0
ARC
  5
30A
  8
DETAIL
  6
CONTINUOUS
 10
-185.25
 20
-614.112505
 30
0.0
 40
3.8
 50
301.510966
 51
178.489034
  0
ARC
  5
30B
  8
DETAIL
  6
CONTINUOUS
 10
-195.0
 20
-631.0
 30
0.0
 40
18.0
 50
347.791591
 51
312.208409
  0
LINE
  5
30C
  8
DETAIL
  6
CONTINUOUS
 10
-165.403212
 20
-641.73686
 30
0.0
 11
-163.653212
 21
-638.705771
 31
0.0
  0
LINE
  5
30D
  8
DETAIL
  6
CONTINUOUS
 10
-164.171162
 20
-643.602886
 30
0.0
 11
-168.671162
 21
-651.397114
 31
0.0
  0
LINE
  5
30E
  8
DETAIL
  6
CONTINUOUS
 10
-164.537187
 20
-642.23686
 30
0.0
 11
-177.407072
 21
-634.806429
 31
0.0
  0
LINE
  5
30F
  8
DETAIL
  6
CONTINUOUS
 10
-170.037187
 20
-651.76314
 30
0.0
 11
-182.907072
 21
-644.332708
 31
0.0
  0
ARC
  5
310
  8
DETAIL
  6
CONTINUOUS
 10
-165.037187
 20
-643.102886
 30
0.0
 40
1.0
 50
330.0
 51
60.0
  0
ARC
  5
311
  8
DETAIL
  6
CONTINUOUS
 10
-169.537187
 20
-650.897114
 30
0.0
 40
1.0
 50
240.0
 51
330.0
  0
ARC
  5
312
  8
DETAIL
  6
CONTINUOUS
 10
-195.0
 20
-631.0
 30
0.0
 40
31.5
 50
346.60155
 51
313.39845
  0
LINE
  5
313
  8
DETAIL
  6
CONTINUOUS
 10
-167.823085
 20
-655.928203
 30
0.0
 11
-159.823085
 21
-642.071797
 31
0.0
  0
LINE
  5
314
  8
DETAIL
  6
CONTINUOUS
 10
-163.653212
 20
-638.705771
 30
0.0
 11
-177.0
 21
-631.0
 31
0.0
  0
LINE
  5
315
  8
DETAIL
  6
CONTINUOUS
 10
-172.653212
 20
-654.294229
 30
0.0
 11
-186.0
 21
-646.588457
 31
0.0
  0
LINE
  5
316
  8
DETAIL
  6
CONTINUOUS
 10
-167.823085
 20
-655.928203
 30
0.0
 11
-172.653212
 21
-654.294229
 31
0.0
  0
LINE
  5
317
  8
DETAIL
  6
CONTINUOUS
 10
-163.653212
 20
-638.705771
 30
0.0
 11
-159.823085
 21
-642.071797
 31
0.0
  0
LINE
  5
318
  8
DETAIL
  6
CONTINUOUS
 10
-172.653212
 20
-654.294229
 30
0.0
 11
-170.903212
 21
-651.26314
 31
0.0
  0
LINE
  5
319
  8
DETAIL
  6
CONTINUOUS
 10
267.0
 20
-727.5
 30
0.0
 11
247.0
 21
-727.5
 31
0.0
  0
ARC
  5
31A
  8
DETAIL
  6
CONTINUOUS
 10
267.0
 20
-703.0
 30
0.0
 40
24.5
 50
270.0
 51
90.0
  0
LINE
  5
31B
  8
DETAIL
  6
CONTINUOUS
 10
267.0
 20
-678.5
 30
0.0
 11
247.0
 21
-678.5
 31
0.0
  0
ARC
  5
31C
  8
DETAIL
  6
CONTINUOUS
 10
247.0
 20
-703.0
 30
0.0
 40
24.5
 50
90.0
 51
270.0
  0
ARC
  5
31D
  8
DETAIL
  6
CONTINUOUS
 10
125.0
 20
-725.0
 30
0.0
 40
24.5
 50
270.0
 51
90.0
  0
LINE
  5
31E
  8
DETAIL
  6
CONTINUOUS
 10
125.0
 20
-700.5
 30
0.0
 11
105.0
 21
-700.5
 31
0.0
  0
LINE
  5
31F
  8
DETAIL
  6
CONTINUOUS
 10
125.0
 20
-749.5
 30
0.0
 11
105.0
 21
-749.5
 31
0.0
  0
ARC
  5
320
  8
DETAIL
  6
CONTINUOUS
 10
105.0
 20
-725.0
 30
0.0
 40
24.5
 50
90.0
 51
270.0
  0
ARC
  5
321
  8
DETAIL
  6
CONTINUOUS
 10
10.0
 20
-725.0
 30
0.0
 40
24.5
 50
270.0
 51
90.0
  0
LINE
  5
322
  8
DETAIL
  6
CONTINUOUS
 10
10.0
 20
-749.5
 30
0.0
 11
-10.0
 21
-749.5
 31
0.0
  0
ARC
  5
323
  8
DETAIL
  6
CONTINUOUS
 10
-10.0
 20
-725.0
 30
0.0
 40
24.5
 50
90.0
 51
270.0
  0
LINE
  5
324
  8
DETAIL
  6
CONTINUOUS
 10
10.0
 20
-700.5
 30
0.0
 11
-10.0
 21
-700.5
 31
0.0
  0
CIRCLE
  5
325
  8
DETAIL
  6
CONTINUOUS
 10
-117.0
 20
-725.0
 30
0.0
 40
16.25
  0
LINE
  5
326
  8
DETAIL
  6
CONTINUOUS
 10
-297.0
 20
-142.0
 30
0.0
 11
-297.0
 21
-112.0
 31
0.0
  0
LINE
  5
327
  8
DETAIL
  6
CONTINUOUS
 10
-247.0
 20
-142.0
 30
0.0
 11
-297.0
 21
-142.0
 31
0.0
  0
LINE
  5
328
  8
DETAIL
  6
CONTINUOUS
 10
-247.0
 20
-142.0
 30
0.0
 11
-247.0
 21
-112.0
 31
0.0
  0
LINE
  5
329
  8
DETAIL
  6
CONTINUOUS
 10
-210.0
 20
-72.0
 30
0.0
 11
-334.0
 21
-72.0
 31
0.0
  0
LINE
  5
32A
  8
DETAIL
  6
CONTINUOUS
 10
-210.0
 20
-112.0
 30
0.0
 11
-210.0
 21
-72.0
 31
0.0
  0
LINE
  5
32B
  8
DETAIL
  6
CONTINUOUS
 10
-210.0
 20
-112.0
 30
0.0
 11
-247.0
 21
-112.0
 31
0.0
  0
LINE
  5
32C
  8
DETAIL
  6
CONTINUOUS
 10
-334.0
 20
-112.0
 30
0.0
 11
-334.0
 21
-72.0
 31
0.0
  0
LINE
  5
32D
  8
DETAIL
  6
CONTINUOUS
 10
-297.0
 20
-112.0
 30
0.0
 11
-334.0
 21
-112.0
 31
0.0
  0
LINE
  5
32E
  8
DETAIL
  6
CONTINUOUS
 10
297.0
 20
-142.0
 30
0.0
 11
297.0
 21
-112.0
 31
0.0
  0
LINE
  5
32F
  8
DETAIL
  6
CONTINUOUS
 10
247.0
 20
-142.0
 30
0.0
 11
297.0
 21
-142.0
 31
0.0
  0
LINE
  5
330
  8
DETAIL
  6
CONTINUOUS
 10
247.0
 20
-142.0
 30
0.0
 11
247.0
 21
-112.0
 31
0.0
  0
LINE
  5
331
  8
DETAIL
  6
CONTINUOUS
 10
210.0
 20
-72.0
 30
0.0
 11
334.0
 21
-72.0
 31
0.0
  0
LINE
  5
332
  8
DETAIL
  6
CONTINUOUS
 10
210.0
 20
-112.0
 30
0.0
 11
210.0
 21
-72.0
 31
0.0
  0
LINE
  5
333
  8
DETAIL
  6
CONTINUOUS
 10
210.0
 20
-112.0
 30
0.0
 11
247.0
 21
-112.0
 31
0.0
  0
LINE
  5
334
  8
DETAIL
  6
CONTINUOUS
 10
297.0
 20
-112.0
 30
0.0
 11
334.0
 21
-112.0
 31
0.0
  0
LINE
  5
335
  8
DETAIL
  6
CONTINUOUS
 10
334.0
 20
-112.0
 30
0.0
 11
334.0
 21
-72.0
 31
0.0
  0
LINE
  5
336
  8
DETAIL
  6
CONTINUOUS
 10
-179.0
 20
-700.5
 30
0.0
 11
-199.0
 21
-700.5
 31
0.0
  0
ARC
  5
337
  8
DETAIL
  6
CONTINUOUS
 10
-199.0
 20
-725.0
 30
0.0
 40
24.5
 50
90.0
 51
270.0
  0
ARC
  5
338
  8
DETAIL
  6
CONTINUOUS
 10
-179.0
 20
-725.0
 30
0.0
 40
24.5
 50
270.0
 51
90.0
  0
LINE
  5
339
  8
DETAIL
  6
CONTINUOUS
 10
-179.0
 20
-749.5
 30
0.0
 11
-199.0
 21
-749.5
 31
0.0
  0
CIRCLE
  5
33A
  8
DETAIL
  6
CONTINUOUS
 10
-264.0
 20
-700.0
 30
0.0
 40
13.6
  0
ARC
  5
33B
  8
DETAIL
  6
CONTINUOUS
 10
259.0
 20
-209.3
 30
0.0
 40
5.0
 50
0.0
 51
90.0
  0
LINE
  5
33C
  8
DETAIL
  6
CONTINUOUS
 10
264.0
 20
-231.0
 30
0.0
 11
264.0
 21
-209.3
 31
0.0
  0
ARC
  5
33D
  8
DETAIL
  6
CONTINUOUS
 10
285.0
 20
-209.3
 30
0.0
 40
5.0
 50
90.0
 51
180.0
  0
LINE
  5
33E
  8
DETAIL
  6
CONTINUOUS
 10
280.0
 20
-231.0
 30
0.0
 11
280.0
 21
-209.3
 31
0.0
  0
ARC
  5
33F
  8
DETAIL
  6
CONTINUOUS
 10
259.0
 20
-183.3
 30
0.0
 40
5.0
 50
270.0
 51
0.0
  0
LINE
  5
340
  8
DETAIL
  6
CONTINUOUS
 10
264.0
 20
-183.3
 30
0.0
 11
264.0
 21
-174.6
 31
0.0
  0
ARC
  5
341
  8
DETAIL
  6
CONTINUOUS
 10
285.0
 20
-183.3
 30
0.0
 40
5.0
 50
180.0
 51
270.0
  0
LINE
  5
342
  8
DETAIL
  6
CONTINUOUS
 10
280.0
 20
-183.3
 30
0.0
 11
280.0
 21
-174.6
 31
0.0
  0
ARC
  5
343
  8
DETAIL
  6
CONTINUOUS
 10
259.5
 20
-196.3
 30
0.0
 40
8.0
 50
90.0
 51
270.0
  0
ARC
  5
344
  8
DETAIL
  6
CONTINUOUS
 10
284.5
 20
-196.3
 30
0.0
 40
8.0
 50
270.0
 51
90.0
  0
ARC
  5
345
  8
DETAIL
  6
CONTINUOUS
 10
272.0
 20
-231.0
 30
0.0
 40
8.0
 50
180.0
 51
0.0
  0
ARC
  5
346
  8
DETAIL
  6
CONTINUOUS
 10
272.0
 20
-174.6
 30
0.0
 40
8.0
 50
0.0
 51
180.0
  0
ARC
  5
347
  8
DETAIL
  6
CONTINUOUS
 10
-259.0
 20
-209.3
 30
0.0
 40
5.0
 50
90.0
 51
180.0
  0
LINE
  5
348
  8
DETAIL
  6
CONTINUOUS
 10
-264.0
 20
-231.0
 30
0.0
 11
-264.0
 21
-209.3
 31
0.0
  0
ARC
  5
349
  8
DETAIL
  6
CONTINUOUS
 10
-285.0
 20
-209.3
 30
0.0
 40
5.0
 50
0.0
 51
90.0
  0
LINE
  5
34A
  8
DETAIL
  6
CONTINUOUS
 10
-280.0
 20
-231.0
 30
0.0
 11
-280.0
 21
-209.3
 31
0.0
  0
ARC
  5
34B
  8
DETAIL
  6
CONTINUOUS
 10
-259.0
 20
-183.3
 30
0.0
 40
5.0
 50
180.0
 51
270.0
  0
LINE
  5
34C
  8
DETAIL
  6
CONTINUOUS
 10
-264.0
 20
-183.3
 30
0.0
 11
-264.0
 21
-174.6
 31
0.0
  0
ARC
  5
34D
  8
DETAIL
  6
CONTINUOUS
 10
-285.0
 20
-183.3
 30
0.0
 40
5.0
 50
270.0
 51
0.0
  0
LINE
  5
34E
  8
DETAIL
  6
CONTINUOUS
 10
-280.0
 20
-183.3
 30
0.0
 11
-280.0
 21
-174.6
 31
0.0
  0
ARC
  5
34F
  8
DETAIL
  6
CONTINUOUS
 10
-259.5
 20
-196.3
 30
0.0
 40
8.0
 50
270.0
 51
90.0
  0
ARC
  5
350
  8
DETAIL
  6
CONTINUOUS
 10
-284.5
 20
-196.3
 30
0.0
 40
8.0
 50
90.0
 51
270.0
  0
ARC
  5
351
  8
DETAIL
  6
CONTINUOUS
 10
-272.0
 20
-231.0
 30
0.0
 40
8.0
 50
180.0
 51
0.0
  0
ARC
  5
352
  8
DETAIL
  6
CONTINUOUS
 10
-272.0
 20
-174.6
 30
0.0
 40
8.0
 50
0.0
 51
180.0
  0
LINE
  5
353
  8
DETAIL
  6
CONTINUOUS
 10
-8.0
 20
-702.0
 30
0.0
 11
-8.0
 21
-680.3
 31
0.0
  0
ARC
  5
354
  8
DETAIL
  6
CONTINUOUS
 10
-13.0
 20
-680.3
 30
0.0
 40
5.0
 50
0.0
 51
90.0
  0
ARC
  5
355
  8
DETAIL
  6
CONTINUOUS
 10
-13.0
 20
-654.3
 30
0.0
 40
5.0
 50
270.0
 51
0.0
  0
LINE
  5
356
  8
DETAIL
  6
CONTINUOUS
 10
-8.0
 20
-654.3
 30
0.0
 11
-8.0
 21
-645.6
 31
0.0
  0
ARC
  5
357
  8
DETAIL
  6
CONTINUOUS
 10
-12.5
 20
-667.3
 30
0.0
 40
8.0
 50
90.0
 51
270.0
  0
ARC
  5
358
  8
DETAIL
  6
CONTINUOUS
 10
0.0
 20
-645.6
 30
0.0
 40
8.0
 50
0.0
 51
180.0
  0
LINE
  5
359
  8
DETAIL
  6
CONTINUOUS
 10
8.0
 20
-702.0
 30
0.0
 11
8.0
 21
-680.3
 31
0.0
  0
ARC
  5
35A
  8
DETAIL
  6
CONTINUOUS
 10
13.0
 20
-680.3
 30
0.0
 40
5.0
 50
90.0
 51
180.0
  0
ARC
  5
35B
  8
DETAIL
  6
CONTINUOUS
 10
13.0
 20
-654.3
 30
0.0
 40
5.0
 50
180.0
 51
270.0
  0
LINE
  5
35C
  8
DETAIL
  6
CONTINUOUS
 10
8.0
 20
-654.3
 30
0.0
 11
8.0
 21
-645.6
 31
0.0
  0
ARC
  5
35D
  8
DETAIL
  6
CONTINUOUS
 10
12.5
 20
-667.3
 30
0.0
 40
8.0
 50
270.0
 51
90.0
  0
CIRCLE
  5
35E
  8
DETAIL
  6
CONTINUOUS
 10
0.0
 20
-598.0
 30
0.0
 40
8.0
  0
ARC
  5
35F
  8
DETAIL
  6
CONTINUOUS
 10
0.0
 20
-702.0
 30
0.0
 40
8.0
 50
180.0
 51
0.0
  0
ARC
  5
360
  8
DETAIL
  6
CONTINUOUS
 10
0.0
 20
-702.0
 30
0.0
 40
8.0
 50
180.0
 51
0.0
  0
CIRCLE
  5
361
  8
DETAIL
  6
CONTINUOUS
 10
0.0
 20
-598.0
 30
0.0
 40
8.0
  0
ARC
  5
362
  8
DETAIL
  6
CONTINUOUS
 10
12.5
 20
-667.3
 30
0.0
 40
8.0
 50
270.0
 51
90.0
  0
LINE
  5
363
  8
DETAIL
  6
CONTINUOUS
 10
8.0
 20
-654.3
 30
0.0
 11
8.0
 21
-645.6
 31
0.0
  0
ARC
  5
364
  8
DETAIL
  6
CONTINUOUS
 10
13.0
 20
-654.3
 30
0.0
 40
5.0
 50
180.0
 51
270.0
  0
ARC
  5
365
  8
DETAIL
  6
CONTINUOUS
 10
13.0
 20
-680.3
 30
0.0
 40
5.0
 50
90.0
 51
180.0
  0
LINE
  5
366
  8
DETAIL
  6
CONTINUOUS
 10
8.0
 20
-702.0
 30
0.0
 11
8.0
 21
-680.3
 31
0.0
  0
ARC
  5
367
  8
DETAIL
  6
CONTINUOUS
 10
0.0
 20
-645.6
 30
0.0
 40
8.0
 50
0.0
 51
180.0
  0
ARC
  5
368
  8
DETAIL
  6
CONTINUOUS
 10
-12.5
 20
-667.3
 30
0.0
 40
8.0
 50
90.0
 51
270.0
  0
LINE
  5
369
  8
DETAIL
  6
CONTINUOUS
 10
-8.0
 20
-654.3
 30
0.0
 11
-8.0
 21
-645.6
 31
0.0
  0
ARC
  5
36A
  8
DETAIL
  6
CONTINUOUS
 10
-13.0
 20
-654.3
 30
0.0
 40
5.0
 50
270.0
 51
0.0
  0
ARC
  5
36B
  8
DETAIL
  6
CONTINUOUS
 10
-13.0
 20
-680.3
 30
0.0
 40
5.0
 50
0.0
 51
90.0
  0
LINE
  5
36C
  8
DETAIL
  6
CONTINUOUS
 10
-8.0
 20
-702.0
 30
0.0
 11
-8.0
 21
-680.3
 31
0.0
  0
ARC
  5
36D
  8
DETAIL
  6
CONTINUOUS
 10
-272.0
 20
-174.6
 30
0.0
 40
8.0
 50
0.0
 51
180.0
  0
ARC
  5
36E
  8
DETAIL
  6
CONTINUOUS
 10
-272.0
 20
-231.0
 30
0.0
 40
8.0
 50
180.0
 51
0.0
  0
ARC
  5
36F
  8
DETAIL
  6
CONTINUOUS
 10
-284.5
 20
-196.3
 30
0.0
 40
8.0
 50
90.0
 51
270.0
  0
ARC
  5
370
  8
DETAIL
  6
CONTINUOUS
 10
-259.5
 20
-196.3
 30
0.0
 40
8.0
 50
270.0
 51
90.0
  0
LINE
  5
371
  8
DETAIL
  6
CONTINUOUS
 10
-280.0
 20
-183.3
 30
0.0
 11
-280.0
 21
-174.6
 31
0.0
  0
ARC
  5
372
  8
DETAIL
  6
CONTINUOUS
 10
-285.0
 20
-183.3
 30
0.0
 40
5.0
 50
270.0
 51
0.0
  0
LINE
  5
373
  8
DETAIL
  6
CONTINUOUS
 10
-264.0
 20
-183.3
 30
0.0
 11
-264.0
 21
-174.6
 31
0.0
  0
ARC
  5
374
  8
DETAIL
  6
CONTINUOUS
 10
-259.0
 20
-183.3
 30
0.0
 40
5.0
 50
180.0
 51
270.0
  0
LINE
  5
375
  8
DETAIL
  6
CONTINUOUS
 10
-280.0
 20
-231.0
 30
0.0
 11
-280.0
 21
-209.3
 31
0.0
  0
ARC
  5
376
  8
DETAIL
  6
CONTINUOUS
 10
-285.0
 20
-209.3
 30
0.0
 40
5.0
 50
0.0
 51
90.0
  0
LINE
  5
377
  8
DETAIL
  6
CONTINUOUS
 10
-264.0
 20
-231.0
 30
0.0
 11
-264.0
 21
-209.3
 31
0.0
  0
ARC
  5
378
  8
DETAIL
  6
CONTINUOUS
 10
-259.0
 20
-209.3
 30
0.0
 40
5.0
 50
90.0
 51
180.0
  0
ARC
  5
379
  8
DETAIL
  6
CONTINUOUS
 10
272.0
 20
-174.6
 30
0.0
 40
8.0
 50
0.0
 51
180.0
  0
ARC
  5
37A
  8
DETAIL
  6
CONTINUOUS
 10
272.0
 20
-231.0
 30
0.0
 40
8.0
 50
180.0
 51
0.0
  0
ARC
  5
37B
  8
DETAIL
  6
CONTINUOUS
 10
284.5
 20
-196.3
 30
0.0
 40
8.0
 50
270.0
 51
90.0
  0
ARC
  5
37C
  8
DETAIL
  6
CONTINUOUS
 10
259.5
 20
-196.3
 30
0.0
 40
8.0
 50
90.0
 51
270.0
  0
LINE
  5
37D
  8
DETAIL
  6
CONTINUOUS
 10
280.0
 20
-183.3
 30
0.0
 11
280.0
 21
-174.6
 31
0.0
  0
ARC
  5
37E
  8
DETAIL
  6
CONTINUOUS
 10
285.0
 20
-183.3
 30
0.0
 40
5.0
 50
180.0
 51
270.0
  0
LINE
  5
37F
  8
DETAIL
  6
CONTINUOUS
 10
264.0
 20
-183.3
 30
0.0
 11
264.0
 21
-174.6
 31
0.0
  0
ARC
  5
380
  8
DETAIL
  6
CONTINUOUS
 10
259.0
 20
-183.3
 30
0.0
 40
5.0
 50
270.0
 51
0.0
  0
LINE
  5
381
  8
DETAIL
  6
CONTINUOUS
 10
280.0
 20
-231.0
 30
0.0
 11
280.0
 21
-209.3
 31
0.0
  0
ARC
  5
382
  8
DETAIL
  6
CONTINUOUS
 10
285.0
 20
-209.3
 30
0.0
 40
5.0
 50
90.0
 51
180.0
  0
LINE
  5
383
  8
DETAIL
  6
CONTINUOUS
 10
264.0
 20
-231.0
 30
0.0
 11
264.0
 21
-209.3
 31
0.0
  0
ARC
  5
384
  8
DETAIL
  6
CONTINUOUS
 10
259.0
 20
-209.3
 30
0.0
 40
5.0
 50
0.0
 51
90.0
  0
CIRCLE
  5
385
  8
DETAIL
  6
CONTINUOUS
 10
-264.0
 20
-700.0
 30
0.0
 40
13.6
  0
LINE
  5
386
  8
DETAIL
  6
CONTINUOUS
 10
-179.0
 20
-749.5
 30
0.0
 11
-199.0
 21
-749.5
 31
0.0
  0
ARC
  5
387
  8
DETAIL
  6
CONTINUOUS
 10
-179.0
 20
-725.0
 30
0.0
 40
24.5
 50
270.0
 51
90.0
  0
ARC
  5
388
  8
DETAIL
  6
CONTINUOUS
 10
-199.0
 20
-725.0
 30
0.0
 40
24.5
 50
90.0
 51
270.0
  0
LINE
  5
389
  8
DETAIL
  6
CONTINUOUS
 10
-179.0
 20
-700.5
 30
0.0
 11
-199.0
 21
-700.5
 31
0.0
  0
LINE
  5
38A
  8
DETAIL
  6
CONTINUOUS
 10
334.0
 20
-112.0
 30
0.0
 11
334.0
 21
-72.0
 31
0.0
  0
LINE
  5
38B
  8
DETAIL
  6
CONTINUOUS
 10
297.0
 20
-112.0
 30
0.0
 11
334.0
 21
-112.0
 31
0.0
  0
LINE
  5
38C
  8
DETAIL
  6
CONTINUOUS
 10
210.0
 20
-112.0
 30
0.0
 11
247.0
 21
-112.0
 31
0.0
  0
LINE
  5
38D
  8
DETAIL
  6
CONTINUOUS
 10
210.0
 20
-112.0
 30
0.0
 11
210.0
 21
-72.0
 31
0.0
  0
LINE
  5
38E
  8
DETAIL
  6
CONTINUOUS
 10
210.0
 20
-72.0
 30
0.0
 11
334.0
 21
-72.0
 31
0.0
  0
LINE
  5
38F
  8
DETAIL
  6
CONTINUOUS
 10
247.0
 20
-142.0
 30
0.0
 11
247.0
 21
-112.0
 31
0.0
  0
LINE
  5
390
  8
DETAIL
  6
CONTINUOUS
 10
247.0
 20
-142.0
 30
0.0
 11
297.0
 21
-142.0
 31
0.0
  0
LINE
  5
391
  8
DETAIL
  6
CONTINUOUS
 10
297.0
 20
-142.0
 30
0.0
 11
297.0
 21
-112.0
 31
0.0
  0
LINE
  5
392
  8
DETAIL
  6
CONTINUOUS
 10
-297.0
 20
-112.0
 30
0.0
 11
-334.0
 21
-112.0
 31
0.0
  0
LINE
  5
393
  8
DETAIL
  6
CONTINUOUS
 10
-334.0
 20
-112.0
 30
0.0
 11
-334.0
 21
-72.0
 31
0.0
  0
LINE
  5
394
  8
DETAIL
  6
CONTINUOUS
 10
-210.0
 20
-112.0
 30
0.0
 11
-247.0
 21
-112.0
 31
0.0
  0
LINE
  5
395
  8
DETAIL
  6
CONTINUOUS
 10
-210.0
 20
-112.0
 30
0.0
 11
-210.0
 21
-72.0
 31
0.0
  0
LINE
  5
396
  8
DETAIL
  6
CONTINUOUS
 10
-210.0
 20
-72.0
 30
0.0
 11
-334.0
 21
-72.0
 31
0.0
  0
LINE
  5
397
  8
DETAIL
  6
CONTINUOUS
 10
-247.0
 20
-142.0
 30
0.0
 11
-247.0
 21
-112.0
 31
0.0
  0
LINE
  5
398
  8
DETAIL
  6
CONTINUOUS
 10
-247.0
 20
-142.0
 30
0.0
 11
-297.0
 21
-142.0
 31
0.0
  0
LINE
  5
399
  8
DETAIL
  6
CONTINUOUS
 10
-297.0
 20
-142.0
 30
0.0
 11
-297.0
 21
-112.0
 31
0.0
  0
CIRCLE
  5
39A
  8
DETAIL
  6
CONTINUOUS
 10
-117.0
 20
-725.0
 30
0.0
 40
16.25
  0
LINE
  5
39B
  8
DETAIL
  6
CONTINUOUS
 10
10.0
 20
-700.5
 30
0.0
 11
-10.0
 21
-700.5
 31
0.0
  0
ARC
  5
39C
  8
DETAIL
  6
CONTINUOUS
 10
-10.0
 20
-725.0
 30
0.0
 40
24.5
 50
90.0
 51
270.0
  0
LINE
  5
39D
  8
DETAIL
  6
CONTINUOUS
 10
10.0
 20
-749.5
 30
0.0
 11
-10.0
 21
-749.5
 31
0.0
  0
ARC
  5
39E
  8
DETAIL
  6
CONTINUOUS
 10
10.0
 20
-725.0
 30
0.0
 40
24.5
 50
270.0
 51
90.0
  0
ARC
  5
39F
  8
DETAIL
  6
CONTINUOUS
 10
105.0
 20
-725.0
 30
0.0
 40
24.5
 50
90.0
 51
270.0
  0
LINE
  5
3A0
  8
DETAIL
  6
CONTINUOUS
 10
125.0
 20
-749.5
 30
0.0
 11
105.0
 21
-749.5
 31
0.0
  0
LINE
  5
3A1
  8
DETAIL
  6
CONTINUOUS
 10
125.0
 20
-700.5
 30
0.0
 11
105.0
 21
-700.5
 31
0.0
  0
ARC
  5
3A2
  8
DETAIL
  6
CONTINUOUS
 10
125.0
 20
-725.0
 30
0.0
 40
24.5
 50
270.0
 51
90.0
  0
ARC
  5
3A3
  8
DETAIL
  6
CONTINUOUS
 10
247.0
 20
-703.0
 30
0.0
 40
24.5
 50
90.0
 51
270.0
  0
LINE
  5
3A4
  8
DETAIL
  6
CONTINUOUS
 10
267.0
 20
-678.5
 30
0.0
 11
247.0
 21
-678.5
 31
0.0
  0
ARC
  5
3A5
  8
DETAIL
  6
CONTINUOUS
 10
267.0
 20
-703.0
 30
0.0
 40
24.5
 50
270.0
 51
90.0
  0
LINE
  5
3A6
  8
DETAIL
  6
CONTINUOUS
 10
267.0
 20
-727.5
 30
0.0
 11
247.0
 21
-727.5
 31
0.0
  0
LINE
  5
3A7
  8
DETAIL
  6
CONTINUOUS
 10
345.0
 20
0.0
 30
0.0
 11
345.0
 21
-790.0
 31
0.0
  0
LINE
  5
3A8
  8
DETAIL
  6
CONTINUOUS
 10
345.0
 20
-790.0
 30
0.0
 11
-345.0
 21
-790.0
 31
0.0
  0
LINE
  5
3A9
  8
DETAIL
  6
CONTINUOUS
 10
-345.0
 20
0.0
 30
0.0
 11
-345.0
 21
-790.0
 31
0.0
  0
LINE
  5
3AA
  8
DETAIL
  6
CONTINUOUS
 10
-308.5
 20
-117.0
 30
0.0
 11
-305.3
 21
-117.0
 31
0.0
  0
LINE
  5
3AB
  8
DETAIL
  6
CONTINUOUS
 10
-295.411456
 20
-112.055728
 30
0.0
 11
-305.3
 21
-117.0
 31
0.0
  0
ARC
  5
3AC
  8
DETAIL
  6
CONTINUOUS
 10
-290.93932
 20
-121.0
 30
0.0
 40
10.0
 50
90.0
 51
116.565051
  0
ARC
  5
3AD
  8
DETAIL
  6
CONTINUOUS
 10
-253.06068
 20
-121.0
 30
0.0
 40
10.0
 50
63.434949
 51
90.0
  0
LINE
  5
3AE
  8
DETAIL
  6
CONTINUOUS
 10
-235.5
 20
-117.0
 30
0.0
 11
-238.7
 21
-117.0
 31
0.0
  0
LINE
  5
3AF
  8
DETAIL
  6
CONTINUOUS
 10
-248.588544
 20
-112.055728
 30
0.0
 11
-238.7
 21
-117.0
 31
0.0
  0
LINE
  5
3B0
  8
DETAIL
  6
CONTINUOUS
 10
-253.06068
 20
-111.0
 30
0.0
 11
-290.93932
 21
-111.0
 31
0.0
  0
LINE
  5
3B1
  8
DETAIL
  6
CONTINUOUS
 10
-308.5
 20
-117.0
 30
0.0
 11
-308.5
 21
-251.0
 31
0.0
  0
LINE
  5
3B2
  8
DETAIL
  6
CONTINUOUS
 10
-235.5
 20
-251.0
 30
0.0
 11
-308.5
 21
-251.0
 31
0.0
  0
LINE
  5
3B3
  8
DETAIL
  6
CONTINUOUS
 10
-235.5
 20
-117.0
 30
0.0
 11
-235.5
 21
-251.0
 31
0.0
  0
LINE
  5
3B4
  8
DETAIL
  6
CONTINUOUS
 10
308.5
 20
-117.0
 30
0.0
 11
305.3
 21
-117.0
 31
0.0
  0
LINE
  5
3B5
  8
DETAIL
  6
CONTINUOUS
 10
295.411456
 20
-112.055728
 30
0.0
 11
305.3
 21
-117.0
 31
0.0
  0
ARC
  5
3B6
  8
DETAIL
  6
CONTINUOUS
 10
290.93932
 20
-121.0
 30
0.0
 40
10.0
 50
63.434949
 51
90.0
  0
ARC
  5
3B7
  8
DETAIL
  6
CONTINUOUS
 10
253.06068
 20
-121.0
 30
0.0
 40
10.0
 50
90.0
 51
116.565051
  0
LINE
  5
3B8
  8
DETAIL
  6
CONTINUOUS
 10
235.5
 20
-117.0
 30
0.0
 11
238.7
 21
-117.0
 31
0.0
  0
LINE
  5
3B9
  8
DETAIL
  6
CONTINUOUS
 10
248.588544
 20
-112.055728
 30
0.0
 11
238.7
 21
-117.0
 31
0.0
  0
LINE
  5
3BA
  8
DETAIL
  6
CONTINUOUS
 10
253.06068
 20
-111.0
 30
0.0
 11
290.93932
 21
-111.0
 31
0.0
  0
LINE
  5
3BB
  8
DETAIL
  6
CONTINUOUS
 10
308.5
 20
-117.0
 30
0.0
 11
308.5
 21
-251.0
 31
0.0
  0
LINE
  5
3BC
  8
DETAIL
  6
CONTINUOUS
 10
235.5
 20
-251.0
 30
0.0
 11
308.5
 21
-251.0
 31
0.0
  0
LINE
  5
3BD
  8
DETAIL
  6
CONTINUOUS
 10
235.5
 20
-117.0
 30
0.0
 11
235.5
 21
-251.0
 31
0.0
  0
LINE
  5
3BE
  8
DETAIL
  6
CONTINUOUS
 10
36.5
 20
-722.0
 30
0.0
 11
-36.5
 21
-722.0
 31
0.0
  0
LINE
  5
3BF
  8
DETAIL
  6
CONTINUOUS
 10
36.5
 20
-588.0
 30
0.0
 11
33.3
 21
-588.0
 31
0.0
  0
ARC
  5
3C0
  8
DETAIL
  6
CONTINUOUS
 10
18.93932
 20
-592.0
 30
0.0
 40
10.0
 50
63.434949
 51
90.0
  0
LINE
  5
3C1
  8
DETAIL
  6
CONTINUOUS
 10
23.411456
 20
-583.055728
 30
0.0
 11
33.3
 21
-588.0
 31
0.0
  0
LINE
  5
3C2
  8
DETAIL
  6
CONTINUOUS
 10
36.5
 20
-588.0
 30
0.0
 11
36.5
 21
-722.0
 31
0.0
  0
LINE
  5
3C3
  8
DETAIL
  6
CONTINUOUS
 10
-36.5
 20
-588.0
 30
0.0
 11
-36.5
 21
-722.0
 31
0.0
  0
LINE
  5
3C4
  8
DETAIL
  6
CONTINUOUS
 10
18.93932
 20
-582.0
 30
0.0
 11
-18.93932
 21
-582.0
 31
0.0
  0
LINE
  5
3C5
  8
DETAIL
  6
CONTINUOUS
 10
-23.411456
 20
-583.055728
 30
0.0
 11
-33.3
 21
-588.0
 31
0.0
  0
ARC
  5
3C6
  8
DETAIL
  6
CONTINUOUS
 10
-18.93932
 20
-592.0
 30
0.0
 40
10.0
 50
90.0
 51
116.565051
  0
LINE
  5
3C7
  8
DETAIL
  6
CONTINUOUS
 10
-36.5
 20
-588.0
 30
0.0
 11
-33.3
 21
-588.0
 31
0.0
  0
LINE
  5
3C8
  8
DETAIL
  6
CONTINUOUS
 10
345.0
 20
0.0
 30
0.0
 11
-345.0
 21
0.0
 31
0.0
  0
LINE
  5
3C9
  8
BASIS
  6
DASHDOT
 10
0.0
 20
50.0
 30
0.0
 11
0.0
 21
-840.0
 31
0.0
  0
LINE
  5
3CA
  8
SIZE
  6
CONTINUOUS
 62
    30
 10
257.0
 20
-733.0
 30
0.0
 11
257.0
 21
-1050.1
 31
0.0
  0
LINE
  5
3CB
  8
SIZE
  6
CONTINUOUS
 62
    30
 10
115.0
 20
-755.0
 30
0.0
 11
115.0
 21
-1050.1
 31
0.0
  0
LINE
  5
3CC
  8
SIZE
  6
CONTINUOUS
 62
    30
 10
247.0
 20
-1037.6
 30
0.0
 11
125.0
 21
-1037.6
 31
0.0
  0
CIRCLE
  5
3CD
  8
SIZE
  6
CONTINUOUS
 62
    30
 10
257.0
 20
-1037.6
 30
0.0
 40
5.0
  0
LINE
  5
3CE
  8
SIZE
  6
CONTINUOUS
 62
    30
 10
257.0
 20
-1037.6
 30
0.0
 11
247.0
 21
-1037.6
 31
0.0
  0
CIRCLE
  5
3CF
  8
SIZE
  6
CONTINUOUS
 62
    30
 10
115.0
 20
-1037.6
 30
0.0
 40
5.0
  0
LINE
  5
3D0
  8
SIZE
  6
CONTINUOUS
 62
    30
 10
115.0
 20
-1037.6
 30
0.0
 11
125.0
 21
-1037.6
 31
0.0
  0
TEXT
  5
3D1
  8
SIZE
  6
CONTINUOUS
 62
    30
 10
151.0
 20
-1027.6
 30
0.0
 40
30.0
  1
142
 72
     1
 11
186.0
 21
-1027.6
 31
0.0
  0
POINT
  5
3D2
  8
DEFPOINTS
  6
CONTINUOUS
 62
    30
 10
257.0
 20
-723.0
 30
0.0
  0
POINT
  5
3D3
  8
DEFPOINTS
  6
CONTINUOUS
 62
    30
 10
115.0
 20
-745.0
 30
0.0
  0
POINT
  5
3D4
  8
DEFPOINTS
  6
CONTINUOUS
 62
    30
 10
115.0
 20
-1037.6
 30
0.0
  0
LINE
  5
3D5
  8
SIZE
  6
CONTINUOUS
 62
    30
 10
115.0
 20
-755.0
 30
0.0
 11
115.0
 21
-1050.1
 31
0.0
  0
LINE
  5
3D6
  8
SIZE
  6
CONTINUOUS
 62
    30
 10
0.0
 20
-850.0
 30
0.0
 11
0.0
 21
-1050.1
 31
0.0
  0
LINE
  5
3D7
  8
SIZE
  6
CONTINUOUS
 62
    30
 10
105.0
 20
-1037.6
 30
0.0
 11
10.0
 21
-1037.6
 31
0.0
  0
CIRCLE
  5
3D8
  8
SIZE
  6
CONTINUOUS
 62
    30
 10
115.0
 20
-1037.6
 30
0.0
 40
5.0
  0
LINE
  5
3D9
  8
SIZE
  6
CONTINUOUS
 62
    30
 10
115.0
 20
-1037.6
 30
0.0
 11
105.0
 21
-1037.6
 31
0.0
  0
CIRCLE
  5
3DA
  8
SIZE
  6
CONTINUOUS
 62
    30
 10
0.0
 20
-1037.6
 30
0.0
 40
5.0
  0
LINE
  5
3DB
  8
SIZE
  6
CONTINUOUS
 62
    30
 10
0.0
 20
-1037.6
 30
0.0
 11
10.0
 21
-1037.6
 31
0.0
  0
TEXT
  5
3DC
  8
SIZE
  6
CONTINUOUS
 62
    30
 10
20.0
 20
-1027.6
 30
0.0
 40
30.0
  1
115
 72
     1
 11
50.0
 21
-1027.6
 31
0.0
  0
POINT
  5
3DD
  8
DEFPOINTS
  6
CONTINUOUS
 62
    30
 10
115.0
 20
-745.0
 30
0.0
  0
POINT
  5
3DE
  8
DEFPOINTS
  6
CONTINUOUS
 62
    30
 10
0.0
 20
-840.0
 30
0.0
  0
POINT
  5
3DF
  8
DEFPOINTS
  6
CONTINUOUS
 62
    30
 10
0.0
 20
-1037.6
 30
0.0
  0
LINE
  5
3E0
  8
SIZE
  6
CONTINUOUS
 62
    30
 10
0.0
 20
-850.0
 30
0.0
 11
0.0
 21
-1050.1
 31
0.0
  0
LINE
  5
3E1
  8
SIZE
  6
CONTINUOUS
 62
    30
 10
-189.0
 20
-755.0
 30
0.0
 11
-189.0
 21
-1050.1
 31
0.0
  0
LINE
  5
3E2
  8
SIZE
  6
CONTINUOUS
 62
    30
 10
-10.0
 20
-1037.6
 30
0.0
 11
-179.0
 21
-1037.6
 31
0.0
  0
CIRCLE
  5
3E3
  8
SIZE
  6
CONTINUOUS
 62
    30
 10
0.0
 20
-1037.6
 30
0.0
 40
5.0
  0
LINE
  5
3E4
  8
SIZE
  6
CONTINUOUS
 62
    30
 10
0.0
 20
-1037.6
 30
0.0
 11
-10.0
 21
-1037.6
 31
0.0
  0
CIRCLE
  5
3E5
  8
SIZE
  6
CONTINUOUS
 62
    30
 10
-189.0
 20
-1037.6
 30
0.0
 40
5.0
  0
LINE
  5
3E6
  8
SIZE
  6
CONTINUOUS
 62
    30
 10
-189.0
 20
-1037.6
 30
0.0
 11
-179.0
 21
-1037.6
 31
0.0
  0
TEXT
  5
3E7
  8
SIZE
  6
CONTINUOUS
 62
    30
 10
-169.0
 20
-1027.6
 30
0.0
 40
30.0
  1
189
 72
     1
 11
-134.0
 21
-1027.6
 31
0.0
  0
POINT
  5
3E8
  8
DEFPOINTS
  6
CONTINUOUS
 62
    30
 10
0.0
 20
-840.0
 30
0.0
  0
POINT
  5
3E9
  8
DEFPOINTS
  6
CONTINUOUS
 62
    30
 10
-189.0
 20
-745.0
 30
0.0
  0
POINT
  5
3EA
  8
DEFPOINTS
  6
CONTINUOUS
 62
    30
 10
-189.0
 20
-1037.6
 30
0.0
  0
LINE
  5
3EB
  8
SIZE
  6
CONTINUOUS
 62
    30
 10
-117.0
 20
-755.0
 30
0.0
 11
-117.0
 21
-950.1
 31
0.0
  0
LINE
  5
3EC
  8
SIZE
  6
CONTINUOUS
 62
    30
 10
0.0
 20
-850.0
 30
0.0
 11
0.0
 21
-950.1
 31
0.0
  0
LINE
  5
3ED
  8
SIZE
  6
CONTINUOUS
 62
    30
 10
-107.0
 20
-937.6
 30
0.0
 11
-10.0
 21
-937.6
 31
0.0
  0
CIRCLE
  5
3EE
  8
SIZE
  6
CONTINUOUS
 62
    30
 10
-117.0
 20
-937.6
 30
0.0
 40
5.0
  0
LINE
  5
3EF
  8
SIZE
  6
CONTINUOUS
 62
    30
 10
-117.0
 20
-937.6
 30
0.0
 11
-107.0
 21
-937.6
 31
0.0
  0
CIRCLE
  5
3F0
  8
SIZE
  6
CONTINUOUS
 62
    30
 10
0.0
 20
-937.6
 30
0.0
 40
5.0
  0
LINE
  5
3F1
  8
SIZE
  6
CONTINUOUS
 62
    30
 10
0.0
 20
-937.6
 30
0.0
 11
-10.0
 21
-937.6
 31
0.0
  0
TEXT
  5
3F2
  8
SIZE
  6
CONTINUOUS
 62
    30
 10
-88.5
 20
-927.6
 30
0.0
 40
30.0
  1
117
 72
     1
 11
-58.5
 21
-927.6
 31
0.0
  0
POINT
  5
3F3
  8
DEFPOINTS
  6
CONTINUOUS
 62
    30
 10
-117.0
 20
-745.0
 30
0.0
  0
POINT
  5
3F4
  8
DEFPOINTS
  6
CONTINUOUS
 62
    30
 10
0.0
 20
-840.0
 30
0.0
  0
POINT
  5
3F5
  8
DEFPOINTS
  6
CONTINUOUS
 62
    30
 10
0.0
 20
-937.6
 30
0.0
  0
LINE
  5
3F6
  8
SIZE
  6
CONTINUOUS
 62
    30
 10
-148.823089
 20
-623.019251
 30
0.0
 11
-51.549992
 21
-454.537317
 31
0.0
  0
LINE
  5
3F7
  8
SIZE
  6
CONTINUOUS
 62
    30
 10
-195.0
 20
-601.0
 30
0.0
 11
-195.0
 21
-416.1
 31
0.0
  0
ARC
  5
3F8
  8
SIZE
  6
CONTINUOUS
 62
    30
 10
-195.0
 20
-703.0
 30
0.0
 40
274.4
 50
62.088152
 51
87.911846
  0
CIRCLE
  5
3F9
  8
SIZE
  6
CONTINUOUS
 62
    30
 10
-57.799993
 20
-465.362634
 30
0.0
 40
5.0
  0
LINE
  5
3FA
  8
SIZE
  6
CONTINUOUS
 62
    30
 10
-57.799993
 20
-465.362634
 30
0.0
 11
-66.549917
 21
-460.521267
 31
0.0
  0
CIRCLE
  5
3FB
  8
SIZE
  6
CONTINUOUS
 62
    30
 10
-195.0
 20
-428.6
 30
0.0
 40
5.0
  0
LINE
  5
3FC
  8
SIZE
  6
CONTINUOUS
 62
    30
 10
-195.0
 20
-428.6
 30
0.0
 11
-185.00166
 21
-428.782216
 31
0.0
  0
TEXT
  5
3FD
  8
SIZE
  6
CONTINUOUS
 62
    30
 10
-152.784467
 20
-419.879076
 30
0.0
 40
30.0
  1
30°
 50
345.000005
 72
     1
 11
-121.391877
 21
-428.290692
 31
0.0
  0
POINT
  5
3FE
  8
DEFPOINTS
  6
CONTINUOUS
 62
    30
 10
-195.0
 20
-703.0
 30
0.0
  0
POINT
  5
3FF
  8
DEFPOINTS
  6
CONTINUOUS
 62
    30
 10
-153.82309
 20
-631.679504
 30
0.0
  0
POINT
  5
400
  8
DEFPOINTS
  6
CONTINUOUS
 62
    30
 10
-195.0
 20
-611.0
 30
0.0
  0
POINT
  5
401
  8
DEFPOINTS
  6
CONTINUOUS
 62
    30
 10
-101.149667
 20
-445.148347
 30
0.0
  0
LINE
  5
402
  8
SIZE
  6
CONTINUOUS
 62
    30
 10
0.0
 20
-816.885254
 30
0.0
 11
0.0
 21
-315.685449
 31
0.0
  0
LINE
  5
403
  8
SIZE
  6
CONTINUOUS
 62
    30
 10
-195.0
 20
-601.0
 30
0.0
 11
-195.0
 21
-315.685449
 31
0.0
  0
LINE
  5
404
  8
SIZE
  6
CONTINUOUS
 62
    30
 10
-10.0
 20
-328.185449
 30
0.0
 11
-185.0
 21
-328.185449
 31
0.0
  0
CIRCLE
  5
405
  8
SIZE
  6
CONTINUOUS
 62
    30
 10
0.0
 20
-328.185449
 30
0.0
 40
5.0
  0
LINE
  5
406
  8
SIZE
  6
CONTINUOUS
 62
    30
 10
0.0
 20
-328.185449
 30
0.0
 11
-10.0
 21
-328.185449
 31
0.0
  0
CIRCLE
  5
407
  8
SIZE
  6
CONTINUOUS
 62
    30
 10
-195.0
 20
-328.185449
 30
0.0
 40
5.0
  0
LINE
  5
408
  8
SIZE
  6
CONTINUOUS
 62
    30
 10
-195.0
 20
-328.185449
 30
0.0
 11
-185.0
 21
-328.185449
 31
0.0
  0
TEXT
  5
409
  8
SIZE
  6
CONTINUOUS
 62
    30
 10
-132.5
 20
-318.185449
 30
0.0
 40
30.0
  1
195
 72
     1
 11
-97.5
 21
-318.185449
 31
0.0
  0
POINT
  5
40A
  8
DEFPOINTS
  6
CONTINUOUS
 62
    30
 10
0.0
 20
-826.885254
 30
0.0
  0
POINT
  5
40B
  8
DEFPOINTS
  6
CONTINUOUS
 62
    30
 10
-195.0
 20
-611.0
 30
0.0
  0
POINT
  5
40C
  8
DEFPOINTS
  6
CONTINUOUS
 62
    30
 10
-195.0
 20
-328.185449
 30
0.0
  0
LINE
  5
40D
  8
SIZE
  6
CONTINUOUS
 62
    30
 10
-225.0
 20
-631.0
 30
0.0
 11
-559.9
 21
-631.0
 31
0.0
  0
LINE
  5
40E
  8
SIZE
  6
CONTINUOUS
 62
    30
 10
-294.0
 20
-700.0
 30
0.0
 11
-559.9
 21
-700.0
 31
0.0
  0
LINE
  5
40F
  8
SIZE
  6
CONTINUOUS
 62
    30
 10
-547.4
 20
-641.0
 30
0.0
 11
-547.4
 21
-690.0
 31
0.0
  0
CIRCLE
  5
410
  8
SIZE
  6
CONTINUOUS
 62
    30
 10
-547.4
 20
-631.0
 30
0.0
 40
5.0
  0
LINE
  5
411
  8
SIZE
  6
CONTINUOUS
 62
    30
 10
-547.4
 20
-631.0
 30
0.0
 11
-547.4
 21
-641.0
 31
0.0
  0
CIRCLE
  5
412
  8
SIZE
  6
CONTINUOUS
 62
    30
 10
-547.4
 20
-700.0
 30
0.0
 40
5.0
  0
LINE
  5
413
  8
SIZE
  6
CONTINUOUS
 62
    30
 10
-547.4
 20
-700.0
 30
0.0
 11
-547.4
 21
-690.0
 31
0.0
  0
TEXT
  5
414
  8
SIZE
  6
CONTINUOUS
 62
    30
 10
-557.4
 20
-690.5
 30
0.0
 40
30.0
  1
69
 50
90.0
 72
     1
 11
-557.4
 21
-665.5
 31
0.0
  0
POINT
  5
415
  8
DEFPOINTS
  6
CONTINUOUS
 62
    30
 10
-215.0
 20
-631.0
 30
0.0
  0
POINT
  5
416
  8
DEFPOINTS
  6
CONTINUOUS
 62
    30
 10
-284.0
 20
-700.0
 30
0.0
  0
POINT
  5
417
  8
DEFPOINTS
  6
CONTINUOUS
 62
    30
 10
-547.4
 20
-700.0
 30
0.0
  0
LINE
  5
418
  8
SIZE
  6
CONTINUOUS
 62
    30
 10
-189.999998
 20
-622.339747
 30
0.0
 11
-132.549951
 21
-522.83341
 31
0.0
  0
LINE
  5
419
  8
SIZE
  6
CONTINUOUS
 62
    30
 10
-148.823087
 20
-623.019252
 30
0.0
 11
-101.373044
 21
-540.833417
 31
0.0
  0
LINE
  5
41A
  8
SIZE
  6
CONTINUOUS
 62
    30
 10
-98.962794
 20
-556.658735
 30
0.0
 11
-90.302542
 21
-561.658738
 31
0.0
  0
LINE
  5
41B
  8
SIZE
  6
CONTINUOUS
 62
    30
 10
-147.460207
 20
-528.658724
 30
0.0
 11
-216.742228
 21
-488.658705
 31
0.0
  0
LINE
  5
41C
  8
SIZE
  6
CONTINUOUS
 62
    30
 10
-107.623047
 20
-551.658733
 30
0.0
 11
-138.799954
 21
-533.658726
 31
0.0
  0
CIRCLE
  5
41D
  8
SIZE
  6
CONTINUOUS
 62
    30
 10
-107.623047
 20
-551.658733
 30
0.0
 40
5.0
  0
LINE
  5
41E
  8
SIZE
  6
CONTINUOUS
 62
    30
 10
-107.623047
 20
-551.658733
 30
0.0
 11
-98.962794
 21
-556.658735
 31
0.0
  0
CIRCLE
  5
41F
  8
SIZE
  6
CONTINUOUS
 62
    30
 10
-138.799954
 20
-533.658726
 30
0.0
 40
5.0
  0
LINE
  5
420
  8
SIZE
  6
CONTINUOUS
 62
    30
 10
-138.799954
 20
-533.658726
 30
0.0
 11
-147.460207
 21
-528.658724
 31
0.0
  0
TEXT
  5
421
  8
SIZE
  6
CONTINUOUS
 62
    30
 10
-203.081973
 20
-484.998456
 30
0.0
 40
30.0
  1
36
 50
329.999988
 72
     1
 11
-181.431341
 21
-497.498461
 31
0.0
  0
POINT
  5
422
  8
DEFPOINTS
  6
CONTINUOUS
 62
    30
 10
-195.0
 20
-631.0
 30
0.0
  0
POINT
  5
423
  8
DEFPOINTS
  6
CONTINUOUS
 62
    30
 10
-153.82309
 20
-631.679504
 30
0.0
  0
POINT
  5
424
  8
DEFPOINTS
  6
CONTINUOUS
 62
    30
 10
-107.623047
 20
-551.658733
 30
0.0
  0
LINE
  5
425
  8
SIZE
  6
CONTINUOUS
 62
    30
 10
287.0
 20
-703.0
 30
0.0
 11
505.1
 21
-703.0
 31
0.0
  0
LINE
  5
426
  8
SIZE
  6
CONTINUOUS
 62
    30
 10
355.0
 20
-790.0
 30
0.0
 11
505.1
 21
-790.0
 31
0.0
  0
LINE
  5
427
  8
SIZE
  6
CONTINUOUS
 62
    30
 10
492.6
 20
-713.0
 30
0.0
 11
492.6
 21
-780.0
 31
0.0
  0
CIRCLE
  5
428
  8
SIZE
  6
CONTINUOUS
 62
    30
 10
492.6
 20
-703.0
 30
0.0
 40
5.0
  0
LINE
  5
429
  8
SIZE
  6
CONTINUOUS
 62
    30
 10
492.6
 20
-703.0
 30
0.0
 11
492.6
 21
-713.0
 31
0.0
  0
CIRCLE
  5
42A
  8
SIZE
  6
CONTINUOUS
 62
    30
 10
492.6
 20
-790.0
 30
0.0
 40
5.0
  0
LINE
  5
42B
  8
SIZE
  6
CONTINUOUS
 62
    30
 10
492.6
 20
-790.0
 30
0.0
 11
492.6
 21
-780.0
 31
0.0
  0
TEXT
  5
42C
  8
SIZE
  6
CONTINUOUS
 62
    30
 10
482.6
 20
-771.5
 30
0.0
 40
30.0
  1
87
 50
90.0
 72
     1
 11
482.6
 21
-746.5
 31
0.0
  0
POINT
  5
42D
  8
DEFPOINTS
  6
CONTINUOUS
 62
    30
 10
277.0
 20
-703.0
 30
0.0
  0
POINT
  5
42E
  8
DEFPOINTS
  6
CONTINUOUS
 62
    30
 10
345.0
 20
-790.0
 30
0.0
  0
POINT
  5
42F
  8
DEFPOINTS
  6
CONTINUOUS
 62
    30
 10
492.6
 20
-790.0
 30
0.0
  0
LINE
  5
430
  8
SIZE
  6
CONTINUOUS
 62
    30
 10
355.0
 20
-790.0
 30
0.0
 11
805.1
 21
-790.0
 31
0.0
  0
LINE
  5
431
  8
SIZE
  6
CONTINUOUS
 62
    30
 10
355.0
 20
0.0
 30
0.0
 11
805.1
 21
0.0
 31
0.0
  0
LINE
  5
432
  8
SIZE
  6
CONTINUOUS
 62
    30
 10
792.6
 20
-780.0
 30
0.0
 11
792.6
 21
-10.0
 31
0.0
  0
CIRCLE
  5
433
  8
SIZE
  6
CONTINUOUS
 62
    30
 10
792.6
 20
-790.0
 30
0.0
 40
5.0
  0
LINE
  5
434
  8
SIZE
  6
CONTINUOUS
 62
    30
 10
792.6
 20
-790.0
 30
0.0
 11
792.6
 21
-780.0
 31
0.0
  0
CIRCLE
  5
435
  8
SIZE
  6
CONTINUOUS
 62
    30
 10
792.6
 20
0.0
 30
0.0
 40
5.0
  0
LINE
  5
436
  8
SIZE
  6
CONTINUOUS
 62
    30
 10
792.6
 20
0.0
 30
0.0
 11
792.6
 21
-10.0
 31
0.0
  0
TEXT
  5
437
  8
SIZE
  6
CONTINUOUS
 62
    30
 10
782.6
 20
-432.5
 30
0.0
 40
30.0
  1
790
 50
90.0
 72
     1
 11
782.6
 21
-395.0
 31
0.0
  0
POINT
  5
438
  8
DEFPOINTS
  6
CONTINUOUS
 62
    30
 10
345.0
 20
-790.0
 30
0.0
  0
POINT
  5
439
  8
DEFPOINTS
  6
CONTINUOUS
 62
    30
 10
345.0
 20
0.0
 30
0.0
  0
POINT
  5
43A
  8
DEFPOINTS
  6
CONTINUOUS
 62
    30
 10
792.6
 20
0.0
 30
0.0
  0
LINE
  5
43B
  8
SIZE
  6
CONTINUOUS
 62
    30
 10
345.0
 20
-1400.0
 30
0.0
 11
345.0
 21
-1550.1
 31
0.0
  0
LINE
  5
43C
  8
SIZE
  6
CONTINUOUS
 62
    30
 10
-345.0
 20
-1400.0
 30
0.0
 11
-345.0
 21
-1550.1
 31
0.0
  0
LINE
  5
43D
  8
SIZE
  6
CONTINUOUS
 62
    30
 10
335.0
 20
-1537.6
 30
0.0
 11
-335.0
 21
-1537.6
 31
0.0
  0
CIRCLE
  5
43E
  8
SIZE
  6
CONTINUOUS
 62
    30
 10
345.0
 20
-1537.6
 30
0.0
 40
5.0
  0
LINE
  5
43F
  8
SIZE
  6
CONTINUOUS
 62
    30
 10
345.0
 20
-1537.6
 30
0.0
 11
335.0
 21
-1537.6
 31
0.0
  0
CIRCLE
  5
440
  8
SIZE
  6
CONTINUOUS
 62
    30
 10
-345.0
 20
-1537.6
 30
0.0
 40
5.0
  0
LINE
  5
441
  8
SIZE
  6
CONTINUOUS
 62
    30
 10
-345.0
 20
-1537.6
 30
0.0
 11
-335.0
 21
-1537.6
 31
0.0
  0
TEXT
  5
442
  8
SIZE
  6
CONTINUOUS
 62
    30
 10
-37.5
 20
-1527.6
 30
0.0
 40
30.0
  1
690
 72
     1
 11
0.0
 21
-1527.6
 31
0.0
  0
POINT
  5
443
  8
DEFPOINTS
  6
CONTINUOUS
 62
    30
 10
345.0
 20
-1390.0
 30
0.0
  0
POINT
  5
444
  8
DEFPOINTS
  6
CONTINUOUS
 62
    30
 10
-345.0
 20
-1390.0
 30
0.0
  0
POINT
  5
445
  8
DEFPOINTS
  6
CONTINUOUS
 62
    30
 10
-345.0
 20
-1537.6
 30
0.0
  0
LINE
  5
446
  8
SIZE
  6
CONTINUOUS
 62
    30
 10
355.0
 20
-1390.0
 30
0.0
 11
805.1
 21
-1390.0
 31
0.0
  0
LINE
  5
447
  8
SIZE
  6
CONTINUOUS
 62
    30
 10
355.0
 20
-790.0
 30
0.0
 11
805.1
 21
-790.0
 31
0.0
  0
LINE
  5
448
  8
SIZE
  6
CONTINUOUS
 62
    30
 10
792.6
 20
-1380.0
 30
0.0
 11
792.6
 21
-800.0
 31
0.0
  0
CIRCLE
  5
449
  8
SIZE
  6
CONTINUOUS
 62
    30
 10
792.6
 20
-1390.0
 30
0.0
 40
5.0
  0
LINE
  5
44A
  8
SIZE
  6
CONTINUOUS
 62
    30
 10
792.6
 20
-1390.0
 30
0.0
 11
792.6
 21
-1380.0
 31
0.0
  0
CIRCLE
  5
44B
  8
SIZE
  6
CONTINUOUS
 62
    30
 10
792.6
 20
-790.0
 30
0.0
 40
5.0
  0
LINE
  5
44C
  8
SIZE
  6
CONTINUOUS
 62
    30
 10
792.6
 20
-790.0
 30
0.0
 11
792.6
 21
-800.0
 31
0.0
  0
TEXT
  5
44D
  8
SIZE
  6
CONTINUOUS
 62
    30
 10
782.6
 20
-1125.0
 30
0.0
 40
30.0
  1
600
 50
90.0
 72
     1
 11
782.6
 21
-1090.0
 31
0.0
  0
POINT
  5
44E
  8
DEFPOINTS
  6
CONTINUOUS
 62
    30
 10
345.0
 20
-1390.0
 30
0.0
  0
POINT
  5
44F
  8
DEFPOINTS
  6
CONTINUOUS
 62
    30
 10
345.0
 20
-790.0
 30
0.0
  0
POINT
  5
450
  8
DEFPOINTS
  6
CONTINUOUS
 62
    30
 10
792.6
 20
-790.0
 30
0.0
  0
LINE
  5
451
  8
SIZE
  6
CONTINUOUS
 62
    30
 10
225.0
 20
-62.0
 30
0.0
 11
225.0
 21
114.9
 31
0.0
  0
LINE
  5
452
  8
SIZE
  6
CONTINUOUS
 62
    30
 10
319.0
 20
-62.0
 30
0.0
 11
319.0
 21
114.9
 31
0.0
  0
LINE
  5
453
  8
SIZE
  6
CONTINUOUS
 62
    30
 10
235.0
 20
102.4
 30
0.0
 11
309.0
 21
102.4
 31
0.0
  0
CIRCLE
  5
454
  8
SIZE
  6
CONTINUOUS
 62
    30
 10
225.0
 20
102.4
 30
0.0
 40
5.0
  0
LINE
  5
455
  8
SIZE
  6
CONTINUOUS
 62
    30
 10
225.0
 20
102.4
 30
0.0
 11
235.0
 21
102.4
 31
0.0
  0
CIRCLE
  5
456
  8
SIZE
  6
CONTINUOUS
 62
    30
 10
319.0
 20
102.4
 30
0.0
 40
5.0
  0
LINE
  5
457
  8
SIZE
  6
CONTINUOUS
 62
    30
 10
319.0
 20
102.4
 30
0.0
 11
309.0
 21
102.4
 31
0.0
  0
TEXT
  5
458
  8
SIZE
  6
CONTINUOUS
 62
    30
 10
247.0
 20
112.4
 30
0.0
 40
30.0
  1
94
 72
     1
 11
272.0
 21
112.4
 31
0.0
  0
POINT
  5
459
  8
DEFPOINTS
  6
CONTINUOUS
 62
    30
 10
225.0
 20
-72.0
 30
0.0
  0
POINT
  5
45A
  8
DEFPOINTS
  6
CONTINUOUS
 62
    30
 10
319.0
 20
-72.0
 30
0.0
  0
POINT
  5
45B
  8
DEFPOINTS
  6
CONTINUOUS
 62
    30
 10
319.0
 20
102.4
 30
0.0
  0
LINE
  5
45C
  8
SIZE
  6
CONTINUOUS
 62
    30
 10
-225.0
 20
-62.0
 30
0.0
 11
-225.0
 21
114.9
 31
0.0
  0
LINE
  5
45D
  8
SIZE
  6
CONTINUOUS
 62
    30
 10
225.0
 20
-62.0
 30
0.0
 11
225.0
 21
114.9
 31
0.0
  0
LINE
  5
45E
  8
SIZE
  6
CONTINUOUS
 62
    30
 10
-215.0
 20
102.4
 30
0.0
 11
215.0
 21
102.4
 31
0.0
  0
CIRCLE
  5
45F
  8
SIZE
  6
CONTINUOUS
 62
    30
 10
-225.0
 20
102.4
 30
0.0
 40
5.0
  0
LINE
  5
460
  8
SIZE
  6
CONTINUOUS
 62
    30
 10
-225.0
 20
102.4
 30
0.0
 11
-215.0
 21
102.4
 31
0.0
  0
CIRCLE
  5
461
  8
SIZE
  6
CONTINUOUS
 62
    30
 10
225.0
 20
102.4
 30
0.0
 40
5.0
  0
LINE
  5
462
  8
SIZE
  6
CONTINUOUS
 62
    30
 10
225.0
 20
102.4
 30
0.0
 11
215.0
 21
102.4
 31
0.0
  0
TEXT
  5
463
  8
SIZE
  6
CONTINUOUS
 62
    30
 10
-37.5
 20
112.4
 30
0.0
 40
30.0
  1
450
 72
     1
 11
0.0
 21
112.4
 31
0.0
  0
POINT
  5
464
  8
DEFPOINTS
  6
CONTINUOUS
 62
    30
 10
-225.0
 20
-72.0
 30
0.0
  0
POINT
  5
465
  8
DEFPOINTS
  6
CONTINUOUS
 62
    30
 10
225.0
 20
-72.0
 30
0.0
  0
POINT
  5
466
  8
DEFPOINTS
  6
CONTINUOUS
 62
    30
 10
225.0
 20
102.4
 30
0.0
  0
LINE
  5
467
  8
SIZE
  6
CONTINUOUS
 62
    30
 10
-319.0
 20
-76.0
 30
0.0
 11
-319.0
 21
114.9
 31
0.0
  0
LINE
  5
468
  8
SIZE
  6
CONTINUOUS
 62
    30
 10
-225.0
 20
-62.0
 30
0.0
 11
-225.0
 21
114.9
 31
0.0
  0
LINE
  5
469
  8
SIZE
  6
CONTINUOUS
 62
    30
 10
-309.0
 20
102.4
 30
0.0
 11
-235.0
 21
102.4
 31
0.0
  0
CIRCLE
  5
46A
  8
SIZE
  6
CONTINUOUS
 62
    30
 10
-319.0
 20
102.4
 30
0.0
 40
5.0
  0
LINE
  5
46B
  8
SIZE
  6
CONTINUOUS
 62
    30
 10
-319.0
 20
102.4
 30
0.0
 11
-309.0
 21
102.4
 31
0.0
  0
CIRCLE
  5
46C
  8
SIZE
  6
CONTINUOUS
 62
    30
 10
-225.0
 20
102.4
 30
0.0
 40
5.0
  0
LINE
  5
46D
  8
SIZE
  6
CONTINUOUS
 62
    30
 10
-225.0
 20
102.4
 30
0.0
 11
-235.0
 21
102.4
 31
0.0
  0
TEXT
  5
46E
  8
SIZE
  6
CONTINUOUS
 62
    30
 10
-297.0
 20
112.4
 30
0.0
 40
30.0
  1
94
 72
     1
 11
-272.0
 21
112.4
 31
0.0
  0
POINT
  5
46F
  8
DEFPOINTS
  6
CONTINUOUS
 62
    30
 10
-319.0
 20
-86.0
 30
0.0
  0
POINT
  5
470
  8
DEFPOINTS
  6
CONTINUOUS
 62
    30
 10
-225.0
 20
-72.0
 30
0.0
  0
POINT
  5
471
  8
DEFPOINTS
  6
CONTINUOUS
 62
    30
 10
-225.0
 20
102.4
 30
0.0
  0
LINE
  5
472
  8
SIZE
  6
CONTINUOUS
 62
    30
 10
272.0
 20
-97.0
 30
0.0
 11
272.0
 21
214.9
 31
0.0
  0
LINE
  5
473
  8
SIZE
  6
CONTINUOUS
 62
    30
 10
-272.0
 20
-97.0
 30
0.0
 11
-272.0
 21
214.9
 31
0.0
  0
LINE
  5
474
  8
SIZE
  6
CONTINUOUS
 62
    30
 10
262.0
 20
202.4
 30
0.0
 11
-262.0
 21
202.4
 31
0.0
  0
CIRCLE
  5
475
  8
SIZE
  6
CONTINUOUS
 62
    30
 10
272.0
 20
202.4
 30
0.0
 40
5.0
  0
LINE
  5
476
  8
SIZE
  6
CONTINUOUS
 62
    30
 10
272.0
 20
202.4
 30
0.0
 11
262.0
 21
202.4
 31
0.0
  0
CIRCLE
  5
477
  8
SIZE
  6
CONTINUOUS
 62
    30
 10
-272.0
 20
202.4
 30
0.0
 40
5.0
  0
LINE
  5
478
  8
SIZE
  6
CONTINUOUS
 62
    30
 10
-272.0
 20
202.4
 30
0.0
 11
-262.0
 21
202.4
 31
0.0
  0
TEXT
  5
479
  8
SIZE
  6
CONTINUOUS
 62
    30
 10
-40.0
 20
212.4
 30
0.0
 40
30.0
  1
544
 72
     1
 11
0.0
 21
212.4
 31
0.0
  0
POINT
  5
47A
  8
DEFPOINTS
  6
CONTINUOUS
 62
    30
 10
272.0
 20
-107.0
 30
0.0
  0
POINT
  5
47B
  8
DEFPOINTS
  6
CONTINUOUS
 62
    30
 10
-272.0
 20
-107.0
 30
0.0
  0
POINT
  5
47C
  8
DEFPOINTS
  6
CONTINUOUS
 62
    30
 10
-272.0
 20
202.4
 30
0.0
  0
LINE
  5
47D
  8
SIZE
  6
CONTINUOUS
 62
    30
 10
-345.0
 20
10.0
 30
0.0
 11
-345.0
 21
314.9
 31
0.0
  0
LINE
  5
47E
  8
SIZE
  6
CONTINUOUS
 62
    30
 10
345.0
 20
10.0
 30
0.0
 11
345.0
 21
314.9
 31
0.0
  0
LINE
  5
47F
  8
SIZE
  6
CONTINUOUS
 62
    30
 10
-335.0
 20
302.4
 30
0.0
 11
335.0
 21
302.4
 31
0.0
  0
CIRCLE
  5
480
  8
SIZE
  6
CONTINUOUS
 62
    30
 10
-345.0
 20
302.4
 30
0.0
 40
5.0
  0
LINE
  5
481
  8
SIZE
  6
CONTINUOUS
 62
    30
 10
-345.0
 20
302.4
 30
0.0
 11
-335.0
 21
302.4
 31
0.0
  0
CIRCLE
  5
482
  8
SIZE
  6
CONTINUOUS
 62
    30
 10
345.0
 20
302.4
 30
0.0
 40
5.0
  0
LINE
  5
483
  8
SIZE
  6
CONTINUOUS
 62
    30
 10
345.0
 20
302.4
 30
0.0
 11
335.0
 21
302.4
 31
0.0
  0
TEXT
  5
484
  8
SIZE
  6
CONTINUOUS
 62
    30
 10
-37.5
 20
312.4
 30
0.0
 40
30.0
  1
690
 72
     1
 11
0.0
 21
312.4
 31
0.0
  0
POINT
  5
485
  8
DEFPOINTS
  6
CONTINUOUS
 62
    30
 10
-345.0
 20
0.0
 30
0.0
  0
POINT
  5
486
  8
DEFPOINTS
  6
CONTINUOUS
 62
    30
 10
345.0
 20
0.0
 30
0.0
  0
POINT
  5
487
  8
DEFPOINTS
  6
CONTINUOUS
 62
    30
 10
345.0
 20
302.4
 30
0.0
  0
LINE
  5
488
  8
SIZE
  6
CONTINUOUS
 62
    30
 10
-355.0
 20
-790.0
 30
0.0
 11
-559.9
 21
-790.0
 31
0.0
  0
LINE
  5
489
  8
SIZE
  6
CONTINUOUS
 62
    30
 10
-294.0
 20
-700.0
 30
0.0
 11
-559.9
 21
-700.0
 31
0.0
  0
LINE
  5
48A
  8
SIZE
  6
CONTINUOUS
 62
    30
 10
-547.4
 20
-780.0
 30
0.0
 11
-547.4
 21
-710.0
 31
0.0
  0
CIRCLE
  5
48B
  8
SIZE
  6
CONTINUOUS
 62
    30
 10
-547.4
 20
-790.0
 30
0.0
 40
5.0
  0
LINE
  5
48C
  8
SIZE
  6
CONTINUOUS
 62
    30
 10
-547.4
 20
-790.0
 30
0.0
 11
-547.4
 21
-780.0
 31
0.0
  0
CIRCLE
  5
48D
  8
SIZE
  6
CONTINUOUS
 62
    30
 10
-547.4
 20
-700.0
 30
0.0
 40
5.0
  0
LINE
  5
48E
  8
SIZE
  6
CONTINUOUS
 62
    30
 10
-547.4
 20
-700.0
 30
0.0
 11
-547.4
 21
-710.0
 31
0.0
  0
TEXT
  5
48F
  8
SIZE
  6
CONTINUOUS
 62
    30
 10
-557.4
 20
-767.5
 30
0.0
 40
30.0
  1
90
 50
90.0
 72
     1
 11
-557.4
 21
-745.0
 31
0.0
  0
POINT
  5
490
  8
DEFPOINTS
  6
CONTINUOUS
 62
    30
 10
-345.0
 20
-790.0
 30
0.0
  0
POINT
  5
491
  8
DEFPOINTS
  6
CONTINUOUS
 62
    30
 10
-284.0
 20
-700.0
 30
0.0
  0
POINT
  5
492
  8
DEFPOINTS
  6
CONTINUOUS
 62
    30
 10
-547.4
 20
-700.0
 30
0.0
  0
LINE
  5
493
  8
SIZE
  6
CONTINUOUS
 62
    30
 10
-264.0
 20
-730.0
 30
0.0
 11
-264.0
 21
-1050.1
 31
0.0
  0
LINE
  5
494
  8
SIZE
  6
CONTINUOUS
 62
    30
 10
-189.0
 20
-755.0
 30
0.0
 11
-189.0
 21
-1050.1
 31
0.0
  0
LINE
  5
495
  8
SIZE
  6
CONTINUOUS
 62
    30
 10
-254.0
 20
-1037.6
 30
0.0
 11
-199.0
 21
-1037.6
 31
0.0
  0
CIRCLE
  5
496
  8
SIZE
  6
CONTINUOUS
 62
    30
 10
-264.0
 20
-1037.6
 30
0.0
 40
5.0
  0
LINE
  5
497
  8
SIZE
  6
CONTINUOUS
 62
    30
 10
-264.0
 20
-1037.6
 30
0.0
 11
-254.0
 21
-1037.6
 31
0.0
  0
CIRCLE
  5
498
  8
SIZE
  6
CONTINUOUS
 62
    30
 10
-189.0
 20
-1037.6
 30
0.0
 40
5.0
  0
LINE
  5
499
  8
SIZE
  6
CONTINUOUS
 62
    30
 10
-189.0
 20
-1037.6
 30
0.0
 11
-199.0
 21
-1037.6
 31
0.0
  0
TEXT
  5
49A
  8
SIZE
  6
CONTINUOUS
 62
    30
 10
-251.5
 20
-1027.6
 30
0.0
 40
30.0
  1
75
 72
     1
 11
-226.5
 21
-1027.6
 31
0.0
  0
POINT
  5
49B
  8
DEFPOINTS
  6
CONTINUOUS
 62
    30
 10
-264.0
 20
-720.0
 30
0.0
  0
POINT
  5
49C
  8
DEFPOINTS
  6
CONTINUOUS
 62
    30
 10
-189.0
 20
-745.0
 30
0.0
  0
POINT
  5
49D
  8
DEFPOINTS
  6
CONTINUOUS
 62
    30
 10
-189.0
 20
-1037.6
 30
0.0
  0
LINE
  5
49E
  8
SIZE
  6
CONTINUOUS
 62
    30
 10
-345.0
 20
-800.0
 30
0.0
 11
-345.0
 21
-1050.1
 31
0.0
  0
LINE
  5
49F
  8
SIZE
  6
CONTINUOUS
 62
    30
 10
-264.0
 20
-730.0
 30
0.0
 11
-264.0
 21
-1050.1
 31
0.0
  0
LINE
  5
4A0
  8
SIZE
  6
CONTINUOUS
 62
    30
 10
-335.0
 20
-1037.6
 30
0.0
 11
-274.0
 21
-1037.6
 31
0.0
  0
CIRCLE
  5
4A1
  8
SIZE
  6
CONTINUOUS
 62
    30
 10
-345.0
 20
-1037.6
 30
0.0
 40
5.0
  0
LINE
  5
4A2
  8
SIZE
  6
CONTINUOUS
 62
    30
 10
-345.0
 20
-1037.6
 30
0.0
 11
-335.0
 21
-1037.6
 31
0.0
  0
CIRCLE
  5
4A3
  8
SIZE
  6
CONTINUOUS
 62
    30
 10
-264.0
 20
-1037.6
 30
0.0
 40
5.0
  0
LINE
  5
4A4
  8
SIZE
  6
CONTINUOUS
 62
    30
 10
-264.0
 20
-1037.6
 30
0.0
 11
-274.0
 21
-1037.6
 31
0.0
  0
TEXT
  5
4A5
  8
SIZE
  6
CONTINUOUS
 62
    30
 10
-324.5
 20
-1027.6
 30
0.0
 40
30.0
  1
81
 72
     1
 11
-304.5
 21
-1027.6
 31
0.0
  0
POINT
  5
4A6
  8
DEFPOINTS
  6
CONTINUOUS
 62
    30
 10
-345.0
 20
-790.0
 30
0.0
  0
POINT
  5
4A7
  8
DEFPOINTS
  6
CONTINUOUS
 62
    30
 10
-264.0
 20
-720.0
 30
0.0
  0
POINT
  5
4A8
  8
DEFPOINTS
  6
CONTINUOUS
 62
    30
 10
-264.0
 20
-1037.6
 30
0.0
  0
LINE
  5
4A9
  8
SIZE
  6
CONTINUOUS
 62
    30
 10
355.0
 20
-790.0
 30
0.0
 11
605.1
 21
-790.0
 31
0.0
  0
LINE
  5
4AA
  8
SIZE
  6
CONTINUOUS
 62
    30
 10
145.0
 20
-725.0
 30
0.0
 11
605.1
 21
-725.0
 31
0.0
  0
LINE
  5
4AB
  8
SIZE
  6
CONTINUOUS
 62
    30
 10
592.6
 20
-780.0
 30
0.0
 11
592.6
 21
-735.0
 31
0.0
  0
CIRCLE
  5
4AC
  8
SIZE
  6
CONTINUOUS
 62
    30
 10
592.6
 20
-790.0
 30
0.0
 40
5.0
  0
LINE
  5
4AD
  8
SIZE
  6
CONTINUOUS
 62
    30
 10
592.6
 20
-790.0
 30
0.0
 11
592.6
 21
-780.0
 31
0.0
  0
CIRCLE
  5
4AE
  8
SIZE
  6
CONTINUOUS
 62
    30
 10
592.6
 20
-725.0
 30
0.0
 40
5.0
  0
LINE
  5
4AF
  8
SIZE
  6
CONTINUOUS
 62
    30
 10
592.6
 20
-725.0
 30
0.0
 11
592.6
 21
-735.0
 31
0.0
  0
TEXT
  5
4B0
  8
SIZE
  6
CONTINUOUS
 62
    30
 10
582.6
 20
-782.5
 30
0.0
 40
30.0
  1
65
 50
90.0
 72
     1
 11
582.6
 21
-757.5
 31
0.0
  0
POINT
  5
4B1
  8
DEFPOINTS
  6
CONTINUOUS
 62
    30
 10
345.0
 20
-790.0
 30
0.0
  0
POINT
  5
4B2
  8
DEFPOINTS
  6
CONTINUOUS
 62
    30
 10
135.0
 20
-725.0
 30
0.0
  0
POINT
  5
4B3
  8
DEFPOINTS
  6
CONTINUOUS
 62
    30
 10
592.6
 20
-725.0
 30
0.0
  0
LINE
  5
4B4
  8
SIZE
  6
CONTINUOUS
 62
    30
 10
355.0
 20
-790.0
 30
0.0
 11
705.1
 21
-790.0
 31
0.0
  0
LINE
  5
4B5
  8
SIZE
  6
CONTINUOUS
 62
    30
 10
30.0
 20
-702.0
 30
0.0
 11
705.1
 21
-702.0
 31
0.0
  0
LINE
  5
4B6
  8
SIZE
  6
CONTINUOUS
 62
    30
 10
692.6
 20
-780.0
 30
0.0
 11
692.6
 21
-712.0
 31
0.0
  0
CIRCLE
  5
4B7
  8
SIZE
  6
CONTINUOUS
 62
    30
 10
692.6
 20
-790.0
 30
0.0
 40
5.0
  0
LINE
  5
4B8
  8
SIZE
  6
CONTINUOUS
 62
    30
 10
692.6
 20
-790.0
 30
0.0
 11
692.6
 21
-780.0
 31
0.0
  0
CIRCLE
  5
4B9
  8
SIZE
  6
CONTINUOUS
 62
    30
 10
692.6
 20
-702.0
 30
0.0
 40
5.0
  0
LINE
  5
4BA
  8
SIZE
  6
CONTINUOUS
 62
    30
 10
692.6
 20
-702.0
 30
0.0
 11
692.6
 21
-712.0
 31
0.0
  0
TEXT
  5
4BB
  8
SIZE
  6
CONTINUOUS
 62
    30
 10
682.6
 20
-771.0
 30
0.0
 40
30.0
  1
88
 50
90.0
 72
     1
 11
682.6
 21
-746.0
 31
0.0
  0
POINT
  5
4BC
  8
DEFPOINTS
  6
CONTINUOUS
 62
    30
 10
345.0
 20
-790.0
 30
0.0
  0
POINT
  5
4BD
  8
DEFPOINTS
  6
CONTINUOUS
 62
    30
 10
20.0
 20
-702.0
 30
0.0
  0
POINT
  5
4BE
  8
DEFPOINTS
  6
CONTINUOUS
 62
    30
 10
692.6
 20
-702.0
 30
0.0
  0
LINE
  5
4BF
  8
SIZE
  6
CONTINUOUS
 62
    30
 10
302.0
 20
-127.0
 30
0.0
 11
605.1
 21
-127.0
 31
0.0
  0
LINE
  5
4C0
  8
SIZE
  6
CONTINUOUS
 62
    30
 10
30.0
 20
-702.0
 30
0.0
 11
605.1
 21
-702.0
 31
0.0
  0
LINE
  5
4C1
  8
SIZE
  6
CONTINUOUS
 62
    30
 10
592.6
 20
-137.0
 30
0.0
 11
592.6
 21
-692.0
 31
0.0
  0
CIRCLE
  5
4C2
  8
SIZE
  6
CONTINUOUS
 62
    30
 10
592.6
 20
-127.0
 30
0.0
 40
5.0
  0
LINE
  5
4C3
  8
SIZE
  6
CONTINUOUS
 62
    30
 10
592.6
 20
-127.0
 30
0.0
 11
592.6
 21
-137.0
 31
0.0
  0
CIRCLE
  5
4C4
  8
SIZE
  6
CONTINUOUS
 62
    30
 10
592.6
 20
-702.0
 30
0.0
 40
5.0
  0
LINE
  5
4C5
  8
SIZE
  6
CONTINUOUS
 62
    30
 10
592.6
 20
-702.0
 30
0.0
 11
592.6
 21
-692.0
 31
0.0
  0
TEXT
  5
4C6
  8
SIZE
  6
CONTINUOUS
 62
    30
 10
582.6
 20
-454.5
 30
0.0
 40
30.0
  1
575
 50
90.0
 72
     1
 11
582.6
 21
-414.5
 31
0.0
  0
POINT
  5
4C7
  8
DEFPOINTS
  6
CONTINUOUS
 62
    30
 10
292.0
 20
-127.0
 30
0.0
  0
POINT
  5
4C8
  8
DEFPOINTS
  6
CONTINUOUS
 62
    30
 10
20.0
 20
-702.0
 30
0.0
  0
POINT
  5
4C9
  8
DEFPOINTS
  6
CONTINUOUS
 62
    30
 10
592.6
 20
-702.0
 30
0.0
  0
LINE
  5
4CA
  8
SIZE
  6
CONTINUOUS
 62
    30
 10
30.0
 20
-702.0
 30
0.0
 11
705.1
 21
-702.0
 31
0.0
  0
LINE
  5
4CB
  8
SIZE
  6
CONTINUOUS
 62
    30
 10
349.0
 20
-92.0
 30
0.0
 11
705.1
 21
-92.0
 31
0.0
  0
LINE
  5
4CC
  8
SIZE
  6
CONTINUOUS
 62
    30
 10
692.6
 20
-692.0
 30
0.0
 11
692.6
 21
-102.0
 31
0.0
  0
CIRCLE
  5
4CD
  8
SIZE
  6
CONTINUOUS
 62
    30
 10
692.6
 20
-702.0
 30
0.0
 40
5.0
  0
LINE
  5
4CE
  8
SIZE
  6
CONTINUOUS
 62
    30
 10
692.6
 20
-702.0
 30
0.0
 11
692.6
 21
-692.0
 31
0.0
  0
CIRCLE
  5
4CF
  8
SIZE
  6
CONTINUOUS
 62
    30
 10
692.6
 20
-92.0
 30
0.0
 40
5.0
  0
LINE
  5
4D0
  8
SIZE
  6
CONTINUOUS
 62
    30
 10
692.6
 20
-92.0
 30
0.0
 11
692.6
 21
-102.0
 31
0.0
  0
TEXT
  5
4D1
  8
SIZE
  6
CONTINUOUS
 62
    30
 10
682.6
 20
-429.5
 30
0.0
 40
30.0
  1
610
 50
90.0
 72
     1
 11
682.6
 21
-397.0
 31
0.0
  0
POINT
  5
4D2
  8
DEFPOINTS
  6
CONTINUOUS
 62
    30
 10
20.0
 20
-702.0
 30
0.0
  0
POINT
  5
4D3
  8
DEFPOINTS
  6
CONTINUOUS
 62
    30
 10
339.0
 20
-92.0
 30
0.0
  0
POINT
  5
4D4
  8
DEFPOINTS
  6
CONTINUOUS
 62
    30
 10
692.6
 20
-92.0
 30
0.0
  0
LINE
  5
4D5
  8
SIZE
  6
CONTINUOUS
 62
    30
 10
355.0
 20
0.0
 30
0.0
 11
705.1
 21
0.0
 31
0.0
  0
LINE
  5
4D6
  8
SIZE
  6
CONTINUOUS
 62
    30
 10
349.0
 20
-92.0
 30
0.0
 11
705.1
 21
-92.0
 31
0.0
  0
LINE
  5
4D7
  8
SIZE
  6
CONTINUOUS
 62
    30
 10
692.6
 20
-10.0
 30
0.0
 11
692.6
 21
-82.0
 31
0.0
  0
CIRCLE
  5
4D8
  8
SIZE
  6
CONTINUOUS
 62
    30
 10
692.6
 20
0.0
 30
0.0
 40
5.0
  0
LINE
  5
4D9
  8
SIZE
  6
CONTINUOUS
 62
    30
 10
692.6
 20
0.0
 30
0.0
 11
692.6
 21
-10.0
 31
0.0
  0
CIRCLE
  5
4DA
  8
SIZE
  6
CONTINUOUS
 62
    30
 10
692.6
 20
-92.0
 30
0.0
 40
5.0
  0
LINE
  5
4DB
  8
SIZE
  6
CONTINUOUS
 62
    30
 10
692.6
 20
-92.0
 30
0.0
 11
692.6
 21
-82.0
 31
0.0
  0
TEXT
  5
4DC
  8
SIZE
  6
CONTINUOUS
 62
    30
 10
682.6
 20
-71.0
 30
0.0
 40
30.0
  1
92
 50
90.0
 72
     1
 11
682.6
 21
-46.0
 31
0.0
  0
POINT
  5
4DD
  8
DEFPOINTS
  6
CONTINUOUS
 62
    30
 10
345.0
 20
0.0
 30
0.0
  0
POINT
  5
4DE
  8
DEFPOINTS
  6
CONTINUOUS
 62
    30
 10
339.0
 20
-92.0
 30
0.0
  0
POINT
  5
4DF
  8
DEFPOINTS
  6
CONTINUOUS
 62
    30
 10
692.6
 20
-92.0
 30
0.0
  0
LINE
  5
4E0
  8
SIZE
  6
CONTINUOUS
 62
    30
 10
355.0
 20
0.0
 30
0.0
 11
605.1
 21
0.0
 31
0.0
  0
LINE
  5
4E1
  8
SIZE
  6
CONTINUOUS
 62
    30
 10
302.0
 20
-127.0
 30
0.0
 11
605.1
 21
-127.0
 31
0.0
  0
LINE
  5
4E2
  8
SIZE
  6
CONTINUOUS
 62
    30
 10
592.6
 20
-10.0
 30
0.0
 11
592.6
 21
-117.0
 31
0.0
  0
CIRCLE
  5
4E3
  8
SIZE
  6
CONTINUOUS
 62
    30
 10
592.6
 20
0.0
 30
0.0
 40
5.0
  0
LINE
  5
4E4
  8
SIZE
  6
CONTINUOUS
 62
    30
 10
592.6
 20
0.0
 30
0.0
 11
592.6
 21
-10.0
 31
0.0
  0
CIRCLE
  5
4E5
  8
SIZE
  6
CONTINUOUS
 62
    30
 10
592.6
 20
-127.0
 30
0.0
 40
5.0
  0
LINE
  5
4E6
  8
SIZE
  6
CONTINUOUS
 62
    30
 10
592.6
 20
-127.0
 30
0.0
 11
592.6
 21
-117.0
 31
0.0
  0
TEXT
  5
4E7
  8
SIZE
  6
CONTINUOUS
 62
    30
 10
582.6
 20
-87.010548
 30
0.0
 40
30.0
  1
127
 50
90.0
 72
     1
 11
582.6
 21
-52.010548
 31
0.0
  0
POINT
  5
4E8
  8
DEFPOINTS
  6
CONTINUOUS
 62
    30
 10
345.0
 20
0.0
 30
0.0
  0
POINT
  5
4E9
  8
DEFPOINTS
  6
CONTINUOUS
 62
    30
 10
292.0
 20
-127.0
 30
0.0
  0
POINT
  5
4EA
  8
DEFPOINTS
  6
CONTINUOUS
 62
    30
 10
592.6
 20
-127.0
 30
0.0
  0
LINE
  5
4EB
  8
SIZE
  6
CONTINUOUS
 62
    30
 10
-335.0
 20
-790.0
 30
0.0
 11
-46.4
 21
-790.0
 31
0.0
  0
LINE
  5
4EC
  8
SIZE
  6
CONTINUOUS
 62
    30
 10
-87.0
 20
-725.0
 30
0.0
 11
-46.4
 21
-725.0
 31
0.0
  0
LINE
  5
4ED
  8
SIZE
  6
CONTINUOUS
 62
    30
 10
-58.9
 20
-780.0
 30
0.0
 11
-58.9
 21
-735.0
 31
0.0
  0
CIRCLE
  5
4EE
  8
SIZE
  6
CONTINUOUS
 62
    30
 10
-58.9
 20
-790.0
 30
0.0
 40
5.0
  0
LINE
  5
4EF
  8
SIZE
  6
CONTINUOUS
 62
    30
 10
-58.9
 20
-790.0
 30
0.0
 11
-58.9
 21
-780.0
 31
0.0
  0
CIRCLE
  5
4F0
  8
SIZE
  6
CONTINUOUS
 62
    30
 10
-58.9
 20
-725.0
 30
0.0
 40
5.0
  0
LINE
  5
4F1
  8
SIZE
  6
CONTINUOUS
 62
    30
 10
-58.9
 20
-725.0
 30
0.0
 11
-58.9
 21
-735.0
 31
0.0
  0
TEXT
  5
4F2
  8
SIZE
  6
CONTINUOUS
 62
    30
 10
-68.9
 20
-782.5
 30
0.0
 40
30.0
  1
65
 50
90.0
 72
     1
 11
-68.9
 21
-757.5
 31
0.0
  0
POINT
  5
4F3
  8
DEFPOINTS
  6
CONTINUOUS
 62
    30
 10
-345.0
 20
-790.0
 30
0.0
  0
POINT
  5
4F4
  8
DEFPOINTS
  6
CONTINUOUS
 62
    30
 10
-97.0
 20
-725.0
 30
0.0
  0
POINT
  5
4F5
  8
DEFPOINTS
  6
CONTINUOUS
 62
    30
 10
-58.9
 20
-725.0
 30
0.0
  0
LINE
  5
4F6
  8
SIZE
  6
CONTINUOUS
 62
    30
 10
-355.0
 20
-790.0
 30
0.0
 11
-459.9
 21
-790.0
 31
0.0
  0
LINE
  5
4F7
  8
SIZE
  6
CONTINUOUS
 62
    30
 10
-219.0
 20
-725.0
 30
0.0
 11
-459.9
 21
-725.0
 31
0.0
  0
LINE
  5
4F8
  8
SIZE
  6
CONTINUOUS
 62
    30
 10
-447.4
 20
-780.0
 30
0.0
 11
-447.4
 21
-735.0
 31
0.0
  0
CIRCLE
  5
4F9
  8
SIZE
  6
CONTINUOUS
 62
    30
 10
-447.4
 20
-790.0
 30
0.0
 40
5.0
  0
LINE
  5
4FA
  8
SIZE
  6
CONTINUOUS
 62
    30
 10
-447.4
 20
-790.0
 30
0.0
 11
-447.4
 21
-780.0
 31
0.0
  0
CIRCLE
  5
4FB
  8
SIZE
  6
CONTINUOUS
 62
    30
 10
-447.4
 20
-725.0
 30
0.0
 40
5.0
  0
LINE
  5
4FC
  8
SIZE
  6
CONTINUOUS
 62
    30
 10
-447.4
 20
-725.0
 30
0.0
 11
-447.4
 21
-735.0
 31
0.0
  0
TEXT
  5
4FD
  8
SIZE
  6
CONTINUOUS
 62
    30
 10
-457.4
 20
-782.5
 30
0.0
 40
30.0
  1
65
 50
90.0
 72
     1
 11
-457.4
 21
-757.5
 31
0.0
  0
POINT
  5
4FE
  8
DEFPOINTS
  6
CONTINUOUS
 62
    30
 10
-345.0
 20
-790.0
 30
0.0
  0
POINT
  5
4FF
  8
DEFPOINTS
  6
CONTINUOUS
 62
    30
 10
-209.0
 20
-725.0
 30
0.0
  0
POINT
  5
500
  8
DEFPOINTS
  6
CONTINUOUS
 62
    30
 10
-447.4
 20
-725.0
 30
0.0
  0
LINE
  5
501
  8
NOTE
  6
CONTINUOUS
 10
-195.0
 20
-651.0
 30
0.0
 11
-195.0
 21
-611.0
 31
0.0
  0
LINE
  5
502
  8
NOTE
  6
CONTINUOUS
 10
-175.0
 20
-631.0
 30
0.0
 11
-215.0
 21
-631.0
 31
0.0
  0
LINE
  5
503
  8
NOTE
  6
CONTINUOUS
 10
234.453873
 20
-482.0
 30
0.0
 11
35.703873
 21
-482.0
 31
0.0
  0
LINE
  5
504
  8
NOTE
  6
CONTINUOUS
 10
35.703873
 20
-482.0
 30
0.0
 11
-163.823074
 21
-649.0
 31
0.0
  0
LINE
  5
505
  8
NOTE
  6
CONTINUOUS
 10
-163.823074
 20
-649.0
 30
0.0
 11
-162.673882
 21
-647.363126
 31
0.0
  0
LINE
  5
506
  8
NOTE
  6
CONTINUOUS
 10
-163.823074
 20
-649.0
 30
0.0
 11
-162.009408
 21
-648.157021
 31
0.0
  0
TEXT
  5
507
  8
NOTE
  6
CONTINUOUS
 10
96.453873
 20
-481.0
 30
0.0
 40
40.0
  1
D φ18
 50
359.999996
 41
0.721354
  7
STANDARD1
  0
LINE
  5
508
  8
NOTE
  6
CONTINUOUS
 10
-153.823085
 20
-631.679492
 30
0.0
 11
-173.823085
 21
-666.320508
 31
0.0
  0
LINE
  5
509
  8
NOTE
  6
CONTINUOUS
 10
-146.502577
 20
-659.0
 30
0.0
 11
-181.143594
 21
-639.0
 31
0.0
  0
LINE
  5
50A
  8
NOTE
  6
CONTINUOUS
 10
729.533875
 20
-940.0
 30
0.0
 11
421.533905
 21
-940.0
 31
0.0
  0
LINE
  5
50B
  8
NOTE
  6
CONTINUOUS
 10
421.533905
 20
-940.0
 30
0.0
 11
257.0
 21
-703.0
 31
0.0
  0
LINE
  5
50C
  8
NOTE
  6
CONTINUOUS
 10
257.0
 20
-703.0
 30
0.0
 11
258.526911
 21
-704.291721
 31
0.0
  0
LINE
  5
50D
  8
NOTE
  6
CONTINUOUS
 10
257.0
 20
-703.0
 30
0.0
 11
257.676483
 21
-704.882119
 31
0.0
  0
TEXT
  5
50E
  8
NOTE
  6
CONTINUOUS
 10
481.533905
 20
-939.0
 30
0.0
 40
40.0
  1
BH φ49×69
 50
359.999989
 41
0.688889
  7
STANDARD1
  0
LINE
  5
50F
  8
NOTE
  6
CONTINUOUS
 10
277.0
 20
-703.0
 30
0.0
 11
237.0
 21
-703.0
 31
0.0
  0
LINE
  5
510
  8
NOTE
  6
CONTINUOUS
 10
257.0
 20
-723.0
 30
0.0
 11
257.0
 21
-683.0
 31
0.0
  0
LINE
  5
511
  8
NOTE
  6
CONTINUOUS
 10
-252.0
 20
-127.0
 30
0.0
 11
-292.0
 21
-127.0
 31
0.0
  0
LINE
  5
512
  8
NOTE
  6
CONTINUOUS
 10
-272.0
 20
-147.0
 30
0.0
 11
-272.0
 21
-107.0
 31
0.0
  0
LINE
  5
513
  8
NOTE
  6
CONTINUOUS
 10
-299.0
 20
-92.0
 30
0.0
 11
-339.0
 21
-92.0
 31
0.0
  0
LINE
  5
514
  8
NOTE
  6
CONTINUOUS
 10
-319.0
 20
-112.0
 30
0.0
 11
-319.0
 21
-72.0
 31
0.0
  0
LINE
  5
515
  8
NOTE
  6
CONTINUOUS
 10
-689.58429
 20
-150.0
 30
0.0
 11
-437.58429
 21
-150.0
 31
0.0
  0
LINE
  5
516
  8
NOTE
  6
CONTINUOUS
 10
-437.58429
 20
-150.0
 30
0.0
 11
-319.0
 21
-92.0
 31
0.0
  0
LINE
  5
517
  8
NOTE
  6
CONTINUOUS
 10
-319.0
 20
-92.0
 30
0.0
 11
-320.507966
 21
-93.313788
 31
0.0
  0
LINE
  5
518
  8
NOTE
  6
CONTINUOUS
 10
-319.0
 20
-92.0
 30
0.0
 11
-320.962831
 21
-92.383791
 31
0.0
  0
TEXT
  5
519
  8
NOTE
  6
CONTINUOUS
 10
-689.58429
 20
-148.999985
 30
0.0
 40
40.0
  1
AH 4-M12
 50
359.999996
 41
0.631579
  7
STANDARD1
  0
LINE
  5
51A
  8
NOTE
  6
CONTINUOUS
 10
-205.0
 20
-92.0
 30
0.0
 11
-245.0
 21
-92.0
 31
0.0
  0
LINE
  5
51B
  8
NOTE
  6
CONTINUOUS
 10
-225.0
 20
-112.0
 30
0.0
 11
-225.0
 21
-72.0
 31
0.0
  0
LINE
  5
51C
  8
NOTE
  6
CONTINUOUS
 10
-671.773071
 20
100.0
 30
0.0
 11
-411.773102
 21
100.0
 31
0.0
  0
LINE
  5
51D
  8
NOTE
  6
CONTINUOUS
 10
-411.773102
 20
100.0
 30
0.0
 11
-292.0
 21
-72.0
 31
0.0
  0
LINE
  5
51E
  8
NOTE
  6
CONTINUOUS
 10
-292.0
 20
-72.0
 30
0.0
 11
-293.528755
 21
-70.710462
 31
0.0
  0
LINE
  5
51F
  8
NOTE
  6
CONTINUOUS
 10
-292.0
 20
-72.0
 30
0.0
 11
-292.679171
 21
-70.11885
 31
0.0
  0
TEXT
  5
520
  8
NOTE
  6
CONTINUOUS
 10
-671.773071
 20
100.999992
 30
0.0
 40
40.0
  1
脚固定金具
 50
0.000003
 41
0.833333
  7
STANDARD1
  0
LINE
  5
521
  8
NOTE
  6
CONTINUOUS
 10
299.0
 20
-92.0
 30
0.0
 11
339.0
 21
-92.0
 31
0.0
  0
LINE
  5
522
  8
NOTE
  6
CONTINUOUS
 10
319.0
 20
-112.0
 30
0.0
 11
319.0
 21
-72.0
 31
0.0
  0
LINE
  5
523
  8
NOTE
  6
CONTINUOUS
 10
660.319275
 20
100.0
 30
0.0
 11
408.319305
 21
100.0
 31
0.0
  0
LINE
  5
524
  8
NOTE
  6
CONTINUOUS
 10
408.319305
 20
100.0
 30
0.0
 11
272.0
 21
-127.0
 31
0.0
  0
LINE
  5
525
  8
NOTE
  6
CONTINUOUS
 10
272.0
 20
-127.0
 30
0.0
 11
272.550801
 21
-125.077341
 31
0.0
  0
LINE
  5
526
  8
NOTE
  6
CONTINUOUS
 10
272.0
 20
-127.0
 30
0.0
 11
273.438338
 21
-125.610329
 31
0.0
  0
TEXT
  5
527
  8
NOTE
  6
CONTINUOUS
 10
468.319305
 20
101.0
 30
0.0
 40
40.0
  1
AH 3-M12
 50
0.000003
 41
0.631579
  7
STANDARD1
  0
LINE
  5
528
  8
NOTE
  6
CONTINUOUS
 10
205.0
 20
-92.0
 30
0.0
 11
245.0
 21
-92.0
 31
0.0
  0
LINE
  5
529
  8
NOTE
  6
CONTINUOUS
 10
225.0
 20
-112.0
 30
0.0
 11
225.0
 21
-72.0
 31
0.0
  0
LINE
  5
52A
  8
NOTE
  6
CONTINUOUS
 10
252.0
 20
-127.0
 30
0.0
 11
292.0
 21
-127.0
 31
0.0
  0
LINE
  5
52B
  8
NOTE
  6
CONTINUOUS
 10
272.0
 20
-147.0
 30
0.0
 11
272.0
 21
-107.0
 31
0.0
  0
LINE
  5
52C
  8
NOTE
  6
CONTINUOUS
 10
0.0
 20
-722.0
 30
0.0
 11
0.0
 21
-682.0
 31
0.0
  0
LINE
  5
52D
  8
NOTE
  6
CONTINUOUS
 10
20.0
 20
-702.0
 30
0.0
 11
-20.0
 21
-702.0
 31
0.0
  0
LINE
  5
52E
  8
NOTE
  6
CONTINUOUS
 10
-244.0
 20
-700.0
 30
0.0
 11
-284.0
 21
-700.0
 31
0.0
  0
LINE
  5
52F
  8
NOTE
  6
CONTINUOUS
 10
-264.0
 20
-720.0
 30
0.0
 11
-264.0
 21
-680.0
 31
0.0
  0
LINE
  5
530
  8
NOTE
  6
CONTINUOUS
 10
-853.432312
 20
-531.0
 30
0.0
 11
-441.432343
 21
-531.0
 31
0.0
  0
LINE
  5
531
  8
NOTE
  6
CONTINUOUS
 10
-441.432343
 20
-531.0
 30
0.0
 11
-264.0
 21
-700.0
 31
0.0
  0
LINE
  5
532
  8
NOTE
  6
CONTINUOUS
 10
-264.0
 20
-700.0
 30
0.0
 11
-265.755871
 21
-699.042443
 31
0.0
  0
LINE
  5
533
  8
NOTE
  6
CONTINUOUS
 10
-264.0
 20
-700.0
 30
0.0
 11
-265.04185
 21
-698.292795
 31
0.0
  0
TEXT
  5
534
  8
NOTE
  6
CONTINUOUS
 10
-853.432373
 20
-530.0
 30
0.0
 40
40.0
  1
WD R3/4(φ27.2)
 50
0.000003
 41
0.637681
  7
STANDARD1
  0
LINE
  5
535
  8
NOTE
  6
CONTINUOUS
 10
-169.0
 20
-725.0
 30
0.0
 11
-209.0
 21
-725.0
 31
0.0
  0
LINE
  5
536
  8
NOTE
  6
CONTINUOUS
 10
-189.0
 20
-745.0
 30
0.0
 11
-189.0
 21
-705.0
 31
0.0
  0
LINE
  5
537
  8
NOTE
  6
CONTINUOUS
 10
-732.434753
 20
-940.0
 30
0.0
 11
-424.434784
 21
-940.0
 31
0.0
  0
LINE
  5
538
  8
NOTE
  6
CONTINUOUS
 10
-424.434784
 20
-940.0
 30
0.0
 11
-189.0
 21
-725.0
 31
0.0
  0
LINE
  5
539
  8
NOTE
  6
CONTINUOUS
 10
-189.0
 20
-725.0
 30
0.0
 11
-190.077469
 21
-726.684951
 31
0.0
  0
LINE
  5
53A
  8
NOTE
  6
CONTINUOUS
 10
-189.0
 20
-725.0
 30
0.0
 11
-190.775591
 21
-725.920476
 31
0.0
  0
TEXT
  5
53B
  8
NOTE
  6
CONTINUOUS
 10
-732.434814
 20
-939.0
 30
0.0
 40
40.0
  1
HW φ49×69
 50
0.000003
 41
0.688889
  7
STANDARD1
  0
LINE
  5
53C
  8
NOTE
  6
CONTINUOUS
 10
-97.0
 20
-725.0
 30
0.0
 11
-137.0
 21
-725.0
 31
0.0
  0
LINE
  5
53D
  8
NOTE
  6
CONTINUOUS
 10
-117.0
 20
-745.0
 30
0.0
 11
-117.0
 21
-705.0
 31
0.0
  0
LINE
  5
53E
  8
NOTE
  6
CONTINUOUS
 10
-692.434753
 20
-1040.0
 30
0.0
 11
-424.434784
 21
-1040.0
 31
0.0
  0
LINE
  5
53F
  8
NOTE
  6
CONTINUOUS
 10
-424.434784
 20
-1040.0
 30
0.0
 11
-117.0
 21
-725.0
 31
0.0
  0
LINE
  5
540
  8
NOTE
  6
CONTINUOUS
 10
-117.0
 20
-725.0
 30
0.0
 11
-117.978876
 21
-726.744076
 31
0.0
  0
LINE
  5
541
  8
NOTE
  6
CONTINUOUS
 10
-117.0
 20
-725.0
 30
0.0
 11
-118.71977
 21
-726.020976
 31
0.0
  0
TEXT
  5
542
  8
NOTE
  6
CONTINUOUS
 10
-692.434814
 20
-1039.0
 30
0.0
 40
40.0
  1
CL φ32.5
 50
0.000003
 41
0.666667
  7
STANDARD1
  0
LINE
  5
543
  8
NOTE
  6
CONTINUOUS
 10
-732.434814
 20
-1140.0
 30
0.0
 11
-424.434784
 21
-1140.0
 31
0.0
  0
LINE
  5
544
  8
NOTE
  6
CONTINUOUS
 10
-424.434784
 20
-1140.0
 30
0.0
 11
0.0
 21
-725.0
 31
0.0
  0
LINE
  5
545
  8
NOTE
  6
CONTINUOUS
 10
0.0
 20
-725.0
 30
0.0
 11
-1.019403
 21
-726.720703
 31
0.0
  0
LINE
  5
546
  8
NOTE
  6
CONTINUOUS
 10
0.0
 20
-725.0
 30
0.0
 11
-1.74318
 21
-725.980471
 31
0.0
  0
TEXT
  5
547
  8
NOTE
  6
CONTINUOUS
 10
-732.434814
 20
-1139.0
 30
0.0
 40
40.0
  1
EL φ49×69
 50
0.000003
 41
0.688889
  7
STANDARD1
  0
LINE
  5
548
  8
NOTE
  6
CONTINUOUS
 10
20.0
 20
-725.0
 30
0.0
 11
-20.0
 21
-725.0
 31
0.0
  0
LINE
  5
549
  8
NOTE
  6
CONTINUOUS
 10
0.0
 20
-745.0
 30
0.0
 11
0.0
 21
-705.0
 31
0.0
  0
LINE
  5
54A
  8
NOTE
  6
CONTINUOUS
 10
135.0
 20
-725.0
 30
0.0
 11
95.0
 21
-725.0
 31
0.0
  0
LINE
  5
54B
  8
NOTE
  6
CONTINUOUS
 10
115.0
 20
-745.0
 30
0.0
 11
115.0
 21
-705.0
 31
0.0
  0
LINE
  5
54C
  8
NOTE
  6
CONTINUOUS
 10
729.533875
 20
-1040.0
 30
0.0
 11
421.533905
 21
-1040.0
 31
0.0
  0
LINE
  5
54D
  8
NOTE
  6
CONTINUOUS
 10
421.533905
 20
-1040.0
 30
0.0
 11
115.0
 21
-725.0
 31
0.0
  0
LINE
  5
54E
  8
NOTE
  6
CONTINUOUS
 10
115.0
 20
-725.0
 30
0.0
 11
116.71827
 21
-726.023498
 31
0.0
  0
LINE
  5
54F
  8
NOTE
  6
CONTINUOUS
 10
115.0
 20
-725.0
 30
0.0
 11
115.976317
 21
-726.74551
 31
0.0
  0
TEXT
  5
550
  8
NOTE
  6
CONTINUOUS
 10
481.533905
 20
-1039.0
 30
0.0
 40
40.0
  1
CW φ49×69
 50
0.000003
 41
0.688889
  7
STANDARD1
  0
TEXT
  5
551
  8
NOTE
  6
CONTINUOUS
 10
-200.745514
 20
-1588.193726
 30
0.0
 40
40.0
  1
メンテナンススペース
 50
0.000003
 41
0.833333
  7
STANDARD1
  0
TEXT
  5
552
  8
NOTE
  6
CONTINUOUS
 10
848.477783
 20
-1295.538696
 30
0.0
 40
40.0
  1
メンテナンススペース
 50
90.000005
 41
0.833333
  7
STANDARD1
  0
TEXT
  5
553
  8
NOTE
  6
CONTINUOUS
 10
-888.466553
 20
-199.530396
 30
0.0
 40
40.0
  1
（脚固定金具使用時のみ）
 50
0.000003
 41
0.833333
  7
STANDARD1
  0
CIRCLE
  5
554
  8
ARRANGE
  6
CONTINUOUS
 10
0.0
 20
0.0
 30
0.0
 40
15.0
  0
CIRCLE
  5
555
  8
FIX
  6
CONTINUOUS
 10
-272.0
 20
-127.0
 30
0.0
 40
6.0
  0
CIRCLE
  5
556
  8
FIX
  6
CONTINUOUS
 10
-319.0
 20
-92.0
 30
0.0
 40
6.0
  0
CIRCLE
  5
557
  8
FIX
  6
CONTINUOUS
 10
-225.0
 20
-92.0
 30
0.0
 40
6.0
  0
CIRCLE
  5
558
  8
FIX
  6
CONTINUOUS
 10
319.0
 20
-92.0
 30
0.0
 40
6.0
  0
CIRCLE
  5
559
  8
FIX
  6
CONTINUOUS
 10
225.0
 20
-92.0
 30
0.0
 40
6.0
  0
CIRCLE
  5
55A
  8
FIX
  6
CONTINUOUS
 10
272.0
 20
-127.0
 30
0.0
 40
6.0
  0
CIRCLE
  5
55B
  8
FIX
  6
CONTINUOUS
 10
0.0
 20
-702.0
 30
0.0
 40
6.0
  0
LINE
  5
55C
  8
SERVICESPACE
  6
DASHDOT
 10
-345.0
 20
-1390.0
 30
0.0
 11
-345.0
 21
-790.0
 31
0.0
  0
LINE
  5
55D
  8
SERVICESPACE
  6
DASHDOT
 10
-345.0
 20
-790.0
 30
0.0
 11
345.0
 21
-790.0
 31
0.0
  0
LINE
  5
55E
  8
SERVICESPACE
  6
DASHDOT
 10
345.0
 20
-1390.0
 30
0.0
 11
345.0
 21
-790.0
 31
0.0
  0
LINE
  5
55F
  8
SERVICESPACE
  6
DASHDOT
 10
-345.0
 20
-1390.0
 30
0.0
 11
345.0
 21
-1390.0
 31
0.0
  0
LINE
  5
560
  8
SERVICESPACE
  6
DASHDOT
 10
-345.0
 20
-1390.0
 30
0.0
 11
345.0
 21
-790.0
 31
0.0
  0
LINE
  5
561
  8
SERVICESPACE
  6
DASHDOT
 10
-345.0
 20
-790.0
 30
0.0
 11
345.0
 21
-1390.0
 31
0.0
  0
TEXT
  5
562
  8
ETC
  6
CONTINUOUS
 10
611.985535
 20
275.839539
 30
0.0
 40
40.0
  1
TT467CM6
 50
0.000003
 41
0.6
  7
STANDARD1
  0
TEXT
  5
563
  8
ETC
  6
CONTINUOUS
 10
611.985535
 20
205.839554
 30
0.0
 40
40.0
  1
電気温水器
 50
0.000003
 41
0.833333
  7
STANDARD1
  0
ENDSEC
  0
EOF
