  0
SECTION
  2
HEADER
  9
$ACADVER
  1
AC1009
  9
$INSBASE
 10
0.0
 20
0.0
 30
0.0
  9
$EXTMIN
 10
-941.10602
 20
-660.1
 30
0.0
  9
$EXTMAX
 10
1182.916992
 20
2462.4
 30
0.0
  9
$LIMMIN
 10
0.0
 20
0.0
  9
$LIMMAX
 10
12.0
 20
9.0
  9
$ORTHOMODE
 70
     0
  9
$REGENMODE
 70
     1
  9
$FILLMODE
 70
     1
  9
$QTEXTMODE
 70
     0
  9
$MIRRTEXT
 70
     1
  9
$DRAGMODE
 70
     2
  9
$LTSCALE
 40
1.0
  9
$OSMODE
 70
     0
  9
$ATTMODE
 70
     1
  9
$TEXTSIZE
 40
7.0
  9
$TRACEWID
 40
0.05
  9
$TEXTSTYLE
  7
STANDARD1
  9
$CLAYER
  8
0
  9
$CELTYPE
  6
CONTINUOUS
  9
$CECOLOR
 62
   256
  9
$DIMSCALE
 40
1.0
  9
$DIMASZ
 40
10.0
  9
$DIMEXO
 40
10.0
  9
$DIMDLI
 40
8.0
  9
$DIMRND
 40
0.0
  9
$DIMDLE
 40
0.0
  9
$DIMEXE
 40
12.5
  9
$DIMTP
 40
0.0
  9
$DIMTM
 40
0.0
  9
$DIMTXT
 40
30.0
  9
$DIMCEN
 40
2.5
  9
$DIMTSZ
 40
0.0
  9
$DIMTOL
 70
     0
  9
$DIMLIM
 70
     0
  9
$DIMTIH
 70
     0
  9
$DIMTOH
 70
     0
  9
$DIMSE1
 70
     0
  9
$DIMSE2
 70
     0
  9
$DIMTAD
 70
     3
  9
$DIMZIN
 70
    12
  9
$DIMBLK
  1

  9
$DIMASO
 70
     1
  9
$DIMSHO
 70
     1
  9
$DIMPOST
  1

  9
$DIMAPOST
  1

  9
$DIMALT
 70
     0
  9
$DIMALTD
 70
     4
  9
$DIMALTF
 40
25.4
  9
$DIMLFAC
 40
1.0
  9
$DIMTOFL
 70
     1
  9
$DIMTVP
 40
0.0
  9
$DIMTIX
 70
     0
  9
$DIMSOXD
 70
     0
  9
$DIMSAH
 70
     1
  9
$DIMBLK1
  1
_ORIGIN
  9
$DIMBLK2
  1
_ORIGIN
  9
$DIMSTYLE
  2
STANDARD
  9
$DIMCLRD
 70
     0
  9
$DIMCLRE
 70
     0
  9
$DIMCLRT
 70
     0
  9
$DIMTFAC
 40
1.0
  9
$DIMGAP
 40
0.09
  9
$LUNITS
 70
     2
  9
$LUPREC
 70
     3
  9
$SKETCHINC
 40
0.1
  9
$FILLETRAD
 40
0.0
  9
$AUNITS
 70
     0
  9
$AUPREC
 70
     0
  9
$MENU
  1
acad
  9
$ELEVATION
 40
0.0
  9
$PELEVATION
 40
0.0
  9
$THICKNESS
 40
0.0
  9
$LIMCHECK
 70
     0
  9
$BLIPMODE
 70
     0
  9
$CHAMFERA
 40
0.0
  9
$CHAMFERB
 40
0.0
  9
$SKPOLY
 70
     0
  9
$TDCREATE
 40
2452774.404977
  9
$TDUPDATE
 40
2452774.404977
  9
$TDINDWG
 40
0.0
  9
$TDUSRTIMER
 40
0.0
  9
$USRTIMER
 70
     1
  9
$ANGBASE
 50
0.0
  9
$ANGDIR
 70
     0
  9
$PDMODE
 70
     0
  9
$PDSIZE
 40
0.0
  9
$PLINEWID
 40
0.0
  9
$COORDS
 70
     1
  9
$SPLFRAME
 70
     0
  9
$SPLINETYPE
 70
     6
  9
$SPLINESEGS
 70
     8
  9
$ATTDIA
 70
     0
  9
$ATTREQ
 70
     1
  9
$HANDLING
 70
     1
  9
$HANDSEED
  5
5BD
  9
$SURFTAB1
 70
     6
  9
$SURFTAB2
 70
     6
  9
$SURFTYPE
 70
     6
  9
$SURFU
 70
     6
  9
$SURFV
 70
     6
  9
$UCSNAME
  2

  9
$UCSORG
 10
0.0
 20
0.0
 30
0.0
  9
$UCSXDIR
 10
1.0
 20
0.0
 30
0.0
  9
$UCSYDIR
 10
0.0
 20
1.0
 30
0.0
  9
$PUCSNAME
  2

  9
$PUCSORG
 10
0.0
 20
0.0
 30
0.0
  9
$PUCSXDIR
 10
1.0
 20
0.0
 30
0.0
  9
$PUCSYDIR
 10
0.0
 20
1.0
 30
0.0
  9
$USERI1
 70
     0
  9
$USERI2
 70
     0
  9
$USERI3
 70
     0
  9
$USERI4
 70
     0
  9
$USERI5
 70
     0
  9
$USERR1
 40
0.0
  9
$USERR2
 40
0.0
  9
$USERR3
 40
0.0
  9
$USERR4
 40
0.0
  9
$USERR5
 40
0.0
  9
$WORLDVIEW
 70
     1
  9
$SHADEDGE
 70
     3
  9
$SHADEDIF
 70
    70
  9
$TILEMODE
 70
     1
  9
$MAXACTVP
 70
    48
  9
$PLIMCHECK
 70
     0
  9
$PEXTMIN
 10
1.000000E+020
 20
1.000000E+020
 30
1.000000E+020
  9
$PEXTMAX
 10
-1.000000E+020
 20
-1.000000E+020
 30
-1.000000E+020
  9
$PLIMMIN
 10
0.0
 20
0.0
  9
$PLIMMAX
 10
12.0
 20
9.0
  9
$UNITMODE
 70
     0
  9
$VISRETAIN
 70
     1
  9
$PLINEGEN
 70
     0
  9
$PSLTSCALE
 70
     1
  0
ENDSEC
  0
SECTION
  2
TABLES
  0
TABLE
  2
VPORT
 70
     2
  0
VPORT
  2
*ACTIVE
 70
     0
 10
0.0
 20
0.0
 11
1.0
 21
1.0
 12
120.905486
 22
901.15
 13
0.0
 23
0.0
 14
1.0
 24
1.0
 15
0.0
 25
0.0
 16
0.0
 26
0.0
 36
1.0
 17
0.0
 27
0.0
 37
0.0
 40
3182.165605
 41
2.827476
 42
50.0
 43
0.0
 44
0.0
 50
0.0
 51
0.0
 71
     0
 72
   100
 73
     1
 74
     1
 75
     0
 76
     0
 77
     0
 78
     0
  0
ENDTAB
  0
TABLE
  2
LTYPE
 70
     4
  0
LTYPE
  2
CONTINUOUS
 70
     0
  3
Solid line
 72
    65
 73
     0
 40
0.0
  0
LTYPE
  2
DASHED
 70
     0
  3
-- -- -- -- -- -- -- -- -- -- -- -- -- -- --
 72
    65
 73
     2
 40
0.75
 49
0.5
 49
-0.25
  0
LTYPE
  2
DASHDOT
 70
     0
  3
__ . __ . __ . __ . __ . __ . __ . __ . __ . __
 72
    65
 73
     4
 40
125.0
 49
80.0
 49
-20.0
 49
5.0
 49
-20.0
  0
LTYPE
  2
DIVIDE
 70
     0
  3
__ . . __ . . __ . . __ . . __ . . __ . . __
 72
    65
 73
     6
 40
1.25
 49
0.5
 49
-0.25
 49
0.0
 49
-0.25
 49
0.0
 49
-0.25
  0
ENDTAB
  0
TABLE
  2
LAYER
 70
    12
  0
LAYER
  2
0
 70
     0
 62
     3
  6
CONTINUOUS
  0
LAYER
  2
OUTLINE
 70
     0
 62
     3
  6
CONTINUOUS
  0
LAYER
  2
DETAIL
 70
     0
 62
     5
  6
CONTINUOUS
  0
LAYER
  2
BASIS
 70
     0
 62
     6
  6
CONTINUOUS
  0
LAYER
  2
SIZE
 70
     0
 62
    30
  6
CONTINUOUS
  0
LAYER
  2
NOTE
 70
     0
 62
     4
  6
CONTINUOUS
  0
LAYER
  2
ARRANGE
 70
     0
 62
     1
  6
CONTINUOUS
  0
LAYER
  2
FIX
 70
     0
 62
    11
  6
CONTINUOUS
  0
LAYER
  2
SERVICESPACE
 70
     0
 62
     2
  6
CONTINUOUS
  0
LAYER
  2
ETC
 70
     0
 62
    61
  6
CONTINUOUS
  0
LAYER
  2
SYMBOLLINE
 70
     0
 62
     7
  6
CONTINUOUS
  0
LAYER
  2
DEFPOINTS
 70
     0
 62
     7
  6
CONTINUOUS
  0
ENDTAB
  0
TABLE
  2
STYLE
 70
     5
  0
STYLE
  2
STANDARD
 70
     0
 40
0.0
 41
1.0
 50
0.0
 71
     0
 42
0.2
  3
txt
  4

  0
STYLE
  2
STANDARD1
 70
     0
 40
0.0
 41
1.0
 50
0.0
 71
     0
 42
7.0
  3
MONOTXT
  4
BIGFONT
  0
STYLE
  2
STANDARD2
 70
     4
 40
0.0
 41
1.0
 50
0.0
 71
     0
 42
7.0
  3
MONOTXT
  4
BIGFONT
  0
STYLE
  2
STANDARD3
 70
     0
 40
0.0
 41
1.0
 50
0.0
 71
     0
 42
7.0
  3
MONOTXT
  4

  0
STYLE
  2
STANDARD4
 70
     4
 40
0.0
 41
1.0
 50
0.0
 71
     0
 42
7.0
  3
MONOTXT
  4

  0
ENDTAB
  0
TABLE
  2
VIEW
 70
     0
  0
ENDTAB
  0
TABLE
  2
UCS
 70
     0
  0
ENDTAB
  0
TABLE
  2
APPID
 70
     1
  0
APPID
  2
ACAD
 70
     0
  0
ENDTAB
  0
TABLE
  2
DIMSTYLE
 70
     1
  0
DIMSTYLE
  2
STANDARD
 70
     0
  3

  4

  5

  6

  7

 40
1.0
 41
0.18
 42
0.0625
 43
0.38
 44
0.18
 45
0.0
 46
0.0
 47
0.0
 48
0.0
140
0.18
141
0.09
142
0.0
143
25.4
144
1.0
145
0.0
146
1.0
147
0.09
 71
     0
 72
     0
 73
     1
 74
     1
 75
     0
 76
     0
 77
     0
 78
     0
170
     0
171
     2
172
     0
173
     0
174
     0
175
     0
176
     0
177
     0
178
     0
  0
ENDTAB
  0
ENDSEC
  0
SECTION
  2
BLOCKS
  0
BLOCK
  8
0
  2
$MODEL_SPACE
 70
     0
 10
0.0
 20
0.0
 30
0.0
  3
$MODEL_SPACE
  1

  0
ENDBLK
  5
1A
  8
0
  0
BLOCK
 67
     1
  8
0
  2
$PAPER_SPACE
 70
     0
 10
0.0
 20
0.0
 30
0.0
  3
$PAPER_SPACE
  1

  0
ENDBLK
  5
17
 67
     1
  8
0
  0
BLOCK
  8
SIZE
  2
*D0
 70
     1
 10
0.0
 20
0.0
 30
0.0
  3
*D0
  1

  0
TEXT
  5
35
  8
SIZE
  6
CONTINUOUS
 10
-415.999994
 20
81.059998
 30
0.0
 40
2.8
  1
168
 50
90.000005
 41
0.7
  7
STANDARD1
  0
LINE
  5
36
  8
SIZE
  6
CONTINUOUS
 10
-311.0
 20
0.0
 30
0.0
 11
-417.0
 21
0.0
 31
0.0
  0
LINE
  5
37
  8
SIZE
  6
CONTINUOUS
 10
-274.0
 20
168.0
 30
0.0
 11
-417.0
 21
168.0
 31
0.0
  0
LINE
  5
38
  8
SIZE
  6
CONTINUOUS
 10
-415.0
 20
0.0
 30
0.0
 11
-415.0
 21
168.0
 31
0.0
  0
INSERT
  5
3A
  8
SIZE
  2
DOT
 10
-415.0
 20
0.0
 30
0.0
 50
270.0
  0
INSERT
  5
3B
  8
SIZE
  2
DOT
 10
-415.0
 20
168.0
 30
0.0
 50
90.0
  0
POINT
  5
3C
  8
DEFPOINTS
  6
BYBLOCK
 10
-273.0
 20
168.0
 30
0.0
  0
POINT
  5
3D
  8
DEFPOINTS
  6
BYBLOCK
 10
-310.0
 20
0.0
 30
0.0
  0
POINT
  5
3E
  8
DEFPOINTS
  6
BYBLOCK
 10
-415.0
 20
0.0
 30
0.0
  0
ENDBLK
  5
3F
  8
SIZE
  0
BLOCK
  8
SIZE
  2
DOT
 70
     0
 10
0.0
 20
0.0
 30
0.0
  3
DOT
  1

  0
POLYLINE
  5
41
  8
0
  6
BYBLOCK
 66
     1
 10
0.0
 20
0.0
 30
0.0
 70
     1
 40
0.5
 41
0.5
  0
VERTEX
  5
42
  8
0
  6
BYBLOCK
 10
-0.25
 20
0.0
 30
0.0
 42
1.0
  0
VERTEX
  5
43
  8
0
  6
BYBLOCK
 10
0.25
 20
0.0
 30
0.0
 42
1.0
  0
SEQEND
  5
44
  8
0
  6
BYBLOCK
  0
LINE
  5
45
  8
0
  6
BYBLOCK
 10
-0.5
 20
0.0
 30
0.0
 11
-1.0
 21
0.0
 31
0.0
  0
ENDBLK
  5
46
  8
SIZE
  0
BLOCK
  8
SIZE
  2
*D2
 70
     1
 10
0.0
 20
0.0
 30
0.0
  3
*D2
  1

  0
TEXT
  5
49
  8
SIZE
  6
CONTINUOUS
 10
-128.460007
 20
-349.000006
 30
0.0
 40
2.8
  1
83
 50
0.000003
 41
0.7
  7
STANDARD1
  0
LINE
  5
4A
  8
SIZE
  6
CONTINUOUS
 10
-85.0
 20
179.0
 30
0.0
 11
-85.0
 21
-352.0
 31
0.0
  0
LINE
  5
4B
  8
SIZE
  6
CONTINUOUS
 10
-168.0
 20
147.0
 30
0.0
 11
-168.0
 21
-352.0
 31
0.0
  0
LINE
  5
4C
  8
SIZE
  6
CONTINUOUS
 10
-85.0
 20
-350.0
 30
0.0
 11
-168.0
 21
-350.0
 31
0.0
  0
INSERT
  5
4D
  8
SIZE
  2
DOT
 10
-85.0
 20
-350.0
 30
0.0
  0
INSERT
  5
4E
  8
SIZE
  2
DOT
 10
-168.0
 20
-350.0
 30
0.0
 50
180.0
  0
POINT
  5
4F
  8
DEFPOINTS
  6
BYBLOCK
 10
-168.0
 20
148.0
 30
0.0
  0
POINT
  5
50
  8
DEFPOINTS
  6
BYBLOCK
 10
-85.0
 20
180.0
 30
0.0
  0
POINT
  5
51
  8
DEFPOINTS
  6
BYBLOCK
 10
-85.0
 20
-350.0
 30
0.0
  0
ENDBLK
  5
52
  8
SIZE
  0
BLOCK
  8
SIZE
  2
*D3
 70
     1
 10
0.0
 20
0.0
 30
0.0
  3
*D3
  1

  0
TEXT
  5
55
  8
SIZE
  6
CONTINUOUS
 10
-243.215942
 20
-349.000006
 30
0.0
 40
2.8
  1
85
 50
0.000003
 41
0.7
  7
STANDARD1
  0
LINE
  5
56
  8
SIZE
  6
CONTINUOUS
 10
-253.0
 20
147.0
 30
0.0
 11
-253.0
 21
-352.0
 31
0.0
  0
LINE
  5
57
  8
SIZE
  6
CONTINUOUS
 10
-168.0
 20
147.0
 30
0.0
 11
-168.0
 21
-352.0
 31
0.0
  0
LINE
  5
58
  8
SIZE
  6
CONTINUOUS
 10
-253.0
 20
-350.0
 30
0.0
 11
-168.0
 21
-350.0
 31
0.0
  0
INSERT
  5
59
  8
SIZE
  2
DOT
 10
-253.0
 20
-350.0
 30
0.0
 50
180.0
  0
INSERT
  5
5A
  8
SIZE
  2
DOT
 10
-168.0
 20
-350.0
 30
0.0
  0
POINT
  5
5B
  8
DEFPOINTS
  6
BYBLOCK
 10
-168.0
 20
148.0
 30
0.0
  0
POINT
  5
5C
  8
DEFPOINTS
  6
BYBLOCK
 10
-253.0
 20
148.0
 30
0.0
  0
POINT
  5
5D
  8
DEFPOINTS
  6
BYBLOCK
 10
-253.0
 20
-350.0
 30
0.0
  0
ENDBLK
  5
5E
  8
SIZE
  0
BLOCK
  8
SIZE
  2
*D4
 70
     1
 10
0.0
 20
0.0
 30
0.0
  3
*D4
  1

  0
TEXT
  5
61
  8
SIZE
  6
CONTINUOUS
 10
663.999976
 20
1969.219849
 30
0.0
 40
2.8
  1
200
 50
90.000005
 41
0.7
  7
STANDARD1
  0
LINE
  5
62
  8
SIZE
  6
CONTINUOUS
 10
316.0
 20
2070.0
 30
0.0
 11
667.0
 21
2070.0
 31
0.0
  0
LINE
  5
63
  8
SIZE
  6
CONTINUOUS
 10
316.0
 20
1870.0
 30
0.0
 11
667.0
 21
1870.0
 31
0.0
  0
LINE
  5
64
  8
SIZE
  6
CONTINUOUS
 10
665.0
 20
2070.0
 30
0.0
 11
665.0
 21
1870.0
 31
0.0
  0
INSERT
  5
65
  8
SIZE
  2
DOT
 10
665.0
 20
2070.0
 30
0.0
 50
90.0
  0
INSERT
  5
66
  8
SIZE
  2
DOT
 10
665.0
 20
1870.0
 30
0.0
 50
270.0
  0
POINT
  5
67
  8
DEFPOINTS
  6
BYBLOCK
 10
315.0
 20
1870.0
 30
0.0
  0
POINT
  5
68
  8
DEFPOINTS
  6
BYBLOCK
 10
315.0
 20
2070.0
 30
0.0
  0
POINT
  5
69
  8
DEFPOINTS
  6
BYBLOCK
 10
665.0
 20
2070.0
 30
0.0
  0
ENDBLK
  5
6A
  8
SIZE
  0
BLOCK
  8
SIZE
  2
*D5
 70
     1
 10
0.0
 20
0.0
 30
0.0
  3
*D5
  1

  0
TEXT
  5
6D
  8
SIZE
  6
CONTINUOUS
 10
-2.581549
 20
2420.999902
 30
0.0
 40
2.8
  1
630
 50
0.000003
 41
0.7
  7
STANDARD1
  0
LINE
  5
6E
  8
SIZE
  6
CONTINUOUS
 10
315.0
 20
2071.0
 30
0.0
 11
315.0
 21
2422.0
 31
0.0
  0
LINE
  5
6F
  8
SIZE
  6
CONTINUOUS
 10
-315.0
 20
2071.0
 30
0.0
 11
-315.0
 21
2422.0
 31
0.0
  0
LINE
  5
70
  8
SIZE
  6
CONTINUOUS
 10
315.0
 20
2420.0
 30
0.0
 11
-315.0
 21
2420.0
 31
0.0
  0
INSERT
  5
71
  8
SIZE
  2
DOT
 10
315.0
 20
2420.0
 30
0.0
  0
INSERT
  5
72
  8
SIZE
  2
DOT
 10
-315.0
 20
2420.0
 30
0.0
 50
180.0
  0
POINT
  5
73
  8
DEFPOINTS
  6
BYBLOCK
 10
-315.0
 20
2070.0
 30
0.0
  0
POINT
  5
74
  8
DEFPOINTS
  6
BYBLOCK
 10
315.0
 20
2070.0
 30
0.0
  0
POINT
  5
75
  8
DEFPOINTS
  6
BYBLOCK
 10
315.0
 20
2420.0
 30
0.0
  0
ENDBLK
  5
76
  8
SIZE
  0
BLOCK
  8
SIZE
  2
*D6
 70
     1
 10
0.0
 20
0.0
 30
0.0
  3
*D6
  1

  0
TEXT
  5
79
  8
SIZE
  6
CONTINUOUS
 10
464.000006
 20
1937.963257
 30
0.0
 40
2.8
  1
30
 50
90.000005
 41
0.7
  7
STANDARD1
  0
LINE
  5
7A
  8
SIZE
  6
CONTINUOUS
 10
263.703766
 20
1900.0
 30
0.0
 11
467.0
 21
1900.0
 31
0.0
  0
LINE
  5
7B
  8
SIZE
  6
CONTINUOUS
 10
316.0
 20
1870.0
 30
0.0
 11
467.0
 21
1870.0
 31
0.0
  0
LINE
  5
7C
  8
SIZE
  6
CONTINUOUS
 10
465.0
 20
1943.283203
 30
0.0
 11
465.0
 21
1865.0
 31
0.0
  0
INSERT
  5
7D
  8
SIZE
  2
DOT
 10
465.0
 20
1900.0
 30
0.0
 50
90.0
  0
INSERT
  5
7E
  8
SIZE
  2
DOT
 10
465.0
 20
1870.0
 30
0.0
 50
270.0
  0
POINT
  5
7F
  8
DEFPOINTS
  6
BYBLOCK
 10
315.0
 20
1870.0
 30
0.0
  0
POINT
  5
80
  8
DEFPOINTS
  6
BYBLOCK
 10
262.703766
 20
1900.0
 30
0.0
  0
POINT
  5
81
  8
DEFPOINTS
  6
BYBLOCK
 10
465.0
 20
1900.0
 30
0.0
  0
ENDBLK
  5
82
  8
SIZE
  0
BLOCK
  8
SIZE
  2
*D7
 70
     1
 10
0.0
 20
0.0
 30
0.0
  3
*D7
  1

  0
TEXT
  5
85
  8
SIZE
  6
CONTINUOUS
 10
763.999976
 20
1031.079956
 30
0.0
 40
2.8
  1
1670
 50
90.000005
 41
0.7
  7
STANDARD1
  0
LINE
  5
86
  8
SIZE
  6
CONTINUOUS
 10
316.0
 20
1870.0
 30
0.0
 11
767.0
 21
1870.0
 31
0.0
  0
LINE
  5
87
  8
SIZE
  6
CONTINUOUS
 10
316.0
 20
200.0
 30
0.0
 11
767.0
 21
200.0
 31
0.0
  0
LINE
  5
88
  8
SIZE
  6
CONTINUOUS
 10
765.0
 20
1870.0
 30
0.0
 11
765.0
 21
200.0
 31
0.0
  0
INSERT
  5
89
  8
SIZE
  2
DOT
 10
765.0
 20
1870.0
 30
0.0
 50
90.0
  0
INSERT
  5
8A
  8
SIZE
  2
DOT
 10
765.0
 20
200.0
 30
0.0
 50
270.0
  0
POINT
  5
8B
  8
DEFPOINTS
  6
BYBLOCK
 10
315.0
 20
200.0
 30
0.0
  0
POINT
  5
8C
  8
DEFPOINTS
  6
BYBLOCK
 10
315.0
 20
1870.0
 30
0.0
  0
POINT
  5
8D
  8
DEFPOINTS
  6
BYBLOCK
 10
765.0
 20
1870.0
 30
0.0
  0
ENDBLK
  5
8E
  8
SIZE
  0
BLOCK
  8
SIZE
  2
*D8
 70
     1
 10
0.0
 20
0.0
 30
0.0
  3
*D8
  1

  0
TEXT
  5
91
  8
SIZE
  6
CONTINUOUS
 10
12.420988
 20
-648.999976
 30
0.0
 40
2.8
  1
630
 50
0.000003
 41
0.7
  7
STANDARD1
  0
LINE
  5
92
  8
SIZE
  6
CONTINUOUS
 10
315.0
 20
199.0
 30
0.0
 11
315.0
 21
-652.0
 31
0.0
  0
LINE
  5
93
  8
SIZE
  6
CONTINUOUS
 10
-315.0
 20
199.0
 30
0.0
 11
-315.0
 21
-652.0
 31
0.0
  0
LINE
  5
94
  8
SIZE
  6
CONTINUOUS
 10
315.0
 20
-650.0
 30
0.0
 11
-315.0
 21
-650.0
 31
0.0
  0
INSERT
  5
95
  8
SIZE
  2
DOT
 10
315.0
 20
-650.0
 30
0.0
  0
INSERT
  5
96
  8
SIZE
  2
DOT
 10
-315.0
 20
-650.0
 30
0.0
 50
180.0
  0
POINT
  5
97
  8
DEFPOINTS
  6
BYBLOCK
 10
-315.0
 20
200.0
 30
0.0
  0
POINT
  5
98
  8
DEFPOINTS
  6
BYBLOCK
 10
315.0
 20
200.0
 30
0.0
  0
POINT
  5
99
  8
DEFPOINTS
  6
BYBLOCK
 10
315.0
 20
-650.0
 30
0.0
  0
ENDBLK
  5
9A
  8
SIZE
  0
BLOCK
  8
SIZE
  2
*D9
 70
     1
 10
0.0
 20
0.0
 30
0.0
  3
*D9
  1

  0
TEXT
  5
9D
  8
SIZE
  6
CONTINUOUS
 10
-616.000024
 20
904.876038
 30
0.0
 40
2.8
  1
1915
 50
90.000005
 41
0.7
  7
STANDARD1
  0
LINE
  5
9E
  8
SIZE
  6
CONTINUOUS
 10
-41.0
 20
1915.0
 30
0.0
 11
-617.0
 21
1915.0
 31
0.0
  0
LINE
  5
9F
  8
SIZE
  6
CONTINUOUS
 10
-285.5
 20
0.0
 30
0.0
 11
-617.0
 21
0.0
 31
0.0
  0
LINE
  5
A0
  8
SIZE
  6
CONTINUOUS
 10
-615.0
 20
1915.0
 30
0.0
 11
-615.0
 21
0.0
 31
0.0
  0
INSERT
  5
A1
  8
SIZE
  2
DOT
 10
-615.0
 20
1915.0
 30
0.0
 50
90.0
  0
INSERT
  5
A2
  8
SIZE
  2
DOT
 10
-615.0
 20
0.0
 30
0.0
 50
270.0
  0
POINT
  5
A3
  8
DEFPOINTS
  6
BYBLOCK
 10
-284.5
 20
0.0
 30
0.0
  0
POINT
  5
A4
  8
DEFPOINTS
  6
BYBLOCK
 10
-40.0
 20
1915.0
 30
0.0
  0
POINT
  5
A5
  8
DEFPOINTS
  6
BYBLOCK
 10
-615.0
 20
1915.0
 30
0.0
  0
ENDBLK
  5
A6
  8
SIZE
  0
BLOCK
  8
SIZE
  2
*D10
 70
     1
 10
0.0
 20
0.0
 30
0.0
  3
*D10
  1

  0
TEXT
  5
A9
  8
SIZE
  6
CONTINUOUS
 10
-1.96
 20
2170.999902
 30
0.0
 40
2.8
  1
60
 50
0.000003
 41
0.7
  7
STANDARD1
  0
LINE
  5
AA
  8
SIZE
  6
CONTINUOUS
 10
-30.0
 20
1914.0
 30
0.0
 11
-30.0
 21
2172.0
 31
0.0
  0
LINE
  5
AB
  8
SIZE
  6
CONTINUOUS
 10
30.0
 20
1914.0
 30
0.0
 11
30.0
 21
2172.0
 31
0.0
  0
LINE
  5
AC
  8
SIZE
  6
CONTINUOUS
 10
-30.0
 20
2170.0
 30
0.0
 11
30.0
 21
2170.0
 31
0.0
  0
INSERT
  5
AD
  8
SIZE
  2
DOT
 10
-30.0
 20
2170.0
 30
0.0
 50
180.0
  0
INSERT
  5
AE
  8
SIZE
  2
DOT
 10
30.0
 20
2170.0
 30
0.0
  0
POINT
  5
AF
  8
DEFPOINTS
  6
BYBLOCK
 10
30.0
 20
1913.0
 30
0.0
  0
POINT
  5
B0
  8
DEFPOINTS
  6
BYBLOCK
 10
-30.0
 20
1913.0
 30
0.0
  0
POINT
  5
B1
  8
DEFPOINTS
  6
BYBLOCK
 10
-30.0
 20
2170.0
 30
0.0
  0
ENDBLK
  5
B2
  8
SIZE
  0
BLOCK
  8
SIZE
  2
*D11
 70
     1
 10
0.0
 20
0.0
 30
0.0
  3
*D11
  1

  0
TEXT
  5
B5
  8
SIZE
  6
CONTINUOUS
 10
-1.96
 20
2270.999902
 30
0.0
 40
2.8
  1
90
 50
0.000003
 41
0.7
  7
STANDARD1
  0
LINE
  5
B6
  8
SIZE
  6
CONTINUOUS
 10
-45.0
 20
1911.0
 30
0.0
 11
-45.0
 21
2272.0
 31
0.0
  0
LINE
  5
B7
  8
SIZE
  6
CONTINUOUS
 10
45.0
 20
1911.0
 30
0.0
 11
45.0
 21
2272.0
 31
0.0
  0
LINE
  5
B8
  8
SIZE
  6
CONTINUOUS
 10
-45.0
 20
2270.0
 30
0.0
 11
45.0
 21
2270.0
 31
0.0
  0
INSERT
  5
B9
  8
SIZE
  2
DOT
 10
-45.0
 20
2270.0
 30
0.0
 50
180.0
  0
INSERT
  5
BA
  8
SIZE
  2
DOT
 10
45.0
 20
2270.0
 30
0.0
  0
POINT
  5
BB
  8
DEFPOINTS
  6
BYBLOCK
 10
45.0
 20
1910.0
 30
0.0
  0
POINT
  5
BC
  8
DEFPOINTS
  6
BYBLOCK
 10
-45.0
 20
1910.0
 30
0.0
  0
POINT
  5
BD
  8
DEFPOINTS
  6
BYBLOCK
 10
-45.0
 20
2270.0
 30
0.0
  0
ENDBLK
  5
BE
  8
SIZE
  0
BLOCK
  8
SIZE
  2
*D12
 70
     1
 10
0.0
 20
0.0
 30
0.0
  3
*D12
  1

  0
TEXT
  5
C1
  8
SIZE
  6
CONTINUOUS
 10
-516.000024
 20
941.169373
 30
0.0
 40
2.8
  1
1893
 50
90.000005
 41
0.7
  7
STANDARD1
  0
LINE
  5
C2
  8
SIZE
  6
CONTINUOUS
 10
-51.0
 20
1893.0
 30
0.0
 11
-517.0
 21
1893.0
 31
0.0
  0
LINE
  5
C3
  8
SIZE
  6
CONTINUOUS
 10
-311.0
 20
0.0
 30
0.0
 11
-517.0
 21
0.0
 31
0.0
  0
LINE
  5
C4
  8
SIZE
  6
CONTINUOUS
 10
-515.0
 20
1893.0
 30
0.0
 11
-515.0
 21
0.0
 31
0.0
  0
INSERT
  5
C5
  8
SIZE
  2
DOT
 10
-515.0
 20
1893.0
 30
0.0
 50
90.0
  0
INSERT
  5
C6
  8
SIZE
  2
DOT
 10
-515.0
 20
0.0
 30
0.0
 50
270.0
  0
POINT
  5
C7
  8
DEFPOINTS
  6
BYBLOCK
 10
-310.0
 20
0.0
 30
0.0
  0
POINT
  5
C8
  8
DEFPOINTS
  6
BYBLOCK
 10
-50.0
 20
1893.0
 30
0.0
  0
POINT
  5
C9
  8
DEFPOINTS
  6
BYBLOCK
 10
-515.0
 20
1893.0
 30
0.0
  0
ENDBLK
  5
CA
  8
SIZE
  0
BLOCK
  8
SIZE
  2
*D13
 70
     1
 10
0.0
 20
0.0
 30
0.0
  3
*D13
  1

  0
TEXT
  5
CD
  8
SIZE
  6
CONTINUOUS
 10
12.420988
 20
-548.999976
 30
0.0
 40
2.8
  1
402
 50
0.000003
 41
0.7
  7
STANDARD1
  0
LINE
  5
CE
  8
SIZE
  6
CONTINUOUS
 10
201.0
 20
-21.0
 30
0.0
 11
201.0
 21
-552.0
 31
0.0
  0
LINE
  5
CF
  8
SIZE
  6
CONTINUOUS
 10
-201.0
 20
-21.0
 30
0.0
 11
-201.0
 21
-552.0
 31
0.0
  0
LINE
  5
D0
  8
SIZE
  6
CONTINUOUS
 10
201.0
 20
-550.0
 30
0.0
 11
-201.0
 21
-550.0
 31
0.0
  0
INSERT
  5
D1
  8
SIZE
  2
DOT
 10
201.0
 20
-550.0
 30
0.0
  0
INSERT
  5
D2
  8
SIZE
  2
DOT
 10
-201.0
 20
-550.0
 30
0.0
 50
180.0
  0
POINT
  5
D3
  8
DEFPOINTS
  6
BYBLOCK
 10
-201.0
 20
-20.0
 30
0.0
  0
POINT
  5
D4
  8
DEFPOINTS
  6
BYBLOCK
 10
201.0
 20
-20.0
 30
0.0
  0
POINT
  5
D5
  8
DEFPOINTS
  6
BYBLOCK
 10
201.0
 20
-550.0
 30
0.0
  0
ENDBLK
  5
D6
  8
SIZE
  0
BLOCK
  8
SIZE
  2
*D14
 70
     1
 10
0.0
 20
0.0
 30
0.0
  3
*D14
  1

  0
TEXT
  5
D9
  8
SIZE
  6
CONTINUOUS
 10
15.961488
 20
-449.000006
 30
0.0
 40
2.8
  1
496
 50
0.000003
 41
0.7
  7
STANDARD1
  0
LINE
  5
DA
  8
SIZE
  6
CONTINUOUS
 10
248.0
 20
-21.0
 30
0.0
 11
248.0
 21
-452.0
 31
0.0
  0
LINE
  5
DB
  8
SIZE
  6
CONTINUOUS
 10
-248.0
 20
-21.0
 30
0.0
 11
-248.0
 21
-452.0
 31
0.0
  0
LINE
  5
DC
  8
SIZE
  6
CONTINUOUS
 10
248.0
 20
-450.0
 30
0.0
 11
-248.0
 21
-450.0
 31
0.0
  0
INSERT
  5
DD
  8
SIZE
  2
DOT
 10
248.0
 20
-450.0
 30
0.0
  0
INSERT
  5
DE
  8
SIZE
  2
DOT
 10
-248.0
 20
-450.0
 30
0.0
 50
180.0
  0
POINT
  5
DF
  8
DEFPOINTS
  6
BYBLOCK
 10
-248.0
 20
-20.0
 30
0.0
  0
POINT
  5
E0
  8
DEFPOINTS
  6
BYBLOCK
 10
248.0
 20
-20.0
 30
0.0
  0
POINT
  5
E1
  8
DEFPOINTS
  6
BYBLOCK
 10
248.0
 20
-450.0
 30
0.0
  0
ENDBLK
  5
E2
  8
SIZE
  0
BLOCK
  8
SIZE
  2
*D15
 70
     1
 10
0.0
 20
0.0
 30
0.0
  3
*D15
  1

  0
TEXT
  5
E5
  8
SIZE
  6
CONTINUOUS
 10
247.073975
 20
-548.999976
 30
0.0
 40
2.8
  1
94
 50
0.000003
 41
0.7
  7
STANDARD1
  0
LINE
  5
E6
  8
SIZE
  6
CONTINUOUS
 10
201.0
 20
-21.0
 30
0.0
 11
201.0
 21
-552.0
 31
0.0
  0
LINE
  5
E7
  8
SIZE
  6
CONTINUOUS
 10
295.0
 20
-21.0
 30
0.0
 11
295.0
 21
-552.0
 31
0.0
  0
LINE
  5
E8
  8
SIZE
  6
CONTINUOUS
 10
201.0
 20
-550.0
 30
0.0
 11
295.0
 21
-550.0
 31
0.0
  0
INSERT
  5
E9
  8
SIZE
  2
DOT
 10
201.0
 20
-550.0
 30
0.0
 50
180.0
  0
INSERT
  5
EA
  8
SIZE
  2
DOT
 10
295.0
 20
-550.0
 30
0.0
  0
POINT
  5
EB
  8
DEFPOINTS
  6
BYBLOCK
 10
295.0
 20
-20.0
 30
0.0
  0
POINT
  5
EC
  8
DEFPOINTS
  6
BYBLOCK
 10
201.0
 20
-20.0
 30
0.0
  0
POINT
  5
ED
  8
DEFPOINTS
  6
BYBLOCK
 10
201.0
 20
-550.0
 30
0.0
  0
ENDBLK
  5
EE
  8
SIZE
  0
BLOCK
  8
SIZE
  2
*D16
 70
     1
 10
0.0
 20
0.0
 30
0.0
  3
*D16
  1

  0
TEXT
  5
F1
  8
SIZE
  6
CONTINUOUS
 10
-248.431946
 20
-548.999976
 30
0.0
 40
2.8
  1
94
 50
0.000003
 41
0.7
  7
STANDARD1
  0
LINE
  5
F2
  8
SIZE
  6
CONTINUOUS
 10
-201.0
 20
-21.0
 30
0.0
 11
-201.0
 21
-552.0
 31
0.0
  0
LINE
  5
F3
  8
SIZE
  6
CONTINUOUS
 10
-295.0
 20
-21.0
 30
0.0
 11
-295.0
 21
-552.0
 31
0.0
  0
LINE
  5
F4
  8
SIZE
  6
CONTINUOUS
 10
-201.0
 20
-550.0
 30
0.0
 11
-295.0
 21
-550.0
 31
0.0
  0
INSERT
  5
F5
  8
SIZE
  2
DOT
 10
-201.0
 20
-550.0
 30
0.0
  0
INSERT
  5
F6
  8
SIZE
  2
DOT
 10
-295.0
 20
-550.0
 30
0.0
 50
180.0
  0
POINT
  5
F7
  8
DEFPOINTS
  6
BYBLOCK
 10
-295.0
 20
-20.0
 30
0.0
  0
POINT
  5
F8
  8
DEFPOINTS
  6
BYBLOCK
 10
-201.0
 20
-20.0
 30
0.0
  0
POINT
  5
F9
  8
DEFPOINTS
  6
BYBLOCK
 10
-201.0
 20
-550.0
 30
0.0
  0
ENDBLK
  5
FA
  8
SIZE
  0
BLOCK
  8
SIZE
  2
*D17
 70
     1
 10
0.0
 20
0.0
 30
0.0
  3
*D17
  1

  0
TEXT
  5
FD
  8
SIZE
  6
CONTINUOUS
 10
763.999976
 20
97.059998
 30
0.0
 40
2.8
  1
200
 50
90.000005
 41
0.7
  7
STANDARD1
  0
LINE
  5
FE
  8
SIZE
  6
CONTINUOUS
 10
316.0
 20
200.0
 30
0.0
 11
767.0
 21
200.0
 31
0.0
  0
LINE
  5
FF
  8
SIZE
  6
CONTINUOUS
 10
316.0
 20
0.0
 30
0.0
 11
767.0
 21
0.0
 31
0.0
  0
LINE
  5
100
  8
SIZE
  6
CONTINUOUS
 10
765.0
 20
200.0
 30
0.0
 11
765.0
 21
0.0
 31
0.0
  0
INSERT
  5
101
  8
SIZE
  2
DOT
 10
765.0
 20
200.0
 30
0.0
 50
90.0
  0
INSERT
  5
102
  8
SIZE
  2
DOT
 10
765.0
 20
0.0
 30
0.0
 50
270.0
  0
POINT
  5
103
  8
DEFPOINTS
  6
BYBLOCK
 10
315.0
 20
0.0
 30
0.0
  0
POINT
  5
104
  8
DEFPOINTS
  6
BYBLOCK
 10
315.0
 20
200.0
 30
0.0
  0
POINT
  5
105
  8
DEFPOINTS
  6
BYBLOCK
 10
765.0
 20
200.0
 30
0.0
  0
ENDBLK
  5
106
  8
SIZE
  0
BLOCK
  8
SIZE
  2
*D18
 70
     1
 10
0.0
 20
0.0
 30
0.0
  3
*D18
  1

  0
TEXT
  5
109
  8
SIZE
  6
CONTINUOUS
 10
863.999976
 20
1033.399902
 30
0.0
 40
2.8
  1
1900
 50
90.000005
 41
0.7
  7
STANDARD1
  0
LINE
  5
10A
  8
SIZE
  6
CONTINUOUS
 10
311.0
 20
0.0
 30
0.0
 11
867.0
 21
0.0
 31
0.0
  0
LINE
  5
10B
  8
SIZE
  6
CONTINUOUS
 10
263.703766
 20
1900.0
 30
0.0
 11
867.0
 21
1900.0
 31
0.0
  0
LINE
  5
10C
  8
SIZE
  6
CONTINUOUS
 10
865.0
 20
0.0
 30
0.0
 11
865.0
 21
1900.0
 31
0.0
  0
INSERT
  5
10D
  8
SIZE
  2
DOT
 10
865.0
 20
0.0
 30
0.0
 50
270.0
  0
INSERT
  5
10E
  8
SIZE
  2
DOT
 10
865.0
 20
1900.0
 30
0.0
 50
90.0
  0
POINT
  5
10F
  8
DEFPOINTS
  6
BYBLOCK
 10
262.703766
 20
1900.0
 30
0.0
  0
POINT
  5
110
  8
DEFPOINTS
  6
BYBLOCK
 10
310.0
 20
0.0
 30
0.0
  0
POINT
  5
111
  8
DEFPOINTS
  6
BYBLOCK
 10
865.0
 20
0.0
 30
0.0
  0
ENDBLK
  5
112
  8
SIZE
  0
BLOCK
  8
SIZE
  2
*D19
 70
     1
 10
0.0
 20
0.0
 30
0.0
  3
*D19
  1

  0
TEXT
  5
115
  8
SIZE
  6
CONTINUOUS
 10
663.999976
 20
81.349999
 30
0.0
 40
2.8
  1
172.5
 50
90.000005
 41
0.7
  7
STANDARD1
  0
LINE
  5
116
  8
SIZE
  6
CONTINUOUS
 10
154.82309
 20
172.5
 30
0.0
 11
667.0
 21
172.5
 31
0.0
  0
LINE
  5
117
  8
SIZE
  6
CONTINUOUS
 10
311.0
 20
0.0
 30
0.0
 11
667.0
 21
0.0
 31
0.0
  0
LINE
  5
118
  8
SIZE
  6
CONTINUOUS
 10
665.0
 20
172.5
 30
0.0
 11
665.0
 21
0.0
 31
0.0
  0
INSERT
  5
119
  8
SIZE
  2
DOT
 10
665.0
 20
172.5
 30
0.0
 50
90.0
  0
INSERT
  5
11A
  8
SIZE
  2
DOT
 10
665.0
 20
0.0
 30
0.0
 50
270.0
  0
POINT
  5
11B
  8
DEFPOINTS
  6
BYBLOCK
 10
310.0
 20
0.0
 30
0.0
  0
POINT
  5
11C
  8
DEFPOINTS
  6
BYBLOCK
 10
153.82309
 20
172.5
 30
0.0
  0
POINT
  5
11D
  8
DEFPOINTS
  6
BYBLOCK
 10
665.0
 20
172.5
 30
0.0
  0
ENDBLK
  5
11E
  8
SIZE
  0
BLOCK
  8
SIZE
  2
*D20
 70
     1
 10
0.0
 20
0.0
 30
0.0
  3
*D20
  1

  0
TEXT
  5
121
  8
SIZE
  6
CONTINUOUS
 10
76.559998
 20
-349.000006
 30
0.0
 40
2.8
  1
159
 50
0.000003
 41
0.7
  7
STANDARD1
  0
LINE
  5
122
  8
SIZE
  6
CONTINUOUS
 10
0.0
 20
-51.0
 30
0.0
 11
0.0
 21
-352.0
 31
0.0
  0
LINE
  5
123
  8
SIZE
  6
CONTINUOUS
 10
159.0
 20
179.0
 30
0.0
 11
159.0
 21
-352.0
 31
0.0
  0
LINE
  5
124
  8
SIZE
  6
CONTINUOUS
 10
0.0
 20
-350.0
 30
0.0
 11
159.0
 21
-350.0
 31
0.0
  0
INSERT
  5
125
  8
SIZE
  2
DOT
 10
0.0
 20
-350.0
 30
0.0
 50
180.0
  0
INSERT
  5
126
  8
SIZE
  2
DOT
 10
159.0
 20
-350.0
 30
0.0
  0
POINT
  5
127
  8
DEFPOINTS
  6
BYBLOCK
 10
159.0
 20
180.0
 30
0.0
  0
POINT
  5
128
  8
DEFPOINTS
  6
BYBLOCK
 10
0.0
 20
-50.0
 30
0.0
  0
POINT
  5
129
  8
DEFPOINTS
  6
BYBLOCK
 10
0.0
 20
-350.0
 30
0.0
  0
ENDBLK
  5
12A
  8
SIZE
  0
BLOCK
  8
SIZE
  2
*D21
 70
     1
 10
0.0
 20
0.0
 30
0.0
  3
*D21
  1

  0
TEXT
  5
12D
  8
SIZE
  6
CONTINUOUS
 10
-44.459999
 20
-349.000006
 30
0.0
 40
2.8
  1
85
 50
0.000003
 41
0.7
  7
STANDARD1
  0
LINE
  5
12E
  8
SIZE
  6
CONTINUOUS
 10
0.0
 20
-51.0
 30
0.0
 11
0.0
 21
-352.0
 31
0.0
  0
LINE
  5
12F
  8
SIZE
  6
CONTINUOUS
 10
-85.0
 20
179.0
 30
0.0
 11
-85.0
 21
-352.0
 31
0.0
  0
LINE
  5
130
  8
SIZE
  6
CONTINUOUS
 10
0.0
 20
-350.0
 30
0.0
 11
-85.0
 21
-350.0
 31
0.0
  0
INSERT
  5
131
  8
SIZE
  2
DOT
 10
0.0
 20
-350.0
 30
0.0
  0
INSERT
  5
132
  8
SIZE
  2
DOT
 10
-85.0
 20
-350.0
 30
0.0
 50
180.0
  0
POINT
  5
133
  8
DEFPOINTS
  6
BYBLOCK
 10
-85.0
 20
180.0
 30
0.0
  0
POINT
  5
134
  8
DEFPOINTS
  6
BYBLOCK
 10
0.0
 20
-50.0
 30
0.0
  0
POINT
  5
135
  8
DEFPOINTS
  6
BYBLOCK
 10
0.0
 20
-350.0
 30
0.0
  0
ENDBLK
  5
136
  8
SIZE
  0
BLOCK
  8
SIZE
  2
*D22
 70
     1
 10
0.0
 20
0.0
 30
0.0
  3
*D22
  1

  0
TEXT
  5
139
  8
SIZE
  6
CONTINUOUS
 10
464.000006
 20
72.849999
 30
0.0
 40
2.8
  1
155.5
 50
90.000005
 41
0.7
  7
STANDARD1
  0
LINE
  5
13A
  8
SIZE
  6
CONTINUOUS
 10
255.0
 20
155.5
 30
0.0
 11
467.0
 21
155.5
 31
0.0
  0
LINE
  5
13B
  8
SIZE
  6
CONTINUOUS
 10
311.0
 20
0.0
 30
0.0
 11
467.0
 21
0.0
 31
0.0
  0
LINE
  5
13C
  8
SIZE
  6
CONTINUOUS
 10
465.0
 20
155.5
 30
0.0
 11
465.0
 21
0.0
 31
0.0
  0
INSERT
  5
13D
  8
SIZE
  2
DOT
 10
465.0
 20
155.5
 30
0.0
 50
90.0
  0
INSERT
  5
13E
  8
SIZE
  2
DOT
 10
465.0
 20
0.0
 30
0.0
 50
270.0
  0
POINT
  5
13F
  8
DEFPOINTS
  6
BYBLOCK
 10
310.0
 20
0.0
 30
0.0
  0
POINT
  5
140
  8
DEFPOINTS
  6
BYBLOCK
 10
254.0
 20
155.5
 30
0.0
  0
POINT
  5
141
  8
DEFPOINTS
  6
BYBLOCK
 10
465.0
 20
155.5
 30
0.0
  0
ENDBLK
  5
142
  8
SIZE
  0
BLOCK
  8
SIZE
  2
*D23
 70
     1
 10
0.0
 20
0.0
 30
0.0
  3
*D23
  1

  0
TEXT
  5
145
  8
SIZE
  6
CONTINUOUS
 10
327.037598
 20
-349.000006
 30
0.0
 40
2.8
  1
75
 50
0.000003
 41
0.7
  7
STANDARD1
  0
LINE
  5
146
  8
SIZE
  6
CONTINUOUS
 10
159.0
 20
179.0
 30
0.0
 11
159.0
 21
-352.0
 31
0.0
  0
LINE
  5
147
  8
SIZE
  6
CONTINUOUS
 10
234.0
 20
134.5
 30
0.0
 11
234.0
 21
-352.0
 31
0.0
  0
LINE
  5
148
  8
SIZE
  6
CONTINUOUS
 10
154.0
 20
-350.0
 30
0.0
 11
332.357605
 21
-350.0
 31
0.0
  0
INSERT
  5
149
  8
SIZE
  2
DOT
 10
159.0
 20
-350.0
 30
0.0
 50
180.0
  0
INSERT
  5
14A
  8
SIZE
  2
DOT
 10
234.0
 20
-350.0
 30
0.0
  0
POINT
  5
14B
  8
DEFPOINTS
  6
BYBLOCK
 10
234.0
 20
135.5
 30
0.0
  0
POINT
  5
14C
  8
DEFPOINTS
  6
BYBLOCK
 10
159.0
 20
180.0
 30
0.0
  0
POINT
  5
14D
  8
DEFPOINTS
  6
BYBLOCK
 10
159.0
 20
-350.0
 30
0.0
  0
ENDBLK
  5
14E
  8
SIZE
  0
BLOCK
  8
SIZE
  2
*D24
 70
     1
 10
0.0
 20
0.0
 30
0.0
  3
*D24
  1

  0
TEXT
  5
151
  8
SIZE
  6
CONTINUOUS
 10
-48.163856
 20
-249.000006
 30
0.0
 40
2.8
  1
5
 50
0.000003
 41
0.7
  7
STANDARD1
  0
LINE
  5
152
  8
SIZE
  6
CONTINUOUS
 10
0.0
 20
-51.0
 30
0.0
 11
0.0
 21
-252.0
 31
0.0
  0
LINE
  5
153
  8
SIZE
  6
CONTINUOUS
 10
5.0
 20
142.0
 30
0.0
 11
5.0
 21
-252.0
 31
0.0
  0
LINE
  5
154
  8
SIZE
  6
CONTINUOUS
 10
-49.563858
 20
-250.0
 30
0.0
 11
10.0
 21
-250.0
 31
0.0
  0
INSERT
  5
155
  8
SIZE
  2
DOT
 10
0.0
 20
-250.0
 30
0.0
 50
180.0
  0
INSERT
  5
156
  8
SIZE
  2
DOT
 10
5.0
 20
-250.0
 30
0.0
  0
POINT
  5
157
  8
DEFPOINTS
  6
BYBLOCK
 10
5.0
 20
143.0
 30
0.0
  0
POINT
  5
158
  8
DEFPOINTS
  6
BYBLOCK
 10
0.0
 20
-50.0
 30
0.0
  0
POINT
  5
159
  8
DEFPOINTS
  6
BYBLOCK
 10
0.0
 20
-250.0
 30
0.0
  0
ENDBLK
  5
15A
  8
SIZE
  0
BLOCK
  8
SIZE
  2
*D25
 70
     1
 10
0.0
 20
0.0
 30
0.0
  3
*D25
  1

  0
TEXT
  5
15D
  8
SIZE
  6
CONTINUOUS
 10
43.040001
 20
-249.000006
 30
0.0
 40
2.8
  1
80
 50
0.000003
 41
0.7
  7
STANDARD1
  0
LINE
  5
15E
  8
SIZE
  6
CONTINUOUS
 10
5.0
 20
142.0
 30
0.0
 11
5.0
 21
-252.0
 31
0.0
  0
LINE
  5
15F
  8
SIZE
  6
CONTINUOUS
 10
85.0
 20
147.0
 30
0.0
 11
85.0
 21
-252.0
 31
0.0
  0
LINE
  5
160
  8
SIZE
  6
CONTINUOUS
 10
5.0
 20
-250.0
 30
0.0
 11
85.0
 21
-250.0
 31
0.0
  0
INSERT
  5
161
  8
SIZE
  2
DOT
 10
5.0
 20
-250.0
 30
0.0
 50
180.0
  0
INSERT
  5
162
  8
SIZE
  2
DOT
 10
85.0
 20
-250.0
 30
0.0
  0
POINT
  5
163
  8
DEFPOINTS
  6
BYBLOCK
 10
85.0
 20
148.0
 30
0.0
  0
POINT
  5
164
  8
DEFPOINTS
  6
BYBLOCK
 10
5.0
 20
143.0
 30
0.0
  0
POINT
  5
165
  8
DEFPOINTS
  6
BYBLOCK
 10
5.0
 20
-250.0
 30
0.0
  0
ENDBLK
  5
166
  8
SIZE
  0
BLOCK
  8
SIZE
  2
*D26
 70
     1
 10
0.0
 20
0.0
 30
0.0
  3
*D26
  1

  0
TEXT
  5
169
  8
SIZE
  6
CONTINUOUS
 10
38.040001
 20
-149.000006
 30
0.0
 40
2.8
  1
80
 50
0.000003
 41
0.7
  7
STANDARD1
  0
LINE
  5
16A
  8
SIZE
  6
CONTINUOUS
 10
80.0
 20
179.0
 30
0.0
 11
80.0
 21
-152.0
 31
0.0
  0
LINE
  5
16B
  8
SIZE
  6
CONTINUOUS
 10
0.0
 20
-21.0
 30
0.0
 11
0.0
 21
-152.0
 31
0.0
  0
LINE
  5
16C
  8
SIZE
  6
CONTINUOUS
 10
80.0
 20
-150.0
 30
0.0
 11
0.0
 21
-150.0
 31
0.0
  0
INSERT
  5
16D
  8
SIZE
  2
DOT
 10
80.0
 20
-150.0
 30
0.0
  0
INSERT
  5
16E
  8
SIZE
  2
DOT
 10
0.0
 20
-150.0
 30
0.0
 50
180.0
  0
POINT
  5
16F
  8
DEFPOINTS
  6
BYBLOCK
 10
0.0
 20
-20.0
 30
0.0
  0
POINT
  5
170
  8
DEFPOINTS
  6
BYBLOCK
 10
80.0
 20
180.0
 30
0.0
  0
POINT
  5
171
  8
DEFPOINTS
  6
BYBLOCK
 10
80.0
 20
-150.0
 30
0.0
  0
ENDBLK
  5
172
  8
SIZE
  0
BLOCK
  8
SIZE
  2
*D27
 70
     1
 10
0.0
 20
0.0
 30
0.0
  3
*D27
  1

  0
TEXT
  5
175
  8
SIZE
  6
CONTINUOUS
 10
-106.671289
 20
78.559998
 30
0.0
 40
2.8
  1
163
 50
90.000005
 41
0.7
  7
STANDARD1
  0
LINE
  5
176
  8
SIZE
  6
CONTINUOUS
 10
-37.5
 20
0.0
 30
0.0
 11
-107.671288
 21
0.0
 31
0.0
  0
LINE
  5
177
  8
SIZE
  6
CONTINUOUS
 10
-16.0
 20
163.0
 30
0.0
 11
-107.671288
 21
163.0
 31
0.0
  0
LINE
  5
178
  8
SIZE
  6
CONTINUOUS
 10
-105.671288
 20
0.0
 30
0.0
 11
-105.671288
 21
163.0
 31
0.0
  0
INSERT
  5
179
  8
SIZE
  2
DOT
 10
-105.671288
 20
0.0
 30
0.0
 50
270.0
  0
INSERT
  5
17A
  8
SIZE
  2
DOT
 10
-105.671288
 20
163.0
 30
0.0
 50
90.0
  0
POINT
  5
17B
  8
DEFPOINTS
  6
BYBLOCK
 10
-15.0
 20
163.0
 30
0.0
  0
POINT
  5
17C
  8
DEFPOINTS
  6
BYBLOCK
 10
-36.5
 20
0.0
 30
0.0
  0
POINT
  5
17D
  8
DEFPOINTS
  6
BYBLOCK
 10
-105.671288
 20
0.0
 30
0.0
  0
ENDBLK
  5
17E
  8
SIZE
  0
BLOCK
  8
SIZE
  2
*D28
 70
     1
 10
0.0
 20
0.0
 30
0.0
  3
*D28
  1

  0
TEXT
  5
181
  8
SIZE
  6
CONTINUOUS
 10
563.999976
 20
81.059998
 30
0.0
 40
2.8
  1
168
 50
90.000005
 41
0.7
  7
STANDARD1
  0
LINE
  5
182
  8
SIZE
  6
CONTINUOUS
 10
316.0
 20
0.0
 30
0.0
 11
567.0
 21
0.0
 31
0.0
  0
LINE
  5
183
  8
SIZE
  6
CONTINUOUS
 10
106.0
 20
168.0
 30
0.0
 11
567.0
 21
168.0
 31
0.0
  0
LINE
  5
184
  8
SIZE
  6
CONTINUOUS
 10
565.0
 20
0.0
 30
0.0
 11
565.0
 21
168.0
 31
0.0
  0
INSERT
  5
185
  8
SIZE
  2
DOT
 10
565.0
 20
0.0
 30
0.0
 50
270.0
  0
INSERT
  5
186
  8
SIZE
  2
DOT
 10
565.0
 20
168.0
 30
0.0
 50
90.0
  0
POINT
  5
187
  8
DEFPOINTS
  6
BYBLOCK
 10
105.0
 20
168.0
 30
0.0
  0
POINT
  5
188
  8
DEFPOINTS
  6
BYBLOCK
 10
315.0
 20
0.0
 30
0.0
  0
POINT
  5
189
  8
DEFPOINTS
  6
BYBLOCK
 10
565.0
 20
0.0
 30
0.0
  0
ENDBLK
  5
18A
  8
SIZE
  0
BLOCK
  8
0
  2
_ORIGIN
 70
     0
 10
0.0
 20
0.0
 30
0.0
  3
_ORIGIN
  1

  0
CIRCLE
  5
18D
  8
0
  6
BYBLOCK
 62
     0
 10
0.0
 20
0.0
 30
0.0
 40
0.5
  0
LINE
  5
18E
  8
0
  6
BYBLOCK
 62
     0
 10
0.0
 20
0.0
 30
0.0
 11
-1.0
 21
0.0
 31
0.0
  0
ENDBLK
  5
18F
  8
0
  0
BLOCK
  8
0
  2
*D30
 70
     1
 10
0.0
 20
0.0
 30
0.0
  3
*D30
  1

  0
LINE
  5
192
  8
0
  6
BYBLOCK
 62
     0
 10
115.0
 20
168.0
 30
0.0
 11
575.1
 21
168.0
 31
0.0
  0
LINE
  5
193
  8
0
  6
BYBLOCK
 62
     0
 10
325.0
 20
0.0
 30
0.0
 11
575.1
 21
0.0
 31
0.0
  0
LINE
  5
194
  8
0
  6
BYBLOCK
 62
     0
 10
562.6
 20
158.0
 30
0.0
 11
562.6
 21
10.0
 31
0.0
  0
INSERT
  5
195
  8
0
  6
BYBLOCK
 62
     0
  2
_ORIGIN
 10
562.6
 20
168.0
 30
0.0
 41
10.0
 42
10.0
 43
10.0
 50
90.0
  0
INSERT
  5
196
  8
0
  6
BYBLOCK
 62
     0
  2
_ORIGIN
 10
562.6
 20
0.0
 30
0.0
 41
10.0
 42
10.0
 43
10.0
 50
270.0
  0
TEXT
  5
197
  8
0
  6
BYBLOCK
 62
     0
 10
552.6
 20
49.0
 30
0.0
 40
30.0
  1
168
 50
90.0
 72
     1
 11
552.6
 21
84.0
 31
0.0
  0
POINT
  5
198
  8
DEFPOINTS
  6
BYBLOCK
 62
     0
 10
105.0
 20
168.0
 30
0.0
  0
POINT
  5
199
  8
DEFPOINTS
  6
BYBLOCK
 62
     0
 10
315.0
 20
0.0
 30
0.0
  0
POINT
  5
19A
  8
DEFPOINTS
  6
BYBLOCK
 62
     0
 10
562.6
 20
0.0
 30
0.0
  0
ENDBLK
  5
19B
  8
0
  0
BLOCK
  8
0
  2
*D31
 70
     1
 10
0.0
 20
0.0
 30
0.0
  3
*D31
  1

  0
LINE
  5
19E
  8
0
  6
BYBLOCK
 62
     0
 10
-25.0
 20
163.0
 30
0.0
 11
-120.571288
 21
163.0
 31
0.0
  0
LINE
  5
19F
  8
0
  6
BYBLOCK
 62
     0
 10
-46.5
 20
0.0
 30
0.0
 11
-120.571288
 21
0.0
 31
0.0
  0
LINE
  5
1A0
  8
0
  6
BYBLOCK
 62
     0
 10
-108.071288
 20
153.0
 30
0.0
 11
-108.071288
 21
10.0
 31
0.0
  0
INSERT
  5
1A1
  8
0
  6
BYBLOCK
 62
     0
  2
_ORIGIN
 10
-108.071288
 20
163.0
 30
0.0
 41
10.0
 42
10.0
 43
10.0
 50
90.0
  0
INSERT
  5
1A2
  8
0
  6
BYBLOCK
 62
     0
  2
_ORIGIN
 10
-108.071288
 20
0.0
 30
0.0
 41
10.0
 42
10.0
 43
10.0
 50
270.0
  0
TEXT
  5
1A3
  8
0
  6
BYBLOCK
 62
     0
 10
-118.071288
 20
46.5
 30
0.0
 40
30.0
  1
163
 50
90.0
 72
     1
 11
-118.071288
 21
81.5
 31
0.0
  0
POINT
  5
1A4
  8
DEFPOINTS
  6
BYBLOCK
 62
     0
 10
-15.0
 20
163.0
 30
0.0
  0
POINT
  5
1A5
  8
DEFPOINTS
  6
BYBLOCK
 62
     0
 10
-36.5
 20
0.0
 30
0.0
  0
POINT
  5
1A6
  8
DEFPOINTS
  6
BYBLOCK
 62
     0
 10
-108.071288
 20
0.0
 30
0.0
  0
ENDBLK
  5
1A7
  8
0
  0
BLOCK
  8
0
  2
*D32
 70
     1
 10
0.0
 20
0.0
 30
0.0
  3
*D32
  1

  0
LINE
  5
1AA
  8
0
  6
BYBLOCK
 62
     0
 10
0.0
 20
-30.0
 30
0.0
 11
0.0
 21
-160.1
 31
0.0
  0
LINE
  5
1AB
  8
0
  6
BYBLOCK
 62
     0
 10
80.0
 20
170.0
 30
0.0
 11
80.0
 21
-160.1
 31
0.0
  0
LINE
  5
1AC
  8
0
  6
BYBLOCK
 62
     0
 10
10.0
 20
-147.6
 30
0.0
 11
70.0
 21
-147.6
 31
0.0
  0
INSERT
  5
1AD
  8
0
  6
BYBLOCK
 62
     0
  2
_ORIGIN
 10
0.0
 20
-147.6
 30
0.0
 41
10.0
 42
10.0
 43
10.0
 50
180.0
  0
INSERT
  5
1AE
  8
0
  6
BYBLOCK
 62
     0
  2
_ORIGIN
 10
80.0
 20
-147.6
 30
0.0
 41
10.0
 42
10.0
 43
10.0
  0
TEXT
  5
1AF
  8
0
  6
BYBLOCK
 62
     0
 10
17.5
 20
-137.6
 30
0.0
 40
30.0
  1
80
 72
     1
 11
40.0
 21
-137.6
 31
0.0
  0
POINT
  5
1B0
  8
DEFPOINTS
  6
BYBLOCK
 62
     0
 10
0.0
 20
-20.0
 30
0.0
  0
POINT
  5
1B1
  8
DEFPOINTS
  6
BYBLOCK
 62
     0
 10
80.0
 20
180.0
 30
0.0
  0
POINT
  5
1B2
  8
DEFPOINTS
  6
BYBLOCK
 62
     0
 10
80.0
 20
-147.6
 30
0.0
  0
ENDBLK
  5
1B3
  8
0
  0
BLOCK
  8
0
  2
*D33
 70
     1
 10
0.0
 20
0.0
 30
0.0
  3
*D33
  1

  0
LINE
  5
1B6
  8
0
  6
BYBLOCK
 62
     0
 10
85.0
 20
138.0
 30
0.0
 11
85.0
 21
-260.1
 31
0.0
  0
LINE
  5
1B7
  8
0
  6
BYBLOCK
 62
     0
 10
5.0
 20
133.0
 30
0.0
 11
5.0
 21
-260.1
 31
0.0
  0
LINE
  5
1B8
  8
0
  6
BYBLOCK
 62
     0
 10
75.0
 20
-247.6
 30
0.0
 11
15.0
 21
-247.6
 31
0.0
  0
INSERT
  5
1B9
  8
0
  6
BYBLOCK
 62
     0
  2
_ORIGIN
 10
85.0
 20
-247.6
 30
0.0
 41
10.0
 42
10.0
 43
10.0
  0
INSERT
  5
1BA
  8
0
  6
BYBLOCK
 62
     0
  2
_ORIGIN
 10
5.0
 20
-247.6
 30
0.0
 41
10.0
 42
10.0
 43
10.0
 50
180.0
  0
TEXT
  5
1BB
  8
0
  6
BYBLOCK
 62
     0
 10
22.5
 20
-237.6
 30
0.0
 40
30.0
  1
80
 72
     1
 11
45.0
 21
-237.6
 31
0.0
  0
POINT
  5
1BC
  8
DEFPOINTS
  6
BYBLOCK
 62
     0
 10
85.0
 20
148.0
 30
0.0
  0
POINT
  5
1BD
  8
DEFPOINTS
  6
BYBLOCK
 62
     0
 10
5.0
 20
143.0
 30
0.0
  0
POINT
  5
1BE
  8
DEFPOINTS
  6
BYBLOCK
 62
     0
 10
5.0
 20
-247.6
 30
0.0
  0
ENDBLK
  5
1BF
  8
0
  0
BLOCK
  8
0
  2
*D34
 70
     1
 10
0.0
 20
0.0
 30
0.0
  3
*D34
  1

  0
LINE
  5
1C2
  8
0
  6
BYBLOCK
 62
     0
 10
5.0
 20
133.0
 30
0.0
 11
5.0
 21
-260.1
 31
0.0
  0
LINE
  5
1C3
  8
0
  6
BYBLOCK
 62
     0
 10
0.0
 20
-60.0
 30
0.0
 11
0.0
 21
-260.1
 31
0.0
  0
LINE
  5
1C4
  8
0
  6
BYBLOCK
 62
     0
 10
15.0
 20
-247.6
 30
0.0
 11
25.0
 21
-247.6
 31
0.0
  0
LINE
  5
1C5
  8
0
  6
BYBLOCK
 62
     0
 10
-10.0
 20
-247.6
 30
0.0
 11
-67.183857
 21
-247.6
 31
0.0
  0
LINE
  5
1C6
  8
0
  6
BYBLOCK
 62
     0
 10
5.0
 20
-247.6
 30
0.0
 11
0.0
 21
-247.6
 31
0.0
  0
INSERT
  5
1C7
  8
0
  6
BYBLOCK
 62
     0
  2
_ORIGIN
 10
5.0
 20
-247.6
 30
0.0
 41
10.0
 42
10.0
 43
10.0
 50
180.0
  0
INSERT
  5
1C8
  8
0
  6
BYBLOCK
 62
     0
  2
_ORIGIN
 10
0.0
 20
-247.6
 30
0.0
 41
10.0
 42
10.0
 43
10.0
  0
TEXT
  5
1C9
  8
0
  6
BYBLOCK
 62
     0
 10
-57.183857
 20
-237.6
 30
0.0
 40
30.0
  1
5
 72
     1
 11
-47.183857
 21
-237.6
 31
0.0
  0
POINT
  5
1CA
  8
DEFPOINTS
  6
BYBLOCK
 62
     0
 10
5.0
 20
143.0
 30
0.0
  0
POINT
  5
1CB
  8
DEFPOINTS
  6
BYBLOCK
 62
     0
 10
0.0
 20
-50.0
 30
0.0
  0
POINT
  5
1CC
  8
DEFPOINTS
  6
BYBLOCK
 62
     0
 10
0.0
 20
-247.6
 30
0.0
  0
ENDBLK
  5
1CD
  8
0
  0
BLOCK
  8
0
  2
*D35
 70
     1
 10
0.0
 20
0.0
 30
0.0
  3
*D35
  1

  0
LINE
  5
1D0
  8
0
  6
BYBLOCK
 62
     0
 10
234.0
 20
125.5
 30
0.0
 11
234.0
 21
-360.1
 31
0.0
  0
LINE
  5
1D1
  8
0
  6
BYBLOCK
 62
     0
 10
159.0
 20
170.0
 30
0.0
 11
159.0
 21
-360.1
 31
0.0
  0
LINE
  5
1D2
  8
0
  6
BYBLOCK
 62
     0
 10
169.0
 20
-347.6
 30
0.0
 11
224.0
 21
-347.6
 31
0.0
  0
LINE
  5
1D3
  8
0
  6
BYBLOCK
 62
     0
 10
234.0
 20
-347.6
 30
0.0
 11
363.997598
 21
-347.6
 31
0.0
  0
INSERT
  5
1D4
  8
0
  6
BYBLOCK
 62
     0
  2
_ORIGIN
 10
159.0
 20
-347.6
 30
0.0
 41
10.0
 42
10.0
 43
10.0
 50
180.0
  0
INSERT
  5
1D5
  8
0
  6
BYBLOCK
 62
     0
  2
_ORIGIN
 10
234.0
 20
-347.6
 30
0.0
 41
10.0
 42
10.0
 43
10.0
  0
TEXT
  5
1D6
  8
0
  6
BYBLOCK
 62
     0
 10
303.997598
 20
-337.6
 30
0.0
 40
30.0
  1
75
 72
     1
 11
328.997598
 21
-337.6
 31
0.0
  0
POINT
  5
1D7
  8
DEFPOINTS
  6
BYBLOCK
 62
     0
 10
234.0
 20
135.5
 30
0.0
  0
POINT
  5
1D8
  8
DEFPOINTS
  6
BYBLOCK
 62
     0
 10
159.0
 20
180.0
 30
0.0
  0
POINT
  5
1D9
  8
DEFPOINTS
  6
BYBLOCK
 62
     0
 10
159.0
 20
-347.6
 30
0.0
  0
ENDBLK
  5
1DA
  8
0
  0
BLOCK
  8
0
  2
*D36
 70
     1
 10
0.0
 20
0.0
 30
0.0
  3
*D36
  1

  0
LINE
  5
1DD
  8
0
  6
BYBLOCK
 62
     0
 10
320.0
 20
0.0
 30
0.0
 11
475.1
 21
0.0
 31
0.0
  0
LINE
  5
1DE
  8
0
  6
BYBLOCK
 62
     0
 10
264.0
 20
155.5
 30
0.0
 11
475.1
 21
155.5
 31
0.0
  0
LINE
  5
1DF
  8
0
  6
BYBLOCK
 62
     0
 10
462.6
 20
10.0
 30
0.0
 11
462.6
 21
145.5
 31
0.0
  0
INSERT
  5
1E0
  8
0
  6
BYBLOCK
 62
     0
  2
_ORIGIN
 10
462.6
 20
0.0
 30
0.0
 41
10.0
 42
10.0
 43
10.0
 50
270.0
  0
INSERT
  5
1E1
  8
0
  6
BYBLOCK
 62
     0
  2
_ORIGIN
 10
462.6
 20
155.5
 30
0.0
 41
10.0
 42
10.0
 43
10.0
 50
90.0
  0
TEXT
  5
1E2
  8
0
  6
BYBLOCK
 62
     0
 10
452.6
 20
42.75
 30
0.0
 40
30.0
  1
156
 50
90.0
 72
     1
 11
452.6
 21
77.75
 31
0.0
  0
POINT
  5
1E3
  8
DEFPOINTS
  6
BYBLOCK
 62
     0
 10
310.0
 20
0.0
 30
0.0
  0
POINT
  5
1E4
  8
DEFPOINTS
  6
BYBLOCK
 62
     0
 10
254.0
 20
155.5
 30
0.0
  0
POINT
  5
1E5
  8
DEFPOINTS
  6
BYBLOCK
 62
     0
 10
462.6
 20
155.5
 30
0.0
  0
ENDBLK
  5
1E6
  8
0
  0
BLOCK
  8
0
  2
*D37
 70
     1
 10
0.0
 20
0.0
 30
0.0
  3
*D37
  1

  0
LINE
  5
1E9
  8
0
  6
BYBLOCK
 62
     0
 10
-85.0
 20
170.0
 30
0.0
 11
-85.0
 21
-360.1
 31
0.0
  0
LINE
  5
1EA
  8
0
  6
BYBLOCK
 62
     0
 10
0.0
 20
-60.0
 30
0.0
 11
0.0
 21
-360.1
 31
0.0
  0
LINE
  5
1EB
  8
0
  6
BYBLOCK
 62
     0
 10
-75.0
 20
-347.6
 30
0.0
 11
-10.0
 21
-347.6
 31
0.0
  0
INSERT
  5
1EC
  8
0
  6
BYBLOCK
 62
     0
  2
_ORIGIN
 10
-85.0
 20
-347.6
 30
0.0
 41
10.0
 42
10.0
 43
10.0
 50
180.0
  0
INSERT
  5
1ED
  8
0
  6
BYBLOCK
 62
     0
  2
_ORIGIN
 10
0.0
 20
-347.6
 30
0.0
 41
10.0
 42
10.0
 43
10.0
  0
TEXT
  5
1EE
  8
0
  6
BYBLOCK
 62
     0
 10
-67.5
 20
-337.6
 30
0.0
 40
30.0
  1
85
 72
     1
 11
-42.5
 21
-337.6
 31
0.0
  0
POINT
  5
1EF
  8
DEFPOINTS
  6
BYBLOCK
 62
     0
 10
-85.0
 20
180.0
 30
0.0
  0
POINT
  5
1F0
  8
DEFPOINTS
  6
BYBLOCK
 62
     0
 10
0.0
 20
-50.0
 30
0.0
  0
POINT
  5
1F1
  8
DEFPOINTS
  6
BYBLOCK
 62
     0
 10
0.0
 20
-347.6
 30
0.0
  0
ENDBLK
  5
1F2
  8
0
  0
BLOCK
  8
0
  2
*D38
 70
     1
 10
0.0
 20
0.0
 30
0.0
  3
*D38
  1

  0
LINE
  5
1F5
  8
0
  6
BYBLOCK
 62
     0
 10
159.0
 20
170.0
 30
0.0
 11
159.0
 21
-360.1
 31
0.0
  0
LINE
  5
1F6
  8
0
  6
BYBLOCK
 62
     0
 10
0.0
 20
-60.0
 30
0.0
 11
0.0
 21
-360.1
 31
0.0
  0
LINE
  5
1F7
  8
0
  6
BYBLOCK
 62
     0
 10
149.0
 20
-347.6
 30
0.0
 11
10.0
 21
-347.6
 31
0.0
  0
INSERT
  5
1F8
  8
0
  6
BYBLOCK
 62
     0
  2
_ORIGIN
 10
159.0
 20
-347.6
 30
0.0
 41
10.0
 42
10.0
 43
10.0
  0
INSERT
  5
1F9
  8
0
  6
BYBLOCK
 62
     0
  2
_ORIGIN
 10
0.0
 20
-347.6
 30
0.0
 41
10.0
 42
10.0
 43
10.0
 50
180.0
  0
TEXT
  5
1FA
  8
0
  6
BYBLOCK
 62
     0
 10
44.5
 20
-337.6
 30
0.0
 40
30.0
  1
159
 72
     1
 11
79.5
 21
-337.6
 31
0.0
  0
POINT
  5
1FB
  8
DEFPOINTS
  6
BYBLOCK
 62
     0
 10
159.0
 20
180.0
 30
0.0
  0
POINT
  5
1FC
  8
DEFPOINTS
  6
BYBLOCK
 62
     0
 10
0.0
 20
-50.0
 30
0.0
  0
POINT
  5
1FD
  8
DEFPOINTS
  6
BYBLOCK
 62
     0
 10
0.0
 20
-347.6
 30
0.0
  0
ENDBLK
  5
1FE
  8
0
  0
BLOCK
  8
0
  2
*D39
 70
     1
 10
0.0
 20
0.0
 30
0.0
  3
*D39
  1

  0
LINE
  5
201
  8
0
  6
BYBLOCK
 62
     0
 10
320.0
 20
0.0
 30
0.0
 11
675.1
 21
0.0
 31
0.0
  0
LINE
  5
202
  8
0
  6
BYBLOCK
 62
     0
 10
163.82309
 20
172.5
 30
0.0
 11
675.1
 21
172.5
 31
0.0
  0
LINE
  5
203
  8
0
  6
BYBLOCK
 62
     0
 10
662.6
 20
10.0
 30
0.0
 11
662.6
 21
162.5
 31
0.0
  0
INSERT
  5
204
  8
0
  6
BYBLOCK
 62
     0
  2
_ORIGIN
 10
662.6
 20
0.0
 30
0.0
 41
10.0
 42
10.0
 43
10.0
 50
270.0
  0
INSERT
  5
205
  8
0
  6
BYBLOCK
 62
     0
  2
_ORIGIN
 10
662.6
 20
172.5
 30
0.0
 41
10.0
 42
10.0
 43
10.0
 50
90.0
  0
TEXT
  5
206
  8
0
  6
BYBLOCK
 62
     0
 10
652.6
 20
51.25
 30
0.0
 40
30.0
  1
173
 50
90.0
 72
     1
 11
652.6
 21
86.25
 31
0.0
  0
POINT
  5
207
  8
DEFPOINTS
  6
BYBLOCK
 62
     0
 10
310.0
 20
0.0
 30
0.0
  0
POINT
  5
208
  8
DEFPOINTS
  6
BYBLOCK
 62
     0
 10
153.82309
 20
172.5
 30
0.0
  0
POINT
  5
209
  8
DEFPOINTS
  6
BYBLOCK
 62
     0
 10
662.6
 20
172.5
 30
0.0
  0
ENDBLK
  5
20A
  8
0
  0
BLOCK
  8
0
  2
*D40
 70
     1
 10
0.0
 20
0.0
 30
0.0
  3
*D40
  1

  0
LINE
  5
20D
  8
0
  6
BYBLOCK
 62
     0
 10
272.703766
 20
1900.0
 30
0.0
 11
875.1
 21
1900.0
 31
0.0
  0
LINE
  5
20E
  8
0
  6
BYBLOCK
 62
     0
 10
320.0
 20
0.0
 30
0.0
 11
875.1
 21
0.0
 31
0.0
  0
LINE
  5
20F
  8
0
  6
BYBLOCK
 62
     0
 10
862.6
 20
1890.0
 30
0.0
 11
862.6
 21
10.0
 31
0.0
  0
INSERT
  5
210
  8
0
  6
BYBLOCK
 62
     0
  2
_ORIGIN
 10
862.6
 20
1900.0
 30
0.0
 41
10.0
 42
10.0
 43
10.0
 50
90.0
  0
INSERT
  5
211
  8
0
  6
BYBLOCK
 62
     0
  2
_ORIGIN
 10
862.6
 20
0.0
 30
0.0
 41
10.0
 42
10.0
 43
10.0
 50
270.0
  0
TEXT
  5
212
  8
0
  6
BYBLOCK
 62
     0
 10
852.6
 20
992.319946
 30
0.0
 40
30.0
  1
1900
 50
90.0
 72
     1
 11
852.6
 21
1037.319946
 31
0.0
  0
POINT
  5
213
  8
DEFPOINTS
  6
BYBLOCK
 62
     0
 10
262.703766
 20
1900.0
 30
0.0
  0
POINT
  5
214
  8
DEFPOINTS
  6
BYBLOCK
 62
     0
 10
310.0
 20
0.0
 30
0.0
  0
POINT
  5
215
  8
DEFPOINTS
  6
BYBLOCK
 62
     0
 10
862.6
 20
0.0
 30
0.0
  0
ENDBLK
  5
216
  8
0
  0
BLOCK
  8
0
  2
*D41
 70
     1
 10
0.0
 20
0.0
 30
0.0
  3
*D41
  1

  0
LINE
  5
219
  8
0
  6
BYBLOCK
 62
     0
 10
325.0
 20
0.0
 30
0.0
 11
775.1
 21
0.0
 31
0.0
  0
LINE
  5
21A
  8
0
  6
BYBLOCK
 62
     0
 10
325.0
 20
200.0
 30
0.0
 11
775.1
 21
200.0
 31
0.0
  0
LINE
  5
21B
  8
0
  6
BYBLOCK
 62
     0
 10
762.6
 20
10.0
 30
0.0
 11
762.6
 21
190.0
 31
0.0
  0
INSERT
  5
21C
  8
0
  6
BYBLOCK
 62
     0
  2
_ORIGIN
 10
762.6
 20
0.0
 30
0.0
 41
10.0
 42
10.0
 43
10.0
 50
270.0
  0
INSERT
  5
21D
  8
0
  6
BYBLOCK
 62
     0
  2
_ORIGIN
 10
762.6
 20
200.0
 30
0.0
 41
10.0
 42
10.0
 43
10.0
 50
90.0
  0
TEXT
  5
21E
  8
0
  6
BYBLOCK
 62
     0
 10
752.6
 20
65.0
 30
0.0
 40
30.0
  1
200
 50
90.0
 72
     1
 11
752.6
 21
100.0
 31
0.0
  0
POINT
  5
21F
  8
DEFPOINTS
  6
BYBLOCK
 62
     0
 10
315.0
 20
0.0
 30
0.0
  0
POINT
  5
220
  8
DEFPOINTS
  6
BYBLOCK
 62
     0
 10
315.0
 20
200.0
 30
0.0
  0
POINT
  5
221
  8
DEFPOINTS
  6
BYBLOCK
 62
     0
 10
762.6
 20
200.0
 30
0.0
  0
ENDBLK
  5
222
  8
0
  0
BLOCK
  8
0
  2
*D42
 70
     1
 10
0.0
 20
0.0
 30
0.0
  3
*D42
  1

  0
LINE
  5
225
  8
0
  6
BYBLOCK
 62
     0
 10
-295.0
 20
-30.0
 30
0.0
 11
-295.0
 21
-560.1
 31
0.0
  0
LINE
  5
226
  8
0
  6
BYBLOCK
 62
     0
 10
-201.0
 20
-30.0
 30
0.0
 11
-201.0
 21
-560.1
 31
0.0
  0
LINE
  5
227
  8
0
  6
BYBLOCK
 62
     0
 10
-285.0
 20
-547.6
 30
0.0
 11
-211.0
 21
-547.6
 31
0.0
  0
INSERT
  5
228
  8
0
  6
BYBLOCK
 62
     0
  2
_ORIGIN
 10
-295.0
 20
-547.6
 30
0.0
 41
10.0
 42
10.0
 43
10.0
 50
180.0
  0
INSERT
  5
229
  8
0
  6
BYBLOCK
 62
     0
  2
_ORIGIN
 10
-201.0
 20
-547.6
 30
0.0
 41
10.0
 42
10.0
 43
10.0
  0
TEXT
  5
22A
  8
0
  6
BYBLOCK
 62
     0
 10
-271.471939
 20
-537.6
 30
0.0
 40
30.0
  1
94
 72
     1
 11
-246.471939
 21
-537.6
 31
0.0
  0
POINT
  5
22B
  8
DEFPOINTS
  6
BYBLOCK
 62
     0
 10
-295.0
 20
-20.0
 30
0.0
  0
POINT
  5
22C
  8
DEFPOINTS
  6
BYBLOCK
 62
     0
 10
-201.0
 20
-20.0
 30
0.0
  0
POINT
  5
22D
  8
DEFPOINTS
  6
BYBLOCK
 62
     0
 10
-201.0
 20
-547.6
 30
0.0
  0
ENDBLK
  5
22E
  8
0
  0
BLOCK
  8
0
  2
*D43
 70
     1
 10
0.0
 20
0.0
 30
0.0
  3
*D43
  1

  0
LINE
  5
231
  8
0
  6
BYBLOCK
 62
     0
 10
295.0
 20
-30.0
 30
0.0
 11
295.0
 21
-560.1
 31
0.0
  0
LINE
  5
232
  8
0
  6
BYBLOCK
 62
     0
 10
201.0
 20
-30.0
 30
0.0
 11
201.0
 21
-560.1
 31
0.0
  0
LINE
  5
233
  8
0
  6
BYBLOCK
 62
     0
 10
285.0
 20
-547.6
 30
0.0
 11
211.0
 21
-547.6
 31
0.0
  0
INSERT
  5
234
  8
0
  6
BYBLOCK
 62
     0
  2
_ORIGIN
 10
295.0
 20
-547.6
 30
0.0
 41
10.0
 42
10.0
 43
10.0
  0
INSERT
  5
235
  8
0
  6
BYBLOCK
 62
     0
  2
_ORIGIN
 10
201.0
 20
-547.6
 30
0.0
 41
10.0
 42
10.0
 43
10.0
 50
180.0
  0
TEXT
  5
236
  8
0
  6
BYBLOCK
 62
     0
 10
224.033981
 20
-537.6
 30
0.0
 40
30.0
  1
94
 72
     1
 11
249.033981
 21
-537.6
 31
0.0
  0
POINT
  5
237
  8
DEFPOINTS
  6
BYBLOCK
 62
     0
 10
295.0
 20
-20.0
 30
0.0
  0
POINT
  5
238
  8
DEFPOINTS
  6
BYBLOCK
 62
     0
 10
201.0
 20
-20.0
 30
0.0
  0
POINT
  5
239
  8
DEFPOINTS
  6
BYBLOCK
 62
     0
 10
201.0
 20
-547.6
 30
0.0
  0
ENDBLK
  5
23A
  8
0
  0
BLOCK
  8
0
  2
*D44
 70
     1
 10
0.0
 20
0.0
 30
0.0
  3
*D44
  1

  0
LINE
  5
23D
  8
0
  6
BYBLOCK
 62
     0
 10
-248.0
 20
-30.0
 30
0.0
 11
-248.0
 21
-460.1
 31
0.0
  0
LINE
  5
23E
  8
0
  6
BYBLOCK
 62
     0
 10
248.0
 20
-30.0
 30
0.0
 11
248.0
 21
-460.1
 31
0.0
  0
LINE
  5
23F
  8
0
  6
BYBLOCK
 62
     0
 10
-238.0
 20
-447.6
 30
0.0
 11
238.0
 21
-447.6
 31
0.0
  0
INSERT
  5
240
  8
0
  6
BYBLOCK
 62
     0
  2
_ORIGIN
 10
-248.0
 20
-447.6
 30
0.0
 41
10.0
 42
10.0
 43
10.0
 50
180.0
  0
INSERT
  5
241
  8
0
  6
BYBLOCK
 62
     0
  2
_ORIGIN
 10
248.0
 20
-447.6
 30
0.0
 41
10.0
 42
10.0
 43
10.0
  0
TEXT
  5
242
  8
0
  6
BYBLOCK
 62
     0
 10
-21.098513
 20
-437.6
 30
0.0
 40
30.0
  1
496
 72
     1
 11
18.901487
 21
-437.6
 31
0.0
  0
POINT
  5
243
  8
DEFPOINTS
  6
BYBLOCK
 62
     0
 10
-248.0
 20
-20.0
 30
0.0
  0
POINT
  5
244
  8
DEFPOINTS
  6
BYBLOCK
 62
     0
 10
248.0
 20
-20.0
 30
0.0
  0
POINT
  5
245
  8
DEFPOINTS
  6
BYBLOCK
 62
     0
 10
248.0
 20
-447.6
 30
0.0
  0
ENDBLK
  5
246
  8
0
  0
BLOCK
  8
0
  2
*D45
 70
     1
 10
0.0
 20
0.0
 30
0.0
  3
*D45
  1

  0
LINE
  5
249
  8
0
  6
BYBLOCK
 62
     0
 10
-201.0
 20
-30.0
 30
0.0
 11
-201.0
 21
-560.1
 31
0.0
  0
LINE
  5
24A
  8
0
  6
BYBLOCK
 62
     0
 10
201.0
 20
-30.0
 30
0.0
 11
201.0
 21
-560.1
 31
0.0
  0
LINE
  5
24B
  8
0
  6
BYBLOCK
 62
     0
 10
-191.0
 20
-547.6
 30
0.0
 11
191.0
 21
-547.6
 31
0.0
  0
INSERT
  5
24C
  8
0
  6
BYBLOCK
 62
     0
  2
_ORIGIN
 10
-201.0
 20
-547.6
 30
0.0
 41
10.0
 42
10.0
 43
10.0
 50
180.0
  0
INSERT
  5
24D
  8
0
  6
BYBLOCK
 62
     0
  2
_ORIGIN
 10
201.0
 20
-547.6
 30
0.0
 41
10.0
 42
10.0
 43
10.0
  0
TEXT
  5
24E
  8
0
  6
BYBLOCK
 62
     0
 10
-22.139012
 20
-537.6
 30
0.0
 40
30.0
  1
402
 72
     1
 11
15.360988
 21
-537.6
 31
0.0
  0
POINT
  5
24F
  8
DEFPOINTS
  6
BYBLOCK
 62
     0
 10
-201.0
 20
-20.0
 30
0.0
  0
POINT
  5
250
  8
DEFPOINTS
  6
BYBLOCK
 62
     0
 10
201.0
 20
-20.0
 30
0.0
  0
POINT
  5
251
  8
DEFPOINTS
  6
BYBLOCK
 62
     0
 10
201.0
 20
-547.6
 30
0.0
  0
ENDBLK
  5
252
  8
0
  0
BLOCK
  8
0
  2
*D46
 70
     1
 10
0.0
 20
0.0
 30
0.0
  3
*D46
  1

  0
LINE
  5
255
  8
0
  6
BYBLOCK
 62
     0
 10
-320.0
 20
0.0
 30
0.0
 11
-529.9
 21
0.0
 31
0.0
  0
LINE
  5
256
  8
0
  6
BYBLOCK
 62
     0
 10
-60.0
 20
1893.0
 30
0.0
 11
-529.9
 21
1893.0
 31
0.0
  0
LINE
  5
257
  8
0
  6
BYBLOCK
 62
     0
 10
-517.4
 20
10.0
 30
0.0
 11
-517.4
 21
1883.0
 31
0.0
  0
INSERT
  5
258
  8
0
  6
BYBLOCK
 62
     0
  2
_ORIGIN
 10
-517.4
 20
0.0
 30
0.0
 41
10.0
 42
10.0
 43
10.0
 50
270.0
  0
INSERT
  5
259
  8
0
  6
BYBLOCK
 62
     0
  2
_ORIGIN
 10
-517.4
 20
1893.0
 30
0.0
 41
10.0
 42
10.0
 43
10.0
 50
90.0
  0
TEXT
  5
25A
  8
0
  6
BYBLOCK
 62
     0
 10
-527.4
 20
895.089355
 30
0.0
 40
30.0
  1
1893
 50
90.0
 72
     1
 11
-527.4
 21
945.089355
 31
0.0
  0
POINT
  5
25B
  8
DEFPOINTS
  6
BYBLOCK
 62
     0
 10
-310.0
 20
0.0
 30
0.0
  0
POINT
  5
25C
  8
DEFPOINTS
  6
BYBLOCK
 62
     0
 10
-50.0
 20
1893.0
 30
0.0
  0
POINT
  5
25D
  8
DEFPOINTS
  6
BYBLOCK
 62
     0
 10
-517.4
 20
1893.0
 30
0.0
  0
ENDBLK
  5
25E
  8
0
  0
BLOCK
  8
0
  2
*D47
 70
     1
 10
0.0
 20
0.0
 30
0.0
  3
*D47
  1

  0
LINE
  5
261
  8
0
  6
BYBLOCK
 62
     0
 10
45.0
 20
1920.0
 30
0.0
 11
45.0
 21
2284.9
 31
0.0
  0
LINE
  5
262
  8
0
  6
BYBLOCK
 62
     0
 10
-45.0
 20
1920.0
 30
0.0
 11
-45.0
 21
2284.9
 31
0.0
  0
LINE
  5
263
  8
0
  6
BYBLOCK
 62
     0
 10
35.0
 20
2272.4
 30
0.0
 11
-35.0
 21
2272.4
 31
0.0
  0
INSERT
  5
264
  8
0
  6
BYBLOCK
 62
     0
  2
_ORIGIN
 10
45.0
 20
2272.4
 30
0.0
 41
10.0
 42
10.0
 43
10.0
  0
INSERT
  5
265
  8
0
  6
BYBLOCK
 62
     0
  2
_ORIGIN
 10
-45.0
 20
2272.4
 30
0.0
 41
10.0
 42
10.0
 43
10.0
 50
180.0
  0
TEXT
  5
266
  8
0
  6
BYBLOCK
 62
     0
 10
-22.5
 20
2282.4
 30
0.0
 40
30.0
  1
90
 72
     1
 11
0.0
 21
2282.4
 31
0.0
  0
POINT
  5
267
  8
DEFPOINTS
  6
BYBLOCK
 62
     0
 10
45.0
 20
1910.0
 30
0.0
  0
POINT
  5
268
  8
DEFPOINTS
  6
BYBLOCK
 62
     0
 10
-45.0
 20
1910.0
 30
0.0
  0
POINT
  5
269
  8
DEFPOINTS
  6
BYBLOCK
 62
     0
 10
-45.0
 20
2272.4
 30
0.0
  0
ENDBLK
  5
26A
  8
0
  0
BLOCK
  8
0
  2
*D48
 70
     1
 10
0.0
 20
0.0
 30
0.0
  3
*D48
  1

  0
LINE
  5
26D
  8
0
  6
BYBLOCK
 62
     0
 10
30.0
 20
1923.0
 30
0.0
 11
30.0
 21
2184.9
 31
0.0
  0
LINE
  5
26E
  8
0
  6
BYBLOCK
 62
     0
 10
-30.0
 20
1923.0
 30
0.0
 11
-30.0
 21
2184.9
 31
0.0
  0
LINE
  5
26F
  8
0
  6
BYBLOCK
 62
     0
 10
20.0
 20
2172.4
 30
0.0
 11
-20.0
 21
2172.4
 31
0.0
  0
INSERT
  5
270
  8
0
  6
BYBLOCK
 62
     0
  2
_ORIGIN
 10
30.0
 20
2172.4
 30
0.0
 41
10.0
 42
10.0
 43
10.0
  0
INSERT
  5
271
  8
0
  6
BYBLOCK
 62
     0
  2
_ORIGIN
 10
-30.0
 20
2172.4
 30
0.0
 41
10.0
 42
10.0
 43
10.0
 50
180.0
  0
TEXT
  5
272
  8
0
  6
BYBLOCK
 62
     0
 10
-22.5
 20
2182.4
 30
0.0
 40
30.0
  1
60
 72
     1
 11
0.0
 21
2182.4
 31
0.0
  0
POINT
  5
273
  8
DEFPOINTS
  6
BYBLOCK
 62
     0
 10
30.0
 20
1913.0
 30
0.0
  0
POINT
  5
274
  8
DEFPOINTS
  6
BYBLOCK
 62
     0
 10
-30.0
 20
1913.0
 30
0.0
  0
POINT
  5
275
  8
DEFPOINTS
  6
BYBLOCK
 62
     0
 10
-30.0
 20
2172.4
 30
0.0
  0
ENDBLK
  5
276
  8
0
  0
BLOCK
  8
0
  2
*D49
 70
     1
 10
0.0
 20
0.0
 30
0.0
  3
*D49
  1

  0
LINE
  5
279
  8
0
  6
BYBLOCK
 62
     0
 10
-294.5
 20
0.0
 30
0.0
 11
-629.9
 21
0.0
 31
0.0
  0
LINE
  5
27A
  8
0
  6
BYBLOCK
 62
     0
 10
-50.0
 20
1915.0
 30
0.0
 11
-629.9
 21
1915.0
 31
0.0
  0
LINE
  5
27B
  8
0
  6
BYBLOCK
 62
     0
 10
-617.4
 20
10.0
 30
0.0
 11
-617.4
 21
1905.0
 31
0.0
  0
INSERT
  5
27C
  8
0
  6
BYBLOCK
 62
     0
  2
_ORIGIN
 10
-617.4
 20
0.0
 30
0.0
 41
10.0
 42
10.0
 43
10.0
 50
270.0
  0
INSERT
  5
27D
  8
0
  6
BYBLOCK
 62
     0
  2
_ORIGIN
 10
-617.4
 20
1915.0
 30
0.0
 41
10.0
 42
10.0
 43
10.0
 50
90.0
  0
TEXT
  5
27E
  8
0
  6
BYBLOCK
 62
     0
 10
-627.4
 20
863.796037
 30
0.0
 40
30.0
  1
1915
 50
90.0
 72
     1
 11
-627.4
 21
908.796037
 31
0.0
  0
POINT
  5
27F
  8
DEFPOINTS
  6
BYBLOCK
 62
     0
 10
-284.5
 20
0.0
 30
0.0
  0
POINT
  5
280
  8
DEFPOINTS
  6
BYBLOCK
 62
     0
 10
-40.0
 20
1915.0
 30
0.0
  0
POINT
  5
281
  8
DEFPOINTS
  6
BYBLOCK
 62
     0
 10
-617.4
 20
1915.0
 30
0.0
  0
ENDBLK
  5
282
  8
0
  0
BLOCK
  8
0
  2
*D50
 70
     1
 10
0.0
 20
0.0
 30
0.0
  3
*D50
  1

  0
LINE
  5
285
  8
0
  6
BYBLOCK
 62
     0
 10
-315.0
 20
190.0
 30
0.0
 11
-315.0
 21
-660.1
 31
0.0
  0
LINE
  5
286
  8
0
  6
BYBLOCK
 62
     0
 10
315.0
 20
190.0
 30
0.0
 11
315.0
 21
-660.1
 31
0.0
  0
LINE
  5
287
  8
0
  6
BYBLOCK
 62
     0
 10
-305.0
 20
-647.6
 30
0.0
 11
305.0
 21
-647.6
 31
0.0
  0
INSERT
  5
288
  8
0
  6
BYBLOCK
 62
     0
  2
_ORIGIN
 10
-315.0
 20
-647.6
 30
0.0
 41
10.0
 42
10.0
 43
10.0
 50
180.0
  0
INSERT
  5
289
  8
0
  6
BYBLOCK
 62
     0
  2
_ORIGIN
 10
315.0
 20
-647.6
 30
0.0
 41
10.0
 42
10.0
 43
10.0
  0
TEXT
  5
28A
  8
0
  6
BYBLOCK
 62
     0
 10
-22.139012
 20
-637.6
 30
0.0
 40
30.0
  1
630
 72
     1
 11
15.360988
 21
-637.6
 31
0.0
  0
POINT
  5
28B
  8
DEFPOINTS
  6
BYBLOCK
 62
     0
 10
-315.0
 20
200.0
 30
0.0
  0
POINT
  5
28C
  8
DEFPOINTS
  6
BYBLOCK
 62
     0
 10
315.0
 20
200.0
 30
0.0
  0
POINT
  5
28D
  8
DEFPOINTS
  6
BYBLOCK
 62
     0
 10
315.0
 20
-647.6
 30
0.0
  0
ENDBLK
  5
28E
  8
0
  0
BLOCK
  8
0
  2
*D51
 70
     1
 10
0.0
 20
0.0
 30
0.0
  3
*D51
  1

  0
LINE
  5
291
  8
0
  6
BYBLOCK
 62
     0
 10
325.0
 20
200.0
 30
0.0
 11
775.1
 21
200.0
 31
0.0
  0
LINE
  5
292
  8
0
  6
BYBLOCK
 62
     0
 10
325.0
 20
1870.0
 30
0.0
 11
775.1
 21
1870.0
 31
0.0
  0
LINE
  5
293
  8
0
  6
BYBLOCK
 62
     0
 10
762.6
 20
210.0
 30
0.0
 11
762.6
 21
1860.0
 31
0.0
  0
INSERT
  5
294
  8
0
  6
BYBLOCK
 62
     0
  2
_ORIGIN
 10
762.6
 20
200.0
 30
0.0
 41
10.0
 42
10.0
 43
10.0
 50
270.0
  0
INSERT
  5
295
  8
0
  6
BYBLOCK
 62
     0
  2
_ORIGIN
 10
762.6
 20
1870.0
 30
0.0
 41
10.0
 42
10.0
 43
10.0
 50
90.0
  0
TEXT
  5
296
  8
0
  6
BYBLOCK
 62
     0
 10
752.6
 20
987.5
 30
0.0
 40
30.0
  1
1670
 50
90.0
 72
     1
 11
752.6
 21
1035.0
 31
0.0
  0
POINT
  5
297
  8
DEFPOINTS
  6
BYBLOCK
 62
     0
 10
315.0
 20
200.0
 30
0.0
  0
POINT
  5
298
  8
DEFPOINTS
  6
BYBLOCK
 62
     0
 10
315.0
 20
1870.0
 30
0.0
  0
POINT
  5
299
  8
DEFPOINTS
  6
BYBLOCK
 62
     0
 10
762.6
 20
1870.0
 30
0.0
  0
ENDBLK
  5
29A
  8
0
  0
BLOCK
  8
0
  2
*D52
 70
     1
 10
0.0
 20
0.0
 30
0.0
  3
*D52
  1

  0
LINE
  5
29D
  8
0
  6
BYBLOCK
 62
     0
 10
325.0
 20
1870.0
 30
0.0
 11
475.1
 21
1870.0
 31
0.0
  0
LINE
  5
29E
  8
0
  6
BYBLOCK
 62
     0
 10
272.703766
 20
1900.0
 30
0.0
 11
475.1
 21
1900.0
 31
0.0
  0
LINE
  5
29F
  8
0
  6
BYBLOCK
 62
     0
 10
462.6
 20
1860.0
 30
0.0
 11
462.6
 21
1850.0
 31
0.0
  0
LINE
  5
2A0
  8
0
  6
BYBLOCK
 62
     0
 10
462.6
 20
1910.0
 30
0.0
 11
462.6
 21
1985.0
 31
0.0
  0
LINE
  5
2A1
  8
0
  6
BYBLOCK
 62
     0
 10
462.6
 20
1870.0
 30
0.0
 11
462.6
 21
1900.0
 31
0.0
  0
INSERT
  5
2A2
  8
0
  6
BYBLOCK
 62
     0
  2
_ORIGIN
 10
462.6
 20
1870.0
 30
0.0
 41
10.0
 42
10.0
 43
10.0
 50
90.0
  0
INSERT
  5
2A3
  8
0
  6
BYBLOCK
 62
     0
  2
_ORIGIN
 10
462.6
 20
1900.0
 30
0.0
 41
10.0
 42
10.0
 43
10.0
 50
270.0
  0
TEXT
  5
2A4
  8
0
  6
BYBLOCK
 62
     0
 10
452.6
 20
1930.0
 30
0.0
 40
30.0
  1
30
 50
90.0
 72
     1
 11
452.6
 21
1952.5
 31
0.0
  0
POINT
  5
2A5
  8
DEFPOINTS
  6
BYBLOCK
 62
     0
 10
315.0
 20
1870.0
 30
0.0
  0
POINT
  5
2A6
  8
DEFPOINTS
  6
BYBLOCK
 62
     0
 10
262.703766
 20
1900.0
 30
0.0
  0
POINT
  5
2A7
  8
DEFPOINTS
  6
BYBLOCK
 62
     0
 10
462.6
 20
1900.0
 30
0.0
  0
ENDBLK
  5
2A8
  8
0
  0
BLOCK
  8
0
  2
*D53
 70
     1
 10
0.0
 20
0.0
 30
0.0
  3
*D53
  1

  0
LINE
  5
2AB
  8
0
  6
BYBLOCK
 62
     0
 10
-315.0
 20
2080.0
 30
0.0
 11
-315.0
 21
2434.9
 31
0.0
  0
LINE
  5
2AC
  8
0
  6
BYBLOCK
 62
     0
 10
315.0
 20
2080.0
 30
0.0
 11
315.0
 21
2434.9
 31
0.0
  0
LINE
  5
2AD
  8
0
  6
BYBLOCK
 62
     0
 10
-305.0
 20
2422.4
 30
0.0
 11
305.0
 21
2422.4
 31
0.0
  0
INSERT
  5
2AE
  8
0
  6
BYBLOCK
 62
     0
  2
_ORIGIN
 10
-315.0
 20
2422.4
 30
0.0
 41
10.0
 42
10.0
 43
10.0
 50
180.0
  0
INSERT
  5
2AF
  8
0
  6
BYBLOCK
 62
     0
  2
_ORIGIN
 10
315.0
 20
2422.4
 30
0.0
 41
10.0
 42
10.0
 43
10.0
  0
TEXT
  5
2B0
  8
0
  6
BYBLOCK
 62
     0
 10
-37.141549
 20
2432.4
 30
0.0
 40
30.0
  1
630
 72
     1
 11
0.358451
 21
2432.4
 31
0.0
  0
POINT
  5
2B1
  8
DEFPOINTS
  6
BYBLOCK
 62
     0
 10
-315.0
 20
2070.0
 30
0.0
  0
POINT
  5
2B2
  8
DEFPOINTS
  6
BYBLOCK
 62
     0
 10
315.0
 20
2070.0
 30
0.0
  0
POINT
  5
2B3
  8
DEFPOINTS
  6
BYBLOCK
 62
     0
 10
315.0
 20
2422.4
 30
0.0
  0
ENDBLK
  5
2B4
  8
0
  0
BLOCK
  8
0
  2
*D54
 70
     1
 10
0.0
 20
0.0
 30
0.0
  3
*D54
  1

  0
LINE
  5
2B7
  8
0
  6
BYBLOCK
 62
     0
 10
325.0
 20
1870.0
 30
0.0
 11
675.1
 21
1870.0
 31
0.0
  0
LINE
  5
2B8
  8
0
  6
BYBLOCK
 62
     0
 10
325.0
 20
2070.0
 30
0.0
 11
675.1
 21
2070.0
 31
0.0
  0
LINE
  5
2B9
  8
0
  6
BYBLOCK
 62
     0
 10
662.6
 20
1880.0
 30
0.0
 11
662.6
 21
2060.0
 31
0.0
  0
INSERT
  5
2BA
  8
0
  6
BYBLOCK
 62
     0
  2
_ORIGIN
 10
662.6
 20
1870.0
 30
0.0
 41
10.0
 42
10.0
 43
10.0
 50
270.0
  0
INSERT
  5
2BB
  8
0
  6
BYBLOCK
 62
     0
  2
_ORIGIN
 10
662.6
 20
2070.0
 30
0.0
 41
10.0
 42
10.0
 43
10.0
 50
90.0
  0
TEXT
  5
2BC
  8
0
  6
BYBLOCK
 62
     0
 10
652.6
 20
1937.15979
 30
0.0
 40
30.0
  1
200
 50
90.0
 72
     1
 11
652.6
 21
1972.15979
 31
0.0
  0
POINT
  5
2BD
  8
DEFPOINTS
  6
BYBLOCK
 62
     0
 10
315.0
 20
1870.0
 30
0.0
  0
POINT
  5
2BE
  8
DEFPOINTS
  6
BYBLOCK
 62
     0
 10
315.0
 20
2070.0
 30
0.0
  0
POINT
  5
2BF
  8
DEFPOINTS
  6
BYBLOCK
 62
     0
 10
662.6
 20
2070.0
 30
0.0
  0
ENDBLK
  5
2C0
  8
0
  0
BLOCK
  8
0
  2
*D55
 70
     1
 10
0.0
 20
0.0
 30
0.0
  3
*D55
  1

  0
LINE
  5
2C3
  8
0
  6
BYBLOCK
 62
     0
 10
-168.0
 20
138.0
 30
0.0
 11
-168.0
 21
-360.1
 31
0.0
  0
LINE
  5
2C4
  8
0
  6
BYBLOCK
 62
     0
 10
-253.0
 20
138.0
 30
0.0
 11
-253.0
 21
-360.1
 31
0.0
  0
LINE
  5
2C5
  8
0
  6
BYBLOCK
 62
     0
 10
-178.0
 20
-347.6
 30
0.0
 11
-243.0
 21
-347.6
 31
0.0
  0
INSERT
  5
2C6
  8
0
  6
BYBLOCK
 62
     0
  2
_ORIGIN
 10
-168.0
 20
-347.6
 30
0.0
 41
10.0
 42
10.0
 43
10.0
  0
INSERT
  5
2C7
  8
0
  6
BYBLOCK
 62
     0
  2
_ORIGIN
 10
-253.0
 20
-347.6
 30
0.0
 41
10.0
 42
10.0
 43
10.0
 50
180.0
  0
TEXT
  5
2C8
  8
0
  6
BYBLOCK
 62
     0
 10
-235.5
 20
-337.6
 30
0.0
 40
30.0
  1
85
 72
     1
 11
-210.5
 21
-337.6
 31
0.0
  0
POINT
  5
2C9
  8
DEFPOINTS
  6
BYBLOCK
 62
     0
 10
-168.0
 20
148.0
 30
0.0
  0
POINT
  5
2CA
  8
DEFPOINTS
  6
BYBLOCK
 62
     0
 10
-253.0
 20
148.0
 30
0.0
  0
POINT
  5
2CB
  8
DEFPOINTS
  6
BYBLOCK
 62
     0
 10
-253.0
 20
-347.6
 30
0.0
  0
ENDBLK
  5
2CC
  8
0
  0
BLOCK
  8
0
  2
*D56
 70
     1
 10
0.0
 20
0.0
 30
0.0
  3
*D56
  1

  0
LINE
  5
2CF
  8
0
  6
BYBLOCK
 62
     0
 10
-168.0
 20
138.0
 30
0.0
 11
-168.0
 21
-360.1
 31
0.0
  0
LINE
  5
2D0
  8
0
  6
BYBLOCK
 62
     0
 10
-85.0
 20
170.0
 30
0.0
 11
-85.0
 21
-360.1
 31
0.0
  0
LINE
  5
2D1
  8
0
  6
BYBLOCK
 62
     0
 10
-158.0
 20
-347.6
 30
0.0
 11
-95.0
 21
-347.6
 31
0.0
  0
INSERT
  5
2D2
  8
0
  6
BYBLOCK
 62
     0
  2
_ORIGIN
 10
-168.0
 20
-347.6
 30
0.0
 41
10.0
 42
10.0
 43
10.0
 50
180.0
  0
INSERT
  5
2D3
  8
0
  6
BYBLOCK
 62
     0
  2
_ORIGIN
 10
-85.0
 20
-347.6
 30
0.0
 41
10.0
 42
10.0
 43
10.0
  0
TEXT
  5
2D4
  8
0
  6
BYBLOCK
 62
     0
 10
-151.5
 20
-337.6
 30
0.0
 40
30.0
  1
83
 72
     1
 11
-126.5
 21
-337.6
 31
0.0
  0
POINT
  5
2D5
  8
DEFPOINTS
  6
BYBLOCK
 62
     0
 10
-168.0
 20
148.0
 30
0.0
  0
POINT
  5
2D6
  8
DEFPOINTS
  6
BYBLOCK
 62
     0
 10
-85.0
 20
180.0
 30
0.0
  0
POINT
  5
2D7
  8
DEFPOINTS
  6
BYBLOCK
 62
     0
 10
-85.0
 20
-347.6
 30
0.0
  0
ENDBLK
  5
2D8
  8
0
  0
BLOCK
  8
0
  2
*D57
 70
     1
 10
0.0
 20
0.0
 30
0.0
  3
*D57
  1

  0
LINE
  5
2DB
  8
0
  6
BYBLOCK
 62
     0
 10
-283.0
 20
168.0
 30
0.0
 11
-429.9
 21
168.0
 31
0.0
  0
LINE
  5
2DC
  8
0
  6
BYBLOCK
 62
     0
 10
-320.0
 20
0.0
 30
0.0
 11
-429.9
 21
0.0
 31
0.0
  0
LINE
  5
2DD
  8
0
  6
BYBLOCK
 62
     0
 10
-417.4
 20
158.0
 30
0.0
 11
-417.4
 21
10.0
 31
0.0
  0
INSERT
  5
2DE
  8
0
  6
BYBLOCK
 62
     0
  2
_ORIGIN
 10
-417.4
 20
168.0
 30
0.0
 41
10.0
 42
10.0
 43
10.0
 50
90.0
  0
INSERT
  5
2DF
  8
0
  6
BYBLOCK
 62
     0
  2
_ORIGIN
 10
-417.4
 20
0.0
 30
0.0
 41
10.0
 42
10.0
 43
10.0
 50
270.0
  0
TEXT
  5
2E0
  8
0
  6
BYBLOCK
 62
     0
 10
-427.4
 20
49.0
 30
0.0
 40
30.0
  1
168
 50
90.0
 72
     1
 11
-427.4
 21
84.0
 31
0.0
  0
POINT
  5
2E1
  8
DEFPOINTS
  6
BYBLOCK
 62
     0
 10
-273.0
 20
168.0
 30
0.0
  0
POINT
  5
2E2
  8
DEFPOINTS
  6
BYBLOCK
 62
     0
 10
-310.0
 20
0.0
 30
0.0
  0
POINT
  5
2E3
  8
DEFPOINTS
  6
BYBLOCK
 62
     0
 10
-417.4
 20
0.0
 30
0.0
  0
ENDBLK
  5
2E4
  8
0
  0
ENDSEC
  0
SECTION
  2
ENTITIES
  0
LINE
  5
2E5
  8
OUTLINE
  6
CONTINUOUS
 10
284.5
 20
0.0
 30
0.0
 11
211.5
 21
0.0
 31
0.0
  0
LINE
  5
2E6
  8
OUTLINE
  6
CONTINUOUS
 10
315.0
 20
200.0
 30
0.0
 11
-315.0
 21
200.0
 31
0.0
  0
LINE
  5
2E7
  8
OUTLINE
  6
CONTINUOUS
 10
315.0
 20
200.0
 30
0.0
 11
315.0
 21
1870.0
 31
0.0
  0
LINE
  5
2E8
  8
OUTLINE
  6
CONTINUOUS
 10
-315.0
 20
1870.0
 30
0.0
 11
-315.0
 21
200.0
 31
0.0
  0
LINE
  5
2E9
  8
OUTLINE
  6
CONTINUOUS
 10
284.5
 20
200.0
 30
0.0
 11
284.5
 21
0.0
 31
0.0
  0
LINE
  5
2EA
  8
OUTLINE
  6
CONTINUOUS
 10
211.5
 20
200.0
 30
0.0
 11
211.5
 21
0.0
 31
0.0
  0
LINE
  5
2EB
  8
OUTLINE
  6
CONTINUOUS
 10
36.5
 20
200.0
 30
0.0
 11
36.5
 21
0.0
 31
0.0
  0
LINE
  5
2EC
  8
OUTLINE
  6
CONTINUOUS
 10
36.5
 20
0.0
 30
0.0
 11
-36.5
 21
0.0
 31
0.0
  0
LINE
  5
2ED
  8
OUTLINE
  6
CONTINUOUS
 10
-284.5
 20
200.0
 30
0.0
 11
-284.5
 21
0.0
 31
0.0
  0
LINE
  5
2EE
  8
OUTLINE
  6
CONTINUOUS
 10
-211.5
 20
200.0
 30
0.0
 11
-211.5
 21
0.0
 31
0.0
  0
LINE
  5
2EF
  8
OUTLINE
  6
CONTINUOUS
 10
-284.5
 20
0.0
 30
0.0
 11
-211.5
 21
0.0
 31
0.0
  0
LINE
  5
2F0
  8
OUTLINE
  6
CONTINUOUS
 10
-36.5
 20
200.0
 30
0.0
 11
-36.5
 21
0.0
 31
0.0
  0
LINE
  5
2F1
  8
OUTLINE
  6
CONTINUOUS
 10
315.0
 20
1870.0
 30
0.0
 11
-315.0
 21
1870.0
 31
0.0
  0
LINE
  5
2F2
  8
DETAIL
  6
DASHED
 10
-263.85
 20
168.0
 30
0.0
 11
-242.15
 21
168.0
 31
0.0
  0
LINE
  5
2F3
  8
DETAIL
  6
DASHED
 10
-263.85
 20
168.0
 30
0.0
 11
-263.85
 21
200.0
 31
0.0
  0
LINE
  5
2F4
  8
DETAIL
  6
DASHED
 10
-242.15
 20
168.0
 30
0.0
 11
-242.15
 21
200.0
 31
0.0
  0
LINE
  5
2F5
  8
DETAIL
  6
DASHED
 10
-242.15
 20
168.0
 30
0.0
 11
-242.15
 21
200.0
 31
0.0
  0
LINE
  5
2F6
  8
DETAIL
  6
DASHED
 10
-263.85
 20
168.0
 30
0.0
 11
-263.85
 21
200.0
 31
0.0
  0
LINE
  5
2F7
  8
DETAIL
  6
DASHED
 10
-263.85
 20
168.0
 30
0.0
 11
-242.15
 21
168.0
 31
0.0
  0
LINE
  5
2F8
  8
DETAIL
  6
CONTINUOUS
 10
-178.85
 20
168.0
 30
0.0
 11
-157.15
 21
168.0
 31
0.0
  0
LINE
  5
2F9
  8
DETAIL
  6
CONTINUOUS
 10
-178.85
 20
168.0
 30
0.0
 11
-178.85
 21
200.0
 31
0.0
  0
LINE
  5
2FA
  8
DETAIL
  6
CONTINUOUS
 10
-157.15
 20
168.0
 30
0.0
 11
-157.15
 21
200.0
 31
0.0
  0
LINE
  5
2FB
  8
DETAIL
  6
CONTINUOUS
 10
-157.15
 20
168.0
 30
0.0
 11
-157.15
 21
200.0
 31
0.0
  0
LINE
  5
2FC
  8
DETAIL
  6
CONTINUOUS
 10
-178.85
 20
168.0
 30
0.0
 11
-178.85
 21
200.0
 31
0.0
  0
LINE
  5
2FD
  8
DETAIL
  6
CONTINUOUS
 10
-178.85
 20
168.0
 30
0.0
 11
-157.15
 21
168.0
 31
0.0
  0
LINE
  5
2FE
  8
DETAIL
  6
CONTINUOUS
 10
258.22967
 20
1895.0
 30
0.0
 11
171.77033
 21
1895.0
 31
0.0
  0
LINE
  5
2FF
  8
DETAIL
  6
CONTINUOUS
 10
295.0
 20
1875.0
 30
0.0
 11
295.0
 21
1870.0
 31
0.0
  0
LINE
  5
300
  8
DETAIL
  6
CONTINUOUS
 10
135.0
 20
1875.0
 30
0.0
 11
135.0
 21
1870.0
 31
0.0
  0
LINE
  5
301
  8
DETAIL
  6
CONTINUOUS
 10
295.0
 20
1875.0
 30
0.0
 11
292.09017
 21
1875.0
 31
0.0
  0
LINE
  5
302
  8
DETAIL
  6
CONTINUOUS
 10
275.0
 20
1870.0
 30
0.0
 11
267.514437
 21
1888.713907
 31
0.0
  0
LINE
  5
303
  8
DETAIL
  6
CONTINUOUS
 10
155.0
 20
1870.0
 30
0.0
 11
162.485563
 21
1888.713907
 31
0.0
  0
ARC
  5
304
  8
DETAIL
  6
CONTINUOUS
 10
171.77033
 20
1885.0
 30
0.0
 40
10.0
 50
90.0
 51
158.198591
  0
ARC
  5
305
  8
DETAIL
  6
CONTINUOUS
 10
258.22967
 20
1885.0
 30
0.0
 40
10.0
 50
21.801409
 51
90.0
  0
LINE
  5
306
  8
DETAIL
  6
CONTINUOUS
 10
288.116621
 20
1876.913308
 30
0.0
 11
274.50424
 21
1894.260077
 31
0.0
  0
ARC
  5
307
  8
DETAIL
  6
CONTINUOUS
 10
292.050109
 20
1880.0
 30
0.0
 40
5.0
 50
218.122034
 51
270.0
  0
ARC
  5
308
  8
DETAIL
  6
CONTINUOUS
 10
262.703775
 20
1885.0
 30
0.0
 40
15.0
 50
38.122034
 51
90.0
  0
LINE
  5
309
  8
DETAIL
  6
CONTINUOUS
 10
141.883379
 20
1876.913308
 30
0.0
 11
155.49576
 21
1894.260077
 31
0.0
  0
ARC
  5
30A
  8
DETAIL
  6
CONTINUOUS
 10
137.949891
 20
1880.0
 30
0.0
 40
5.0
 50
270.0
 51
321.877966
  0
LINE
  5
30B
  8
DETAIL
  6
CONTINUOUS
 10
137.949891
 20
1875.0
 30
0.0
 11
135.0
 21
1875.0
 31
0.0
  0
LINE
  5
30C
  8
DETAIL
  6
CONTINUOUS
 10
262.703775
 20
1900.0
 30
0.0
 11
167.296225
 21
1900.0
 31
0.0
  0
ARC
  5
30D
  8
DETAIL
  6
CONTINUOUS
 10
167.296225
 20
1885.0
 30
0.0
 40
15.0
 50
90.0
 51
141.877966
  0
LINE
  5
30E
  8
DETAIL
  6
CONTINUOUS
 10
-258.22967
 20
1895.0
 30
0.0
 11
-171.77033
 21
1895.0
 31
0.0
  0
LINE
  5
30F
  8
DETAIL
  6
CONTINUOUS
 10
-295.0
 20
1875.0
 30
0.0
 11
-295.0
 21
1870.0
 31
0.0
  0
LINE
  5
310
  8
DETAIL
  6
CONTINUOUS
 10
-135.0
 20
1875.0
 30
0.0
 11
-135.0
 21
1870.0
 31
0.0
  0
LINE
  5
311
  8
DETAIL
  6
CONTINUOUS
 10
-295.0
 20
1875.0
 30
0.0
 11
-292.09017
 21
1875.0
 31
0.0
  0
LINE
  5
312
  8
DETAIL
  6
CONTINUOUS
 10
-275.0
 20
1870.0
 30
0.0
 11
-267.514437
 21
1888.713907
 31
0.0
  0
LINE
  5
313
  8
DETAIL
  6
CONTINUOUS
 10
-155.0
 20
1870.0
 30
0.0
 11
-162.485563
 21
1888.713907
 31
0.0
  0
ARC
  5
314
  8
DETAIL
  6
CONTINUOUS
 10
-171.77033
 20
1885.0
 30
0.0
 40
10.0
 50
21.801409
 51
90.0
  0
ARC
  5
315
  8
DETAIL
  6
CONTINUOUS
 10
-258.22967
 20
1885.0
 30
0.0
 40
10.0
 50
90.0
 51
158.198591
  0
LINE
  5
316
  8
DETAIL
  6
CONTINUOUS
 10
-288.116621
 20
1876.913308
 30
0.0
 11
-274.50424
 21
1894.260077
 31
0.0
  0
ARC
  5
317
  8
DETAIL
  6
CONTINUOUS
 10
-292.050109
 20
1880.0
 30
0.0
 40
5.0
 50
270.0
 51
321.877966
  0
ARC
  5
318
  8
DETAIL
  6
CONTINUOUS
 10
-262.703775
 20
1885.0
 30
0.0
 40
15.0
 50
90.0
 51
141.877966
  0
LINE
  5
319
  8
DETAIL
  6
CONTINUOUS
 10
-141.883379
 20
1876.913308
 30
0.0
 11
-155.49576
 21
1894.260077
 31
0.0
  0
ARC
  5
31A
  8
DETAIL
  6
CONTINUOUS
 10
-137.949891
 20
1880.0
 30
0.0
 40
5.0
 50
218.122034
 51
270.0
  0
LINE
  5
31B
  8
DETAIL
  6
CONTINUOUS
 10
-137.949891
 20
1875.0
 30
0.0
 11
-135.0
 21
1875.0
 31
0.0
  0
LINE
  5
31C
  8
DETAIL
  6
CONTINUOUS
 10
-262.703775
 20
1900.0
 30
0.0
 11
-167.296225
 21
1900.0
 31
0.0
  0
ARC
  5
31D
  8
DETAIL
  6
CONTINUOUS
 10
-167.296225
 20
1885.0
 30
0.0
 40
15.0
 50
38.122034
 51
90.0
  0
LINE
  5
31E
  8
DETAIL
  6
CONTINUOUS
 10
315.0
 20
1843.0
 30
0.0
 11
-315.0
 21
1843.0
 31
0.0
  0
LINE
  5
31F
  8
DETAIL
  6
CONTINUOUS
 10
-221.5
 20
0.0
 30
0.0
 11
-186.0
 21
0.0
 31
0.0
  0
LINE
  5
320
  8
DETAIL
  6
CONTINUOUS
 10
-186.0
 20
0.0
 30
0.0
 11
-186.0
 21
3.2
 31
0.0
  0
LINE
  5
321
  8
DETAIL
  6
CONTINUOUS
 10
-268.3
 20
18.0
 30
0.0
 11
-227.7
 21
18.0
 31
0.0
  0
LINE
  5
322
  8
DETAIL
  6
CONTINUOUS
 10
-223.0
 20
4.7
 30
0.0
 11
-223.0
 21
13.3
 31
0.0
  0
LINE
  5
323
  8
DETAIL
  6
CONTINUOUS
 10
-268.3
 20
14.8
 30
0.0
 11
-227.7
 21
14.8
 31
0.0
  0
LINE
  5
324
  8
DETAIL
  6
CONTINUOUS
 10
-226.2
 20
4.7
 30
0.0
 11
-226.2
 21
13.3
 31
0.0
  0
LINE
  5
325
  8
DETAIL
  6
CONTINUOUS
 10
-221.5
 20
3.2
 30
0.0
 11
-186.0
 21
3.2
 31
0.0
  0
LINE
  5
326
  8
DETAIL
  6
CONTINUOUS
 10
-274.5
 20
0.0
 30
0.0
 11
-310.0
 21
0.0
 31
0.0
  0
LINE
  5
327
  8
DETAIL
  6
CONTINUOUS
 10
-274.5
 20
3.2
 30
0.0
 11
-310.0
 21
3.2
 31
0.0
  0
LINE
  5
328
  8
DETAIL
  6
CONTINUOUS
 10
-310.0
 20
0.0
 30
0.0
 11
-310.0
 21
3.2
 31
0.0
  0
LINE
  5
329
  8
DETAIL
  6
CONTINUOUS
 10
-269.8
 20
4.7
 30
0.0
 11
-269.8
 21
13.3
 31
0.0
  0
LINE
  5
32A
  8
DETAIL
  6
CONTINUOUS
 10
-273.0
 20
4.7
 30
0.0
 11
-273.0
 21
13.3
 31
0.0
  0
ARC
  5
32B
  8
DETAIL
  6
CONTINUOUS
 10
-40.0
 20
1910.0
 30
0.0
 40
5.0
 50
90.0
 51
180.0
  0
LINE
  5
32C
  8
DETAIL
  6
CONTINUOUS
 10
40.0
 20
1915.0
 30
0.0
 11
-40.0
 21
1915.0
 31
0.0
  0
LINE
  5
32D
  8
DETAIL
  6
CONTINUOUS
 10
-45.0
 20
1870.0
 30
0.0
 11
-45.0
 21
1910.0
 31
0.0
  0
ARC
  5
32E
  8
DETAIL
  6
CONTINUOUS
 10
40.0
 20
1910.0
 30
0.0
 40
5.0
 50
0.0
 51
90.0
  0
LINE
  5
32F
  8
DETAIL
  6
CONTINUOUS
 10
45.0
 20
1870.0
 30
0.0
 11
45.0
 21
1910.0
 31
0.0
  0
ARC
  5
330
  8
DETAIL
  6
CONTINUOUS
 10
-227.7
 20
13.3
 30
0.0
 40
1.5
 50
0.0
 51
90.0
  0
ARC
  5
331
  8
DETAIL
  6
CONTINUOUS
 10
-268.3
 20
13.3
 30
0.0
 40
1.5
 50
90.0
 51
180.0
  0
ARC
  5
332
  8
DETAIL
  6
CONTINUOUS
 10
-221.5
 20
4.7
 30
0.0
 40
1.5
 50
180.0
 51
270.0
  0
ARC
  5
333
  8
DETAIL
  6
CONTINUOUS
 10
-274.5
 20
4.7
 30
0.0
 40
1.5
 50
270.0
 51
0.0
  0
ARC
  5
334
  8
DETAIL
  6
CONTINUOUS
 10
-227.7
 20
13.3
 30
0.0
 40
4.7
 50
0.0
 51
90.0
  0
ARC
  5
335
  8
DETAIL
  6
CONTINUOUS
 10
-268.3
 20
13.3
 30
0.0
 40
4.7
 50
90.0
 51
180.0
  0
ARC
  5
336
  8
DETAIL
  6
CONTINUOUS
 10
-274.5
 20
4.7
 30
0.0
 40
4.7
 50
270.0
 51
0.0
  0
ARC
  5
337
  8
DETAIL
  6
CONTINUOUS
 10
-221.5
 20
4.7
 30
0.0
 40
4.7
 50
180.0
 51
270.0
  0
ARC
  5
338
  8
DETAIL
  6
CONTINUOUS
 10
221.5
 20
4.7
 30
0.0
 40
4.7
 50
270.0
 51
0.0
  0
LINE
  5
339
  8
DETAIL
  6
CONTINUOUS
 10
226.2
 20
4.7
 30
0.0
 11
226.2
 21
13.3
 31
0.0
  0
LINE
  5
33A
  8
DETAIL
  6
CONTINUOUS
 10
221.5
 20
0.0
 30
0.0
 11
186.0
 21
0.0
 31
0.0
  0
ARC
  5
33B
  8
DETAIL
  6
CONTINUOUS
 10
274.5
 20
4.7
 30
0.0
 40
4.7
 50
180.0
 51
270.0
  0
LINE
  5
33C
  8
DETAIL
  6
CONTINUOUS
 10
269.8
 20
4.7
 30
0.0
 11
269.8
 21
13.3
 31
0.0
  0
LINE
  5
33D
  8
DETAIL
  6
CONTINUOUS
 10
274.5
 20
0.0
 30
0.0
 11
310.0
 21
0.0
 31
0.0
  0
ARC
  5
33E
  8
DETAIL
  6
CONTINUOUS
 10
268.3
 20
13.3
 30
0.0
 40
4.7
 50
0.0
 51
90.0
  0
LINE
  5
33F
  8
DETAIL
  6
CONTINUOUS
 10
268.3
 20
18.0
 30
0.0
 11
227.7
 21
18.0
 31
0.0
  0
LINE
  5
340
  8
DETAIL
  6
CONTINUOUS
 10
273.0
 20
4.7
 30
0.0
 11
273.0
 21
13.3
 31
0.0
  0
ARC
  5
341
  8
DETAIL
  6
CONTINUOUS
 10
227.7
 20
13.3
 30
0.0
 40
4.7
 50
90.0
 51
180.0
  0
LINE
  5
342
  8
DETAIL
  6
CONTINUOUS
 10
223.0
 20
4.7
 30
0.0
 11
223.0
 21
13.3
 31
0.0
  0
ARC
  5
343
  8
DETAIL
  6
CONTINUOUS
 10
274.5
 20
4.7
 30
0.0
 40
1.5
 50
180.0
 51
270.0
  0
LINE
  5
344
  8
DETAIL
  6
CONTINUOUS
 10
274.5
 20
3.2
 30
0.0
 11
310.0
 21
3.2
 31
0.0
  0
ARC
  5
345
  8
DETAIL
  6
CONTINUOUS
 10
221.5
 20
4.7
 30
0.0
 40
1.5
 50
270.0
 51
0.0
  0
LINE
  5
346
  8
DETAIL
  6
CONTINUOUS
 10
221.5
 20
3.2
 30
0.0
 11
186.0
 21
3.2
 31
0.0
  0
ARC
  5
347
  8
DETAIL
  6
CONTINUOUS
 10
268.3
 20
13.3
 30
0.0
 40
1.5
 50
0.0
 51
90.0
  0
LINE
  5
348
  8
DETAIL
  6
CONTINUOUS
 10
268.3
 20
14.8
 30
0.0
 11
227.7
 21
14.8
 31
0.0
  0
ARC
  5
349
  8
DETAIL
  6
CONTINUOUS
 10
227.7
 20
13.3
 30
0.0
 40
1.5
 50
90.0
 51
180.0
  0
LINE
  5
34A
  8
DETAIL
  6
CONTINUOUS
 10
310.0
 20
0.0
 30
0.0
 11
310.0
 21
3.2
 31
0.0
  0
LINE
  5
34B
  8
DETAIL
  6
CONTINUOUS
 10
186.0
 20
0.0
 30
0.0
 11
186.0
 21
3.2
 31
0.0
  0
LINE
  5
34C
  8
DETAIL
  6
CONTINUOUS
 10
315.0
 20
1870.0
 30
0.0
 11
-315.0
 21
1870.0
 31
0.0
  0
LINE
  5
34D
  8
DETAIL
  6
CONTINUOUS
 10
-36.5
 20
200.0
 30
0.0
 11
-36.5
 21
0.0
 31
0.0
  0
LINE
  5
34E
  8
DETAIL
  6
CONTINUOUS
 10
-284.5
 20
0.0
 30
0.0
 11
-211.5
 21
0.0
 31
0.0
  0
LINE
  5
34F
  8
DETAIL
  6
CONTINUOUS
 10
-211.5
 20
200.0
 30
0.0
 11
-211.5
 21
0.0
 31
0.0
  0
LINE
  5
350
  8
DETAIL
  6
CONTINUOUS
 10
-284.5
 20
200.0
 30
0.0
 11
-284.5
 21
0.0
 31
0.0
  0
LINE
  5
351
  8
DETAIL
  6
CONTINUOUS
 10
36.5
 20
0.0
 30
0.0
 11
-36.5
 21
0.0
 31
0.0
  0
LINE
  5
352
  8
DETAIL
  6
CONTINUOUS
 10
36.5
 20
200.0
 30
0.0
 11
36.5
 21
0.0
 31
0.0
  0
LINE
  5
353
  8
DETAIL
  6
CONTINUOUS
 10
211.5
 20
200.0
 30
0.0
 11
211.5
 21
0.0
 31
0.0
  0
LINE
  5
354
  8
DETAIL
  6
CONTINUOUS
 10
284.5
 20
200.0
 30
0.0
 11
284.5
 21
0.0
 31
0.0
  0
LINE
  5
355
  8
DETAIL
  6
CONTINUOUS
 10
-315.0
 20
1870.0
 30
0.0
 11
-315.0
 21
200.0
 31
0.0
  0
LINE
  5
356
  8
DETAIL
  6
CONTINUOUS
 10
315.0
 20
200.0
 30
0.0
 11
315.0
 21
1870.0
 31
0.0
  0
LINE
  5
357
  8
DETAIL
  6
CONTINUOUS
 10
315.0
 20
200.0
 30
0.0
 11
-315.0
 21
200.0
 31
0.0
  0
LINE
  5
358
  8
DETAIL
  6
CONTINUOUS
 10
284.5
 20
0.0
 30
0.0
 11
211.5
 21
0.0
 31
0.0
  0
LINE
  5
359
  8
DETAIL
  6
CONTINUOUS
 10
186.0
 20
0.0
 30
0.0
 11
186.0
 21
3.2
 31
0.0
  0
LINE
  5
35A
  8
DETAIL
  6
CONTINUOUS
 10
310.0
 20
0.0
 30
0.0
 11
310.0
 21
3.2
 31
0.0
  0
ARC
  5
35B
  8
DETAIL
  6
CONTINUOUS
 10
227.7
 20
13.3
 30
0.0
 40
1.5
 50
90.0
 51
180.0
  0
LINE
  5
35C
  8
DETAIL
  6
CONTINUOUS
 10
268.3
 20
14.8
 30
0.0
 11
227.7
 21
14.8
 31
0.0
  0
ARC
  5
35D
  8
DETAIL
  6
CONTINUOUS
 10
268.3
 20
13.3
 30
0.0
 40
1.5
 50
0.0
 51
90.0
  0
LINE
  5
35E
  8
DETAIL
  6
CONTINUOUS
 10
221.5
 20
3.2
 30
0.0
 11
186.0
 21
3.2
 31
0.0
  0
ARC
  5
35F
  8
DETAIL
  6
CONTINUOUS
 10
221.5
 20
4.7
 30
0.0
 40
1.5
 50
270.0
 51
0.0
  0
LINE
  5
360
  8
DETAIL
  6
CONTINUOUS
 10
274.5
 20
3.2
 30
0.0
 11
310.0
 21
3.2
 31
0.0
  0
ARC
  5
361
  8
DETAIL
  6
CONTINUOUS
 10
274.5
 20
4.7
 30
0.0
 40
1.5
 50
180.0
 51
270.0
  0
LINE
  5
362
  8
DETAIL
  6
CONTINUOUS
 10
223.0
 20
4.7
 30
0.0
 11
223.0
 21
13.3
 31
0.0
  0
ARC
  5
363
  8
DETAIL
  6
CONTINUOUS
 10
227.7
 20
13.3
 30
0.0
 40
4.7
 50
90.0
 51
180.0
  0
LINE
  5
364
  8
DETAIL
  6
CONTINUOUS
 10
273.0
 20
4.7
 30
0.0
 11
273.0
 21
13.3
 31
0.0
  0
LINE
  5
365
  8
DETAIL
  6
CONTINUOUS
 10
268.3
 20
18.0
 30
0.0
 11
227.7
 21
18.0
 31
0.0
  0
ARC
  5
366
  8
DETAIL
  6
CONTINUOUS
 10
268.3
 20
13.3
 30
0.0
 40
4.7
 50
0.0
 51
90.0
  0
LINE
  5
367
  8
DETAIL
  6
CONTINUOUS
 10
274.5
 20
0.0
 30
0.0
 11
310.0
 21
0.0
 31
0.0
  0
LINE
  5
368
  8
DETAIL
  6
CONTINUOUS
 10
269.8
 20
4.7
 30
0.0
 11
269.8
 21
13.3
 31
0.0
  0
ARC
  5
369
  8
DETAIL
  6
CONTINUOUS
 10
274.5
 20
4.7
 30
0.0
 40
4.7
 50
180.0
 51
270.0
  0
LINE
  5
36A
  8
DETAIL
  6
CONTINUOUS
 10
221.5
 20
0.0
 30
0.0
 11
186.0
 21
0.0
 31
0.0
  0
LINE
  5
36B
  8
DETAIL
  6
CONTINUOUS
 10
226.2
 20
4.7
 30
0.0
 11
226.2
 21
13.3
 31
0.0
  0
ARC
  5
36C
  8
DETAIL
  6
CONTINUOUS
 10
221.5
 20
4.7
 30
0.0
 40
4.7
 50
270.0
 51
0.0
  0
ARC
  5
36D
  8
DETAIL
  6
CONTINUOUS
 10
-221.5
 20
4.7
 30
0.0
 40
4.7
 50
180.0
 51
270.0
  0
ARC
  5
36E
  8
DETAIL
  6
CONTINUOUS
 10
-274.5
 20
4.7
 30
0.0
 40
4.7
 50
270.0
 51
0.0
  0
ARC
  5
36F
  8
DETAIL
  6
CONTINUOUS
 10
-268.3
 20
13.3
 30
0.0
 40
4.7
 50
90.0
 51
180.0
  0
ARC
  5
370
  8
DETAIL
  6
CONTINUOUS
 10
-227.7
 20
13.3
 30
0.0
 40
4.7
 50
0.0
 51
90.0
  0
ARC
  5
371
  8
DETAIL
  6
CONTINUOUS
 10
-274.5
 20
4.7
 30
0.0
 40
1.5
 50
270.0
 51
0.0
  0
ARC
  5
372
  8
DETAIL
  6
CONTINUOUS
 10
-221.5
 20
4.7
 30
0.0
 40
1.5
 50
180.0
 51
270.0
  0
ARC
  5
373
  8
DETAIL
  6
CONTINUOUS
 10
-268.3
 20
13.3
 30
0.0
 40
1.5
 50
90.0
 51
180.0
  0
ARC
  5
374
  8
DETAIL
  6
CONTINUOUS
 10
-227.7
 20
13.3
 30
0.0
 40
1.5
 50
0.0
 51
90.0
  0
LINE
  5
375
  8
DETAIL
  6
CONTINUOUS
 10
45.0
 20
1870.0
 30
0.0
 11
45.0
 21
1910.0
 31
0.0
  0
ARC
  5
376
  8
DETAIL
  6
CONTINUOUS
 10
40.0
 20
1910.0
 30
0.0
 40
5.0
 50
0.0
 51
90.0
  0
LINE
  5
377
  8
DETAIL
  6
CONTINUOUS
 10
-45.0
 20
1870.0
 30
0.0
 11
-45.0
 21
1910.0
 31
0.0
  0
LINE
  5
378
  8
DETAIL
  6
CONTINUOUS
 10
40.0
 20
1915.0
 30
0.0
 11
-40.0
 21
1915.0
 31
0.0
  0
ARC
  5
379
  8
DETAIL
  6
CONTINUOUS
 10
-40.0
 20
1910.0
 30
0.0
 40
5.0
 50
90.0
 51
180.0
  0
LINE
  5
37A
  8
DETAIL
  6
CONTINUOUS
 10
-273.0
 20
4.7
 30
0.0
 11
-273.0
 21
13.3
 31
0.0
  0
LINE
  5
37B
  8
DETAIL
  6
CONTINUOUS
 10
-269.8
 20
4.7
 30
0.0
 11
-269.8
 21
13.3
 31
0.0
  0
LINE
  5
37C
  8
DETAIL
  6
CONTINUOUS
 10
-310.0
 20
0.0
 30
0.0
 11
-310.0
 21
3.2
 31
0.0
  0
LINE
  5
37D
  8
DETAIL
  6
CONTINUOUS
 10
-274.5
 20
3.2
 30
0.0
 11
-310.0
 21
3.2
 31
0.0
  0
LINE
  5
37E
  8
DETAIL
  6
CONTINUOUS
 10
-274.5
 20
0.0
 30
0.0
 11
-310.0
 21
0.0
 31
0.0
  0
LINE
  5
37F
  8
DETAIL
  6
CONTINUOUS
 10
-221.5
 20
3.2
 30
0.0
 11
-186.0
 21
3.2
 31
0.0
  0
LINE
  5
380
  8
DETAIL
  6
CONTINUOUS
 10
-226.2
 20
4.7
 30
0.0
 11
-226.2
 21
13.3
 31
0.0
  0
LINE
  5
381
  8
DETAIL
  6
CONTINUOUS
 10
-268.3
 20
14.8
 30
0.0
 11
-227.7
 21
14.8
 31
0.0
  0
LINE
  5
382
  8
DETAIL
  6
CONTINUOUS
 10
-223.0
 20
4.7
 30
0.0
 11
-223.0
 21
13.3
 31
0.0
  0
LINE
  5
383
  8
DETAIL
  6
CONTINUOUS
 10
-268.3
 20
18.0
 30
0.0
 11
-227.7
 21
18.0
 31
0.0
  0
LINE
  5
384
  8
DETAIL
  6
CONTINUOUS
 10
-186.0
 20
0.0
 30
0.0
 11
-186.0
 21
3.2
 31
0.0
  0
LINE
  5
385
  8
DETAIL
  6
CONTINUOUS
 10
-221.5
 20
0.0
 30
0.0
 11
-186.0
 21
0.0
 31
0.0
  0
LINE
  5
386
  8
DETAIL
  6
CONTINUOUS
 10
315.0
 20
1843.0
 30
0.0
 11
-315.0
 21
1843.0
 31
0.0
  0
ARC
  5
387
  8
DETAIL
  6
CONTINUOUS
 10
-167.296225
 20
1885.0
 30
0.0
 40
15.0
 50
38.122034
 51
90.0
  0
LINE
  5
388
  8
DETAIL
  6
CONTINUOUS
 10
-262.703775
 20
1900.0
 30
0.0
 11
-167.296225
 21
1900.0
 31
0.0
  0
LINE
  5
389
  8
DETAIL
  6
CONTINUOUS
 10
-137.949891
 20
1875.0
 30
0.0
 11
-135.0
 21
1875.0
 31
0.0
  0
ARC
  5
38A
  8
DETAIL
  6
CONTINUOUS
 10
-137.949891
 20
1880.0
 30
0.0
 40
5.0
 50
218.122034
 51
270.0
  0
LINE
  5
38B
  8
DETAIL
  6
CONTINUOUS
 10
-141.883379
 20
1876.913308
 30
0.0
 11
-155.49576
 21
1894.260077
 31
0.0
  0
ARC
  5
38C
  8
DETAIL
  6
CONTINUOUS
 10
-262.703775
 20
1885.0
 30
0.0
 40
15.0
 50
90.0
 51
141.877966
  0
ARC
  5
38D
  8
DETAIL
  6
CONTINUOUS
 10
-292.050109
 20
1880.0
 30
0.0
 40
5.0
 50
270.0
 51
321.877966
  0
LINE
  5
38E
  8
DETAIL
  6
CONTINUOUS
 10
-288.116621
 20
1876.913308
 30
0.0
 11
-274.50424
 21
1894.260077
 31
0.0
  0
ARC
  5
38F
  8
DETAIL
  6
CONTINUOUS
 10
-258.22967
 20
1885.0
 30
0.0
 40
10.0
 50
90.0
 51
158.198591
  0
ARC
  5
390
  8
DETAIL
  6
CONTINUOUS
 10
-171.77033
 20
1885.0
 30
0.0
 40
10.0
 50
21.801409
 51
90.0
  0
LINE
  5
391
  8
DETAIL
  6
CONTINUOUS
 10
-155.0
 20
1870.0
 30
0.0
 11
-162.485563
 21
1888.713907
 31
0.0
  0
LINE
  5
392
  8
DETAIL
  6
CONTINUOUS
 10
-275.0
 20
1870.0
 30
0.0
 11
-267.514437
 21
1888.713907
 31
0.0
  0
LINE
  5
393
  8
DETAIL
  6
CONTINUOUS
 10
-295.0
 20
1875.0
 30
0.0
 11
-292.09017
 21
1875.0
 31
0.0
  0
LINE
  5
394
  8
DETAIL
  6
CONTINUOUS
 10
-135.0
 20
1875.0
 30
0.0
 11
-135.0
 21
1870.0
 31
0.0
  0
LINE
  5
395
  8
DETAIL
  6
CONTINUOUS
 10
-295.0
 20
1875.0
 30
0.0
 11
-295.0
 21
1870.0
 31
0.0
  0
LINE
  5
396
  8
DETAIL
  6
CONTINUOUS
 10
-258.22967
 20
1895.0
 30
0.0
 11
-171.77033
 21
1895.0
 31
0.0
  0
ARC
  5
397
  8
DETAIL
  6
CONTINUOUS
 10
167.296225
 20
1885.0
 30
0.0
 40
15.0
 50
90.0
 51
141.877966
  0
LINE
  5
398
  8
DETAIL
  6
CONTINUOUS
 10
262.703775
 20
1900.0
 30
0.0
 11
167.296225
 21
1900.0
 31
0.0
  0
LINE
  5
399
  8
DETAIL
  6
CONTINUOUS
 10
137.949891
 20
1875.0
 30
0.0
 11
135.0
 21
1875.0
 31
0.0
  0
ARC
  5
39A
  8
DETAIL
  6
CONTINUOUS
 10
137.949891
 20
1880.0
 30
0.0
 40
5.0
 50
270.0
 51
321.877966
  0
LINE
  5
39B
  8
DETAIL
  6
CONTINUOUS
 10
141.883379
 20
1876.913308
 30
0.0
 11
155.49576
 21
1894.260077
 31
0.0
  0
ARC
  5
39C
  8
DETAIL
  6
CONTINUOUS
 10
262.703775
 20
1885.0
 30
0.0
 40
15.0
 50
38.122034
 51
90.0
  0
ARC
  5
39D
  8
DETAIL
  6
CONTINUOUS
 10
292.050109
 20
1880.0
 30
0.0
 40
5.0
 50
218.122034
 51
270.0
  0
LINE
  5
39E
  8
DETAIL
  6
CONTINUOUS
 10
288.116621
 20
1876.913308
 30
0.0
 11
274.50424
 21
1894.260077
 31
0.0
  0
ARC
  5
39F
  8
DETAIL
  6
CONTINUOUS
 10
258.22967
 20
1885.0
 30
0.0
 40
10.0
 50
21.801409
 51
90.0
  0
ARC
  5
3A0
  8
DETAIL
  6
CONTINUOUS
 10
171.77033
 20
1885.0
 30
0.0
 40
10.0
 50
90.0
 51
158.198591
  0
LINE
  5
3A1
  8
DETAIL
  6
CONTINUOUS
 10
155.0
 20
1870.0
 30
0.0
 11
162.485563
 21
1888.713907
 31
0.0
  0
LINE
  5
3A2
  8
DETAIL
  6
CONTINUOUS
 10
275.0
 20
1870.0
 30
0.0
 11
267.514437
 21
1888.713907
 31
0.0
  0
LINE
  5
3A3
  8
DETAIL
  6
CONTINUOUS
 10
295.0
 20
1875.0
 30
0.0
 11
292.09017
 21
1875.0
 31
0.0
  0
LINE
  5
3A4
  8
DETAIL
  6
CONTINUOUS
 10
135.0
 20
1875.0
 30
0.0
 11
135.0
 21
1870.0
 31
0.0
  0
LINE
  5
3A5
  8
DETAIL
  6
CONTINUOUS
 10
295.0
 20
1875.0
 30
0.0
 11
295.0
 21
1870.0
 31
0.0
  0
LINE
  5
3A6
  8
DETAIL
  6
CONTINUOUS
 10
258.22967
 20
1895.0
 30
0.0
 11
171.77033
 21
1895.0
 31
0.0
  0
LINE
  5
3A7
  8
DETAIL
  6
CONTINUOUS
 10
133.444344
 20
164.335062
 30
0.0
 11
137.73752
 21
163.538482
 31
0.0
  0
LINE
  5
3A8
  8
DETAIL
  6
CONTINUOUS
 10
133.444344
 20
180.664938
 30
0.0
 11
137.73752
 21
181.461518
 31
0.0
  0
POLYLINE
  5
3A9
  8
DETAIL
  6
CONTINUOUS
 66
     1
 10
0.0
 20
0.0
 30
0.0
  0
VERTEX
  5
3AA
  8
DETAIL
  6
CONTINUOUS
 10
133.444344
 20
180.664938
 30
0.0
  0
VERTEX
  5
3AB
  8
DETAIL
  6
CONTINUOUS
 10
132.700694
 20
180.386758
 30
0.0
  0
VERTEX
  5
3AC
  8
DETAIL
  6
CONTINUOUS
 10
131.99526
 20
179.840042
 30
0.0
  0
VERTEX
  5
3AD
  8
DETAIL
  6
CONTINUOUS
 10
131.352062
 20
179.043407
 30
0.0
  0
VERTEX
  5
3AE
  8
DETAIL
  6
CONTINUOUS
 10
130.792999
 20
178.023976
 30
0.0
  0
VERTEX
  5
3AF
  8
DETAIL
  6
CONTINUOUS
 10
130.337108
 20
176.816461
 30
0.0
  0
VERTEX
  5
3B0
  8
DETAIL
  6
CONTINUOUS
 10
129.999909
 20
175.461975
 30
0.0
  0
VERTEX
  5
3B1
  8
DETAIL
  6
CONTINUOUS
 10
129.792886
 20
174.006637
 30
0.0
  0
VERTEX
  5
3B2
  8
DETAIL
  6
CONTINUOUS
 10
129.723085
 20
172.499999
 30
0.0
  0
VERTEX
  5
3B3
  8
DETAIL
  6
CONTINUOUS
 10
129.792886
 20
170.993362
 30
0.0
  0
VERTEX
  5
3B4
  8
DETAIL
  6
CONTINUOUS
 10
129.999909
 20
169.538024
 30
0.0
  0
VERTEX
  5
3B5
  8
DETAIL
  6
CONTINUOUS
 10
130.337108
 20
168.183538
 30
0.0
  0
VERTEX
  5
3B6
  8
DETAIL
  6
CONTINUOUS
 10
130.793
 20
166.976023
 30
0.0
  0
VERTEX
  5
3B7
  8
DETAIL
  6
CONTINUOUS
 10
131.352063
 20
165.956592
 30
0.0
  0
VERTEX
  5
3B8
  8
DETAIL
  6
CONTINUOUS
 10
131.995261
 20
165.159957
 30
0.0
  0
VERTEX
  5
3B9
  8
DETAIL
  6
CONTINUOUS
 10
132.700695
 20
164.613242
 30
0.0
  0
VERTEX
  5
3BA
  8
DETAIL
  6
CONTINUOUS
 10
133.444344
 20
164.335062
 30
0.0
  0
SEQEND
  5
3BB
  8
DETAIL
  6
CONTINUOUS
  0
LINE
  5
3BC
  8
DETAIL
  6
CONTINUOUS
 10
129.0
 20
192.0
 30
0.0
 11
121.0
 21
200.0
 31
0.0
  0
LINE
  5
3BD
  8
DETAIL
  6
CONTINUOUS
 10
201.0
 20
192.0
 30
0.0
 11
209.0
 21
200.0
 31
0.0
  0
ARC
  5
3BE
  8
DETAIL
  6
CONTINUOUS
 10
149.411543
 20
139.647092
 30
0.0
 40
0.647092
 50
270.0
 51
316.323742
  0
LINE
  5
3BF
  8
DETAIL
  6
CONTINUOUS
 10
147.0
 20
143.0
 30
0.0
 11
147.0
 21
188.5
 31
0.0
  0
LINE
  5
3C0
  8
DETAIL
  6
CONTINUOUS
 10
138.153212
 20
163.5
 30
0.0
 11
147.0
 21
163.5
 31
0.0
  0
LINE
  5
3C1
  8
DETAIL
  6
CONTINUOUS
 10
138.153212
 20
181.5
 30
0.0
 11
147.0
 21
181.5
 31
0.0
  0
LINE
  5
3C2
  8
DETAIL
  6
CONTINUOUS
 10
136.421162
 20
150.0
 30
0.0
 11
147.0
 21
150.0
 31
0.0
  0
POLYLINE
  5
3C3
  8
DETAIL
  6
CONTINUOUS
 66
     1
 10
0.0
 20
0.0
 30
0.0
  0
VERTEX
  5
3C4
  8
DETAIL
  6
CONTINUOUS
 10
136.421162
 20
150.0
 30
0.0
  0
VERTEX
  5
3C5
  8
DETAIL
  6
CONTINUOUS
 10
135.884663
 20
149.894319
 30
0.0
  0
VERTEX
  5
3C6
  8
DETAIL
  6
CONTINUOUS
 10
135.368782
 20
149.581337
 30
0.0
  0
VERTEX
  5
3C7
  8
DETAIL
  6
CONTINUOUS
 10
134.893344
 20
149.073083
 30
0.0
  0
VERTEX
  5
3C8
  8
DETAIL
  6
CONTINUOUS
 10
134.476618
 20
148.389087
 30
0.0
  0
VERTEX
  5
3C9
  8
DETAIL
  6
CONTINUOUS
 10
134.13462
 20
147.555636
 30
0.0
  0
VERTEX
  5
3CA
  8
DETAIL
  6
CONTINUOUS
 10
133.880493
 20
146.604759
 30
0.0
  0
VERTEX
  5
3CB
  8
DETAIL
  6
CONTINUOUS
 10
133.724002
 20
145.572997
 30
0.0
  0
VERTEX
  5
3CC
  8
DETAIL
  6
CONTINUOUS
 10
133.671162
 20
144.5
 30
0.0
  0
VERTEX
  5
3CD
  8
DETAIL
  6
CONTINUOUS
 10
133.724002
 20
143.427003
 30
0.0
  0
VERTEX
  5
3CE
  8
DETAIL
  6
CONTINUOUS
 10
133.880493
 20
142.395241
 30
0.0
  0
VERTEX
  5
3CF
  8
DETAIL
  6
CONTINUOUS
 10
134.13462
 20
141.444364
 30
0.0
  0
VERTEX
  5
3D0
  8
DETAIL
  6
CONTINUOUS
 10
134.476618
 20
140.610913
 30
0.0
  0
VERTEX
  5
3D1
  8
DETAIL
  6
CONTINUOUS
 10
134.893344
 20
139.926917
 30
0.0
  0
VERTEX
  5
3D2
  8
DETAIL
  6
CONTINUOUS
 10
135.368782
 20
139.418663
 30
0.0
  0
VERTEX
  5
3D3
  8
DETAIL
  6
CONTINUOUS
 10
135.884663
 20
139.105681
 30
0.0
  0
VERTEX
  5
3D4
  8
DETAIL
  6
CONTINUOUS
 10
136.421162
 20
139.0
 30
0.0
  0
SEQEND
  5
3D5
  8
DETAIL
  6
CONTINUOUS
  0
POLYLINE
  5
3D6
  8
DETAIL
  6
CONTINUOUS
 66
     1
 10
0.0
 20
0.0
 30
0.0
  0
VERTEX
  5
3D7
  8
DETAIL
  6
CONTINUOUS
 10
137.633597
 20
163.560201
 30
0.0
  0
VERTEX
  5
3D8
  8
DETAIL
  6
CONTINUOUS
 10
138.153212
 20
163.5
 30
0.0
  0
SEQEND
  5
3D9
  8
DETAIL
  6
CONTINUOUS
  0
LINE
  5
3DA
  8
DETAIL
  6
CONTINUOUS
 10
183.0
 20
143.0
 30
0.0
 11
183.0
 21
188.5
 31
0.0
  0
LINE
  5
3DB
  8
DETAIL
  6
CONTINUOUS
 10
136.421162
 20
139.0
 30
0.0
 11
179.0
 21
139.0
 31
0.0
  0
LINE
  5
3DC
  8
DETAIL
  6
CONTINUOUS
 10
133.5
 20
188.5
 30
0.0
 11
133.5
 21
192.0
 31
0.0
  0
LINE
  5
3DD
  8
DETAIL
  6
CONTINUOUS
 10
133.5
 20
188.5
 30
0.0
 11
196.5
 21
188.5
 31
0.0
  0
LINE
  5
3DE
  8
DETAIL
  6
CONTINUOUS
 10
196.5
 20
188.5
 30
0.0
 11
196.5
 21
192.0
 31
0.0
  0
ARC
  5
3DF
  8
DETAIL
  6
CONTINUOUS
 10
179.0
 20
143.0
 30
0.0
 40
4.0
 50
270.0
 51
0.0
  0
LINE
  5
3E0
  8
DETAIL
  6
CONTINUOUS
 10
129.0
 20
192.0
 30
0.0
 11
201.0
 21
192.0
 31
0.0
  0
ARC
  5
3E1
  8
DETAIL
  6
CONTINUOUS
 10
151.0
 20
143.0
 30
0.0
 40
4.0
 50
180.0
 51
270.0
  0
POLYLINE
  5
3E2
  8
DETAIL
  6
CONTINUOUS
 66
     1
 10
0.0
 20
0.0
 30
0.0
  0
VERTEX
  5
3E3
  8
DETAIL
  6
CONTINUOUS
 10
138.153212
 20
181.5
 30
0.0
  0
VERTEX
  5
3E4
  8
DETAIL
  6
CONTINUOUS
 10
137.633597
 20
181.439799
 30
0.0
  0
SEQEND
  5
3E5
  8
DETAIL
  6
CONTINUOUS
  0
LINE
  5
3E6
  8
DETAIL
  6
DASHED
 10
211.5
 20
189.5
 30
0.0
 11
258.0
 21
189.5
 31
0.0
  0
LINE
  5
3E7
  8
DETAIL
  6
DASHED
 10
246.6875
 20
155.5
 30
0.0
 11
221.3125
 21
155.5
 31
0.0
  0
LINE
  5
3E8
  8
DETAIL
  6
DASHED
 10
221.3125
 20
155.5
 30
0.0
 11
220.375
 21
170.5
 31
0.0
  0
LINE
  5
3E9
  8
DETAIL
  6
DASHED
 10
246.6875
 20
155.5
 30
0.0
 11
221.3125
 21
155.5
 31
0.0
  0
LINE
  5
3EA
  8
DETAIL
  6
DASHED
 10
246.6875
 20
155.5
 30
0.0
 11
247.625
 21
170.5
 31
0.0
  0
LINE
  5
3EB
  8
DETAIL
  6
DASHED
 10
251.783055
 20
185.5
 30
0.0
 11
251.783055
 21
170.5
 31
0.0
  0
LINE
  5
3EC
  8
DETAIL
  6
DASHED
 10
251.783055
 20
170.5
 30
0.0
 11
216.216945
 21
170.5
 31
0.0
  0
LINE
  5
3ED
  8
DETAIL
  6
DASHED
 10
216.216945
 20
185.5
 30
0.0
 11
216.216945
 21
170.5
 31
0.0
  0
LINE
  5
3EE
  8
DETAIL
  6
DASHED
 10
214.0
 20
185.5
 30
0.0
 11
211.5
 21
188.0
 31
0.0
  0
LINE
  5
3EF
  8
DETAIL
  6
DASHED
 10
258.0
 20
200.0
 30
0.0
 11
258.0
 21
189.5
 31
0.0
  0
LINE
  5
3F0
  8
DETAIL
  6
DASHED
 10
254.0
 20
185.5
 30
0.0
 11
258.0
 21
189.5
 31
0.0
  0
LINE
  5
3F1
  8
DETAIL
  6
DASHED
 10
254.0
 20
185.5
 30
0.0
 11
214.0
 21
185.5
 31
0.0
  0
LINE
  5
3F2
  8
DETAIL
  6
DASHED
 10
254.0
 20
185.5
 30
0.0
 11
214.0
 21
185.5
 31
0.0
  0
LINE
  5
3F3
  8
DETAIL
  6
CONTINUOUS
 10
211.5
 20
188.0
 30
0.0
 11
210.0
 21
189.5
 31
0.0
  0
LINE
  5
3F4
  8
DETAIL
  6
CONTINUOUS
 10
210.0
 20
200.0
 30
0.0
 11
210.0
 21
189.5
 31
0.0
  0
LINE
  5
3F5
  8
DETAIL
  6
CONTINUOUS
 10
210.0
 20
189.5
 30
0.0
 11
211.5
 21
189.5
 31
0.0
  0
LINE
  5
3F6
  8
DETAIL
  6
DASHED
 10
15.85
 20
163.0
 30
0.0
 11
15.85
 21
200.0
 31
0.0
  0
LINE
  5
3F7
  8
DETAIL
  6
DASHED
 10
-5.85
 20
163.0
 30
0.0
 11
-5.85
 21
200.0
 31
0.0
  0
LINE
  5
3F8
  8
DETAIL
  6
DASHED
 10
15.85
 20
163.0
 30
0.0
 11
-5.85
 21
163.0
 31
0.0
  0
LINE
  5
3F9
  8
DETAIL
  6
CONTINUOUS
 10
95.85
 20
168.0
 30
0.0
 11
95.85
 21
200.0
 31
0.0
  0
LINE
  5
3FA
  8
DETAIL
  6
CONTINUOUS
 10
74.15
 20
168.0
 30
0.0
 11
74.15
 21
200.0
 31
0.0
  0
LINE
  5
3FB
  8
DETAIL
  6
CONTINUOUS
 10
95.85
 20
168.0
 30
0.0
 11
74.15
 21
168.0
 31
0.0
  0
LINE
  5
3FC
  8
BASIS
  6
DASHDOT
 10
0.0
 20
1965.0
 30
0.0
 11
0.0
 21
-50.0
 31
0.0
  0
LINE
  5
3FD
  8
SIZE
  6
CONTINUOUS
 62
    30
 10
-283.0
 20
168.0
 30
0.0
 11
-429.9
 21
168.0
 31
0.0
  0
LINE
  5
3FE
  8
SIZE
  6
CONTINUOUS
 62
    30
 10
-320.0
 20
0.0
 30
0.0
 11
-429.9
 21
0.0
 31
0.0
  0
LINE
  5
3FF
  8
SIZE
  6
CONTINUOUS
 62
    30
 10
-417.4
 20
158.0
 30
0.0
 11
-417.4
 21
10.0
 31
0.0
  0
CIRCLE
  5
400
  8
SIZE
  6
CONTINUOUS
 62
    30
 10
-417.4
 20
168.0
 30
0.0
 40
5.0
  0
LINE
  5
401
  8
SIZE
  6
CONTINUOUS
 62
    30
 10
-417.4
 20
168.0
 30
0.0
 11
-417.4
 21
158.0
 31
0.0
  0
CIRCLE
  5
402
  8
SIZE
  6
CONTINUOUS
 62
    30
 10
-417.4
 20
0.0
 30
0.0
 40
5.0
  0
LINE
  5
403
  8
SIZE
  6
CONTINUOUS
 62
    30
 10
-417.4
 20
0.0
 30
0.0
 11
-417.4
 21
10.0
 31
0.0
  0
TEXT
  5
404
  8
SIZE
  6
CONTINUOUS
 62
    30
 10
-427.4
 20
49.0
 30
0.0
 40
30.0
  1
168
 50
90.0
 72
     1
 11
-427.4
 21
84.0
 31
0.0
  0
POINT
  5
405
  8
DEFPOINTS
  6
CONTINUOUS
 62
    30
 10
-273.0
 20
168.0
 30
0.0
  0
POINT
  5
406
  8
DEFPOINTS
  6
CONTINUOUS
 62
    30
 10
-310.0
 20
0.0
 30
0.0
  0
POINT
  5
407
  8
DEFPOINTS
  6
CONTINUOUS
 62
    30
 10
-417.4
 20
0.0
 30
0.0
  0
LINE
  5
408
  8
SIZE
  6
CONTINUOUS
 62
    30
 10
-168.0
 20
138.0
 30
0.0
 11
-168.0
 21
-360.1
 31
0.0
  0
LINE
  5
409
  8
SIZE
  6
CONTINUOUS
 62
    30
 10
-85.0
 20
170.0
 30
0.0
 11
-85.0
 21
-360.1
 31
0.0
  0
LINE
  5
40A
  8
SIZE
  6
CONTINUOUS
 62
    30
 10
-158.0
 20
-347.6
 30
0.0
 11
-95.0
 21
-347.6
 31
0.0
  0
CIRCLE
  5
40B
  8
SIZE
  6
CONTINUOUS
 62
    30
 10
-168.0
 20
-347.6
 30
0.0
 40
5.0
  0
LINE
  5
40C
  8
SIZE
  6
CONTINUOUS
 62
    30
 10
-168.0
 20
-347.6
 30
0.0
 11
-158.0
 21
-347.6
 31
0.0
  0
CIRCLE
  5
40D
  8
SIZE
  6
CONTINUOUS
 62
    30
 10
-85.0
 20
-347.6
 30
0.0
 40
5.0
  0
LINE
  5
40E
  8
SIZE
  6
CONTINUOUS
 62
    30
 10
-85.0
 20
-347.6
 30
0.0
 11
-95.0
 21
-347.6
 31
0.0
  0
TEXT
  5
40F
  8
SIZE
  6
CONTINUOUS
 62
    30
 10
-151.5
 20
-337.6
 30
0.0
 40
30.0
  1
83
 72
     1
 11
-126.5
 21
-337.6
 31
0.0
  0
POINT
  5
410
  8
DEFPOINTS
  6
CONTINUOUS
 62
    30
 10
-168.0
 20
148.0
 30
0.0
  0
POINT
  5
411
  8
DEFPOINTS
  6
CONTINUOUS
 62
    30
 10
-85.0
 20
180.0
 30
0.0
  0
POINT
  5
412
  8
DEFPOINTS
  6
CONTINUOUS
 62
    30
 10
-85.0
 20
-347.6
 30
0.0
  0
LINE
  5
413
  8
SIZE
  6
CONTINUOUS
 62
    30
 10
-168.0
 20
138.0
 30
0.0
 11
-168.0
 21
-360.1
 31
0.0
  0
LINE
  5
414
  8
SIZE
  6
CONTINUOUS
 62
    30
 10
-253.0
 20
138.0
 30
0.0
 11
-253.0
 21
-360.1
 31
0.0
  0
LINE
  5
415
  8
SIZE
  6
CONTINUOUS
 62
    30
 10
-178.0
 20
-347.6
 30
0.0
 11
-243.0
 21
-347.6
 31
0.0
  0
CIRCLE
  5
416
  8
SIZE
  6
CONTINUOUS
 62
    30
 10
-168.0
 20
-347.6
 30
0.0
 40
5.0
  0
LINE
  5
417
  8
SIZE
  6
CONTINUOUS
 62
    30
 10
-168.0
 20
-347.6
 30
0.0
 11
-178.0
 21
-347.6
 31
0.0
  0
CIRCLE
  5
418
  8
SIZE
  6
CONTINUOUS
 62
    30
 10
-253.0
 20
-347.6
 30
0.0
 40
5.0
  0
LINE
  5
419
  8
SIZE
  6
CONTINUOUS
 62
    30
 10
-253.0
 20
-347.6
 30
0.0
 11
-243.0
 21
-347.6
 31
0.0
  0
TEXT
  5
41A
  8
SIZE
  6
CONTINUOUS
 62
    30
 10
-235.5
 20
-337.6
 30
0.0
 40
30.0
  1
85
 72
     1
 11
-210.5
 21
-337.6
 31
0.0
  0
POINT
  5
41B
  8
DEFPOINTS
  6
CONTINUOUS
 62
    30
 10
-168.0
 20
148.0
 30
0.0
  0
POINT
  5
41C
  8
DEFPOINTS
  6
CONTINUOUS
 62
    30
 10
-253.0
 20
148.0
 30
0.0
  0
POINT
  5
41D
  8
DEFPOINTS
  6
CONTINUOUS
 62
    30
 10
-253.0
 20
-347.6
 30
0.0
  0
LINE
  5
41E
  8
SIZE
  6
CONTINUOUS
 62
    30
 10
325.0
 20
1870.0
 30
0.0
 11
675.1
 21
1870.0
 31
0.0
  0
LINE
  5
41F
  8
SIZE
  6
CONTINUOUS
 62
    30
 10
325.0
 20
2070.0
 30
0.0
 11
675.1
 21
2070.0
 31
0.0
  0
LINE
  5
420
  8
SIZE
  6
CONTINUOUS
 62
    30
 10
662.6
 20
1880.0
 30
0.0
 11
662.6
 21
2060.0
 31
0.0
  0
CIRCLE
  5
421
  8
SIZE
  6
CONTINUOUS
 62
    30
 10
662.6
 20
1870.0
 30
0.0
 40
5.0
  0
LINE
  5
422
  8
SIZE
  6
CONTINUOUS
 62
    30
 10
662.6
 20
1870.0
 30
0.0
 11
662.6
 21
1880.0
 31
0.0
  0
CIRCLE
  5
423
  8
SIZE
  6
CONTINUOUS
 62
    30
 10
662.6
 20
2070.0
 30
0.0
 40
5.0
  0
LINE
  5
424
  8
SIZE
  6
CONTINUOUS
 62
    30
 10
662.6
 20
2070.0
 30
0.0
 11
662.6
 21
2060.0
 31
0.0
  0
TEXT
  5
425
  8
SIZE
  6
CONTINUOUS
 62
    30
 10
652.6
 20
1937.15979
 30
0.0
 40
30.0
  1
200
 50
90.0
 72
     1
 11
652.6
 21
1972.15979
 31
0.0
  0
POINT
  5
426
  8
DEFPOINTS
  6
CONTINUOUS
 62
    30
 10
315.0
 20
1870.0
 30
0.0
  0
POINT
  5
427
  8
DEFPOINTS
  6
CONTINUOUS
 62
    30
 10
315.0
 20
2070.0
 30
0.0
  0
POINT
  5
428
  8
DEFPOINTS
  6
CONTINUOUS
 62
    30
 10
662.6
 20
2070.0
 30
0.0
  0
LINE
  5
429
  8
SIZE
  6
CONTINUOUS
 62
    30
 10
-315.0
 20
2080.0
 30
0.0
 11
-315.0
 21
2434.9
 31
0.0
  0
LINE
  5
42A
  8
SIZE
  6
CONTINUOUS
 62
    30
 10
315.0
 20
2080.0
 30
0.0
 11
315.0
 21
2434.9
 31
0.0
  0
LINE
  5
42B
  8
SIZE
  6
CONTINUOUS
 62
    30
 10
-305.0
 20
2422.4
 30
0.0
 11
305.0
 21
2422.4
 31
0.0
  0
CIRCLE
  5
42C
  8
SIZE
  6
CONTINUOUS
 62
    30
 10
-315.0
 20
2422.4
 30
0.0
 40
5.0
  0
LINE
  5
42D
  8
SIZE
  6
CONTINUOUS
 62
    30
 10
-315.0
 20
2422.4
 30
0.0
 11
-305.0
 21
2422.4
 31
0.0
  0
CIRCLE
  5
42E
  8
SIZE
  6
CONTINUOUS
 62
    30
 10
315.0
 20
2422.4
 30
0.0
 40
5.0
  0
LINE
  5
42F
  8
SIZE
  6
CONTINUOUS
 62
    30
 10
315.0
 20
2422.4
 30
0.0
 11
305.0
 21
2422.4
 31
0.0
  0
TEXT
  5
430
  8
SIZE
  6
CONTINUOUS
 62
    30
 10
-37.141549
 20
2432.4
 30
0.0
 40
30.0
  1
630
 72
     1
 11
0.358451
 21
2432.4
 31
0.0
  0
POINT
  5
431
  8
DEFPOINTS
  6
CONTINUOUS
 62
    30
 10
-315.0
 20
2070.0
 30
0.0
  0
POINT
  5
432
  8
DEFPOINTS
  6
CONTINUOUS
 62
    30
 10
315.0
 20
2070.0
 30
0.0
  0
POINT
  5
433
  8
DEFPOINTS
  6
CONTINUOUS
 62
    30
 10
315.0
 20
2422.4
 30
0.0
  0
LINE
  5
434
  8
SIZE
  6
CONTINUOUS
 62
    30
 10
325.0
 20
1870.0
 30
0.0
 11
475.1
 21
1870.0
 31
0.0
  0
LINE
  5
435
  8
SIZE
  6
CONTINUOUS
 62
    30
 10
272.703766
 20
1900.0
 30
0.0
 11
475.1
 21
1900.0
 31
0.0
  0
LINE
  5
436
  8
SIZE
  6
CONTINUOUS
 62
    30
 10
462.6
 20
1860.0
 30
0.0
 11
462.6
 21
1850.0
 31
0.0
  0
LINE
  5
437
  8
SIZE
  6
CONTINUOUS
 62
    30
 10
462.6
 20
1910.0
 30
0.0
 11
462.6
 21
1985.0
 31
0.0
  0
LINE
  5
438
  8
SIZE
  6
CONTINUOUS
 62
    30
 10
462.6
 20
1870.0
 30
0.0
 11
462.6
 21
1900.0
 31
0.0
  0
CIRCLE
  5
439
  8
SIZE
  6
CONTINUOUS
 62
    30
 10
462.6
 20
1870.0
 30
0.0
 40
5.0
  0
LINE
  5
43A
  8
SIZE
  6
CONTINUOUS
 62
    30
 10
462.6
 20
1870.0
 30
0.0
 11
462.6
 21
1860.0
 31
0.0
  0
CIRCLE
  5
43B
  8
SIZE
  6
CONTINUOUS
 62
    30
 10
462.6
 20
1900.0
 30
0.0
 40
5.0
  0
LINE
  5
43C
  8
SIZE
  6
CONTINUOUS
 62
    30
 10
462.6
 20
1900.0
 30
0.0
 11
462.6
 21
1910.0
 31
0.0
  0
TEXT
  5
43D
  8
SIZE
  6
CONTINUOUS
 62
    30
 10
452.6
 20
1930.0
 30
0.0
 40
30.0
  1
30
 50
90.0
 72
     1
 11
452.6
 21
1952.5
 31
0.0
  0
POINT
  5
43E
  8
DEFPOINTS
  6
CONTINUOUS
 62
    30
 10
315.0
 20
1870.0
 30
0.0
  0
POINT
  5
43F
  8
DEFPOINTS
  6
CONTINUOUS
 62
    30
 10
262.703766
 20
1900.0
 30
0.0
  0
POINT
  5
440
  8
DEFPOINTS
  6
CONTINUOUS
 62
    30
 10
462.6
 20
1900.0
 30
0.0
  0
LINE
  5
441
  8
SIZE
  6
CONTINUOUS
 62
    30
 10
325.0
 20
200.0
 30
0.0
 11
775.1
 21
200.0
 31
0.0
  0
LINE
  5
442
  8
SIZE
  6
CONTINUOUS
 62
    30
 10
325.0
 20
1870.0
 30
0.0
 11
775.1
 21
1870.0
 31
0.0
  0
LINE
  5
443
  8
SIZE
  6
CONTINUOUS
 62
    30
 10
762.6
 20
210.0
 30
0.0
 11
762.6
 21
1860.0
 31
0.0
  0
CIRCLE
  5
444
  8
SIZE
  6
CONTINUOUS
 62
    30
 10
762.6
 20
200.0
 30
0.0
 40
5.0
  0
LINE
  5
445
  8
SIZE
  6
CONTINUOUS
 62
    30
 10
762.6
 20
200.0
 30
0.0
 11
762.6
 21
210.0
 31
0.0
  0
CIRCLE
  5
446
  8
SIZE
  6
CONTINUOUS
 62
    30
 10
762.6
 20
1870.0
 30
0.0
 40
5.0
  0
LINE
  5
447
  8
SIZE
  6
CONTINUOUS
 62
    30
 10
762.6
 20
1870.0
 30
0.0
 11
762.6
 21
1860.0
 31
0.0
  0
TEXT
  5
448
  8
SIZE
  6
CONTINUOUS
 62
    30
 10
752.6
 20
987.5
 30
0.0
 40
30.0
  1
1670
 50
90.0
 72
     1
 11
752.6
 21
1035.0
 31
0.0
  0
POINT
  5
449
  8
DEFPOINTS
  6
CONTINUOUS
 62
    30
 10
315.0
 20
200.0
 30
0.0
  0
POINT
  5
44A
  8
DEFPOINTS
  6
CONTINUOUS
 62
    30
 10
315.0
 20
1870.0
 30
0.0
  0
POINT
  5
44B
  8
DEFPOINTS
  6
CONTINUOUS
 62
    30
 10
762.6
 20
1870.0
 30
0.0
  0
LINE
  5
44C
  8
SIZE
  6
CONTINUOUS
 62
    30
 10
-315.0
 20
190.0
 30
0.0
 11
-315.0
 21
-660.1
 31
0.0
  0
LINE
  5
44D
  8
SIZE
  6
CONTINUOUS
 62
    30
 10
315.0
 20
190.0
 30
0.0
 11
315.0
 21
-660.1
 31
0.0
  0
LINE
  5
44E
  8
SIZE
  6
CONTINUOUS
 62
    30
 10
-305.0
 20
-647.6
 30
0.0
 11
305.0
 21
-647.6
 31
0.0
  0
CIRCLE
  5
44F
  8
SIZE
  6
CONTINUOUS
 62
    30
 10
-315.0
 20
-647.6
 30
0.0
 40
5.0
  0
LINE
  5
450
  8
SIZE
  6
CONTINUOUS
 62
    30
 10
-315.0
 20
-647.6
 30
0.0
 11
-305.0
 21
-647.6
 31
0.0
  0
CIRCLE
  5
451
  8
SIZE
  6
CONTINUOUS
 62
    30
 10
315.0
 20
-647.6
 30
0.0
 40
5.0
  0
LINE
  5
452
  8
SIZE
  6
CONTINUOUS
 62
    30
 10
315.0
 20
-647.6
 30
0.0
 11
305.0
 21
-647.6
 31
0.0
  0
TEXT
  5
453
  8
SIZE
  6
CONTINUOUS
 62
    30
 10
-22.139012
 20
-637.6
 30
0.0
 40
30.0
  1
630
 72
     1
 11
15.360988
 21
-637.6
 31
0.0
  0
POINT
  5
454
  8
DEFPOINTS
  6
CONTINUOUS
 62
    30
 10
-315.0
 20
200.0
 30
0.0
  0
POINT
  5
455
  8
DEFPOINTS
  6
CONTINUOUS
 62
    30
 10
315.0
 20
200.0
 30
0.0
  0
POINT
  5
456
  8
DEFPOINTS
  6
CONTINUOUS
 62
    30
 10
315.0
 20
-647.6
 30
0.0
  0
LINE
  5
457
  8
SIZE
  6
CONTINUOUS
 62
    30
 10
-294.5
 20
0.0
 30
0.0
 11
-629.9
 21
0.0
 31
0.0
  0
LINE
  5
458
  8
SIZE
  6
CONTINUOUS
 62
    30
 10
-50.0
 20
1915.0
 30
0.0
 11
-629.9
 21
1915.0
 31
0.0
  0
LINE
  5
459
  8
SIZE
  6
CONTINUOUS
 62
    30
 10
-617.4
 20
10.0
 30
0.0
 11
-617.4
 21
1905.0
 31
0.0
  0
CIRCLE
  5
45A
  8
SIZE
  6
CONTINUOUS
 62
    30
 10
-617.4
 20
0.0
 30
0.0
 40
5.0
  0
LINE
  5
45B
  8
SIZE
  6
CONTINUOUS
 62
    30
 10
-617.4
 20
0.0
 30
0.0
 11
-617.4
 21
10.0
 31
0.0
  0
CIRCLE
  5
45C
  8
SIZE
  6
CONTINUOUS
 62
    30
 10
-617.4
 20
1915.0
 30
0.0
 40
5.0
  0
LINE
  5
45D
  8
SIZE
  6
CONTINUOUS
 62
    30
 10
-617.4
 20
1915.0
 30
0.0
 11
-617.4
 21
1905.0
 31
0.0
  0
TEXT
  5
45E
  8
SIZE
  6
CONTINUOUS
 62
    30
 10
-627.4
 20
863.796037
 30
0.0
 40
30.0
  1
1915
 50
90.0
 72
     1
 11
-627.4
 21
908.796037
 31
0.0
  0
POINT
  5
45F
  8
DEFPOINTS
  6
CONTINUOUS
 62
    30
 10
-284.5
 20
0.0
 30
0.0
  0
POINT
  5
460
  8
DEFPOINTS
  6
CONTINUOUS
 62
    30
 10
-40.0
 20
1915.0
 30
0.0
  0
POINT
  5
461
  8
DEFPOINTS
  6
CONTINUOUS
 62
    30
 10
-617.4
 20
1915.0
 30
0.0
  0
LINE
  5
462
  8
SIZE
  6
CONTINUOUS
 62
    30
 10
30.0
 20
1923.0
 30
0.0
 11
30.0
 21
2184.9
 31
0.0
  0
LINE
  5
463
  8
SIZE
  6
CONTINUOUS
 62
    30
 10
-30.0
 20
1923.0
 30
0.0
 11
-30.0
 21
2184.9
 31
0.0
  0
LINE
  5
464
  8
SIZE
  6
CONTINUOUS
 62
    30
 10
20.0
 20
2172.4
 30
0.0
 11
-20.0
 21
2172.4
 31
0.0
  0
CIRCLE
  5
465
  8
SIZE
  6
CONTINUOUS
 62
    30
 10
30.0
 20
2172.4
 30
0.0
 40
5.0
  0
LINE
  5
466
  8
SIZE
  6
CONTINUOUS
 62
    30
 10
30.0
 20
2172.4
 30
0.0
 11
20.0
 21
2172.4
 31
0.0
  0
CIRCLE
  5
467
  8
SIZE
  6
CONTINUOUS
 62
    30
 10
-30.0
 20
2172.4
 30
0.0
 40
5.0
  0
LINE
  5
468
  8
SIZE
  6
CONTINUOUS
 62
    30
 10
-30.0
 20
2172.4
 30
0.0
 11
-20.0
 21
2172.4
 31
0.0
  0
TEXT
  5
469
  8
SIZE
  6
CONTINUOUS
 62
    30
 10
-22.5
 20
2182.4
 30
0.0
 40
30.0
  1
60
 72
     1
 11
0.0
 21
2182.4
 31
0.0
  0
POINT
  5
46A
  8
DEFPOINTS
  6
CONTINUOUS
 62
    30
 10
30.0
 20
1913.0
 30
0.0
  0
POINT
  5
46B
  8
DEFPOINTS
  6
CONTINUOUS
 62
    30
 10
-30.0
 20
1913.0
 30
0.0
  0
POINT
  5
46C
  8
DEFPOINTS
  6
CONTINUOUS
 62
    30
 10
-30.0
 20
2172.4
 30
0.0
  0
LINE
  5
46D
  8
SIZE
  6
CONTINUOUS
 62
    30
 10
45.0
 20
1920.0
 30
0.0
 11
45.0
 21
2284.9
 31
0.0
  0
LINE
  5
46E
  8
SIZE
  6
CONTINUOUS
 62
    30
 10
-45.0
 20
1920.0
 30
0.0
 11
-45.0
 21
2284.9
 31
0.0
  0
LINE
  5
46F
  8
SIZE
  6
CONTINUOUS
 62
    30
 10
35.0
 20
2272.4
 30
0.0
 11
-35.0
 21
2272.4
 31
0.0
  0
CIRCLE
  5
470
  8
SIZE
  6
CONTINUOUS
 62
    30
 10
45.0
 20
2272.4
 30
0.0
 40
5.0
  0
LINE
  5
471
  8
SIZE
  6
CONTINUOUS
 62
    30
 10
45.0
 20
2272.4
 30
0.0
 11
35.0
 21
2272.4
 31
0.0
  0
CIRCLE
  5
472
  8
SIZE
  6
CONTINUOUS
 62
    30
 10
-45.0
 20
2272.4
 30
0.0
 40
5.0
  0
LINE
  5
473
  8
SIZE
  6
CONTINUOUS
 62
    30
 10
-45.0
 20
2272.4
 30
0.0
 11
-35.0
 21
2272.4
 31
0.0
  0
TEXT
  5
474
  8
SIZE
  6
CONTINUOUS
 62
    30
 10
-22.5
 20
2282.4
 30
0.0
 40
30.0
  1
90
 72
     1
 11
0.0
 21
2282.4
 31
0.0
  0
POINT
  5
475
  8
DEFPOINTS
  6
CONTINUOUS
 62
    30
 10
45.0
 20
1910.0
 30
0.0
  0
POINT
  5
476
  8
DEFPOINTS
  6
CONTINUOUS
 62
    30
 10
-45.0
 20
1910.0
 30
0.0
  0
POINT
  5
477
  8
DEFPOINTS
  6
CONTINUOUS
 62
    30
 10
-45.0
 20
2272.4
 30
0.0
  0
LINE
  5
478
  8
SIZE
  6
CONTINUOUS
 62
    30
 10
-320.0
 20
0.0
 30
0.0
 11
-529.9
 21
0.0
 31
0.0
  0
LINE
  5
479
  8
SIZE
  6
CONTINUOUS
 62
    30
 10
-60.0
 20
1893.0
 30
0.0
 11
-529.9
 21
1893.0
 31
0.0
  0
LINE
  5
47A
  8
SIZE
  6
CONTINUOUS
 62
    30
 10
-517.4
 20
10.0
 30
0.0
 11
-517.4
 21
1883.0
 31
0.0
  0
CIRCLE
  5
47B
  8
SIZE
  6
CONTINUOUS
 62
    30
 10
-517.4
 20
0.0
 30
0.0
 40
5.0
  0
LINE
  5
47C
  8
SIZE
  6
CONTINUOUS
 62
    30
 10
-517.4
 20
0.0
 30
0.0
 11
-517.4
 21
10.0
 31
0.0
  0
CIRCLE
  5
47D
  8
SIZE
  6
CONTINUOUS
 62
    30
 10
-517.4
 20
1893.0
 30
0.0
 40
5.0
  0
LINE
  5
47E
  8
SIZE
  6
CONTINUOUS
 62
    30
 10
-517.4
 20
1893.0
 30
0.0
 11
-517.4
 21
1883.0
 31
0.0
  0
TEXT
  5
47F
  8
SIZE
  6
CONTINUOUS
 62
    30
 10
-527.4
 20
895.089355
 30
0.0
 40
30.0
  1
1893
 50
90.0
 72
     1
 11
-527.4
 21
945.089355
 31
0.0
  0
POINT
  5
480
  8
DEFPOINTS
  6
CONTINUOUS
 62
    30
 10
-310.0
 20
0.0
 30
0.0
  0
POINT
  5
481
  8
DEFPOINTS
  6
CONTINUOUS
 62
    30
 10
-50.0
 20
1893.0
 30
0.0
  0
POINT
  5
482
  8
DEFPOINTS
  6
CONTINUOUS
 62
    30
 10
-517.4
 20
1893.0
 30
0.0
  0
LINE
  5
483
  8
SIZE
  6
CONTINUOUS
 62
    30
 10
-201.0
 20
-30.0
 30
0.0
 11
-201.0
 21
-560.1
 31
0.0
  0
LINE
  5
484
  8
SIZE
  6
CONTINUOUS
 62
    30
 10
201.0
 20
-30.0
 30
0.0
 11
201.0
 21
-560.1
 31
0.0
  0
LINE
  5
485
  8
SIZE
  6
CONTINUOUS
 62
    30
 10
-191.0
 20
-547.6
 30
0.0
 11
191.0
 21
-547.6
 31
0.0
  0
CIRCLE
  5
486
  8
SIZE
  6
CONTINUOUS
 62
    30
 10
-201.0
 20
-547.6
 30
0.0
 40
5.0
  0
LINE
  5
487
  8
SIZE
  6
CONTINUOUS
 62
    30
 10
-201.0
 20
-547.6
 30
0.0
 11
-191.0
 21
-547.6
 31
0.0
  0
CIRCLE
  5
488
  8
SIZE
  6
CONTINUOUS
 62
    30
 10
201.0
 20
-547.6
 30
0.0
 40
5.0
  0
LINE
  5
489
  8
SIZE
  6
CONTINUOUS
 62
    30
 10
201.0
 20
-547.6
 30
0.0
 11
191.0
 21
-547.6
 31
0.0
  0
TEXT
  5
48A
  8
SIZE
  6
CONTINUOUS
 62
    30
 10
-22.139012
 20
-537.6
 30
0.0
 40
30.0
  1
402
 72
     1
 11
15.360988
 21
-537.6
 31
0.0
  0
POINT
  5
48B
  8
DEFPOINTS
  6
CONTINUOUS
 62
    30
 10
-201.0
 20
-20.0
 30
0.0
  0
POINT
  5
48C
  8
DEFPOINTS
  6
CONTINUOUS
 62
    30
 10
201.0
 20
-20.0
 30
0.0
  0
POINT
  5
48D
  8
DEFPOINTS
  6
CONTINUOUS
 62
    30
 10
201.0
 20
-547.6
 30
0.0
  0
LINE
  5
48E
  8
SIZE
  6
CONTINUOUS
 62
    30
 10
-248.0
 20
-30.0
 30
0.0
 11
-248.0
 21
-460.1
 31
0.0
  0
LINE
  5
48F
  8
SIZE
  6
CONTINUOUS
 62
    30
 10
248.0
 20
-30.0
 30
0.0
 11
248.0
 21
-460.1
 31
0.0
  0
LINE
  5
490
  8
SIZE
  6
CONTINUOUS
 62
    30
 10
-238.0
 20
-447.6
 30
0.0
 11
238.0
 21
-447.6
 31
0.0
  0
CIRCLE
  5
491
  8
SIZE
  6
CONTINUOUS
 62
    30
 10
-248.0
 20
-447.6
 30
0.0
 40
5.0
  0
LINE
  5
492
  8
SIZE
  6
CONTINUOUS
 62
    30
 10
-248.0
 20
-447.6
 30
0.0
 11
-238.0
 21
-447.6
 31
0.0
  0
CIRCLE
  5
493
  8
SIZE
  6
CONTINUOUS
 62
    30
 10
248.0
 20
-447.6
 30
0.0
 40
5.0
  0
LINE
  5
494
  8
SIZE
  6
CONTINUOUS
 62
    30
 10
248.0
 20
-447.6
 30
0.0
 11
238.0
 21
-447.6
 31
0.0
  0
TEXT
  5
495
  8
SIZE
  6
CONTINUOUS
 62
    30
 10
-21.098513
 20
-437.6
 30
0.0
 40
30.0
  1
496
 72
     1
 11
18.901487
 21
-437.6
 31
0.0
  0
POINT
  5
496
  8
DEFPOINTS
  6
CONTINUOUS
 62
    30
 10
-248.0
 20
-20.0
 30
0.0
  0
POINT
  5
497
  8
DEFPOINTS
  6
CONTINUOUS
 62
    30
 10
248.0
 20
-20.0
 30
0.0
  0
POINT
  5
498
  8
DEFPOINTS
  6
CONTINUOUS
 62
    30
 10
248.0
 20
-447.6
 30
0.0
  0
LINE
  5
499
  8
SIZE
  6
CONTINUOUS
 62
    30
 10
295.0
 20
-30.0
 30
0.0
 11
295.0
 21
-560.1
 31
0.0
  0
LINE
  5
49A
  8
SIZE
  6
CONTINUOUS
 62
    30
 10
201.0
 20
-30.0
 30
0.0
 11
201.0
 21
-560.1
 31
0.0
  0
LINE
  5
49B
  8
SIZE
  6
CONTINUOUS
 62
    30
 10
285.0
 20
-547.6
 30
0.0
 11
211.0
 21
-547.6
 31
0.0
  0
CIRCLE
  5
49C
  8
SIZE
  6
CONTINUOUS
 62
    30
 10
295.0
 20
-547.6
 30
0.0
 40
5.0
  0
LINE
  5
49D
  8
SIZE
  6
CONTINUOUS
 62
    30
 10
295.0
 20
-547.6
 30
0.0
 11
285.0
 21
-547.6
 31
0.0
  0
CIRCLE
  5
49E
  8
SIZE
  6
CONTINUOUS
 62
    30
 10
201.0
 20
-547.6
 30
0.0
 40
5.0
  0
LINE
  5
49F
  8
SIZE
  6
CONTINUOUS
 62
    30
 10
201.0
 20
-547.6
 30
0.0
 11
211.0
 21
-547.6
 31
0.0
  0
TEXT
  5
4A0
  8
SIZE
  6
CONTINUOUS
 62
    30
 10
224.033981
 20
-537.6
 30
0.0
 40
30.0
  1
94
 72
     1
 11
249.033981
 21
-537.6
 31
0.0
  0
POINT
  5
4A1
  8
DEFPOINTS
  6
CONTINUOUS
 62
    30
 10
295.0
 20
-20.0
 30
0.0
  0
POINT
  5
4A2
  8
DEFPOINTS
  6
CONTINUOUS
 62
    30
 10
201.0
 20
-20.0
 30
0.0
  0
POINT
  5
4A3
  8
DEFPOINTS
  6
CONTINUOUS
 62
    30
 10
201.0
 20
-547.6
 30
0.0
  0
LINE
  5
4A4
  8
SIZE
  6
CONTINUOUS
 62
    30
 10
-295.0
 20
-30.0
 30
0.0
 11
-295.0
 21
-560.1
 31
0.0
  0
LINE
  5
4A5
  8
SIZE
  6
CONTINUOUS
 62
    30
 10
-201.0
 20
-30.0
 30
0.0
 11
-201.0
 21
-560.1
 31
0.0
  0
LINE
  5
4A6
  8
SIZE
  6
CONTINUOUS
 62
    30
 10
-285.0
 20
-547.6
 30
0.0
 11
-211.0
 21
-547.6
 31
0.0
  0
CIRCLE
  5
4A7
  8
SIZE
  6
CONTINUOUS
 62
    30
 10
-295.0
 20
-547.6
 30
0.0
 40
5.0
  0
LINE
  5
4A8
  8
SIZE
  6
CONTINUOUS
 62
    30
 10
-295.0
 20
-547.6
 30
0.0
 11
-285.0
 21
-547.6
 31
0.0
  0
CIRCLE
  5
4A9
  8
SIZE
  6
CONTINUOUS
 62
    30
 10
-201.0
 20
-547.6
 30
0.0
 40
5.0
  0
LINE
  5
4AA
  8
SIZE
  6
CONTINUOUS
 62
    30
 10
-201.0
 20
-547.6
 30
0.0
 11
-211.0
 21
-547.6
 31
0.0
  0
TEXT
  5
4AB
  8
SIZE
  6
CONTINUOUS
 62
    30
 10
-271.471939
 20
-537.6
 30
0.0
 40
30.0
  1
94
 72
     1
 11
-246.471939
 21
-537.6
 31
0.0
  0
POINT
  5
4AC
  8
DEFPOINTS
  6
CONTINUOUS
 62
    30
 10
-295.0
 20
-20.0
 30
0.0
  0
POINT
  5
4AD
  8
DEFPOINTS
  6
CONTINUOUS
 62
    30
 10
-201.0
 20
-20.0
 30
0.0
  0
POINT
  5
4AE
  8
DEFPOINTS
  6
CONTINUOUS
 62
    30
 10
-201.0
 20
-547.6
 30
0.0
  0
LINE
  5
4AF
  8
SIZE
  6
CONTINUOUS
 62
    30
 10
325.0
 20
0.0
 30
0.0
 11
775.1
 21
0.0
 31
0.0
  0
LINE
  5
4B0
  8
SIZE
  6
CONTINUOUS
 62
    30
 10
325.0
 20
200.0
 30
0.0
 11
775.1
 21
200.0
 31
0.0
  0
LINE
  5
4B1
  8
SIZE
  6
CONTINUOUS
 62
    30
 10
762.6
 20
10.0
 30
0.0
 11
762.6
 21
190.0
 31
0.0
  0
CIRCLE
  5
4B2
  8
SIZE
  6
CONTINUOUS
 62
    30
 10
762.6
 20
0.0
 30
0.0
 40
5.0
  0
LINE
  5
4B3
  8
SIZE
  6
CONTINUOUS
 62
    30
 10
762.6
 20
0.0
 30
0.0
 11
762.6
 21
10.0
 31
0.0
  0
CIRCLE
  5
4B4
  8
SIZE
  6
CONTINUOUS
 62
    30
 10
762.6
 20
200.0
 30
0.0
 40
5.0
  0
LINE
  5
4B5
  8
SIZE
  6
CONTINUOUS
 62
    30
 10
762.6
 20
200.0
 30
0.0
 11
762.6
 21
190.0
 31
0.0
  0
TEXT
  5
4B6
  8
SIZE
  6
CONTINUOUS
 62
    30
 10
752.6
 20
65.0
 30
0.0
 40
30.0
  1
200
 50
90.0
 72
     1
 11
752.6
 21
100.0
 31
0.0
  0
POINT
  5
4B7
  8
DEFPOINTS
  6
CONTINUOUS
 62
    30
 10
315.0
 20
0.0
 30
0.0
  0
POINT
  5
4B8
  8
DEFPOINTS
  6
CONTINUOUS
 62
    30
 10
315.0
 20
200.0
 30
0.0
  0
POINT
  5
4B9
  8
DEFPOINTS
  6
CONTINUOUS
 62
    30
 10
762.6
 20
200.0
 30
0.0
  0
LINE
  5
4BA
  8
SIZE
  6
CONTINUOUS
 62
    30
 10
272.703766
 20
1900.0
 30
0.0
 11
875.1
 21
1900.0
 31
0.0
  0
LINE
  5
4BB
  8
SIZE
  6
CONTINUOUS
 62
    30
 10
320.0
 20
0.0
 30
0.0
 11
875.1
 21
0.0
 31
0.0
  0
LINE
  5
4BC
  8
SIZE
  6
CONTINUOUS
 62
    30
 10
862.6
 20
1890.0
 30
0.0
 11
862.6
 21
10.0
 31
0.0
  0
CIRCLE
  5
4BD
  8
SIZE
  6
CONTINUOUS
 62
    30
 10
862.6
 20
1900.0
 30
0.0
 40
5.0
  0
LINE
  5
4BE
  8
SIZE
  6
CONTINUOUS
 62
    30
 10
862.6
 20
1900.0
 30
0.0
 11
862.6
 21
1890.0
 31
0.0
  0
CIRCLE
  5
4BF
  8
SIZE
  6
CONTINUOUS
 62
    30
 10
862.6
 20
0.0
 30
0.0
 40
5.0
  0
LINE
  5
4C0
  8
SIZE
  6
CONTINUOUS
 62
    30
 10
862.6
 20
0.0
 30
0.0
 11
862.6
 21
10.0
 31
0.0
  0
TEXT
  5
4C1
  8
SIZE
  6
CONTINUOUS
 62
    30
 10
852.6
 20
992.319946
 30
0.0
 40
30.0
  1
1900
 50
90.0
 72
     1
 11
852.6
 21
1037.319946
 31
0.0
  0
POINT
  5
4C2
  8
DEFPOINTS
  6
CONTINUOUS
 62
    30
 10
262.703766
 20
1900.0
 30
0.0
  0
POINT
  5
4C3
  8
DEFPOINTS
  6
CONTINUOUS
 62
    30
 10
310.0
 20
0.0
 30
0.0
  0
POINT
  5
4C4
  8
DEFPOINTS
  6
CONTINUOUS
 62
    30
 10
862.6
 20
0.0
 30
0.0
  0
LINE
  5
4C5
  8
SIZE
  6
CONTINUOUS
 62
    30
 10
320.0
 20
0.0
 30
0.0
 11
675.1
 21
0.0
 31
0.0
  0
LINE
  5
4C6
  8
SIZE
  6
CONTINUOUS
 62
    30
 10
163.82309
 20
172.5
 30
0.0
 11
675.1
 21
172.5
 31
0.0
  0
LINE
  5
4C7
  8
SIZE
  6
CONTINUOUS
 62
    30
 10
662.6
 20
10.0
 30
0.0
 11
662.6
 21
162.5
 31
0.0
  0
CIRCLE
  5
4C8
  8
SIZE
  6
CONTINUOUS
 62
    30
 10
662.6
 20
0.0
 30
0.0
 40
5.0
  0
LINE
  5
4C9
  8
SIZE
  6
CONTINUOUS
 62
    30
 10
662.6
 20
0.0
 30
0.0
 11
662.6
 21
10.0
 31
0.0
  0
CIRCLE
  5
4CA
  8
SIZE
  6
CONTINUOUS
 62
    30
 10
662.6
 20
172.5
 30
0.0
 40
5.0
  0
LINE
  5
4CB
  8
SIZE
  6
CONTINUOUS
 62
    30
 10
662.6
 20
172.5
 30
0.0
 11
662.6
 21
162.5
 31
0.0
  0
TEXT
  5
4CC
  8
SIZE
  6
CONTINUOUS
 62
    30
 10
652.6
 20
51.25
 30
0.0
 40
30.0
  1
173
 50
90.0
 72
     1
 11
652.6
 21
86.25
 31
0.0
  0
POINT
  5
4CD
  8
DEFPOINTS
  6
CONTINUOUS
 62
    30
 10
310.0
 20
0.0
 30
0.0
  0
POINT
  5
4CE
  8
DEFPOINTS
  6
CONTINUOUS
 62
    30
 10
153.82309
 20
172.5
 30
0.0
  0
POINT
  5
4CF
  8
DEFPOINTS
  6
CONTINUOUS
 62
    30
 10
662.6
 20
172.5
 30
0.0
  0
LINE
  5
4D0
  8
SIZE
  6
CONTINUOUS
 62
    30
 10
159.0
 20
170.0
 30
0.0
 11
159.0
 21
-360.1
 31
0.0
  0
LINE
  5
4D1
  8
SIZE
  6
CONTINUOUS
 62
    30
 10
0.0
 20
-60.0
 30
0.0
 11
0.0
 21
-360.1
 31
0.0
  0
LINE
  5
4D2
  8
SIZE
  6
CONTINUOUS
 62
    30
 10
149.0
 20
-347.6
 30
0.0
 11
10.0
 21
-347.6
 31
0.0
  0
CIRCLE
  5
4D3
  8
SIZE
  6
CONTINUOUS
 62
    30
 10
159.0
 20
-347.6
 30
0.0
 40
5.0
  0
LINE
  5
4D4
  8
SIZE
  6
CONTINUOUS
 62
    30
 10
159.0
 20
-347.6
 30
0.0
 11
149.0
 21
-347.6
 31
0.0
  0
CIRCLE
  5
4D5
  8
SIZE
  6
CONTINUOUS
 62
    30
 10
0.0
 20
-347.6
 30
0.0
 40
5.0
  0
LINE
  5
4D6
  8
SIZE
  6
CONTINUOUS
 62
    30
 10
0.0
 20
-347.6
 30
0.0
 11
10.0
 21
-347.6
 31
0.0
  0
TEXT
  5
4D7
  8
SIZE
  6
CONTINUOUS
 62
    30
 10
44.5
 20
-337.6
 30
0.0
 40
30.0
  1
159
 72
     1
 11
79.5
 21
-337.6
 31
0.0
  0
POINT
  5
4D8
  8
DEFPOINTS
  6
CONTINUOUS
 62
    30
 10
159.0
 20
180.0
 30
0.0
  0
POINT
  5
4D9
  8
DEFPOINTS
  6
CONTINUOUS
 62
    30
 10
0.0
 20
-50.0
 30
0.0
  0
POINT
  5
4DA
  8
DEFPOINTS
  6
CONTINUOUS
 62
    30
 10
0.0
 20
-347.6
 30
0.0
  0
LINE
  5
4DB
  8
SIZE
  6
CONTINUOUS
 62
    30
 10
-85.0
 20
170.0
 30
0.0
 11
-85.0
 21
-360.1
 31
0.0
  0
LINE
  5
4DC
  8
SIZE
  6
CONTINUOUS
 62
    30
 10
0.0
 20
-60.0
 30
0.0
 11
0.0
 21
-360.1
 31
0.0
  0
LINE
  5
4DD
  8
SIZE
  6
CONTINUOUS
 62
    30
 10
-75.0
 20
-347.6
 30
0.0
 11
-10.0
 21
-347.6
 31
0.0
  0
CIRCLE
  5
4DE
  8
SIZE
  6
CONTINUOUS
 62
    30
 10
-85.0
 20
-347.6
 30
0.0
 40
5.0
  0
LINE
  5
4DF
  8
SIZE
  6
CONTINUOUS
 62
    30
 10
-85.0
 20
-347.6
 30
0.0
 11
-75.0
 21
-347.6
 31
0.0
  0
CIRCLE
  5
4E0
  8
SIZE
  6
CONTINUOUS
 62
    30
 10
0.0
 20
-347.6
 30
0.0
 40
5.0
  0
LINE
  5
4E1
  8
SIZE
  6
CONTINUOUS
 62
    30
 10
0.0
 20
-347.6
 30
0.0
 11
-10.0
 21
-347.6
 31
0.0
  0
TEXT
  5
4E2
  8
SIZE
  6
CONTINUOUS
 62
    30
 10
-67.5
 20
-337.6
 30
0.0
 40
30.0
  1
85
 72
     1
 11
-42.5
 21
-337.6
 31
0.0
  0
POINT
  5
4E3
  8
DEFPOINTS
  6
CONTINUOUS
 62
    30
 10
-85.0
 20
180.0
 30
0.0
  0
POINT
  5
4E4
  8
DEFPOINTS
  6
CONTINUOUS
 62
    30
 10
0.0
 20
-50.0
 30
0.0
  0
POINT
  5
4E5
  8
DEFPOINTS
  6
CONTINUOUS
 62
    30
 10
0.0
 20
-347.6
 30
0.0
  0
LINE
  5
4E6
  8
SIZE
  6
CONTINUOUS
 62
    30
 10
320.0
 20
0.0
 30
0.0
 11
475.1
 21
0.0
 31
0.0
  0
LINE
  5
4E7
  8
SIZE
  6
CONTINUOUS
 62
    30
 10
264.0
 20
155.5
 30
0.0
 11
475.1
 21
155.5
 31
0.0
  0
LINE
  5
4E8
  8
SIZE
  6
CONTINUOUS
 62
    30
 10
462.6
 20
10.0
 30
0.0
 11
462.6
 21
145.5
 31
0.0
  0
CIRCLE
  5
4E9
  8
SIZE
  6
CONTINUOUS
 62
    30
 10
462.6
 20
0.0
 30
0.0
 40
5.0
  0
LINE
  5
4EA
  8
SIZE
  6
CONTINUOUS
 62
    30
 10
462.6
 20
0.0
 30
0.0
 11
462.6
 21
10.0
 31
0.0
  0
CIRCLE
  5
4EB
  8
SIZE
  6
CONTINUOUS
 62
    30
 10
462.6
 20
155.5
 30
0.0
 40
5.0
  0
LINE
  5
4EC
  8
SIZE
  6
CONTINUOUS
 62
    30
 10
462.6
 20
155.5
 30
0.0
 11
462.6
 21
145.5
 31
0.0
  0
TEXT
  5
4ED
  8
SIZE
  6
CONTINUOUS
 62
    30
 10
452.6
 20
42.75
 30
0.0
 40
30.0
  1
156
 50
90.0
 72
     1
 11
452.6
 21
77.75
 31
0.0
  0
POINT
  5
4EE
  8
DEFPOINTS
  6
CONTINUOUS
 62
    30
 10
310.0
 20
0.0
 30
0.0
  0
POINT
  5
4EF
  8
DEFPOINTS
  6
CONTINUOUS
 62
    30
 10
254.0
 20
155.5
 30
0.0
  0
POINT
  5
4F0
  8
DEFPOINTS
  6
CONTINUOUS
 62
    30
 10
462.6
 20
155.5
 30
0.0
  0
LINE
  5
4F1
  8
SIZE
  6
CONTINUOUS
 62
    30
 10
234.0
 20
125.5
 30
0.0
 11
234.0
 21
-360.1
 31
0.0
  0
LINE
  5
4F2
  8
SIZE
  6
CONTINUOUS
 62
    30
 10
159.0
 20
170.0
 30
0.0
 11
159.0
 21
-360.1
 31
0.0
  0
LINE
  5
4F3
  8
SIZE
  6
CONTINUOUS
 62
    30
 10
169.0
 20
-347.6
 30
0.0
 11
224.0
 21
-347.6
 31
0.0
  0
LINE
  5
4F4
  8
SIZE
  6
CONTINUOUS
 62
    30
 10
234.0
 20
-347.6
 30
0.0
 11
363.997598
 21
-347.6
 31
0.0
  0
CIRCLE
  5
4F5
  8
SIZE
  6
CONTINUOUS
 62
    30
 10
159.0
 20
-347.6
 30
0.0
 40
5.0
  0
LINE
  5
4F6
  8
SIZE
  6
CONTINUOUS
 62
    30
 10
159.0
 20
-347.6
 30
0.0
 11
169.0
 21
-347.6
 31
0.0
  0
CIRCLE
  5
4F7
  8
SIZE
  6
CONTINUOUS
 62
    30
 10
234.0
 20
-347.6
 30
0.0
 40
5.0
  0
LINE
  5
4F8
  8
SIZE
  6
CONTINUOUS
 62
    30
 10
234.0
 20
-347.6
 30
0.0
 11
224.0
 21
-347.6
 31
0.0
  0
TEXT
  5
4F9
  8
SIZE
  6
CONTINUOUS
 62
    30
 10
303.997598
 20
-337.6
 30
0.0
 40
30.0
  1
75
 72
     1
 11
328.997598
 21
-337.6
 31
0.0
  0
POINT
  5
4FA
  8
DEFPOINTS
  6
CONTINUOUS
 62
    30
 10
234.0
 20
135.5
 30
0.0
  0
POINT
  5
4FB
  8
DEFPOINTS
  6
CONTINUOUS
 62
    30
 10
159.0
 20
180.0
 30
0.0
  0
POINT
  5
4FC
  8
DEFPOINTS
  6
CONTINUOUS
 62
    30
 10
159.0
 20
-347.6
 30
0.0
  0
LINE
  5
4FD
  8
SIZE
  6
CONTINUOUS
 62
    30
 10
5.0
 20
133.0
 30
0.0
 11
5.0
 21
-260.1
 31
0.0
  0
LINE
  5
4FE
  8
SIZE
  6
CONTINUOUS
 62
    30
 10
0.0
 20
-60.0
 30
0.0
 11
0.0
 21
-260.1
 31
0.0
  0
LINE
  5
4FF
  8
SIZE
  6
CONTINUOUS
 62
    30
 10
15.0
 20
-247.6
 30
0.0
 11
25.0
 21
-247.6
 31
0.0
  0
LINE
  5
500
  8
SIZE
  6
CONTINUOUS
 62
    30
 10
-10.0
 20
-247.6
 30
0.0
 11
-67.183857
 21
-247.6
 31
0.0
  0
LINE
  5
501
  8
SIZE
  6
CONTINUOUS
 62
    30
 10
5.0
 20
-247.6
 30
0.0
 11
0.0
 21
-247.6
 31
0.0
  0
CIRCLE
  5
502
  8
SIZE
  6
CONTINUOUS
 62
    30
 10
5.0
 20
-247.6
 30
0.0
 40
5.0
  0
LINE
  5
503
  8
SIZE
  6
CONTINUOUS
 62
    30
 10
5.0
 20
-247.6
 30
0.0
 11
15.0
 21
-247.6
 31
0.0
  0
CIRCLE
  5
504
  8
SIZE
  6
CONTINUOUS
 62
    30
 10
0.0
 20
-247.6
 30
0.0
 40
5.0
  0
LINE
  5
505
  8
SIZE
  6
CONTINUOUS
 62
    30
 10
0.0
 20
-247.6
 30
0.0
 11
-10.0
 21
-247.6
 31
0.0
  0
TEXT
  5
506
  8
SIZE
  6
CONTINUOUS
 62
    30
 10
-57.183857
 20
-237.6
 30
0.0
 40
30.0
  1
5
 72
     1
 11
-47.183857
 21
-237.6
 31
0.0
  0
POINT
  5
507
  8
DEFPOINTS
  6
CONTINUOUS
 62
    30
 10
5.0
 20
143.0
 30
0.0
  0
POINT
  5
508
  8
DEFPOINTS
  6
CONTINUOUS
 62
    30
 10
0.0
 20
-50.0
 30
0.0
  0
POINT
  5
509
  8
DEFPOINTS
  6
CONTINUOUS
 62
    30
 10
0.0
 20
-247.6
 30
0.0
  0
LINE
  5
50A
  8
SIZE
  6
CONTINUOUS
 62
    30
 10
85.0
 20
138.0
 30
0.0
 11
85.0
 21
-260.1
 31
0.0
  0
LINE
  5
50B
  8
SIZE
  6
CONTINUOUS
 62
    30
 10
5.0
 20
133.0
 30
0.0
 11
5.0
 21
-260.1
 31
0.0
  0
LINE
  5
50C
  8
SIZE
  6
CONTINUOUS
 62
    30
 10
75.0
 20
-247.6
 30
0.0
 11
15.0
 21
-247.6
 31
0.0
  0
CIRCLE
  5
50D
  8
SIZE
  6
CONTINUOUS
 62
    30
 10
85.0
 20
-247.6
 30
0.0
 40
5.0
  0
LINE
  5
50E
  8
SIZE
  6
CONTINUOUS
 62
    30
 10
85.0
 20
-247.6
 30
0.0
 11
75.0
 21
-247.6
 31
0.0
  0
CIRCLE
  5
50F
  8
SIZE
  6
CONTINUOUS
 62
    30
 10
5.0
 20
-247.6
 30
0.0
 40
5.0
  0
LINE
  5
510
  8
SIZE
  6
CONTINUOUS
 62
    30
 10
5.0
 20
-247.6
 30
0.0
 11
15.0
 21
-247.6
 31
0.0
  0
TEXT
  5
511
  8
SIZE
  6
CONTINUOUS
 62
    30
 10
22.5
 20
-237.6
 30
0.0
 40
30.0
  1
80
 72
     1
 11
45.0
 21
-237.6
 31
0.0
  0
POINT
  5
512
  8
DEFPOINTS
  6
CONTINUOUS
 62
    30
 10
85.0
 20
148.0
 30
0.0
  0
POINT
  5
513
  8
DEFPOINTS
  6
CONTINUOUS
 62
    30
 10
5.0
 20
143.0
 30
0.0
  0
POINT
  5
514
  8
DEFPOINTS
  6
CONTINUOUS
 62
    30
 10
5.0
 20
-247.6
 30
0.0
  0
LINE
  5
515
  8
SIZE
  6
CONTINUOUS
 62
    30
 10
0.0
 20
-30.0
 30
0.0
 11
0.0
 21
-160.1
 31
0.0
  0
LINE
  5
516
  8
SIZE
  6
CONTINUOUS
 62
    30
 10
80.0
 20
170.0
 30
0.0
 11
80.0
 21
-160.1
 31
0.0
  0
LINE
  5
517
  8
SIZE
  6
CONTINUOUS
 62
    30
 10
10.0
 20
-147.6
 30
0.0
 11
70.0
 21
-147.6
 31
0.0
  0
CIRCLE
  5
518
  8
SIZE
  6
CONTINUOUS
 62
    30
 10
0.0
 20
-147.6
 30
0.0
 40
5.0
  0
LINE
  5
519
  8
SIZE
  6
CONTINUOUS
 62
    30
 10
0.0
 20
-147.6
 30
0.0
 11
10.0
 21
-147.6
 31
0.0
  0
CIRCLE
  5
51A
  8
SIZE
  6
CONTINUOUS
 62
    30
 10
80.0
 20
-147.6
 30
0.0
 40
5.0
  0
LINE
  5
51B
  8
SIZE
  6
CONTINUOUS
 62
    30
 10
80.0
 20
-147.6
 30
0.0
 11
70.0
 21
-147.6
 31
0.0
  0
TEXT
  5
51C
  8
SIZE
  6
CONTINUOUS
 62
    30
 10
17.5
 20
-137.6
 30
0.0
 40
30.0
  1
80
 72
     1
 11
40.0
 21
-137.6
 31
0.0
  0
POINT
  5
51D
  8
DEFPOINTS
  6
CONTINUOUS
 62
    30
 10
0.0
 20
-20.0
 30
0.0
  0
POINT
  5
51E
  8
DEFPOINTS
  6
CONTINUOUS
 62
    30
 10
80.0
 20
180.0
 30
0.0
  0
POINT
  5
51F
  8
DEFPOINTS
  6
CONTINUOUS
 62
    30
 10
80.0
 20
-147.6
 30
0.0
  0
LINE
  5
520
  8
SIZE
  6
CONTINUOUS
 62
    30
 10
-25.0
 20
163.0
 30
0.0
 11
-120.571288
 21
163.0
 31
0.0
  0
LINE
  5
521
  8
SIZE
  6
CONTINUOUS
 62
    30
 10
-46.5
 20
0.0
 30
0.0
 11
-120.571288
 21
0.0
 31
0.0
  0
LINE
  5
522
  8
SIZE
  6
CONTINUOUS
 62
    30
 10
-108.071288
 20
153.0
 30
0.0
 11
-108.071288
 21
10.0
 31
0.0
  0
CIRCLE
  5
523
  8
SIZE
  6
CONTINUOUS
 62
    30
 10
-108.071288
 20
163.0
 30
0.0
 40
5.0
  0
LINE
  5
524
  8
SIZE
  6
CONTINUOUS
 62
    30
 10
-108.071288
 20
163.0
 30
0.0
 11
-108.071288
 21
153.0
 31
0.0
  0
CIRCLE
  5
525
  8
SIZE
  6
CONTINUOUS
 62
    30
 10
-108.071288
 20
0.0
 30
0.0
 40
5.0
  0
LINE
  5
526
  8
SIZE
  6
CONTINUOUS
 62
    30
 10
-108.071288
 20
0.0
 30
0.0
 11
-108.071288
 21
10.0
 31
0.0
  0
TEXT
  5
527
  8
SIZE
  6
CONTINUOUS
 62
    30
 10
-118.071288
 20
46.5
 30
0.0
 40
30.0
  1
163
 50
90.0
 72
     1
 11
-118.071288
 21
81.5
 31
0.0
  0
POINT
  5
528
  8
DEFPOINTS
  6
CONTINUOUS
 62
    30
 10
-15.0
 20
163.0
 30
0.0
  0
POINT
  5
529
  8
DEFPOINTS
  6
CONTINUOUS
 62
    30
 10
-36.5
 20
0.0
 30
0.0
  0
POINT
  5
52A
  8
DEFPOINTS
  6
CONTINUOUS
 62
    30
 10
-108.071288
 20
0.0
 30
0.0
  0
LINE
  5
52B
  8
SIZE
  6
CONTINUOUS
 62
    30
 10
115.0
 20
168.0
 30
0.0
 11
575.1
 21
168.0
 31
0.0
  0
LINE
  5
52C
  8
SIZE
  6
CONTINUOUS
 62
    30
 10
325.0
 20
0.0
 30
0.0
 11
575.1
 21
0.0
 31
0.0
  0
LINE
  5
52D
  8
SIZE
  6
CONTINUOUS
 62
    30
 10
562.6
 20
158.0
 30
0.0
 11
562.6
 21
10.0
 31
0.0
  0
CIRCLE
  5
52E
  8
SIZE
  6
CONTINUOUS
 62
    30
 10
562.6
 20
168.0
 30
0.0
 40
5.0
  0
LINE
  5
52F
  8
SIZE
  6
CONTINUOUS
 62
    30
 10
562.6
 20
168.0
 30
0.0
 11
562.6
 21
158.0
 31
0.0
  0
CIRCLE
  5
530
  8
SIZE
  6
CONTINUOUS
 62
    30
 10
562.6
 20
0.0
 30
0.0
 40
5.0
  0
LINE
  5
531
  8
SIZE
  6
CONTINUOUS
 62
    30
 10
562.6
 20
0.0
 30
0.0
 11
562.6
 21
10.0
 31
0.0
  0
TEXT
  5
532
  8
SIZE
  6
CONTINUOUS
 62
    30
 10
552.6
 20
49.0
 30
0.0
 40
30.0
  1
168
 50
90.0
 72
     1
 11
552.6
 21
84.0
 31
0.0
  0
POINT
  5
533
  8
DEFPOINTS
  6
CONTINUOUS
 62
    30
 10
105.0
 20
168.0
 30
0.0
  0
POINT
  5
534
  8
DEFPOINTS
  6
CONTINUOUS
 62
    30
 10
315.0
 20
0.0
 30
0.0
  0
POINT
  5
535
  8
DEFPOINTS
  6
CONTINUOUS
 62
    30
 10
562.6
 20
0.0
 30
0.0
  0
LINE
  5
536
  8
NOTE
  6
CONTINUOUS
 10
-233.0
 20
168.0
 30
0.0
 11
-273.0
 21
168.0
 31
0.0
  0
LINE
  5
537
  8
NOTE
  6
CONTINUOUS
 10
-253.0
 20
148.0
 30
0.0
 11
-253.0
 21
188.0
 31
0.0
  0
LINE
  5
538
  8
NOTE
  6
CONTINUOUS
 10
-168.0
 20
148.0
 30
0.0
 11
-168.0
 21
188.0
 31
0.0
  0
LINE
  5
539
  8
NOTE
  6
CONTINUOUS
 10
-148.0
 20
168.0
 30
0.0
 11
-188.0
 21
168.0
 31
0.0
  0
LINE
  5
53A
  8
NOTE
  6
CONTINUOUS
 10
-939.325256
 20
-170.094711
 30
0.0
 11
-520.075195
 21
-170.094711
 31
0.0
  0
LINE
  5
53B
  8
NOTE
  6
CONTINUOUS
 10
-520.075195
 20
-170.094711
 30
0.0
 11
-168.0
 21
168.0
 31
0.0
  0
LINE
  5
53C
  8
NOTE
  6
CONTINUOUS
 10
-168.0
 20
168.0
 30
0.0
 11
-169.034873
 21
166.288557
 31
0.0
  0
LINE
  5
53D
  8
NOTE
  6
CONTINUOUS
 10
-168.0
 20
168.0
 30
0.0
 11
-169.751948
 21
167.035283
 31
0.0
  0
TEXT
  5
53E
  8
NOTE
  6
CONTINUOUS
 10
-939.325195
 20
-169.094727
 30
0.0
 40
40.0
  1
BH R1/2(φ21.7)
 50
0.000003
 41
0.650362
  7
STANDARD1
  0
LINE
  5
53F
  8
NOTE
  6
CONTINUOUS
 10
-941.106018
 20
-88.305771
 30
0.0
 11
-497.356018
 21
-88.305771
 31
0.0
  0
LINE
  5
540
  8
NOTE
  6
CONTINUOUS
 10
-497.356018
 20
-88.305771
 30
0.0
 11
-253.0
 21
168.0
 31
0.0
  0
LINE
  5
541
  8
NOTE
  6
CONTINUOUS
 10
-253.0
 20
168.0
 30
0.0
 11
-253.958387
 21
166.244581
 31
0.0
  0
LINE
  5
542
  8
NOTE
  6
CONTINUOUS
 10
-253.0
 20
168.0
 30
0.0
 11
-254.707697
 21
166.958956
 31
0.0
  0
TEXT
  5
543
  8
NOTE
  6
CONTINUOUS
 10
-941.106018
 20
-87.305786
 30
0.0
 40
40.0
  1
BHR R1/2(φ21.7)
 50
0.000003
 41
0.647804
  7
STANDARD1
  0
LINE
  5
544
  8
NOTE
  6
CONTINUOUS
 10
-660.135376
 20
2170.0
 30
0.0
 11
-275.885345
 21
2170.0
 31
0.0
  0
LINE
  5
545
  8
NOTE
  6
CONTINUOUS
 10
-275.885345
 20
2170.0
 30
0.0
 11
-20.0
 21
1915.0
 31
0.0
  0
LINE
  5
546
  8
NOTE
  6
CONTINUOUS
 10
-20.0
 20
1915.0
 30
0.0
 11
-21.733781
 21
1915.996997
 31
0.0
  0
LINE
  5
547
  8
NOTE
  6
CONTINUOUS
 10
-20.0
 20
1915.0
 30
0.0
 11
-21.003
 21
1916.730315
 31
0.0
  0
TEXT
  5
548
  8
NOTE
  6
CONTINUOUS
 10
-660.135315
 20
2171.0
 30
0.0
 40
40.0
  1
上部振れ止め金具
 50
0.000003
 41
0.84375
  7
STANDARD1
  0
LINE
  5
549
  8
NOTE
  6
CONTINUOUS
 10
546.165649
 20
2170.0
 30
0.0
 11
289.915619
 21
2170.0
 31
0.0
  0
LINE
  5
54A
  8
NOTE
  6
CONTINUOUS
 10
289.915619
 20
2170.0
 30
0.0
 11
30.0
 21
1893.0
 31
0.0
  0
LINE
  5
54B
  8
NOTE
  6
CONTINUOUS
 10
30.0
 20
1893.0
 30
0.0
 11
30.944409
 21
1894.762978
 31
0.0
  0
LINE
  5
54C
  8
NOTE
  6
CONTINUOUS
 10
30.0
 20
1893.0
 30
0.0
 11
31.699371
 21
1894.054579
 31
0.0
  0
TEXT
  5
54D
  8
NOTE
  6
CONTINUOUS
 10
350.665619
 20
2171.0
 30
0.0
 40
40.0
  1
AH 2-M10
 50
0.000003
 41
0.644737
  7
STANDARD1
  0
LINE
  5
54E
  8
NOTE
  6
CONTINUOUS
 10
-30.0
 20
1873.0
 30
0.0
 11
-30.0
 21
1913.0
 31
0.0
  0
LINE
  5
54F
  8
NOTE
  6
CONTINUOUS
 10
-10.0
 20
1893.0
 30
0.0
 11
-50.0
 21
1893.0
 31
0.0
  0
LINE
  5
550
  8
NOTE
  6
CONTINUOUS
 10
30.0
 20
1873.0
 30
0.0
 11
30.0
 21
1913.0
 31
0.0
  0
LINE
  5
551
  8
NOTE
  6
CONTINUOUS
 10
10.0
 20
1893.0
 30
0.0
 11
50.0
 21
1893.0
 31
0.0
  0
TEXT
  5
552
  8
NOTE
  6
CONTINUOUS
 10
-190.253235
 20
2370.970947
 30
0.0
 40
40.0
  1
メンテナンススペース
 50
0.000003
 41
0.84375
  7
STANDARD1
  0
TEXT
  5
553
  8
NOTE
  6
CONTINUOUS
 10
714.706238
 20
1911.320068
 30
0.0
 40
40.0
  1
メンテナンススペース
 50
90.000005
 41
0.84375
  7
STANDARD1
  0
LINE
  5
554
  8
NOTE
  6
CONTINUOUS
 10
-901.781982
 20
347.425629
 30
0.0
 11
-589.031982
 21
347.425629
 31
0.0
  0
LINE
  5
555
  8
NOTE
  6
CONTINUOUS
 10
-589.031982
 20
347.425629
 30
0.0
 11
-85.0
 21
200.0
 31
0.0
  0
LINE
  5
556
  8
NOTE
  6
CONTINUOUS
 10
-85.0
 20
200.0
 30
0.0
 11
-86.999482
 21
200.045508
 31
0.0
  0
LINE
  5
557
  8
NOTE
  6
CONTINUOUS
 10
-85.0
 20
200.0
 30
0.0
 11
-86.708849
 21
201.039152
 31
0.0
  0
TEXT
  5
558
  8
NOTE
  6
CONTINUOUS
 10
-901.781982
 20
348.425629
 30
0.0
 40
40.0
  1
CW φ49×69
 50
0.000003
 41
0.701389
  7
STANDARD1
  0
TEXT
  5
559
  8
NOTE
  6
CONTINUOUS
 10
-915.878113
 20
-424.626282
 30
0.0
 40
40.0
  1
（脚固定金具使用時のみ）
 50
0.000003
 41
0.84375
  7
STANDARD1
  0
LINE
  5
55A
  8
NOTE
  6
CONTINUOUS
 10
-248.0
 20
-20.0
 30
0.0
 11
-248.0
 21
20.0
 31
0.0
  0
LINE
  5
55B
  8
NOTE
  6
CONTINUOUS
 10
-295.0
 20
-20.0
 30
0.0
 11
-295.0
 21
20.0
 31
0.0
  0
LINE
  5
55C
  8
NOTE
  6
CONTINUOUS
 10
201.0
 20
-20.0
 30
0.0
 11
201.0
 21
20.0
 31
0.0
  0
LINE
  5
55D
  8
NOTE
  6
CONTINUOUS
 10
-201.0
 20
-20.0
 30
0.0
 11
-201.0
 21
20.0
 31
0.0
  0
LINE
  5
55E
  8
NOTE
  6
CONTINUOUS
 10
85.0
 20
148.0
 30
0.0
 11
85.0
 21
188.0
 31
0.0
  0
LINE
  5
55F
  8
NOTE
  6
CONTINUOUS
 10
159.0
 20
180.0
 30
0.0
 11
159.0
 21
220.0
 31
0.0
  0
LINE
  5
560
  8
NOTE
  6
CONTINUOUS
 10
5.0
 20
143.0
 30
0.0
 11
5.0
 21
183.0
 31
0.0
  0
LINE
  5
561
  8
NOTE
  6
CONTINUOUS
 10
-85.0
 20
180.0
 30
0.0
 11
-85.0
 21
220.0
 31
0.0
  0
LINE
  5
562
  8
NOTE
  6
CONTINUOUS
 10
295.0
 20
-20.0
 30
0.0
 11
295.0
 21
20.0
 31
0.0
  0
LINE
  5
563
  8
NOTE
  6
CONTINUOUS
 10
0.0
 20
-20.0
 30
0.0
 11
0.0
 21
20.0
 31
0.0
  0
LINE
  5
564
  8
NOTE
  6
CONTINUOUS
 10
248.0
 20
-20.0
 30
0.0
 11
248.0
 21
20.0
 31
0.0
  0
LINE
  5
565
  8
NOTE
  6
CONTINUOUS
 10
-268.0
 20
0.0
 30
0.0
 11
-228.0
 21
0.0
 31
0.0
  0
LINE
  5
566
  8
NOTE
  6
CONTINUOUS
 10
-315.0
 20
0.0
 30
0.0
 11
-275.0
 21
0.0
 31
0.0
  0
LINE
  5
567
  8
NOTE
  6
CONTINUOUS
 10
181.0
 20
0.0
 30
0.0
 11
221.0
 21
0.0
 31
0.0
  0
LINE
  5
568
  8
NOTE
  6
CONTINUOUS
 10
-181.0
 20
0.0
 30
0.0
 11
-221.0
 21
0.0
 31
0.0
  0
LINE
  5
569
  8
NOTE
  6
CONTINUOUS
 10
105.0
 20
168.0
 30
0.0
 11
65.0
 21
168.0
 31
0.0
  0
LINE
  5
56A
  8
NOTE
  6
CONTINUOUS
 10
179.0
 20
200.0
 30
0.0
 11
139.0
 21
200.0
 31
0.0
  0
LINE
  5
56B
  8
NOTE
  6
CONTINUOUS
 10
25.0
 20
163.0
 30
0.0
 11
-15.0
 21
163.0
 31
0.0
  0
LINE
  5
56C
  8
NOTE
  6
CONTINUOUS
 10
-65.0
 20
200.0
 30
0.0
 11
-105.0
 21
200.0
 31
0.0
  0
LINE
  5
56D
  8
NOTE
  6
CONTINUOUS
 10
315.0
 20
0.0
 30
0.0
 11
275.0
 21
0.0
 31
0.0
  0
LINE
  5
56E
  8
NOTE
  6
CONTINUOUS
 10
-20.0
 20
0.0
 30
0.0
 11
20.0
 21
0.0
 31
0.0
  0
LINE
  5
56F
  8
NOTE
  6
CONTINUOUS
 10
228.0
 20
0.0
 30
0.0
 11
268.0
 21
0.0
 31
0.0
  0
LINE
  5
570
  8
NOTE
  6
CONTINUOUS
 10
-649.097961
 20
-535.872986
 30
0.0
 11
-392.847931
 21
-535.872986
 31
0.0
  0
LINE
  5
571
  8
NOTE
  6
CONTINUOUS
 10
-392.847931
 20
-535.872986
 30
0.0
 11
-248.0
 21
0.0
 31
0.0
  0
LINE
  5
572
  8
NOTE
  6
CONTINUOUS
 10
-248.0
 20
0.0
 30
0.0
 11
-248.004389
 21
-1.999995
 31
0.0
  0
LINE
  5
573
  8
NOTE
  6
CONTINUOUS
 10
-248.0
 20
0.0
 30
0.0
 11
-249.003799
 21
-1.729852
 31
0.0
  0
TEXT
  5
574
  8
NOTE
  6
CONTINUOUS
 10
-649.097961
 20
-534.872986
 30
0.0
 40
40.0
  1
AH 3-M12
 50
0.000003
 41
0.644737
  7
STANDARD1
  0
LINE
  5
575
  8
NOTE
  6
CONTINUOUS
 10
-708.167786
 20
-370.023224
 30
0.0
 11
-451.917725
 21
-370.023224
 31
0.0
  0
LINE
  5
576
  8
NOTE
  6
CONTINUOUS
 10
-451.917725
 20
-370.023224
 30
0.0
 11
-295.0
 21
0.0
 31
0.0
  0
LINE
  5
577
  8
NOTE
  6
CONTINUOUS
 10
-295.0
 20
0.0
 30
0.0
 11
-295.277676
 21
-1.98063
 31
0.0
  0
LINE
  5
578
  8
NOTE
  6
CONTINUOUS
 10
-295.0
 20
0.0
 30
0.0
 11
-296.230789
 21
-1.576438
 31
0.0
  0
TEXT
  5
579
  8
NOTE
  6
CONTINUOUS
 10
-708.167786
 20
-369.023224
 30
0.0
 40
40.0
  1
AH 4-M12
 50
0.000003
 41
0.644737
  7
STANDARD1
  0
LINE
  5
57A
  8
NOTE
  6
CONTINUOUS
 10
133.823085
 20
152.5
 30
0.0
 11
133.823085
 21
192.5
 31
0.0
  0
LINE
  5
57B
  8
NOTE
  6
CONTINUOUS
 10
113.823085
 20
172.5
 30
0.0
 11
153.823085
 21
172.5
 31
0.0
  0
LINE
  5
57C
  8
NOTE
  6
CONTINUOUS
 10
-757.834167
 20
-270.05896
 30
0.0
 11
-495.084106
 21
-270.05896
 31
0.0
  0
LINE
  5
57D
  8
NOTE
  6
CONTINUOUS
 10
-495.084106
 20
-270.05896
 30
0.0
 11
-305.0
 21
0.0
 31
0.0
  0
LINE
  5
57E
  8
NOTE
  6
CONTINUOUS
 10
-305.0
 20
0.0
 30
0.0
 11
-305.688638
 21
-1.877705
 31
0.0
  0
LINE
  5
57F
  8
NOTE
  6
CONTINUOUS
 10
-305.0
 20
0.0
 30
0.0
 11
-306.535231
 21
-1.281821
 31
0.0
  0
TEXT
  5
580
  8
NOTE
  6
CONTINUOUS
 10
-757.834167
 20
-269.05896
 30
0.0
 40
40.0
  1
脚固定金具
 50
0.000003
 41
0.84375
  7
STANDARD1
  0
LINE
  5
581
  8
NOTE
  6
CONTINUOUS
 10
613.674561
 20
344.415588
 30
0.0
 11
300.924561
 21
344.415588
 31
0.0
  0
LINE
  5
582
  8
NOTE
  6
CONTINUOUS
 10
300.924561
 20
344.415588
 30
0.0
 11
159.0
 21
200.0
 31
0.0
  0
LINE
  5
583
  8
NOTE
  6
CONTINUOUS
 10
159.0
 20
200.0
 30
0.0
 11
159.984895
 21
201.740684
 31
0.0
  0
LINE
  5
584
  8
NOTE
  6
CONTINUOUS
 10
159.0
 20
200.0
 30
0.0
 11
160.723286
 21
201.01503
 31
0.0
  0
TEXT
  5
585
  8
NOTE
  6
CONTINUOUS
 10
361.674561
 20
345.415588
 30
0.0
 40
40.0
  1
HW φ49×69
 50
0.000003
 41
0.701389
  7
STANDARD1
  0
LINE
  5
586
  8
NOTE
  6
CONTINUOUS
 10
820.732361
 20
-119.107933
 30
0.0
 11
401.482361
 21
-119.107933
 31
0.0
  0
LINE
  5
587
  8
NOTE
  6
CONTINUOUS
 10
401.482361
 20
-119.107933
 30
0.0
 11
234.0
 21
155.5
 31
0.0
  0
LINE
  5
588
  8
NOTE
  6
CONTINUOUS
 10
234.0
 20
155.5
 30
0.0
 11
235.447835
 21
154.120227
 31
0.0
  0
LINE
  5
589
  8
NOTE
  6
CONTINUOUS
 10
234.0
 20
155.5
 30
0.0
 11
234.563975
 21
153.581164
 31
0.0
  0
TEXT
  5
58A
  8
NOTE
  6
CONTINUOUS
 10
462.232361
 20
-118.107933
 30
0.0
 40
40.0
  1
WD R3/4(φ27.2)
 50
0.000003
 41
0.650362
  7
STANDARD1
  0
LINE
  5
58B
  8
NOTE
  6
CONTINUOUS
 10
607.893921
 20
-212.961868
 30
0.0
 11
409.143921
 21
-212.961868
 31
0.0
  0
LINE
  5
58C
  8
NOTE
  6
CONTINUOUS
 10
409.143921
 20
-212.961868
 30
0.0
 11
133.82309
 21
172.5
 31
0.0
  0
LINE
  5
58D
  8
NOTE
  6
CONTINUOUS
 10
133.82309
 20
172.5
 30
0.0
 11
135.367155
 21
171.228835
 31
0.0
  0
LINE
  5
58E
  8
NOTE
  6
CONTINUOUS
 10
133.82309
 20
172.5
 30
0.0
 11
134.524707
 21
170.627106
 31
0.0
  0
TEXT
  5
58F
  8
NOTE
  6
CONTINUOUS
 10
469.893921
 20
-211.961868
 30
0.0
 40
40.0
  1
D φ18
 50
0.000003
 41
0.721354
  7
STANDARD1
  0
LINE
  5
590
  8
NOTE
  6
CONTINUOUS
 10
234.0
 20
135.5
 30
0.0
 11
234.0
 21
175.5
 31
0.0
  0
LINE
  5
591
  8
NOTE
  6
CONTINUOUS
 10
214.0
 20
155.5
 30
0.0
 11
254.0
 21
155.5
 31
0.0
  0
LINE
  5
592
  8
NOTE
  6
CONTINUOUS
 10
80.0
 20
180.0
 30
0.0
 11
80.0
 21
220.0
 31
0.0
  0
LINE
  5
593
  8
NOTE
  6
CONTINUOUS
 10
100.0
 20
200.0
 30
0.0
 11
60.0
 21
200.0
 31
0.0
  0
LINE
  5
594
  8
NOTE
  6
CONTINUOUS
 10
-901.781982
 20
470.5112
 30
0.0
 11
-589.031982
 21
470.5112
 31
0.0
  0
LINE
  5
595
  8
NOTE
  6
CONTINUOUS
 10
-589.031982
 20
470.5112
 30
0.0
 11
-85.0
 21
200.0
 31
0.0
  0
LINE
  5
596
  8
NOTE
  6
CONTINUOUS
 10
-85.0
 20
200.0
 30
0.0
 11
-86.946981
 21
200.457457
 31
0.0
  0
LINE
  5
597
  8
NOTE
  6
CONTINUOUS
 10
-85.0
 20
200.0
 30
0.0
 11
-86.457406
 21
201.369659
 31
0.0
  0
TEXT
  5
598
  8
NOTE
  6
CONTINUOUS
 10
-901.781982
 20
471.5112
 30
0.0
 40
40.0
  1
EL φ49×69
 50
0.000003
 41
0.701389
  7
STANDARD1
  0
LINE
  5
599
  8
NOTE
  6
CONTINUOUS
 10
1182.916992
 20
-409.500519
 30
0.0
 11
374.666962
 21
-409.500519
 31
0.0
  0
LINE
  5
59A
  8
NOTE
  6
CONTINUOUS
 10
374.666962
 20
-409.500519
 30
0.0
 11
5.0
 21
163.0
 31
0.0
  0
LINE
  5
59B
  8
NOTE
  6
CONTINUOUS
 10
5.0
 20
163.0
 30
0.0
 11
6.482794
 21
161.657867
 31
0.0
  0
LINE
  5
59C
  8
NOTE
  6
CONTINUOUS
 10
5.0
 20
163.0
 30
0.0
 11
5.613071
 21
161.096282
 31
0.0
  0
TEXT
  5
59D
  8
NOTE
  6
CONTINUOUS
 10
435.416962
 20
-408.500519
 30
0.0
 40
40.0
  1
ヒートポンプ配管口(A) R1/2(φ21.7)
 50
359.999996
 41
0.730469
  7
STANDARD1
  0
LINE
  5
59E
  8
NOTE
  6
CONTINUOUS
 10
1182.916992
 20
-306.815826
 30
0.0
 11
374.666962
 21
-306.815826
 31
0.0
  0
LINE
  5
59F
  8
NOTE
  6
CONTINUOUS
 10
374.666962
 20
-306.815826
 30
0.0
 11
85.0
 21
168.0
 31
0.0
  0
LINE
  5
5A0
  8
NOTE
  6
CONTINUOUS
 10
85.0
 20
168.0
 30
0.0
 11
86.448001
 21
166.620401
 31
0.0
  0
LINE
  5
5A1
  8
NOTE
  6
CONTINUOUS
 10
85.0
 20
168.0
 30
0.0
 11
85.564206
 21
166.081232
 31
0.0
  0
TEXT
  5
5A2
  8
NOTE
  6
CONTINUOUS
 10
435.416962
 20
-305.815826
 30
0.0
 40
40.0
  1
ヒートポンプ配管口(B) R1/2(φ21.7)
 50
359.999996
 41
0.730469
  7
STANDARD1
  0
LINE
  5
5A3
  8
NOTE
  6
CONTINUOUS
 10
612.523071
 20
466.611908
 30
0.0
 11
340.273041
 21
466.611908
 31
0.0
  0
LINE
  5
5A4
  8
NOTE
  6
CONTINUOUS
 10
340.273041
 20
466.611908
 30
0.0
 11
80.0
 21
200.0
 31
0.0
  0
LINE
  5
5A5
  8
NOTE
  6
CONTINUOUS
 10
80.0
 20
200.0
 30
0.0
 11
80.979091
 21
201.743955
 31
0.0
  0
LINE
  5
5A6
  8
NOTE
  6
CONTINUOUS
 10
80.0
 20
200.0
 30
0.0
 11
81.719896
 21
201.020764
 31
0.0
  0
TEXT
  5
5A7
  8
NOTE
  6
CONTINUOUS
 10
401.023041
 20
467.611908
 30
0.0
 40
40.0
  1
CL φ32.5
 50
359.999996
 41
0.679487
  7
STANDARD1
  0
CIRCLE
  5
5A8
  8
ARRANGE
  6
CONTINUOUS
 10
0.0
 20
0.0
 30
0.0
 40
15.0
  0
CIRCLE
  5
5A9
  8
FIX
  6
CONTINUOUS
 10
-30.0
 20
1893.0
 30
0.0
 40
5.0
  0
CIRCLE
  5
5AA
  8
FIX
  6
CONTINUOUS
 10
30.0
 20
1893.0
 30
0.0
 40
5.0
  0
CIRCLE
  5
5AB
  8
FIX
  6
CONTINUOUS
 10
201.0
 20
0.0
 30
0.0
 40
6.0
  0
CIRCLE
  5
5AC
  8
FIX
  6
CONTINUOUS
 10
248.0
 20
0.0
 30
0.0
 40
6.0
  0
CIRCLE
  5
5AD
  8
FIX
  6
CONTINUOUS
 10
295.0
 20
0.0
 30
0.0
 40
6.0
  0
CIRCLE
  5
5AE
  8
FIX
  6
CONTINUOUS
 10
-201.0
 20
0.0
 30
0.0
 40
6.0
  0
CIRCLE
  5
5AF
  8
FIX
  6
CONTINUOUS
 10
-295.0
 20
0.0
 30
0.0
 40
6.0
  0
CIRCLE
  5
5B0
  8
FIX
  6
CONTINUOUS
 10
248.0
 20
0.0
 30
0.0
 40
6.0
  0
CIRCLE
  5
5B1
  8
FIX
  6
CONTINUOUS
 10
0.0
 20
0.0
 30
0.0
 40
6.0
  0
CIRCLE
  5
5B2
  8
FIX
  6
CONTINUOUS
 10
-248.0
 20
0.0
 30
0.0
 40
6.0
  0
LINE
  5
5B3
  8
SERVICESPACE
  6
DASHDOT
 10
315.0
 20
1870.0
 30
0.0
 11
315.0
 21
2070.0
 31
0.0
  0
LINE
  5
5B4
  8
SERVICESPACE
  6
DASHDOT
 10
-315.0
 20
1870.0
 30
0.0
 11
-315.0
 21
2070.0
 31
0.0
  0
LINE
  5
5B5
  8
SERVICESPACE
  6
DASHDOT
 10
-315.0
 20
2070.0
 30
0.0
 11
315.0
 21
2070.0
 31
0.0
  0
LINE
  5
5B6
  8
SERVICESPACE
  6
DASHDOT
 10
-315.0
 20
1870.0
 30
0.0
 11
315.0
 21
1870.0
 31
0.0
  0
LINE
  5
5B7
  8
SERVICESPACE
  6
DASHDOT
 10
-315.0
 20
2070.0
 30
0.0
 11
315.0
 21
1870.0
 31
0.0
  0
LINE
  5
5B8
  8
SERVICESPACE
  6
DASHDOT
 10
315.0
 20
2070.0
 30
0.0
 11
-315.0
 21
1870.0
 31
0.0
  0
TEXT
  5
5B9
  8
ETC
  6
CONTINUOUS
 10
655.375
 20
2418.90918
 30
0.0
 40
40.0
  1
TTHT37W3
 50
0.000003
 41
0.6125
  7
STANDARD1
  0
TEXT
  5
5BA
  8
ETC
  6
CONTINUOUS
 10
655.375
 20
2348.90918
 30
0.0
 40
40.0
  1
貯湯タンクユニット
 50
0.000003
 41
0.84375
  7
STANDARD1
  0
ENDSEC
  0
EOF
