  0
SECTION
  2
HEADER
  9
$ACADVER
  1
AC1009
  9
$INSBASE
 10
0.0
 20
0.0
 30
0.0
  9
$EXTMIN
 10
-1206.844727
 20
-1529.845538
 30
0.0
  9
$EXTMAX
 10
947.761535
 20
342.4
 30
0.0
  9
$LIMMIN
 10
0.0
 20
0.0
  9
$LIMMAX
 10
12.0
 20
9.0
  9
$ORTHOMODE
 70
     0
  9
$REGENMODE
 70
     1
  9
$FILLMODE
 70
     1
  9
$QTEXTMODE
 70
     0
  9
$MIRRTEXT
 70
     1
  9
$DRAGMODE
 70
     2
  9
$LTSCALE
 40
1.0
  9
$OSMODE
 70
     0
  9
$ATTMODE
 70
     1
  9
$TEXTSIZE
 40
7.0
  9
$TRACEWID
 40
0.05
  9
$TEXTSTYLE
  7
STANDARD1
  9
$CLAYER
  8
0
  9
$CELTYPE
  6
CONTINUOUS
  9
$CECOLOR
 62
   256
  9
$DIMSCALE
 40
1.0
  9
$DIMASZ
 40
10.0
  9
$DIMEXO
 40
10.0
  9
$DIMDLI
 40
8.0
  9
$DIMRND
 40
0.0
  9
$DIMDLE
 40
0.0
  9
$DIMEXE
 40
12.5
  9
$DIMTP
 40
0.0
  9
$DIMTM
 40
0.0
  9
$DIMTXT
 40
30.0
  9
$DIMCEN
 40
2.5
  9
$DIMTSZ
 40
0.0
  9
$DIMTOL
 70
     0
  9
$DIMLIM
 70
     0
  9
$DIMTIH
 70
     0
  9
$DIMTOH
 70
     0
  9
$DIMSE1
 70
     0
  9
$DIMSE2
 70
     0
  9
$DIMTAD
 70
     3
  9
$DIMZIN
 70
    12
  9
$DIMBLK
  1

  9
$DIMASO
 70
     1
  9
$DIMSHO
 70
     1
  9
$DIMPOST
  1

  9
$DIMAPOST
  1

  9
$DIMALT
 70
     0
  9
$DIMALTD
 70
     4
  9
$DIMALTF
 40
25.4
  9
$DIMLFAC
 40
1.0
  9
$DIMTOFL
 70
     1
  9
$DIMTVP
 40
0.0
  9
$DIMTIX
 70
     0
  9
$DIMSOXD
 70
     0
  9
$DIMSAH
 70
     1
  9
$DIMBLK1
  1
_ORIGIN
  9
$DIMBLK2
  1
_ORIGIN
  9
$DIMSTYLE
  2
STANDARD
  9
$DIMCLRD
 70
     0
  9
$DIMCLRE
 70
     0
  9
$DIMCLRT
 70
     0
  9
$DIMTFAC
 40
1.0
  9
$DIMGAP
 40
0.09
  9
$LUNITS
 70
     2
  9
$LUPREC
 70
     3
  9
$SKETCHINC
 40
0.1
  9
$FILLETRAD
 40
0.0
  9
$AUNITS
 70
     0
  9
$AUPREC
 70
     0
  9
$MENU
  1
acad
  9
$ELEVATION
 40
0.0
  9
$PELEVATION
 40
0.0
  9
$THICKNESS
 40
0.0
  9
$LIMCHECK
 70
     0
  9
$BLIPMODE
 70
     0
  9
$CHAMFERA
 40
0.0
  9
$CHAMFERB
 40
0.0
  9
$SKPOLY
 70
     0
  9
$TDCREATE
 40
2452774.401701
  9
$TDUPDATE
 40
2452774.401701
  9
$TDINDWG
 40
0.0
  9
$TDUSRTIMER
 40
0.0
  9
$USRTIMER
 70
     1
  9
$ANGBASE
 50
0.0
  9
$ANGDIR
 70
     0
  9
$PDMODE
 70
     0
  9
$PDSIZE
 40
0.0
  9
$PLINEWID
 40
0.0
  9
$COORDS
 70
     1
  9
$SPLFRAME
 70
     0
  9
$SPLINETYPE
 70
     6
  9
$SPLINESEGS
 70
     8
  9
$ATTDIA
 70
     0
  9
$ATTREQ
 70
     1
  9
$HANDLING
 70
     1
  9
$HANDSEED
  5
63C
  9
$SURFTAB1
 70
     6
  9
$SURFTAB2
 70
     6
  9
$SURFTYPE
 70
     6
  9
$SURFU
 70
     6
  9
$SURFV
 70
     6
  9
$UCSNAME
  2

  9
$UCSORG
 10
0.0
 20
0.0
 30
0.0
  9
$UCSXDIR
 10
1.0
 20
0.0
 30
0.0
  9
$UCSYDIR
 10
0.0
 20
1.0
 30
0.0
  9
$PUCSNAME
  2

  9
$PUCSORG
 10
0.0
 20
0.0
 30
0.0
  9
$PUCSXDIR
 10
1.0
 20
0.0
 30
0.0
  9
$PUCSYDIR
 10
0.0
 20
1.0
 30
0.0
  9
$USERI1
 70
     0
  9
$USERI2
 70
     0
  9
$USERI3
 70
     0
  9
$USERI4
 70
     0
  9
$USERI5
 70
     0
  9
$USERR1
 40
0.0
  9
$USERR2
 40
0.0
  9
$USERR3
 40
0.0
  9
$USERR4
 40
0.0
  9
$USERR5
 40
0.0
  9
$WORLDVIEW
 70
     1
  9
$SHADEDGE
 70
     3
  9
$SHADEDIF
 70
    70
  9
$TILEMODE
 70
     1
  9
$MAXACTVP
 70
    48
  9
$PLIMCHECK
 70
     0
  9
$PEXTMIN
 10
1.000000E+020
 20
1.000000E+020
 30
1.000000E+020
  9
$PEXTMAX
 10
-1.000000E+020
 20
-1.000000E+020
 30
-1.000000E+020
  9
$PLIMMIN
 10
0.0
 20
0.0
  9
$PLIMMAX
 10
12.0
 20
9.0
  9
$UNITMODE
 70
     0
  9
$VISRETAIN
 70
     1
  9
$PLINEGEN
 70
     0
  9
$PSLTSCALE
 70
     1
  0
ENDSEC
  0
SECTION
  2
TABLES
  0
TABLE
  2
VPORT
 70
     2
  0
VPORT
  2
*ACTIVE
 70
     0
 10
0.0
 20
0.0
 11
1.0
 21
1.0
 12
-129.541596
 22
-593.722769
 13
0.0
 23
0.0
 14
1.0
 24
1.0
 15
0.0
 25
0.0
 16
0.0
 26
0.0
 36
1.0
 17
0.0
 27
0.0
 37
0.0
 40
1908.02093
 41
2.827476
 42
50.0
 43
0.0
 44
0.0
 50
0.0
 51
0.0
 71
     0
 72
   100
 73
     1
 74
     1
 75
     0
 76
     0
 77
     0
 78
     0
  0
ENDTAB
  0
TABLE
  2
LTYPE
 70
     4
  0
LTYPE
  2
CONTINUOUS
 70
     0
  3
Solid line
 72
    65
 73
     0
 40
0.0
  0
LTYPE
  2
DASHED
 70
     0
  3
-- -- -- -- -- -- -- -- -- -- -- -- -- -- --
 72
    65
 73
     2
 40
0.75
 49
0.5
 49
-0.25
  0
LTYPE
  2
DASHDOT
 70
     0
  3
__ . __ . __ . __ . __ . __ . __ . __ . __ . __
 72
    65
 73
     4
 40
125.0
 49
80.0
 49
-20.0
 49
5.0
 49
-20.0
  0
LTYPE
  2
DIVIDE
 70
     0
  3
__ . . __ . . __ . . __ . . __ . . __ . . __
 72
    65
 73
     6
 40
1.25
 49
0.5
 49
-0.25
 49
0.0
 49
-0.25
 49
0.0
 49
-0.25
  0
ENDTAB
  0
TABLE
  2
LAYER
 70
    12
  0
LAYER
  2
0
 70
     0
 62
     3
  6
CONTINUOUS
  0
LAYER
  2
OUTLINE
 70
     0
 62
     3
  6
CONTINUOUS
  0
LAYER
  2
DETAIL
 70
     0
 62
     5
  6
CONTINUOUS
  0
LAYER
  2
BASIS
 70
     0
 62
     6
  6
CONTINUOUS
  0
LAYER
  2
SIZE
 70
     0
 62
    30
  6
CONTINUOUS
  0
LAYER
  2
NOTE
 70
     0
 62
     4
  6
CONTINUOUS
  0
LAYER
  2
ARRANGE
 70
     0
 62
     1
  6
CONTINUOUS
  0
LAYER
  2
FIX
 70
     0
 62
    11
  6
CONTINUOUS
  0
LAYER
  2
SERVICESPACE
 70
     0
 62
     2
  6
CONTINUOUS
  0
LAYER
  2
ETC
 70
     0
 62
    61
  6
CONTINUOUS
  0
LAYER
  2
SYMBOLLINE
 70
     0
 62
     7
  6
CONTINUOUS
  0
LAYER
  2
DEFPOINTS
 70
     0
 62
     7
  6
CONTINUOUS
  0
ENDTAB
  0
TABLE
  2
STYLE
 70
     5
  0
STYLE
  2
STANDARD
 70
     0
 40
0.0
 41
1.0
 50
0.0
 71
     0
 42
0.2
  3
txt
  4

  0
STYLE
  2
STANDARD1
 70
     0
 40
0.0
 41
1.0
 50
0.0
 71
     0
 42
7.0
  3
MONOTXT
  4
BIGFONT
  0
STYLE
  2
STANDARD2
 70
     4
 40
0.0
 41
1.0
 50
0.0
 71
     0
 42
7.0
  3
MONOTXT
  4
BIGFONT
  0
STYLE
  2
STANDARD3
 70
     0
 40
0.0
 41
1.0
 50
0.0
 71
     0
 42
7.0
  3
MONOTXT
  4

  0
STYLE
  2
STANDARD4
 70
     4
 40
0.0
 41
1.0
 50
0.0
 71
     0
 42
7.0
  3
MONOTXT
  4

  0
ENDTAB
  0
TABLE
  2
VIEW
 70
     0
  0
ENDTAB
  0
TABLE
  2
UCS
 70
     0
  0
ENDTAB
  0
TABLE
  2
APPID
 70
     1
  0
APPID
  2
ACAD
 70
     0
  0
ENDTAB
  0
TABLE
  2
DIMSTYLE
 70
     1
  0
DIMSTYLE
  2
STANDARD
 70
     0
  3

  4

  5

  6

  7

 40
1.0
 41
0.18
 42
0.0625
 43
0.38
 44
0.18
 45
0.0
 46
0.0
 47
0.0
 48
0.0
140
0.18
141
0.09
142
0.0
143
25.4
144
1.0
145
0.0
146
1.0
147
0.09
 71
     0
 72
     0
 73
     1
 74
     1
 75
     0
 76
     0
 77
     0
 78
     0
170
     0
171
     2
172
     0
173
     0
174
     0
175
     0
176
     0
177
     0
178
     0
  0
ENDTAB
  0
ENDSEC
  0
SECTION
  2
BLOCKS
  0
BLOCK
  8
0
  2
$MODEL_SPACE
 70
     0
 10
0.0
 20
0.0
 30
0.0
  3
$MODEL_SPACE
  1

  0
ENDBLK
  5
1A
  8
0
  0
BLOCK
 67
     1
  8
0
  2
$PAPER_SPACE
 70
     0
 10
0.0
 20
0.0
 30
0.0
  3
$PAPER_SPACE
  1

  0
ENDBLK
  5
17
 67
     1
  8
0
  0
BLOCK
  8
SIZE
  2
*D0
 70
     1
 10
0.0
 20
0.0
 30
0.0
  3
*D0
  1

  0
TEXT
  5
35
  8
SIZE
  6
CONTINUOUS
 10
-716.000024
 20
-607.460022
 30
0.0
 40
2.8
  1
69
 50
90.000005
 41
0.7
  7
STANDARD1
  0
LINE
  5
36
  8
SIZE
  6
CONTINUOUS
 10
-186.0
 20
-571.0
 30
0.0
 11
-717.0
 21
-571.0
 31
0.0
  0
LINE
  5
37
  8
SIZE
  6
CONTINUOUS
 10
-255.0
 20
-640.0
 30
0.0
 11
-717.0
 21
-640.0
 31
0.0
  0
LINE
  5
38
  8
SIZE
  6
CONTINUOUS
 10
-715.0
 20
-571.0
 30
0.0
 11
-715.0
 21
-640.0
 31
0.0
  0
INSERT
  5
3A
  8
SIZE
  2
DOT
 10
-715.0
 20
-571.0
 30
0.0
 50
90.0
  0
INSERT
  5
3B
  8
SIZE
  2
DOT
 10
-715.0
 20
-640.0
 30
0.0
 50
270.0
  0
POINT
  5
3C
  8
DEFPOINTS
  6
BYBLOCK
 10
-254.0
 20
-640.0
 30
0.0
  0
POINT
  5
3D
  8
DEFPOINTS
  6
BYBLOCK
 10
-185.0
 20
-571.0
 30
0.0
  0
POINT
  5
3E
  8
DEFPOINTS
  6
BYBLOCK
 10
-715.0
 20
-571.0
 30
0.0
  0
ENDBLK
  5
3F
  8
SIZE
  0
BLOCK
  8
SIZE
  2
DOT
 70
     0
 10
0.0
 20
0.0
 30
0.0
  3
DOT
  1

  0
POLYLINE
  5
41
  8
0
  6
BYBLOCK
 66
     1
 10
0.0
 20
0.0
 30
0.0
 70
     1
 40
0.5
 41
0.5
  0
VERTEX
  5
42
  8
0
  6
BYBLOCK
 10
-0.25
 20
0.0
 30
0.0
 42
1.0
  0
VERTEX
  5
43
  8
0
  6
BYBLOCK
 10
0.25
 20
0.0
 30
0.0
 42
1.0
  0
SEQEND
  5
44
  8
0
  6
BYBLOCK
  0
LINE
  5
45
  8
0
  6
BYBLOCK
 10
-0.5
 20
0.0
 30
0.0
 11
-1.0
 21
0.0
 31
0.0
  0
ENDBLK
  5
46
  8
SIZE
  0
BLOCK
  8
SIZE
  2
*D2
 70
     1
 10
0.0
 20
0.0
 30
0.0
  3
*D2
  1

  0
TEXT
  5
49
  8
SIZE
  6
CONTINUOUS
 10
-85.440002
 20
-256.789801
 30
0.0
 40
2.8
  1
165
 50
0.000003
 41
0.7
  7
STANDARD1
  0
LINE
  5
4A
  8
SIZE
  6
CONTINUOUS
 10
-165.0
 20
-550.0
 30
0.0
 11
-165.0
 21
-255.789795
 31
0.0
  0
LINE
  5
4B
  8
SIZE
  6
CONTINUOUS
 10
-165.0
 20
-257.789795
 30
0.0
 11
0.0
 21
-257.789795
 31
0.0
  0
INSERT
  5
4C
  8
SIZE
  2
DOT
 10
-165.0
 20
-257.789795
 30
0.0
 50
180.0
  0
INSERT
  5
4D
  8
SIZE
  2
DOT
 10
0.0
 20
-257.789795
 30
0.0
  0
POINT
  5
4E
  8
DEFPOINTS
  6
BYBLOCK
 10
0.0
 20
50.0
 30
0.0
  0
POINT
  5
4F
  8
DEFPOINTS
  6
BYBLOCK
 10
-165.0
 20
-551.0
 30
0.0
  0
POINT
  5
50
  8
DEFPOINTS
  6
BYBLOCK
 10
-165.0
 20
-257.789795
 30
0.0
  0
ENDBLK
  5
51
  8
SIZE
  0
BLOCK
  8
SIZE
  2
*D3
 70
     1
 10
0.0
 20
0.0
 30
0.0
  3
*D3
  1

  0
TEXT
  5
54
  8
SIZE
  6
CONTINUOUS
 10
269.040009
 20
-978.999976
 30
0.0
 40
2.8
  1
88
 50
0.000003
 41
0.7
  7
STANDARD1
  0
LINE
  5
55
  8
SIZE
  6
CONTINUOUS
 10
227.0
 20
-664.0
 30
0.0
 11
227.0
 21
-982.0
 31
0.0
  0
LINE
  5
56
  8
SIZE
  6
CONTINUOUS
 10
227.0
 20
-980.0
 30
0.0
 11
315.0
 21
-980.0
 31
0.0
  0
INSERT
  5
57
  8
SIZE
  2
DOT
 10
227.0
 20
-980.0
 30
0.0
 50
180.0
  0
INSERT
  5
58
  8
SIZE
  2
DOT
 10
315.0
 20
-980.0
 30
0.0
  0
POINT
  5
59
  8
DEFPOINTS
  6
BYBLOCK
 10
315.0
 20
-730.0
 30
0.0
  0
POINT
  5
5A
  8
DEFPOINTS
  6
BYBLOCK
 10
227.0
 20
-663.0
 30
0.0
  0
POINT
  5
5B
  8
DEFPOINTS
  6
BYBLOCK
 10
227.0
 20
-980.0
 30
0.0
  0
ENDBLK
  5
5C
  8
SIZE
  0
BLOCK
  8
SIZE
  2
*D4
 70
     1
 10
0.0
 20
0.0
 30
0.0
  3
*D4
  1

  0
TEXT
  5
5F
  8
SIZE
  6
CONTINUOUS
 10
513.999976
 20
-571.755859
 30
0.0
 40
2.8
  1
135
 50
90.000005
 41
0.7
  7
STANDARD1
  0
LINE
  5
60
  8
SIZE
  6
CONTINUOUS
 10
106.0
 20
-595.0
 30
0.0
 11
517.0
 21
-595.0
 31
0.0
  0
LINE
  5
61
  8
SIZE
  6
CONTINUOUS
 10
515.0
 20
-564.47583
 30
0.0
 11
515.0
 21
-735.0
 31
0.0
  0
INSERT
  5
62
  8
SIZE
  2
DOT
 10
515.0
 20
-595.0
 30
0.0
 50
90.0
  0
INSERT
  5
63
  8
SIZE
  2
DOT
 10
515.0
 20
-730.0
 30
0.0
 50
270.0
  0
POINT
  5
64
  8
DEFPOINTS
  6
BYBLOCK
 10
315.0
 20
-730.0
 30
0.0
  0
POINT
  5
65
  8
DEFPOINTS
  6
BYBLOCK
 10
105.0
 20
-595.0
 30
0.0
  0
POINT
  5
66
  8
DEFPOINTS
  6
BYBLOCK
 10
515.0
 20
-595.0
 30
0.0
  0
ENDBLK
  5
67
  8
SIZE
  0
BLOCK
  8
SIZE
  2
*D5
 70
     1
 10
0.0
 20
0.0
 30
0.0
  3
*D5
  1

  0
TEXT
  5
6A
  8
SIZE
  6
CONTINUOUS
 10
-616.000024
 20
-687.099426
 30
0.0
 40
2.8
  1
119
 50
90.000005
 41
0.7
  7
STANDARD1
  0
LINE
  5
6B
  8
SIZE
  6
CONTINUOUS
 10
-316.0
 20
-730.0
 30
0.0
 11
-617.0
 21
-730.0
 31
0.0
  0
LINE
  5
6C
  8
SIZE
  6
CONTINUOUS
 10
-101.0
 20
-611.0
 30
0.0
 11
-617.0
 21
-611.0
 31
0.0
  0
LINE
  5
6D
  8
SIZE
  6
CONTINUOUS
 10
-615.0
 20
-730.0
 30
0.0
 11
-615.0
 21
-611.0
 31
0.0
  0
INSERT
  5
6E
  8
SIZE
  2
DOT
 10
-615.0
 20
-730.0
 30
0.0
 50
270.0
  0
INSERT
  5
6F
  8
SIZE
  2
DOT
 10
-615.0
 20
-611.0
 30
0.0
 50
90.0
  0
POINT
  5
70
  8
DEFPOINTS
  6
BYBLOCK
 10
-100.0
 20
-611.0
 30
0.0
  0
POINT
  5
71
  8
DEFPOINTS
  6
BYBLOCK
 10
-315.0
 20
-730.0
 30
0.0
  0
POINT
  5
72
  8
DEFPOINTS
  6
BYBLOCK
 10
-615.0
 20
-730.0
 30
0.0
  0
ENDBLK
  5
73
  8
SIZE
  0
BLOCK
  8
SIZE
  2
*D6
 70
     1
 10
0.0
 20
0.0
 30
0.0
  3
*D6
  1

  0
TEXT
  5
76
  8
SIZE
  6
CONTINUOUS
 10
-716.000024
 20
-686.960022
 30
0.0
 40
2.8
  1
90
 50
90.000005
 41
0.7
  7
STANDARD1
  0
LINE
  5
77
  8
SIZE
  6
CONTINUOUS
 10
-255.0
 20
-640.0
 30
0.0
 11
-717.0
 21
-640.0
 31
0.0
  0
LINE
  5
78
  8
SIZE
  6
CONTINUOUS
 10
-316.0
 20
-730.0
 30
0.0
 11
-717.0
 21
-730.0
 31
0.0
  0
LINE
  5
79
  8
SIZE
  6
CONTINUOUS
 10
-715.0
 20
-640.0
 30
0.0
 11
-715.0
 21
-730.0
 31
0.0
  0
INSERT
  5
7A
  8
SIZE
  2
DOT
 10
-715.0
 20
-640.0
 30
0.0
 50
90.0
  0
INSERT
  5
7B
  8
SIZE
  2
DOT
 10
-715.0
 20
-730.0
 30
0.0
 50
270.0
  0
POINT
  5
7C
  8
DEFPOINTS
  6
BYBLOCK
 10
-315.0
 20
-730.0
 30
0.0
  0
POINT
  5
7D
  8
DEFPOINTS
  6
BYBLOCK
 10
-254.0
 20
-640.0
 30
0.0
  0
POINT
  5
7E
  8
DEFPOINTS
  6
BYBLOCK
 10
-715.0
 20
-640.0
 30
0.0
  0
ENDBLK
  5
7F
  8
SIZE
  0
BLOCK
  8
SIZE
  2
*D7
 70
     1
 10
0.0
 20
0.0
 30
0.0
  3
*D7
  1

  0
TEXT
  5
82
  8
SIZE
  6
CONTINUOUS
 10
40.540001
 20
-335.000006
 30
0.0
 40
2.8
  1
85
 50
0.000003
 41
0.7
  7
STANDARD1
  0
LINE
  5
83
  8
SIZE
  6
CONTINUOUS
 10
85.0
 20
-574.0
 30
0.0
 11
85.0
 21
-334.0
 31
0.0
  0
LINE
  5
84
  8
SIZE
  6
CONTINUOUS
 10
85.0
 20
-336.0
 30
0.0
 11
0.0
 21
-336.0
 31
0.0
  0
INSERT
  5
85
  8
SIZE
  2
DOT
 10
85.0
 20
-336.0
 30
0.0
  0
INSERT
  5
86
  8
SIZE
  2
DOT
 10
0.0
 20
-336.0
 30
0.0
 50
180.0
  0
POINT
  5
87
  8
DEFPOINTS
  6
BYBLOCK
 10
0.0
 20
-780.0
 30
0.0
  0
POINT
  5
88
  8
DEFPOINTS
  6
BYBLOCK
 10
85.0
 20
-575.0
 30
0.0
  0
POINT
  5
89
  8
DEFPOINTS
  6
BYBLOCK
 10
85.0
 20
-336.0
 30
0.0
  0
ENDBLK
  5
8A
  8
SIZE
  0
BLOCK
  8
SIZE
  2
*D8
 70
     1
 10
0.0
 20
0.0
 30
0.0
  3
*D8
  1

  0
TEXT
  5
8D
  8
SIZE
  6
CONTINUOUS
 10
-41.959999
 20
-335.000006
 30
0.0
 40
2.8
  1
80
 50
0.000003
 41
0.7
  7
STANDARD1
  0
LINE
  5
8E
  8
SIZE
  6
CONTINUOUS
 10
-80.0
 20
-590.0
 30
0.0
 11
-80.0
 21
-334.0
 31
0.0
  0
LINE
  5
8F
  8
SIZE
  6
CONTINUOUS
 10
-80.0
 20
-336.0
 30
0.0
 11
0.0
 21
-336.0
 31
0.0
  0
INSERT
  5
90
  8
SIZE
  2
DOT
 10
-80.0
 20
-336.0
 30
0.0
 50
180.0
  0
INSERT
  5
91
  8
SIZE
  2
DOT
 10
0.0
 20
-336.0
 30
0.0
  0
POINT
  5
92
  8
DEFPOINTS
  6
BYBLOCK
 10
0.0
 20
-780.0
 30
0.0
  0
POINT
  5
93
  8
DEFPOINTS
  6
BYBLOCK
 10
-80.0
 20
-591.0
 30
0.0
  0
POINT
  5
94
  8
DEFPOINTS
  6
BYBLOCK
 10
-80.0
 20
-336.0
 30
0.0
  0
ENDBLK
  5
95
  8
SIZE
  0
BLOCK
  8
SIZE
  2
*D9
 70
     1
 10
0.0
 20
0.0
 30
0.0
  3
*D9
  1

  0
TEXT
  5
98
  8
SIZE
  6
CONTINUOUS
 10
-46.959999
 20
-878.999976
 30
0.0
 40
2.8
  1
80
 50
0.000003
 41
0.7
  7
STANDARD1
  0
LINE
  5
99
  8
SIZE
  6
CONTINUOUS
 10
-5.0
 20
-696.0
 30
0.0
 11
-5.0
 21
-882.0
 31
0.0
  0
LINE
  5
9A
  8
SIZE
  6
CONTINUOUS
 10
-85.0
 20
-696.0
 30
0.0
 11
-85.0
 21
-882.0
 31
0.0
  0
LINE
  5
9B
  8
SIZE
  6
CONTINUOUS
 10
-5.0
 20
-880.0
 30
0.0
 11
-85.0
 21
-880.0
 31
0.0
  0
INSERT
  5
9C
  8
SIZE
  2
DOT
 10
-5.0
 20
-880.0
 30
0.0
  0
INSERT
  5
9D
  8
SIZE
  2
DOT
 10
-85.0
 20
-880.0
 30
0.0
 50
180.0
  0
POINT
  5
9E
  8
DEFPOINTS
  6
BYBLOCK
 10
-85.0
 20
-695.0
 30
0.0
  0
POINT
  5
9F
  8
DEFPOINTS
  6
BYBLOCK
 10
-5.0
 20
-695.0
 30
0.0
  0
POINT
  5
A0
  8
DEFPOINTS
  6
BYBLOCK
 10
-5.0
 20
-880.0
 30
0.0
  0
ENDBLK
  5
A1
  8
SIZE
  0
BLOCK
  8
SIZE
  2
*D10
 70
     1
 10
0.0
 20
0.0
 30
0.0
  3
*D10
  1

  0
TEXT
  5
A4
  8
SIZE
  6
CONTINUOUS
 10
39.288765
 20
-878.999976
 30
0.0
 40
2.8
  1
5
 50
0.000003
 41
0.7
  7
STANDARD1
  0
LINE
  5
A5
  8
SIZE
  6
CONTINUOUS
 10
-5.0
 20
-696.0
 30
0.0
 11
-5.0
 21
-882.0
 31
0.0
  0
LINE
  5
A6
  8
SIZE
  6
CONTINUOUS
 10
0.0
 20
-781.0
 30
0.0
 11
0.0
 21
-882.0
 31
0.0
  0
LINE
  5
A7
  8
SIZE
  6
CONTINUOUS
 10
-10.0
 20
-880.0
 30
0.0
 11
42.648766
 21
-880.0
 31
0.0
  0
INSERT
  5
A8
  8
SIZE
  2
DOT
 10
-5.0
 20
-880.0
 30
0.0
 50
180.0
  0
INSERT
  5
A9
  8
SIZE
  2
DOT
 10
0.0
 20
-880.0
 30
0.0
  0
POINT
  5
AA
  8
DEFPOINTS
  6
BYBLOCK
 10
0.0
 20
-780.0
 30
0.0
  0
POINT
  5
AB
  8
DEFPOINTS
  6
BYBLOCK
 10
-5.0
 20
-695.0
 30
0.0
  0
POINT
  5
AC
  8
DEFPOINTS
  6
BYBLOCK
 10
-5.0
 20
-880.0
 30
0.0
  0
ENDBLK
  5
AD
  8
SIZE
  0
BLOCK
  8
SIZE
  2
*D11
 70
     1
 10
0.0
 20
0.0
 30
0.0
  3
*D11
  1

  0
TEXT
  5
B0
  8
SIZE
  6
CONTINUOUS
 10
-415.999994
 20
-704.460022
 30
0.0
 40
2.8
  1
55
 50
90.000005
 41
0.7
  7
STANDARD1
  0
LINE
  5
B1
  8
SIZE
  6
CONTINUOUS
 10
-106.0
 20
-675.0
 30
0.0
 11
-417.0
 21
-675.0
 31
0.0
  0
LINE
  5
B2
  8
SIZE
  6
CONTINUOUS
 10
-316.0
 20
-730.0
 30
0.0
 11
-417.0
 21
-730.0
 31
0.0
  0
LINE
  5
B3
  8
SIZE
  6
CONTINUOUS
 10
-415.0
 20
-675.0
 30
0.0
 11
-415.0
 21
-730.0
 31
0.0
  0
INSERT
  5
B4
  8
SIZE
  2
DOT
 10
-415.0
 20
-675.0
 30
0.0
 50
90.0
  0
INSERT
  5
B5
  8
SIZE
  2
DOT
 10
-415.0
 20
-730.0
 30
0.0
 50
270.0
  0
POINT
  5
B6
  8
DEFPOINTS
  6
BYBLOCK
 10
-315.0
 20
-730.0
 30
0.0
  0
POINT
  5
B7
  8
DEFPOINTS
  6
BYBLOCK
 10
-105.0
 20
-675.0
 30
0.0
  0
POINT
  5
B8
  8
DEFPOINTS
  6
BYBLOCK
 10
-415.0
 20
-675.0
 30
0.0
  0
ENDBLK
  5
B9
  8
SIZE
  0
BLOCK
  8
SIZE
  2
*D12
 70
     1
 10
0.0
 20
0.0
 30
0.0
  3
*D12
  1

  0
TEXT
  5
BC
  8
SIZE
  6
CONTINUOUS
 10
-82.440002
 20
-978.999976
 30
0.0
 40
2.8
  1
159
 50
0.000003
 41
0.7
  7
STANDARD1
  0
LINE
  5
BD
  8
SIZE
  6
CONTINUOUS
 10
0.0
 20
-781.0
 30
0.0
 11
0.0
 21
-982.0
 31
0.0
  0
LINE
  5
BE
  8
SIZE
  6
CONTINUOUS
 10
-159.0
 20
-686.0
 30
0.0
 11
-159.0
 21
-982.0
 31
0.0
  0
LINE
  5
BF
  8
SIZE
  6
CONTINUOUS
 10
0.0
 20
-980.0
 30
0.0
 11
-159.0
 21
-980.0
 31
0.0
  0
INSERT
  5
C0
  8
SIZE
  2
DOT
 10
0.0
 20
-980.0
 30
0.0
  0
INSERT
  5
C1
  8
SIZE
  2
DOT
 10
-159.0
 20
-980.0
 30
0.0
 50
180.0
  0
POINT
  5
C2
  8
DEFPOINTS
  6
BYBLOCK
 10
-159.0
 20
-685.0
 30
0.0
  0
POINT
  5
C3
  8
DEFPOINTS
  6
BYBLOCK
 10
0.0
 20
-780.0
 30
0.0
  0
POINT
  5
C4
  8
DEFPOINTS
  6
BYBLOCK
 10
0.0
 20
-980.0
 30
0.0
  0
ENDBLK
  5
C5
  8
SIZE
  0
BLOCK
  8
SIZE
  2
*D13
 70
     1
 10
0.0
 20
0.0
 30
0.0
  3
*D13
  1

  0
TEXT
  5
C8
  8
SIZE
  6
CONTINUOUS
 10
40.540001
 20
-978.999976
 30
0.0
 40
2.8
  1
85
 50
0.000003
 41
0.7
  7
STANDARD1
  0
LINE
  5
C9
  8
SIZE
  6
CONTINUOUS
 10
0.0
 20
-781.0
 30
0.0
 11
0.0
 21
-982.0
 31
0.0
  0
LINE
  5
CA
  8
SIZE
  6
CONTINUOUS
 10
85.0
 20
-686.0
 30
0.0
 11
85.0
 21
-982.0
 31
0.0
  0
LINE
  5
CB
  8
SIZE
  6
CONTINUOUS
 10
0.0
 20
-980.0
 30
0.0
 11
85.0
 21
-980.0
 31
0.0
  0
INSERT
  5
CC
  8
SIZE
  2
DOT
 10
0.0
 20
-980.0
 30
0.0
 50
180.0
  0
INSERT
  5
CD
  8
SIZE
  2
DOT
 10
85.0
 20
-980.0
 30
0.0
  0
POINT
  5
CE
  8
DEFPOINTS
  6
BYBLOCK
 10
85.0
 20
-685.0
 30
0.0
  0
POINT
  5
CF
  8
DEFPOINTS
  6
BYBLOCK
 10
0.0
 20
-780.0
 30
0.0
  0
POINT
  5
D0
  8
DEFPOINTS
  6
BYBLOCK
 10
0.0
 20
-980.0
 30
0.0
  0
ENDBLK
  5
D1
  8
SIZE
  0
BLOCK
  8
SIZE
  2
*D14
 70
     1
 10
0.0
 20
0.0
 30
0.0
  3
*D14
  1

  0
TEXT
  5
D4
  8
SIZE
  6
CONTINUOUS
 10
-234.777713
 20
-449.617892
 30
0.0
 40
2.8
  1
36
 50
329.999995
 41
0.7
  7
STANDARD1
  0
LINE
  5
D5
  8
SIZE
  6
CONTINUOUS
 10
-164.5
 20
-570.133974
 30
0.0
 11
-129.38443
 21
-509.311981
 31
0.0
  0
LINE
  5
D6
  8
SIZE
  6
CONTINUOUS
 10
-94.877388
 20
-531.544067
 30
0.0
 11
-236.490143
 21
-449.783936
 31
0.0
  0
INSERT
  5
D7
  8
SIZE
  2
DOT
 10
-99.20752
 20
-529.044067
 30
0.0
 50
330.000009
  0
INSERT
  5
D8
  8
SIZE
  2
DOT
 10
-130.38443
 20
-511.044037
 30
0.0
 50
149.999963
  0
POINT
  5
D9
  8
DEFPOINTS
  6
BYBLOCK
 10
-165.0
 20
-571.0
 30
0.0
  0
POINT
  5
DA
  8
DEFPOINTS
  6
BYBLOCK
 10
-123.823082
 20
-571.679504
 30
0.0
  0
POINT
  5
DB
  8
DEFPOINTS
  6
BYBLOCK
 10
-99.20752
 20
-529.044067
 30
0.0
  0
ENDBLK
  5
DC
  8
SIZE
  0
BLOCK
  8
SIZE
  2
*D15
 70
     1
 10
0.0
 20
0.0
 30
0.0
  3
*D15
  1

  0
TEXT
  5
DF
  8
SIZE
  6
CONTINUOUS
 10
-124.741259
 20
-407.441011
 30
0.0
 40
2.8
  1
30°
 50
349.596538
 41
0.65625
  7
STANDARD1
  0
LINE
  5
E0
  8
SIZE
  6
CONTINUOUS
 10
-123.323082
 20
-570.813479
 30
0.0
 11
-36.021809
 21
-419.60321
 31
0.0
  0
LINE
  5
E1
  8
SIZE
  6
CONTINUOUS
 10
-165.0
 20
-550.0
 30
0.0
 11
-165.0
 21
-385.04361
 31
0.0
  0
ARC
  5
E2
  8
SIZE
  6
CONTINUOUS
 10
-165.0
 20
-643.0
 30
0.0
 40
237.956401
 50
60.000003
 51
90.0
  0
INSERT
  5
E3
  8
SIZE
  2
DOT
 10
-46.021809
 20
-436.923706
 30
0.0
 50
330.000003
  0
INSERT
  5
E4
  8
SIZE
  2
DOT
 10
-165.0
 20
-405.04361
 30
0.0
 50
180.0
  0
POINT
  5
E5
  8
DEFPOINTS
  6
BYBLOCK
 10
0.0
 20
0.0
 30
0.0
  0
POINT
  5
E6
  8
DEFPOINTS
  6
BYBLOCK
 10
-165.0
 20
-643.0
 30
0.0
  0
POINT
  5
E7
  8
DEFPOINTS
  6
BYBLOCK
 10
-123.823082
 20
-571.679504
 30
0.0
  0
POINT
  5
E8
  8
DEFPOINTS
  6
BYBLOCK
 10
-165.0
 20
-551.0
 30
0.0
  0
POINT
  5
E9
  8
DEFPOINTS
  6
BYBLOCK
 10
-103.412359
 20
-413.151776
 30
0.0
  0
ENDBLK
  5
EA
  8
SIZE
  0
BLOCK
  8
SIZE
  2
*D16
 70
     1
 10
0.0
 20
0.0
 30
0.0
  3
*D16
  1

  0
TEXT
  5
ED
  8
SIZE
  6
CONTINUOUS
 10
713.999976
 20
-689.941772
 30
0.0
 40
2.8
  1
84
 50
90.000005
 41
0.7
  7
STANDARD1
  0
LINE
  5
EE
  8
SIZE
  6
CONTINUOUS
 10
21.0
 20
-646.0
 30
0.0
 11
717.0
 21
-646.0
 31
0.0
  0
LINE
  5
EF
  8
SIZE
  6
CONTINUOUS
 10
316.0
 20
-730.0
 30
0.0
 11
717.0
 21
-730.0
 31
0.0
  0
LINE
  5
F0
  8
SIZE
  6
CONTINUOUS
 10
715.0
 20
-646.0
 30
0.0
 11
715.0
 21
-730.0
 31
0.0
  0
INSERT
  5
F1
  8
SIZE
  2
DOT
 10
715.0
 20
-646.0
 30
0.0
 50
90.0
  0
INSERT
  5
F2
  8
SIZE
  2
DOT
 10
715.0
 20
-730.0
 30
0.0
 50
270.0
  0
POINT
  5
F3
  8
DEFPOINTS
  6
BYBLOCK
 10
315.0
 20
-730.0
 30
0.0
  0
POINT
  5
F4
  8
DEFPOINTS
  6
BYBLOCK
 10
20.0
 20
-646.0
 30
0.0
  0
POINT
  5
F5
  8
DEFPOINTS
  6
BYBLOCK
 10
715.0
 20
-646.0
 30
0.0
  0
ENDBLK
  5
F6
  8
SIZE
  0
BLOCK
  8
SIZE
  2
*D17
 70
     1
 10
0.0
 20
0.0
 30
0.0
  3
*D17
  1

  0
TEXT
  5
F9
  8
SIZE
  6
CONTINUOUS
 10
713.999976
 20
-363.940002
 30
0.0
 40
2.8
  1
570
 50
90.000005
 41
0.7
  7
STANDARD1
  0
LINE
  5
FA
  8
SIZE
  6
CONTINUOUS
 10
316.0
 20
-76.0
 30
0.0
 11
717.0
 21
-76.0
 31
0.0
  0
LINE
  5
FB
  8
SIZE
  6
CONTINUOUS
 10
21.0
 20
-646.0
 30
0.0
 11
717.0
 21
-646.0
 31
0.0
  0
LINE
  5
FC
  8
SIZE
  6
CONTINUOUS
 10
715.0
 20
-76.0
 30
0.0
 11
715.0
 21
-646.0
 31
0.0
  0
INSERT
  5
FD
  8
SIZE
  2
DOT
 10
715.0
 20
-76.0
 30
0.0
 50
90.0
  0
INSERT
  5
FE
  8
SIZE
  2
DOT
 10
715.0
 20
-646.0
 30
0.0
 50
270.0
  0
POINT
  5
FF
  8
DEFPOINTS
  6
BYBLOCK
 10
20.0
 20
-646.0
 30
0.0
  0
POINT
  5
100
  8
DEFPOINTS
  6
BYBLOCK
 10
315.0
 20
-76.0
 30
0.0
  0
POINT
  5
101
  8
DEFPOINTS
  6
BYBLOCK
 10
715.0
 20
-76.0
 30
0.0
  0
ENDBLK
  5
102
  8
SIZE
  0
BLOCK
  8
SIZE
  2
*D18
 70
     1
 10
0.0
 20
0.0
 30
0.0
  3
*D18
  1

  0
TEXT
  5
105
  8
SIZE
  6
CONTINUOUS
 10
613.999976
 20
-381.940002
 30
0.0
 40
2.8
  1
534
 50
90.000005
 41
0.7
  7
STANDARD1
  0
LINE
  5
106
  8
SIZE
  6
CONTINUOUS
 10
21.0
 20
-646.0
 30
0.0
 11
617.0
 21
-646.0
 31
0.0
  0
LINE
  5
107
  8
SIZE
  6
CONTINUOUS
 10
269.0
 20
-112.0
 30
0.0
 11
617.0
 21
-112.0
 31
0.0
  0
LINE
  5
108
  8
SIZE
  6
CONTINUOUS
 10
615.0
 20
-646.0
 30
0.0
 11
615.0
 21
-112.0
 31
0.0
  0
INSERT
  5
109
  8
SIZE
  2
DOT
 10
615.0
 20
-646.0
 30
0.0
 50
270.0
  0
INSERT
  5
10A
  8
SIZE
  2
DOT
 10
615.0
 20
-112.0
 30
0.0
 50
90.0
  0
POINT
  5
10B
  8
DEFPOINTS
  6
BYBLOCK
 10
268.0
 20
-112.0
 30
0.0
  0
POINT
  5
10C
  8
DEFPOINTS
  6
BYBLOCK
 10
20.0
 20
-646.0
 30
0.0
  0
POINT
  5
10D
  8
DEFPOINTS
  6
BYBLOCK
 10
615.0
 20
-646.0
 30
0.0
  0
ENDBLK
  5
10E
  8
SIZE
  0
BLOCK
  8
SIZE
  2
*D19
 70
     1
 10
0.0
 20
0.0
 30
0.0
  3
*D19
  1

  0
TEXT
  5
111
  8
SIZE
  6
CONTINUOUS
 10
613.999976
 20
56.02895
 30
0.0
 40
2.8
  1
112
 50
90.000005
 41
0.7
  7
STANDARD1
  0
LINE
  5
112
  8
SIZE
  6
CONTINUOUS
 10
269.0
 20
-112.0
 30
0.0
 11
617.0
 21
-112.0
 31
0.0
  0
LINE
  5
113
  8
SIZE
  6
CONTINUOUS
 10
316.0
 20
0.0
 30
0.0
 11
617.0
 21
0.0
 31
0.0
  0
LINE
  5
114
  8
SIZE
  6
CONTINUOUS
 10
615.0
 20
-117.0
 30
0.0
 11
615.0
 21
63.308949
 31
0.0
  0
INSERT
  5
115
  8
SIZE
  2
DOT
 10
615.0
 20
-112.0
 30
0.0
 50
270.0
  0
INSERT
  5
116
  8
SIZE
  2
DOT
 10
615.0
 20
0.0
 30
0.0
 50
90.0
  0
POINT
  5
117
  8
DEFPOINTS
  6
BYBLOCK
 10
315.0
 20
0.0
 30
0.0
  0
POINT
  5
118
  8
DEFPOINTS
  6
BYBLOCK
 10
268.0
 20
-112.0
 30
0.0
  0
POINT
  5
119
  8
DEFPOINTS
  6
BYBLOCK
 10
615.0
 20
-112.0
 30
0.0
  0
ENDBLK
  5
11A
  8
SIZE
  0
BLOCK
  8
SIZE
  2
*D20
 70
     1
 10
0.0
 20
0.0
 30
0.0
  3
*D20
  1

  0
TEXT
  5
11D
  8
SIZE
  6
CONTINUOUS
 10
713.999976
 20
-39.959999
 30
0.0
 40
2.8
  1
76
 50
90.000005
 41
0.7
  7
STANDARD1
  0
LINE
  5
11E
  8
SIZE
  6
CONTINUOUS
 10
316.0
 20
-76.0
 30
0.0
 11
717.0
 21
-76.0
 31
0.0
  0
LINE
  5
11F
  8
SIZE
  6
CONTINUOUS
 10
316.0
 20
0.0
 30
0.0
 11
717.0
 21
0.0
 31
0.0
  0
LINE
  5
120
  8
SIZE
  6
CONTINUOUS
 10
715.0
 20
-76.0
 30
0.0
 11
715.0
 21
0.0
 31
0.0
  0
INSERT
  5
121
  8
SIZE
  2
DOT
 10
715.0
 20
-76.0
 30
0.0
 50
270.0
  0
INSERT
  5
122
  8
SIZE
  2
DOT
 10
715.0
 20
0.0
 30
0.0
 50
90.0
  0
POINT
  5
123
  8
DEFPOINTS
  6
BYBLOCK
 10
315.0
 20
0.0
 30
0.0
  0
POINT
  5
124
  8
DEFPOINTS
  6
BYBLOCK
 10
315.0
 20
-76.0
 30
0.0
  0
POINT
  5
125
  8
DEFPOINTS
  6
BYBLOCK
 10
715.0
 20
-76.0
 30
0.0
  0
ENDBLK
  5
126
  8
SIZE
  0
BLOCK
  8
SIZE
  2
*D21
 70
     1
 10
0.0
 20
0.0
 30
0.0
  3
*D21
  1

  0
TEXT
  5
129
  8
SIZE
  6
CONTINUOUS
 10
-516.000024
 20
-697.769287
 30
0.0
 40
2.8
  1
65
 50
90.000005
 41
0.7
  7
STANDARD1
  0
LINE
  5
12A
  8
SIZE
  6
CONTINUOUS
 10
-180.0
 20
-665.0
 30
0.0
 11
-517.0
 21
-665.0
 31
0.0
  0
LINE
  5
12B
  8
SIZE
  6
CONTINUOUS
 10
-316.0
 20
-730.0
 30
0.0
 11
-517.0
 21
-730.0
 31
0.0
  0
LINE
  5
12C
  8
SIZE
  6
CONTINUOUS
 10
-515.0
 20
-665.0
 30
0.0
 11
-515.0
 21
-730.0
 31
0.0
  0
INSERT
  5
12D
  8
SIZE
  2
DOT
 10
-515.0
 20
-665.0
 30
0.0
 50
90.0
  0
INSERT
  5
12E
  8
SIZE
  2
DOT
 10
-515.0
 20
-730.0
 30
0.0
 50
270.0
  0
POINT
  5
12F
  8
DEFPOINTS
  6
BYBLOCK
 10
-315.0
 20
-730.0
 30
0.0
  0
POINT
  5
130
  8
DEFPOINTS
  6
BYBLOCK
 10
-179.0
 20
-665.0
 30
0.0
  0
POINT
  5
131
  8
DEFPOINTS
  6
BYBLOCK
 10
-515.0
 20
-665.0
 30
0.0
  0
ENDBLK
  5
132
  8
SIZE
  0
BLOCK
  8
SIZE
  2
*D22
 70
     1
 10
0.0
 20
0.0
 30
0.0
  3
*D22
  1

  0
TEXT
  5
135
  8
SIZE
  6
CONTINUOUS
 10
-198.460007
 20
-978.999976
 30
0.0
 40
2.8
  1
75
 50
0.000003
 41
0.7
  7
STANDARD1
  0
LINE
  5
136
  8
SIZE
  6
CONTINUOUS
 10
-234.0
 20
-661.0
 30
0.0
 11
-234.0
 21
-982.0
 31
0.0
  0
LINE
  5
137
  8
SIZE
  6
CONTINUOUS
 10
-159.0
 20
-686.0
 30
0.0
 11
-159.0
 21
-982.0
 31
0.0
  0
LINE
  5
138
  8
SIZE
  6
CONTINUOUS
 10
-234.0
 20
-980.0
 30
0.0
 11
-159.0
 21
-980.0
 31
0.0
  0
INSERT
  5
139
  8
SIZE
  2
DOT
 10
-234.0
 20
-980.0
 30
0.0
 50
180.0
  0
INSERT
  5
13A
  8
SIZE
  2
DOT
 10
-159.0
 20
-980.0
 30
0.0
  0
POINT
  5
13B
  8
DEFPOINTS
  6
BYBLOCK
 10
-159.0
 20
-685.0
 30
0.0
  0
POINT
  5
13C
  8
DEFPOINTS
  6
BYBLOCK
 10
-234.0
 20
-660.0
 30
0.0
  0
POINT
  5
13D
  8
DEFPOINTS
  6
BYBLOCK
 10
-234.0
 20
-980.0
 30
0.0
  0
ENDBLK
  5
13E
  8
SIZE
  0
BLOCK
  8
SIZE
  2
*D23
 70
     1
 10
0.0
 20
0.0
 30
0.0
  3
*D23
  1

  0
TEXT
  5
141
  8
SIZE
  6
CONTINUOUS
 10
-277.004333
 20
-978.999976
 30
0.0
 40
2.8
  1
81
 50
0.000003
 41
0.7
  7
STANDARD1
  0
LINE
  5
142
  8
SIZE
  6
CONTINUOUS
 10
-234.0
 20
-661.0
 30
0.0
 11
-234.0
 21
-982.0
 31
0.0
  0
LINE
  5
143
  8
SIZE
  6
CONTINUOUS
 10
-315.0
 20
-980.0
 30
0.0
 11
-234.0
 21
-980.0
 31
0.0
  0
INSERT
  5
144
  8
SIZE
  2
DOT
 10
-315.0
 20
-980.0
 30
0.0
 50
180.0
  0
INSERT
  5
145
  8
SIZE
  2
DOT
 10
-234.0
 20
-980.0
 30
0.0
  0
POINT
  5
146
  8
DEFPOINTS
  6
BYBLOCK
 10
-234.0
 20
-660.0
 30
0.0
  0
POINT
  5
147
  8
DEFPOINTS
  6
BYBLOCK
 10
-315.0
 20
-730.0
 30
0.0
  0
POINT
  5
148
  8
DEFPOINTS
  6
BYBLOCK
 10
-315.0
 20
-980.0
 30
0.0
  0
ENDBLK
  5
149
  8
SIZE
  0
BLOCK
  8
SIZE
  2
*D24
 70
     1
 10
0.0
 20
0.0
 30
0.0
  3
*D24
  1

  0
TEXT
  5
14C
  8
SIZE
  6
CONTINUOUS
 10
613.999976
 20
-698.582214
 30
0.0
 40
2.8
  1
65
 50
90.000005
 41
0.7
  7
STANDARD1
  0
LINE
  5
14D
  8
SIZE
  6
CONTINUOUS
 10
106.0
 20
-665.0
 30
0.0
 11
617.0
 21
-665.0
 31
0.0
  0
LINE
  5
14E
  8
SIZE
  6
CONTINUOUS
 10
316.0
 20
-730.0
 30
0.0
 11
617.0
 21
-730.0
 31
0.0
  0
LINE
  5
14F
  8
SIZE
  6
CONTINUOUS
 10
615.0
 20
-665.0
 30
0.0
 11
615.0
 21
-730.0
 31
0.0
  0
INSERT
  5
150
  8
SIZE
  2
DOT
 10
615.0
 20
-665.0
 30
0.0
 50
90.0
  0
INSERT
  5
151
  8
SIZE
  2
DOT
 10
615.0
 20
-730.0
 30
0.0
 50
270.0
  0
POINT
  5
152
  8
DEFPOINTS
  6
BYBLOCK
 10
315.0
 20
-730.0
 30
0.0
  0
POINT
  5
153
  8
DEFPOINTS
  6
BYBLOCK
 10
105.0
 20
-665.0
 30
0.0
  0
POINT
  5
154
  8
DEFPOINTS
  6
BYBLOCK
 10
615.0
 20
-665.0
 30
0.0
  0
ENDBLK
  5
155
  8
SIZE
  0
BLOCK
  8
SIZE
  2
*D25
 70
     1
 10
0.0
 20
0.0
 30
0.0
  3
*D25
  1

  0
TEXT
  5
158
  8
SIZE
  6
CONTINUOUS
 10
-2.94
 20
101.000002
 30
0.0
 40
2.8
  1
496
 50
0.000003
 41
0.7
  7
STANDARD1
  0
LINE
  5
159
  8
SIZE
  6
CONTINUOUS
 10
-248.0
 20
-91.0
 30
0.0
 11
-248.0
 21
102.0
 31
0.0
  0
LINE
  5
15A
  8
SIZE
  6
CONTINUOUS
 10
248.0
 20
-91.0
 30
0.0
 11
248.0
 21
102.0
 31
0.0
  0
LINE
  5
15B
  8
SIZE
  6
CONTINUOUS
 10
-248.0
 20
100.0
 30
0.0
 11
248.0
 21
100.0
 31
0.0
  0
INSERT
  5
15C
  8
SIZE
  2
DOT
 10
-248.0
 20
100.0
 30
0.0
 50
180.0
  0
INSERT
  5
15D
  8
SIZE
  2
DOT
 10
248.0
 20
100.0
 30
0.0
  0
POINT
  5
15E
  8
DEFPOINTS
  6
BYBLOCK
 10
248.0
 20
-92.0
 30
0.0
  0
POINT
  5
15F
  8
DEFPOINTS
  6
BYBLOCK
 10
-248.0
 20
-92.0
 30
0.0
  0
POINT
  5
160
  8
DEFPOINTS
  6
BYBLOCK
 10
-248.0
 20
100.0
 30
0.0
  0
ENDBLK
  5
161
  8
SIZE
  0
BLOCK
  8
SIZE
  2
*D26
 70
     1
 10
0.0
 20
0.0
 30
0.0
  3
*D26
  1

  0
TEXT
  5
164
  8
SIZE
  6
CONTINUOUS
 10
246.039993
 20
200.999994
 30
0.0
 40
2.8
  1
94
 50
0.000003
 41
0.7
  7
STANDARD1
  0
LINE
  5
165
  8
SIZE
  6
CONTINUOUS
 10
201.0
 20
-55.0
 30
0.0
 11
201.0
 21
202.0
 31
0.0
  0
LINE
  5
166
  8
SIZE
  6
CONTINUOUS
 10
295.0
 20
-55.0
 30
0.0
 11
295.0
 21
202.0
 31
0.0
  0
LINE
  5
167
  8
SIZE
  6
CONTINUOUS
 10
201.0
 20
200.0
 30
0.0
 11
295.0
 21
200.0
 31
0.0
  0
INSERT
  5
168
  8
SIZE
  2
DOT
 10
201.0
 20
200.0
 30
0.0
 50
180.0
  0
INSERT
  5
169
  8
SIZE
  2
DOT
 10
295.0
 20
200.0
 30
0.0
  0
POINT
  5
16A
  8
DEFPOINTS
  6
BYBLOCK
 10
295.0
 20
-56.0
 30
0.0
  0
POINT
  5
16B
  8
DEFPOINTS
  6
BYBLOCK
 10
201.0
 20
-56.0
 30
0.0
  0
POINT
  5
16C
  8
DEFPOINTS
  6
BYBLOCK
 10
201.0
 20
200.0
 30
0.0
  0
ENDBLK
  5
16D
  8
SIZE
  0
BLOCK
  8
SIZE
  2
*D27
 70
     1
 10
0.0
 20
0.0
 30
0.0
  3
*D27
  1

  0
TEXT
  5
170
  8
SIZE
  6
CONTINUOUS
 10
-2.148282
 20
200.999994
 30
0.0
 40
2.8
  1
402
 50
0.000003
 41
0.7
  7
STANDARD1
  0
LINE
  5
171
  8
SIZE
  6
CONTINUOUS
 10
-201.0
 20
-55.0
 30
0.0
 11
-201.0
 21
202.0
 31
0.0
  0
LINE
  5
172
  8
SIZE
  6
CONTINUOUS
 10
201.0
 20
-55.0
 30
0.0
 11
201.0
 21
202.0
 31
0.0
  0
LINE
  5
173
  8
SIZE
  6
CONTINUOUS
 10
-201.0
 20
200.0
 30
0.0
 11
201.0
 21
200.0
 31
0.0
  0
INSERT
  5
174
  8
SIZE
  2
DOT
 10
-201.0
 20
200.0
 30
0.0
 50
180.0
  0
INSERT
  5
175
  8
SIZE
  2
DOT
 10
201.0
 20
200.0
 30
0.0
  0
POINT
  5
176
  8
DEFPOINTS
  6
BYBLOCK
 10
201.0
 20
-56.0
 30
0.0
  0
POINT
  5
177
  8
DEFPOINTS
  6
BYBLOCK
 10
-201.0
 20
-56.0
 30
0.0
  0
POINT
  5
178
  8
DEFPOINTS
  6
BYBLOCK
 10
-201.0
 20
200.0
 30
0.0
  0
ENDBLK
  5
179
  8
SIZE
  0
BLOCK
  8
SIZE
  2
*D28
 70
     1
 10
0.0
 20
0.0
 30
0.0
  3
*D28
  1

  0
TEXT
  5
17C
  8
SIZE
  6
CONTINUOUS
 10
-249.960007
 20
200.999994
 30
0.0
 40
2.8
  1
94
 50
0.000003
 41
0.7
  7
STANDARD1
  0
LINE
  5
17D
  8
SIZE
  6
CONTINUOUS
 10
-295.0
 20
-55.0
 30
0.0
 11
-295.0
 21
202.0
 31
0.0
  0
LINE
  5
17E
  8
SIZE
  6
CONTINUOUS
 10
-201.0
 20
-55.0
 30
0.0
 11
-201.0
 21
202.0
 31
0.0
  0
LINE
  5
17F
  8
SIZE
  6
CONTINUOUS
 10
-295.0
 20
200.0
 30
0.0
 11
-201.0
 21
200.0
 31
0.0
  0
INSERT
  5
180
  8
SIZE
  2
DOT
 10
-295.0
 20
200.0
 30
0.0
 50
180.0
  0
INSERT
  5
181
  8
SIZE
  2
DOT
 10
-201.0
 20
200.0
 30
0.0
  0
POINT
  5
182
  8
DEFPOINTS
  6
BYBLOCK
 10
-201.0
 20
-56.0
 30
0.0
  0
POINT
  5
183
  8
DEFPOINTS
  6
BYBLOCK
 10
-295.0
 20
-56.0
 30
0.0
  0
POINT
  5
184
  8
DEFPOINTS
  6
BYBLOCK
 10
-295.0
 20
200.0
 30
0.0
  0
ENDBLK
  5
185
  8
SIZE
  0
BLOCK
  8
SIZE
  2
*D29
 70
     1
 10
0.0
 20
0.0
 30
0.0
  3
*D29
  1

  0
TEXT
  5
188
  8
SIZE
  6
CONTINUOUS
 10
813.999976
 20
-1032.939941
 30
0.0
 40
2.8
  1
600
 50
90.000005
 41
0.7
  7
STANDARD1
  0
LINE
  5
189
  8
SIZE
  6
CONTINUOUS
 10
316.0
 20
-730.0
 30
0.0
 11
817.0
 21
-730.0
 31
0.0
  0
LINE
  5
18A
  8
SIZE
  6
CONTINUOUS
 10
316.0
 20
-1330.0
 30
0.0
 11
817.0
 21
-1330.0
 31
0.0
  0
LINE
  5
18B
  8
SIZE
  6
CONTINUOUS
 10
815.0
 20
-730.0
 30
0.0
 11
815.0
 21
-1330.0
 31
0.0
  0
INSERT
  5
18C
  8
SIZE
  2
DOT
 10
815.0
 20
-730.0
 30
0.0
 50
90.0
  0
INSERT
  5
18D
  8
SIZE
  2
DOT
 10
815.0
 20
-1330.0
 30
0.0
 50
270.0
  0
POINT
  5
18E
  8
DEFPOINTS
  6
BYBLOCK
 10
315.0
 20
-1330.0
 30
0.0
  0
POINT
  5
18F
  8
DEFPOINTS
  6
BYBLOCK
 10
315.0
 20
-730.0
 30
0.0
  0
POINT
  5
190
  8
DEFPOINTS
  6
BYBLOCK
 10
815.0
 20
-730.0
 30
0.0
  0
ENDBLK
  5
191
  8
SIZE
  0
BLOCK
  8
SIZE
  2
*D30
 70
     1
 10
0.0
 20
0.0
 30
0.0
  3
*D30
  1

  0
TEXT
  5
194
  8
SIZE
  6
CONTINUOUS
 10
-2.94
 20
-1478.999976
 30
0.0
 40
2.8
  1
630
 50
0.000003
 41
0.7
  7
STANDARD1
  0
LINE
  5
195
  8
SIZE
  6
CONTINUOUS
 10
-315.0
 20
-1331.0
 30
0.0
 11
-315.0
 21
-1482.0
 31
0.0
  0
LINE
  5
196
  8
SIZE
  6
CONTINUOUS
 10
315.0
 20
-1331.0
 30
0.0
 11
315.0
 21
-1482.0
 31
0.0
  0
LINE
  5
197
  8
SIZE
  6
CONTINUOUS
 10
-315.0
 20
-1480.0
 30
0.0
 11
315.0
 21
-1480.0
 31
0.0
  0
INSERT
  5
198
  8
SIZE
  2
DOT
 10
-315.0
 20
-1480.0
 30
0.0
 50
180.0
  0
INSERT
  5
199
  8
SIZE
  2
DOT
 10
315.0
 20
-1480.0
 30
0.0
  0
POINT
  5
19A
  8
DEFPOINTS
  6
BYBLOCK
 10
315.0
 20
-1330.0
 30
0.0
  0
POINT
  5
19B
  8
DEFPOINTS
  6
BYBLOCK
 10
-315.0
 20
-1330.0
 30
0.0
  0
POINT
  5
19C
  8
DEFPOINTS
  6
BYBLOCK
 10
-315.0
 20
-1480.0
 30
0.0
  0
ENDBLK
  5
19D
  8
SIZE
  0
BLOCK
  8
SIZE
  2
*D31
 70
     1
 10
0.0
 20
0.0
 30
0.0
  3
*D31
  1

  0
TEXT
  5
1A0
  8
SIZE
  6
CONTINUOUS
 10
-30.400673
 20
300.999994
 30
0.0
 40
2.8
  1
630
 50
0.000003
 41
0.714286
  7
STANDARD1
  0
LINE
  5
1A1
  8
SIZE
  6
CONTINUOUS
 10
315.0
 20
1.0
 30
0.0
 11
315.0
 21
302.0
 31
0.0
  0
LINE
  5
1A2
  8
SIZE
  6
CONTINUOUS
 10
-315.0
 20
1.0
 30
0.0
 11
-315.0
 21
302.0
 31
0.0
  0
LINE
  5
1A3
  8
SIZE
  6
CONTINUOUS
 10
315.0
 20
300.0
 30
0.0
 11
-315.0
 21
300.0
 31
0.0
  0
INSERT
  5
1A4
  8
SIZE
  2
DOT
 10
315.0
 20
300.0
 30
0.0
  0
INSERT
  5
1A5
  8
SIZE
  2
DOT
 10
-315.0
 20
300.0
 30
0.0
 50
180.0
  0
POINT
  5
1A6
  8
DEFPOINTS
  6
BYBLOCK
 10
-315.0
 20
0.0
 30
0.0
  0
POINT
  5
1A7
  8
DEFPOINTS
  6
BYBLOCK
 10
315.0
 20
0.0
 30
0.0
  0
POINT
  5
1A8
  8
DEFPOINTS
  6
BYBLOCK
 10
315.0
 20
300.0
 30
0.0
  0
ENDBLK
  5
1A9
  8
SIZE
  0
BLOCK
  8
SIZE
  2
*D32
 70
     1
 10
0.0
 20
0.0
 30
0.0
  3
*D32
  1

  0
TEXT
  5
1AC
  8
SIZE
  6
CONTINUOUS
 10
813.999976
 20
-362.800506
 30
0.0
 40
2.8
  1
730
 50
90.000005
 41
0.714286
  7
STANDARD1
  0
LINE
  5
1AD
  8
SIZE
  6
CONTINUOUS
 10
316.0
 20
-730.0
 30
0.0
 11
817.0
 21
-730.0
 31
0.0
  0
LINE
  5
1AE
  8
SIZE
  6
CONTINUOUS
 10
316.0
 20
0.0
 30
0.0
 11
817.0
 21
0.0
 31
0.0
  0
LINE
  5
1AF
  8
SIZE
  6
CONTINUOUS
 10
815.0
 20
-730.0
 30
0.0
 11
815.0
 21
0.0
 31
0.0
  0
INSERT
  5
1B0
  8
SIZE
  2
DOT
 10
815.0
 20
-730.0
 30
0.0
 50
270.0
  0
INSERT
  5
1B1
  8
SIZE
  2
DOT
 10
815.0
 20
0.0
 30
0.0
 50
90.0
  0
POINT
  5
1B2
  8
DEFPOINTS
  6
BYBLOCK
 10
315.0
 20
0.0
 30
0.0
  0
POINT
  5
1B3
  8
DEFPOINTS
  6
BYBLOCK
 10
315.0
 20
-730.0
 30
0.0
  0
POINT
  5
1B4
  8
DEFPOINTS
  6
BYBLOCK
 10
815.0
 20
-730.0
 30
0.0
  0
ENDBLK
  5
1B5
  8
SIZE
  0
BLOCK
  8
SIZE
  2
*D33
 70
     1
 10
0.0
 20
0.0
 30
0.0
  3
*D33
  1

  0
TEXT
  5
1B8
  8
SIZE
  6
CONTINUOUS
 10
156.340256
 20
-978.999976
 30
0.0
 40
2.8
  1
142
 50
0.000003
 41
0.7
  7
STANDARD1
  0
LINE
  5
1B9
  8
SIZE
  6
CONTINUOUS
 10
227.0
 20
-664.0
 30
0.0
 11
227.0
 21
-982.0
 31
0.0
  0
LINE
  5
1BA
  8
SIZE
  6
CONTINUOUS
 10
85.0
 20
-686.0
 30
0.0
 11
85.0
 21
-982.0
 31
0.0
  0
LINE
  5
1BB
  8
SIZE
  6
CONTINUOUS
 10
227.0
 20
-980.0
 30
0.0
 11
85.0
 21
-980.0
 31
0.0
  0
INSERT
  5
1BC
  8
SIZE
  2
DOT
 10
227.0
 20
-980.0
 30
0.0
  0
INSERT
  5
1BD
  8
SIZE
  2
DOT
 10
85.0
 20
-980.0
 30
0.0
 50
180.0
  0
POINT
  5
1BE
  8
DEFPOINTS
  6
BYBLOCK
 10
85.0
 20
-685.0
 30
0.0
  0
POINT
  5
1BF
  8
DEFPOINTS
  6
BYBLOCK
 10
227.0
 20
-663.0
 30
0.0
  0
POINT
  5
1C0
  8
DEFPOINTS
  6
BYBLOCK
 10
227.0
 20
-980.0
 30
0.0
  0
ENDBLK
  5
1C1
  8
SIZE
  0
BLOCK
  8
SIZE
  2
*D34
 70
     1
 10
0.0
 20
0.0
 30
0.0
  3
*D34
  1

  0
TEXT
  5
1C4
  8
SIZE
  6
CONTINUOUS
 10
414.000006
 20
-696.139831
 30
0.0
 40
2.8
  1
87
 50
90.000005
 41
0.7
  7
STANDARD1
  0
LINE
  5
1C5
  8
SIZE
  6
CONTINUOUS
 10
248.0
 20
-643.0
 30
0.0
 11
417.0
 21
-643.0
 31
0.0
  0
LINE
  5
1C6
  8
SIZE
  6
CONTINUOUS
 10
316.0
 20
-730.0
 30
0.0
 11
417.0
 21
-730.0
 31
0.0
  0
LINE
  5
1C7
  8
SIZE
  6
CONTINUOUS
 10
415.0
 20
-643.0
 30
0.0
 11
415.0
 21
-730.0
 31
0.0
  0
INSERT
  5
1C8
  8
SIZE
  2
DOT
 10
415.0
 20
-643.0
 30
0.0
 50
90.0
  0
INSERT
  5
1C9
  8
SIZE
  2
DOT
 10
415.0
 20
-730.0
 30
0.0
 50
270.0
  0
POINT
  5
1CA
  8
DEFPOINTS
  6
BYBLOCK
 10
315.0
 20
-730.0
 30
0.0
  0
POINT
  5
1CB
  8
DEFPOINTS
  6
BYBLOCK
 10
247.0
 20
-643.0
 30
0.0
  0
POINT
  5
1CC
  8
DEFPOINTS
  6
BYBLOCK
 10
415.0
 20
-643.0
 30
0.0
  0
ENDBLK
  5
1CD
  8
SIZE
  0
BLOCK
  8
0
  2
_ORIGIN
 70
     0
 10
0.0
 20
0.0
 30
0.0
  3
_ORIGIN
  1

  0
CIRCLE
  5
1D0
  8
0
  6
BYBLOCK
 62
     0
 10
0.0
 20
0.0
 30
0.0
 40
0.5
  0
LINE
  5
1D1
  8
0
  6
BYBLOCK
 62
     0
 10
0.0
 20
0.0
 30
0.0
 11
-1.0
 21
0.0
 31
0.0
  0
ENDBLK
  5
1D2
  8
0
  0
BLOCK
  8
0
  2
*D36
 70
     1
 10
0.0
 20
0.0
 30
0.0
  3
*D36
  1

  0
LINE
  5
1D5
  8
0
  6
BYBLOCK
 62
     0
 10
325.0
 20
-730.0
 30
0.0
 11
425.1
 21
-730.0
 31
0.0
  0
LINE
  5
1D6
  8
0
  6
BYBLOCK
 62
     0
 10
257.0
 20
-643.0
 30
0.0
 11
425.1
 21
-643.0
 31
0.0
  0
LINE
  5
1D7
  8
0
  6
BYBLOCK
 62
     0
 10
412.6
 20
-720.0
 30
0.0
 11
412.6
 21
-653.0
 31
0.0
  0
INSERT
  5
1D8
  8
0
  6
BYBLOCK
 62
     0
  2
_ORIGIN
 10
412.6
 20
-730.0
 30
0.0
 41
10.0
 42
10.0
 43
10.0
 50
270.0
  0
INSERT
  5
1D9
  8
0
  6
BYBLOCK
 62
     0
  2
_ORIGIN
 10
412.6
 20
-643.0
 30
0.0
 41
10.0
 42
10.0
 43
10.0
 50
90.0
  0
TEXT
  5
1DA
  8
0
  6
BYBLOCK
 62
     0
 10
402.6
 20
-719.17981
 30
0.0
 40
30.0
  1
87
 50
90.0
 72
     1
 11
402.6
 21
-694.17981
 31
0.0
  0
POINT
  5
1DB
  8
DEFPOINTS
  6
BYBLOCK
 62
     0
 10
315.0
 20
-730.0
 30
0.0
  0
POINT
  5
1DC
  8
DEFPOINTS
  6
BYBLOCK
 62
     0
 10
247.0
 20
-643.0
 30
0.0
  0
POINT
  5
1DD
  8
DEFPOINTS
  6
BYBLOCK
 62
     0
 10
412.6
 20
-643.0
 30
0.0
  0
ENDBLK
  5
1DE
  8
0
  0
BLOCK
  8
0
  2
*D37
 70
     1
 10
0.0
 20
0.0
 30
0.0
  3
*D37
  1

  0
LINE
  5
1E1
  8
0
  6
BYBLOCK
 62
     0
 10
85.0
 20
-695.0
 30
0.0
 11
85.0
 21
-990.1
 31
0.0
  0
LINE
  5
1E2
  8
0
  6
BYBLOCK
 62
     0
 10
227.0
 20
-673.0
 30
0.0
 11
227.0
 21
-990.1
 31
0.0
  0
LINE
  5
1E3
  8
0
  6
BYBLOCK
 62
     0
 10
95.0
 20
-977.6
 30
0.0
 11
217.0
 21
-977.6
 31
0.0
  0
INSERT
  5
1E4
  8
0
  6
BYBLOCK
 62
     0
  2
_ORIGIN
 10
85.0
 20
-977.6
 30
0.0
 41
10.0
 42
10.0
 43
10.0
 50
180.0
  0
INSERT
  5
1E5
  8
0
  6
BYBLOCK
 62
     0
  2
_ORIGIN
 10
227.0
 20
-977.6
 30
0.0
 41
10.0
 42
10.0
 43
10.0
  0
TEXT
  5
1E6
  8
0
  6
BYBLOCK
 62
     0
 10
124.280258
 20
-967.6
 30
0.0
 40
30.0
  1
142
 72
     1
 11
159.280258
 21
-967.6
 31
0.0
  0
POINT
  5
1E7
  8
DEFPOINTS
  6
BYBLOCK
 62
     0
 10
85.0
 20
-685.0
 30
0.0
  0
POINT
  5
1E8
  8
DEFPOINTS
  6
BYBLOCK
 62
     0
 10
227.0
 20
-663.0
 30
0.0
  0
POINT
  5
1E9
  8
DEFPOINTS
  6
BYBLOCK
 62
     0
 10
227.0
 20
-977.6
 30
0.0
  0
ENDBLK
  5
1EA
  8
0
  0
BLOCK
  8
0
  2
*D38
 70
     1
 10
0.0
 20
0.0
 30
0.0
  3
*D38
  1

  0
LINE
  5
1ED
  8
0
  6
BYBLOCK
 62
     0
 10
325.0
 20
0.0
 30
0.0
 11
825.1
 21
0.0
 31
0.0
  0
LINE
  5
1EE
  8
0
  6
BYBLOCK
 62
     0
 10
325.0
 20
-730.0
 30
0.0
 11
825.1
 21
-730.0
 31
0.0
  0
LINE
  5
1EF
  8
0
  6
BYBLOCK
 62
     0
 10
812.6
 20
-10.0
 30
0.0
 11
812.6
 21
-720.0
 31
0.0
  0
INSERT
  5
1F0
  8
0
  6
BYBLOCK
 62
     0
  2
_ORIGIN
 10
812.6
 20
0.0
 30
0.0
 41
10.0
 42
10.0
 43
10.0
 50
90.0
  0
INSERT
  5
1F1
  8
0
  6
BYBLOCK
 62
     0
  2
_ORIGIN
 10
812.6
 20
-730.0
 30
0.0
 41
10.0
 42
10.0
 43
10.0
 50
270.0
  0
TEXT
  5
1F2
  8
0
  6
BYBLOCK
 62
     0
 10
802.6
 20
-397.300507
 30
0.0
 40
30.0
  1
730
 50
90.0
 72
     1
 11
802.6
 21
-359.800507
 31
0.0
  0
POINT
  5
1F3
  8
DEFPOINTS
  6
BYBLOCK
 62
     0
 10
315.0
 20
0.0
 30
0.0
  0
POINT
  5
1F4
  8
DEFPOINTS
  6
BYBLOCK
 62
     0
 10
315.0
 20
-730.0
 30
0.0
  0
POINT
  5
1F5
  8
DEFPOINTS
  6
BYBLOCK
 62
     0
 10
812.6
 20
-730.0
 30
0.0
  0
ENDBLK
  5
1F6
  8
0
  0
BLOCK
  8
0
  2
*D39
 70
     1
 10
0.0
 20
0.0
 30
0.0
  3
*D39
  1

  0
LINE
  5
1F9
  8
0
  6
BYBLOCK
 62
     0
 10
-315.0
 20
10.0
 30
0.0
 11
-315.0
 21
314.9
 31
0.0
  0
LINE
  5
1FA
  8
0
  6
BYBLOCK
 62
     0
 10
315.0
 20
10.0
 30
0.0
 11
315.0
 21
314.9
 31
0.0
  0
LINE
  5
1FB
  8
0
  6
BYBLOCK
 62
     0
 10
-305.0
 20
302.4
 30
0.0
 11
305.0
 21
302.4
 31
0.0
  0
INSERT
  5
1FC
  8
0
  6
BYBLOCK
 62
     0
  2
_ORIGIN
 10
-315.0
 20
302.4
 30
0.0
 41
10.0
 42
10.0
 43
10.0
 50
180.0
  0
INSERT
  5
1FD
  8
0
  6
BYBLOCK
 62
     0
  2
_ORIGIN
 10
315.0
 20
302.4
 30
0.0
 41
10.0
 42
10.0
 43
10.0
  0
TEXT
  5
1FE
  8
0
  6
BYBLOCK
 62
     0
 10
-64.900673
 20
312.4
 30
0.0
 40
30.0
  1
630
 72
     1
 11
-27.400673
 21
312.4
 31
0.0
  0
POINT
  5
1FF
  8
DEFPOINTS
  6
BYBLOCK
 62
     0
 10
-315.0
 20
0.0
 30
0.0
  0
POINT
  5
200
  8
DEFPOINTS
  6
BYBLOCK
 62
     0
 10
315.0
 20
0.0
 30
0.0
  0
POINT
  5
201
  8
DEFPOINTS
  6
BYBLOCK
 62
     0
 10
315.0
 20
302.4
 30
0.0
  0
ENDBLK
  5
202
  8
0
  0
BLOCK
  8
0
  2
*D40
 70
     1
 10
0.0
 20
0.0
 30
0.0
  3
*D40
  1

  0
LINE
  5
205
  8
0
  6
BYBLOCK
 62
     0
 10
315.0
 20
-1340.0
 30
0.0
 11
315.0
 21
-1490.1
 31
0.0
  0
LINE
  5
206
  8
0
  6
BYBLOCK
 62
     0
 10
-315.0
 20
-1340.0
 30
0.0
 11
-315.0
 21
-1490.1
 31
0.0
  0
LINE
  5
207
  8
0
  6
BYBLOCK
 62
     0
 10
305.0
 20
-1477.6
 30
0.0
 11
-305.0
 21
-1477.6
 31
0.0
  0
INSERT
  5
208
  8
0
  6
BYBLOCK
 62
     0
  2
_ORIGIN
 10
315.0
 20
-1477.6
 30
0.0
 41
10.0
 42
10.0
 43
10.0
  0
INSERT
  5
209
  8
0
  6
BYBLOCK
 62
     0
  2
_ORIGIN
 10
-315.0
 20
-1477.6
 30
0.0
 41
10.0
 42
10.0
 43
10.0
 50
180.0
  0
TEXT
  5
20A
  8
0
  6
BYBLOCK
 62
     0
 10
-37.5
 20
-1467.6
 30
0.0
 40
30.0
  1
630
 72
     1
 11
0.0
 21
-1467.6
 31
0.0
  0
POINT
  5
20B
  8
DEFPOINTS
  6
BYBLOCK
 62
     0
 10
315.0
 20
-1330.0
 30
0.0
  0
POINT
  5
20C
  8
DEFPOINTS
  6
BYBLOCK
 62
     0
 10
-315.0
 20
-1330.0
 30
0.0
  0
POINT
  5
20D
  8
DEFPOINTS
  6
BYBLOCK
 62
     0
 10
-315.0
 20
-1477.6
 30
0.0
  0
ENDBLK
  5
20E
  8
0
  0
BLOCK
  8
0
  2
*D41
 70
     1
 10
0.0
 20
0.0
 30
0.0
  3
*D41
  1

  0
LINE
  5
211
  8
0
  6
BYBLOCK
 62
     0
 10
325.0
 20
-1330.0
 30
0.0
 11
825.1
 21
-1330.0
 31
0.0
  0
LINE
  5
212
  8
0
  6
BYBLOCK
 62
     0
 10
325.0
 20
-730.0
 30
0.0
 11
825.1
 21
-730.0
 31
0.0
  0
LINE
  5
213
  8
0
  6
BYBLOCK
 62
     0
 10
812.6
 20
-1320.0
 30
0.0
 11
812.6
 21
-740.0
 31
0.0
  0
INSERT
  5
214
  8
0
  6
BYBLOCK
 62
     0
  2
_ORIGIN
 10
812.6
 20
-1330.0
 30
0.0
 41
10.0
 42
10.0
 43
10.0
 50
270.0
  0
INSERT
  5
215
  8
0
  6
BYBLOCK
 62
     0
  2
_ORIGIN
 10
812.6
 20
-730.0
 30
0.0
 41
10.0
 42
10.0
 43
10.0
 50
90.0
  0
TEXT
  5
216
  8
0
  6
BYBLOCK
 62
     0
 10
802.6
 20
-1065.0
 30
0.0
 40
30.0
  1
600
 50
90.0
 72
     1
 11
802.6
 21
-1030.0
 31
0.0
  0
POINT
  5
217
  8
DEFPOINTS
  6
BYBLOCK
 62
     0
 10
315.0
 20
-1330.0
 30
0.0
  0
POINT
  5
218
  8
DEFPOINTS
  6
BYBLOCK
 62
     0
 10
315.0
 20
-730.0
 30
0.0
  0
POINT
  5
219
  8
DEFPOINTS
  6
BYBLOCK
 62
     0
 10
812.6
 20
-730.0
 30
0.0
  0
ENDBLK
  5
21A
  8
0
  0
BLOCK
  8
0
  2
*D42
 70
     1
 10
0.0
 20
0.0
 30
0.0
  3
*D42
  1

  0
LINE
  5
21D
  8
0
  6
BYBLOCK
 62
     0
 10
-201.0
 20
-46.0
 30
0.0
 11
-201.0
 21
214.9
 31
0.0
  0
LINE
  5
21E
  8
0
  6
BYBLOCK
 62
     0
 10
-295.0
 20
-46.0
 30
0.0
 11
-295.0
 21
214.9
 31
0.0
  0
LINE
  5
21F
  8
0
  6
BYBLOCK
 62
     0
 10
-211.0
 20
202.4
 30
0.0
 11
-285.0
 21
202.4
 31
0.0
  0
INSERT
  5
220
  8
0
  6
BYBLOCK
 62
     0
  2
_ORIGIN
 10
-201.0
 20
202.4
 30
0.0
 41
10.0
 42
10.0
 43
10.0
  0
INSERT
  5
221
  8
0
  6
BYBLOCK
 62
     0
  2
_ORIGIN
 10
-295.0
 20
202.4
 30
0.0
 41
10.0
 42
10.0
 43
10.0
 50
180.0
  0
TEXT
  5
222
  8
0
  6
BYBLOCK
 62
     0
 10
-273.0
 20
212.4
 30
0.0
 40
30.0
  1
94
 72
     1
 11
-248.0
 21
212.4
 31
0.0
  0
POINT
  5
223
  8
DEFPOINTS
  6
BYBLOCK
 62
     0
 10
-201.0
 20
-56.0
 30
0.0
  0
POINT
  5
224
  8
DEFPOINTS
  6
BYBLOCK
 62
     0
 10
-295.0
 20
-56.0
 30
0.0
  0
POINT
  5
225
  8
DEFPOINTS
  6
BYBLOCK
 62
     0
 10
-295.0
 20
202.4
 30
0.0
  0
ENDBLK
  5
226
  8
0
  0
BLOCK
  8
0
  2
*D43
 70
     1
 10
0.0
 20
0.0
 30
0.0
  3
*D43
  1

  0
LINE
  5
229
  8
0
  6
BYBLOCK
 62
     0
 10
201.0
 20
-46.0
 30
0.0
 11
201.0
 21
214.9
 31
0.0
  0
LINE
  5
22A
  8
0
  6
BYBLOCK
 62
     0
 10
-201.0
 20
-46.0
 30
0.0
 11
-201.0
 21
214.9
 31
0.0
  0
LINE
  5
22B
  8
0
  6
BYBLOCK
 62
     0
 10
191.0
 20
202.4
 30
0.0
 11
-191.0
 21
202.4
 31
0.0
  0
INSERT
  5
22C
  8
0
  6
BYBLOCK
 62
     0
  2
_ORIGIN
 10
201.0
 20
202.4
 30
0.0
 41
10.0
 42
10.0
 43
10.0
  0
INSERT
  5
22D
  8
0
  6
BYBLOCK
 62
     0
  2
_ORIGIN
 10
-201.0
 20
202.4
 30
0.0
 41
10.0
 42
10.0
 43
10.0
 50
180.0
  0
TEXT
  5
22E
  8
0
  6
BYBLOCK
 62
     0
 10
-36.708283
 20
212.4
 30
0.0
 40
30.0
  1
402
 72
     1
 11
0.791717
 21
212.4
 31
0.0
  0
POINT
  5
22F
  8
DEFPOINTS
  6
BYBLOCK
 62
     0
 10
201.0
 20
-56.0
 30
0.0
  0
POINT
  5
230
  8
DEFPOINTS
  6
BYBLOCK
 62
     0
 10
-201.0
 20
-56.0
 30
0.0
  0
POINT
  5
231
  8
DEFPOINTS
  6
BYBLOCK
 62
     0
 10
-201.0
 20
202.4
 30
0.0
  0
ENDBLK
  5
232
  8
0
  0
BLOCK
  8
0
  2
*D44
 70
     1
 10
0.0
 20
0.0
 30
0.0
  3
*D44
  1

  0
LINE
  5
235
  8
0
  6
BYBLOCK
 62
     0
 10
295.0
 20
-46.0
 30
0.0
 11
295.0
 21
214.9
 31
0.0
  0
LINE
  5
236
  8
0
  6
BYBLOCK
 62
     0
 10
201.0
 20
-46.0
 30
0.0
 11
201.0
 21
214.9
 31
0.0
  0
LINE
  5
237
  8
0
  6
BYBLOCK
 62
     0
 10
285.0
 20
202.4
 30
0.0
 11
211.0
 21
202.4
 31
0.0
  0
INSERT
  5
238
  8
0
  6
BYBLOCK
 62
     0
  2
_ORIGIN
 10
295.0
 20
202.4
 30
0.0
 41
10.0
 42
10.0
 43
10.0
  0
INSERT
  5
239
  8
0
  6
BYBLOCK
 62
     0
  2
_ORIGIN
 10
201.0
 20
202.4
 30
0.0
 41
10.0
 42
10.0
 43
10.0
 50
180.0
  0
TEXT
  5
23A
  8
0
  6
BYBLOCK
 62
     0
 10
223.0
 20
212.4
 30
0.0
 40
30.0
  1
94
 72
     1
 11
248.0
 21
212.4
 31
0.0
  0
POINT
  5
23B
  8
DEFPOINTS
  6
BYBLOCK
 62
     0
 10
295.0
 20
-56.0
 30
0.0
  0
POINT
  5
23C
  8
DEFPOINTS
  6
BYBLOCK
 62
     0
 10
201.0
 20
-56.0
 30
0.0
  0
POINT
  5
23D
  8
DEFPOINTS
  6
BYBLOCK
 62
     0
 10
201.0
 20
202.4
 30
0.0
  0
ENDBLK
  5
23E
  8
0
  0
BLOCK
  8
0
  2
*D45
 70
     1
 10
0.0
 20
0.0
 30
0.0
  3
*D45
  1

  0
LINE
  5
241
  8
0
  6
BYBLOCK
 62
     0
 10
248.0
 20
-82.0
 30
0.0
 11
248.0
 21
114.9
 31
0.0
  0
LINE
  5
242
  8
0
  6
BYBLOCK
 62
     0
 10
-248.0
 20
-82.0
 30
0.0
 11
-248.0
 21
114.9
 31
0.0
  0
LINE
  5
243
  8
0
  6
BYBLOCK
 62
     0
 10
238.0
 20
102.4
 30
0.0
 11
-238.0
 21
102.4
 31
0.0
  0
INSERT
  5
244
  8
0
  6
BYBLOCK
 62
     0
  2
_ORIGIN
 10
248.0
 20
102.4
 30
0.0
 41
10.0
 42
10.0
 43
10.0
  0
INSERT
  5
245
  8
0
  6
BYBLOCK
 62
     0
  2
_ORIGIN
 10
-248.0
 20
102.4
 30
0.0
 41
10.0
 42
10.0
 43
10.0
 50
180.0
  0
TEXT
  5
246
  8
0
  6
BYBLOCK
 62
     0
 10
-40.0
 20
112.4
 30
0.0
 40
30.0
  1
496
 72
     1
 11
0.0
 21
112.4
 31
0.0
  0
POINT
  5
247
  8
DEFPOINTS
  6
BYBLOCK
 62
     0
 10
248.0
 20
-92.0
 30
0.0
  0
POINT
  5
248
  8
DEFPOINTS
  6
BYBLOCK
 62
     0
 10
-248.0
 20
-92.0
 30
0.0
  0
POINT
  5
249
  8
DEFPOINTS
  6
BYBLOCK
 62
     0
 10
-248.0
 20
102.4
 30
0.0
  0
ENDBLK
  5
24A
  8
0
  0
BLOCK
  8
0
  2
*D46
 70
     1
 10
0.0
 20
0.0
 30
0.0
  3
*D46
  1

  0
LINE
  5
24D
  8
0
  6
BYBLOCK
 62
     0
 10
325.0
 20
-730.0
 30
0.0
 11
625.1
 21
-730.0
 31
0.0
  0
LINE
  5
24E
  8
0
  6
BYBLOCK
 62
     0
 10
115.0
 20
-665.0
 30
0.0
 11
625.1
 21
-665.0
 31
0.0
  0
LINE
  5
24F
  8
0
  6
BYBLOCK
 62
     0
 10
612.6
 20
-720.0
 30
0.0
 11
612.6
 21
-675.0
 31
0.0
  0
INSERT
  5
250
  8
0
  6
BYBLOCK
 62
     0
  2
_ORIGIN
 10
612.6
 20
-730.0
 30
0.0
 41
10.0
 42
10.0
 43
10.0
 50
270.0
  0
INSERT
  5
251
  8
0
  6
BYBLOCK
 62
     0
  2
_ORIGIN
 10
612.6
 20
-665.0
 30
0.0
 41
10.0
 42
10.0
 43
10.0
 50
90.0
  0
TEXT
  5
252
  8
0
  6
BYBLOCK
 62
     0
 10
602.6
 20
-722.5
 30
0.0
 40
30.0
  1
65
 50
90.0
 72
     1
 11
602.6
 21
-697.5
 31
0.0
  0
POINT
  5
253
  8
DEFPOINTS
  6
BYBLOCK
 62
     0
 10
315.0
 20
-730.0
 30
0.0
  0
POINT
  5
254
  8
DEFPOINTS
  6
BYBLOCK
 62
     0
 10
105.0
 20
-665.0
 30
0.0
  0
POINT
  5
255
  8
DEFPOINTS
  6
BYBLOCK
 62
     0
 10
612.6
 20
-665.0
 30
0.0
  0
ENDBLK
  5
256
  8
0
  0
BLOCK
  8
0
  2
*D47
 70
     1
 10
0.0
 20
0.0
 30
0.0
  3
*D47
  1

  0
LINE
  5
259
  8
0
  6
BYBLOCK
 62
     0
 10
-234.0
 20
-670.0
 30
0.0
 11
-234.0
 21
-990.1
 31
0.0
  0
LINE
  5
25A
  8
0
  6
BYBLOCK
 62
     0
 10
-315.0
 20
-740.0
 30
0.0
 11
-315.0
 21
-990.1
 31
0.0
  0
LINE
  5
25B
  8
0
  6
BYBLOCK
 62
     0
 10
-244.0
 20
-977.6
 30
0.0
 11
-305.0
 21
-977.6
 31
0.0
  0
INSERT
  5
25C
  8
0
  6
BYBLOCK
 62
     0
  2
_ORIGIN
 10
-234.0
 20
-977.6
 30
0.0
 41
10.0
 42
10.0
 43
10.0
  0
INSERT
  5
25D
  8
0
  6
BYBLOCK
 62
     0
  2
_ORIGIN
 10
-315.0
 20
-977.6
 30
0.0
 41
10.0
 42
10.0
 43
10.0
 50
180.0
  0
TEXT
  5
25E
  8
0
  6
BYBLOCK
 62
     0
 10
-295.044342
 20
-967.6
 30
0.0
 40
30.0
  1
81
 72
     1
 11
-275.044342
 21
-967.6
 31
0.0
  0
POINT
  5
25F
  8
DEFPOINTS
  6
BYBLOCK
 62
     0
 10
-234.0
 20
-660.0
 30
0.0
  0
POINT
  5
260
  8
DEFPOINTS
  6
BYBLOCK
 62
     0
 10
-315.0
 20
-730.0
 30
0.0
  0
POINT
  5
261
  8
DEFPOINTS
  6
BYBLOCK
 62
     0
 10
-315.0
 20
-977.6
 30
0.0
  0
ENDBLK
  5
262
  8
0
  0
BLOCK
  8
0
  2
*D48
 70
     1
 10
0.0
 20
0.0
 30
0.0
  3
*D48
  1

  0
LINE
  5
265
  8
0
  6
BYBLOCK
 62
     0
 10
-159.0
 20
-695.0
 30
0.0
 11
-159.0
 21
-990.1
 31
0.0
  0
LINE
  5
266
  8
0
  6
BYBLOCK
 62
     0
 10
-234.0
 20
-670.0
 30
0.0
 11
-234.0
 21
-990.1
 31
0.0
  0
LINE
  5
267
  8
0
  6
BYBLOCK
 62
     0
 10
-169.0
 20
-977.6
 30
0.0
 11
-224.0
 21
-977.6
 31
0.0
  0
INSERT
  5
268
  8
0
  6
BYBLOCK
 62
     0
  2
_ORIGIN
 10
-159.0
 20
-977.6
 30
0.0
 41
10.0
 42
10.0
 43
10.0
  0
INSERT
  5
269
  8
0
  6
BYBLOCK
 62
     0
  2
_ORIGIN
 10
-234.0
 20
-977.6
 30
0.0
 41
10.0
 42
10.0
 43
10.0
 50
180.0
  0
TEXT
  5
26A
  8
0
  6
BYBLOCK
 62
     0
 10
-221.5
 20
-967.6
 30
0.0
 40
30.0
  1
75
 72
     1
 11
-196.5
 21
-967.6
 31
0.0
  0
POINT
  5
26B
  8
DEFPOINTS
  6
BYBLOCK
 62
     0
 10
-159.0
 20
-685.0
 30
0.0
  0
POINT
  5
26C
  8
DEFPOINTS
  6
BYBLOCK
 62
     0
 10
-234.0
 20
-660.0
 30
0.0
  0
POINT
  5
26D
  8
DEFPOINTS
  6
BYBLOCK
 62
     0
 10
-234.0
 20
-977.6
 30
0.0
  0
ENDBLK
  5
26E
  8
0
  0
BLOCK
  8
0
  2
*D49
 70
     1
 10
0.0
 20
0.0
 30
0.0
  3
*D49
  1

  0
LINE
  5
271
  8
0
  6
BYBLOCK
 62
     0
 10
-325.0
 20
-730.0
 30
0.0
 11
-529.9
 21
-730.0
 31
0.0
  0
LINE
  5
272
  8
0
  6
BYBLOCK
 62
     0
 10
-189.0
 20
-665.0
 30
0.0
 11
-529.9
 21
-665.0
 31
0.0
  0
LINE
  5
273
  8
0
  6
BYBLOCK
 62
     0
 10
-517.4
 20
-720.0
 30
0.0
 11
-517.4
 21
-675.0
 31
0.0
  0
INSERT
  5
274
  8
0
  6
BYBLOCK
 62
     0
  2
_ORIGIN
 10
-517.4
 20
-730.0
 30
0.0
 41
10.0
 42
10.0
 43
10.0
 50
270.0
  0
INSERT
  5
275
  8
0
  6
BYBLOCK
 62
     0
  2
_ORIGIN
 10
-517.4
 20
-665.0
 30
0.0
 41
10.0
 42
10.0
 43
10.0
 50
90.0
  0
TEXT
  5
276
  8
0
  6
BYBLOCK
 62
     0
 10
-527.4
 20
-722.5
 30
0.0
 40
30.0
  1
65
 50
90.0
 72
     1
 11
-527.4
 21
-697.5
 31
0.0
  0
POINT
  5
277
  8
DEFPOINTS
  6
BYBLOCK
 62
     0
 10
-315.0
 20
-730.0
 30
0.0
  0
POINT
  5
278
  8
DEFPOINTS
  6
BYBLOCK
 62
     0
 10
-179.0
 20
-665.0
 30
0.0
  0
POINT
  5
279
  8
DEFPOINTS
  6
BYBLOCK
 62
     0
 10
-517.4
 20
-665.0
 30
0.0
  0
ENDBLK
  5
27A
  8
0
  0
BLOCK
  8
0
  2
*D50
 70
     1
 10
0.0
 20
0.0
 30
0.0
  3
*D50
  1

  0
LINE
  5
27D
  8
0
  6
BYBLOCK
 62
     0
 10
325.0
 20
0.0
 30
0.0
 11
725.1
 21
0.0
 31
0.0
  0
LINE
  5
27E
  8
0
  6
BYBLOCK
 62
     0
 10
325.0
 20
-76.0
 30
0.0
 11
725.1
 21
-76.0
 31
0.0
  0
LINE
  5
27F
  8
0
  6
BYBLOCK
 62
     0
 10
712.6
 20
-10.0
 30
0.0
 11
712.6
 21
-66.0
 31
0.0
  0
INSERT
  5
280
  8
0
  6
BYBLOCK
 62
     0
  2
_ORIGIN
 10
712.6
 20
0.0
 30
0.0
 41
10.0
 42
10.0
 43
10.0
 50
90.0
  0
INSERT
  5
281
  8
0
  6
BYBLOCK
 62
     0
  2
_ORIGIN
 10
712.6
 20
-76.0
 30
0.0
 41
10.0
 42
10.0
 43
10.0
 50
270.0
  0
TEXT
  5
282
  8
0
  6
BYBLOCK
 62
     0
 10
702.6
 20
-63.0
 30
0.0
 40
30.0
  1
76
 50
90.0
 72
     1
 11
702.6
 21
-38.0
 31
0.0
  0
POINT
  5
283
  8
DEFPOINTS
  6
BYBLOCK
 62
     0
 10
315.0
 20
0.0
 30
0.0
  0
POINT
  5
284
  8
DEFPOINTS
  6
BYBLOCK
 62
     0
 10
315.0
 20
-76.0
 30
0.0
  0
POINT
  5
285
  8
DEFPOINTS
  6
BYBLOCK
 62
     0
 10
712.6
 20
-76.0
 30
0.0
  0
ENDBLK
  5
286
  8
0
  0
BLOCK
  8
0
  2
*D51
 70
     1
 10
0.0
 20
0.0
 30
0.0
  3
*D51
  1

  0
LINE
  5
289
  8
0
  6
BYBLOCK
 62
     0
 10
325.0
 20
0.0
 30
0.0
 11
625.1
 21
0.0
 31
0.0
  0
LINE
  5
28A
  8
0
  6
BYBLOCK
 62
     0
 10
278.0
 20
-112.0
 30
0.0
 11
625.1
 21
-112.0
 31
0.0
  0
LINE
  5
28B
  8
0
  6
BYBLOCK
 62
     0
 10
612.6
 20
-102.0
 30
0.0
 11
612.6
 21
-10.0
 31
0.0
  0
LINE
  5
28C
  8
0
  6
BYBLOCK
 62
     0
 10
612.6
 20
0.0
 30
0.0
 11
612.6
 21
98.968948
 31
0.0
  0
INSERT
  5
28D
  8
0
  6
BYBLOCK
 62
     0
  2
_ORIGIN
 10
612.6
 20
-112.0
 30
0.0
 41
10.0
 42
10.0
 43
10.0
 50
270.0
  0
INSERT
  5
28E
  8
0
  6
BYBLOCK
 62
     0
  2
_ORIGIN
 10
612.6
 20
0.0
 30
0.0
 41
10.0
 42
10.0
 43
10.0
 50
90.0
  0
TEXT
  5
28F
  8
0
  6
BYBLOCK
 62
     0
 10
602.6
 20
28.968948
 30
0.0
 40
30.0
  1
112
 50
90.0
 72
     1
 11
602.6
 21
58.968948
 31
0.0
  0
POINT
  5
290
  8
DEFPOINTS
  6
BYBLOCK
 62
     0
 10
315.0
 20
0.0
 30
0.0
  0
POINT
  5
291
  8
DEFPOINTS
  6
BYBLOCK
 62
     0
 10
268.0
 20
-112.0
 30
0.0
  0
POINT
  5
292
  8
DEFPOINTS
  6
BYBLOCK
 62
     0
 10
612.6
 20
-112.0
 30
0.0
  0
ENDBLK
  5
293
  8
0
  0
BLOCK
  8
0
  2
*D52
 70
     1
 10
0.0
 20
0.0
 30
0.0
  3
*D52
  1

  0
LINE
  5
296
  8
0
  6
BYBLOCK
 62
     0
 10
278.0
 20
-112.0
 30
0.0
 11
625.1
 21
-112.0
 31
0.0
  0
LINE
  5
297
  8
0
  6
BYBLOCK
 62
     0
 10
30.0
 20
-646.0
 30
0.0
 11
625.1
 21
-646.0
 31
0.0
  0
LINE
  5
298
  8
0
  6
BYBLOCK
 62
     0
 10
612.6
 20
-122.0
 30
0.0
 11
612.6
 21
-636.0
 31
0.0
  0
INSERT
  5
299
  8
0
  6
BYBLOCK
 62
     0
  2
_ORIGIN
 10
612.6
 20
-112.0
 30
0.0
 41
10.0
 42
10.0
 43
10.0
 50
90.0
  0
INSERT
  5
29A
  8
0
  6
BYBLOCK
 62
     0
  2
_ORIGIN
 10
612.6
 20
-646.0
 30
0.0
 41
10.0
 42
10.0
 43
10.0
 50
270.0
  0
TEXT
  5
29B
  8
0
  6
BYBLOCK
 62
     0
 10
602.6
 20
-419.0
 30
0.0
 40
30.0
  1
534
 50
90.0
 72
     1
 11
602.6
 21
-379.0
 31
0.0
  0
POINT
  5
29C
  8
DEFPOINTS
  6
BYBLOCK
 62
     0
 10
268.0
 20
-112.0
 30
0.0
  0
POINT
  5
29D
  8
DEFPOINTS
  6
BYBLOCK
 62
     0
 10
20.0
 20
-646.0
 30
0.0
  0
POINT
  5
29E
  8
DEFPOINTS
  6
BYBLOCK
 62
     0
 10
612.6
 20
-646.0
 30
0.0
  0
ENDBLK
  5
29F
  8
0
  0
BLOCK
  8
0
  2
*D53
 70
     1
 10
0.0
 20
0.0
 30
0.0
  3
*D53
  1

  0
LINE
  5
2A2
  8
0
  6
BYBLOCK
 62
     0
 10
30.0
 20
-646.0
 30
0.0
 11
725.1
 21
-646.0
 31
0.0
  0
LINE
  5
2A3
  8
0
  6
BYBLOCK
 62
     0
 10
325.0
 20
-76.0
 30
0.0
 11
725.1
 21
-76.0
 31
0.0
  0
LINE
  5
2A4
  8
0
  6
BYBLOCK
 62
     0
 10
712.6
 20
-636.0
 30
0.0
 11
712.6
 21
-86.0
 31
0.0
  0
INSERT
  5
2A5
  8
0
  6
BYBLOCK
 62
     0
  2
_ORIGIN
 10
712.6
 20
-646.0
 30
0.0
 41
10.0
 42
10.0
 43
10.0
 50
270.0
  0
INSERT
  5
2A6
  8
0
  6
BYBLOCK
 62
     0
  2
_ORIGIN
 10
712.6
 20
-76.0
 30
0.0
 41
10.0
 42
10.0
 43
10.0
 50
90.0
  0
TEXT
  5
2A7
  8
0
  6
BYBLOCK
 62
     0
 10
702.6
 20
-398.5
 30
0.0
 40
30.0
  1
570
 50
90.0
 72
     1
 11
702.6
 21
-361.0
 31
0.0
  0
POINT
  5
2A8
  8
DEFPOINTS
  6
BYBLOCK
 62
     0
 10
20.0
 20
-646.0
 30
0.0
  0
POINT
  5
2A9
  8
DEFPOINTS
  6
BYBLOCK
 62
     0
 10
315.0
 20
-76.0
 30
0.0
  0
POINT
  5
2AA
  8
DEFPOINTS
  6
BYBLOCK
 62
     0
 10
712.6
 20
-76.0
 30
0.0
  0
ENDBLK
  5
2AB
  8
0
  0
BLOCK
  8
0
  2
*D54
 70
     1
 10
0.0
 20
0.0
 30
0.0
  3
*D54
  1

  0
LINE
  5
2AE
  8
0
  6
BYBLOCK
 62
     0
 10
325.0
 20
-730.0
 30
0.0
 11
725.1
 21
-730.0
 31
0.0
  0
LINE
  5
2AF
  8
0
  6
BYBLOCK
 62
     0
 10
30.0
 20
-646.0
 30
0.0
 11
725.1
 21
-646.0
 31
0.0
  0
LINE
  5
2B0
  8
0
  6
BYBLOCK
 62
     0
 10
712.6
 20
-720.0
 30
0.0
 11
712.6
 21
-656.0
 31
0.0
  0
INSERT
  5
2B1
  8
0
  6
BYBLOCK
 62
     0
  2
_ORIGIN
 10
712.6
 20
-730.0
 30
0.0
 41
10.0
 42
10.0
 43
10.0
 50
270.0
  0
INSERT
  5
2B2
  8
0
  6
BYBLOCK
 62
     0
  2
_ORIGIN
 10
712.6
 20
-646.0
 30
0.0
 41
10.0
 42
10.0
 43
10.0
 50
90.0
  0
TEXT
  5
2B3
  8
0
  6
BYBLOCK
 62
     0
 10
702.6
 20
-712.981751
 30
0.0
 40
30.0
  1
84
 50
90.0
 72
     1
 11
702.6
 21
-687.981751
 31
0.0
  0
POINT
  5
2B4
  8
DEFPOINTS
  6
BYBLOCK
 62
     0
 10
315.0
 20
-730.0
 30
0.0
  0
POINT
  5
2B5
  8
DEFPOINTS
  6
BYBLOCK
 62
     0
 10
20.0
 20
-646.0
 30
0.0
  0
POINT
  5
2B6
  8
DEFPOINTS
  6
BYBLOCK
 62
     0
 10
712.6
 20
-646.0
 30
0.0
  0
ENDBLK
  5
2B7
  8
0
  0
BLOCK
  8
0
  2
*D55
 70
     1
 10
0.0
 20
0.0
 30
0.0
  3
*D55
  1

  0
LINE
  5
2BA
  8
0
  6
BYBLOCK
 62
     0
 10
-118.823081
 20
-563.019251
 30
0.0
 11
-38.571783
 21
-424.019961
 31
0.0
  0
LINE
  5
2BB
  8
0
  6
BYBLOCK
 62
     0
 10
-165.0
 20
-541.0
 30
0.0
 11
-165.0
 21
-390.143615
 31
0.0
  0
ARC
  5
2BC
  8
0
  6
BYBLOCK
 62
     0
 10
-165.0
 20
-643.0
 30
0.0
 40
240.356385
 50
62.38395
 51
87.616044
  0
INSERT
  5
2BD
  8
0
  6
BYBLOCK
 62
     0
  2
_ORIGIN
 10
-44.821784
 20
-434.845278
 30
0.0
 41
10.0
 42
10.0
 43
10.0
 50
331.191972
  0
INSERT
  5
2BE
  8
0
  6
BYBLOCK
 62
     0
  2
_ORIGIN
 10
-165.0
 20
-402.643615
 30
0.0
 41
10.0
 42
10.0
 43
10.0
 50
178.808022
  0
TEXT
  5
2BF
  8
0
  6
BYBLOCK
 62
     0
 10
-151.75672
 20
-390.890519
 30
0.0
 40
30.0
  1
30°
 50
349.596519
 72
     1
 11
-119.791004
 21
-396.759333
 31
0.0
  0
POINT
  5
2C0
  8
DEFPOINTS
  6
BYBLOCK
 62
     0
 10
-165.0
 20
-643.0
 30
0.0
  0
POINT
  5
2C1
  8
DEFPOINTS
  6
BYBLOCK
 62
     0
 10
-123.823082
 20
-571.679504
 30
0.0
  0
POINT
  5
2C2
  8
DEFPOINTS
  6
BYBLOCK
 62
     0
 10
-165.0
 20
-551.0
 30
0.0
  0
POINT
  5
2C3
  8
DEFPOINTS
  6
BYBLOCK
 62
     0
 10
-82.793258
 20
-417.138884
 30
0.0
  0
ENDBLK
  5
2C4
  8
0
  0
BLOCK
  8
0
  2
*D56
 70
     1
 10
0.0
 20
0.0
 30
0.0
  3
*D56
  1

  0
LINE
  5
2C7
  8
0
  6
BYBLOCK
 62
     0
 10
-159.999993
 20
-562.33975
 30
0.0
 11
-122.934421
 21
-498.140414
 31
0.0
  0
LINE
  5
2C8
  8
0
  6
BYBLOCK
 62
     0
 10
-118.823075
 20
-563.019254
 30
0.0
 11
-91.757527
 21
-516.140435
 31
0.0
  0
LINE
  5
2C9
  8
0
  6
BYBLOCK
 62
     0
 10
-89.347285
 20
-531.965755
 30
0.0
 11
-80.687035
 21
-536.965762
 31
0.0
  0
LINE
  5
2CA
  8
0
  6
BYBLOCK
 62
     0
 10
-137.84468
 20
-503.96572
 30
0.0
 11
-262.691176
 21
-431.88543
 31
0.0
  0
LINE
  5
2CB
  8
0
  6
BYBLOCK
 62
     0
 10
-98.007535
 20
-526.965748
 30
0.0
 11
-129.18443
 21
-508.965726
 31
0.0
  0
INSERT
  5
2CC
  8
0
  6
BYBLOCK
 62
     0
  2
_ORIGIN
 10
-98.007535
 20
-526.965748
 30
0.0
 41
10.0
 42
10.0
 43
10.0
 50
149.999955
  0
INSERT
  5
2CD
  8
0
  6
BYBLOCK
 62
     0
  2
_ORIGIN
 10
-129.18443
 20
-508.965726
 30
0.0
 41
10.0
 42
10.0
 43
10.0
 50
329.999955
  0
TEXT
  5
2CE
  8
0
  6
BYBLOCK
 62
     0
 10
-249.030919
 20
-428.225179
 30
0.0
 40
30.0
  1
36
 50
329.999939
 72
     1
 11
-227.380297
 21
-440.725202
 31
0.0
  0
POINT
  5
2CF
  8
DEFPOINTS
  6
BYBLOCK
 62
     0
 10
-165.0
 20
-571.0
 30
0.0
  0
POINT
  5
2D0
  8
DEFPOINTS
  6
BYBLOCK
 62
     0
 10
-123.823082
 20
-571.679504
 30
0.0
  0
POINT
  5
2D1
  8
DEFPOINTS
  6
BYBLOCK
 62
     0
 10
-98.007535
 20
-526.965748
 30
0.0
  0
ENDBLK
  5
2D2
  8
0
  0
BLOCK
  8
0
  2
*D57
 70
     1
 10
0.0
 20
0.0
 30
0.0
  3
*D57
  1

  0
LINE
  5
2D5
  8
0
  6
BYBLOCK
 62
     0
 10
85.0
 20
-695.0
 30
0.0
 11
85.0
 21
-990.1
 31
0.0
  0
LINE
  5
2D6
  8
0
  6
BYBLOCK
 62
     0
 10
0.0
 20
-790.0
 30
0.0
 11
0.0
 21
-990.1
 31
0.0
  0
LINE
  5
2D7
  8
0
  6
BYBLOCK
 62
     0
 10
75.0
 20
-977.6
 30
0.0
 11
10.0
 21
-977.6
 31
0.0
  0
INSERT
  5
2D8
  8
0
  6
BYBLOCK
 62
     0
  2
_ORIGIN
 10
85.0
 20
-977.6
 30
0.0
 41
10.0
 42
10.0
 43
10.0
  0
INSERT
  5
2D9
  8
0
  6
BYBLOCK
 62
     0
  2
_ORIGIN
 10
0.0
 20
-977.6
 30
0.0
 41
10.0
 42
10.0
 43
10.0
 50
180.0
  0
TEXT
  5
2DA
  8
0
  6
BYBLOCK
 62
     0
 10
17.5
 20
-967.6
 30
0.0
 40
30.0
  1
85
 72
     1
 11
42.5
 21
-967.6
 31
0.0
  0
POINT
  5
2DB
  8
DEFPOINTS
  6
BYBLOCK
 62
     0
 10
85.0
 20
-685.0
 30
0.0
  0
POINT
  5
2DC
  8
DEFPOINTS
  6
BYBLOCK
 62
     0
 10
0.0
 20
-780.0
 30
0.0
  0
POINT
  5
2DD
  8
DEFPOINTS
  6
BYBLOCK
 62
     0
 10
0.0
 20
-977.6
 30
0.0
  0
ENDBLK
  5
2DE
  8
0
  0
BLOCK
  8
0
  2
*D58
 70
     1
 10
0.0
 20
0.0
 30
0.0
  3
*D58
  1

  0
LINE
  5
2E1
  8
0
  6
BYBLOCK
 62
     0
 10
-159.0
 20
-695.0
 30
0.0
 11
-159.0
 21
-990.1
 31
0.0
  0
LINE
  5
2E2
  8
0
  6
BYBLOCK
 62
     0
 10
0.0
 20
-790.0
 30
0.0
 11
0.0
 21
-990.1
 31
0.0
  0
LINE
  5
2E3
  8
0
  6
BYBLOCK
 62
     0
 10
-149.0
 20
-977.6
 30
0.0
 11
-10.0
 21
-977.6
 31
0.0
  0
INSERT
  5
2E4
  8
0
  6
BYBLOCK
 62
     0
  2
_ORIGIN
 10
-159.0
 20
-977.6
 30
0.0
 41
10.0
 42
10.0
 43
10.0
 50
180.0
  0
INSERT
  5
2E5
  8
0
  6
BYBLOCK
 62
     0
  2
_ORIGIN
 10
0.0
 20
-977.6
 30
0.0
 41
10.0
 42
10.0
 43
10.0
  0
TEXT
  5
2E6
  8
0
  6
BYBLOCK
 62
     0
 10
-114.5
 20
-967.6
 30
0.0
 40
30.0
  1
159
 72
     1
 11
-79.5
 21
-967.6
 31
0.0
  0
POINT
  5
2E7
  8
DEFPOINTS
  6
BYBLOCK
 62
     0
 10
-159.0
 20
-685.0
 30
0.0
  0
POINT
  5
2E8
  8
DEFPOINTS
  6
BYBLOCK
 62
     0
 10
0.0
 20
-780.0
 30
0.0
  0
POINT
  5
2E9
  8
DEFPOINTS
  6
BYBLOCK
 62
     0
 10
0.0
 20
-977.6
 30
0.0
  0
ENDBLK
  5
2EA
  8
0
  0
BLOCK
  8
0
  2
*D59
 70
     1
 10
0.0
 20
0.0
 30
0.0
  3
*D59
  1

  0
LINE
  5
2ED
  8
0
  6
BYBLOCK
 62
     0
 10
-325.0
 20
-730.0
 30
0.0
 11
-429.9
 21
-730.0
 31
0.0
  0
LINE
  5
2EE
  8
0
  6
BYBLOCK
 62
     0
 10
-115.0
 20
-675.0
 30
0.0
 11
-429.9
 21
-675.0
 31
0.0
  0
LINE
  5
2EF
  8
0
  6
BYBLOCK
 62
     0
 10
-417.4
 20
-720.0
 30
0.0
 11
-417.4
 21
-685.0
 31
0.0
  0
INSERT
  5
2F0
  8
0
  6
BYBLOCK
 62
     0
  2
_ORIGIN
 10
-417.4
 20
-730.0
 30
0.0
 41
10.0
 42
10.0
 43
10.0
 50
270.0
  0
INSERT
  5
2F1
  8
0
  6
BYBLOCK
 62
     0
  2
_ORIGIN
 10
-417.4
 20
-675.0
 30
0.0
 41
10.0
 42
10.0
 43
10.0
 50
90.0
  0
TEXT
  5
2F2
  8
0
  6
BYBLOCK
 62
     0
 10
-427.4
 20
-727.5
 30
0.0
 40
30.0
  1
55
 50
90.0
 72
     1
 11
-427.4
 21
-702.5
 31
0.0
  0
POINT
  5
2F3
  8
DEFPOINTS
  6
BYBLOCK
 62
     0
 10
-315.0
 20
-730.0
 30
0.0
  0
POINT
  5
2F4
  8
DEFPOINTS
  6
BYBLOCK
 62
     0
 10
-105.0
 20
-675.0
 30
0.0
  0
POINT
  5
2F5
  8
DEFPOINTS
  6
BYBLOCK
 62
     0
 10
-417.4
 20
-675.0
 30
0.0
  0
ENDBLK
  5
2F6
  8
0
  0
BLOCK
  8
0
  2
*D60
 70
     1
 10
0.0
 20
0.0
 30
0.0
  3
*D60
  1

  0
LINE
  5
2F9
  8
0
  6
BYBLOCK
 62
     0
 10
0.0
 20
-790.0
 30
0.0
 11
0.0
 21
-890.1
 31
0.0
  0
LINE
  5
2FA
  8
0
  6
BYBLOCK
 62
     0
 10
-5.0
 20
-705.0
 30
0.0
 11
-5.0
 21
-890.1
 31
0.0
  0
LINE
  5
2FB
  8
0
  6
BYBLOCK
 62
     0
 10
-15.0
 20
-877.6
 30
0.0
 11
-25.0
 21
-877.6
 31
0.0
  0
LINE
  5
2FC
  8
0
  6
BYBLOCK
 62
     0
 10
10.0
 20
-877.6
 30
0.0
 11
60.268764
 21
-877.6
 31
0.0
  0
LINE
  5
2FD
  8
0
  6
BYBLOCK
 62
     0
 10
-5.0
 20
-877.6
 30
0.0
 11
0.0
 21
-877.6
 31
0.0
  0
INSERT
  5
2FE
  8
0
  6
BYBLOCK
 62
     0
  2
_ORIGIN
 10
-5.0
 20
-877.6
 30
0.0
 41
10.0
 42
10.0
 43
10.0
  0
INSERT
  5
2FF
  8
0
  6
BYBLOCK
 62
     0
  2
_ORIGIN
 10
0.0
 20
-877.6
 30
0.0
 41
10.0
 42
10.0
 43
10.0
 50
180.0
  0
TEXT
  5
300
  8
0
  6
BYBLOCK
 62
     0
 10
30.268764
 20
-867.6
 30
0.0
 40
30.0
  1
5
 72
     1
 11
40.268764
 21
-867.6
 31
0.0
  0
POINT
  5
301
  8
DEFPOINTS
  6
BYBLOCK
 62
     0
 10
0.0
 20
-780.0
 30
0.0
  0
POINT
  5
302
  8
DEFPOINTS
  6
BYBLOCK
 62
     0
 10
-5.0
 20
-695.0
 30
0.0
  0
POINT
  5
303
  8
DEFPOINTS
  6
BYBLOCK
 62
     0
 10
-5.0
 20
-877.6
 30
0.0
  0
ENDBLK
  5
304
  8
0
  0
BLOCK
  8
0
  2
*D61
 70
     1
 10
0.0
 20
0.0
 30
0.0
  3
*D61
  1

  0
LINE
  5
307
  8
0
  6
BYBLOCK
 62
     0
 10
-85.0
 20
-705.0
 30
0.0
 11
-85.0
 21
-890.1
 31
0.0
  0
LINE
  5
308
  8
0
  6
BYBLOCK
 62
     0
 10
-5.0
 20
-705.0
 30
0.0
 11
-5.0
 21
-890.1
 31
0.0
  0
LINE
  5
309
  8
0
  6
BYBLOCK
 62
     0
 10
-75.0
 20
-877.6
 30
0.0
 11
-15.0
 21
-877.6
 31
0.0
  0
INSERT
  5
30A
  8
0
  6
BYBLOCK
 62
     0
  2
_ORIGIN
 10
-85.0
 20
-877.6
 30
0.0
 41
10.0
 42
10.0
 43
10.0
 50
180.0
  0
INSERT
  5
30B
  8
0
  6
BYBLOCK
 62
     0
  2
_ORIGIN
 10
-5.0
 20
-877.6
 30
0.0
 41
10.0
 42
10.0
 43
10.0
  0
TEXT
  5
30C
  8
0
  6
BYBLOCK
 62
     0
 10
-67.5
 20
-867.6
 30
0.0
 40
30.0
  1
80
 72
     1
 11
-45.0
 21
-867.6
 31
0.0
  0
POINT
  5
30D
  8
DEFPOINTS
  6
BYBLOCK
 62
     0
 10
-85.0
 20
-695.0
 30
0.0
  0
POINT
  5
30E
  8
DEFPOINTS
  6
BYBLOCK
 62
     0
 10
-5.0
 20
-695.0
 30
0.0
  0
POINT
  5
30F
  8
DEFPOINTS
  6
BYBLOCK
 62
     0
 10
-5.0
 20
-877.6
 30
0.0
  0
ENDBLK
  5
310
  8
0
  0
BLOCK
  8
0
  2
*D62
 70
     1
 10
0.0
 20
0.0
 30
0.0
  3
*D62
  1

  0
LINE
  5
313
  8
0
  6
BYBLOCK
 62
     0
 10
0.0
 20
-770.0
 30
0.0
 11
0.0
 21
-321.1
 31
0.0
  0
LINE
  5
314
  8
0
  6
BYBLOCK
 62
     0
 10
-80.0
 20
-581.0
 30
0.0
 11
-80.0
 21
-321.1
 31
0.0
  0
LINE
  5
315
  8
0
  6
BYBLOCK
 62
     0
 10
-10.0
 20
-333.6
 30
0.0
 11
-70.0
 21
-333.6
 31
0.0
  0
INSERT
  5
316
  8
0
  6
BYBLOCK
 62
     0
  2
_ORIGIN
 10
0.0
 20
-333.6
 30
0.0
 41
10.0
 42
10.0
 43
10.0
  0
INSERT
  5
317
  8
0
  6
BYBLOCK
 62
     0
  2
_ORIGIN
 10
-80.0
 20
-333.6
 30
0.0
 41
10.0
 42
10.0
 43
10.0
 50
180.0
  0
TEXT
  5
318
  8
0
  6
BYBLOCK
 62
     0
 10
-62.5
 20
-323.6
 30
0.0
 40
30.0
  1
80
 72
     1
 11
-40.0
 21
-323.6
 31
0.0
  0
POINT
  5
319
  8
DEFPOINTS
  6
BYBLOCK
 62
     0
 10
0.0
 20
-780.0
 30
0.0
  0
POINT
  5
31A
  8
DEFPOINTS
  6
BYBLOCK
 62
     0
 10
-80.0
 20
-591.0
 30
0.0
  0
POINT
  5
31B
  8
DEFPOINTS
  6
BYBLOCK
 62
     0
 10
-80.0
 20
-333.6
 30
0.0
  0
ENDBLK
  5
31C
  8
0
  0
BLOCK
  8
0
  2
*D63
 70
     1
 10
0.0
 20
0.0
 30
0.0
  3
*D63
  1

  0
LINE
  5
31F
  8
0
  6
BYBLOCK
 62
     0
 10
0.0
 20
-770.0
 30
0.0
 11
0.0
 21
-321.1
 31
0.0
  0
LINE
  5
320
  8
0
  6
BYBLOCK
 62
     0
 10
85.0
 20
-565.0
 30
0.0
 11
85.0
 21
-321.1
 31
0.0
  0
LINE
  5
321
  8
0
  6
BYBLOCK
 62
     0
 10
10.0
 20
-333.6
 30
0.0
 11
75.0
 21
-333.6
 31
0.0
  0
INSERT
  5
322
  8
0
  6
BYBLOCK
 62
     0
  2
_ORIGIN
 10
0.0
 20
-333.6
 30
0.0
 41
10.0
 42
10.0
 43
10.0
 50
180.0
  0
INSERT
  5
323
  8
0
  6
BYBLOCK
 62
     0
  2
_ORIGIN
 10
85.0
 20
-333.6
 30
0.0
 41
10.0
 42
10.0
 43
10.0
  0
TEXT
  5
324
  8
0
  6
BYBLOCK
 62
     0
 10
17.5
 20
-323.6
 30
0.0
 40
30.0
  1
85
 72
     1
 11
42.5
 21
-323.6
 31
0.0
  0
POINT
  5
325
  8
DEFPOINTS
  6
BYBLOCK
 62
     0
 10
0.0
 20
-780.0
 30
0.0
  0
POINT
  5
326
  8
DEFPOINTS
  6
BYBLOCK
 62
     0
 10
85.0
 20
-575.0
 30
0.0
  0
POINT
  5
327
  8
DEFPOINTS
  6
BYBLOCK
 62
     0
 10
85.0
 20
-333.6
 30
0.0
  0
ENDBLK
  5
328
  8
0
  0
BLOCK
  8
0
  2
*D64
 70
     1
 10
0.0
 20
0.0
 30
0.0
  3
*D64
  1

  0
LINE
  5
32B
  8
0
  6
BYBLOCK
 62
     0
 10
-325.0
 20
-730.0
 30
0.0
 11
-729.9
 21
-730.0
 31
0.0
  0
LINE
  5
32C
  8
0
  6
BYBLOCK
 62
     0
 10
-264.0
 20
-640.0
 30
0.0
 11
-729.9
 21
-640.0
 31
0.0
  0
LINE
  5
32D
  8
0
  6
BYBLOCK
 62
     0
 10
-717.4
 20
-720.0
 30
0.0
 11
-717.4
 21
-650.0
 31
0.0
  0
INSERT
  5
32E
  8
0
  6
BYBLOCK
 62
     0
  2
_ORIGIN
 10
-717.4
 20
-730.0
 30
0.0
 41
10.0
 42
10.0
 43
10.0
 50
270.0
  0
INSERT
  5
32F
  8
0
  6
BYBLOCK
 62
     0
  2
_ORIGIN
 10
-717.4
 20
-640.0
 30
0.0
 41
10.0
 42
10.0
 43
10.0
 50
90.0
  0
TEXT
  5
330
  8
0
  6
BYBLOCK
 62
     0
 10
-727.4
 20
-707.5
 30
0.0
 40
30.0
  1
90
 50
90.0
 72
     1
 11
-727.4
 21
-685.0
 31
0.0
  0
POINT
  5
331
  8
DEFPOINTS
  6
BYBLOCK
 62
     0
 10
-315.0
 20
-730.0
 30
0.0
  0
POINT
  5
332
  8
DEFPOINTS
  6
BYBLOCK
 62
     0
 10
-254.0
 20
-640.0
 30
0.0
  0
POINT
  5
333
  8
DEFPOINTS
  6
BYBLOCK
 62
     0
 10
-717.4
 20
-640.0
 30
0.0
  0
ENDBLK
  5
334
  8
0
  0
BLOCK
  8
0
  2
*D65
 70
     1
 10
0.0
 20
0.0
 30
0.0
  3
*D65
  1

  0
LINE
  5
337
  8
0
  6
BYBLOCK
 62
     0
 10
-110.0
 20
-611.0
 30
0.0
 11
-629.9
 21
-611.0
 31
0.0
  0
LINE
  5
338
  8
0
  6
BYBLOCK
 62
     0
 10
-325.0
 20
-730.0
 30
0.0
 11
-629.9
 21
-730.0
 31
0.0
  0
LINE
  5
339
  8
0
  6
BYBLOCK
 62
     0
 10
-617.4
 20
-621.0
 30
0.0
 11
-617.4
 21
-720.0
 31
0.0
  0
INSERT
  5
33A
  8
0
  6
BYBLOCK
 62
     0
  2
_ORIGIN
 10
-617.4
 20
-611.0
 30
0.0
 41
10.0
 42
10.0
 43
10.0
 50
90.0
  0
INSERT
  5
33B
  8
0
  6
BYBLOCK
 62
     0
  2
_ORIGIN
 10
-617.4
 20
-730.0
 30
0.0
 41
10.0
 42
10.0
 43
10.0
 50
270.0
  0
TEXT
  5
33C
  8
0
  6
BYBLOCK
 62
     0
 10
-627.4
 20
-714.159424
 30
0.0
 40
30.0
  1
119
 50
90.0
 72
     1
 11
-627.4
 21
-684.159424
 31
0.0
  0
POINT
  5
33D
  8
DEFPOINTS
  6
BYBLOCK
 62
     0
 10
-100.0
 20
-611.0
 30
0.0
  0
POINT
  5
33E
  8
DEFPOINTS
  6
BYBLOCK
 62
     0
 10
-315.0
 20
-730.0
 30
0.0
  0
POINT
  5
33F
  8
DEFPOINTS
  6
BYBLOCK
 62
     0
 10
-617.4
 20
-730.0
 30
0.0
  0
ENDBLK
  5
340
  8
0
  0
BLOCK
  8
0
  2
*D66
 70
     1
 10
0.0
 20
0.0
 30
0.0
  3
*D66
  1

  0
LINE
  5
343
  8
0
  6
BYBLOCK
 62
     0
 10
325.0
 20
-730.0
 30
0.0
 11
525.1
 21
-730.0
 31
0.0
  0
LINE
  5
344
  8
0
  6
BYBLOCK
 62
     0
 10
115.0
 20
-595.0
 30
0.0
 11
525.1
 21
-595.0
 31
0.0
  0
LINE
  5
345
  8
0
  6
BYBLOCK
 62
     0
 10
512.6
 20
-720.0
 30
0.0
 11
512.6
 21
-605.0
 31
0.0
  0
LINE
  5
346
  8
0
  6
BYBLOCK
 62
     0
 10
512.6
 20
-595.0
 30
0.0
 11
512.6
 21
-495.0
 31
0.0
  0
INSERT
  5
347
  8
0
  6
BYBLOCK
 62
     0
  2
_ORIGIN
 10
512.6
 20
-730.0
 30
0.0
 41
10.0
 42
10.0
 43
10.0
 50
270.0
  0
INSERT
  5
348
  8
0
  6
BYBLOCK
 62
     0
  2
_ORIGIN
 10
512.6
 20
-595.0
 30
0.0
 41
10.0
 42
10.0
 43
10.0
 50
90.0
  0
TEXT
  5
349
  8
0
  6
BYBLOCK
 62
     0
 10
502.6
 20
-575.0
 30
0.0
 40
30.0
  1
135
 50
90.0
 72
     1
 11
502.6
 21
-540.0
 31
0.0
  0
POINT
  5
34A
  8
DEFPOINTS
  6
BYBLOCK
 62
     0
 10
315.0
 20
-730.0
 30
0.0
  0
POINT
  5
34B
  8
DEFPOINTS
  6
BYBLOCK
 62
     0
 10
105.0
 20
-595.0
 30
0.0
  0
POINT
  5
34C
  8
DEFPOINTS
  6
BYBLOCK
 62
     0
 10
512.6
 20
-595.0
 30
0.0
  0
ENDBLK
  5
34D
  8
0
  0
BLOCK
  8
0
  2
*D67
 70
     1
 10
0.0
 20
0.0
 30
0.0
  3
*D67
  1

  0
LINE
  5
350
  8
0
  6
BYBLOCK
 62
     0
 10
315.0
 20
-740.0
 30
0.0
 11
315.0
 21
-990.1
 31
0.0
  0
LINE
  5
351
  8
0
  6
BYBLOCK
 62
     0
 10
227.0
 20
-673.0
 30
0.0
 11
227.0
 21
-990.1
 31
0.0
  0
LINE
  5
352
  8
0
  6
BYBLOCK
 62
     0
 10
305.0
 20
-977.6
 30
0.0
 11
237.0
 21
-977.6
 31
0.0
  0
INSERT
  5
353
  8
0
  6
BYBLOCK
 62
     0
  2
_ORIGIN
 10
315.0
 20
-977.6
 30
0.0
 41
10.0
 42
10.0
 43
10.0
  0
INSERT
  5
354
  8
0
  6
BYBLOCK
 62
     0
  2
_ORIGIN
 10
227.0
 20
-977.6
 30
0.0
 41
10.0
 42
10.0
 43
10.0
 50
180.0
  0
TEXT
  5
355
  8
0
  6
BYBLOCK
 62
     0
 10
246.0
 20
-967.6
 30
0.0
 40
30.0
  1
88
 72
     1
 11
271.0
 21
-967.6
 31
0.0
  0
POINT
  5
356
  8
DEFPOINTS
  6
BYBLOCK
 62
     0
 10
315.0
 20
-730.0
 30
0.0
  0
POINT
  5
357
  8
DEFPOINTS
  6
BYBLOCK
 62
     0
 10
227.0
 20
-663.0
 30
0.0
  0
POINT
  5
358
  8
DEFPOINTS
  6
BYBLOCK
 62
     0
 10
227.0
 20
-977.6
 30
0.0
  0
ENDBLK
  5
359
  8
0
  0
BLOCK
  8
0
  2
*D68
 70
     1
 10
0.0
 20
0.0
 30
0.0
  3
*D68
  1

  0
LINE
  5
35C
  8
0
  6
BYBLOCK
 62
     0
 10
0.0
 20
40.0
 30
0.0
 11
0.0
 21
-267.889795
 31
0.0
  0
LINE
  5
35D
  8
0
  6
BYBLOCK
 62
     0
 10
-165.0
 20
-541.0
 30
0.0
 11
-165.0
 21
-242.889795
 31
0.0
  0
LINE
  5
35E
  8
0
  6
BYBLOCK
 62
     0
 10
-10.0
 20
-255.389795
 30
0.0
 11
-155.0
 21
-255.389795
 31
0.0
  0
INSERT
  5
35F
  8
0
  6
BYBLOCK
 62
     0
  2
_ORIGIN
 10
0.0
 20
-255.389795
 30
0.0
 41
10.0
 42
10.0
 43
10.0
  0
INSERT
  5
360
  8
0
  6
BYBLOCK
 62
     0
  2
_ORIGIN
 10
-165.0
 20
-255.389795
 30
0.0
 41
10.0
 42
10.0
 43
10.0
 50
180.0
  0
TEXT
  5
361
  8
0
  6
BYBLOCK
 62
     0
 10
-117.5
 20
-245.389795
 30
0.0
 40
30.0
  1
165
 72
     1
 11
-82.5
 21
-245.389795
 31
0.0
  0
POINT
  5
362
  8
DEFPOINTS
  6
BYBLOCK
 62
     0
 10
0.0
 20
50.0
 30
0.0
  0
POINT
  5
363
  8
DEFPOINTS
  6
BYBLOCK
 62
     0
 10
-165.0
 20
-551.0
 30
0.0
  0
POINT
  5
364
  8
DEFPOINTS
  6
BYBLOCK
 62
     0
 10
-165.0
 20
-255.389795
 30
0.0
  0
ENDBLK
  5
365
  8
0
  0
BLOCK
  8
0
  2
*D69
 70
     1
 10
0.0
 20
0.0
 30
0.0
  3
*D69
  1

  0
LINE
  5
368
  8
0
  6
BYBLOCK
 62
     0
 10
-264.0
 20
-640.0
 30
0.0
 11
-729.9
 21
-640.0
 31
0.0
  0
LINE
  5
369
  8
0
  6
BYBLOCK
 62
     0
 10
-195.0
 20
-571.0
 30
0.0
 11
-729.9
 21
-571.0
 31
0.0
  0
LINE
  5
36A
  8
0
  6
BYBLOCK
 62
     0
 10
-717.4
 20
-630.0
 30
0.0
 11
-717.4
 21
-581.0
 31
0.0
  0
INSERT
  5
36B
  8
0
  6
BYBLOCK
 62
     0
  2
_ORIGIN
 10
-717.4
 20
-640.0
 30
0.0
 41
10.0
 42
10.0
 43
10.0
 50
270.0
  0
INSERT
  5
36C
  8
0
  6
BYBLOCK
 62
     0
  2
_ORIGIN
 10
-717.4
 20
-571.0
 30
0.0
 41
10.0
 42
10.0
 43
10.0
 50
90.0
  0
TEXT
  5
36D
  8
0
  6
BYBLOCK
 62
     0
 10
-727.4
 20
-630.5
 30
0.0
 40
30.0
  1
69
 50
90.0
 72
     1
 11
-727.4
 21
-605.5
 31
0.0
  0
POINT
  5
36E
  8
DEFPOINTS
  6
BYBLOCK
 62
     0
 10
-254.0
 20
-640.0
 30
0.0
  0
POINT
  5
36F
  8
DEFPOINTS
  6
BYBLOCK
 62
     0
 10
-185.0
 20
-571.0
 30
0.0
  0
POINT
  5
370
  8
DEFPOINTS
  6
BYBLOCK
 62
     0
 10
-717.4
 20
-571.0
 30
0.0
  0
ENDBLK
  5
371
  8
0
  0
ENDSEC
  0
SECTION
  2
ENTITIES
  0
LINE
  5
372
  8
OUTLINE
  6
CONTINUOUS
 10
315.0
 20
0.0
 30
0.0
 11
-315.0
 21
0.0
 31
0.0
  0
LINE
  5
373
  8
OUTLINE
  6
CONTINUOUS
 10
315.0
 20
0.0
 30
0.0
 11
315.0
 21
-730.0
 31
0.0
  0
LINE
  5
374
  8
OUTLINE
  6
CONTINUOUS
 10
315.0
 20
-730.0
 30
0.0
 11
-315.0
 21
-730.0
 31
0.0
  0
LINE
  5
375
  8
OUTLINE
  6
CONTINUOUS
 10
-315.0
 20
0.0
 30
0.0
 11
-315.0
 21
-730.0
 31
0.0
  0
LINE
  5
376
  8
OUTLINE
  6
CONTINUOUS
 10
211.5
 20
-236.0
 30
0.0
 11
284.5
 21
-236.0
 31
0.0
  0
LINE
  5
377
  8
OUTLINE
  6
CONTINUOUS
 10
211.5
 20
-102.0
 30
0.0
 11
211.5
 21
-236.0
 31
0.0
  0
LINE
  5
378
  8
OUTLINE
  6
CONTINUOUS
 10
224.588544
 20
-97.055728
 30
0.0
 11
214.7
 21
-102.0
 31
0.0
  0
LINE
  5
379
  8
OUTLINE
  6
CONTINUOUS
 10
211.5
 20
-102.0
 30
0.0
 11
214.7
 21
-102.0
 31
0.0
  0
LINE
  5
37A
  8
OUTLINE
  6
CONTINUOUS
 10
229.06068
 20
-96.0
 30
0.0
 11
266.93932
 21
-96.0
 31
0.0
  0
ARC
  5
37B
  8
OUTLINE
  6
CONTINUOUS
 10
229.06068
 20
-106.0
 30
0.0
 40
10.0
 50
90.0
 51
116.565051
  0
LINE
  5
37C
  8
OUTLINE
  6
CONTINUOUS
 10
284.5
 20
-102.0
 30
0.0
 11
284.5
 21
-236.0
 31
0.0
  0
LINE
  5
37D
  8
OUTLINE
  6
CONTINUOUS
 10
271.411456
 20
-97.055728
 30
0.0
 11
281.3
 21
-102.0
 31
0.0
  0
LINE
  5
37E
  8
OUTLINE
  6
CONTINUOUS
 10
284.5
 20
-102.0
 30
0.0
 11
281.3
 21
-102.0
 31
0.0
  0
ARC
  5
37F
  8
OUTLINE
  6
CONTINUOUS
 10
266.93932
 20
-106.0
 30
0.0
 40
10.0
 50
63.434949
 51
90.0
  0
LINE
  5
380
  8
OUTLINE
  6
CONTINUOUS
 10
-211.5
 20
-102.0
 30
0.0
 11
-211.5
 21
-236.0
 31
0.0
  0
LINE
  5
381
  8
OUTLINE
  6
CONTINUOUS
 10
-211.5
 20
-236.0
 30
0.0
 11
-284.5
 21
-236.0
 31
0.0
  0
LINE
  5
382
  8
OUTLINE
  6
CONTINUOUS
 10
-224.588544
 20
-97.055728
 30
0.0
 11
-214.7
 21
-102.0
 31
0.0
  0
LINE
  5
383
  8
OUTLINE
  6
CONTINUOUS
 10
-211.5
 20
-102.0
 30
0.0
 11
-214.7
 21
-102.0
 31
0.0
  0
ARC
  5
384
  8
OUTLINE
  6
CONTINUOUS
 10
-266.93932
 20
-106.0
 30
0.0
 40
10.0
 50
90.0
 51
116.565051
  0
LINE
  5
385
  8
OUTLINE
  6
CONTINUOUS
 10
-229.06068
 20
-96.0
 30
0.0
 11
-266.93932
 21
-96.0
 31
0.0
  0
ARC
  5
386
  8
OUTLINE
  6
CONTINUOUS
 10
-229.06068
 20
-106.0
 30
0.0
 40
10.0
 50
63.434949
 51
90.0
  0
LINE
  5
387
  8
OUTLINE
  6
CONTINUOUS
 10
-284.5
 20
-102.0
 30
0.0
 11
-284.5
 21
-236.0
 31
0.0
  0
LINE
  5
388
  8
OUTLINE
  6
CONTINUOUS
 10
-271.411456
 20
-97.055728
 30
0.0
 11
-281.3
 21
-102.0
 31
0.0
  0
LINE
  5
389
  8
OUTLINE
  6
CONTINUOUS
 10
-284.5
 20
-102.0
 30
0.0
 11
-281.3
 21
-102.0
 31
0.0
  0
LINE
  5
38A
  8
OUTLINE
  6
CONTINUOUS
 10
-36.5
 20
-532.0
 30
0.0
 11
-33.3
 21
-532.0
 31
0.0
  0
ARC
  5
38B
  8
OUTLINE
  6
CONTINUOUS
 10
-18.93932
 20
-536.0
 30
0.0
 40
10.0
 50
90.0
 51
116.565051
  0
LINE
  5
38C
  8
OUTLINE
  6
CONTINUOUS
 10
-23.411456
 20
-527.055728
 30
0.0
 11
-33.3
 21
-532.0
 31
0.0
  0
LINE
  5
38D
  8
OUTLINE
  6
CONTINUOUS
 10
-36.5
 20
-532.0
 30
0.0
 11
-36.5
 21
-666.0
 31
0.0
  0
LINE
  5
38E
  8
OUTLINE
  6
CONTINUOUS
 10
18.93932
 20
-526.0
 30
0.0
 11
-18.93932
 21
-526.0
 31
0.0
  0
LINE
  5
38F
  8
OUTLINE
  6
CONTINUOUS
 10
23.411456
 20
-527.055728
 30
0.0
 11
33.3
 21
-532.0
 31
0.0
  0
ARC
  5
390
  8
OUTLINE
  6
CONTINUOUS
 10
18.93932
 20
-536.0
 30
0.0
 40
10.0
 50
63.434949
 51
90.0
  0
LINE
  5
391
  8
OUTLINE
  6
CONTINUOUS
 10
36.5
 20
-532.0
 30
0.0
 11
36.5
 21
-666.0
 31
0.0
  0
LINE
  5
392
  8
OUTLINE
  6
CONTINUOUS
 10
36.5
 20
-532.0
 30
0.0
 11
33.3
 21
-532.0
 31
0.0
  0
LINE
  5
393
  8
OUTLINE
  6
CONTINUOUS
 10
36.5
 20
-666.0
 30
0.0
 11
-36.5
 21
-666.0
 31
0.0
  0
CIRCLE
  5
394
  8
DETAIL
  6
CONTINUOUS
 10
-5.0
 20
-675.0
 30
0.0
 40
10.85
  0
CIRCLE
  5
395
  8
DETAIL
  6
CONTINUOUS
 10
-85.0
 20
-675.0
 30
0.0
 40
10.85
  0
LINE
  5
396
  8
DETAIL
  6
CONTINUOUS
 10
95.0
 20
-619.5
 30
0.0
 11
75.0
 21
-619.5
 31
0.0
  0
ARC
  5
397
  8
DETAIL
  6
CONTINUOUS
 10
75.0
 20
-595.0
 30
0.0
 40
24.5
 50
90.0
 51
270.0
  0
ARC
  5
398
  8
DETAIL
  6
CONTINUOUS
 10
95.0
 20
-595.0
 30
0.0
 40
24.5
 50
270.0
 51
90.0
  0
LINE
  5
399
  8
DETAIL
  6
CONTINUOUS
 10
95.0
 20
-570.5
 30
0.0
 11
75.0
 21
-570.5
 31
0.0
  0
LINE
  5
39A
  8
DETAIL
  6
CONTINUOUS
 10
-149.620835
 20
-557.362505
 30
0.0
 11
-150.97813
 21
-559.713408
 31
0.0
  0
LINE
  5
39B
  8
DETAIL
  6
CONTINUOUS
 10
-142.653212
 20
-594.294229
 30
0.0
 11
-140.903212
 21
-591.26314
 31
0.0
  0
LINE
  5
39C
  8
DETAIL
  6
CONTINUOUS
 10
-133.653212
 20
-578.705771
 30
0.0
 11
-129.823085
 21
-582.071797
 31
0.0
  0
LINE
  5
39D
  8
DETAIL
  6
CONTINUOUS
 10
-137.823085
 20
-605.928203
 30
0.0
 11
-142.653212
 21
-604.294229
 31
0.0
  0
LINE
  5
39E
  8
DETAIL
  6
CONTINUOUS
 10
-142.653212
 20
-594.294229
 30
0.0
 11
-156.0
 21
-586.588457
 31
0.0
  0
LINE
  5
39F
  8
DETAIL
  6
CONTINUOUS
 10
-133.653212
 20
-578.705771
 30
0.0
 11
-147.0
 21
-571.0
 31
0.0
  0
LINE
  5
3A0
  8
DETAIL
  6
CONTINUOUS
 10
-137.823085
 20
-595.928203
 30
0.0
 11
-129.823085
 21
-582.071797
 31
0.0
  0
ARC
  5
3A1
  8
DETAIL
  6
CONTINUOUS
 10
-165.0
 20
-571.0
 30
0.0
 40
31.5
 50
346.60155
 51
313.39845
  0
ARC
  5
3A2
  8
DETAIL
  6
CONTINUOUS
 10
-139.537187
 20
-600.897114
 30
0.0
 40
1.0
 50
240.0
 51
330.0
  0
ARC
  5
3A3
  8
DETAIL
  6
CONTINUOUS
 10
-135.037187
 20
-583.102886
 30
0.0
 40
1.0
 50
330.0
 51
60.0
  0
LINE
  5
3A4
  8
DETAIL
  6
CONTINUOUS
 10
-140.037187
 20
-591.76314
 30
0.0
 11
-152.907072
 21
-584.332708
 31
0.0
  0
LINE
  5
3A5
  8
DETAIL
  6
CONTINUOUS
 10
-134.537187
 20
-582.23686
 30
0.0
 11
-147.407072
 21
-574.806429
 31
0.0
  0
LINE
  5
3A6
  8
DETAIL
  6
CONTINUOUS
 10
-134.171162
 20
-583.602886
 30
0.0
 11
-138.671162
 21
-591.397114
 31
0.0
  0
LINE
  5
3A7
  8
DETAIL
  6
CONTINUOUS
 10
-135.403212
 20
-581.73686
 30
0.0
 11
-133.653212
 21
-578.705771
 31
0.0
  0
ARC
  5
3A8
  8
DETAIL
  6
CONTINUOUS
 10
-165.0
 20
-571.0
 30
0.0
 40
18.0
 50
347.791591
 51
312.208409
  0
ARC
  5
3A9
  8
DETAIL
  6
CONTINUOUS
 10
-155.25
 20
-554.112505
 30
0.0
 40
3.8
 50
301.510966
 51
178.489034
  0
LINE
  5
3AA
  8
DETAIL
  6
CONTINUOUS
 10
-160.879165
 20
-550.862505
 30
0.0
 11
-162.23646
 21
-553.213408
 31
0.0
  0
ARC
  5
3AB
  8
DETAIL
  6
CONTINUOUS
 10
-155.25
 20
-554.112505
 30
0.0
 40
6.5
 50
330.0
 51
150.0
  0
ARC
  5
3AC
  8
DETAIL
  6
CONTINUOUS
 10
-174.75
 20
-587.887495
 30
0.0
 40
3.8
 50
121.510966
 51
358.489034
  0
ARC
  5
3AD
  8
DETAIL
  6
CONTINUOUS
 10
-174.75
 20
-587.887495
 30
0.0
 40
6.5
 50
150.0
 51
330.0
  0
LINE
  5
3AE
  8
DETAIL
  6
CONTINUOUS
 10
-180.379165
 20
-584.637495
 30
0.0
 11
-179.02187
 21
-582.286592
 31
0.0
  0
LINE
  5
3AF
  8
DETAIL
  6
CONTINUOUS
 10
-169.120835
 20
-591.137495
 30
0.0
 11
-167.76354
 21
-588.786592
 31
0.0
  0
ARC
  5
3B0
  8
DETAIL
  6
CONTINUOUS
 10
-147.343671
 20
-581.193886
 30
0.0
 40
6.387772
 50
90.568692
 51
209.431308
  0
LINE
  5
3B1
  8
DETAIL
  6
CONTINUOUS
 10
223.0
 20
-96.0
 30
0.0
 11
186.0
 21
-96.0
 31
0.0
  0
LINE
  5
3B2
  8
DETAIL
  6
CONTINUOUS
 10
186.0
 20
-96.0
 30
0.0
 11
186.0
 21
-56.0
 31
0.0
  0
LINE
  5
3B3
  8
DETAIL
  6
CONTINUOUS
 10
223.0
 20
-126.0
 30
0.0
 11
223.0
 21
-96.0
 31
0.0
  0
LINE
  5
3B4
  8
DETAIL
  6
CONTINUOUS
 10
273.0
 20
-126.0
 30
0.0
 11
223.0
 21
-126.0
 31
0.0
  0
LINE
  5
3B5
  8
DETAIL
  6
CONTINUOUS
 10
273.0
 20
-126.0
 30
0.0
 11
273.0
 21
-96.0
 31
0.0
  0
LINE
  5
3B6
  8
DETAIL
  6
CONTINUOUS
 10
310.0
 20
-96.0
 30
0.0
 11
273.0
 21
-96.0
 31
0.0
  0
LINE
  5
3B7
  8
DETAIL
  6
CONTINUOUS
 10
310.0
 20
-56.0
 30
0.0
 11
186.0
 21
-56.0
 31
0.0
  0
LINE
  5
3B8
  8
DETAIL
  6
CONTINUOUS
 10
310.0
 20
-96.0
 30
0.0
 11
310.0
 21
-56.0
 31
0.0
  0
LINE
  5
3B9
  8
DETAIL
  6
CONTINUOUS
 10
-273.0
 20
-96.0
 30
0.0
 11
-310.0
 21
-96.0
 31
0.0
  0
LINE
  5
3BA
  8
DETAIL
  6
CONTINUOUS
 10
-310.0
 20
-96.0
 30
0.0
 11
-310.0
 21
-56.0
 31
0.0
  0
LINE
  5
3BB
  8
DETAIL
  6
CONTINUOUS
 10
-186.0
 20
-96.0
 30
0.0
 11
-223.0
 21
-96.0
 31
0.0
  0
LINE
  5
3BC
  8
DETAIL
  6
CONTINUOUS
 10
-186.0
 20
-96.0
 30
0.0
 11
-186.0
 21
-56.0
 31
0.0
  0
LINE
  5
3BD
  8
DETAIL
  6
CONTINUOUS
 10
-186.0
 20
-56.0
 30
0.0
 11
-310.0
 21
-56.0
 31
0.0
  0
LINE
  5
3BE
  8
DETAIL
  6
CONTINUOUS
 10
-223.0
 20
-126.0
 30
0.0
 11
-223.0
 21
-96.0
 31
0.0
  0
LINE
  5
3BF
  8
DETAIL
  6
CONTINUOUS
 10
-223.0
 20
-126.0
 30
0.0
 11
-273.0
 21
-126.0
 31
0.0
  0
LINE
  5
3C0
  8
DETAIL
  6
CONTINUOUS
 10
-273.0
 20
-126.0
 30
0.0
 11
-273.0
 21
-96.0
 31
0.0
  0
ARC
  5
3C1
  8
DETAIL
  6
CONTINUOUS
 10
-248.0
 20
-159.6
 30
0.0
 40
8.0
 50
0.0
 51
180.0
  0
ARC
  5
3C2
  8
DETAIL
  6
CONTINUOUS
 10
-248.0
 20
-216.0
 30
0.0
 40
8.0
 50
180.0
 51
0.0
  0
ARC
  5
3C3
  8
DETAIL
  6
CONTINUOUS
 10
-260.5
 20
-181.3
 30
0.0
 40
8.0
 50
90.0
 51
270.0
  0
ARC
  5
3C4
  8
DETAIL
  6
CONTINUOUS
 10
-235.5
 20
-181.3
 30
0.0
 40
8.0
 50
270.0
 51
90.0
  0
LINE
  5
3C5
  8
DETAIL
  6
CONTINUOUS
 10
-256.0
 20
-168.3
 30
0.0
 11
-256.0
 21
-159.6
 31
0.0
  0
ARC
  5
3C6
  8
DETAIL
  6
CONTINUOUS
 10
-261.0
 20
-168.3
 30
0.0
 40
5.0
 50
270.0
 51
0.0
  0
LINE
  5
3C7
  8
DETAIL
  6
CONTINUOUS
 10
-240.0
 20
-168.3
 30
0.0
 11
-240.0
 21
-159.6
 31
0.0
  0
ARC
  5
3C8
  8
DETAIL
  6
CONTINUOUS
 10
-235.0
 20
-168.3
 30
0.0
 40
5.0
 50
180.0
 51
270.0
  0
LINE
  5
3C9
  8
DETAIL
  6
CONTINUOUS
 10
-256.0
 20
-216.0
 30
0.0
 11
-256.0
 21
-194.3
 31
0.0
  0
ARC
  5
3CA
  8
DETAIL
  6
CONTINUOUS
 10
-261.0
 20
-194.3
 30
0.0
 40
5.0
 50
0.0
 51
90.0
  0
LINE
  5
3CB
  8
DETAIL
  6
CONTINUOUS
 10
-240.0
 20
-216.0
 30
0.0
 11
-240.0
 21
-194.3
 31
0.0
  0
ARC
  5
3CC
  8
DETAIL
  6
CONTINUOUS
 10
-235.0
 20
-194.3
 30
0.0
 40
5.0
 50
90.0
 51
180.0
  0
ARC
  5
3CD
  8
DETAIL
  6
CONTINUOUS
 10
248.0
 20
-159.6
 30
0.0
 40
8.0
 50
0.0
 51
180.0
  0
ARC
  5
3CE
  8
DETAIL
  6
CONTINUOUS
 10
248.0
 20
-216.0
 30
0.0
 40
8.0
 50
180.0
 51
0.0
  0
ARC
  5
3CF
  8
DETAIL
  6
CONTINUOUS
 10
260.5
 20
-181.3
 30
0.0
 40
8.0
 50
270.0
 51
90.0
  0
ARC
  5
3D0
  8
DETAIL
  6
CONTINUOUS
 10
235.5
 20
-181.3
 30
0.0
 40
8.0
 50
90.0
 51
270.0
  0
LINE
  5
3D1
  8
DETAIL
  6
CONTINUOUS
 10
256.0
 20
-168.3
 30
0.0
 11
256.0
 21
-159.6
 31
0.0
  0
ARC
  5
3D2
  8
DETAIL
  6
CONTINUOUS
 10
261.0
 20
-168.3
 30
0.0
 40
5.0
 50
180.0
 51
270.0
  0
LINE
  5
3D3
  8
DETAIL
  6
CONTINUOUS
 10
240.0
 20
-168.3
 30
0.0
 11
240.0
 21
-159.6
 31
0.0
  0
ARC
  5
3D4
  8
DETAIL
  6
CONTINUOUS
 10
235.0
 20
-168.3
 30
0.0
 40
5.0
 50
270.0
 51
0.0
  0
LINE
  5
3D5
  8
DETAIL
  6
CONTINUOUS
 10
256.0
 20
-216.0
 30
0.0
 11
256.0
 21
-194.3
 31
0.0
  0
ARC
  5
3D6
  8
DETAIL
  6
CONTINUOUS
 10
261.0
 20
-194.3
 30
0.0
 40
5.0
 50
90.0
 51
180.0
  0
LINE
  5
3D7
  8
DETAIL
  6
CONTINUOUS
 10
240.0
 20
-216.0
 30
0.0
 11
240.0
 21
-194.3
 31
0.0
  0
ARC
  5
3D8
  8
DETAIL
  6
CONTINUOUS
 10
235.0
 20
-194.3
 30
0.0
 40
5.0
 50
0.0
 51
90.0
  0
LINE
  5
3D9
  8
DETAIL
  6
CONTINUOUS
 10
-8.0
 20
-646.0
 30
0.0
 11
-8.0
 21
-624.3
 31
0.0
  0
ARC
  5
3DA
  8
DETAIL
  6
CONTINUOUS
 10
-13.0
 20
-624.3
 30
0.0
 40
5.0
 50
0.0
 51
90.0
  0
ARC
  5
3DB
  8
DETAIL
  6
CONTINUOUS
 10
-13.0
 20
-598.3
 30
0.0
 40
5.0
 50
270.0
 51
0.0
  0
LINE
  5
3DC
  8
DETAIL
  6
CONTINUOUS
 10
-8.0
 20
-598.3
 30
0.0
 11
-8.0
 21
-589.6
 31
0.0
  0
ARC
  5
3DD
  8
DETAIL
  6
CONTINUOUS
 10
-12.5
 20
-611.3
 30
0.0
 40
8.0
 50
90.0
 51
270.0
  0
ARC
  5
3DE
  8
DETAIL
  6
CONTINUOUS
 10
0.0
 20
-589.6
 30
0.0
 40
8.0
 50
0.0
 51
180.0
  0
LINE
  5
3DF
  8
DETAIL
  6
CONTINUOUS
 10
8.0
 20
-646.0
 30
0.0
 11
8.0
 21
-624.3
 31
0.0
  0
ARC
  5
3E0
  8
DETAIL
  6
CONTINUOUS
 10
13.0
 20
-624.3
 30
0.0
 40
5.0
 50
90.0
 51
180.0
  0
ARC
  5
3E1
  8
DETAIL
  6
CONTINUOUS
 10
13.0
 20
-598.3
 30
0.0
 40
5.0
 50
180.0
 51
270.0
  0
LINE
  5
3E2
  8
DETAIL
  6
CONTINUOUS
 10
8.0
 20
-598.3
 30
0.0
 11
8.0
 21
-589.6
 31
0.0
  0
ARC
  5
3E3
  8
DETAIL
  6
CONTINUOUS
 10
12.5
 20
-611.3
 30
0.0
 40
8.0
 50
270.0
 51
90.0
  0
CIRCLE
  5
3E4
  8
DETAIL
  6
CONTINUOUS
 10
0.0
 20
-542.0
 30
0.0
 40
8.0
  0
ARC
  5
3E5
  8
DETAIL
  6
CONTINUOUS
 10
0.0
 20
-646.0
 30
0.0
 40
8.0
 50
180.0
 51
0.0
  0
LINE
  5
3E6
  8
DETAIL
  6
CONTINUOUS
 10
-36.5
 20
-532.0
 30
0.0
 11
-33.3
 21
-532.0
 31
0.0
  0
ARC
  5
3E7
  8
DETAIL
  6
CONTINUOUS
 10
-18.93932
 20
-536.0
 30
0.0
 40
10.0
 50
90.0
 51
116.565051
  0
LINE
  5
3E8
  8
DETAIL
  6
CONTINUOUS
 10
-23.411456
 20
-527.055728
 30
0.0
 11
-33.3
 21
-532.0
 31
0.0
  0
LINE
  5
3E9
  8
DETAIL
  6
CONTINUOUS
 10
-36.5
 20
-532.0
 30
0.0
 11
-36.5
 21
-666.0
 31
0.0
  0
LINE
  5
3EA
  8
DETAIL
  6
CONTINUOUS
 10
18.93932
 20
-526.0
 30
0.0
 11
-18.93932
 21
-526.0
 31
0.0
  0
LINE
  5
3EB
  8
DETAIL
  6
CONTINUOUS
 10
23.411456
 20
-527.055728
 30
0.0
 11
33.3
 21
-532.0
 31
0.0
  0
ARC
  5
3EC
  8
DETAIL
  6
CONTINUOUS
 10
18.93932
 20
-536.0
 30
0.0
 40
10.0
 50
63.434949
 51
90.0
  0
LINE
  5
3ED
  8
DETAIL
  6
CONTINUOUS
 10
36.5
 20
-532.0
 30
0.0
 11
36.5
 21
-666.0
 31
0.0
  0
LINE
  5
3EE
  8
DETAIL
  6
CONTINUOUS
 10
36.5
 20
-532.0
 30
0.0
 11
33.3
 21
-532.0
 31
0.0
  0
LINE
  5
3EF
  8
DETAIL
  6
CONTINUOUS
 10
36.5
 20
-666.0
 30
0.0
 11
-36.5
 21
-666.0
 31
0.0
  0
LINE
  5
3F0
  8
DETAIL
  6
CONTINUOUS
 10
-284.5
 20
-102.0
 30
0.0
 11
-284.5
 21
-236.0
 31
0.0
  0
LINE
  5
3F1
  8
DETAIL
  6
CONTINUOUS
 10
-271.411456
 20
-97.055728
 30
0.0
 11
-281.3
 21
-102.0
 31
0.0
  0
LINE
  5
3F2
  8
DETAIL
  6
CONTINUOUS
 10
-284.5
 20
-102.0
 30
0.0
 11
-281.3
 21
-102.0
 31
0.0
  0
LINE
  5
3F3
  8
DETAIL
  6
CONTINUOUS
 10
-211.5
 20
-102.0
 30
0.0
 11
-211.5
 21
-236.0
 31
0.0
  0
LINE
  5
3F4
  8
DETAIL
  6
CONTINUOUS
 10
-211.5
 20
-236.0
 30
0.0
 11
-284.5
 21
-236.0
 31
0.0
  0
LINE
  5
3F5
  8
DETAIL
  6
CONTINUOUS
 10
-224.588544
 20
-97.055728
 30
0.0
 11
-214.7
 21
-102.0
 31
0.0
  0
LINE
  5
3F6
  8
DETAIL
  6
CONTINUOUS
 10
-211.5
 20
-102.0
 30
0.0
 11
-214.7
 21
-102.0
 31
0.0
  0
ARC
  5
3F7
  8
DETAIL
  6
CONTINUOUS
 10
-266.93932
 20
-106.0
 30
0.0
 40
10.0
 50
90.0
 51
116.565051
  0
LINE
  5
3F8
  8
DETAIL
  6
CONTINUOUS
 10
-229.06068
 20
-96.0
 30
0.0
 11
-266.93932
 21
-96.0
 31
0.0
  0
ARC
  5
3F9
  8
DETAIL
  6
CONTINUOUS
 10
-229.06068
 20
-106.0
 30
0.0
 40
10.0
 50
63.434949
 51
90.0
  0
LINE
  5
3FA
  8
DETAIL
  6
CONTINUOUS
 10
211.5
 20
-236.0
 30
0.0
 11
284.5
 21
-236.0
 31
0.0
  0
LINE
  5
3FB
  8
DETAIL
  6
CONTINUOUS
 10
211.5
 20
-102.0
 30
0.0
 11
211.5
 21
-236.0
 31
0.0
  0
LINE
  5
3FC
  8
DETAIL
  6
CONTINUOUS
 10
224.588544
 20
-97.055728
 30
0.0
 11
214.7
 21
-102.0
 31
0.0
  0
LINE
  5
3FD
  8
DETAIL
  6
CONTINUOUS
 10
211.5
 20
-102.0
 30
0.0
 11
214.7
 21
-102.0
 31
0.0
  0
LINE
  5
3FE
  8
DETAIL
  6
CONTINUOUS
 10
229.06068
 20
-96.0
 30
0.0
 11
266.93932
 21
-96.0
 31
0.0
  0
ARC
  5
3FF
  8
DETAIL
  6
CONTINUOUS
 10
229.06068
 20
-106.0
 30
0.0
 40
10.0
 50
90.0
 51
116.565051
  0
LINE
  5
400
  8
DETAIL
  6
CONTINUOUS
 10
284.5
 20
-102.0
 30
0.0
 11
284.5
 21
-236.0
 31
0.0
  0
LINE
  5
401
  8
DETAIL
  6
CONTINUOUS
 10
271.411456
 20
-97.055728
 30
0.0
 11
281.3
 21
-102.0
 31
0.0
  0
LINE
  5
402
  8
DETAIL
  6
CONTINUOUS
 10
284.5
 20
-102.0
 30
0.0
 11
281.3
 21
-102.0
 31
0.0
  0
ARC
  5
403
  8
DETAIL
  6
CONTINUOUS
 10
266.93932
 20
-106.0
 30
0.0
 40
10.0
 50
63.434949
 51
90.0
  0
ARC
  5
404
  8
DETAIL
  6
CONTINUOUS
 10
0.0
 20
-646.0
 30
0.0
 40
8.0
 50
180.0
 51
0.0
  0
CIRCLE
  5
405
  8
DETAIL
  6
CONTINUOUS
 10
0.0
 20
-542.0
 30
0.0
 40
8.0
  0
ARC
  5
406
  8
DETAIL
  6
CONTINUOUS
 10
12.5
 20
-611.3
 30
0.0
 40
8.0
 50
270.0
 51
90.0
  0
LINE
  5
407
  8
DETAIL
  6
CONTINUOUS
 10
8.0
 20
-598.3
 30
0.0
 11
8.0
 21
-589.6
 31
0.0
  0
ARC
  5
408
  8
DETAIL
  6
CONTINUOUS
 10
13.0
 20
-598.3
 30
0.0
 40
5.0
 50
180.0
 51
270.0
  0
ARC
  5
409
  8
DETAIL
  6
CONTINUOUS
 10
13.0
 20
-624.3
 30
0.0
 40
5.0
 50
90.0
 51
180.0
  0
LINE
  5
40A
  8
DETAIL
  6
CONTINUOUS
 10
8.0
 20
-646.0
 30
0.0
 11
8.0
 21
-624.3
 31
0.0
  0
ARC
  5
40B
  8
DETAIL
  6
CONTINUOUS
 10
0.0
 20
-589.6
 30
0.0
 40
8.0
 50
0.0
 51
180.0
  0
ARC
  5
40C
  8
DETAIL
  6
CONTINUOUS
 10
-12.5
 20
-611.3
 30
0.0
 40
8.0
 50
90.0
 51
270.0
  0
LINE
  5
40D
  8
DETAIL
  6
CONTINUOUS
 10
-8.0
 20
-598.3
 30
0.0
 11
-8.0
 21
-589.6
 31
0.0
  0
ARC
  5
40E
  8
DETAIL
  6
CONTINUOUS
 10
-13.0
 20
-598.3
 30
0.0
 40
5.0
 50
270.0
 51
0.0
  0
ARC
  5
40F
  8
DETAIL
  6
CONTINUOUS
 10
-13.0
 20
-624.3
 30
0.0
 40
5.0
 50
0.0
 51
90.0
  0
LINE
  5
410
  8
DETAIL
  6
CONTINUOUS
 10
-8.0
 20
-646.0
 30
0.0
 11
-8.0
 21
-624.3
 31
0.0
  0
ARC
  5
411
  8
DETAIL
  6
CONTINUOUS
 10
235.0
 20
-194.3
 30
0.0
 40
5.0
 50
0.0
 51
90.0
  0
LINE
  5
412
  8
DETAIL
  6
CONTINUOUS
 10
240.0
 20
-216.0
 30
0.0
 11
240.0
 21
-194.3
 31
0.0
  0
ARC
  5
413
  8
DETAIL
  6
CONTINUOUS
 10
261.0
 20
-194.3
 30
0.0
 40
5.0
 50
90.0
 51
180.0
  0
LINE
  5
414
  8
DETAIL
  6
CONTINUOUS
 10
256.0
 20
-216.0
 30
0.0
 11
256.0
 21
-194.3
 31
0.0
  0
ARC
  5
415
  8
DETAIL
  6
CONTINUOUS
 10
235.0
 20
-168.3
 30
0.0
 40
5.0
 50
270.0
 51
0.0
  0
LINE
  5
416
  8
DETAIL
  6
CONTINUOUS
 10
240.0
 20
-168.3
 30
0.0
 11
240.0
 21
-159.6
 31
0.0
  0
ARC
  5
417
  8
DETAIL
  6
CONTINUOUS
 10
261.0
 20
-168.3
 30
0.0
 40
5.0
 50
180.0
 51
270.0
  0
LINE
  5
418
  8
DETAIL
  6
CONTINUOUS
 10
256.0
 20
-168.3
 30
0.0
 11
256.0
 21
-159.6
 31
0.0
  0
ARC
  5
419
  8
DETAIL
  6
CONTINUOUS
 10
235.5
 20
-181.3
 30
0.0
 40
8.0
 50
90.0
 51
270.0
  0
ARC
  5
41A
  8
DETAIL
  6
CONTINUOUS
 10
260.5
 20
-181.3
 30
0.0
 40
8.0
 50
270.0
 51
90.0
  0
ARC
  5
41B
  8
DETAIL
  6
CONTINUOUS
 10
248.0
 20
-216.0
 30
0.0
 40
8.0
 50
180.0
 51
0.0
  0
ARC
  5
41C
  8
DETAIL
  6
CONTINUOUS
 10
248.0
 20
-159.6
 30
0.0
 40
8.0
 50
0.0
 51
180.0
  0
ARC
  5
41D
  8
DETAIL
  6
CONTINUOUS
 10
-235.0
 20
-194.3
 30
0.0
 40
5.0
 50
90.0
 51
180.0
  0
LINE
  5
41E
  8
DETAIL
  6
CONTINUOUS
 10
-240.0
 20
-216.0
 30
0.0
 11
-240.0
 21
-194.3
 31
0.0
  0
ARC
  5
41F
  8
DETAIL
  6
CONTINUOUS
 10
-261.0
 20
-194.3
 30
0.0
 40
5.0
 50
0.0
 51
90.0
  0
LINE
  5
420
  8
DETAIL
  6
CONTINUOUS
 10
-256.0
 20
-216.0
 30
0.0
 11
-256.0
 21
-194.3
 31
0.0
  0
ARC
  5
421
  8
DETAIL
  6
CONTINUOUS
 10
-235.0
 20
-168.3
 30
0.0
 40
5.0
 50
180.0
 51
270.0
  0
LINE
  5
422
  8
DETAIL
  6
CONTINUOUS
 10
-240.0
 20
-168.3
 30
0.0
 11
-240.0
 21
-159.6
 31
0.0
  0
ARC
  5
423
  8
DETAIL
  6
CONTINUOUS
 10
-261.0
 20
-168.3
 30
0.0
 40
5.0
 50
270.0
 51
0.0
  0
LINE
  5
424
  8
DETAIL
  6
CONTINUOUS
 10
-256.0
 20
-168.3
 30
0.0
 11
-256.0
 21
-159.6
 31
0.0
  0
ARC
  5
425
  8
DETAIL
  6
CONTINUOUS
 10
-235.5
 20
-181.3
 30
0.0
 40
8.0
 50
270.0
 51
90.0
  0
ARC
  5
426
  8
DETAIL
  6
CONTINUOUS
 10
-260.5
 20
-181.3
 30
0.0
 40
8.0
 50
90.0
 51
270.0
  0
ARC
  5
427
  8
DETAIL
  6
CONTINUOUS
 10
-248.0
 20
-216.0
 30
0.0
 40
8.0
 50
180.0
 51
0.0
  0
ARC
  5
428
  8
DETAIL
  6
CONTINUOUS
 10
-248.0
 20
-159.6
 30
0.0
 40
8.0
 50
0.0
 51
180.0
  0
CIRCLE
  5
429
  8
DETAIL
  6
CONTINUOUS
 10
-234.0
 20
-640.0
 30
0.0
 40
13.6
  0
LINE
  5
42A
  8
DETAIL
  6
CONTINUOUS
 10
-273.0
 20
-126.0
 30
0.0
 11
-273.0
 21
-96.0
 31
0.0
  0
LINE
  5
42B
  8
DETAIL
  6
CONTINUOUS
 10
-223.0
 20
-126.0
 30
0.0
 11
-273.0
 21
-126.0
 31
0.0
  0
LINE
  5
42C
  8
DETAIL
  6
CONTINUOUS
 10
-223.0
 20
-126.0
 30
0.0
 11
-223.0
 21
-96.0
 31
0.0
  0
LINE
  5
42D
  8
DETAIL
  6
CONTINUOUS
 10
-186.0
 20
-56.0
 30
0.0
 11
-310.0
 21
-56.0
 31
0.0
  0
LINE
  5
42E
  8
DETAIL
  6
CONTINUOUS
 10
-186.0
 20
-96.0
 30
0.0
 11
-186.0
 21
-56.0
 31
0.0
  0
LINE
  5
42F
  8
DETAIL
  6
CONTINUOUS
 10
-186.0
 20
-96.0
 30
0.0
 11
-223.0
 21
-96.0
 31
0.0
  0
LINE
  5
430
  8
DETAIL
  6
CONTINUOUS
 10
-310.0
 20
-96.0
 30
0.0
 11
-310.0
 21
-56.0
 31
0.0
  0
LINE
  5
431
  8
DETAIL
  6
CONTINUOUS
 10
-273.0
 20
-96.0
 30
0.0
 11
-310.0
 21
-96.0
 31
0.0
  0
LINE
  5
432
  8
DETAIL
  6
CONTINUOUS
 10
310.0
 20
-96.0
 30
0.0
 11
310.0
 21
-56.0
 31
0.0
  0
LINE
  5
433
  8
DETAIL
  6
CONTINUOUS
 10
310.0
 20
-56.0
 30
0.0
 11
186.0
 21
-56.0
 31
0.0
  0
LINE
  5
434
  8
DETAIL
  6
CONTINUOUS
 10
310.0
 20
-96.0
 30
0.0
 11
273.0
 21
-96.0
 31
0.0
  0
LINE
  5
435
  8
DETAIL
  6
CONTINUOUS
 10
273.0
 20
-126.0
 30
0.0
 11
273.0
 21
-96.0
 31
0.0
  0
LINE
  5
436
  8
DETAIL
  6
CONTINUOUS
 10
273.0
 20
-126.0
 30
0.0
 11
223.0
 21
-126.0
 31
0.0
  0
LINE
  5
437
  8
DETAIL
  6
CONTINUOUS
 10
223.0
 20
-126.0
 30
0.0
 11
223.0
 21
-96.0
 31
0.0
  0
LINE
  5
438
  8
DETAIL
  6
CONTINUOUS
 10
186.0
 20
-96.0
 30
0.0
 11
186.0
 21
-56.0
 31
0.0
  0
LINE
  5
439
  8
DETAIL
  6
CONTINUOUS
 10
223.0
 20
-96.0
 30
0.0
 11
186.0
 21
-96.0
 31
0.0
  0
LINE
  5
43A
  8
DETAIL
  6
CONTINUOUS
 10
-149.0
 20
-640.5
 30
0.0
 11
-169.0
 21
-640.5
 31
0.0
  0
ARC
  5
43B
  8
DETAIL
  6
CONTINUOUS
 10
-169.0
 20
-665.0
 30
0.0
 40
24.5
 50
90.0
 51
270.0
  0
ARC
  5
43C
  8
DETAIL
  6
CONTINUOUS
 10
-149.0
 20
-665.0
 30
0.0
 40
24.5
 50
270.0
 51
90.0
  0
LINE
  5
43D
  8
DETAIL
  6
CONTINUOUS
 10
-149.0
 20
-689.5
 30
0.0
 11
-169.0
 21
-689.5
 31
0.0
  0
CIRCLE
  5
43E
  8
DETAIL
  6
CONTINUOUS
 10
-80.0
 20
-611.0
 30
0.0
 40
16.25
  0
ARC
  5
43F
  8
DETAIL
  6
CONTINUOUS
 10
75.0
 20
-665.0
 30
0.0
 40
24.5
 50
90.0
 51
270.0
  0
LINE
  5
440
  8
DETAIL
  6
CONTINUOUS
 10
95.0
 20
-640.5
 30
0.0
 11
75.0
 21
-640.5
 31
0.0
  0
ARC
  5
441
  8
DETAIL
  6
CONTINUOUS
 10
95.0
 20
-665.0
 30
0.0
 40
24.5
 50
270.0
 51
90.0
  0
LINE
  5
442
  8
DETAIL
  6
CONTINUOUS
 10
95.0
 20
-689.5
 30
0.0
 11
75.0
 21
-689.5
 31
0.0
  0
ARC
  5
443
  8
DETAIL
  6
CONTINUOUS
 10
217.0
 20
-643.0
 30
0.0
 40
24.5
 50
90.0
 51
270.0
  0
LINE
  5
444
  8
DETAIL
  6
CONTINUOUS
 10
237.0
 20
-618.5
 30
0.0
 11
217.0
 21
-618.5
 31
0.0
  0
ARC
  5
445
  8
DETAIL
  6
CONTINUOUS
 10
237.0
 20
-643.0
 30
0.0
 40
24.5
 50
270.0
 51
90.0
  0
LINE
  5
446
  8
DETAIL
  6
CONTINUOUS
 10
237.0
 20
-667.5
 30
0.0
 11
217.0
 21
-667.5
 31
0.0
  0
LINE
  5
447
  8
DETAIL
  6
CONTINUOUS
 10
-315.0
 20
0.0
 30
0.0
 11
-315.0
 21
-730.0
 31
0.0
  0
LINE
  5
448
  8
DETAIL
  6
CONTINUOUS
 10
315.0
 20
-730.0
 30
0.0
 11
-315.0
 21
-730.0
 31
0.0
  0
LINE
  5
449
  8
DETAIL
  6
CONTINUOUS
 10
315.0
 20
0.0
 30
0.0
 11
315.0
 21
-730.0
 31
0.0
  0
LINE
  5
44A
  8
DETAIL
  6
CONTINUOUS
 10
315.0
 20
0.0
 30
0.0
 11
-315.0
 21
0.0
 31
0.0
  0
LINE
  5
44B
  8
BASIS
  6
DASHDOT
 10
0.0
 20
50.0
 30
0.0
 11
0.0
 21
-780.0
 31
0.0
  0
LINE
  5
44C
  8
SIZE
  6
CONTINUOUS
 62
    30
 10
-264.0
 20
-640.0
 30
0.0
 11
-729.9
 21
-640.0
 31
0.0
  0
LINE
  5
44D
  8
SIZE
  6
CONTINUOUS
 62
    30
 10
-195.0
 20
-571.0
 30
0.0
 11
-729.9
 21
-571.0
 31
0.0
  0
LINE
  5
44E
  8
SIZE
  6
CONTINUOUS
 62
    30
 10
-717.4
 20
-630.0
 30
0.0
 11
-717.4
 21
-581.0
 31
0.0
  0
CIRCLE
  5
44F
  8
SIZE
  6
CONTINUOUS
 62
    30
 10
-717.4
 20
-640.0
 30
0.0
 40
5.0
  0
LINE
  5
450
  8
SIZE
  6
CONTINUOUS
 62
    30
 10
-717.4
 20
-640.0
 30
0.0
 11
-717.4
 21
-630.0
 31
0.0
  0
CIRCLE
  5
451
  8
SIZE
  6
CONTINUOUS
 62
    30
 10
-717.4
 20
-571.0
 30
0.0
 40
5.0
  0
LINE
  5
452
  8
SIZE
  6
CONTINUOUS
 62
    30
 10
-717.4
 20
-571.0
 30
0.0
 11
-717.4
 21
-581.0
 31
0.0
  0
TEXT
  5
453
  8
SIZE
  6
CONTINUOUS
 62
    30
 10
-727.4
 20
-630.5
 30
0.0
 40
30.0
  1
69
 50
90.0
 72
     1
 11
-727.4
 21
-605.5
 31
0.0
  0
POINT
  5
454
  8
DEFPOINTS
  6
CONTINUOUS
 62
    30
 10
-254.0
 20
-640.0
 30
0.0
  0
POINT
  5
455
  8
DEFPOINTS
  6
CONTINUOUS
 62
    30
 10
-185.0
 20
-571.0
 30
0.0
  0
POINT
  5
456
  8
DEFPOINTS
  6
CONTINUOUS
 62
    30
 10
-717.4
 20
-571.0
 30
0.0
  0
LINE
  5
457
  8
SIZE
  6
CONTINUOUS
 62
    30
 10
0.0
 20
40.0
 30
0.0
 11
0.0
 21
-267.889795
 31
0.0
  0
LINE
  5
458
  8
SIZE
  6
CONTINUOUS
 62
    30
 10
-165.0
 20
-541.0
 30
0.0
 11
-165.0
 21
-242.889795
 31
0.0
  0
LINE
  5
459
  8
SIZE
  6
CONTINUOUS
 62
    30
 10
-10.0
 20
-255.389795
 30
0.0
 11
-155.0
 21
-255.389795
 31
0.0
  0
CIRCLE
  5
45A
  8
SIZE
  6
CONTINUOUS
 62
    30
 10
0.0
 20
-255.389795
 30
0.0
 40
5.0
  0
LINE
  5
45B
  8
SIZE
  6
CONTINUOUS
 62
    30
 10
0.0
 20
-255.389795
 30
0.0
 11
-10.0
 21
-255.389795
 31
0.0
  0
CIRCLE
  5
45C
  8
SIZE
  6
CONTINUOUS
 62
    30
 10
-165.0
 20
-255.389795
 30
0.0
 40
5.0
  0
LINE
  5
45D
  8
SIZE
  6
CONTINUOUS
 62
    30
 10
-165.0
 20
-255.389795
 30
0.0
 11
-155.0
 21
-255.389795
 31
0.0
  0
TEXT
  5
45E
  8
SIZE
  6
CONTINUOUS
 62
    30
 10
-117.5
 20
-245.389795
 30
0.0
 40
30.0
  1
165
 72
     1
 11
-82.5
 21
-245.389795
 31
0.0
  0
POINT
  5
45F
  8
DEFPOINTS
  6
CONTINUOUS
 62
    30
 10
0.0
 20
50.0
 30
0.0
  0
POINT
  5
460
  8
DEFPOINTS
  6
CONTINUOUS
 62
    30
 10
-165.0
 20
-551.0
 30
0.0
  0
POINT
  5
461
  8
DEFPOINTS
  6
CONTINUOUS
 62
    30
 10
-165.0
 20
-255.389795
 30
0.0
  0
LINE
  5
462
  8
SIZE
  6
CONTINUOUS
 62
    30
 10
315.0
 20
-740.0
 30
0.0
 11
315.0
 21
-990.1
 31
0.0
  0
LINE
  5
463
  8
SIZE
  6
CONTINUOUS
 62
    30
 10
227.0
 20
-673.0
 30
0.0
 11
227.0
 21
-990.1
 31
0.0
  0
LINE
  5
464
  8
SIZE
  6
CONTINUOUS
 62
    30
 10
305.0
 20
-977.6
 30
0.0
 11
237.0
 21
-977.6
 31
0.0
  0
CIRCLE
  5
465
  8
SIZE
  6
CONTINUOUS
 62
    30
 10
315.0
 20
-977.6
 30
0.0
 40
5.0
  0
LINE
  5
466
  8
SIZE
  6
CONTINUOUS
 62
    30
 10
315.0
 20
-977.6
 30
0.0
 11
305.0
 21
-977.6
 31
0.0
  0
CIRCLE
  5
467
  8
SIZE
  6
CONTINUOUS
 62
    30
 10
227.0
 20
-977.6
 30
0.0
 40
5.0
  0
LINE
  5
468
  8
SIZE
  6
CONTINUOUS
 62
    30
 10
227.0
 20
-977.6
 30
0.0
 11
237.0
 21
-977.6
 31
0.0
  0
TEXT
  5
469
  8
SIZE
  6
CONTINUOUS
 62
    30
 10
246.0
 20
-967.6
 30
0.0
 40
30.0
  1
88
 72
     1
 11
271.0
 21
-967.6
 31
0.0
  0
POINT
  5
46A
  8
DEFPOINTS
  6
CONTINUOUS
 62
    30
 10
315.0
 20
-730.0
 30
0.0
  0
POINT
  5
46B
  8
DEFPOINTS
  6
CONTINUOUS
 62
    30
 10
227.0
 20
-663.0
 30
0.0
  0
POINT
  5
46C
  8
DEFPOINTS
  6
CONTINUOUS
 62
    30
 10
227.0
 20
-977.6
 30
0.0
  0
LINE
  5
46D
  8
SIZE
  6
CONTINUOUS
 62
    30
 10
325.0
 20
-730.0
 30
0.0
 11
525.1
 21
-730.0
 31
0.0
  0
LINE
  5
46E
  8
SIZE
  6
CONTINUOUS
 62
    30
 10
115.0
 20
-595.0
 30
0.0
 11
525.1
 21
-595.0
 31
0.0
  0
LINE
  5
46F
  8
SIZE
  6
CONTINUOUS
 62
    30
 10
512.6
 20
-720.0
 30
0.0
 11
512.6
 21
-605.0
 31
0.0
  0
LINE
  5
470
  8
SIZE
  6
CONTINUOUS
 62
    30
 10
512.6
 20
-595.0
 30
0.0
 11
512.6
 21
-495.0
 31
0.0
  0
CIRCLE
  5
471
  8
SIZE
  6
CONTINUOUS
 62
    30
 10
512.6
 20
-730.0
 30
0.0
 40
5.0
  0
LINE
  5
472
  8
SIZE
  6
CONTINUOUS
 62
    30
 10
512.6
 20
-730.0
 30
0.0
 11
512.6
 21
-720.0
 31
0.0
  0
CIRCLE
  5
473
  8
SIZE
  6
CONTINUOUS
 62
    30
 10
512.6
 20
-595.0
 30
0.0
 40
5.0
  0
LINE
  5
474
  8
SIZE
  6
CONTINUOUS
 62
    30
 10
512.6
 20
-595.0
 30
0.0
 11
512.6
 21
-605.0
 31
0.0
  0
TEXT
  5
475
  8
SIZE
  6
CONTINUOUS
 62
    30
 10
502.6
 20
-575.0
 30
0.0
 40
30.0
  1
135
 50
90.0
 72
     1
 11
502.6
 21
-540.0
 31
0.0
  0
POINT
  5
476
  8
DEFPOINTS
  6
CONTINUOUS
 62
    30
 10
315.0
 20
-730.0
 30
0.0
  0
POINT
  5
477
  8
DEFPOINTS
  6
CONTINUOUS
 62
    30
 10
105.0
 20
-595.0
 30
0.0
  0
POINT
  5
478
  8
DEFPOINTS
  6
CONTINUOUS
 62
    30
 10
512.6
 20
-595.0
 30
0.0
  0
LINE
  5
479
  8
SIZE
  6
CONTINUOUS
 62
    30
 10
-110.0
 20
-611.0
 30
0.0
 11
-629.9
 21
-611.0
 31
0.0
  0
LINE
  5
47A
  8
SIZE
  6
CONTINUOUS
 62
    30
 10
-325.0
 20
-730.0
 30
0.0
 11
-629.9
 21
-730.0
 31
0.0
  0
LINE
  5
47B
  8
SIZE
  6
CONTINUOUS
 62
    30
 10
-617.4
 20
-621.0
 30
0.0
 11
-617.4
 21
-720.0
 31
0.0
  0
CIRCLE
  5
47C
  8
SIZE
  6
CONTINUOUS
 62
    30
 10
-617.4
 20
-611.0
 30
0.0
 40
5.0
  0
LINE
  5
47D
  8
SIZE
  6
CONTINUOUS
 62
    30
 10
-617.4
 20
-611.0
 30
0.0
 11
-617.4
 21
-621.0
 31
0.0
  0
CIRCLE
  5
47E
  8
SIZE
  6
CONTINUOUS
 62
    30
 10
-617.4
 20
-730.0
 30
0.0
 40
5.0
  0
LINE
  5
47F
  8
SIZE
  6
CONTINUOUS
 62
    30
 10
-617.4
 20
-730.0
 30
0.0
 11
-617.4
 21
-720.0
 31
0.0
  0
TEXT
  5
480
  8
SIZE
  6
CONTINUOUS
 62
    30
 10
-627.4
 20
-714.159424
 30
0.0
 40
30.0
  1
119
 50
90.0
 72
     1
 11
-627.4
 21
-684.159424
 31
0.0
  0
POINT
  5
481
  8
DEFPOINTS
  6
CONTINUOUS
 62
    30
 10
-100.0
 20
-611.0
 30
0.0
  0
POINT
  5
482
  8
DEFPOINTS
  6
CONTINUOUS
 62
    30
 10
-315.0
 20
-730.0
 30
0.0
  0
POINT
  5
483
  8
DEFPOINTS
  6
CONTINUOUS
 62
    30
 10
-617.4
 20
-730.0
 30
0.0
  0
LINE
  5
484
  8
SIZE
  6
CONTINUOUS
 62
    30
 10
-325.0
 20
-730.0
 30
0.0
 11
-729.9
 21
-730.0
 31
0.0
  0
LINE
  5
485
  8
SIZE
  6
CONTINUOUS
 62
    30
 10
-264.0
 20
-640.0
 30
0.0
 11
-729.9
 21
-640.0
 31
0.0
  0
LINE
  5
486
  8
SIZE
  6
CONTINUOUS
 62
    30
 10
-717.4
 20
-720.0
 30
0.0
 11
-717.4
 21
-650.0
 31
0.0
  0
CIRCLE
  5
487
  8
SIZE
  6
CONTINUOUS
 62
    30
 10
-717.4
 20
-730.0
 30
0.0
 40
5.0
  0
LINE
  5
488
  8
SIZE
  6
CONTINUOUS
 62
    30
 10
-717.4
 20
-730.0
 30
0.0
 11
-717.4
 21
-720.0
 31
0.0
  0
CIRCLE
  5
489
  8
SIZE
  6
CONTINUOUS
 62
    30
 10
-717.4
 20
-640.0
 30
0.0
 40
5.0
  0
LINE
  5
48A
  8
SIZE
  6
CONTINUOUS
 62
    30
 10
-717.4
 20
-640.0
 30
0.0
 11
-717.4
 21
-650.0
 31
0.0
  0
TEXT
  5
48B
  8
SIZE
  6
CONTINUOUS
 62
    30
 10
-727.4
 20
-707.5
 30
0.0
 40
30.0
  1
90
 50
90.0
 72
     1
 11
-727.4
 21
-685.0
 31
0.0
  0
POINT
  5
48C
  8
DEFPOINTS
  6
CONTINUOUS
 62
    30
 10
-315.0
 20
-730.0
 30
0.0
  0
POINT
  5
48D
  8
DEFPOINTS
  6
CONTINUOUS
 62
    30
 10
-254.0
 20
-640.0
 30
0.0
  0
POINT
  5
48E
  8
DEFPOINTS
  6
CONTINUOUS
 62
    30
 10
-717.4
 20
-640.0
 30
0.0
  0
LINE
  5
48F
  8
SIZE
  6
CONTINUOUS
 62
    30
 10
0.0
 20
-770.0
 30
0.0
 11
0.0
 21
-321.1
 31
0.0
  0
LINE
  5
490
  8
SIZE
  6
CONTINUOUS
 62
    30
 10
85.0
 20
-565.0
 30
0.0
 11
85.0
 21
-321.1
 31
0.0
  0
LINE
  5
491
  8
SIZE
  6
CONTINUOUS
 62
    30
 10
10.0
 20
-333.6
 30
0.0
 11
75.0
 21
-333.6
 31
0.0
  0
CIRCLE
  5
492
  8
SIZE
  6
CONTINUOUS
 62
    30
 10
0.0
 20
-333.6
 30
0.0
 40
5.0
  0
LINE
  5
493
  8
SIZE
  6
CONTINUOUS
 62
    30
 10
0.0
 20
-333.6
 30
0.0
 11
10.0
 21
-333.6
 31
0.0
  0
CIRCLE
  5
494
  8
SIZE
  6
CONTINUOUS
 62
    30
 10
85.0
 20
-333.6
 30
0.0
 40
5.0
  0
LINE
  5
495
  8
SIZE
  6
CONTINUOUS
 62
    30
 10
85.0
 20
-333.6
 30
0.0
 11
75.0
 21
-333.6
 31
0.0
  0
TEXT
  5
496
  8
SIZE
  6
CONTINUOUS
 62
    30
 10
17.5
 20
-323.6
 30
0.0
 40
30.0
  1
85
 72
     1
 11
42.5
 21
-323.6
 31
0.0
  0
POINT
  5
497
  8
DEFPOINTS
  6
CONTINUOUS
 62
    30
 10
0.0
 20
-780.0
 30
0.0
  0
POINT
  5
498
  8
DEFPOINTS
  6
CONTINUOUS
 62
    30
 10
85.0
 20
-575.0
 30
0.0
  0
POINT
  5
499
  8
DEFPOINTS
  6
CONTINUOUS
 62
    30
 10
85.0
 20
-333.6
 30
0.0
  0
LINE
  5
49A
  8
SIZE
  6
CONTINUOUS
 62
    30
 10
0.0
 20
-770.0
 30
0.0
 11
0.0
 21
-321.1
 31
0.0
  0
LINE
  5
49B
  8
SIZE
  6
CONTINUOUS
 62
    30
 10
-80.0
 20
-581.0
 30
0.0
 11
-80.0
 21
-321.1
 31
0.0
  0
LINE
  5
49C
  8
SIZE
  6
CONTINUOUS
 62
    30
 10
-10.0
 20
-333.6
 30
0.0
 11
-70.0
 21
-333.6
 31
0.0
  0
CIRCLE
  5
49D
  8
SIZE
  6
CONTINUOUS
 62
    30
 10
0.0
 20
-333.6
 30
0.0
 40
5.0
  0
LINE
  5
49E
  8
SIZE
  6
CONTINUOUS
 62
    30
 10
0.0
 20
-333.6
 30
0.0
 11
-10.0
 21
-333.6
 31
0.0
  0
CIRCLE
  5
49F
  8
SIZE
  6
CONTINUOUS
 62
    30
 10
-80.0
 20
-333.6
 30
0.0
 40
5.0
  0
LINE
  5
4A0
  8
SIZE
  6
CONTINUOUS
 62
    30
 10
-80.0
 20
-333.6
 30
0.0
 11
-70.0
 21
-333.6
 31
0.0
  0
TEXT
  5
4A1
  8
SIZE
  6
CONTINUOUS
 62
    30
 10
-62.5
 20
-323.6
 30
0.0
 40
30.0
  1
80
 72
     1
 11
-40.0
 21
-323.6
 31
0.0
  0
POINT
  5
4A2
  8
DEFPOINTS
  6
CONTINUOUS
 62
    30
 10
0.0
 20
-780.0
 30
0.0
  0
POINT
  5
4A3
  8
DEFPOINTS
  6
CONTINUOUS
 62
    30
 10
-80.0
 20
-591.0
 30
0.0
  0
POINT
  5
4A4
  8
DEFPOINTS
  6
CONTINUOUS
 62
    30
 10
-80.0
 20
-333.6
 30
0.0
  0
LINE
  5
4A5
  8
SIZE
  6
CONTINUOUS
 62
    30
 10
-85.0
 20
-705.0
 30
0.0
 11
-85.0
 21
-890.1
 31
0.0
  0
LINE
  5
4A6
  8
SIZE
  6
CONTINUOUS
 62
    30
 10
-5.0
 20
-705.0
 30
0.0
 11
-5.0
 21
-890.1
 31
0.0
  0
LINE
  5
4A7
  8
SIZE
  6
CONTINUOUS
 62
    30
 10
-75.0
 20
-877.6
 30
0.0
 11
-15.0
 21
-877.6
 31
0.0
  0
CIRCLE
  5
4A8
  8
SIZE
  6
CONTINUOUS
 62
    30
 10
-85.0
 20
-877.6
 30
0.0
 40
5.0
  0
LINE
  5
4A9
  8
SIZE
  6
CONTINUOUS
 62
    30
 10
-85.0
 20
-877.6
 30
0.0
 11
-75.0
 21
-877.6
 31
0.0
  0
CIRCLE
  5
4AA
  8
SIZE
  6
CONTINUOUS
 62
    30
 10
-5.0
 20
-877.6
 30
0.0
 40
5.0
  0
LINE
  5
4AB
  8
SIZE
  6
CONTINUOUS
 62
    30
 10
-5.0
 20
-877.6
 30
0.0
 11
-15.0
 21
-877.6
 31
0.0
  0
TEXT
  5
4AC
  8
SIZE
  6
CONTINUOUS
 62
    30
 10
-67.5
 20
-867.6
 30
0.0
 40
30.0
  1
80
 72
     1
 11
-45.0
 21
-867.6
 31
0.0
  0
POINT
  5
4AD
  8
DEFPOINTS
  6
CONTINUOUS
 62
    30
 10
-85.0
 20
-695.0
 30
0.0
  0
POINT
  5
4AE
  8
DEFPOINTS
  6
CONTINUOUS
 62
    30
 10
-5.0
 20
-695.0
 30
0.0
  0
POINT
  5
4AF
  8
DEFPOINTS
  6
CONTINUOUS
 62
    30
 10
-5.0
 20
-877.6
 30
0.0
  0
LINE
  5
4B0
  8
SIZE
  6
CONTINUOUS
 62
    30
 10
0.0
 20
-790.0
 30
0.0
 11
0.0
 21
-890.1
 31
0.0
  0
LINE
  5
4B1
  8
SIZE
  6
CONTINUOUS
 62
    30
 10
-5.0
 20
-705.0
 30
0.0
 11
-5.0
 21
-890.1
 31
0.0
  0
LINE
  5
4B2
  8
SIZE
  6
CONTINUOUS
 62
    30
 10
-15.0
 20
-877.6
 30
0.0
 11
-25.0
 21
-877.6
 31
0.0
  0
LINE
  5
4B3
  8
SIZE
  6
CONTINUOUS
 62
    30
 10
10.0
 20
-877.6
 30
0.0
 11
60.268764
 21
-877.6
 31
0.0
  0
LINE
  5
4B4
  8
SIZE
  6
CONTINUOUS
 62
    30
 10
-5.0
 20
-877.6
 30
0.0
 11
0.0
 21
-877.6
 31
0.0
  0
CIRCLE
  5
4B5
  8
SIZE
  6
CONTINUOUS
 62
    30
 10
-5.0
 20
-877.6
 30
0.0
 40
5.0
  0
LINE
  5
4B6
  8
SIZE
  6
CONTINUOUS
 62
    30
 10
-5.0
 20
-877.6
 30
0.0
 11
-15.0
 21
-877.6
 31
0.0
  0
CIRCLE
  5
4B7
  8
SIZE
  6
CONTINUOUS
 62
    30
 10
0.0
 20
-877.6
 30
0.0
 40
5.0
  0
LINE
  5
4B8
  8
SIZE
  6
CONTINUOUS
 62
    30
 10
0.0
 20
-877.6
 30
0.0
 11
10.0
 21
-877.6
 31
0.0
  0
TEXT
  5
4B9
  8
SIZE
  6
CONTINUOUS
 62
    30
 10
30.268764
 20
-867.6
 30
0.0
 40
30.0
  1
5
 72
     1
 11
40.268764
 21
-867.6
 31
0.0
  0
POINT
  5
4BA
  8
DEFPOINTS
  6
CONTINUOUS
 62
    30
 10
0.0
 20
-780.0
 30
0.0
  0
POINT
  5
4BB
  8
DEFPOINTS
  6
CONTINUOUS
 62
    30
 10
-5.0
 20
-695.0
 30
0.0
  0
POINT
  5
4BC
  8
DEFPOINTS
  6
CONTINUOUS
 62
    30
 10
-5.0
 20
-877.6
 30
0.0
  0
LINE
  5
4BD
  8
SIZE
  6
CONTINUOUS
 62
    30
 10
-325.0
 20
-730.0
 30
0.0
 11
-429.9
 21
-730.0
 31
0.0
  0
LINE
  5
4BE
  8
SIZE
  6
CONTINUOUS
 62
    30
 10
-115.0
 20
-675.0
 30
0.0
 11
-429.9
 21
-675.0
 31
0.0
  0
LINE
  5
4BF
  8
SIZE
  6
CONTINUOUS
 62
    30
 10
-417.4
 20
-720.0
 30
0.0
 11
-417.4
 21
-685.0
 31
0.0
  0
CIRCLE
  5
4C0
  8
SIZE
  6
CONTINUOUS
 62
    30
 10
-417.4
 20
-730.0
 30
0.0
 40
5.0
  0
LINE
  5
4C1
  8
SIZE
  6
CONTINUOUS
 62
    30
 10
-417.4
 20
-730.0
 30
0.0
 11
-417.4
 21
-720.0
 31
0.0
  0
CIRCLE
  5
4C2
  8
SIZE
  6
CONTINUOUS
 62
    30
 10
-417.4
 20
-675.0
 30
0.0
 40
5.0
  0
LINE
  5
4C3
  8
SIZE
  6
CONTINUOUS
 62
    30
 10
-417.4
 20
-675.0
 30
0.0
 11
-417.4
 21
-685.0
 31
0.0
  0
TEXT
  5
4C4
  8
SIZE
  6
CONTINUOUS
 62
    30
 10
-427.4
 20
-727.5
 30
0.0
 40
30.0
  1
55
 50
90.0
 72
     1
 11
-427.4
 21
-702.5
 31
0.0
  0
POINT
  5
4C5
  8
DEFPOINTS
  6
CONTINUOUS
 62
    30
 10
-315.0
 20
-730.0
 30
0.0
  0
POINT
  5
4C6
  8
DEFPOINTS
  6
CONTINUOUS
 62
    30
 10
-105.0
 20
-675.0
 30
0.0
  0
POINT
  5
4C7
  8
DEFPOINTS
  6
CONTINUOUS
 62
    30
 10
-417.4
 20
-675.0
 30
0.0
  0
LINE
  5
4C8
  8
SIZE
  6
CONTINUOUS
 62
    30
 10
-159.0
 20
-695.0
 30
0.0
 11
-159.0
 21
-990.1
 31
0.0
  0
LINE
  5
4C9
  8
SIZE
  6
CONTINUOUS
 62
    30
 10
0.0
 20
-790.0
 30
0.0
 11
0.0
 21
-990.1
 31
0.0
  0
LINE
  5
4CA
  8
SIZE
  6
CONTINUOUS
 62
    30
 10
-149.0
 20
-977.6
 30
0.0
 11
-10.0
 21
-977.6
 31
0.0
  0
CIRCLE
  5
4CB
  8
SIZE
  6
CONTINUOUS
 62
    30
 10
-159.0
 20
-977.6
 30
0.0
 40
5.0
  0
LINE
  5
4CC
  8
SIZE
  6
CONTINUOUS
 62
    30
 10
-159.0
 20
-977.6
 30
0.0
 11
-149.0
 21
-977.6
 31
0.0
  0
CIRCLE
  5
4CD
  8
SIZE
  6
CONTINUOUS
 62
    30
 10
0.0
 20
-977.6
 30
0.0
 40
5.0
  0
LINE
  5
4CE
  8
SIZE
  6
CONTINUOUS
 62
    30
 10
0.0
 20
-977.6
 30
0.0
 11
-10.0
 21
-977.6
 31
0.0
  0
TEXT
  5
4CF
  8
SIZE
  6
CONTINUOUS
 62
    30
 10
-114.5
 20
-967.6
 30
0.0
 40
30.0
  1
159
 72
     1
 11
-79.5
 21
-967.6
 31
0.0
  0
POINT
  5
4D0
  8
DEFPOINTS
  6
CONTINUOUS
 62
    30
 10
-159.0
 20
-685.0
 30
0.0
  0
POINT
  5
4D1
  8
DEFPOINTS
  6
CONTINUOUS
 62
    30
 10
0.0
 20
-780.0
 30
0.0
  0
POINT
  5
4D2
  8
DEFPOINTS
  6
CONTINUOUS
 62
    30
 10
0.0
 20
-977.6
 30
0.0
  0
LINE
  5
4D3
  8
SIZE
  6
CONTINUOUS
 62
    30
 10
85.0
 20
-695.0
 30
0.0
 11
85.0
 21
-990.1
 31
0.0
  0
LINE
  5
4D4
  8
SIZE
  6
CONTINUOUS
 62
    30
 10
0.0
 20
-790.0
 30
0.0
 11
0.0
 21
-990.1
 31
0.0
  0
LINE
  5
4D5
  8
SIZE
  6
CONTINUOUS
 62
    30
 10
75.0
 20
-977.6
 30
0.0
 11
10.0
 21
-977.6
 31
0.0
  0
CIRCLE
  5
4D6
  8
SIZE
  6
CONTINUOUS
 62
    30
 10
85.0
 20
-977.6
 30
0.0
 40
5.0
  0
LINE
  5
4D7
  8
SIZE
  6
CONTINUOUS
 62
    30
 10
85.0
 20
-977.6
 30
0.0
 11
75.0
 21
-977.6
 31
0.0
  0
CIRCLE
  5
4D8
  8
SIZE
  6
CONTINUOUS
 62
    30
 10
0.0
 20
-977.6
 30
0.0
 40
5.0
  0
LINE
  5
4D9
  8
SIZE
  6
CONTINUOUS
 62
    30
 10
0.0
 20
-977.6
 30
0.0
 11
10.0
 21
-977.6
 31
0.0
  0
TEXT
  5
4DA
  8
SIZE
  6
CONTINUOUS
 62
    30
 10
17.5
 20
-967.6
 30
0.0
 40
30.0
  1
85
 72
     1
 11
42.5
 21
-967.6
 31
0.0
  0
POINT
  5
4DB
  8
DEFPOINTS
  6
CONTINUOUS
 62
    30
 10
85.0
 20
-685.0
 30
0.0
  0
POINT
  5
4DC
  8
DEFPOINTS
  6
CONTINUOUS
 62
    30
 10
0.0
 20
-780.0
 30
0.0
  0
POINT
  5
4DD
  8
DEFPOINTS
  6
CONTINUOUS
 62
    30
 10
0.0
 20
-977.6
 30
0.0
  0
LINE
  5
4DE
  8
SIZE
  6
CONTINUOUS
 62
    30
 10
-159.999993
 20
-562.33975
 30
0.0
 11
-122.934421
 21
-498.140414
 31
0.0
  0
LINE
  5
4DF
  8
SIZE
  6
CONTINUOUS
 62
    30
 10
-118.823075
 20
-563.019254
 30
0.0
 11
-91.757527
 21
-516.140435
 31
0.0
  0
LINE
  5
4E0
  8
SIZE
  6
CONTINUOUS
 62
    30
 10
-89.347285
 20
-531.965755
 30
0.0
 11
-80.687035
 21
-536.965762
 31
0.0
  0
LINE
  5
4E1
  8
SIZE
  6
CONTINUOUS
 62
    30
 10
-137.84468
 20
-503.96572
 30
0.0
 11
-262.691176
 21
-431.88543
 31
0.0
  0
LINE
  5
4E2
  8
SIZE
  6
CONTINUOUS
 62
    30
 10
-98.007535
 20
-526.965748
 30
0.0
 11
-129.18443
 21
-508.965726
 31
0.0
  0
CIRCLE
  5
4E3
  8
SIZE
  6
CONTINUOUS
 62
    30
 10
-98.007535
 20
-526.965748
 30
0.0
 40
5.0
  0
LINE
  5
4E4
  8
SIZE
  6
CONTINUOUS
 62
    30
 10
-98.007535
 20
-526.965748
 30
0.0
 11
-89.347285
 21
-531.965755
 31
0.0
  0
CIRCLE
  5
4E5
  8
SIZE
  6
CONTINUOUS
 62
    30
 10
-129.18443
 20
-508.965726
 30
0.0
 40
5.0
  0
LINE
  5
4E6
  8
SIZE
  6
CONTINUOUS
 62
    30
 10
-129.18443
 20
-508.965726
 30
0.0
 11
-137.84468
 21
-503.965719
 31
0.0
  0
TEXT
  5
4E7
  8
SIZE
  6
CONTINUOUS
 62
    30
 10
-249.030919
 20
-428.225179
 30
0.0
 40
30.0
  1
36
 50
329.999939
 72
     1
 11
-227.380297
 21
-440.725202
 31
0.0
  0
POINT
  5
4E8
  8
DEFPOINTS
  6
CONTINUOUS
 62
    30
 10
-165.0
 20
-571.0
 30
0.0
  0
POINT
  5
4E9
  8
DEFPOINTS
  6
CONTINUOUS
 62
    30
 10
-123.823082
 20
-571.679504
 30
0.0
  0
POINT
  5
4EA
  8
DEFPOINTS
  6
CONTINUOUS
 62
    30
 10
-98.007535
 20
-526.965748
 30
0.0
  0
LINE
  5
4EB
  8
SIZE
  6
CONTINUOUS
 62
    30
 10
-118.823081
 20
-563.019251
 30
0.0
 11
-38.571783
 21
-424.019961
 31
0.0
  0
LINE
  5
4EC
  8
SIZE
  6
CONTINUOUS
 62
    30
 10
-165.0
 20
-541.0
 30
0.0
 11
-165.0
 21
-390.143615
 31
0.0
  0
ARC
  5
4ED
  8
SIZE
  6
CONTINUOUS
 62
    30
 10
-165.0
 20
-643.0
 30
0.0
 40
240.356385
 50
62.38395
 51
87.616044
  0
CIRCLE
  5
4EE
  8
SIZE
  6
CONTINUOUS
 62
    30
 10
-44.821784
 20
-434.845278
 30
0.0
 40
5.0
  0
LINE
  5
4EF
  8
SIZE
  6
CONTINUOUS
 62
    30
 10
-44.821784
 20
-434.845278
 30
0.0
 11
-53.584176
 21
-430.026513
 31
0.0
  0
CIRCLE
  5
4F0
  8
SIZE
  6
CONTINUOUS
 62
    30
 10
-165.0
 20
-402.643615
 30
0.0
 40
5.0
  0
LINE
  5
4F1
  8
SIZE
  6
CONTINUOUS
 62
    30
 10
-165.0
 20
-402.643615
 30
0.0
 11
-155.002164
 21
-402.851639
 31
0.0
  0
TEXT
  5
4F2
  8
SIZE
  6
CONTINUOUS
 62
    30
 10
-151.75672
 20
-390.890519
 30
0.0
 40
30.0
  1
30°
 50
349.596519
 72
     1
 11
-119.791004
 21
-396.759333
 31
0.0
  0
POINT
  5
4F3
  8
DEFPOINTS
  6
CONTINUOUS
 62
    30
 10
-165.0
 20
-643.0
 30
0.0
  0
POINT
  5
4F4
  8
DEFPOINTS
  6
CONTINUOUS
 62
    30
 10
-123.823082
 20
-571.679504
 30
0.0
  0
POINT
  5
4F5
  8
DEFPOINTS
  6
CONTINUOUS
 62
    30
 10
-165.0
 20
-551.0
 30
0.0
  0
POINT
  5
4F6
  8
DEFPOINTS
  6
CONTINUOUS
 62
    30
 10
-82.793258
 20
-417.138884
 30
0.0
  0
LINE
  5
4F7
  8
SIZE
  6
CONTINUOUS
 62
    30
 10
325.0
 20
-730.0
 30
0.0
 11
725.1
 21
-730.0
 31
0.0
  0
LINE
  5
4F8
  8
SIZE
  6
CONTINUOUS
 62
    30
 10
30.0
 20
-646.0
 30
0.0
 11
725.1
 21
-646.0
 31
0.0
  0
LINE
  5
4F9
  8
SIZE
  6
CONTINUOUS
 62
    30
 10
712.6
 20
-720.0
 30
0.0
 11
712.6
 21
-656.0
 31
0.0
  0
CIRCLE
  5
4FA
  8
SIZE
  6
CONTINUOUS
 62
    30
 10
712.6
 20
-730.0
 30
0.0
 40
5.0
  0
LINE
  5
4FB
  8
SIZE
  6
CONTINUOUS
 62
    30
 10
712.6
 20
-730.0
 30
0.0
 11
712.6
 21
-720.0
 31
0.0
  0
CIRCLE
  5
4FC
  8
SIZE
  6
CONTINUOUS
 62
    30
 10
712.6
 20
-646.0
 30
0.0
 40
5.0
  0
LINE
  5
4FD
  8
SIZE
  6
CONTINUOUS
 62
    30
 10
712.6
 20
-646.0
 30
0.0
 11
712.6
 21
-656.0
 31
0.0
  0
TEXT
  5
4FE
  8
SIZE
  6
CONTINUOUS
 62
    30
 10
702.6
 20
-712.981751
 30
0.0
 40
30.0
  1
84
 50
90.0
 72
     1
 11
702.6
 21
-687.981751
 31
0.0
  0
POINT
  5
4FF
  8
DEFPOINTS
  6
CONTINUOUS
 62
    30
 10
315.0
 20
-730.0
 30
0.0
  0
POINT
  5
500
  8
DEFPOINTS
  6
CONTINUOUS
 62
    30
 10
20.0
 20
-646.0
 30
0.0
  0
POINT
  5
501
  8
DEFPOINTS
  6
CONTINUOUS
 62
    30
 10
712.6
 20
-646.0
 30
0.0
  0
LINE
  5
502
  8
SIZE
  6
CONTINUOUS
 62
    30
 10
30.0
 20
-646.0
 30
0.0
 11
725.1
 21
-646.0
 31
0.0
  0
LINE
  5
503
  8
SIZE
  6
CONTINUOUS
 62
    30
 10
325.0
 20
-76.0
 30
0.0
 11
725.1
 21
-76.0
 31
0.0
  0
LINE
  5
504
  8
SIZE
  6
CONTINUOUS
 62
    30
 10
712.6
 20
-636.0
 30
0.0
 11
712.6
 21
-86.0
 31
0.0
  0
CIRCLE
  5
505
  8
SIZE
  6
CONTINUOUS
 62
    30
 10
712.6
 20
-646.0
 30
0.0
 40
5.0
  0
LINE
  5
506
  8
SIZE
  6
CONTINUOUS
 62
    30
 10
712.6
 20
-646.0
 30
0.0
 11
712.6
 21
-636.0
 31
0.0
  0
CIRCLE
  5
507
  8
SIZE
  6
CONTINUOUS
 62
    30
 10
712.6
 20
-76.0
 30
0.0
 40
5.0
  0
LINE
  5
508
  8
SIZE
  6
CONTINUOUS
 62
    30
 10
712.6
 20
-76.0
 30
0.0
 11
712.6
 21
-86.0
 31
0.0
  0
TEXT
  5
509
  8
SIZE
  6
CONTINUOUS
 62
    30
 10
702.6
 20
-398.5
 30
0.0
 40
30.0
  1
570
 50
90.0
 72
     1
 11
702.6
 21
-361.0
 31
0.0
  0
POINT
  5
50A
  8
DEFPOINTS
  6
CONTINUOUS
 62
    30
 10
20.0
 20
-646.0
 30
0.0
  0
POINT
  5
50B
  8
DEFPOINTS
  6
CONTINUOUS
 62
    30
 10
315.0
 20
-76.0
 30
0.0
  0
POINT
  5
50C
  8
DEFPOINTS
  6
CONTINUOUS
 62
    30
 10
712.6
 20
-76.0
 30
0.0
  0
LINE
  5
50D
  8
SIZE
  6
CONTINUOUS
 62
    30
 10
278.0
 20
-112.0
 30
0.0
 11
625.1
 21
-112.0
 31
0.0
  0
LINE
  5
50E
  8
SIZE
  6
CONTINUOUS
 62
    30
 10
30.0
 20
-646.0
 30
0.0
 11
625.1
 21
-646.0
 31
0.0
  0
LINE
  5
50F
  8
SIZE
  6
CONTINUOUS
 62
    30
 10
612.6
 20
-122.0
 30
0.0
 11
612.6
 21
-636.0
 31
0.0
  0
CIRCLE
  5
510
  8
SIZE
  6
CONTINUOUS
 62
    30
 10
612.6
 20
-112.0
 30
0.0
 40
5.0
  0
LINE
  5
511
  8
SIZE
  6
CONTINUOUS
 62
    30
 10
612.6
 20
-112.0
 30
0.0
 11
612.6
 21
-122.0
 31
0.0
  0
CIRCLE
  5
512
  8
SIZE
  6
CONTINUOUS
 62
    30
 10
612.6
 20
-646.0
 30
0.0
 40
5.0
  0
LINE
  5
513
  8
SIZE
  6
CONTINUOUS
 62
    30
 10
612.6
 20
-646.0
 30
0.0
 11
612.6
 21
-636.0
 31
0.0
  0
TEXT
  5
514
  8
SIZE
  6
CONTINUOUS
 62
    30
 10
602.6
 20
-419.0
 30
0.0
 40
30.0
  1
534
 50
90.0
 72
     1
 11
602.6
 21
-379.0
 31
0.0
  0
POINT
  5
515
  8
DEFPOINTS
  6
CONTINUOUS
 62
    30
 10
268.0
 20
-112.0
 30
0.0
  0
POINT
  5
516
  8
DEFPOINTS
  6
CONTINUOUS
 62
    30
 10
20.0
 20
-646.0
 30
0.0
  0
POINT
  5
517
  8
DEFPOINTS
  6
CONTINUOUS
 62
    30
 10
612.6
 20
-646.0
 30
0.0
  0
LINE
  5
518
  8
SIZE
  6
CONTINUOUS
 62
    30
 10
325.0
 20
0.0
 30
0.0
 11
625.1
 21
0.0
 31
0.0
  0
LINE
  5
519
  8
SIZE
  6
CONTINUOUS
 62
    30
 10
278.0
 20
-112.0
 30
0.0
 11
625.1
 21
-112.0
 31
0.0
  0
LINE
  5
51A
  8
SIZE
  6
CONTINUOUS
 62
    30
 10
612.6
 20
-102.0
 30
0.0
 11
612.6
 21
-10.0
 31
0.0
  0
LINE
  5
51B
  8
SIZE
  6
CONTINUOUS
 62
    30
 10
612.6
 20
0.0
 30
0.0
 11
612.6
 21
98.968948
 31
0.0
  0
CIRCLE
  5
51C
  8
SIZE
  6
CONTINUOUS
 62
    30
 10
612.6
 20
-112.0
 30
0.0
 40
5.0
  0
LINE
  5
51D
  8
SIZE
  6
CONTINUOUS
 62
    30
 10
612.6
 20
-112.0
 30
0.0
 11
612.6
 21
-102.0
 31
0.0
  0
CIRCLE
  5
51E
  8
SIZE
  6
CONTINUOUS
 62
    30
 10
612.6
 20
0.0
 30
0.0
 40
5.0
  0
LINE
  5
51F
  8
SIZE
  6
CONTINUOUS
 62
    30
 10
612.6
 20
0.0
 30
0.0
 11
612.6
 21
-10.0
 31
0.0
  0
TEXT
  5
520
  8
SIZE
  6
CONTINUOUS
 62
    30
 10
602.6
 20
28.968948
 30
0.0
 40
30.0
  1
112
 50
90.0
 72
     1
 11
602.6
 21
58.968948
 31
0.0
  0
POINT
  5
521
  8
DEFPOINTS
  6
CONTINUOUS
 62
    30
 10
315.0
 20
0.0
 30
0.0
  0
POINT
  5
522
  8
DEFPOINTS
  6
CONTINUOUS
 62
    30
 10
268.0
 20
-112.0
 30
0.0
  0
POINT
  5
523
  8
DEFPOINTS
  6
CONTINUOUS
 62
    30
 10
612.6
 20
-112.0
 30
0.0
  0
LINE
  5
524
  8
SIZE
  6
CONTINUOUS
 62
    30
 10
325.0
 20
0.0
 30
0.0
 11
725.1
 21
0.0
 31
0.0
  0
LINE
  5
525
  8
SIZE
  6
CONTINUOUS
 62
    30
 10
325.0
 20
-76.0
 30
0.0
 11
725.1
 21
-76.0
 31
0.0
  0
LINE
  5
526
  8
SIZE
  6
CONTINUOUS
 62
    30
 10
712.6
 20
-10.0
 30
0.0
 11
712.6
 21
-66.0
 31
0.0
  0
CIRCLE
  5
527
  8
SIZE
  6
CONTINUOUS
 62
    30
 10
712.6
 20
0.0
 30
0.0
 40
5.0
  0
LINE
  5
528
  8
SIZE
  6
CONTINUOUS
 62
    30
 10
712.6
 20
0.0
 30
0.0
 11
712.6
 21
-10.0
 31
0.0
  0
CIRCLE
  5
529
  8
SIZE
  6
CONTINUOUS
 62
    30
 10
712.6
 20
-76.0
 30
0.0
 40
5.0
  0
LINE
  5
52A
  8
SIZE
  6
CONTINUOUS
 62
    30
 10
712.6
 20
-76.0
 30
0.0
 11
712.6
 21
-66.0
 31
0.0
  0
TEXT
  5
52B
  8
SIZE
  6
CONTINUOUS
 62
    30
 10
702.6
 20
-63.0
 30
0.0
 40
30.0
  1
76
 50
90.0
 72
     1
 11
702.6
 21
-38.0
 31
0.0
  0
POINT
  5
52C
  8
DEFPOINTS
  6
CONTINUOUS
 62
    30
 10
315.0
 20
0.0
 30
0.0
  0
POINT
  5
52D
  8
DEFPOINTS
  6
CONTINUOUS
 62
    30
 10
315.0
 20
-76.0
 30
0.0
  0
POINT
  5
52E
  8
DEFPOINTS
  6
CONTINUOUS
 62
    30
 10
712.6
 20
-76.0
 30
0.0
  0
LINE
  5
52F
  8
SIZE
  6
CONTINUOUS
 62
    30
 10
-325.0
 20
-730.0
 30
0.0
 11
-529.9
 21
-730.0
 31
0.0
  0
LINE
  5
530
  8
SIZE
  6
CONTINUOUS
 62
    30
 10
-189.0
 20
-665.0
 30
0.0
 11
-529.9
 21
-665.0
 31
0.0
  0
LINE
  5
531
  8
SIZE
  6
CONTINUOUS
 62
    30
 10
-517.4
 20
-720.0
 30
0.0
 11
-517.4
 21
-675.0
 31
0.0
  0
CIRCLE
  5
532
  8
SIZE
  6
CONTINUOUS
 62
    30
 10
-517.4
 20
-730.0
 30
0.0
 40
5.0
  0
LINE
  5
533
  8
SIZE
  6
CONTINUOUS
 62
    30
 10
-517.4
 20
-730.0
 30
0.0
 11
-517.4
 21
-720.0
 31
0.0
  0
CIRCLE
  5
534
  8
SIZE
  6
CONTINUOUS
 62
    30
 10
-517.4
 20
-665.0
 30
0.0
 40
5.0
  0
LINE
  5
535
  8
SIZE
  6
CONTINUOUS
 62
    30
 10
-517.4
 20
-665.0
 30
0.0
 11
-517.4
 21
-675.0
 31
0.0
  0
TEXT
  5
536
  8
SIZE
  6
CONTINUOUS
 62
    30
 10
-527.4
 20
-722.5
 30
0.0
 40
30.0
  1
65
 50
90.0
 72
     1
 11
-527.4
 21
-697.5
 31
0.0
  0
POINT
  5
537
  8
DEFPOINTS
  6
CONTINUOUS
 62
    30
 10
-315.0
 20
-730.0
 30
0.0
  0
POINT
  5
538
  8
DEFPOINTS
  6
CONTINUOUS
 62
    30
 10
-179.0
 20
-665.0
 30
0.0
  0
POINT
  5
539
  8
DEFPOINTS
  6
CONTINUOUS
 62
    30
 10
-517.4
 20
-665.0
 30
0.0
  0
LINE
  5
53A
  8
SIZE
  6
CONTINUOUS
 62
    30
 10
-159.0
 20
-695.0
 30
0.0
 11
-159.0
 21
-990.1
 31
0.0
  0
LINE
  5
53B
  8
SIZE
  6
CONTINUOUS
 62
    30
 10
-234.0
 20
-670.0
 30
0.0
 11
-234.0
 21
-990.1
 31
0.0
  0
LINE
  5
53C
  8
SIZE
  6
CONTINUOUS
 62
    30
 10
-169.0
 20
-977.6
 30
0.0
 11
-224.0
 21
-977.6
 31
0.0
  0
CIRCLE
  5
53D
  8
SIZE
  6
CONTINUOUS
 62
    30
 10
-159.0
 20
-977.6
 30
0.0
 40
5.0
  0
LINE
  5
53E
  8
SIZE
  6
CONTINUOUS
 62
    30
 10
-159.0
 20
-977.6
 30
0.0
 11
-169.0
 21
-977.6
 31
0.0
  0
CIRCLE
  5
53F
  8
SIZE
  6
CONTINUOUS
 62
    30
 10
-234.0
 20
-977.6
 30
0.0
 40
5.0
  0
LINE
  5
540
  8
SIZE
  6
CONTINUOUS
 62
    30
 10
-234.0
 20
-977.6
 30
0.0
 11
-224.0
 21
-977.6
 31
0.0
  0
TEXT
  5
541
  8
SIZE
  6
CONTINUOUS
 62
    30
 10
-221.5
 20
-967.6
 30
0.0
 40
30.0
  1
75
 72
     1
 11
-196.5
 21
-967.6
 31
0.0
  0
POINT
  5
542
  8
DEFPOINTS
  6
CONTINUOUS
 62
    30
 10
-159.0
 20
-685.0
 30
0.0
  0
POINT
  5
543
  8
DEFPOINTS
  6
CONTINUOUS
 62
    30
 10
-234.0
 20
-660.0
 30
0.0
  0
POINT
  5
544
  8
DEFPOINTS
  6
CONTINUOUS
 62
    30
 10
-234.0
 20
-977.6
 30
0.0
  0
LINE
  5
545
  8
SIZE
  6
CONTINUOUS
 62
    30
 10
-234.0
 20
-670.0
 30
0.0
 11
-234.0
 21
-990.1
 31
0.0
  0
LINE
  5
546
  8
SIZE
  6
CONTINUOUS
 62
    30
 10
-315.0
 20
-740.0
 30
0.0
 11
-315.0
 21
-990.1
 31
0.0
  0
LINE
  5
547
  8
SIZE
  6
CONTINUOUS
 62
    30
 10
-244.0
 20
-977.6
 30
0.0
 11
-305.0
 21
-977.6
 31
0.0
  0
CIRCLE
  5
548
  8
SIZE
  6
CONTINUOUS
 62
    30
 10
-234.0
 20
-977.6
 30
0.0
 40
5.0
  0
LINE
  5
549
  8
SIZE
  6
CONTINUOUS
 62
    30
 10
-234.0
 20
-977.6
 30
0.0
 11
-244.0
 21
-977.6
 31
0.0
  0
CIRCLE
  5
54A
  8
SIZE
  6
CONTINUOUS
 62
    30
 10
-315.0
 20
-977.6
 30
0.0
 40
5.0
  0
LINE
  5
54B
  8
SIZE
  6
CONTINUOUS
 62
    30
 10
-315.0
 20
-977.6
 30
0.0
 11
-305.0
 21
-977.6
 31
0.0
  0
TEXT
  5
54C
  8
SIZE
  6
CONTINUOUS
 62
    30
 10
-295.044342
 20
-967.6
 30
0.0
 40
30.0
  1
81
 72
     1
 11
-275.044342
 21
-967.6
 31
0.0
  0
POINT
  5
54D
  8
DEFPOINTS
  6
CONTINUOUS
 62
    30
 10
-234.0
 20
-660.0
 30
0.0
  0
POINT
  5
54E
  8
DEFPOINTS
  6
CONTINUOUS
 62
    30
 10
-315.0
 20
-730.0
 30
0.0
  0
POINT
  5
54F
  8
DEFPOINTS
  6
CONTINUOUS
 62
    30
 10
-315.0
 20
-977.6
 30
0.0
  0
LINE
  5
550
  8
SIZE
  6
CONTINUOUS
 62
    30
 10
325.0
 20
-730.0
 30
0.0
 11
625.1
 21
-730.0
 31
0.0
  0
LINE
  5
551
  8
SIZE
  6
CONTINUOUS
 62
    30
 10
115.0
 20
-665.0
 30
0.0
 11
625.1
 21
-665.0
 31
0.0
  0
LINE
  5
552
  8
SIZE
  6
CONTINUOUS
 62
    30
 10
612.6
 20
-720.0
 30
0.0
 11
612.6
 21
-675.0
 31
0.0
  0
CIRCLE
  5
553
  8
SIZE
  6
CONTINUOUS
 62
    30
 10
612.6
 20
-730.0
 30
0.0
 40
5.0
  0
LINE
  5
554
  8
SIZE
  6
CONTINUOUS
 62
    30
 10
612.6
 20
-730.0
 30
0.0
 11
612.6
 21
-720.0
 31
0.0
  0
CIRCLE
  5
555
  8
SIZE
  6
CONTINUOUS
 62
    30
 10
612.6
 20
-665.0
 30
0.0
 40
5.0
  0
LINE
  5
556
  8
SIZE
  6
CONTINUOUS
 62
    30
 10
612.6
 20
-665.0
 30
0.0
 11
612.6
 21
-675.0
 31
0.0
  0
TEXT
  5
557
  8
SIZE
  6
CONTINUOUS
 62
    30
 10
602.6
 20
-722.5
 30
0.0
 40
30.0
  1
65
 50
90.0
 72
     1
 11
602.6
 21
-697.5
 31
0.0
  0
POINT
  5
558
  8
DEFPOINTS
  6
CONTINUOUS
 62
    30
 10
315.0
 20
-730.0
 30
0.0
  0
POINT
  5
559
  8
DEFPOINTS
  6
CONTINUOUS
 62
    30
 10
105.0
 20
-665.0
 30
0.0
  0
POINT
  5
55A
  8
DEFPOINTS
  6
CONTINUOUS
 62
    30
 10
612.6
 20
-665.0
 30
0.0
  0
LINE
  5
55B
  8
SIZE
  6
CONTINUOUS
 62
    30
 10
248.0
 20
-82.0
 30
0.0
 11
248.0
 21
114.9
 31
0.0
  0
LINE
  5
55C
  8
SIZE
  6
CONTINUOUS
 62
    30
 10
-248.0
 20
-82.0
 30
0.0
 11
-248.0
 21
114.9
 31
0.0
  0
LINE
  5
55D
  8
SIZE
  6
CONTINUOUS
 62
    30
 10
238.0
 20
102.4
 30
0.0
 11
-238.0
 21
102.4
 31
0.0
  0
CIRCLE
  5
55E
  8
SIZE
  6
CONTINUOUS
 62
    30
 10
248.0
 20
102.4
 30
0.0
 40
5.0
  0
LINE
  5
55F
  8
SIZE
  6
CONTINUOUS
 62
    30
 10
248.0
 20
102.4
 30
0.0
 11
238.0
 21
102.4
 31
0.0
  0
CIRCLE
  5
560
  8
SIZE
  6
CONTINUOUS
 62
    30
 10
-248.0
 20
102.4
 30
0.0
 40
5.0
  0
LINE
  5
561
  8
SIZE
  6
CONTINUOUS
 62
    30
 10
-248.0
 20
102.4
 30
0.0
 11
-238.0
 21
102.4
 31
0.0
  0
TEXT
  5
562
  8
SIZE
  6
CONTINUOUS
 62
    30
 10
-40.0
 20
112.4
 30
0.0
 40
30.0
  1
496
 72
     1
 11
0.0
 21
112.4
 31
0.0
  0
POINT
  5
563
  8
DEFPOINTS
  6
CONTINUOUS
 62
    30
 10
248.0
 20
-92.0
 30
0.0
  0
POINT
  5
564
  8
DEFPOINTS
  6
CONTINUOUS
 62
    30
 10
-248.0
 20
-92.0
 30
0.0
  0
POINT
  5
565
  8
DEFPOINTS
  6
CONTINUOUS
 62
    30
 10
-248.0
 20
102.4
 30
0.0
  0
LINE
  5
566
  8
SIZE
  6
CONTINUOUS
 62
    30
 10
295.0
 20
-46.0
 30
0.0
 11
295.0
 21
214.9
 31
0.0
  0
LINE
  5
567
  8
SIZE
  6
CONTINUOUS
 62
    30
 10
201.0
 20
-46.0
 30
0.0
 11
201.0
 21
214.9
 31
0.0
  0
LINE
  5
568
  8
SIZE
  6
CONTINUOUS
 62
    30
 10
285.0
 20
202.4
 30
0.0
 11
211.0
 21
202.4
 31
0.0
  0
CIRCLE
  5
569
  8
SIZE
  6
CONTINUOUS
 62
    30
 10
295.0
 20
202.4
 30
0.0
 40
5.0
  0
LINE
  5
56A
  8
SIZE
  6
CONTINUOUS
 62
    30
 10
295.0
 20
202.4
 30
0.0
 11
285.0
 21
202.4
 31
0.0
  0
CIRCLE
  5
56B
  8
SIZE
  6
CONTINUOUS
 62
    30
 10
201.0
 20
202.4
 30
0.0
 40
5.0
  0
LINE
  5
56C
  8
SIZE
  6
CONTINUOUS
 62
    30
 10
201.0
 20
202.4
 30
0.0
 11
211.0
 21
202.4
 31
0.0
  0
TEXT
  5
56D
  8
SIZE
  6
CONTINUOUS
 62
    30
 10
223.0
 20
212.4
 30
0.0
 40
30.0
  1
94
 72
     1
 11
248.0
 21
212.4
 31
0.0
  0
POINT
  5
56E
  8
DEFPOINTS
  6
CONTINUOUS
 62
    30
 10
295.0
 20
-56.0
 30
0.0
  0
POINT
  5
56F
  8
DEFPOINTS
  6
CONTINUOUS
 62
    30
 10
201.0
 20
-56.0
 30
0.0
  0
POINT
  5
570
  8
DEFPOINTS
  6
CONTINUOUS
 62
    30
 10
201.0
 20
202.4
 30
0.0
  0
LINE
  5
571
  8
SIZE
  6
CONTINUOUS
 62
    30
 10
201.0
 20
-46.0
 30
0.0
 11
201.0
 21
214.9
 31
0.0
  0
LINE
  5
572
  8
SIZE
  6
CONTINUOUS
 62
    30
 10
-201.0
 20
-46.0
 30
0.0
 11
-201.0
 21
214.9
 31
0.0
  0
LINE
  5
573
  8
SIZE
  6
CONTINUOUS
 62
    30
 10
191.0
 20
202.4
 30
0.0
 11
-191.0
 21
202.4
 31
0.0
  0
CIRCLE
  5
574
  8
SIZE
  6
CONTINUOUS
 62
    30
 10
201.0
 20
202.4
 30
0.0
 40
5.0
  0
LINE
  5
575
  8
SIZE
  6
CONTINUOUS
 62
    30
 10
201.0
 20
202.4
 30
0.0
 11
191.0
 21
202.4
 31
0.0
  0
CIRCLE
  5
576
  8
SIZE
  6
CONTINUOUS
 62
    30
 10
-201.0
 20
202.4
 30
0.0
 40
5.0
  0
LINE
  5
577
  8
SIZE
  6
CONTINUOUS
 62
    30
 10
-201.0
 20
202.4
 30
0.0
 11
-191.0
 21
202.4
 31
0.0
  0
TEXT
  5
578
  8
SIZE
  6
CONTINUOUS
 62
    30
 10
-36.708283
 20
212.4
 30
0.0
 40
30.0
  1
402
 72
     1
 11
0.791717
 21
212.4
 31
0.0
  0
POINT
  5
579
  8
DEFPOINTS
  6
CONTINUOUS
 62
    30
 10
201.0
 20
-56.0
 30
0.0
  0
POINT
  5
57A
  8
DEFPOINTS
  6
CONTINUOUS
 62
    30
 10
-201.0
 20
-56.0
 30
0.0
  0
POINT
  5
57B
  8
DEFPOINTS
  6
CONTINUOUS
 62
    30
 10
-201.0
 20
202.4
 30
0.0
  0
LINE
  5
57C
  8
SIZE
  6
CONTINUOUS
 62
    30
 10
-201.0
 20
-46.0
 30
0.0
 11
-201.0
 21
214.9
 31
0.0
  0
LINE
  5
57D
  8
SIZE
  6
CONTINUOUS
 62
    30
 10
-295.0
 20
-46.0
 30
0.0
 11
-295.0
 21
214.9
 31
0.0
  0
LINE
  5
57E
  8
SIZE
  6
CONTINUOUS
 62
    30
 10
-211.0
 20
202.4
 30
0.0
 11
-285.0
 21
202.4
 31
0.0
  0
CIRCLE
  5
57F
  8
SIZE
  6
CONTINUOUS
 62
    30
 10
-201.0
 20
202.4
 30
0.0
 40
5.0
  0
LINE
  5
580
  8
SIZE
  6
CONTINUOUS
 62
    30
 10
-201.0
 20
202.4
 30
0.0
 11
-211.0
 21
202.4
 31
0.0
  0
CIRCLE
  5
581
  8
SIZE
  6
CONTINUOUS
 62
    30
 10
-295.0
 20
202.4
 30
0.0
 40
5.0
  0
LINE
  5
582
  8
SIZE
  6
CONTINUOUS
 62
    30
 10
-295.0
 20
202.4
 30
0.0
 11
-285.0
 21
202.4
 31
0.0
  0
TEXT
  5
583
  8
SIZE
  6
CONTINUOUS
 62
    30
 10
-273.0
 20
212.4
 30
0.0
 40
30.0
  1
94
 72
     1
 11
-248.0
 21
212.4
 31
0.0
  0
POINT
  5
584
  8
DEFPOINTS
  6
CONTINUOUS
 62
    30
 10
-201.0
 20
-56.0
 30
0.0
  0
POINT
  5
585
  8
DEFPOINTS
  6
CONTINUOUS
 62
    30
 10
-295.0
 20
-56.0
 30
0.0
  0
POINT
  5
586
  8
DEFPOINTS
  6
CONTINUOUS
 62
    30
 10
-295.0
 20
202.4
 30
0.0
  0
LINE
  5
587
  8
SIZE
  6
CONTINUOUS
 62
    30
 10
325.0
 20
-1330.0
 30
0.0
 11
825.1
 21
-1330.0
 31
0.0
  0
LINE
  5
588
  8
SIZE
  6
CONTINUOUS
 62
    30
 10
325.0
 20
-730.0
 30
0.0
 11
825.1
 21
-730.0
 31
0.0
  0
LINE
  5
589
  8
SIZE
  6
CONTINUOUS
 62
    30
 10
812.6
 20
-1320.0
 30
0.0
 11
812.6
 21
-740.0
 31
0.0
  0
CIRCLE
  5
58A
  8
SIZE
  6
CONTINUOUS
 62
    30
 10
812.6
 20
-1330.0
 30
0.0
 40
5.0
  0
LINE
  5
58B
  8
SIZE
  6
CONTINUOUS
 62
    30
 10
812.6
 20
-1330.0
 30
0.0
 11
812.6
 21
-1320.0
 31
0.0
  0
CIRCLE
  5
58C
  8
SIZE
  6
CONTINUOUS
 62
    30
 10
812.6
 20
-730.0
 30
0.0
 40
5.0
  0
LINE
  5
58D
  8
SIZE
  6
CONTINUOUS
 62
    30
 10
812.6
 20
-730.0
 30
0.0
 11
812.6
 21
-740.0
 31
0.0
  0
TEXT
  5
58E
  8
SIZE
  6
CONTINUOUS
 62
    30
 10
802.6
 20
-1065.0
 30
0.0
 40
30.0
  1
600
 50
90.0
 72
     1
 11
802.6
 21
-1030.0
 31
0.0
  0
POINT
  5
58F
  8
DEFPOINTS
  6
CONTINUOUS
 62
    30
 10
315.0
 20
-1330.0
 30
0.0
  0
POINT
  5
590
  8
DEFPOINTS
  6
CONTINUOUS
 62
    30
 10
315.0
 20
-730.0
 30
0.0
  0
POINT
  5
591
  8
DEFPOINTS
  6
CONTINUOUS
 62
    30
 10
812.6
 20
-730.0
 30
0.0
  0
LINE
  5
592
  8
SIZE
  6
CONTINUOUS
 62
    30
 10
315.0
 20
-1340.0
 30
0.0
 11
315.0
 21
-1490.1
 31
0.0
  0
LINE
  5
593
  8
SIZE
  6
CONTINUOUS
 62
    30
 10
-315.0
 20
-1340.0
 30
0.0
 11
-315.0
 21
-1490.1
 31
0.0
  0
LINE
  5
594
  8
SIZE
  6
CONTINUOUS
 62
    30
 10
305.0
 20
-1477.6
 30
0.0
 11
-305.0
 21
-1477.6
 31
0.0
  0
CIRCLE
  5
595
  8
SIZE
  6
CONTINUOUS
 62
    30
 10
315.0
 20
-1477.6
 30
0.0
 40
5.0
  0
LINE
  5
596
  8
SIZE
  6
CONTINUOUS
 62
    30
 10
315.0
 20
-1477.6
 30
0.0
 11
305.0
 21
-1477.6
 31
0.0
  0
CIRCLE
  5
597
  8
SIZE
  6
CONTINUOUS
 62
    30
 10
-315.0
 20
-1477.6
 30
0.0
 40
5.0
  0
LINE
  5
598
  8
SIZE
  6
CONTINUOUS
 62
    30
 10
-315.0
 20
-1477.6
 30
0.0
 11
-305.0
 21
-1477.6
 31
0.0
  0
TEXT
  5
599
  8
SIZE
  6
CONTINUOUS
 62
    30
 10
-37.5
 20
-1467.6
 30
0.0
 40
30.0
  1
630
 72
     1
 11
0.0
 21
-1467.6
 31
0.0
  0
POINT
  5
59A
  8
DEFPOINTS
  6
CONTINUOUS
 62
    30
 10
315.0
 20
-1330.0
 30
0.0
  0
POINT
  5
59B
  8
DEFPOINTS
  6
CONTINUOUS
 62
    30
 10
-315.0
 20
-1330.0
 30
0.0
  0
POINT
  5
59C
  8
DEFPOINTS
  6
CONTINUOUS
 62
    30
 10
-315.0
 20
-1477.6
 30
0.0
  0
LINE
  5
59D
  8
SIZE
  6
CONTINUOUS
 62
    30
 10
-315.0
 20
10.0
 30
0.0
 11
-315.0
 21
314.9
 31
0.0
  0
LINE
  5
59E
  8
SIZE
  6
CONTINUOUS
 62
    30
 10
315.0
 20
10.0
 30
0.0
 11
315.0
 21
314.9
 31
0.0
  0
LINE
  5
59F
  8
SIZE
  6
CONTINUOUS
 62
    30
 10
-305.0
 20
302.4
 30
0.0
 11
305.0
 21
302.4
 31
0.0
  0
CIRCLE
  5
5A0
  8
SIZE
  6
CONTINUOUS
 62
    30
 10
-315.0
 20
302.4
 30
0.0
 40
5.0
  0
LINE
  5
5A1
  8
SIZE
  6
CONTINUOUS
 62
    30
 10
-315.0
 20
302.4
 30
0.0
 11
-305.0
 21
302.4
 31
0.0
  0
CIRCLE
  5
5A2
  8
SIZE
  6
CONTINUOUS
 62
    30
 10
315.0
 20
302.4
 30
0.0
 40
5.0
  0
LINE
  5
5A3
  8
SIZE
  6
CONTINUOUS
 62
    30
 10
315.0
 20
302.4
 30
0.0
 11
305.0
 21
302.4
 31
0.0
  0
TEXT
  5
5A4
  8
SIZE
  6
CONTINUOUS
 62
    30
 10
-64.900673
 20
312.4
 30
0.0
 40
30.0
  1
630
 72
     1
 11
-27.400673
 21
312.4
 31
0.0
  0
POINT
  5
5A5
  8
DEFPOINTS
  6
CONTINUOUS
 62
    30
 10
-315.0
 20
0.0
 30
0.0
  0
POINT
  5
5A6
  8
DEFPOINTS
  6
CONTINUOUS
 62
    30
 10
315.0
 20
0.0
 30
0.0
  0
POINT
  5
5A7
  8
DEFPOINTS
  6
CONTINUOUS
 62
    30
 10
315.0
 20
302.4
 30
0.0
  0
LINE
  5
5A8
  8
SIZE
  6
CONTINUOUS
 62
    30
 10
325.0
 20
0.0
 30
0.0
 11
825.1
 21
0.0
 31
0.0
  0
LINE
  5
5A9
  8
SIZE
  6
CONTINUOUS
 62
    30
 10
325.0
 20
-730.0
 30
0.0
 11
825.1
 21
-730.0
 31
0.0
  0
LINE
  5
5AA
  8
SIZE
  6
CONTINUOUS
 62
    30
 10
812.6
 20
-10.0
 30
0.0
 11
812.6
 21
-720.0
 31
0.0
  0
CIRCLE
  5
5AB
  8
SIZE
  6
CONTINUOUS
 62
    30
 10
812.6
 20
0.0
 30
0.0
 40
5.0
  0
LINE
  5
5AC
  8
SIZE
  6
CONTINUOUS
 62
    30
 10
812.6
 20
0.0
 30
0.0
 11
812.6
 21
-10.0
 31
0.0
  0
CIRCLE
  5
5AD
  8
SIZE
  6
CONTINUOUS
 62
    30
 10
812.6
 20
-730.0
 30
0.0
 40
5.0
  0
LINE
  5
5AE
  8
SIZE
  6
CONTINUOUS
 62
    30
 10
812.6
 20
-730.0
 30
0.0
 11
812.6
 21
-720.0
 31
0.0
  0
TEXT
  5
5AF
  8
SIZE
  6
CONTINUOUS
 62
    30
 10
802.6
 20
-397.300507
 30
0.0
 40
30.0
  1
730
 50
90.0
 72
     1
 11
802.6
 21
-359.800507
 31
0.0
  0
POINT
  5
5B0
  8
DEFPOINTS
  6
CONTINUOUS
 62
    30
 10
315.0
 20
0.0
 30
0.0
  0
POINT
  5
5B1
  8
DEFPOINTS
  6
CONTINUOUS
 62
    30
 10
315.0
 20
-730.0
 30
0.0
  0
POINT
  5
5B2
  8
DEFPOINTS
  6
CONTINUOUS
 62
    30
 10
812.6
 20
-730.0
 30
0.0
  0
LINE
  5
5B3
  8
SIZE
  6
CONTINUOUS
 62
    30
 10
85.0
 20
-695.0
 30
0.0
 11
85.0
 21
-990.1
 31
0.0
  0
LINE
  5
5B4
  8
SIZE
  6
CONTINUOUS
 62
    30
 10
227.0
 20
-673.0
 30
0.0
 11
227.0
 21
-990.1
 31
0.0
  0
LINE
  5
5B5
  8
SIZE
  6
CONTINUOUS
 62
    30
 10
95.0
 20
-977.6
 30
0.0
 11
217.0
 21
-977.6
 31
0.0
  0
CIRCLE
  5
5B6
  8
SIZE
  6
CONTINUOUS
 62
    30
 10
85.0
 20
-977.6
 30
0.0
 40
5.0
  0
LINE
  5
5B7
  8
SIZE
  6
CONTINUOUS
 62
    30
 10
85.0
 20
-977.6
 30
0.0
 11
95.0
 21
-977.6
 31
0.0
  0
CIRCLE
  5
5B8
  8
SIZE
  6
CONTINUOUS
 62
    30
 10
227.0
 20
-977.6
 30
0.0
 40
5.0
  0
LINE
  5
5B9
  8
SIZE
  6
CONTINUOUS
 62
    30
 10
227.0
 20
-977.6
 30
0.0
 11
217.0
 21
-977.6
 31
0.0
  0
TEXT
  5
5BA
  8
SIZE
  6
CONTINUOUS
 62
    30
 10
124.280258
 20
-967.6
 30
0.0
 40
30.0
  1
142
 72
     1
 11
159.280258
 21
-967.6
 31
0.0
  0
POINT
  5
5BB
  8
DEFPOINTS
  6
CONTINUOUS
 62
    30
 10
85.0
 20
-685.0
 30
0.0
  0
POINT
  5
5BC
  8
DEFPOINTS
  6
CONTINUOUS
 62
    30
 10
227.0
 20
-663.0
 30
0.0
  0
POINT
  5
5BD
  8
DEFPOINTS
  6
CONTINUOUS
 62
    30
 10
227.0
 20
-977.6
 30
0.0
  0
LINE
  5
5BE
  8
SIZE
  6
CONTINUOUS
 62
    30
 10
325.0
 20
-730.0
 30
0.0
 11
425.1
 21
-730.0
 31
0.0
  0
LINE
  5
5BF
  8
SIZE
  6
CONTINUOUS
 62
    30
 10
257.0
 20
-643.0
 30
0.0
 11
425.1
 21
-643.0
 31
0.0
  0
LINE
  5
5C0
  8
SIZE
  6
CONTINUOUS
 62
    30
 10
412.6
 20
-720.0
 30
0.0
 11
412.6
 21
-653.0
 31
0.0
  0
CIRCLE
  5
5C1
  8
SIZE
  6
CONTINUOUS
 62
    30
 10
412.6
 20
-730.0
 30
0.0
 40
5.0
  0
LINE
  5
5C2
  8
SIZE
  6
CONTINUOUS
 62
    30
 10
412.6
 20
-730.0
 30
0.0
 11
412.6
 21
-720.0
 31
0.0
  0
CIRCLE
  5
5C3
  8
SIZE
  6
CONTINUOUS
 62
    30
 10
412.6
 20
-643.0
 30
0.0
 40
5.0
  0
LINE
  5
5C4
  8
SIZE
  6
CONTINUOUS
 62
    30
 10
412.6
 20
-643.0
 30
0.0
 11
412.6
 21
-653.0
 31
0.0
  0
TEXT
  5
5C5
  8
SIZE
  6
CONTINUOUS
 62
    30
 10
402.6
 20
-719.17981
 30
0.0
 40
30.0
  1
87
 50
90.0
 72
     1
 11
402.6
 21
-694.17981
 31
0.0
  0
POINT
  5
5C6
  8
DEFPOINTS
  6
CONTINUOUS
 62
    30
 10
315.0
 20
-730.0
 30
0.0
  0
POINT
  5
5C7
  8
DEFPOINTS
  6
CONTINUOUS
 62
    30
 10
247.0
 20
-643.0
 30
0.0
  0
POINT
  5
5C8
  8
DEFPOINTS
  6
CONTINUOUS
 62
    30
 10
412.6
 20
-643.0
 30
0.0
  0
LINE
  5
5C9
  8
NOTE
  6
CONTINUOUS
 10
-1206.844727
 20
-978.637329
 30
0.0
 11
-398.594727
 21
-978.637329
 31
0.0
  0
LINE
  5
5CA
  8
NOTE
  6
CONTINUOUS
 10
-398.594727
 20
-978.637329
 30
0.0
 11
-85.0
 21
-675.0
 31
0.0
  0
LINE
  5
5CB
  8
NOTE
  6
CONTINUOUS
 10
-85.0
 20
-675.0
 30
0.0
 11
-86.027808
 21
-676.715695
 31
0.0
  0
LINE
  5
5CC
  8
NOTE
  6
CONTINUOUS
 10
-85.0
 20
-675.0
 30
0.0
 11
-86.747956
 21
-675.971931
 31
0.0
  0
TEXT
  5
5CD
  8
NOTE
  6
CONTINUOUS
 10
-1206.844727
 20
-977.63739
 30
0.0
 40
40.0
  1
ヒートポンプ配管口(B) R1/2(φ21.7)
 50
0.000003
 41
0.730469
  7
STANDARD1
  0
LINE
  5
5CE
  8
NOTE
  6
CONTINUOUS
 10
-1204.175659
 20
-1091.561279
 30
0.0
 11
-395.92569
 21
-1091.561279
 31
0.0
  0
LINE
  5
5CF
  8
NOTE
  6
CONTINUOUS
 10
-395.92569
 20
-1091.561279
 30
0.0
 11
-5.0
 21
-675.0
 31
0.0
  0
LINE
  5
5D0
  8
NOTE
  6
CONTINUOUS
 10
-5.0
 20
-675.0
 30
0.0
 11
-5.944536
 21
-676.76291
 31
0.0
  0
LINE
  5
5D1
  8
NOTE
  6
CONTINUOUS
 10
-5.0
 20
-675.0
 30
0.0
 11
-6.699447
 21
-676.054457
 31
0.0
  0
TEXT
  5
5D2
  8
NOTE
  6
CONTINUOUS
 10
-1204.175659
 20
-1090.561279
 30
0.0
 40
40.0
  1
ヒートポンプ配管口(A) R1/2(φ21.7)
 50
0.000003
 41
0.730469
  7
STANDARD1
  0
LINE
  5
5D3
  8
NOTE
  6
CONTINUOUS
 10
-85.0
 20
-695.0
 30
0.0
 11
-85.0
 21
-655.0
 31
0.0
  0
LINE
  5
5D4
  8
NOTE
  6
CONTINUOUS
 10
-65.0
 20
-675.0
 30
0.0
 11
-105.0
 21
-675.0
 31
0.0
  0
LINE
  5
5D5
  8
NOTE
  6
CONTINUOUS
 10
85.0
 20
-615.0
 30
0.0
 11
85.0
 21
-575.0
 31
0.0
  0
LINE
  5
5D6
  8
NOTE
  6
CONTINUOUS
 10
105.0
 20
-595.0
 30
0.0
 11
65.0
 21
-595.0
 31
0.0
  0
LINE
  5
5D7
  8
NOTE
  6
CONTINUOUS
 10
-165.0
 20
-591.0
 30
0.0
 11
-165.0
 21
-551.0
 31
0.0
  0
LINE
  5
5D8
  8
NOTE
  6
CONTINUOUS
 10
-145.0
 20
-571.0
 30
0.0
 11
-185.0
 21
-571.0
 31
0.0
  0
LINE
  5
5D9
  8
NOTE
  6
CONTINUOUS
 10
0.0
 20
-666.0
 30
0.0
 11
0.0
 21
-626.0
 31
0.0
  0
LINE
  5
5DA
  8
NOTE
  6
CONTINUOUS
 10
20.0
 20
-646.0
 30
0.0
 11
-20.0
 21
-646.0
 31
0.0
  0
LINE
  5
5DB
  8
NOTE
  6
CONTINUOUS
 10
315.0
 20
-76.0
 30
0.0
 11
275.0
 21
-76.0
 31
0.0
  0
LINE
  5
5DC
  8
NOTE
  6
CONTINUOUS
 10
295.0
 20
-96.0
 30
0.0
 11
295.0
 21
-56.0
 31
0.0
  0
LINE
  5
5DD
  8
NOTE
  6
CONTINUOUS
 10
268.0
 20
-112.0
 30
0.0
 11
228.0
 21
-112.0
 31
0.0
  0
LINE
  5
5DE
  8
NOTE
  6
CONTINUOUS
 10
248.0
 20
-132.0
 30
0.0
 11
248.0
 21
-92.0
 31
0.0
  0
LINE
  5
5DF
  8
NOTE
  6
CONTINUOUS
 10
221.0
 20
-76.0
 30
0.0
 11
181.0
 21
-76.0
 31
0.0
  0
LINE
  5
5E0
  8
NOTE
  6
CONTINUOUS
 10
201.0
 20
-96.0
 30
0.0
 11
201.0
 21
-56.0
 31
0.0
  0
LINE
  5
5E1
  8
NOTE
  6
CONTINUOUS
 10
-181.0
 20
-76.0
 30
0.0
 11
-221.0
 21
-76.0
 31
0.0
  0
LINE
  5
5E2
  8
NOTE
  6
CONTINUOUS
 10
-201.0
 20
-96.0
 30
0.0
 11
-201.0
 21
-56.0
 31
0.0
  0
LINE
  5
5E3
  8
NOTE
  6
CONTINUOUS
 10
-275.0
 20
-76.0
 30
0.0
 11
-315.0
 21
-76.0
 31
0.0
  0
LINE
  5
5E4
  8
NOTE
  6
CONTINUOUS
 10
-295.0
 20
-96.0
 30
0.0
 11
-295.0
 21
-56.0
 31
0.0
  0
LINE
  5
5E5
  8
NOTE
  6
CONTINUOUS
 10
-228.0
 20
-112.0
 30
0.0
 11
-268.0
 21
-112.0
 31
0.0
  0
LINE
  5
5E6
  8
NOTE
  6
CONTINUOUS
 10
-248.0
 20
-132.0
 30
0.0
 11
-248.0
 21
-92.0
 31
0.0
  0
LINE
  5
5E7
  8
NOTE
  6
CONTINUOUS
 10
-123.823085
 20
-571.679492
 30
0.0
 11
-143.823085
 21
-606.320508
 31
0.0
  0
LINE
  5
5E8
  8
NOTE
  6
CONTINUOUS
 10
-116.502577
 20
-599.0
 30
0.0
 11
-151.143594
 21
-579.0
 31
0.0
  0
LINE
  5
5E9
  8
NOTE
  6
CONTINUOUS
 10
105.0
 20
-665.0
 30
0.0
 11
65.0
 21
-665.0
 31
0.0
  0
LINE
  5
5EA
  8
NOTE
  6
CONTINUOUS
 10
85.0
 20
-685.0
 30
0.0
 11
85.0
 21
-645.0
 31
0.0
  0
LINE
  5
5EB
  8
NOTE
  6
CONTINUOUS
 10
15.0
 20
-675.0
 30
0.0
 11
-25.0
 21
-675.0
 31
0.0
  0
LINE
  5
5EC
  8
NOTE
  6
CONTINUOUS
 10
-5.0
 20
-695.0
 30
0.0
 11
-5.0
 21
-655.0
 31
0.0
  0
LINE
  5
5ED
  8
NOTE
  6
CONTINUOUS
 10
-60.0
 20
-611.0
 30
0.0
 11
-100.0
 21
-611.0
 31
0.0
  0
LINE
  5
5EE
  8
NOTE
  6
CONTINUOUS
 10
-80.0
 20
-631.0
 30
0.0
 11
-80.0
 21
-591.0
 31
0.0
  0
LINE
  5
5EF
  8
NOTE
  6
CONTINUOUS
 10
-139.0
 20
-665.0
 30
0.0
 11
-179.0
 21
-665.0
 31
0.0
  0
LINE
  5
5F0
  8
NOTE
  6
CONTINUOUS
 10
-159.0
 20
-685.0
 30
0.0
 11
-159.0
 21
-645.0
 31
0.0
  0
LINE
  5
5F1
  8
NOTE
  6
CONTINUOUS
 10
-214.0
 20
-640.0
 30
0.0
 11
-254.0
 21
-640.0
 31
0.0
  0
LINE
  5
5F2
  8
NOTE
  6
CONTINUOUS
 10
-234.0
 20
-660.0
 30
0.0
 11
-234.0
 21
-620.0
 31
0.0
  0
TEXT
  5
5F3
  8
NOTE
  6
CONTINUOUS
 10
-195.95961
 20
-1532.512207
 30
0.0
 40
40.0
  1
メンテナンススペース
 50
0.000003
 41
0.84375
  7
STANDARD1
  0
TEXT
  5
5F4
  8
NOTE
  6
CONTINUOUS
 10
868.046082
 20
-1238.271729
 30
0.0
 40
40.0
  1
メンテナンススペース
 50
90.000005
 41
0.84375
  7
STANDARD1
  0
LINE
  5
5F5
  8
NOTE
  6
CONTINUOUS
 10
704.224243
 20
-1057.720581
 30
0.0
 11
391.474243
 21
-1057.720581
 31
0.0
  0
LINE
  5
5F6
  8
NOTE
  6
CONTINUOUS
 10
391.474243
 20
-1057.720581
 30
0.0
 11
85.0
 21
-665.0
 31
0.0
  0
LINE
  5
5F7
  8
NOTE
  6
CONTINUOUS
 10
85.0
 20
-665.0
 30
0.0
 11
86.596599
 21
-666.204521
 31
0.0
  0
LINE
  5
5F8
  8
NOTE
  6
CONTINUOUS
 10
85.0
 20
-665.0
 30
0.0
 11
85.780435
 21
-666.841445
 31
0.0
  0
TEXT
  5
5F9
  8
NOTE
  6
CONTINUOUS
 10
452.224243
 20
-1056.720581
 30
0.0
 40
40.0
  1
CW φ49×69
 50
0.000003
 41
0.701389
  7
STANDARD1
  0
LINE
  5
5FA
  8
NOTE
  6
CONTINUOUS
 10
-789.144653
 20
-469.058136
 30
0.0
 11
-369.894623
 21
-469.058136
 31
0.0
  0
LINE
  5
5FB
  8
NOTE
  6
CONTINUOUS
 10
-369.894623
 20
-469.058136
 30
0.0
 11
-234.0
 21
-640.0
 31
0.0
  0
LINE
  5
5FC
  8
NOTE
  6
CONTINUOUS
 10
-234.0
 20
-640.0
 30
0.0
 11
-235.607378
 21
-638.809901
 31
0.0
  0
LINE
  5
5FD
  8
NOTE
  6
CONTINUOUS
 10
-234.0
 20
-640.0
 30
0.0
 11
-234.796981
 21
-638.165655
 31
0.0
  0
TEXT
  5
5FE
  8
NOTE
  6
CONTINUOUS
 10
-789.144653
 20
-468.058167
 30
0.0
 40
40.0
  1
WD R3/4(φ27.2)
 50
0.000003
 41
0.650362
  7
STANDARD1
  0
LINE
  5
5FF
  8
NOTE
  6
CONTINUOUS
 10
548.655273
 20
-466.688263
 30
0.0
 11
276.405273
 21
-466.688263
 31
0.0
  0
LINE
  5
600
  8
NOTE
  6
CONTINUOUS
 10
276.405273
 20
-466.688263
 30
0.0
 11
-80.0
 21
-611.0
 31
0.0
  0
LINE
  5
601
  8
NOTE
  6
CONTINUOUS
 10
-80.0
 20
-611.0
 30
0.0
 11
-78.403643
 21
-609.795158
 31
0.0
  0
LINE
  5
602
  8
NOTE
  6
CONTINUOUS
 10
-80.0
 20
-611.0
 30
0.0
 11
-78.015093
 21
-610.754755
 31
0.0
  0
TEXT
  5
603
  8
NOTE
  6
CONTINUOUS
 10
337.155273
 20
-465.688263
 30
0.0
 40
40.0
  1
CL φ32.5
 50
359.999996
 41
0.679487
  7
STANDARD1
  0
LINE
  5
604
  8
NOTE
  6
CONTINUOUS
 10
-714.747192
 20
-880.0
 30
0.0
 11
-401.997162
 21
-880.0
 31
0.0
  0
LINE
  5
605
  8
NOTE
  6
CONTINUOUS
 10
-401.997162
 20
-880.0
 30
0.0
 11
-159.0
 21
-665.0
 31
0.0
  0
LINE
  5
606
  8
NOTE
  6
CONTINUOUS
 10
-159.0
 20
-665.0
 30
0.0
 11
-160.103819
 21
-666.667808
 31
0.0
  0
LINE
  5
607
  8
NOTE
  6
CONTINUOUS
 10
-159.0
 20
-665.0
 30
0.0
 11
-160.789839
 21
-665.892455
 31
0.0
  0
TEXT
  5
608
  8
NOTE
  6
CONTINUOUS
 10
-714.747192
 20
-879.0
 30
0.0
 40
40.0
  1
HW φ49×69
 50
0.000003
 41
0.701389
  7
STANDARD1
  0
LINE
  5
609
  8
NOTE
  6
CONTINUOUS
 10
701.992249
 20
-963.977234
 30
0.0
 11
389.242249
 21
-963.977234
 31
0.0
  0
LINE
  5
60A
  8
NOTE
  6
CONTINUOUS
 10
389.242249
 20
-963.977234
 30
0.0
 11
85.0
 21
-595.0
 31
0.0
  0
LINE
  5
60B
  8
NOTE
  6
CONTINUOUS
 10
85.0
 20
-595.0
 30
0.0
 11
86.628383
 21
-596.161193
 31
0.0
  0
LINE
  5
60C
  8
NOTE
  6
CONTINUOUS
 10
85.0
 20
-595.0
 30
0.0
 11
85.829624
 21
-596.819814
 31
0.0
  0
TEXT
  5
60D
  8
NOTE
  6
CONTINUOUS
 10
449.992249
 20
-962.977234
 30
0.0
 40
40.0
  1
EL φ49×69
 50
359.999996
 41
0.701389
  7
STANDARD1
  0
LINE
  5
60E
  8
NOTE
  6
CONTINUOUS
 10
262.716431
 20
-386.807068
 30
0.0
 11
63.966427
 21
-386.807068
 31
0.0
  0
LINE
  5
60F
  8
NOTE
  6
CONTINUOUS
 10
63.966427
 20
-386.807068
 30
0.0
 11
-133.823074
 21
-589.0
 31
0.0
  0
LINE
  5
610
  8
NOTE
  6
CONTINUOUS
 10
-133.823074
 20
-589.0
 30
0.0
 11
-132.842202
 21
-587.257046
 31
0.0
  0
LINE
  5
611
  8
NOTE
  6
CONTINUOUS
 10
-133.823074
 20
-589.0
 30
0.0
 11
-132.102137
 21
-587.980994
 31
0.0
  0
TEXT
  5
612
  8
NOTE
  6
CONTINUOUS
 10
124.716431
 20
-385.807068
 30
0.0
 40
40.0
  1
D φ18
 50
359.999996
 41
0.721354
  7
STANDARD1
  0
TEXT
  5
613
  8
NOTE
  6
CONTINUOUS
 10
-866.537598
 20
-201.855072
 30
0.0
 40
40.0
  1
（脚固定金具使用時のみ）
 50
0.000003
 41
0.84375
  7
STANDARD1
  0
LINE
  5
614
  8
NOTE
  6
CONTINUOUS
 10
624.731262
 20
100.0
 30
0.0
 11
368.481262
 21
100.0
 31
0.0
  0
LINE
  5
615
  8
NOTE
  6
CONTINUOUS
 10
368.481262
 20
100.0
 30
0.0
 11
248.0
 21
-112.0
 31
0.0
  0
LINE
  5
616
  8
NOTE
  6
CONTINUOUS
 10
248.0
 20
-112.0
 30
0.0
 11
248.504473
 21
-110.064669
 31
0.0
  0
LINE
  5
617
  8
NOTE
  6
CONTINUOUS
 10
248.0
 20
-112.0
 30
0.0
 11
249.404552
 21
-110.576191
 31
0.0
  0
TEXT
  5
618
  8
NOTE
  6
CONTINUOUS
 10
429.231262
 20
101.0
 30
0.0
 40
40.0
  1
AH 3-M12
 50
0.000003
 41
0.644737
  7
STANDARD1
  0
LINE
  5
619
  8
NOTE
  6
CONTINUOUS
 10
-631.231262
 20
100.0
 30
0.0
 11
-368.481262
 21
100.0
 31
0.0
  0
LINE
  5
61A
  8
NOTE
  6
CONTINUOUS
 10
-368.481262
 20
100.0
 30
0.0
 11
-268.0
 21
-56.0
 31
0.0
  0
LINE
  5
61B
  8
NOTE
  6
CONTINUOUS
 10
-268.0
 20
-56.0
 30
0.0
 11
-269.481281
 21
-54.656197
 31
0.0
  0
LINE
  5
61C
  8
NOTE
  6
CONTINUOUS
 10
-268.0
 20
-56.0
 30
0.0
 11
-268.610926
 21
-54.095592
 31
0.0
  0
TEXT
  5
61D
  8
NOTE
  6
CONTINUOUS
 10
-631.231262
 20
100.999992
 30
0.0
 40
40.0
  1
脚固定金具
 50
0.000003
 41
0.84375
  7
STANDARD1
  0
LINE
  5
61E
  8
NOTE
  6
CONTINUOUS
 10
-663.253296
 20
-150.0
 30
0.0
 11
-407.003326
 21
-150.0
 31
0.0
  0
LINE
  5
61F
  8
NOTE
  6
CONTINUOUS
 10
-407.003326
 20
-150.0
 30
0.0
 11
-295.0
 21
-76.0
 31
0.0
  0
LINE
  5
620
  8
NOTE
  6
CONTINUOUS
 10
-295.0
 20
-76.0
 30
0.0
 11
-296.326481
 21
-77.496813
 31
0.0
  0
LINE
  5
621
  8
NOTE
  6
CONTINUOUS
 10
-295.0
 20
-76.0
 30
0.0
 11
-296.897172
 21
-76.633038
 31
0.0
  0
TEXT
  5
622
  8
NOTE
  6
CONTINUOUS
 10
-663.253357
 20
-148.999985
 30
0.0
 40
40.0
  1
AH 4-M12
 50
359.999996
 41
0.644737
  7
STANDARD1
  0
LINE
  5
623
  8
NOTE
  6
CONTINUOUS
 10
247.0
 20
-643.0
 30
0.0
 11
207.0
 21
-643.0
 31
0.0
  0
LINE
  5
624
  8
NOTE
  6
CONTINUOUS
 10
227.0
 20
-663.0
 30
0.0
 11
227.0
 21
-623.0
 31
0.0
  0
LINE
  5
625
  8
NOTE
  6
CONTINUOUS
 10
701.992249
 20
-876.929749
 30
0.0
 11
389.242249
 21
-876.929749
 31
0.0
  0
LINE
  5
626
  8
NOTE
  6
CONTINUOUS
 10
389.242249
 20
-876.929749
 30
0.0
 11
227.0
 21
-643.0
 31
0.0
  0
LINE
  5
627
  8
NOTE
  6
CONTINUOUS
 10
227.0
 20
-643.0
 30
0.0
 11
228.526314
 21
-644.292427
 31
0.0
  0
LINE
  5
628
  8
NOTE
  6
CONTINUOUS
 10
227.0
 20
-643.0
 30
0.0
 11
227.675613
 21
-644.882431
 31
0.0
  0
TEXT
  5
629
  8
NOTE
  6
CONTINUOUS
 10
449.992249
 20
-875.929749
 30
0.0
 40
40.0
  1
BH φ49×69
 50
359.999989
 41
0.701389
  7
STANDARD1
  0
CIRCLE
  5
62A
  8
ARRANGE
  6
CONTINUOUS
 10
0.0
 20
0.0
 30
0.0
 40
15.0
  0
CIRCLE
  5
62B
  8
FIX
  6
CONTINUOUS
 10
0.0
 20
-646.0
 30
0.0
 40
6.0
  0
CIRCLE
  5
62C
  8
FIX
  6
CONTINUOUS
 10
201.0
 20
-76.0
 30
0.0
 40
6.0
  0
CIRCLE
  5
62D
  8
FIX
  6
CONTINUOUS
 10
248.0
 20
-112.0
 30
0.0
 40
6.0
  0
CIRCLE
  5
62E
  8
FIX
  6
CONTINUOUS
 10
295.0
 20
-76.0
 30
0.0
 40
6.0
  0
CIRCLE
  5
62F
  8
FIX
  6
CONTINUOUS
 10
-248.0
 20
-112.0
 30
0.0
 40
6.0
  0
CIRCLE
  5
630
  8
FIX
  6
CONTINUOUS
 10
-201.0
 20
-76.0
 30
0.0
 40
6.0
  0
CIRCLE
  5
631
  8
FIX
  6
CONTINUOUS
 10
-295.0
 20
-76.0
 30
0.0
 40
6.0
  0
LINE
  5
632
  8
SERVICESPACE
  6
DASHDOT
 10
315.0
 20
-730.0
 30
0.0
 11
-315.0
 21
-1330.0
 31
0.0
  0
LINE
  5
633
  8
SERVICESPACE
  6
DASHDOT
 10
-315.0
 20
-730.0
 30
0.0
 11
315.0
 21
-1330.0
 31
0.0
  0
LINE
  5
634
  8
SERVICESPACE
  6
DASHDOT
 10
-315.0
 20
-730.0
 30
0.0
 11
315.0
 21
-730.0
 31
0.0
  0
LINE
  5
635
  8
SERVICESPACE
  6
DASHDOT
 10
315.0
 20
-1330.0
 30
0.0
 11
315.0
 21
-730.0
 31
0.0
  0
LINE
  5
636
  8
SERVICESPACE
  6
DASHDOT
 10
-315.0
 20
-1330.0
 30
0.0
 11
-315.0
 21
-730.0
 31
0.0
  0
LINE
  5
637
  8
SERVICESPACE
  6
DASHDOT
 10
-315.0
 20
-1330.0
 30
0.0
 11
315.0
 21
-1330.0
 31
0.0
  0
TEXT
  5
638
  8
ETC
  6
CONTINUOUS
 10
599.011536
 20
275.983704
 30
0.0
 40
40.0
  1
TTHT37C6
 50
0.000003
 41
0.6125
  7
STANDARD1
  0
TEXT
  5
639
  8
ETC
  6
CONTINUOUS
 10
599.011536
 20
205.983719
 30
0.0
 40
40.0
  1
貯湯タンクユニット
 50
0.000003
 41
0.84375
  7
STANDARD1
  0
ENDSEC
  0
EOF
