  0
SECTION
  2
HEADER
  9
$ACADVER
  1
AC1009
  9
$INSBASE
 10
0.0
 20
0.0
 30
0.0
  9
$EXTMIN
 10
-1764.182373
 20
-860.1
 30
0.0
  9
$EXTMAX
 10
767.354492
 20
2633.258311
 30
0.0
  9
$LIMMIN
 10
0.0
 20
0.0
  9
$LIMMAX
 10
12.0
 20
9.0
  9
$ORTHOMODE
 70
     0
  9
$REGENMODE
 70
     1
  9
$FILLMODE
 70
     1
  9
$QTEXTMODE
 70
     0
  9
$MIRRTEXT
 70
     1
  9
$DRAGMODE
 70
     2
  9
$LTSCALE
 40
1.0
  9
$OSMODE
 70
     0
  9
$ATTMODE
 70
     1
  9
$TEXTSIZE
 40
7.0
  9
$TRACEWID
 40
0.05
  9
$TEXTSTYLE
  7
STANDARD1
  9
$CLAYER
  8
0
  9
$CELTYPE
  6
CONTINUOUS
  9
$CECOLOR
 62
   256
  9
$DIMSCALE
 40
1.0
  9
$DIMASZ
 40
10.0
  9
$DIMEXO
 40
10.0
  9
$DIMDLI
 40
8.0
  9
$DIMRND
 40
0.0
  9
$DIMDLE
 40
0.0
  9
$DIMEXE
 40
12.5
  9
$DIMTP
 40
0.0
  9
$DIMTM
 40
0.0
  9
$DIMTXT
 40
30.0
  9
$DIMCEN
 40
2.5
  9
$DIMTSZ
 40
0.0
  9
$DIMTOL
 70
     0
  9
$DIMLIM
 70
     0
  9
$DIMTIH
 70
     0
  9
$DIMTOH
 70
     0
  9
$DIMSE1
 70
     0
  9
$DIMSE2
 70
     0
  9
$DIMTAD
 70
     3
  9
$DIMZIN
 70
    12
  9
$DIMBLK
  1

  9
$DIMASO
 70
     1
  9
$DIMSHO
 70
     1
  9
$DIMPOST
  1

  9
$DIMAPOST
  1

  9
$DIMALT
 70
     0
  9
$DIMALTD
 70
     4
  9
$DIMALTF
 40
25.4
  9
$DIMLFAC
 40
1.0
  9
$DIMTOFL
 70
     1
  9
$DIMTVP
 40
0.0
  9
$DIMTIX
 70
     0
  9
$DIMSOXD
 70
     0
  9
$DIMSAH
 70
     1
  9
$DIMBLK1
  1
_ORIGIN
  9
$DIMBLK2
  1
_ORIGIN
  9
$DIMSTYLE
  2
STANDARD
  9
$DIMCLRD
 70
     0
  9
$DIMCLRE
 70
     0
  9
$DIMCLRT
 70
     0
  9
$DIMTFAC
 40
1.0
  9
$DIMGAP
 40
0.09
  9
$LUNITS
 70
     2
  9
$LUPREC
 70
     3
  9
$SKETCHINC
 40
0.1
  9
$FILLETRAD
 40
0.0
  9
$AUNITS
 70
     0
  9
$AUPREC
 70
     0
  9
$MENU
  1
acad
  9
$ELEVATION
 40
0.0
  9
$PELEVATION
 40
0.0
  9
$THICKNESS
 40
0.0
  9
$LIMCHECK
 70
     0
  9
$BLIPMODE
 70
     0
  9
$CHAMFERA
 40
0.0
  9
$CHAMFERB
 40
0.0
  9
$SKPOLY
 70
     0
  9
$TDCREATE
 40
2452774.428611
  9
$TDUPDATE
 40
2452774.428611
  9
$TDINDWG
 40
0.0
  9
$TDUSRTIMER
 40
0.0
  9
$USRTIMER
 70
     1
  9
$ANGBASE
 50
0.0
  9
$ANGDIR
 70
     0
  9
$PDMODE
 70
     0
  9
$PDSIZE
 40
0.0
  9
$PLINEWID
 40
0.0
  9
$COORDS
 70
     1
  9
$SPLFRAME
 70
     0
  9
$SPLINETYPE
 70
     6
  9
$SPLINESEGS
 70
     8
  9
$ATTDIA
 70
     0
  9
$ATTREQ
 70
     1
  9
$HANDLING
 70
     1
  9
$HANDSEED
  5
605
  9
$SURFTAB1
 70
     6
  9
$SURFTAB2
 70
     6
  9
$SURFTYPE
 70
     6
  9
$SURFU
 70
     6
  9
$SURFV
 70
     6
  9
$UCSNAME
  2

  9
$UCSORG
 10
0.0
 20
0.0
 30
0.0
  9
$UCSXDIR
 10
1.0
 20
0.0
 30
0.0
  9
$UCSYDIR
 10
0.0
 20
1.0
 30
0.0
  9
$PUCSNAME
  2

  9
$PUCSORG
 10
0.0
 20
0.0
 30
0.0
  9
$PUCSXDIR
 10
1.0
 20
0.0
 30
0.0
  9
$PUCSYDIR
 10
0.0
 20
1.0
 30
0.0
  9
$USERI1
 70
     0
  9
$USERI2
 70
     0
  9
$USERI3
 70
     0
  9
$USERI4
 70
     0
  9
$USERI5
 70
     0
  9
$USERR1
 40
0.0
  9
$USERR2
 40
0.0
  9
$USERR3
 40
0.0
  9
$USERR4
 40
0.0
  9
$USERR5
 40
0.0
  9
$WORLDVIEW
 70
     1
  9
$SHADEDGE
 70
     3
  9
$SHADEDIF
 70
    70
  9
$TILEMODE
 70
     1
  9
$MAXACTVP
 70
    48
  9
$PLIMCHECK
 70
     0
  9
$PEXTMIN
 10
1.000000E+020
 20
1.000000E+020
 30
1.000000E+020
  9
$PEXTMAX
 10
-1.000000E+020
 20
-1.000000E+020
 30
-1.000000E+020
  9
$PLIMMIN
 10
0.0
 20
0.0
  9
$PLIMMAX
 10
12.0
 20
9.0
  9
$UNITMODE
 70
     0
  9
$VISRETAIN
 70
     1
  9
$PLINEGEN
 70
     0
  9
$PSLTSCALE
 70
     1
  0
ENDSEC
  0
SECTION
  2
TABLES
  0
TABLE
  2
VPORT
 70
     2
  0
VPORT
  2
*ACTIVE
 70
     0
 10
0.0
 20
0.0
 11
1.0
 21
1.0
 12
-498.41394
 22
886.579155
 13
0.0
 23
0.0
 14
1.0
 24
1.0
 15
0.0
 25
0.0
 16
0.0
 26
0.0
 36
1.0
 17
0.0
 27
0.0
 37
0.0
 40
3566.902696
 41
3.116197
 42
50.0
 43
0.0
 44
0.0
 50
0.0
 51
0.0
 71
     0
 72
   100
 73
     1
 74
     1
 75
     0
 76
     0
 77
     0
 78
     0
  0
ENDTAB
  0
TABLE
  2
LTYPE
 70
     4
  0
LTYPE
  2
CONTINUOUS
 70
     0
  3
Solid line
 72
    65
 73
     0
 40
0.0
  0
LTYPE
  2
DASHED
 70
     0
  3
-- -- -- -- -- -- -- -- -- -- -- -- -- -- --
 72
    65
 73
     2
 40
0.75
 49
0.5
 49
-0.25
  0
LTYPE
  2
DASHDOT
 70
     0
  3
__ . __ . __ . __ . __ . __ . __ . __ . __ . __
 72
    65
 73
     4
 40
125.0
 49
80.0
 49
-20.0
 49
5.0
 49
-20.0
  0
LTYPE
  2
DIVIDE
 70
     0
  3
__ . . __ . . __ . . __ . . __ . . __ . . __
 72
    65
 73
     6
 40
1.25
 49
0.5
 49
-0.25
 49
0.0
 49
-0.25
 49
0.0
 49
-0.25
  0
ENDTAB
  0
TABLE
  2
LAYER
 70
    12
  0
LAYER
  2
0
 70
     0
 62
     3
  6
CONTINUOUS
  0
LAYER
  2
OUTLINE
 70
     0
 62
     3
  6
CONTINUOUS
  0
LAYER
  2
DETAIL
 70
     0
 62
     5
  6
CONTINUOUS
  0
LAYER
  2
BASIS
 70
     0
 62
     6
  6
CONTINUOUS
  0
LAYER
  2
SIZE
 70
     0
 62
    30
  6
CONTINUOUS
  0
LAYER
  2
NOTE
 70
     0
 62
     4
  6
CONTINUOUS
  0
LAYER
  2
ARRANGE
 70
     0
 62
     1
  6
CONTINUOUS
  0
LAYER
  2
FIX
 70
     0
 62
    11
  6
CONTINUOUS
  0
LAYER
  2
SERVICESPACE
 70
     0
 62
     2
  6
CONTINUOUS
  0
LAYER
  2
ETC
 70
     0
 62
    61
  6
CONTINUOUS
  0
LAYER
  2
SYMBOLLINE
 70
     0
 62
     7
  6
CONTINUOUS
  0
LAYER
  2
DEFPOINTS
 70
     0
 62
     7
  6
CONTINUOUS
  0
ENDTAB
  0
TABLE
  2
STYLE
 70
     5
  0
STYLE
  2
STANDARD
 70
     0
 40
0.0
 41
1.0
 50
0.0
 71
     0
 42
0.2
  3
txt
  4

  0
STYLE
  2
STANDARD1
 70
     0
 40
0.0
 41
1.0
 50
0.0
 71
     0
 42
7.0
  3
MONOTXT
  4
BIGFONT
  0
STYLE
  2
STANDARD2
 70
     4
 40
0.0
 41
1.0
 50
0.0
 71
     0
 42
7.0
  3
MONOTXT
  4
BIGFONT
  0
STYLE
  2
STANDARD3
 70
     0
 40
0.0
 41
1.0
 50
0.0
 71
     0
 42
7.0
  3
MONOTXT
  4

  0
STYLE
  2
STANDARD4
 70
     4
 40
0.0
 41
1.0
 50
0.0
 71
     0
 42
7.0
  3
MONOTXT
  4

  0
ENDTAB
  0
TABLE
  2
VIEW
 70
     0
  0
ENDTAB
  0
TABLE
  2
UCS
 70
     0
  0
ENDTAB
  0
TABLE
  2
APPID
 70
     1
  0
APPID
  2
ACAD
 70
     0
  0
ENDTAB
  0
TABLE
  2
DIMSTYLE
 70
     1
  0
DIMSTYLE
  2
STANDARD
 70
     0
  3

  4

  5

  6

  7

 40
1.0
 41
0.18
 42
0.0625
 43
0.38
 44
0.18
 45
0.0
 46
0.0
 47
0.0
 48
0.0
140
0.18
141
0.09
142
0.0
143
25.4
144
1.0
145
0.0
146
1.0
147
0.09
 71
     0
 72
     0
 73
     1
 74
     1
 75
     0
 76
     0
 77
     0
 78
     0
170
     0
171
     2
172
     0
173
     0
174
     0
175
     0
176
     0
177
     0
178
     0
  0
ENDTAB
  0
ENDSEC
  0
SECTION
  2
BLOCKS
  0
BLOCK
  8
0
  2
$MODEL_SPACE
 70
     0
 10
0.0
 20
0.0
 30
0.0
  3
$MODEL_SPACE
  1

  0
ENDBLK
  5
1A
  8
0
  0
BLOCK
 67
     1
  8
0
  2
$PAPER_SPACE
 70
     0
 10
0.0
 20
0.0
 30
0.0
  3
$PAPER_SPACE
  1

  0
ENDBLK
  5
17
 67
     1
  8
0
  0
BLOCK
  8
SIZE
  2
*D0
 70
     1
 10
0.0
 20
0.0
 30
0.0
  3
*D0
  1

  0
TEXT
  5
35
  8
SIZE
  6
CONTINUOUS
 10
-432.151788
 20
81.349999
 30
0.0
 40
2.8
  1
172.5
 50
90.000005
 41
0.7
  7
STANDARD1
  0
LINE
  5
36
  8
SIZE
  6
CONTINUOUS
 10
-568.0
 20
172.5
 30
0.0
 11
-429.151794
 21
172.5
 31
0.0
  0
LINE
  5
37
  8
SIZE
  6
CONTINUOUS
 10
-525.0
 20
0.0
 30
0.0
 11
-429.151794
 21
0.0
 31
0.0
  0
LINE
  5
38
  8
SIZE
  6
CONTINUOUS
 10
-431.151794
 20
172.5
 30
0.0
 11
-431.151794
 21
0.0
 31
0.0
  0
INSERT
  5
3A
  8
SIZE
  2
DOT
 10
-431.151794
 20
172.5
 30
0.0
 50
90.0
  0
INSERT
  5
3B
  8
SIZE
  2
DOT
 10
-431.151794
 20
0.0
 30
0.0
 50
270.0
  0
POINT
  5
3C
  8
DEFPOINTS
  6
BYBLOCK
 10
-526.0
 20
0.0
 30
0.0
  0
POINT
  5
3D
  8
DEFPOINTS
  6
BYBLOCK
 10
-569.0
 20
172.5
 30
0.0
  0
POINT
  5
3E
  8
DEFPOINTS
  6
BYBLOCK
 10
-431.151794
 20
172.5
 30
0.0
  0
ENDBLK
  5
3F
  8
SIZE
  0
BLOCK
  8
SIZE
  2
DOT
 70
     0
 10
0.0
 20
0.0
 30
0.0
  3
DOT
  1

  0
POLYLINE
  5
41
  8
0
  6
BYBLOCK
 66
     1
 10
0.0
 20
0.0
 30
0.0
 70
     1
 40
0.5
 41
0.5
  0
VERTEX
  5
42
  8
0
  6
BYBLOCK
 10
-0.25
 20
0.0
 30
0.0
 42
1.0
  0
VERTEX
  5
43
  8
0
  6
BYBLOCK
 10
0.25
 20
0.0
 30
0.0
 42
1.0
  0
SEQEND
  5
44
  8
0
  6
BYBLOCK
  0
LINE
  5
45
  8
0
  6
BYBLOCK
 10
-0.5
 20
0.0
 30
0.0
 11
-1.0
 21
0.0
 31
0.0
  0
ENDBLK
  5
46
  8
SIZE
  0
BLOCK
  8
SIZE
  2
*D2
 70
     1
 10
0.0
 20
0.0
 30
0.0
  3
*D2
  1

  0
TEXT
  5
49
  8
SIZE
  6
CONTINUOUS
 10
-704.960022
 20
-128.999998
 30
0.0
 40
2.8
  1
54
 50
0.000003
 41
0.7
  7
STANDARD1
  0
LINE
  5
4A
  8
SIZE
  6
CONTINUOUS
 10
-730.0
 20
-1.0
 30
0.0
 11
-730.0
 21
-132.0
 31
0.0
  0
LINE
  5
4B
  8
SIZE
  6
CONTINUOUS
 10
-676.0
 20
147.0
 30
0.0
 11
-676.0
 21
-132.0
 31
0.0
  0
LINE
  5
4C
  8
SIZE
  6
CONTINUOUS
 10
-730.0
 20
-130.0
 30
0.0
 11
-676.0
 21
-130.0
 31
0.0
  0
INSERT
  5
4D
  8
SIZE
  2
DOT
 10
-730.0
 20
-130.0
 30
0.0
 50
180.0
  0
INSERT
  5
4E
  8
SIZE
  2
DOT
 10
-676.0
 20
-130.0
 30
0.0
  0
POINT
  5
4F
  8
DEFPOINTS
  6
BYBLOCK
 10
-676.0
 20
148.0
 30
0.0
  0
POINT
  5
50
  8
DEFPOINTS
  6
BYBLOCK
 10
-730.0
 20
0.0
 30
0.0
  0
POINT
  5
51
  8
DEFPOINTS
  6
BYBLOCK
 10
-730.0
 20
-130.0
 30
0.0
  0
ENDBLK
  5
52
  8
SIZE
  0
BLOCK
  8
SIZE
  2
*D3
 70
     1
 10
0.0
 20
0.0
 30
0.0
  3
*D3
  1

  0
TEXT
  5
55
  8
SIZE
  6
CONTINUOUS
 10
229.000006
 20
2264.203858
 30
0.0
 40
2.8
  1
200
 50
90.000005
 41
0.7
  7
STANDARD1
  0
LINE
  5
56
  8
SIZE
  6
CONTINUOUS
 10
1.0
 20
2370.0
 30
0.0
 11
232.0
 21
2370.0
 31
0.0
  0
LINE
  5
57
  8
SIZE
  6
CONTINUOUS
 10
1.0
 20
2170.0
 30
0.0
 11
232.0
 21
2170.0
 31
0.0
  0
LINE
  5
58
  8
SIZE
  6
CONTINUOUS
 10
230.0
 20
2370.0
 30
0.0
 11
230.0
 21
2170.0
 31
0.0
  0
INSERT
  5
59
  8
SIZE
  2
DOT
 10
230.0
 20
2370.0
 30
0.0
 50
90.0
  0
INSERT
  5
5A
  8
SIZE
  2
DOT
 10
230.0
 20
2170.0
 30
0.0
 50
270.0
  0
POINT
  5
5B
  8
DEFPOINTS
  6
BYBLOCK
 10
0.0
 20
2170.0
 30
0.0
  0
POINT
  5
5C
  8
DEFPOINTS
  6
BYBLOCK
 10
0.0
 20
2370.0
 30
0.0
  0
POINT
  5
5D
  8
DEFPOINTS
  6
BYBLOCK
 10
230.0
 20
2370.0
 30
0.0
  0
ENDBLK
  5
5E
  8
SIZE
  0
BLOCK
  8
SIZE
  2
*D4
 70
     1
 10
0.0
 20
0.0
 30
0.0
  3
*D4
  1

  0
TEXT
  5
61
  8
SIZE
  6
CONTINUOUS
 10
-367.884796
 20
-848.999976
 30
0.0
 40
2.8
  1
730
 50
0.000003
 41
0.7
  7
STANDARD1
  0
LINE
  5
62
  8
SIZE
  6
CONTINUOUS
 10
-730.0
 20
-1.0
 30
0.0
 11
-730.0
 21
-852.0
 31
0.0
  0
LINE
  5
63
  8
SIZE
  6
CONTINUOUS
 10
0.0
 20
199.0
 30
0.0
 11
0.0
 21
-852.0
 31
0.0
  0
LINE
  5
64
  8
SIZE
  6
CONTINUOUS
 10
-730.0
 20
-850.0
 30
0.0
 11
0.0
 21
-850.0
 31
0.0
  0
INSERT
  5
65
  8
SIZE
  2
DOT
 10
-730.0
 20
-850.0
 30
0.0
 50
180.0
  0
INSERT
  5
66
  8
SIZE
  2
DOT
 10
0.0
 20
-850.0
 30
0.0
  0
POINT
  5
67
  8
DEFPOINTS
  6
BYBLOCK
 10
0.0
 20
200.0
 30
0.0
  0
POINT
  5
68
  8
DEFPOINTS
  6
BYBLOCK
 10
-730.0
 20
0.0
 30
0.0
  0
POINT
  5
69
  8
DEFPOINTS
  6
BYBLOCK
 10
-730.0
 20
-850.0
 30
0.0
  0
ENDBLK
  5
6A
  8
SIZE
  0
BLOCK
  8
SIZE
  2
*D5
 70
     1
 10
0.0
 20
0.0
 30
0.0
  3
*D5
  1

  0
TEXT
  5
6D
  8
SIZE
  6
CONTINUOUS
 10
-1531.000024
 20
1181.079956
 30
0.0
 40
2.8
  1
2370
 50
90.000005
 41
0.7
  7
STANDARD1
  0
LINE
  5
6E
  8
SIZE
  6
CONTINUOUS
 10
-1331.0
 20
2370.0
 30
0.0
 11
-1532.0
 21
2370.0
 31
0.0
  0
LINE
  5
6F
  8
SIZE
  6
CONTINUOUS
 10
-1331.0
 20
0.0
 30
0.0
 11
-1532.0
 21
0.0
 31
0.0
  0
LINE
  5
70
  8
SIZE
  6
CONTINUOUS
 10
-1530.0
 20
2370.0
 30
0.0
 11
-1530.0
 21
0.0
 31
0.0
  0
INSERT
  5
71
  8
SIZE
  2
DOT
 10
-1530.0
 20
2370.0
 30
0.0
 50
90.0
  0
INSERT
  5
72
  8
SIZE
  2
DOT
 10
-1530.0
 20
0.0
 30
0.0
 50
270.0
  0
POINT
  5
73
  8
DEFPOINTS
  6
BYBLOCK
 10
-1330.0
 20
0.0
 30
0.0
  0
POINT
  5
74
  8
DEFPOINTS
  6
BYBLOCK
 10
-1330.0
 20
2370.0
 30
0.0
  0
POINT
  5
75
  8
DEFPOINTS
  6
BYBLOCK
 10
-1530.0
 20
2370.0
 30
0.0
  0
ENDBLK
  5
76
  8
SIZE
  0
BLOCK
  8
SIZE
  2
*D6
 70
     1
 10
0.0
 20
0.0
 30
0.0
  3
*D6
  1

  0
TEXT
  5
79
  8
SIZE
  6
CONTINUOUS
 10
-291.499994
 20
2066.709473
 30
0.0
 40
2.8
  1
30
 50
90.000005
 41
0.7
  7
STANDARD1
  0
LINE
  5
7A
  8
SIZE
  6
CONTINUOUS
 10
-191.5
 20
2200.0
 30
0.0
 11
-292.5
 21
2200.0
 31
0.0
  0
LINE
  5
7B
  8
SIZE
  6
CONTINUOUS
 10
-290.5
 20
2205.0
 30
0.0
 11
-290.5
 21
2065.30957
 31
0.0
  0
INSERT
  5
7C
  8
SIZE
  2
DOT
 10
-290.5
 20
2200.0
 30
0.0
 50
90.0
  0
INSERT
  5
7D
  8
SIZE
  2
DOT
 10
-290.5
 20
2170.0
 30
0.0
 50
270.0
  0
POINT
  5
7E
  8
DEFPOINTS
  6
BYBLOCK
 10
0.0
 20
2170.0
 30
0.0
  0
POINT
  5
7F
  8
DEFPOINTS
  6
BYBLOCK
 10
-190.5
 20
2200.0
 30
0.0
  0
POINT
  5
80
  8
DEFPOINTS
  6
BYBLOCK
 10
-290.5
 20
2200.0
 30
0.0
  0
ENDBLK
  5
81
  8
SIZE
  0
BLOCK
  8
SIZE
  2
*D7
 70
     1
 10
0.0
 20
0.0
 30
0.0
  3
*D7
  1

  0
TEXT
  5
84
  8
SIZE
  6
CONTINUOUS
 10
150.577408
 20
2520.999902
 30
0.0
 40
2.8
  1
最大
 50
0.000003
 41
0.583333
  7
STANDARD1
  0
TEXT
  5
85
  8
SIZE
  6
CONTINUOUS
 10
154.497406
 20
2520.999902
 30
0.0
 40
2.8
  1
80
 50
0.000003
 41
0.7
  7
STANDARD1
  0
LINE
  5
86
  8
SIZE
  6
CONTINUOUS
 10
80.0
 20
2216.0
 30
0.0
 11
80.0
 21
2522.0
 31
0.0
  0
LINE
  5
87
  8
SIZE
  6
CONTINUOUS
 10
159.817413
 20
2520.0
 30
0.0
 11
-5.0
 21
2520.0
 31
0.0
  0
INSERT
  5
88
  8
SIZE
  2
DOT
 10
80.0
 20
2520.0
 30
0.0
  0
INSERT
  5
89
  8
SIZE
  2
DOT
 10
0.0
 20
2520.0
 30
0.0
 50
180.0
  0
POINT
  5
8A
  8
DEFPOINTS
  6
BYBLOCK
 10
0.0
 20
2170.0
 30
0.0
  0
POINT
  5
8B
  8
DEFPOINTS
  6
BYBLOCK
 10
80.0
 20
2215.0
 30
0.0
  0
POINT
  5
8C
  8
DEFPOINTS
  6
BYBLOCK
 10
80.0
 20
2520.0
 30
0.0
  0
ENDBLK
  5
8D
  8
SIZE
  0
BLOCK
  8
SIZE
  2
*D8
 70
     1
 10
0.0
 20
0.0
 30
0.0
  3
*D8
  1

  0
TEXT
  5
90
  8
SIZE
  6
CONTINUOUS
 10
-699.460022
 20
-309.000006
 30
0.0
 40
2.8
  1
65
 50
0.000003
 41
0.7
  7
STANDARD1
  0
LINE
  5
91
  8
SIZE
  6
CONTINUOUS
 10
-730.0
 20
-1.0
 30
0.0
 11
-730.0
 21
-312.0
 31
0.0
  0
LINE
  5
92
  8
SIZE
  6
CONTINUOUS
 10
-665.0
 20
179.0
 30
0.0
 11
-665.0
 21
-312.0
 31
0.0
  0
LINE
  5
93
  8
SIZE
  6
CONTINUOUS
 10
-730.0
 20
-310.0
 30
0.0
 11
-665.0
 21
-310.0
 31
0.0
  0
INSERT
  5
94
  8
SIZE
  2
DOT
 10
-730.0
 20
-310.0
 30
0.0
 50
180.0
  0
INSERT
  5
95
  8
SIZE
  2
DOT
 10
-665.0
 20
-310.0
 30
0.0
  0
POINT
  5
96
  8
DEFPOINTS
  6
BYBLOCK
 10
-665.0
 20
180.0
 30
0.0
  0
POINT
  5
97
  8
DEFPOINTS
  6
BYBLOCK
 10
-730.0
 20
0.0
 30
0.0
  0
POINT
  5
98
  8
DEFPOINTS
  6
BYBLOCK
 10
-730.0
 20
-310.0
 30
0.0
  0
ENDBLK
  5
99
  8
SIZE
  0
BLOCK
  8
SIZE
  2
*D9
 70
     1
 10
0.0
 20
0.0
 30
0.0
  3
*D9
  1

  0
TEXT
  5
9C
  8
SIZE
  6
CONTINUOUS
 10
-688.661987
 20
-758.999976
 30
0.0
 40
2.8
  1
84
 50
0.000003
 41
0.7
  7
STANDARD1
  0
LINE
  5
9D
  8
SIZE
  6
CONTINUOUS
 10
-730.0
 20
-1.0
 30
0.0
 11
-730.0
 21
-762.0
 31
0.0
  0
LINE
  5
9E
  8
SIZE
  6
CONTINUOUS
 10
-646.0
 20
-21.0
 30
0.0
 11
-646.0
 21
-762.0
 31
0.0
  0
LINE
  5
9F
  8
SIZE
  6
CONTINUOUS
 10
-730.0
 20
-760.0
 30
0.0
 11
-646.0
 21
-760.0
 31
0.0
  0
INSERT
  5
A0
  8
SIZE
  2
DOT
 10
-730.0
 20
-760.0
 30
0.0
 50
180.0
  0
INSERT
  5
A1
  8
SIZE
  2
DOT
 10
-646.0
 20
-760.0
 30
0.0
  0
POINT
  5
A2
  8
DEFPOINTS
  6
BYBLOCK
 10
-646.0
 20
-20.0
 30
0.0
  0
POINT
  5
A3
  8
DEFPOINTS
  6
BYBLOCK
 10
-730.0
 20
0.0
 30
0.0
  0
POINT
  5
A4
  8
DEFPOINTS
  6
BYBLOCK
 10
-730.0
 20
-760.0
 30
0.0
  0
ENDBLK
  5
A5
  8
SIZE
  0
BLOCK
  8
SIZE
  2
*D10
 70
     1
 10
0.0
 20
0.0
 30
0.0
  3
*D10
  1

  0
TEXT
  5
A8
  8
SIZE
  6
CONTINUOUS
 10
-372.667084
 20
-758.999976
 30
0.0
 40
2.8
  1
534
 50
0.000003
 41
0.7
  7
STANDARD1
  0
LINE
  5
A9
  8
SIZE
  6
CONTINUOUS
 10
-646.0
 20
-21.0
 30
0.0
 11
-646.0
 21
-762.0
 31
0.0
  0
LINE
  5
AA
  8
SIZE
  6
CONTINUOUS
 10
-112.0
 20
-21.0
 30
0.0
 11
-112.0
 21
-762.0
 31
0.0
  0
LINE
  5
AB
  8
SIZE
  6
CONTINUOUS
 10
-646.0
 20
-760.0
 30
0.0
 11
-112.0
 21
-760.0
 31
0.0
  0
INSERT
  5
AC
  8
SIZE
  2
DOT
 10
-646.0
 20
-760.0
 30
0.0
 50
180.0
  0
INSERT
  5
AD
  8
SIZE
  2
DOT
 10
-112.0
 20
-760.0
 30
0.0
  0
POINT
  5
AE
  8
DEFPOINTS
  6
BYBLOCK
 10
-112.0
 20
-20.0
 30
0.0
  0
POINT
  5
AF
  8
DEFPOINTS
  6
BYBLOCK
 10
-646.0
 20
-20.0
 30
0.0
  0
POINT
  5
B0
  8
DEFPOINTS
  6
BYBLOCK
 10
-646.0
 20
-760.0
 30
0.0
  0
ENDBLK
  5
B1
  8
SIZE
  0
BLOCK
  8
SIZE
  2
*D11
 70
     1
 10
0.0
 20
0.0
 30
0.0
  3
*D11
  1

  0
TEXT
  5
B4
  8
SIZE
  6
CONTINUOUS
 10
-57.645863
 20
-758.999976
 30
0.0
 40
2.8
  1
112
 50
0.000003
 41
0.7
  7
STANDARD1
  0
LINE
  5
B5
  8
SIZE
  6
CONTINUOUS
 10
-112.0
 20
-21.0
 30
0.0
 11
-112.0
 21
-762.0
 31
0.0
  0
LINE
  5
B6
  8
SIZE
  6
CONTINUOUS
 10
0.0
 20
199.0
 30
0.0
 11
0.0
 21
-762.0
 31
0.0
  0
LINE
  5
B7
  8
SIZE
  6
CONTINUOUS
 10
-112.0
 20
-760.0
 30
0.0
 11
0.0
 21
-760.0
 31
0.0
  0
INSERT
  5
B8
  8
SIZE
  2
DOT
 10
-112.0
 20
-760.0
 30
0.0
 50
180.0
  0
INSERT
  5
B9
  8
SIZE
  2
DOT
 10
0.0
 20
-760.0
 30
0.0
  0
POINT
  5
BA
  8
DEFPOINTS
  6
BYBLOCK
 10
0.0
 20
200.0
 30
0.0
  0
POINT
  5
BB
  8
DEFPOINTS
  6
BYBLOCK
 10
-112.0
 20
-20.0
 30
0.0
  0
POINT
  5
BC
  8
DEFPOINTS
  6
BYBLOCK
 10
-112.0
 20
-760.0
 30
0.0
  0
ENDBLK
  5
BD
  8
SIZE
  0
BLOCK
  8
SIZE
  2
*D12
 70
     1
 10
0.0
 20
0.0
 30
0.0
  3
*D12
  1

  0
TEXT
  5
C0
  8
SIZE
  6
CONTINUOUS
 10
-39.959999
 20
-668.999976
 30
0.0
 40
2.8
  1
76
 50
0.000003
 41
0.7
  7
STANDARD1
  0
LINE
  5
C1
  8
SIZE
  6
CONTINUOUS
 10
-76.0
 20
-21.0
 30
0.0
 11
-76.0
 21
-672.0
 31
0.0
  0
LINE
  5
C2
  8
SIZE
  6
CONTINUOUS
 10
0.0
 20
199.0
 30
0.0
 11
0.0
 21
-672.0
 31
0.0
  0
LINE
  5
C3
  8
SIZE
  6
CONTINUOUS
 10
-76.0
 20
-670.0
 30
0.0
 11
0.0
 21
-670.0
 31
0.0
  0
INSERT
  5
C4
  8
SIZE
  2
DOT
 10
-76.0
 20
-670.0
 30
0.0
 50
180.0
  0
INSERT
  5
C5
  8
SIZE
  2
DOT
 10
0.0
 20
-670.0
 30
0.0
  0
POINT
  5
C6
  8
DEFPOINTS
  6
BYBLOCK
 10
0.0
 20
200.0
 30
0.0
  0
POINT
  5
C7
  8
DEFPOINTS
  6
BYBLOCK
 10
-76.0
 20
-20.0
 30
0.0
  0
POINT
  5
C8
  8
DEFPOINTS
  6
BYBLOCK
 10
-76.0
 20
-670.0
 30
0.0
  0
ENDBLK
  5
C9
  8
SIZE
  0
BLOCK
  8
SIZE
  2
*D13
 70
     1
 10
0.0
 20
0.0
 30
0.0
  3
*D13
  1

  0
TEXT
  5
CC
  8
SIZE
  6
CONTINUOUS
 10
-373.97406
 20
-668.999976
 30
0.0
 40
2.8
  1
570
 50
0.000003
 41
0.7
  7
STANDARD1
  0
LINE
  5
CD
  8
SIZE
  6
CONTINUOUS
 10
-76.0
 20
-21.0
 30
0.0
 11
-76.0
 21
-672.0
 31
0.0
  0
LINE
  5
CE
  8
SIZE
  6
CONTINUOUS
 10
-646.0
 20
-21.0
 30
0.0
 11
-646.0
 21
-672.0
 31
0.0
  0
LINE
  5
CF
  8
SIZE
  6
CONTINUOUS
 10
-76.0
 20
-670.0
 30
0.0
 11
-646.0
 21
-670.0
 31
0.0
  0
INSERT
  5
D0
  8
SIZE
  2
DOT
 10
-76.0
 20
-670.0
 30
0.0
  0
INSERT
  5
D1
  8
SIZE
  2
DOT
 10
-646.0
 20
-670.0
 30
0.0
 50
180.0
  0
POINT
  5
D2
  8
DEFPOINTS
  6
BYBLOCK
 10
-646.0
 20
-20.0
 30
0.0
  0
POINT
  5
D3
  8
DEFPOINTS
  6
BYBLOCK
 10
-76.0
 20
-20.0
 30
0.0
  0
POINT
  5
D4
  8
DEFPOINTS
  6
BYBLOCK
 10
-76.0
 20
-670.0
 30
0.0
  0
ENDBLK
  5
D5
  8
SIZE
  0
BLOCK
  8
SIZE
  2
*D14
 70
     1
 10
0.0
 20
0.0
 30
0.0
  3
*D14
  1

  0
TEXT
  5
D8
  8
SIZE
  6
CONTINUOUS
 10
229.000006
 20
97.059998
 30
0.0
 40
2.8
  1
200
 50
90.000005
 41
0.7
  7
STANDARD1
  0
LINE
  5
D9
  8
SIZE
  6
CONTINUOUS
 10
-55.0
 20
0.0
 30
0.0
 11
232.0
 21
0.0
 31
0.0
  0
LINE
  5
DA
  8
SIZE
  6
CONTINUOUS
 10
1.0
 20
200.0
 30
0.0
 11
232.0
 21
200.0
 31
0.0
  0
LINE
  5
DB
  8
SIZE
  6
CONTINUOUS
 10
230.0
 20
0.0
 30
0.0
 11
230.0
 21
200.0
 31
0.0
  0
INSERT
  5
DC
  8
SIZE
  2
DOT
 10
230.0
 20
0.0
 30
0.0
 50
270.0
  0
INSERT
  5
DD
  8
SIZE
  2
DOT
 10
230.0
 20
200.0
 30
0.0
 50
90.0
  0
POINT
  5
DE
  8
DEFPOINTS
  6
BYBLOCK
 10
0.0
 20
200.0
 30
0.0
  0
POINT
  5
DF
  8
DEFPOINTS
  6
BYBLOCK
 10
-56.0
 20
0.0
 30
0.0
  0
POINT
  5
E0
  8
DEFPOINTS
  6
BYBLOCK
 10
230.0
 20
0.0
 30
0.0
  0
ENDBLK
  5
E1
  8
SIZE
  0
BLOCK
  8
SIZE
  2
*D15
 70
     1
 10
0.0
 20
0.0
 30
0.0
  3
*D15
  1

  0
TEXT
  5
E4
  8
SIZE
  6
CONTINUOUS
 10
528.999976
 20
1183.127564
 30
0.0
 40
2.8
  1
2215
 50
90.000005
 41
0.7
  7
STANDARD1
  0
LINE
  5
E5
  8
SIZE
  6
CONTINUOUS
 10
-55.0
 20
0.0
 30
0.0
 11
532.0
 21
0.0
 31
0.0
  0
LINE
  5
E6
  8
SIZE
  6
CONTINUOUS
 10
81.0
 20
2215.0
 30
0.0
 11
532.0
 21
2215.0
 31
0.0
  0
LINE
  5
E7
  8
SIZE
  6
CONTINUOUS
 10
530.0
 20
0.0
 30
0.0
 11
530.0
 21
2215.0
 31
0.0
  0
INSERT
  5
E8
  8
SIZE
  2
DOT
 10
530.0
 20
0.0
 30
0.0
 50
270.0
  0
INSERT
  5
E9
  8
SIZE
  2
DOT
 10
530.0
 20
2215.0
 30
0.0
 50
90.0
  0
POINT
  5
EA
  8
DEFPOINTS
  6
BYBLOCK
 10
80.0
 20
2215.0
 30
0.0
  0
POINT
  5
EB
  8
DEFPOINTS
  6
BYBLOCK
 10
-56.0
 20
0.0
 30
0.0
  0
POINT
  5
EC
  8
DEFPOINTS
  6
BYBLOCK
 10
530.0
 20
0.0
 30
0.0
  0
ENDBLK
  5
ED
  8
SIZE
  0
BLOCK
  8
SIZE
  2
*D16
 70
     1
 10
0.0
 20
0.0
 30
0.0
  3
*D16
  1

  0
TEXT
  5
F0
  8
SIZE
  6
CONTINUOUS
 10
429.000006
 20
1183.127564
 30
0.0
 40
2.8
  1
2200
 50
90.000005
 41
0.7
  7
STANDARD1
  0
LINE
  5
F1
  8
SIZE
  6
CONTINUOUS
 10
-55.0
 20
0.0
 30
0.0
 11
432.0
 21
0.0
 31
0.0
  0
LINE
  5
F2
  8
SIZE
  6
CONTINUOUS
 10
-169.5
 20
2200.0
 30
0.0
 11
432.0
 21
2200.0
 31
0.0
  0
LINE
  5
F3
  8
SIZE
  6
CONTINUOUS
 10
430.0
 20
0.0
 30
0.0
 11
430.0
 21
2200.0
 31
0.0
  0
INSERT
  5
F4
  8
SIZE
  2
DOT
 10
430.0
 20
0.0
 30
0.0
 50
270.0
  0
INSERT
  5
F5
  8
SIZE
  2
DOT
 10
430.0
 20
2200.0
 30
0.0
 50
90.0
  0
POINT
  5
F6
  8
DEFPOINTS
  6
BYBLOCK
 10
-170.5
 20
2200.0
 30
0.0
  0
POINT
  5
F7
  8
DEFPOINTS
  6
BYBLOCK
 10
-56.0
 20
0.0
 30
0.0
  0
POINT
  5
F8
  8
DEFPOINTS
  6
BYBLOCK
 10
430.0
 20
0.0
 30
0.0
  0
ENDBLK
  5
F9
  8
SIZE
  0
BLOCK
  8
SIZE
  2
*D17
 70
     1
 10
0.0
 20
0.0
 30
0.0
  3
*D17
  1

  0
TEXT
  5
FC
  8
SIZE
  6
CONTINUOUS
 10
229.000006
 20
1181.079956
 30
0.0
 40
2.8
  1
1970
 50
90.000005
 41
0.7
  7
STANDARD1
  0
LINE
  5
FD
  8
SIZE
  6
CONTINUOUS
 10
1.0
 20
2170.0
 30
0.0
 11
232.0
 21
2170.0
 31
0.0
  0
LINE
  5
FE
  8
SIZE
  6
CONTINUOUS
 10
1.0
 20
200.0
 30
0.0
 11
232.0
 21
200.0
 31
0.0
  0
LINE
  5
FF
  8
SIZE
  6
CONTINUOUS
 10
230.0
 20
2170.0
 30
0.0
 11
230.0
 21
200.0
 31
0.0
  0
INSERT
  5
100
  8
SIZE
  2
DOT
 10
230.0
 20
2170.0
 30
0.0
 50
90.0
  0
INSERT
  5
101
  8
SIZE
  2
DOT
 10
230.0
 20
200.0
 30
0.0
 50
270.0
  0
POINT
  5
102
  8
DEFPOINTS
  6
BYBLOCK
 10
0.0
 20
200.0
 30
0.0
  0
POINT
  5
103
  8
DEFPOINTS
  6
BYBLOCK
 10
0.0
 20
2170.0
 30
0.0
  0
POINT
  5
104
  8
DEFPOINTS
  6
BYBLOCK
 10
230.0
 20
2170.0
 30
0.0
  0
ENDBLK
  5
105
  8
SIZE
  0
BLOCK
  8
SIZE
  2
*D18
 70
     1
 10
0.0
 20
0.0
 30
0.0
  3
*D18
  1

  0
TEXT
  5
108
  8
SIZE
  6
CONTINUOUS
 10
329.000006
 20
1181.917359
 30
0.0
 40
2.8
  1
2193
 50
90.000005
 41
0.7
  7
STANDARD1
  0
LINE
  5
109
  8
SIZE
  6
CONTINUOUS
 10
101.0
 20
2193.0
 30
0.0
 11
332.0
 21
2193.0
 31
0.0
  0
LINE
  5
10A
  8
SIZE
  6
CONTINUOUS
 10
-55.0
 20
0.0
 30
0.0
 11
332.0
 21
0.0
 31
0.0
  0
LINE
  5
10B
  8
SIZE
  6
CONTINUOUS
 10
330.0
 20
2193.0
 30
0.0
 11
330.0
 21
0.0
 31
0.0
  0
INSERT
  5
10C
  8
SIZE
  2
DOT
 10
330.0
 20
2193.0
 30
0.0
 50
90.0
  0
INSERT
  5
10D
  8
SIZE
  2
DOT
 10
330.0
 20
0.0
 30
0.0
 50
270.0
  0
POINT
  5
10E
  8
DEFPOINTS
  6
BYBLOCK
 10
-56.0
 20
0.0
 30
0.0
  0
POINT
  5
10F
  8
DEFPOINTS
  6
BYBLOCK
 10
100.0
 20
2193.0
 30
0.0
  0
POINT
  5
110
  8
DEFPOINTS
  6
BYBLOCK
 10
330.0
 20
2193.0
 30
0.0
  0
ENDBLK
  5
111
  8
SIZE
  0
BLOCK
  8
SIZE
  2
*D19
 70
     1
 10
0.0
 20
0.0
 30
0.0
  3
*D19
  1

  0
TEXT
  5
114
  8
SIZE
  6
CONTINUOUS
 10
-1032.939941
 20
2520.999902
 30
0.0
 40
2.8
  1
600
 50
0.000003
 41
0.7
  7
STANDARD1
  0
LINE
  5
115
  8
SIZE
  6
CONTINUOUS
 10
-730.0
 20
2371.0
 30
0.0
 11
-730.0
 21
2522.0
 31
0.0
  0
LINE
  5
116
  8
SIZE
  6
CONTINUOUS
 10
-1330.0
 20
2371.0
 30
0.0
 11
-1330.0
 21
2522.0
 31
0.0
  0
LINE
  5
117
  8
SIZE
  6
CONTINUOUS
 10
-730.0
 20
2520.0
 30
0.0
 11
-1330.0
 21
2520.0
 31
0.0
  0
INSERT
  5
118
  8
SIZE
  2
DOT
 10
-730.0
 20
2520.0
 30
0.0
  0
INSERT
  5
119
  8
SIZE
  2
DOT
 10
-1330.0
 20
2520.0
 30
0.0
 50
180.0
  0
POINT
  5
11A
  8
DEFPOINTS
  6
BYBLOCK
 10
-1330.0
 20
2370.0
 30
0.0
  0
POINT
  5
11B
  8
DEFPOINTS
  6
BYBLOCK
 10
-730.0
 20
2370.0
 30
0.0
  0
POINT
  5
11C
  8
DEFPOINTS
  6
BYBLOCK
 10
-730.0
 20
2520.0
 30
0.0
  0
ENDBLK
  5
11D
  8
SIZE
  0
BLOCK
  8
SIZE
  2
*D20
 70
     1
 10
0.0
 20
0.0
 30
0.0
  3
*D20
  1

  0
TEXT
  5
120
  8
SIZE
  6
CONTINUOUS
 10
-367.940002
 20
2520.999902
 30
0.0
 40
2.8
  1
730
 50
0.000003
 41
0.7
  7
STANDARD1
  0
LINE
  5
121
  8
SIZE
  6
CONTINUOUS
 10
0.0
 20
2371.0
 30
0.0
 11
0.0
 21
2522.0
 31
0.0
  0
LINE
  5
122
  8
SIZE
  6
CONTINUOUS
 10
-730.0
 20
2371.0
 30
0.0
 11
-730.0
 21
2522.0
 31
0.0
  0
LINE
  5
123
  8
SIZE
  6
CONTINUOUS
 10
0.0
 20
2520.0
 30
0.0
 11
-730.0
 21
2520.0
 31
0.0
  0
INSERT
  5
124
  8
SIZE
  2
DOT
 10
0.0
 20
2520.0
 30
0.0
  0
INSERT
  5
125
  8
SIZE
  2
DOT
 10
-730.0
 20
2520.0
 30
0.0
 50
180.0
  0
POINT
  5
126
  8
DEFPOINTS
  6
BYBLOCK
 10
-730.0
 20
2370.0
 30
0.0
  0
POINT
  5
127
  8
DEFPOINTS
  6
BYBLOCK
 10
0.0
 20
2370.0
 30
0.0
  0
POINT
  5
128
  8
DEFPOINTS
  6
BYBLOCK
 10
0.0
 20
2520.0
 30
0.0
  0
ENDBLK
  5
129
  8
SIZE
  0
BLOCK
  8
SIZE
  2
*D21
 70
     1
 10
0.0
 20
0.0
 30
0.0
  3
*D21
  1

  0
TEXT
  5
12C
  8
SIZE
  6
CONTINUOUS
 10
-687.07782
 20
-399.000006
 30
0.0
 40
2.8
  1
90
 50
0.000003
 41
0.7
  7
STANDARD1
  0
LINE
  5
12D
  8
SIZE
  6
CONTINUOUS
 10
-730.0
 20
-1.0
 30
0.0
 11
-730.0
 21
-402.0
 31
0.0
  0
LINE
  5
12E
  8
SIZE
  6
CONTINUOUS
 10
-640.0
 20
134.5
 30
0.0
 11
-640.0
 21
-402.0
 31
0.0
  0
LINE
  5
12F
  8
SIZE
  6
CONTINUOUS
 10
-730.0
 20
-400.0
 30
0.0
 11
-640.0
 21
-400.0
 31
0.0
  0
INSERT
  5
130
  8
SIZE
  2
DOT
 10
-730.0
 20
-400.0
 30
0.0
 50
180.0
  0
INSERT
  5
131
  8
SIZE
  2
DOT
 10
-640.0
 20
-400.0
 30
0.0
  0
POINT
  5
132
  8
DEFPOINTS
  6
BYBLOCK
 10
-640.0
 20
135.5
 30
0.0
  0
POINT
  5
133
  8
DEFPOINTS
  6
BYBLOCK
 10
-730.0
 20
0.0
 30
0.0
  0
POINT
  5
134
  8
DEFPOINTS
  6
BYBLOCK
 10
-730.0
 20
-400.0
 30
0.0
  0
ENDBLK
  5
135
  8
SIZE
  0
BLOCK
  8
SIZE
  2
*D22
 70
     1
 10
0.0
 20
0.0
 30
0.0
  3
*D22
  1

  0
TEXT
  5
138
  8
SIZE
  6
CONTINUOUS
 10
-810.474023
 20
72.849999
 30
0.0
 40
2.8
  1
155.5
 50
90.000005
 41
0.7
  7
STANDARD1
  0
LINE
  5
139
  8
SIZE
  6
CONTINUOUS
 10
-661.0
 20
155.5
 30
0.0
 11
-811.473999
 21
155.5
 31
0.0
  0
LINE
  5
13A
  8
SIZE
  6
CONTINUOUS
 10
-809.473999
 20
155.5
 30
0.0
 11
-809.473999
 21
0.0
 31
0.0
  0
INSERT
  5
13B
  8
SIZE
  2
DOT
 10
-809.473999
 20
155.5
 30
0.0
 50
90.0
  0
INSERT
  5
13C
  8
SIZE
  2
DOT
 10
-809.473999
 20
0.0
 30
0.0
 50
270.0
  0
POINT
  5
13D
  8
DEFPOINTS
  6
BYBLOCK
 10
-730.0
 20
0.0
 30
0.0
  0
POINT
  5
13E
  8
DEFPOINTS
  6
BYBLOCK
 10
-660.0
 20
155.5
 30
0.0
  0
POINT
  5
13F
  8
DEFPOINTS
  6
BYBLOCK
 10
-809.473999
 20
155.5
 30
0.0
  0
ENDBLK
  5
140
  8
SIZE
  0
BLOCK
  8
SIZE
  2
*D23
 70
     1
 10
0.0
 20
0.0
 30
0.0
  3
*D23
  1

  0
TEXT
  5
143
  8
SIZE
  6
CONTINUOUS
 10
-1431.000024
 20
2063.060059
 30
0.0
 40
2.8
  1
130
 50
90.000005
 41
0.7
  7
STANDARD1
  0
LINE
  5
144
  8
SIZE
  6
CONTINUOUS
 10
-728.5
 20
2131.0
 30
0.0
 11
-1432.0
 21
2131.0
 31
0.0
  0
LINE
  5
145
  8
SIZE
  6
CONTINUOUS
 10
-728.5
 20
2001.0
 30
0.0
 11
-1432.0
 21
2001.0
 31
0.0
  0
LINE
  5
146
  8
SIZE
  6
CONTINUOUS
 10
-1430.0
 20
2131.0
 30
0.0
 11
-1430.0
 21
2001.0
 31
0.0
  0
INSERT
  5
147
  8
SIZE
  2
DOT
 10
-1430.0
 20
2131.0
 30
0.0
 50
90.0
  0
INSERT
  5
148
  8
SIZE
  2
DOT
 10
-1430.0
 20
2001.0
 30
0.0
 50
270.0
  0
POINT
  5
149
  8
DEFPOINTS
  6
BYBLOCK
 10
-727.5
 20
2001.0
 30
0.0
  0
POINT
  5
14A
  8
DEFPOINTS
  6
BYBLOCK
 10
-727.5
 20
2131.0
 30
0.0
  0
POINT
  5
14B
  8
DEFPOINTS
  6
BYBLOCK
 10
-1430.0
 20
2131.0
 30
0.0
  0
ENDBLK
  5
14C
  8
SIZE
  0
BLOCK
  8
SIZE
  2
*D24
 70
     1
 10
0.0
 20
0.0
 30
0.0
  3
*D24
  1

  0
TEXT
  5
14F
  8
SIZE
  6
CONTINUOUS
 10
-1111.474023
 20
295.059998
 30
0.0
 40
2.8
  1
130
 50
90.000005
 41
0.7
  7
STANDARD1
  0
LINE
  5
150
  8
SIZE
  6
CONTINUOUS
 10
-728.5
 20
363.0
 30
0.0
 11
-1112.473999
 21
363.0
 31
0.0
  0
LINE
  5
151
  8
SIZE
  6
CONTINUOUS
 10
-728.5
 20
233.0
 30
0.0
 11
-1112.473999
 21
233.0
 31
0.0
  0
LINE
  5
152
  8
SIZE
  6
CONTINUOUS
 10
-1110.473999
 20
363.0
 30
0.0
 11
-1110.473999
 21
233.0
 31
0.0
  0
INSERT
  5
153
  8
SIZE
  2
DOT
 10
-1110.473999
 20
363.0
 30
0.0
 50
90.0
  0
INSERT
  5
154
  8
SIZE
  2
DOT
 10
-1110.473999
 20
233.0
 30
0.0
 50
270.0
  0
POINT
  5
155
  8
DEFPOINTS
  6
BYBLOCK
 10
-727.5
 20
233.0
 30
0.0
  0
POINT
  5
156
  8
DEFPOINTS
  6
BYBLOCK
 10
-727.5
 20
363.0
 30
0.0
  0
POINT
  5
157
  8
DEFPOINTS
  6
BYBLOCK
 10
-1110.473999
 20
363.0
 30
0.0
  0
ENDBLK
  5
158
  8
SIZE
  0
BLOCK
  8
SIZE
  2
*D25
 70
     1
 10
0.0
 20
0.0
 30
0.0
  3
*D25
  1

  0
TEXT
  5
15B
  8
SIZE
  6
CONTINUOUS
 10
-1431.000024
 20
996.580017
 30
0.0
 40
2.8
  1
2001
 50
90.000005
 41
0.7
  7
STANDARD1
  0
LINE
  5
15C
  8
SIZE
  6
CONTINUOUS
 10
-728.5
 20
2001.0
 30
0.0
 11
-1432.0
 21
2001.0
 31
0.0
  0
LINE
  5
15D
  8
SIZE
  6
CONTINUOUS
 10
-1430.0
 20
0.0
 30
0.0
 11
-1430.0
 21
2001.0
 31
0.0
  0
INSERT
  5
15E
  8
SIZE
  2
DOT
 10
-1430.0
 20
0.0
 30
0.0
 50
270.0
  0
INSERT
  5
15F
  8
SIZE
  2
DOT
 10
-1430.0
 20
2001.0
 30
0.0
 50
90.0
  0
POINT
  5
160
  8
DEFPOINTS
  6
BYBLOCK
 10
-727.5
 20
2001.0
 30
0.0
  0
POINT
  5
161
  8
DEFPOINTS
  6
BYBLOCK
 10
-1330.0
 20
0.0
 30
0.0
  0
POINT
  5
162
  8
DEFPOINTS
  6
BYBLOCK
 10
-1430.0
 20
0.0
 30
0.0
  0
ENDBLK
  5
163
  8
SIZE
  0
BLOCK
  8
SIZE
  2
*D26
 70
     1
 10
0.0
 20
0.0
 30
0.0
  3
*D26
  1

  0
TEXT
  5
166
  8
SIZE
  6
CONTINUOUS
 10
-1110.474023
 20
113.559998
 30
0.0
 40
2.8
  1
233
 50
90.000005
 41
0.7
  7
STANDARD1
  0
LINE
  5
167
  8
SIZE
  6
CONTINUOUS
 10
-728.5
 20
233.0
 30
0.0
 11
-1111.473999
 21
233.0
 31
0.0
  0
LINE
  5
168
  8
SIZE
  6
CONTINUOUS
 10
-1109.473999
 20
233.0
 30
0.0
 11
-1109.473999
 21
0.0
 31
0.0
  0
INSERT
  5
169
  8
SIZE
  2
DOT
 10
-1109.473999
 20
233.0
 30
0.0
 50
90.0
  0
INSERT
  5
16A
  8
SIZE
  2
DOT
 10
-1109.473999
 20
0.0
 30
0.0
 50
270.0
  0
POINT
  5
16B
  8
DEFPOINTS
  6
BYBLOCK
 10
-730.0
 20
0.0
 30
0.0
  0
POINT
  5
16C
  8
DEFPOINTS
  6
BYBLOCK
 10
-727.5
 20
233.0
 30
0.0
  0
POINT
  5
16D
  8
DEFPOINTS
  6
BYBLOCK
 10
-1109.473999
 20
233.0
 30
0.0
  0
ENDBLK
  5
16E
  8
SIZE
  0
BLOCK
  8
SIZE
  2
*D27
 70
     1
 10
0.0
 20
0.0
 30
0.0
  3
*D27
  1

  0
TEXT
  5
171
  8
SIZE
  6
CONTINUOUS
 10
-1210.474023
 20
1463.849976
 30
0.0
 40
2.8
  1
194.5
 50
90.000005
 41
0.7
  7
STANDARD1
  0
LINE
  5
172
  8
SIZE
  6
CONTINUOUS
 10
-729.799988
 20
1566.0
 30
0.0
 11
-1211.473999
 21
1566.0
 31
0.0
  0
LINE
  5
173
  8
SIZE
  6
CONTINUOUS
 10
-729.799988
 20
1371.5
 30
0.0
 11
-1211.473999
 21
1371.5
 31
0.0
  0
LINE
  5
174
  8
SIZE
  6
CONTINUOUS
 10
-1209.473999
 20
1566.0
 30
0.0
 11
-1209.473999
 21
1371.5
 31
0.0
  0
INSERT
  5
175
  8
SIZE
  2
DOT
 10
-1209.473999
 20
1566.0
 30
0.0
 50
90.0
  0
INSERT
  5
176
  8
SIZE
  2
DOT
 10
-1209.473999
 20
1371.5
 30
0.0
 50
270.0
  0
POINT
  5
177
  8
DEFPOINTS
  6
BYBLOCK
 10
-728.799988
 20
1371.5
 30
0.0
  0
POINT
  5
178
  8
DEFPOINTS
  6
BYBLOCK
 10
-728.799988
 20
1566.0
 30
0.0
  0
POINT
  5
179
  8
DEFPOINTS
  6
BYBLOCK
 10
-1209.473999
 20
1566.0
 30
0.0
  0
ENDBLK
  5
17A
  8
SIZE
  0
BLOCK
  8
SIZE
  2
*D28
 70
     1
 10
0.0
 20
0.0
 30
0.0
  3
*D28
  1

  0
TEXT
  5
17D
  8
SIZE
  6
CONTINUOUS
 10
-1210.474023
 20
679.869995
 30
0.0
 40
2.8
  1
1371.5
 50
90.000005
 41
0.7
  7
STANDARD1
  0
LINE
  5
17E
  8
SIZE
  6
CONTINUOUS
 10
-729.799988
 20
1371.5
 30
0.0
 11
-1211.473999
 21
1371.5
 31
0.0
  0
LINE
  5
17F
  8
SIZE
  6
CONTINUOUS
 10
-1209.473999
 20
1371.5
 30
0.0
 11
-1209.473999
 21
0.0
 31
0.0
  0
INSERT
  5
180
  8
SIZE
  2
DOT
 10
-1209.473999
 20
1371.5
 30
0.0
 50
90.0
  0
INSERT
  5
181
  8
SIZE
  2
DOT
 10
-1209.473999
 20
0.0
 30
0.0
 50
270.0
  0
POINT
  5
182
  8
DEFPOINTS
  6
BYBLOCK
 10
-730.0
 20
0.0
 30
0.0
  0
POINT
  5
183
  8
DEFPOINTS
  6
BYBLOCK
 10
-728.799988
 20
1371.5
 30
0.0
  0
POINT
  5
184
  8
DEFPOINTS
  6
BYBLOCK
 10
-1209.473999
 20
1371.5
 30
0.0
  0
ENDBLK
  5
185
  8
SIZE
  0
BLOCK
  8
SIZE
  2
*D29
 70
     1
 10
0.0
 20
0.0
 30
0.0
  3
*D29
  1

  0
TEXT
  5
188
  8
SIZE
  6
CONTINUOUS
 10
-910.474023
 20
78.559998
 30
0.0
 40
2.8
  1
163
 50
90.000005
 41
0.7
  7
STANDARD1
  0
LINE
  5
189
  8
SIZE
  6
CONTINUOUS
 10
-696.0
 20
163.0
 30
0.0
 11
-911.473999
 21
163.0
 31
0.0
  0
LINE
  5
18A
  8
SIZE
  6
CONTINUOUS
 10
-909.473999
 20
163.0
 30
0.0
 11
-909.473999
 21
0.0
 31
0.0
  0
INSERT
  5
18B
  8
SIZE
  2
DOT
 10
-909.473999
 20
163.0
 30
0.0
 50
90.0
  0
INSERT
  5
18C
  8
SIZE
  2
DOT
 10
-909.473999
 20
0.0
 30
0.0
 50
270.0
  0
POINT
  5
18D
  8
DEFPOINTS
  6
BYBLOCK
 10
-730.0
 20
0.0
 30
0.0
  0
POINT
  5
18E
  8
DEFPOINTS
  6
BYBLOCK
 10
-695.0
 20
163.0
 30
0.0
  0
POINT
  5
18F
  8
DEFPOINTS
  6
BYBLOCK
 10
-909.473999
 20
163.0
 30
0.0
  0
ENDBLK
  5
190
  8
SIZE
  0
BLOCK
  8
SIZE
  2
*D30
 70
     1
 10
0.0
 20
0.0
 30
0.0
  3
*D30
  1

  0
TEXT
  5
193
  8
SIZE
  6
CONTINUOUS
 10
-1010.474023
 20
81.059998
 30
0.0
 40
2.8
  1
168
 50
90.000005
 41
0.7
  7
STANDARD1
  0
LINE
  5
194
  8
SIZE
  6
CONTINUOUS
 10
-696.0
 20
168.0
 30
0.0
 11
-1011.473999
 21
168.0
 31
0.0
  0
LINE
  5
195
  8
SIZE
  6
CONTINUOUS
 10
-1009.473999
 20
168.0
 30
0.0
 11
-1009.473999
 21
0.0
 31
0.0
  0
INSERT
  5
196
  8
SIZE
  2
DOT
 10
-1009.473999
 20
168.0
 30
0.0
 50
90.0
  0
INSERT
  5
197
  8
SIZE
  2
DOT
 10
-1009.473999
 20
0.0
 30
0.0
 50
270.0
  0
POINT
  5
198
  8
DEFPOINTS
  6
BYBLOCK
 10
-730.0
 20
0.0
 30
0.0
  0
POINT
  5
199
  8
DEFPOINTS
  6
BYBLOCK
 10
-695.0
 20
168.0
 30
0.0
  0
POINT
  5
19A
  8
DEFPOINTS
  6
BYBLOCK
 10
-1009.473999
 20
168.0
 30
0.0
  0
ENDBLK
  5
19B
  8
SIZE
  0
BLOCK
  8
SIZE
  2
*D31
 70
     1
 10
0.0
 20
0.0
 30
0.0
  3
*D31
  1

  0
TEXT
  5
19E
  8
SIZE
  6
CONTINUOUS
 10
-688.821899
 20
-489.000006
 30
0.0
 40
2.8
  1
119
 50
0.000003
 41
0.7
  7
STANDARD1
  0
LINE
  5
19F
  8
SIZE
  6
CONTINUOUS
 10
-611.0
 20
179.0
 30
0.0
 11
-611.0
 21
-492.0
 31
0.0
  0
LINE
  5
1A0
  8
SIZE
  6
CONTINUOUS
 10
-730.0
 20
-1.0
 30
0.0
 11
-730.0
 21
-492.0
 31
0.0
  0
LINE
  5
1A1
  8
SIZE
  6
CONTINUOUS
 10
-611.0
 20
-490.0
 30
0.0
 11
-730.0
 21
-490.0
 31
0.0
  0
INSERT
  5
1A2
  8
SIZE
  2
DOT
 10
-611.0
 20
-490.0
 30
0.0
  0
INSERT
  5
1A3
  8
SIZE
  2
DOT
 10
-730.0
 20
-490.0
 30
0.0
 50
180.0
  0
POINT
  5
1A4
  8
DEFPOINTS
  6
BYBLOCK
 10
-730.0
 20
0.0
 30
0.0
  0
POINT
  5
1A5
  8
DEFPOINTS
  6
BYBLOCK
 10
-611.0
 20
180.0
 30
0.0
  0
POINT
  5
1A6
  8
DEFPOINTS
  6
BYBLOCK
 10
-611.0
 20
-490.0
 30
0.0
  0
ENDBLK
  5
1A7
  8
SIZE
  0
BLOCK
  8
SIZE
  2
*D32
 70
     1
 10
0.0
 20
0.0
 30
0.0
  3
*D32
  1

  0
TEXT
  5
1AA
  8
SIZE
  6
CONTINUOUS
 10
-688.821899
 20
-578.999976
 30
0.0
 40
2.8
  1
135
 50
0.000003
 41
0.7
  7
STANDARD1
  0
LINE
  5
1AB
  8
SIZE
  6
CONTINUOUS
 10
-595.0
 20
179.0
 30
0.0
 11
-595.0
 21
-582.0
 31
0.0
  0
LINE
  5
1AC
  8
SIZE
  6
CONTINUOUS
 10
-730.0
 20
-1.0
 30
0.0
 11
-730.0
 21
-582.0
 31
0.0
  0
LINE
  5
1AD
  8
SIZE
  6
CONTINUOUS
 10
-595.0
 20
-580.0
 30
0.0
 11
-730.0
 21
-580.0
 31
0.0
  0
INSERT
  5
1AE
  8
SIZE
  2
DOT
 10
-595.0
 20
-580.0
 30
0.0
  0
INSERT
  5
1AF
  8
SIZE
  2
DOT
 10
-730.0
 20
-580.0
 30
0.0
 50
180.0
  0
POINT
  5
1B0
  8
DEFPOINTS
  6
BYBLOCK
 10
-730.0
 20
0.0
 30
0.0
  0
POINT
  5
1B1
  8
DEFPOINTS
  6
BYBLOCK
 10
-595.0
 20
180.0
 30
0.0
  0
POINT
  5
1B2
  8
DEFPOINTS
  6
BYBLOCK
 10
-595.0
 20
-580.0
 30
0.0
  0
ENDBLK
  5
1B3
  8
SIZE
  0
BLOCK
  8
SIZE
  2
*D33
 70
     1
 10
0.0
 20
0.0
 30
0.0
  3
*D33
  1

  0
TEXT
  5
1B6
  8
SIZE
  6
CONTINUOUS
 10
-704.460022
 20
-219.000006
 30
0.0
 40
2.8
  1
55
 50
0.000003
 41
0.7
  7
STANDARD1
  0
LINE
  5
1B7
  8
SIZE
  6
CONTINUOUS
 10
-730.0
 20
-1.0
 30
0.0
 11
-730.0
 21
-222.0
 31
0.0
  0
LINE
  5
1B8
  8
SIZE
  6
CONTINUOUS
 10
-675.0
 20
142.0
 30
0.0
 11
-675.0
 21
-222.0
 31
0.0
  0
LINE
  5
1B9
  8
SIZE
  6
CONTINUOUS
 10
-730.0
 20
-220.0
 30
0.0
 11
-675.0
 21
-220.0
 31
0.0
  0
INSERT
  5
1BA
  8
SIZE
  2
DOT
 10
-730.0
 20
-220.0
 30
0.0
 50
180.0
  0
INSERT
  5
1BB
  8
SIZE
  2
DOT
 10
-675.0
 20
-220.0
 30
0.0
  0
POINT
  5
1BC
  8
DEFPOINTS
  6
BYBLOCK
 10
-675.0
 20
143.0
 30
0.0
  0
POINT
  5
1BD
  8
DEFPOINTS
  6
BYBLOCK
 10
-730.0
 20
0.0
 30
0.0
  0
POINT
  5
1BE
  8
DEFPOINTS
  6
BYBLOCK
 10
-730.0
 20
-220.0
 30
0.0
  0
ENDBLK
  5
1BF
  8
SIZE
  0
BLOCK
  8
0
  2
_ORIGIN
 70
     0
 10
0.0
 20
0.0
 30
0.0
  3
_ORIGIN
  1

  0
CIRCLE
  5
1C2
  8
0
  6
BYBLOCK
 62
     0
 10
0.0
 20
0.0
 30
0.0
 40
0.5
  0
LINE
  5
1C3
  8
0
  6
BYBLOCK
 62
     0
 10
0.0
 20
0.0
 30
0.0
 11
-1.0
 21
0.0
 31
0.0
  0
ENDBLK
  5
1C4
  8
0
  0
BLOCK
  8
0
  2
*D35
 70
     1
 10
0.0
 20
0.0
 30
0.0
  3
*D35
  1

  0
LINE
  5
1C7
  8
0
  6
BYBLOCK
 62
     0
 10
-675.0
 20
133.0
 30
0.0
 11
-675.0
 21
-230.1
 31
0.0
  0
LINE
  5
1C8
  8
0
  6
BYBLOCK
 62
     0
 10
-730.0
 20
-10.0
 30
0.0
 11
-730.0
 21
-230.1
 31
0.0
  0
LINE
  5
1C9
  8
0
  6
BYBLOCK
 62
     0
 10
-685.0
 20
-217.6
 30
0.0
 11
-720.0
 21
-217.6
 31
0.0
  0
INSERT
  5
1CA
  8
0
  6
BYBLOCK
 62
     0
  2
_ORIGIN
 10
-675.0
 20
-217.6
 30
0.0
 41
10.0
 42
10.0
 43
10.0
  0
INSERT
  5
1CB
  8
0
  6
BYBLOCK
 62
     0
  2
_ORIGIN
 10
-730.0
 20
-217.6
 30
0.0
 41
10.0
 42
10.0
 43
10.0
 50
180.0
  0
TEXT
  5
1CC
  8
0
  6
BYBLOCK
 62
     0
 10
-727.5
 20
-207.6
 30
0.0
 40
30.0
  1
55
 72
     1
 11
-702.5
 21
-207.6
 31
0.0
  0
POINT
  5
1CD
  8
DEFPOINTS
  6
BYBLOCK
 62
     0
 10
-675.0
 20
143.0
 30
0.0
  0
POINT
  5
1CE
  8
DEFPOINTS
  6
BYBLOCK
 62
     0
 10
-730.0
 20
0.0
 30
0.0
  0
POINT
  5
1CF
  8
DEFPOINTS
  6
BYBLOCK
 62
     0
 10
-730.0
 20
-217.6
 30
0.0
  0
ENDBLK
  5
1D0
  8
0
  0
BLOCK
  8
0
  2
*D36
 70
     1
 10
0.0
 20
0.0
 30
0.0
  3
*D36
  1

  0
LINE
  5
1D3
  8
0
  6
BYBLOCK
 62
     0
 10
-730.0
 20
-10.0
 30
0.0
 11
-730.0
 21
-590.1
 31
0.0
  0
LINE
  5
1D4
  8
0
  6
BYBLOCK
 62
     0
 10
-595.0
 20
170.0
 30
0.0
 11
-595.0
 21
-590.1
 31
0.0
  0
LINE
  5
1D5
  8
0
  6
BYBLOCK
 62
     0
 10
-720.0
 20
-577.6
 30
0.0
 11
-605.0
 21
-577.6
 31
0.0
  0
INSERT
  5
1D6
  8
0
  6
BYBLOCK
 62
     0
  2
_ORIGIN
 10
-730.0
 20
-577.6
 30
0.0
 41
10.0
 42
10.0
 43
10.0
 50
180.0
  0
INSERT
  5
1D7
  8
0
  6
BYBLOCK
 62
     0
  2
_ORIGIN
 10
-595.0
 20
-577.6
 30
0.0
 41
10.0
 42
10.0
 43
10.0
  0
TEXT
  5
1D8
  8
0
  6
BYBLOCK
 62
     0
 10
-710.0
 20
-567.6
 30
0.0
 40
30.0
  1
135
 72
     1
 11
-675.0
 21
-567.6
 31
0.0
  0
POINT
  5
1D9
  8
DEFPOINTS
  6
BYBLOCK
 62
     0
 10
-730.0
 20
0.0
 30
0.0
  0
POINT
  5
1DA
  8
DEFPOINTS
  6
BYBLOCK
 62
     0
 10
-595.0
 20
180.0
 30
0.0
  0
POINT
  5
1DB
  8
DEFPOINTS
  6
BYBLOCK
 62
     0
 10
-595.0
 20
-577.6
 30
0.0
  0
ENDBLK
  5
1DC
  8
0
  0
BLOCK
  8
0
  2
*D37
 70
     1
 10
0.0
 20
0.0
 30
0.0
  3
*D37
  1

  0
LINE
  5
1DF
  8
0
  6
BYBLOCK
 62
     0
 10
-730.0
 20
-10.0
 30
0.0
 11
-730.0
 21
-500.1
 31
0.0
  0
LINE
  5
1E0
  8
0
  6
BYBLOCK
 62
     0
 10
-611.0
 20
170.0
 30
0.0
 11
-611.0
 21
-500.1
 31
0.0
  0
LINE
  5
1E1
  8
0
  6
BYBLOCK
 62
     0
 10
-720.0
 20
-487.6
 30
0.0
 11
-621.0
 21
-487.6
 31
0.0
  0
INSERT
  5
1E2
  8
0
  6
BYBLOCK
 62
     0
  2
_ORIGIN
 10
-730.0
 20
-487.6
 30
0.0
 41
10.0
 42
10.0
 43
10.0
 50
180.0
  0
INSERT
  5
1E3
  8
0
  6
BYBLOCK
 62
     0
  2
_ORIGIN
 10
-611.0
 20
-487.6
 30
0.0
 41
10.0
 42
10.0
 43
10.0
  0
TEXT
  5
1E4
  8
0
  6
BYBLOCK
 62
     0
 10
-715.881897
 20
-477.6
 30
0.0
 40
30.0
  1
119
 72
     1
 11
-685.881897
 21
-477.6
 31
0.0
  0
POINT
  5
1E5
  8
DEFPOINTS
  6
BYBLOCK
 62
     0
 10
-730.0
 20
0.0
 30
0.0
  0
POINT
  5
1E6
  8
DEFPOINTS
  6
BYBLOCK
 62
     0
 10
-611.0
 20
180.0
 30
0.0
  0
POINT
  5
1E7
  8
DEFPOINTS
  6
BYBLOCK
 62
     0
 10
-611.0
 20
-487.6
 30
0.0
  0
ENDBLK
  5
1E8
  8
0
  0
BLOCK
  8
0
  2
*D38
 70
     1
 10
0.0
 20
0.0
 30
0.0
  3
*D38
  1

  0
LINE
  5
1EB
  8
0
  6
BYBLOCK
 62
     0
 10
-740.0
 20
0.0
 30
0.0
 11
-1024.373999
 21
0.0
 31
0.0
  0
LINE
  5
1EC
  8
0
  6
BYBLOCK
 62
     0
 10
-705.0
 20
168.0
 30
0.0
 11
-1024.373999
 21
168.0
 31
0.0
  0
LINE
  5
1ED
  8
0
  6
BYBLOCK
 62
     0
 10
-1011.873999
 20
10.0
 30
0.0
 11
-1011.873999
 21
158.0
 31
0.0
  0
INSERT
  5
1EE
  8
0
  6
BYBLOCK
 62
     0
  2
_ORIGIN
 10
-1011.873999
 20
0.0
 30
0.0
 41
10.0
 42
10.0
 43
10.0
 50
270.0
  0
INSERT
  5
1EF
  8
0
  6
BYBLOCK
 62
     0
  2
_ORIGIN
 10
-1011.873999
 20
168.0
 30
0.0
 41
10.0
 42
10.0
 43
10.0
 50
90.0
  0
TEXT
  5
1F0
  8
0
  6
BYBLOCK
 62
     0
 10
-1021.873999
 20
49.0
 30
0.0
 40
30.0
  1
168
 50
90.0
 72
     1
 11
-1021.873999
 21
84.0
 31
0.0
  0
POINT
  5
1F1
  8
DEFPOINTS
  6
BYBLOCK
 62
     0
 10
-730.0
 20
0.0
 30
0.0
  0
POINT
  5
1F2
  8
DEFPOINTS
  6
BYBLOCK
 62
     0
 10
-695.0
 20
168.0
 30
0.0
  0
POINT
  5
1F3
  8
DEFPOINTS
  6
BYBLOCK
 62
     0
 10
-1011.873999
 20
168.0
 30
0.0
  0
ENDBLK
  5
1F4
  8
0
  0
BLOCK
  8
0
  2
*D39
 70
     1
 10
0.0
 20
0.0
 30
0.0
  3
*D39
  1

  0
LINE
  5
1F7
  8
0
  6
BYBLOCK
 62
     0
 10
-740.0
 20
0.0
 30
0.0
 11
-924.373999
 21
0.0
 31
0.0
  0
LINE
  5
1F8
  8
0
  6
BYBLOCK
 62
     0
 10
-705.0
 20
163.0
 30
0.0
 11
-924.373999
 21
163.0
 31
0.0
  0
LINE
  5
1F9
  8
0
  6
BYBLOCK
 62
     0
 10
-911.873999
 20
10.0
 30
0.0
 11
-911.873999
 21
153.0
 31
0.0
  0
INSERT
  5
1FA
  8
0
  6
BYBLOCK
 62
     0
  2
_ORIGIN
 10
-911.873999
 20
0.0
 30
0.0
 41
10.0
 42
10.0
 43
10.0
 50
270.0
  0
INSERT
  5
1FB
  8
0
  6
BYBLOCK
 62
     0
  2
_ORIGIN
 10
-911.873999
 20
163.0
 30
0.0
 41
10.0
 42
10.0
 43
10.0
 50
90.0
  0
TEXT
  5
1FC
  8
0
  6
BYBLOCK
 62
     0
 10
-921.873999
 20
46.5
 30
0.0
 40
30.0
  1
163
 50
90.0
 72
     1
 11
-921.873999
 21
81.5
 31
0.0
  0
POINT
  5
1FD
  8
DEFPOINTS
  6
BYBLOCK
 62
     0
 10
-730.0
 20
0.0
 30
0.0
  0
POINT
  5
1FE
  8
DEFPOINTS
  6
BYBLOCK
 62
     0
 10
-695.0
 20
163.0
 30
0.0
  0
POINT
  5
1FF
  8
DEFPOINTS
  6
BYBLOCK
 62
     0
 10
-911.873999
 20
163.0
 30
0.0
  0
ENDBLK
  5
200
  8
0
  0
BLOCK
  8
0
  2
*D40
 70
     1
 10
0.0
 20
0.0
 30
0.0
  3
*D40
  1

  0
LINE
  5
203
  8
0
  6
BYBLOCK
 62
     0
 10
-740.0
 20
0.0
 30
0.0
 11
-1224.373999
 21
0.0
 31
0.0
  0
LINE
  5
204
  8
0
  6
BYBLOCK
 62
     0
 10
-738.799988
 20
1371.5
 30
0.0
 11
-1224.373999
 21
1371.5
 31
0.0
  0
LINE
  5
205
  8
0
  6
BYBLOCK
 62
     0
 10
-1211.873999
 20
10.0
 30
0.0
 11
-1211.873999
 21
1361.5
 31
0.0
  0
INSERT
  5
206
  8
0
  6
BYBLOCK
 62
     0
  2
_ORIGIN
 10
-1211.873999
 20
0.0
 30
0.0
 41
10.0
 42
10.0
 43
10.0
 50
270.0
  0
INSERT
  5
207
  8
0
  6
BYBLOCK
 62
     0
  2
_ORIGIN
 10
-1211.873999
 20
1371.5
 30
0.0
 41
10.0
 42
10.0
 43
10.0
 50
90.0
  0
TEXT
  5
208
  8
0
  6
BYBLOCK
 62
     0
 10
-1221.873999
 20
635.75
 30
0.0
 40
30.0
  1
1372
 50
90.0
 72
     1
 11
-1221.873999
 21
685.75
 31
0.0
  0
POINT
  5
209
  8
DEFPOINTS
  6
BYBLOCK
 62
     0
 10
-730.0
 20
0.0
 30
0.0
  0
POINT
  5
20A
  8
DEFPOINTS
  6
BYBLOCK
 62
     0
 10
-728.799988
 20
1371.5
 30
0.0
  0
POINT
  5
20B
  8
DEFPOINTS
  6
BYBLOCK
 62
     0
 10
-1211.873999
 20
1371.5
 30
0.0
  0
ENDBLK
  5
20C
  8
0
  0
BLOCK
  8
0
  2
*D41
 70
     1
 10
0.0
 20
0.0
 30
0.0
  3
*D41
  1

  0
LINE
  5
20F
  8
0
  6
BYBLOCK
 62
     0
 10
-738.799988
 20
1371.5
 30
0.0
 11
-1224.373999
 21
1371.5
 31
0.0
  0
LINE
  5
210
  8
0
  6
BYBLOCK
 62
     0
 10
-738.799988
 20
1566.0
 30
0.0
 11
-1224.373999
 21
1566.0
 31
0.0
  0
LINE
  5
211
  8
0
  6
BYBLOCK
 62
     0
 10
-1211.873999
 20
1381.5
 30
0.0
 11
-1211.873999
 21
1556.0
 31
0.0
  0
INSERT
  5
212
  8
0
  6
BYBLOCK
 62
     0
  2
_ORIGIN
 10
-1211.873999
 20
1371.5
 30
0.0
 41
10.0
 42
10.0
 43
10.0
 50
270.0
  0
INSERT
  5
213
  8
0
  6
BYBLOCK
 62
     0
  2
_ORIGIN
 10
-1211.873999
 20
1566.0
 30
0.0
 41
10.0
 42
10.0
 43
10.0
 50
90.0
  0
TEXT
  5
214
  8
0
  6
BYBLOCK
 62
     0
 10
-1221.873999
 20
1433.75
 30
0.0
 40
30.0
  1
195
 50
90.0
 72
     1
 11
-1221.873999
 21
1468.75
 31
0.0
  0
POINT
  5
215
  8
DEFPOINTS
  6
BYBLOCK
 62
     0
 10
-728.799988
 20
1371.5
 30
0.0
  0
POINT
  5
216
  8
DEFPOINTS
  6
BYBLOCK
 62
     0
 10
-728.799988
 20
1566.0
 30
0.0
  0
POINT
  5
217
  8
DEFPOINTS
  6
BYBLOCK
 62
     0
 10
-1211.873999
 20
1566.0
 30
0.0
  0
ENDBLK
  5
218
  8
0
  0
BLOCK
  8
0
  2
*D42
 70
     1
 10
0.0
 20
0.0
 30
0.0
  3
*D42
  1

  0
LINE
  5
21B
  8
0
  6
BYBLOCK
 62
     0
 10
-740.0
 20
0.0
 30
0.0
 11
-1124.373999
 21
0.0
 31
0.0
  0
LINE
  5
21C
  8
0
  6
BYBLOCK
 62
     0
 10
-737.5
 20
233.0
 30
0.0
 11
-1124.373999
 21
233.0
 31
0.0
  0
LINE
  5
21D
  8
0
  6
BYBLOCK
 62
     0
 10
-1111.873999
 20
10.0
 30
0.0
 11
-1111.873999
 21
223.0
 31
0.0
  0
INSERT
  5
21E
  8
0
  6
BYBLOCK
 62
     0
  2
_ORIGIN
 10
-1111.873999
 20
0.0
 30
0.0
 41
10.0
 42
10.0
 43
10.0
 50
270.0
  0
INSERT
  5
21F
  8
0
  6
BYBLOCK
 62
     0
  2
_ORIGIN
 10
-1111.873999
 20
233.0
 30
0.0
 41
10.0
 42
10.0
 43
10.0
 50
90.0
  0
TEXT
  5
220
  8
0
  6
BYBLOCK
 62
     0
 10
-1121.873999
 20
76.5
 30
0.0
 40
30.0
  1
233
 50
90.0
 72
     1
 11
-1121.873999
 21
116.5
 31
0.0
  0
POINT
  5
221
  8
DEFPOINTS
  6
BYBLOCK
 62
     0
 10
-730.0
 20
0.0
 30
0.0
  0
POINT
  5
222
  8
DEFPOINTS
  6
BYBLOCK
 62
     0
 10
-727.5
 20
233.0
 30
0.0
  0
POINT
  5
223
  8
DEFPOINTS
  6
BYBLOCK
 62
     0
 10
-1111.873999
 20
233.0
 30
0.0
  0
ENDBLK
  5
224
  8
0
  0
BLOCK
  8
0
  2
*D43
 70
     1
 10
0.0
 20
0.0
 30
0.0
  3
*D43
  1

  0
LINE
  5
227
  8
0
  6
BYBLOCK
 62
     0
 10
-737.5
 20
2001.0
 30
0.0
 11
-1444.9
 21
2001.0
 31
0.0
  0
LINE
  5
228
  8
0
  6
BYBLOCK
 62
     0
 10
-1340.0
 20
0.0
 30
0.0
 11
-1444.9
 21
0.0
 31
0.0
  0
LINE
  5
229
  8
0
  6
BYBLOCK
 62
     0
 10
-1432.4
 20
1991.0
 30
0.0
 11
-1432.4
 21
10.0
 31
0.0
  0
INSERT
  5
22A
  8
0
  6
BYBLOCK
 62
     0
  2
_ORIGIN
 10
-1432.4
 20
2001.0
 30
0.0
 41
10.0
 42
10.0
 43
10.0
 50
90.0
  0
INSERT
  5
22B
  8
0
  6
BYBLOCK
 62
     0
  2
_ORIGIN
 10
-1432.4
 20
0.0
 30
0.0
 41
10.0
 42
10.0
 43
10.0
 50
270.0
  0
TEXT
  5
22C
  8
0
  6
BYBLOCK
 62
     0
 10
-1442.4
 20
955.5
 30
0.0
 40
30.0
  1
2001
 50
90.0
 72
     1
 11
-1442.4
 21
1000.5
 31
0.0
  0
POINT
  5
22D
  8
DEFPOINTS
  6
BYBLOCK
 62
     0
 10
-727.5
 20
2001.0
 30
0.0
  0
POINT
  5
22E
  8
DEFPOINTS
  6
BYBLOCK
 62
     0
 10
-1330.0
 20
0.0
 30
0.0
  0
POINT
  5
22F
  8
DEFPOINTS
  6
BYBLOCK
 62
     0
 10
-1432.4
 20
0.0
 30
0.0
  0
ENDBLK
  5
230
  8
0
  0
BLOCK
  8
0
  2
*D44
 70
     1
 10
0.0
 20
0.0
 30
0.0
  3
*D44
  1

  0
LINE
  5
233
  8
0
  6
BYBLOCK
 62
     0
 10
-737.5
 20
233.0
 30
0.0
 11
-1125.373999
 21
233.0
 31
0.0
  0
LINE
  5
234
  8
0
  6
BYBLOCK
 62
     0
 10
-737.5
 20
363.0
 30
0.0
 11
-1125.373999
 21
363.0
 31
0.0
  0
LINE
  5
235
  8
0
  6
BYBLOCK
 62
     0
 10
-1112.873999
 20
243.0
 30
0.0
 11
-1112.873999
 21
353.0
 31
0.0
  0
INSERT
  5
236
  8
0
  6
BYBLOCK
 62
     0
  2
_ORIGIN
 10
-1112.873999
 20
233.0
 30
0.0
 41
10.0
 42
10.0
 43
10.0
 50
270.0
  0
INSERT
  5
237
  8
0
  6
BYBLOCK
 62
     0
  2
_ORIGIN
 10
-1112.873999
 20
363.0
 30
0.0
 41
10.0
 42
10.0
 43
10.0
 50
90.0
  0
TEXT
  5
238
  8
0
  6
BYBLOCK
 62
     0
 10
-1122.873999
 20
265.5
 30
0.0
 40
30.0
  1
130
 50
90.0
 72
     1
 11
-1122.873999
 21
298.0
 31
0.0
  0
POINT
  5
239
  8
DEFPOINTS
  6
BYBLOCK
 62
     0
 10
-727.5
 20
233.0
 30
0.0
  0
POINT
  5
23A
  8
DEFPOINTS
  6
BYBLOCK
 62
     0
 10
-727.5
 20
363.0
 30
0.0
  0
POINT
  5
23B
  8
DEFPOINTS
  6
BYBLOCK
 62
     0
 10
-1112.873999
 20
363.0
 30
0.0
  0
ENDBLK
  5
23C
  8
0
  0
BLOCK
  8
0
  2
*D45
 70
     1
 10
0.0
 20
0.0
 30
0.0
  3
*D45
  1

  0
LINE
  5
23F
  8
0
  6
BYBLOCK
 62
     0
 10
-737.5
 20
2001.0
 30
0.0
 11
-1444.9
 21
2001.0
 31
0.0
  0
LINE
  5
240
  8
0
  6
BYBLOCK
 62
     0
 10
-737.5
 20
2131.0
 30
0.0
 11
-1444.9
 21
2131.0
 31
0.0
  0
LINE
  5
241
  8
0
  6
BYBLOCK
 62
     0
 10
-1432.4
 20
2011.0
 30
0.0
 11
-1432.4
 21
2121.0
 31
0.0
  0
INSERT
  5
242
  8
0
  6
BYBLOCK
 62
     0
  2
_ORIGIN
 10
-1432.4
 20
2001.0
 30
0.0
 41
10.0
 42
10.0
 43
10.0
 50
270.0
  0
INSERT
  5
243
  8
0
  6
BYBLOCK
 62
     0
  2
_ORIGIN
 10
-1432.4
 20
2131.0
 30
0.0
 41
10.0
 42
10.0
 43
10.0
 50
90.0
  0
TEXT
  5
244
  8
0
  6
BYBLOCK
 62
     0
 10
-1442.4
 20
2033.5
 30
0.0
 40
30.0
  1
130
 50
90.0
 72
     1
 11
-1442.4
 21
2066.0
 31
0.0
  0
POINT
  5
245
  8
DEFPOINTS
  6
BYBLOCK
 62
     0
 10
-727.5
 20
2001.0
 30
0.0
  0
POINT
  5
246
  8
DEFPOINTS
  6
BYBLOCK
 62
     0
 10
-727.5
 20
2131.0
 30
0.0
  0
POINT
  5
247
  8
DEFPOINTS
  6
BYBLOCK
 62
     0
 10
-1432.4
 20
2131.0
 30
0.0
  0
ENDBLK
  5
248
  8
0
  0
BLOCK
  8
0
  2
*D46
 70
     1
 10
0.0
 20
0.0
 30
0.0
  3
*D46
  1

  0
LINE
  5
24B
  8
0
  6
BYBLOCK
 62
     0
 10
-740.0
 20
0.0
 30
0.0
 11
-824.373999
 21
0.0
 31
0.0
  0
LINE
  5
24C
  8
0
  6
BYBLOCK
 62
     0
 10
-670.0
 20
155.5
 30
0.0
 11
-824.373999
 21
155.5
 31
0.0
  0
LINE
  5
24D
  8
0
  6
BYBLOCK
 62
     0
 10
-811.873999
 20
10.0
 30
0.0
 11
-811.873999
 21
145.5
 31
0.0
  0
INSERT
  5
24E
  8
0
  6
BYBLOCK
 62
     0
  2
_ORIGIN
 10
-811.873999
 20
0.0
 30
0.0
 41
10.0
 42
10.0
 43
10.0
 50
270.0
  0
INSERT
  5
24F
  8
0
  6
BYBLOCK
 62
     0
  2
_ORIGIN
 10
-811.873999
 20
155.5
 30
0.0
 41
10.0
 42
10.0
 43
10.0
 50
90.0
  0
TEXT
  5
250
  8
0
  6
BYBLOCK
 62
     0
 10
-821.873999
 20
42.75
 30
0.0
 40
30.0
  1
156
 50
90.0
 72
     1
 11
-821.873999
 21
77.75
 31
0.0
  0
POINT
  5
251
  8
DEFPOINTS
  6
BYBLOCK
 62
     0
 10
-730.0
 20
0.0
 30
0.0
  0
POINT
  5
252
  8
DEFPOINTS
  6
BYBLOCK
 62
     0
 10
-660.0
 20
155.5
 30
0.0
  0
POINT
  5
253
  8
DEFPOINTS
  6
BYBLOCK
 62
     0
 10
-811.873999
 20
155.5
 30
0.0
  0
ENDBLK
  5
254
  8
0
  0
BLOCK
  8
0
  2
*D47
 70
     1
 10
0.0
 20
0.0
 30
0.0
  3
*D47
  1

  0
LINE
  5
257
  8
0
  6
BYBLOCK
 62
     0
 10
-640.0
 20
125.5
 30
0.0
 11
-640.0
 21
-410.1
 31
0.0
  0
LINE
  5
258
  8
0
  6
BYBLOCK
 62
     0
 10
-730.0
 20
-10.0
 30
0.0
 11
-730.0
 21
-410.1
 31
0.0
  0
LINE
  5
259
  8
0
  6
BYBLOCK
 62
     0
 10
-650.0
 20
-397.6
 30
0.0
 11
-720.0
 21
-397.6
 31
0.0
  0
INSERT
  5
25A
  8
0
  6
BYBLOCK
 62
     0
  2
_ORIGIN
 10
-640.0
 20
-397.6
 30
0.0
 41
10.0
 42
10.0
 43
10.0
  0
INSERT
  5
25B
  8
0
  6
BYBLOCK
 62
     0
  2
_ORIGIN
 10
-730.0
 20
-397.6
 30
0.0
 41
10.0
 42
10.0
 43
10.0
 50
180.0
  0
TEXT
  5
25C
  8
0
  6
BYBLOCK
 62
     0
 10
-707.617798
 20
-387.6
 30
0.0
 40
30.0
  1
90
 72
     1
 11
-685.117798
 21
-387.6
 31
0.0
  0
POINT
  5
25D
  8
DEFPOINTS
  6
BYBLOCK
 62
     0
 10
-640.0
 20
135.5
 30
0.0
  0
POINT
  5
25E
  8
DEFPOINTS
  6
BYBLOCK
 62
     0
 10
-730.0
 20
0.0
 30
0.0
  0
POINT
  5
25F
  8
DEFPOINTS
  6
BYBLOCK
 62
     0
 10
-730.0
 20
-397.6
 30
0.0
  0
ENDBLK
  5
260
  8
0
  0
BLOCK
  8
0
  2
*D48
 70
     1
 10
0.0
 20
0.0
 30
0.0
  3
*D48
  1

  0
LINE
  5
263
  8
0
  6
BYBLOCK
 62
     0
 10
-730.0
 20
2380.0
 30
0.0
 11
-730.0
 21
2534.9
 31
0.0
  0
LINE
  5
264
  8
0
  6
BYBLOCK
 62
     0
 10
0.0
 20
2380.0
 30
0.0
 11
0.0
 21
2534.9
 31
0.0
  0
LINE
  5
265
  8
0
  6
BYBLOCK
 62
     0
 10
-720.0
 20
2522.4
 30
0.0
 11
-10.0
 21
2522.4
 31
0.0
  0
INSERT
  5
266
  8
0
  6
BYBLOCK
 62
     0
  2
_ORIGIN
 10
-730.0
 20
2522.4
 30
0.0
 41
10.0
 42
10.0
 43
10.0
 50
180.0
  0
INSERT
  5
267
  8
0
  6
BYBLOCK
 62
     0
  2
_ORIGIN
 10
0.0
 20
2522.4
 30
0.0
 41
10.0
 42
10.0
 43
10.0
  0
TEXT
  5
268
  8
0
  6
BYBLOCK
 62
     0
 10
-402.5
 20
2532.4
 30
0.0
 40
30.0
  1
730
 72
     1
 11
-365.0
 21
2532.4
 31
0.0
  0
POINT
  5
269
  8
DEFPOINTS
  6
BYBLOCK
 62
     0
 10
-730.0
 20
2370.0
 30
0.0
  0
POINT
  5
26A
  8
DEFPOINTS
  6
BYBLOCK
 62
     0
 10
0.0
 20
2370.0
 30
0.0
  0
POINT
  5
26B
  8
DEFPOINTS
  6
BYBLOCK
 62
     0
 10
0.0
 20
2522.4
 30
0.0
  0
ENDBLK
  5
26C
  8
0
  0
BLOCK
  8
0
  2
*D49
 70
     1
 10
0.0
 20
0.0
 30
0.0
  3
*D49
  1

  0
LINE
  5
26F
  8
0
  6
BYBLOCK
 62
     0
 10
-1330.0
 20
2380.0
 30
0.0
 11
-1330.0
 21
2534.9
 31
0.0
  0
LINE
  5
270
  8
0
  6
BYBLOCK
 62
     0
 10
-730.0
 20
2380.0
 30
0.0
 11
-730.0
 21
2534.9
 31
0.0
  0
LINE
  5
271
  8
0
  6
BYBLOCK
 62
     0
 10
-1320.0
 20
2522.4
 30
0.0
 11
-740.0
 21
2522.4
 31
0.0
  0
INSERT
  5
272
  8
0
  6
BYBLOCK
 62
     0
  2
_ORIGIN
 10
-1330.0
 20
2522.4
 30
0.0
 41
10.0
 42
10.0
 43
10.0
 50
180.0
  0
INSERT
  5
273
  8
0
  6
BYBLOCK
 62
     0
  2
_ORIGIN
 10
-730.0
 20
2522.4
 30
0.0
 41
10.0
 42
10.0
 43
10.0
  0
TEXT
  5
274
  8
0
  6
BYBLOCK
 62
     0
 10
-1065.0
 20
2532.4
 30
0.0
 40
30.0
  1
600
 72
     1
 11
-1030.0
 21
2532.4
 31
0.0
  0
POINT
  5
275
  8
DEFPOINTS
  6
BYBLOCK
 62
     0
 10
-1330.0
 20
2370.0
 30
0.0
  0
POINT
  5
276
  8
DEFPOINTS
  6
BYBLOCK
 62
     0
 10
-730.0
 20
2370.0
 30
0.0
  0
POINT
  5
277
  8
DEFPOINTS
  6
BYBLOCK
 62
     0
 10
-730.0
 20
2522.4
 30
0.0
  0
ENDBLK
  5
278
  8
0
  0
BLOCK
  8
0
  2
*D50
 70
     1
 10
0.0
 20
0.0
 30
0.0
  3
*D50
  1

  0
LINE
  5
27B
  8
0
  6
BYBLOCK
 62
     0
 10
-46.0
 20
0.0
 30
0.0
 11
340.1
 21
0.0
 31
0.0
  0
LINE
  5
27C
  8
0
  6
BYBLOCK
 62
     0
 10
110.0
 20
2193.0
 30
0.0
 11
340.1
 21
2193.0
 31
0.0
  0
LINE
  5
27D
  8
0
  6
BYBLOCK
 62
     0
 10
327.6
 20
10.0
 30
0.0
 11
327.6
 21
2183.0
 31
0.0
  0
INSERT
  5
27E
  8
0
  6
BYBLOCK
 62
     0
  2
_ORIGIN
 10
327.6
 20
0.0
 30
0.0
 41
10.0
 42
10.0
 43
10.0
 50
270.0
  0
INSERT
  5
27F
  8
0
  6
BYBLOCK
 62
     0
  2
_ORIGIN
 10
327.6
 20
2193.0
 30
0.0
 41
10.0
 42
10.0
 43
10.0
 50
90.0
  0
TEXT
  5
280
  8
0
  6
BYBLOCK
 62
     0
 10
317.6
 20
1135.837402
 30
0.0
 40
30.0
  1
2193
 50
90.0
 72
     1
 11
317.6
 21
1185.837402
 31
0.0
  0
POINT
  5
281
  8
DEFPOINTS
  6
BYBLOCK
 62
     0
 10
-56.0
 20
0.0
 30
0.0
  0
POINT
  5
282
  8
DEFPOINTS
  6
BYBLOCK
 62
     0
 10
100.0
 20
2193.0
 30
0.0
  0
POINT
  5
283
  8
DEFPOINTS
  6
BYBLOCK
 62
     0
 10
327.6
 20
2193.0
 30
0.0
  0
ENDBLK
  5
284
  8
0
  0
BLOCK
  8
0
  2
*D51
 70
     1
 10
0.0
 20
0.0
 30
0.0
  3
*D51
  1

  0
LINE
  5
287
  8
0
  6
BYBLOCK
 62
     0
 10
10.0
 20
200.0
 30
0.0
 11
240.1
 21
200.0
 31
0.0
  0
LINE
  5
288
  8
0
  6
BYBLOCK
 62
     0
 10
10.0
 20
2170.0
 30
0.0
 11
240.1
 21
2170.0
 31
0.0
  0
LINE
  5
289
  8
0
  6
BYBLOCK
 62
     0
 10
227.6
 20
210.0
 30
0.0
 11
227.6
 21
2160.0
 31
0.0
  0
INSERT
  5
28A
  8
0
  6
BYBLOCK
 62
     0
  2
_ORIGIN
 10
227.6
 20
200.0
 30
0.0
 41
10.0
 42
10.0
 43
10.0
 50
270.0
  0
INSERT
  5
28B
  8
0
  6
BYBLOCK
 62
     0
  2
_ORIGIN
 10
227.6
 20
2170.0
 30
0.0
 41
10.0
 42
10.0
 43
10.0
 50
90.0
  0
TEXT
  5
28C
  8
0
  6
BYBLOCK
 62
     0
 10
217.6
 20
1137.5
 30
0.0
 40
30.0
  1
1970
 50
90.0
 72
     1
 11
217.6
 21
1185.0
 31
0.0
  0
POINT
  5
28D
  8
DEFPOINTS
  6
BYBLOCK
 62
     0
 10
0.0
 20
200.0
 30
0.0
  0
POINT
  5
28E
  8
DEFPOINTS
  6
BYBLOCK
 62
     0
 10
0.0
 20
2170.0
 30
0.0
  0
POINT
  5
28F
  8
DEFPOINTS
  6
BYBLOCK
 62
     0
 10
227.6
 20
2170.0
 30
0.0
  0
ENDBLK
  5
290
  8
0
  0
BLOCK
  8
0
  2
*D52
 70
     1
 10
0.0
 20
0.0
 30
0.0
  3
*D52
  1

  0
LINE
  5
293
  8
0
  6
BYBLOCK
 62
     0
 10
-160.5
 20
2200.0
 30
0.0
 11
440.1
 21
2200.0
 31
0.0
  0
LINE
  5
294
  8
0
  6
BYBLOCK
 62
     0
 10
-46.0
 20
0.0
 30
0.0
 11
440.1
 21
0.0
 31
0.0
  0
LINE
  5
295
  8
0
  6
BYBLOCK
 62
     0
 10
427.6
 20
2190.0
 30
0.0
 11
427.6
 21
10.0
 31
0.0
  0
INSERT
  5
296
  8
0
  6
BYBLOCK
 62
     0
  2
_ORIGIN
 10
427.6
 20
2200.0
 30
0.0
 41
10.0
 42
10.0
 43
10.0
 50
90.0
  0
INSERT
  5
297
  8
0
  6
BYBLOCK
 62
     0
  2
_ORIGIN
 10
427.6
 20
0.0
 30
0.0
 41
10.0
 42
10.0
 43
10.0
 50
270.0
  0
TEXT
  5
298
  8
0
  6
BYBLOCK
 62
     0
 10
417.6
 20
1137.047607
 30
0.0
 40
30.0
  1
2200
 50
90.0
 72
     1
 11
417.6
 21
1187.047607
 31
0.0
  0
POINT
  5
299
  8
DEFPOINTS
  6
BYBLOCK
 62
     0
 10
-170.5
 20
2200.0
 30
0.0
  0
POINT
  5
29A
  8
DEFPOINTS
  6
BYBLOCK
 62
     0
 10
-56.0
 20
0.0
 30
0.0
  0
POINT
  5
29B
  8
DEFPOINTS
  6
BYBLOCK
 62
     0
 10
427.6
 20
0.0
 30
0.0
  0
ENDBLK
  5
29C
  8
0
  0
BLOCK
  8
0
  2
*D53
 70
     1
 10
0.0
 20
0.0
 30
0.0
  3
*D53
  1

  0
LINE
  5
29F
  8
0
  6
BYBLOCK
 62
     0
 10
90.0
 20
2215.0
 30
0.0
 11
540.1
 21
2215.0
 31
0.0
  0
LINE
  5
2A0
  8
0
  6
BYBLOCK
 62
     0
 10
-46.0
 20
0.0
 30
0.0
 11
540.1
 21
0.0
 31
0.0
  0
LINE
  5
2A1
  8
0
  6
BYBLOCK
 62
     0
 10
527.6
 20
2205.0
 30
0.0
 11
527.6
 21
10.0
 31
0.0
  0
INSERT
  5
2A2
  8
0
  6
BYBLOCK
 62
     0
  2
_ORIGIN
 10
527.6
 20
2215.0
 30
0.0
 41
10.0
 42
10.0
 43
10.0
 50
90.0
  0
INSERT
  5
2A3
  8
0
  6
BYBLOCK
 62
     0
  2
_ORIGIN
 10
527.6
 20
0.0
 30
0.0
 41
10.0
 42
10.0
 43
10.0
 50
270.0
  0
TEXT
  5
2A4
  8
0
  6
BYBLOCK
 62
     0
 10
517.6
 20
1137.047607
 30
0.0
 40
30.0
  1
2215
 50
90.0
 72
     1
 11
517.6
 21
1187.047607
 31
0.0
  0
POINT
  5
2A5
  8
DEFPOINTS
  6
BYBLOCK
 62
     0
 10
80.0
 20
2215.0
 30
0.0
  0
POINT
  5
2A6
  8
DEFPOINTS
  6
BYBLOCK
 62
     0
 10
-56.0
 20
0.0
 30
0.0
  0
POINT
  5
2A7
  8
DEFPOINTS
  6
BYBLOCK
 62
     0
 10
527.6
 20
0.0
 30
0.0
  0
ENDBLK
  5
2A8
  8
0
  0
BLOCK
  8
0
  2
*D54
 70
     1
 10
0.0
 20
0.0
 30
0.0
  3
*D54
  1

  0
LINE
  5
2AB
  8
0
  6
BYBLOCK
 62
     0
 10
10.0
 20
200.0
 30
0.0
 11
240.1
 21
200.0
 31
0.0
  0
LINE
  5
2AC
  8
0
  6
BYBLOCK
 62
     0
 10
-46.0
 20
0.0
 30
0.0
 11
240.1
 21
0.0
 31
0.0
  0
LINE
  5
2AD
  8
0
  6
BYBLOCK
 62
     0
 10
227.6
 20
190.0
 30
0.0
 11
227.6
 21
10.0
 31
0.0
  0
INSERT
  5
2AE
  8
0
  6
BYBLOCK
 62
     0
  2
_ORIGIN
 10
227.6
 20
200.0
 30
0.0
 41
10.0
 42
10.0
 43
10.0
 50
90.0
  0
INSERT
  5
2AF
  8
0
  6
BYBLOCK
 62
     0
  2
_ORIGIN
 10
227.6
 20
0.0
 30
0.0
 41
10.0
 42
10.0
 43
10.0
 50
270.0
  0
TEXT
  5
2B0
  8
0
  6
BYBLOCK
 62
     0
 10
217.6
 20
65.0
 30
0.0
 40
30.0
  1
200
 50
90.0
 72
     1
 11
217.6
 21
100.0
 31
0.0
  0
POINT
  5
2B1
  8
DEFPOINTS
  6
BYBLOCK
 62
     0
 10
0.0
 20
200.0
 30
0.0
  0
POINT
  5
2B2
  8
DEFPOINTS
  6
BYBLOCK
 62
     0
 10
-56.0
 20
0.0
 30
0.0
  0
POINT
  5
2B3
  8
DEFPOINTS
  6
BYBLOCK
 62
     0
 10
227.6
 20
0.0
 30
0.0
  0
ENDBLK
  5
2B4
  8
0
  0
BLOCK
  8
0
  2
*D55
 70
     1
 10
0.0
 20
0.0
 30
0.0
  3
*D55
  1

  0
LINE
  5
2B7
  8
0
  6
BYBLOCK
 62
     0
 10
-646.0
 20
-30.0
 30
0.0
 11
-646.0
 21
-680.1
 31
0.0
  0
LINE
  5
2B8
  8
0
  6
BYBLOCK
 62
     0
 10
-76.0
 20
-30.0
 30
0.0
 11
-76.0
 21
-680.1
 31
0.0
  0
LINE
  5
2B9
  8
0
  6
BYBLOCK
 62
     0
 10
-636.0
 20
-667.6
 30
0.0
 11
-86.0
 21
-667.6
 31
0.0
  0
INSERT
  5
2BA
  8
0
  6
BYBLOCK
 62
     0
  2
_ORIGIN
 10
-646.0
 20
-667.6
 30
0.0
 41
10.0
 42
10.0
 43
10.0
 50
180.0
  0
INSERT
  5
2BB
  8
0
  6
BYBLOCK
 62
     0
  2
_ORIGIN
 10
-76.0
 20
-667.6
 30
0.0
 41
10.0
 42
10.0
 43
10.0
  0
TEXT
  5
2BC
  8
0
  6
BYBLOCK
 62
     0
 10
-408.534058
 20
-657.6
 30
0.0
 40
30.0
  1
570
 72
     1
 11
-371.034058
 21
-657.6
 31
0.0
  0
POINT
  5
2BD
  8
DEFPOINTS
  6
BYBLOCK
 62
     0
 10
-646.0
 20
-20.0
 30
0.0
  0
POINT
  5
2BE
  8
DEFPOINTS
  6
BYBLOCK
 62
     0
 10
-76.0
 20
-20.0
 30
0.0
  0
POINT
  5
2BF
  8
DEFPOINTS
  6
BYBLOCK
 62
     0
 10
-76.0
 20
-667.6
 30
0.0
  0
ENDBLK
  5
2C0
  8
0
  0
BLOCK
  8
0
  2
*D56
 70
     1
 10
0.0
 20
0.0
 30
0.0
  3
*D56
  1

  0
LINE
  5
2C3
  8
0
  6
BYBLOCK
 62
     0
 10
0.0
 20
190.0
 30
0.0
 11
0.0
 21
-680.1
 31
0.0
  0
LINE
  5
2C4
  8
0
  6
BYBLOCK
 62
     0
 10
-76.0
 20
-30.0
 30
0.0
 11
-76.0
 21
-680.1
 31
0.0
  0
LINE
  5
2C5
  8
0
  6
BYBLOCK
 62
     0
 10
-10.0
 20
-667.6
 30
0.0
 11
-66.0
 21
-667.6
 31
0.0
  0
INSERT
  5
2C6
  8
0
  6
BYBLOCK
 62
     0
  2
_ORIGIN
 10
0.0
 20
-667.6
 30
0.0
 41
10.0
 42
10.0
 43
10.0
  0
INSERT
  5
2C7
  8
0
  6
BYBLOCK
 62
     0
  2
_ORIGIN
 10
-76.0
 20
-667.6
 30
0.0
 41
10.0
 42
10.0
 43
10.0
 50
180.0
  0
TEXT
  5
2C8
  8
0
  6
BYBLOCK
 62
     0
 10
-63.0
 20
-657.6
 30
0.0
 40
30.0
  1
76
 72
     1
 11
-38.0
 21
-657.6
 31
0.0
  0
POINT
  5
2C9
  8
DEFPOINTS
  6
BYBLOCK
 62
     0
 10
0.0
 20
200.0
 30
0.0
  0
POINT
  5
2CA
  8
DEFPOINTS
  6
BYBLOCK
 62
     0
 10
-76.0
 20
-20.0
 30
0.0
  0
POINT
  5
2CB
  8
DEFPOINTS
  6
BYBLOCK
 62
     0
 10
-76.0
 20
-667.6
 30
0.0
  0
ENDBLK
  5
2CC
  8
0
  0
BLOCK
  8
0
  2
*D57
 70
     1
 10
0.0
 20
0.0
 30
0.0
  3
*D57
  1

  0
LINE
  5
2CF
  8
0
  6
BYBLOCK
 62
     0
 10
0.0
 20
190.0
 30
0.0
 11
0.0
 21
-770.1
 31
0.0
  0
LINE
  5
2D0
  8
0
  6
BYBLOCK
 62
     0
 10
-112.0
 20
-30.0
 30
0.0
 11
-112.0
 21
-770.1
 31
0.0
  0
LINE
  5
2D1
  8
0
  6
BYBLOCK
 62
     0
 10
-10.0
 20
-757.6
 30
0.0
 11
-102.0
 21
-757.6
 31
0.0
  0
INSERT
  5
2D2
  8
0
  6
BYBLOCK
 62
     0
  2
_ORIGIN
 10
0.0
 20
-757.6
 30
0.0
 41
10.0
 42
10.0
 43
10.0
  0
INSERT
  5
2D3
  8
0
  6
BYBLOCK
 62
     0
  2
_ORIGIN
 10
-112.0
 20
-757.6
 30
0.0
 41
10.0
 42
10.0
 43
10.0
 50
180.0
  0
TEXT
  5
2D4
  8
0
  6
BYBLOCK
 62
     0
 10
-84.705864
 20
-747.6
 30
0.0
 40
30.0
  1
112
 72
     1
 11
-54.705864
 21
-747.6
 31
0.0
  0
POINT
  5
2D5
  8
DEFPOINTS
  6
BYBLOCK
 62
     0
 10
0.0
 20
200.0
 30
0.0
  0
POINT
  5
2D6
  8
DEFPOINTS
  6
BYBLOCK
 62
     0
 10
-112.0
 20
-20.0
 30
0.0
  0
POINT
  5
2D7
  8
DEFPOINTS
  6
BYBLOCK
 62
     0
 10
-112.0
 20
-757.6
 30
0.0
  0
ENDBLK
  5
2D8
  8
0
  0
BLOCK
  8
0
  2
*D58
 70
     1
 10
0.0
 20
0.0
 30
0.0
  3
*D58
  1

  0
LINE
  5
2DB
  8
0
  6
BYBLOCK
 62
     0
 10
-112.0
 20
-30.0
 30
0.0
 11
-112.0
 21
-770.1
 31
0.0
  0
LINE
  5
2DC
  8
0
  6
BYBLOCK
 62
     0
 10
-646.0
 20
-30.0
 30
0.0
 11
-646.0
 21
-770.1
 31
0.0
  0
LINE
  5
2DD
  8
0
  6
BYBLOCK
 62
     0
 10
-122.0
 20
-757.6
 30
0.0
 11
-636.0
 21
-757.6
 31
0.0
  0
INSERT
  5
2DE
  8
0
  6
BYBLOCK
 62
     0
  2
_ORIGIN
 10
-112.0
 20
-757.6
 30
0.0
 41
10.0
 42
10.0
 43
10.0
  0
INSERT
  5
2DF
  8
0
  6
BYBLOCK
 62
     0
  2
_ORIGIN
 10
-646.0
 20
-757.6
 30
0.0
 41
10.0
 42
10.0
 43
10.0
 50
180.0
  0
TEXT
  5
2E0
  8
0
  6
BYBLOCK
 62
     0
 10
-409.727081
 20
-747.6
 30
0.0
 40
30.0
  1
534
 72
     1
 11
-369.727081
 21
-747.6
 31
0.0
  0
POINT
  5
2E1
  8
DEFPOINTS
  6
BYBLOCK
 62
     0
 10
-112.0
 20
-20.0
 30
0.0
  0
POINT
  5
2E2
  8
DEFPOINTS
  6
BYBLOCK
 62
     0
 10
-646.0
 20
-20.0
 30
0.0
  0
POINT
  5
2E3
  8
DEFPOINTS
  6
BYBLOCK
 62
     0
 10
-646.0
 20
-757.6
 30
0.0
  0
ENDBLK
  5
2E4
  8
0
  0
BLOCK
  8
0
  2
*D59
 70
     1
 10
0.0
 20
0.0
 30
0.0
  3
*D59
  1

  0
LINE
  5
2E7
  8
0
  6
BYBLOCK
 62
     0
 10
-646.0
 20
-30.0
 30
0.0
 11
-646.0
 21
-770.1
 31
0.0
  0
LINE
  5
2E8
  8
0
  6
BYBLOCK
 62
     0
 10
-730.0
 20
-10.0
 30
0.0
 11
-730.0
 21
-770.1
 31
0.0
  0
LINE
  5
2E9
  8
0
  6
BYBLOCK
 62
     0
 10
-656.0
 20
-757.6
 30
0.0
 11
-720.0
 21
-757.6
 31
0.0
  0
INSERT
  5
2EA
  8
0
  6
BYBLOCK
 62
     0
  2
_ORIGIN
 10
-646.0
 20
-757.6
 30
0.0
 41
10.0
 42
10.0
 43
10.0
  0
INSERT
  5
2EB
  8
0
  6
BYBLOCK
 62
     0
  2
_ORIGIN
 10
-730.0
 20
-757.6
 30
0.0
 41
10.0
 42
10.0
 43
10.0
 50
180.0
  0
TEXT
  5
2EC
  8
0
  6
BYBLOCK
 62
     0
 10
-711.701965
 20
-747.6
 30
0.0
 40
30.0
  1
84
 72
     1
 11
-686.701965
 21
-747.6
 31
0.0
  0
POINT
  5
2ED
  8
DEFPOINTS
  6
BYBLOCK
 62
     0
 10
-646.0
 20
-20.0
 30
0.0
  0
POINT
  5
2EE
  8
DEFPOINTS
  6
BYBLOCK
 62
     0
 10
-730.0
 20
0.0
 30
0.0
  0
POINT
  5
2EF
  8
DEFPOINTS
  6
BYBLOCK
 62
     0
 10
-730.0
 20
-757.6
 30
0.0
  0
ENDBLK
  5
2F0
  8
0
  0
BLOCK
  8
0
  2
*D60
 70
     1
 10
0.0
 20
0.0
 30
0.0
  3
*D60
  1

  0
LINE
  5
2F3
  8
0
  6
BYBLOCK
 62
     0
 10
-665.0
 20
170.0
 30
0.0
 11
-665.0
 21
-320.1
 31
0.0
  0
LINE
  5
2F4
  8
0
  6
BYBLOCK
 62
     0
 10
-730.0
 20
-10.0
 30
0.0
 11
-730.0
 21
-320.1
 31
0.0
  0
LINE
  5
2F5
  8
0
  6
BYBLOCK
 62
     0
 10
-675.0
 20
-307.6
 30
0.0
 11
-720.0
 21
-307.6
 31
0.0
  0
INSERT
  5
2F6
  8
0
  6
BYBLOCK
 62
     0
  2
_ORIGIN
 10
-665.0
 20
-307.6
 30
0.0
 41
10.0
 42
10.0
 43
10.0
  0
INSERT
  5
2F7
  8
0
  6
BYBLOCK
 62
     0
  2
_ORIGIN
 10
-730.0
 20
-307.6
 30
0.0
 41
10.0
 42
10.0
 43
10.0
 50
180.0
  0
TEXT
  5
2F8
  8
0
  6
BYBLOCK
 62
     0
 10
-722.5
 20
-297.6
 30
0.0
 40
30.0
  1
65
 72
     1
 11
-697.5
 21
-297.6
 31
0.0
  0
POINT
  5
2F9
  8
DEFPOINTS
  6
BYBLOCK
 62
     0
 10
-665.0
 20
180.0
 30
0.0
  0
POINT
  5
2FA
  8
DEFPOINTS
  6
BYBLOCK
 62
     0
 10
-730.0
 20
0.0
 30
0.0
  0
POINT
  5
2FB
  8
DEFPOINTS
  6
BYBLOCK
 62
     0
 10
-730.0
 20
-307.6
 30
0.0
  0
ENDBLK
  5
2FC
  8
0
  0
BLOCK
  8
0
  2
*D61
 70
     1
 10
0.0
 20
0.0
 30
0.0
  3
*D61
  1

  0
LINE
  5
2FF
  8
0
  6
BYBLOCK
 62
     0
 10
0.0
 20
2180.0
 30
0.0
 11
0.0
 21
2534.9
 31
0.0
  0
LINE
  5
300
  8
0
  6
BYBLOCK
 62
     0
 10
80.0
 20
2225.0
 30
0.0
 11
80.0
 21
2534.9
 31
0.0
  0
LINE
  5
301
  8
0
  6
BYBLOCK
 62
     0
 10
10.0
 20
2522.4
 30
0.0
 11
70.0
 21
2522.4
 31
0.0
  0
LINE
  5
302
  8
0
  6
BYBLOCK
 62
     0
 10
80.0
 20
2522.4
 30
0.0
 11
186.997406
 21
2522.4
 31
0.0
  0
INSERT
  5
303
  8
0
  6
BYBLOCK
 62
     0
  2
_ORIGIN
 10
0.0
 20
2522.4
 30
0.0
 41
10.0
 42
10.0
 43
10.0
 50
180.0
  0
INSERT
  5
304
  8
0
  6
BYBLOCK
 62
     0
  2
_ORIGIN
 10
80.0
 20
2522.4
 30
0.0
 41
10.0
 42
10.0
 43
10.0
  0
TEXT
  5
305
  8
0
  6
BYBLOCK
 62
     0
 10
131.997406
 20
2532.4
 30
0.0
 40
30.0
  1
80
 72
     1
 11
154.497406
 21
2532.4
 31
0.0
  0
POINT
  5
306
  8
DEFPOINTS
  6
BYBLOCK
 62
     0
 10
0.0
 20
2170.0
 30
0.0
  0
POINT
  5
307
  8
DEFPOINTS
  6
BYBLOCK
 62
     0
 10
80.0
 20
2215.0
 30
0.0
  0
POINT
  5
308
  8
DEFPOINTS
  6
BYBLOCK
 62
     0
 10
80.0
 20
2522.4
 30
0.0
  0
ENDBLK
  5
309
  8
0
  0
BLOCK
  8
0
  2
*D62
 70
     1
 10
0.0
 20
0.0
 30
0.0
  3
*D62
  1

  0
LINE
  5
30C
  8
0
  6
BYBLOCK
 62
     0
 10
-10.0
 20
2170.0
 30
0.0
 11
-305.4
 21
2170.0
 31
0.0
  0
LINE
  5
30D
  8
0
  6
BYBLOCK
 62
     0
 10
-200.5
 20
2200.0
 30
0.0
 11
-305.4
 21
2200.0
 31
0.0
  0
LINE
  5
30E
  8
0
  6
BYBLOCK
 62
     0
 10
-292.9
 20
2210.0
 30
0.0
 11
-292.9
 21
2220.0
 31
0.0
  0
LINE
  5
30F
  8
0
  6
BYBLOCK
 62
     0
 10
-292.9
 20
2160.0
 30
0.0
 11
-292.9
 21
2036.169472
 31
0.0
  0
LINE
  5
310
  8
0
  6
BYBLOCK
 62
     0
 10
-292.9
 20
2200.0
 30
0.0
 11
-292.9
 21
2170.0
 31
0.0
  0
INSERT
  5
311
  8
0
  6
BYBLOCK
 62
     0
  2
_ORIGIN
 10
-292.9
 20
2200.0
 30
0.0
 41
10.0
 42
10.0
 43
10.0
 50
270.0
  0
INSERT
  5
312
  8
0
  6
BYBLOCK
 62
     0
  2
_ORIGIN
 10
-292.9
 20
2170.0
 30
0.0
 41
10.0
 42
10.0
 43
10.0
 50
90.0
  0
TEXT
  5
313
  8
0
  6
BYBLOCK
 62
     0
 10
-302.9
 20
2046.169472
 30
0.0
 40
30.0
  1
30
 50
90.0
 72
     1
 11
-302.9
 21
2068.669472
 31
0.0
  0
POINT
  5
314
  8
DEFPOINTS
  6
BYBLOCK
 62
     0
 10
0.0
 20
2170.0
 30
0.0
  0
POINT
  5
315
  8
DEFPOINTS
  6
BYBLOCK
 62
     0
 10
-190.5
 20
2200.0
 30
0.0
  0
POINT
  5
316
  8
DEFPOINTS
  6
BYBLOCK
 62
     0
 10
-292.9
 20
2200.0
 30
0.0
  0
ENDBLK
  5
317
  8
0
  0
BLOCK
  8
0
  2
*D63
 70
     1
 10
0.0
 20
0.0
 30
0.0
  3
*D63
  1

  0
LINE
  5
31A
  8
0
  6
BYBLOCK
 62
     0
 10
-1340.0
 20
0.0
 30
0.0
 11
-1544.9
 21
0.0
 31
0.0
  0
LINE
  5
31B
  8
0
  6
BYBLOCK
 62
     0
 10
-1340.0
 20
2370.0
 30
0.0
 11
-1544.9
 21
2370.0
 31
0.0
  0
LINE
  5
31C
  8
0
  6
BYBLOCK
 62
     0
 10
-1532.4
 20
10.0
 30
0.0
 11
-1532.4
 21
2360.0
 31
0.0
  0
INSERT
  5
31D
  8
0
  6
BYBLOCK
 62
     0
  2
_ORIGIN
 10
-1532.4
 20
0.0
 30
0.0
 41
10.0
 42
10.0
 43
10.0
 50
270.0
  0
INSERT
  5
31E
  8
0
  6
BYBLOCK
 62
     0
  2
_ORIGIN
 10
-1532.4
 20
2370.0
 30
0.0
 41
10.0
 42
10.0
 43
10.0
 50
90.0
  0
TEXT
  5
31F
  8
0
  6
BYBLOCK
 62
     0
 10
-1542.4
 20
1132.5
 30
0.0
 40
30.0
  1
2370
 50
90.0
 72
     1
 11
-1542.4
 21
1185.0
 31
0.0
  0
POINT
  5
320
  8
DEFPOINTS
  6
BYBLOCK
 62
     0
 10
-1330.0
 20
0.0
 30
0.0
  0
POINT
  5
321
  8
DEFPOINTS
  6
BYBLOCK
 62
     0
 10
-1330.0
 20
2370.0
 30
0.0
  0
POINT
  5
322
  8
DEFPOINTS
  6
BYBLOCK
 62
     0
 10
-1532.4
 20
2370.0
 30
0.0
  0
ENDBLK
  5
323
  8
0
  0
BLOCK
  8
0
  2
*D64
 70
     1
 10
0.0
 20
0.0
 30
0.0
  3
*D64
  1

  0
LINE
  5
326
  8
0
  6
BYBLOCK
 62
     0
 10
0.0
 20
190.0
 30
0.0
 11
0.0
 21
-860.1
 31
0.0
  0
LINE
  5
327
  8
0
  6
BYBLOCK
 62
     0
 10
-730.0
 20
-10.0
 30
0.0
 11
-730.0
 21
-860.1
 31
0.0
  0
LINE
  5
328
  8
0
  6
BYBLOCK
 62
     0
 10
-10.0
 20
-847.6
 30
0.0
 11
-720.0
 21
-847.6
 31
0.0
  0
INSERT
  5
329
  8
0
  6
BYBLOCK
 62
     0
  2
_ORIGIN
 10
0.0
 20
-847.6
 30
0.0
 41
10.0
 42
10.0
 43
10.0
  0
INSERT
  5
32A
  8
0
  6
BYBLOCK
 62
     0
  2
_ORIGIN
 10
-730.0
 20
-847.6
 30
0.0
 41
10.0
 42
10.0
 43
10.0
 50
180.0
  0
TEXT
  5
32B
  8
0
  6
BYBLOCK
 62
     0
 10
-402.444794
 20
-837.6
 30
0.0
 40
30.0
  1
730
 72
     1
 11
-364.944794
 21
-837.6
 31
0.0
  0
POINT
  5
32C
  8
DEFPOINTS
  6
BYBLOCK
 62
     0
 10
0.0
 20
200.0
 30
0.0
  0
POINT
  5
32D
  8
DEFPOINTS
  6
BYBLOCK
 62
     0
 10
-730.0
 20
0.0
 30
0.0
  0
POINT
  5
32E
  8
DEFPOINTS
  6
BYBLOCK
 62
     0
 10
-730.0
 20
-847.6
 30
0.0
  0
ENDBLK
  5
32F
  8
0
  0
BLOCK
  8
0
  2
*D65
 70
     1
 10
0.0
 20
0.0
 30
0.0
  3
*D65
  1

  0
LINE
  5
332
  8
0
  6
BYBLOCK
 62
     0
 10
10.0
 20
2170.0
 30
0.0
 11
240.1
 21
2170.0
 31
0.0
  0
LINE
  5
333
  8
0
  6
BYBLOCK
 62
     0
 10
10.0
 20
2370.0
 30
0.0
 11
240.1
 21
2370.0
 31
0.0
  0
LINE
  5
334
  8
0
  6
BYBLOCK
 62
     0
 10
227.6
 20
2180.0
 30
0.0
 11
227.6
 21
2360.0
 31
0.0
  0
INSERT
  5
335
  8
0
  6
BYBLOCK
 62
     0
  2
_ORIGIN
 10
227.6
 20
2170.0
 30
0.0
 41
10.0
 42
10.0
 43
10.0
 50
270.0
  0
INSERT
  5
336
  8
0
  6
BYBLOCK
 62
     0
  2
_ORIGIN
 10
227.6
 20
2370.0
 30
0.0
 41
10.0
 42
10.0
 43
10.0
 50
90.0
  0
TEXT
  5
337
  8
0
  6
BYBLOCK
 62
     0
 10
217.6
 20
2232.143799
 30
0.0
 40
30.0
  1
200
 50
90.0
 72
     1
 11
217.6
 21
2267.143799
 31
0.0
  0
POINT
  5
338
  8
DEFPOINTS
  6
BYBLOCK
 62
     0
 10
0.0
 20
2170.0
 30
0.0
  0
POINT
  5
339
  8
DEFPOINTS
  6
BYBLOCK
 62
     0
 10
0.0
 20
2370.0
 30
0.0
  0
POINT
  5
33A
  8
DEFPOINTS
  6
BYBLOCK
 62
     0
 10
227.6
 20
2370.0
 30
0.0
  0
ENDBLK
  5
33B
  8
0
  0
BLOCK
  8
0
  2
*D66
 70
     1
 10
0.0
 20
0.0
 30
0.0
  3
*D66
  1

  0
LINE
  5
33E
  8
0
  6
BYBLOCK
 62
     0
 10
-676.0
 20
138.0
 30
0.0
 11
-676.0
 21
-140.1
 31
0.0
  0
LINE
  5
33F
  8
0
  6
BYBLOCK
 62
     0
 10
-730.0
 20
-10.0
 30
0.0
 11
-730.0
 21
-140.1
 31
0.0
  0
LINE
  5
340
  8
0
  6
BYBLOCK
 62
     0
 10
-686.0
 20
-127.6
 30
0.0
 11
-720.0
 21
-127.6
 31
0.0
  0
INSERT
  5
341
  8
0
  6
BYBLOCK
 62
     0
  2
_ORIGIN
 10
-676.0
 20
-127.6
 30
0.0
 41
10.0
 42
10.0
 43
10.0
  0
INSERT
  5
342
  8
0
  6
BYBLOCK
 62
     0
  2
_ORIGIN
 10
-730.0
 20
-127.6
 30
0.0
 41
10.0
 42
10.0
 43
10.0
 50
180.0
  0
TEXT
  5
343
  8
0
  6
BYBLOCK
 62
     0
 10
-728.0
 20
-117.6
 30
0.0
 40
30.0
  1
54
 72
     1
 11
-703.0
 21
-117.6
 31
0.0
  0
POINT
  5
344
  8
DEFPOINTS
  6
BYBLOCK
 62
     0
 10
-676.0
 20
148.0
 30
0.0
  0
POINT
  5
345
  8
DEFPOINTS
  6
BYBLOCK
 62
     0
 10
-730.0
 20
0.0
 30
0.0
  0
POINT
  5
346
  8
DEFPOINTS
  6
BYBLOCK
 62
     0
 10
-730.0
 20
-127.6
 30
0.0
  0
ENDBLK
  5
347
  8
0
  0
BLOCK
  8
0
  2
*D67
 70
     1
 10
0.0
 20
0.0
 30
0.0
  3
*D67
  1

  0
LINE
  5
34A
  8
0
  6
BYBLOCK
 62
     0
 10
-516.0
 20
0.0
 30
0.0
 11
-421.051794
 21
0.0
 31
0.0
  0
LINE
  5
34B
  8
0
  6
BYBLOCK
 62
     0
 10
-559.0
 20
172.5
 30
0.0
 11
-421.051794
 21
172.5
 31
0.0
  0
LINE
  5
34C
  8
0
  6
BYBLOCK
 62
     0
 10
-433.551794
 20
10.0
 30
0.0
 11
-433.551794
 21
162.5
 31
0.0
  0
INSERT
  5
34D
  8
0
  6
BYBLOCK
 62
     0
  2
_ORIGIN
 10
-433.551794
 20
0.0
 30
0.0
 41
10.0
 42
10.0
 43
10.0
 50
270.0
  0
INSERT
  5
34E
  8
0
  6
BYBLOCK
 62
     0
  2
_ORIGIN
 10
-433.551794
 20
172.5
 30
0.0
 41
10.0
 42
10.0
 43
10.0
 50
90.0
  0
TEXT
  5
34F
  8
0
  6
BYBLOCK
 62
     0
 10
-443.551794
 20
51.25
 30
0.0
 40
30.0
  1
173
 50
90.0
 72
     1
 11
-443.551794
 21
86.25
 31
0.0
  0
POINT
  5
350
  8
DEFPOINTS
  6
BYBLOCK
 62
     0
 10
-526.0
 20
0.0
 30
0.0
  0
POINT
  5
351
  8
DEFPOINTS
  6
BYBLOCK
 62
     0
 10
-569.0
 20
172.5
 30
0.0
  0
POINT
  5
352
  8
DEFPOINTS
  6
BYBLOCK
 62
     0
 10
-433.551794
 20
172.5
 30
0.0
  0
ENDBLK
  5
353
  8
0
  0
ENDSEC
  0
SECTION
  2
ENTITIES
  0
LINE
  5
354
  8
OUTLINE
  6
CONTINUOUS
 10
0.0
 20
2170.0
 30
0.0
 11
0.0
 21
200.0
 31
0.0
  0
LINE
  5
355
  8
OUTLINE
  6
CONTINUOUS
 10
-730.0
 20
2170.0
 30
0.0
 11
-730.0
 21
2143.0
 31
0.0
  0
LINE
  5
356
  8
OUTLINE
  6
CONTINUOUS
 10
-730.0
 20
2170.0
 30
0.0
 11
0.0
 21
2170.0
 31
0.0
  0
LINE
  5
357
  8
OUTLINE
  6
CONTINUOUS
 10
-730.0
 20
2143.0
 30
0.0
 11
-720.0
 21
2143.0
 31
0.0
  0
LINE
  5
358
  8
OUTLINE
  6
CONTINUOUS
 10
-720.0
 20
200.0
 30
0.0
 11
-720.0
 21
2143.0
 31
0.0
  0
LINE
  5
359
  8
OUTLINE
  6
CONTINUOUS
 10
-720.0
 20
200.0
 30
0.0
 11
0.0
 21
200.0
 31
0.0
  0
LINE
  5
35A
  8
OUTLINE
  6
CONTINUOUS
 10
-140.499682
 20
200.0
 30
0.0
 11
-140.499682
 21
20.0
 31
0.0
  0
LINE
  5
35B
  8
OUTLINE
  6
CONTINUOUS
 10
-200.499682
 20
20.0
 30
0.0
 11
-200.499682
 21
200.0
 31
0.0
  0
LINE
  5
35C
  8
OUTLINE
  6
CONTINUOUS
 10
-200.499682
 20
20.0
 30
0.0
 11
-226.0
 21
20.0
 31
0.0
  0
LINE
  5
35D
  8
OUTLINE
  6
CONTINUOUS
 10
-112.0
 20
20.0
 30
0.0
 11
-140.499682
 21
20.0
 31
0.0
  0
LINE
  5
35E
  8
OUTLINE
  6
CONTINUOUS
 10
-96.0
 20
0.0
 30
0.0
 11
-236.0
 21
0.0
 31
0.0
  0
LINE
  5
35F
  8
OUTLINE
  6
CONTINUOUS
 10
-236.0
 20
10.0
 30
0.0
 11
-236.0
 21
0.0
 31
0.0
  0
ARC
  5
360
  8
OUTLINE
  6
CONTINUOUS
 10
-226.0
 20
10.0
 30
0.0
 40
10.0
 50
90.0
 51
180.0
  0
ARC
  5
361
  8
OUTLINE
  6
CONTINUOUS
 10
-112.0
 20
10.0
 30
0.0
 40
10.0
 50
0.0
 51
90.0
  0
LINE
  5
362
  8
OUTLINE
  6
CONTINUOUS
 10
-96.0
 20
0.0
 30
0.0
 11
-96.0
 21
3.2
 31
0.0
  0
LINE
  5
363
  8
OUTLINE
  6
CONTINUOUS
 10
-96.0
 20
3.2
 30
0.0
 11
-101.874682
 21
3.2
 31
0.0
  0
LINE
  5
364
  8
OUTLINE
  6
CONTINUOUS
 10
-102.0
 20
0.0
 30
0.0
 11
-102.0
 21
10.0
 31
0.0
  0
LINE
  5
365
  8
OUTLINE
  6
CONTINUOUS
 10
-630.499682
 20
20.0
 30
0.0
 11
-630.499682
 21
200.0
 31
0.0
  0
LINE
  5
366
  8
OUTLINE
  6
CONTINUOUS
 10
-630.499682
 20
20.0
 30
0.0
 11
-656.0
 21
20.0
 31
0.0
  0
LINE
  5
367
  8
OUTLINE
  6
CONTINUOUS
 10
-526.0
 20
0.0
 30
0.0
 11
-666.0
 21
0.0
 31
0.0
  0
LINE
  5
368
  8
OUTLINE
  6
CONTINUOUS
 10
-666.0
 20
10.0
 30
0.0
 11
-666.0
 21
0.0
 31
0.0
  0
ARC
  5
369
  8
OUTLINE
  6
CONTINUOUS
 10
-656.0
 20
10.0
 30
0.0
 40
10.0
 50
90.0
 51
180.0
  0
LINE
  5
36A
  8
OUTLINE
  6
CONTINUOUS
 10
-570.499682
 20
200.0
 30
0.0
 11
-570.499682
 21
20.0
 31
0.0
  0
LINE
  5
36B
  8
OUTLINE
  6
CONTINUOUS
 10
-542.0
 20
20.0
 30
0.0
 11
-570.499682
 21
20.0
 31
0.0
  0
ARC
  5
36C
  8
OUTLINE
  6
CONTINUOUS
 10
-542.0
 20
10.0
 30
0.0
 40
10.0
 50
0.0
 51
90.0
  0
LINE
  5
36D
  8
OUTLINE
  6
CONTINUOUS
 10
-526.0
 20
0.0
 30
0.0
 11
-526.0
 21
3.2
 31
0.0
  0
LINE
  5
36E
  8
OUTLINE
  6
CONTINUOUS
 10
-526.0
 20
3.2
 30
0.0
 11
-531.874682
 21
3.2
 31
0.0
  0
LINE
  5
36F
  8
OUTLINE
  6
CONTINUOUS
 10
-532.0
 20
0.0
 30
0.0
 11
-532.0
 21
10.0
 31
0.0
  0
LINE
  5
370
  8
OUTLINE
  6
CONTINUOUS
 10
-570.499682
 20
200.0
 30
0.0
 11
-570.499682
 21
20.0
 31
0.0
  0
LINE
  5
371
  8
DETAIL
  6
DASHED
 10
-664.15
 20
168.0
 30
0.0
 11
-685.85
 21
168.0
 31
0.0
  0
LINE
  5
372
  8
DETAIL
  6
CONTINUOUS
 10
-664.15
 20
163.0
 30
0.0
 11
-685.85
 21
163.0
 31
0.0
  0
LINE
  5
373
  8
DETAIL
  6
CONTINUOUS
 10
-664.15
 20
163.0
 30
0.0
 11
-664.15
 21
200.0
 31
0.0
  0
LINE
  5
374
  8
DETAIL
  6
CONTINUOUS
 10
-685.85
 20
163.0
 30
0.0
 11
-685.85
 21
168.0
 31
0.0
  0
LINE
  5
375
  8
DETAIL
  6
CONTINUOUS
 10
-665.15
 20
168.0
 30
0.0
 11
-686.85
 21
168.0
 31
0.0
  0
LINE
  5
376
  8
DETAIL
  6
CONTINUOUS
 10
-665.15
 20
168.0
 30
0.0
 11
-665.15
 21
200.0
 31
0.0
  0
LINE
  5
377
  8
DETAIL
  6
CONTINUOUS
 10
-686.85
 20
168.0
 30
0.0
 11
-686.85
 21
200.0
 31
0.0
  0
LINE
  5
378
  8
DETAIL
  6
CONTINUOUS
 10
-686.85
 20
168.0
 30
0.0
 11
-686.85
 21
200.0
 31
0.0
  0
LINE
  5
379
  8
DETAIL
  6
CONTINUOUS
 10
-665.15
 20
168.0
 30
0.0
 11
-665.15
 21
200.0
 31
0.0
  0
LINE
  5
37A
  8
DETAIL
  6
CONTINUOUS
 10
-665.15
 20
168.0
 30
0.0
 11
-686.85
 21
168.0
 31
0.0
  0
LINE
  5
37B
  8
DETAIL
  6
DASHED
 10
-685.85
 20
168.0
 30
0.0
 11
-685.85
 21
200.0
 31
0.0
  0
LINE
  5
37C
  8
DETAIL
  6
CONTINUOUS
 10
-630.499682
 20
189.5
 30
0.0
 11
-664.0
 21
189.5
 31
0.0
  0
LINE
  5
37D
  8
DETAIL
  6
CONTINUOUS
 10
-660.0
 20
185.5
 30
0.0
 11
-630.499682
 21
185.5
 31
0.0
  0
LINE
  5
37E
  8
DETAIL
  6
CONTINUOUS
 10
-660.0
 20
185.5
 30
0.0
 11
-664.0
 21
189.5
 31
0.0
  0
LINE
  5
37F
  8
DETAIL
  6
CONTINUOUS
 10
-664.0
 20
200.0
 30
0.0
 11
-664.0
 21
189.5
 31
0.0
  0
ARC
  5
380
  8
DETAIL
  6
CONTINUOUS
 10
-645.818893
 20
171.0
 30
0.0
 40
0.5
 50
180.0
 51
270.0
  0
LINE
  5
381
  8
DETAIL
  6
CONTINUOUS
 10
-657.783055
 20
185.0
 30
0.0
 11
-657.783055
 21
170.5
 31
0.0
  0
LINE
  5
382
  8
DETAIL
  6
CONTINUOUS
 10
-657.783055
 20
170.5
 30
0.0
 11
-630.499682
 21
170.5
 31
0.0
  0
LINE
  5
383
  8
DETAIL
  6
CONTINUOUS
 10
-652.6875
 20
155.5
 30
0.0
 11
-630.499682
 21
155.5
 31
0.0
  0
LINE
  5
384
  8
DETAIL
  6
CONTINUOUS
 10
-652.6875
 20
155.5
 30
0.0
 11
-653.625
 21
170.5
 31
0.0
  0
LINE
  5
385
  8
DETAIL
  6
CONTINUOUS
 10
80.0
 20
2170.0
 30
0.0
 11
80.0
 21
2215.0
 31
0.0
  0
LINE
  5
386
  8
DETAIL
  6
CONTINUOUS
 10
78.8
 20
2171.2
 30
0.0
 11
78.8
 21
2215.0
 31
0.0
  0
LINE
  5
387
  8
DETAIL
  6
CONTINUOUS
 10
78.8
 20
2215.0
 30
0.0
 11
80.0
 21
2215.0
 31
0.0
  0
LINE
  5
388
  8
DETAIL
  6
CONTINUOUS
 10
-62.0
 20
2170.0
 30
0.0
 11
80.0
 21
2170.0
 31
0.0
  0
LINE
  5
389
  8
DETAIL
  6
CONTINUOUS
 10
-62.0
 20
2171.2
 30
0.0
 11
78.8
 21
2171.2
 31
0.0
  0
LINE
  5
38A
  8
DETAIL
  6
CONTINUOUS
 10
-62.0
 20
2171.2
 30
0.0
 11
-62.0
 21
2170.0
 31
0.0
  0
LINE
  5
38B
  8
DETAIL
  6
CONTINUOUS
 10
-96.0
 20
3.2
 30
0.0
 11
-56.0
 21
3.2
 31
0.0
  0
LINE
  5
38C
  8
DETAIL
  6
CONTINUOUS
 10
-700.0
 20
200.0
 30
0.0
 11
-700.0
 21
2143.0
 31
0.0
  0
LINE
  5
38D
  8
DETAIL
  6
CONTINUOUS
 10
-730.0
 20
2143.0
 30
0.0
 11
0.0
 21
2143.0
 31
0.0
  0
LINE
  5
38E
  8
DETAIL
  6
CONTINUOUS
 10
-126.0
 20
10.0
 30
0.0
 11
-96.0
 21
6.0
 31
0.0
  0
LINE
  5
38F
  8
DETAIL
  6
CONTINUOUS
 10
-126.0
 20
18.0
 30
0.0
 11
-56.0
 21
18.0
 31
0.0
  0
LINE
  5
390
  8
DETAIL
  6
CONTINUOUS
 10
-96.0
 20
0.0
 30
0.0
 11
-56.0
 21
0.0
 31
0.0
  0
LINE
  5
391
  8
DETAIL
  6
CONTINUOUS
 10
-126.0
 20
18.0
 30
0.0
 11
-126.0
 21
10.0
 31
0.0
  0
LINE
  5
392
  8
DETAIL
  6
CONTINUOUS
 10
-96.0
 20
6.0
 30
0.0
 11
-96.0
 21
0.0
 31
0.0
  0
LINE
  5
393
  8
DETAIL
  6
CONTINUOUS
 10
-56.0
 20
18.0
 30
0.0
 11
-56.0
 21
0.0
 31
0.0
  0
LINE
  5
394
  8
DETAIL
  6
CONTINUOUS
 10
-727.5
 20
244.0
 30
0.0
 11
-735.0
 21
244.0
 31
0.0
  0
LINE
  5
395
  8
DETAIL
  6
CONTINUOUS
 10
-727.5
 20
255.0
 30
0.0
 11
-735.0
 21
255.0
 31
0.0
  0
LINE
  5
396
  8
DETAIL
  6
CONTINUOUS
 10
-720.0
 20
233.0
 30
0.0
 11
-727.5
 21
233.0
 31
0.0
  0
LINE
  5
397
  8
DETAIL
  6
CONTINUOUS
 10
-720.0
 20
363.0
 30
0.0
 11
-727.5
 21
363.0
 31
0.0
  0
LINE
  5
398
  8
DETAIL
  6
CONTINUOUS
 10
-727.5
 20
2001.0
 30
0.0
 11
-727.5
 21
2131.0
 31
0.0
  0
LINE
  5
399
  8
DETAIL
  6
CONTINUOUS
 10
-735.0
 20
2012.0
 30
0.0
 11
-735.0
 21
2023.0
 31
0.0
  0
LINE
  5
39A
  8
DETAIL
  6
CONTINUOUS
 10
-735.0
 20
244.0
 30
0.0
 11
-735.0
 21
255.0
 31
0.0
  0
LINE
  5
39B
  8
DETAIL
  6
CONTINUOUS
 10
-727.5
 20
233.0
 30
0.0
 11
-727.5
 21
363.0
 31
0.0
  0
LINE
  5
39C
  8
DETAIL
  6
CONTINUOUS
 10
-727.5
 20
2012.0
 30
0.0
 11
-735.0
 21
2012.0
 31
0.0
  0
LINE
  5
39D
  8
DETAIL
  6
CONTINUOUS
 10
-727.5
 20
2023.0
 30
0.0
 11
-735.0
 21
2023.0
 31
0.0
  0
LINE
  5
39E
  8
DETAIL
  6
CONTINUOUS
 10
-720.0
 20
2001.0
 30
0.0
 11
-727.5
 21
2001.0
 31
0.0
  0
LINE
  5
39F
  8
DETAIL
  6
CONTINUOUS
 10
-720.0
 20
2131.0
 30
0.0
 11
-727.5
 21
2131.0
 31
0.0
  0
LINE
  5
3A0
  8
DETAIL
  6
CONTINUOUS
 10
-170.5
 20
2170.0
 30
0.0
 11
-170.5
 21
2200.0
 31
0.0
  0
LINE
  5
3A1
  8
DETAIL
  6
CONTINUOUS
 10
-190.5
 20
2170.0
 30
0.0
 11
-190.5
 21
2200.0
 31
0.0
  0
LINE
  5
3A2
  8
DETAIL
  6
CONTINUOUS
 10
-190.5
 20
2200.0
 30
0.0
 11
-170.5
 21
2200.0
 31
0.0
  0
LINE
  5
3A3
  8
DETAIL
  6
CONTINUOUS
 10
-532.0
 20
0.0
 30
0.0
 11
-532.0
 21
10.0
 31
0.0
  0
LINE
  5
3A4
  8
DETAIL
  6
CONTINUOUS
 10
-526.0
 20
3.2
 30
0.0
 11
-531.874682
 21
3.2
 31
0.0
  0
LINE
  5
3A5
  8
DETAIL
  6
CONTINUOUS
 10
-526.0
 20
0.0
 30
0.0
 11
-526.0
 21
3.2
 31
0.0
  0
ARC
  5
3A6
  8
DETAIL
  6
CONTINUOUS
 10
-542.0
 20
10.0
 30
0.0
 40
10.0
 50
0.0
 51
90.0
  0
LINE
  5
3A7
  8
DETAIL
  6
CONTINUOUS
 10
-542.0
 20
20.0
 30
0.0
 11
-570.499682
 21
20.0
 31
0.0
  0
LINE
  5
3A8
  8
DETAIL
  6
CONTINUOUS
 10
-570.499682
 20
200.0
 30
0.0
 11
-570.499682
 21
20.0
 31
0.0
  0
ARC
  5
3A9
  8
DETAIL
  6
CONTINUOUS
 10
-656.0
 20
10.0
 30
0.0
 40
10.0
 50
90.0
 51
180.0
  0
LINE
  5
3AA
  8
DETAIL
  6
CONTINUOUS
 10
-666.0
 20
10.0
 30
0.0
 11
-666.0
 21
0.0
 31
0.0
  0
LINE
  5
3AB
  8
DETAIL
  6
CONTINUOUS
 10
-526.0
 20
0.0
 30
0.0
 11
-666.0
 21
0.0
 31
0.0
  0
LINE
  5
3AC
  8
DETAIL
  6
CONTINUOUS
 10
-630.499682
 20
20.0
 30
0.0
 11
-656.0
 21
20.0
 31
0.0
  0
LINE
  5
3AD
  8
DETAIL
  6
CONTINUOUS
 10
-630.499682
 20
20.0
 30
0.0
 11
-630.499682
 21
200.0
 31
0.0
  0
LINE
  5
3AE
  8
DETAIL
  6
CONTINUOUS
 10
-102.0
 20
0.0
 30
0.0
 11
-102.0
 21
10.0
 31
0.0
  0
LINE
  5
3AF
  8
DETAIL
  6
CONTINUOUS
 10
-96.0
 20
3.2
 30
0.0
 11
-101.874682
 21
3.2
 31
0.0
  0
LINE
  5
3B0
  8
DETAIL
  6
CONTINUOUS
 10
-96.0
 20
0.0
 30
0.0
 11
-96.0
 21
3.2
 31
0.0
  0
ARC
  5
3B1
  8
DETAIL
  6
CONTINUOUS
 10
-112.0
 20
10.0
 30
0.0
 40
10.0
 50
0.0
 51
90.0
  0
ARC
  5
3B2
  8
DETAIL
  6
CONTINUOUS
 10
-226.0
 20
10.0
 30
0.0
 40
10.0
 50
90.0
 51
180.0
  0
LINE
  5
3B3
  8
DETAIL
  6
CONTINUOUS
 10
-236.0
 20
10.0
 30
0.0
 11
-236.0
 21
0.0
 31
0.0
  0
LINE
  5
3B4
  8
DETAIL
  6
CONTINUOUS
 10
-96.0
 20
0.0
 30
0.0
 11
-236.0
 21
0.0
 31
0.0
  0
LINE
  5
3B5
  8
DETAIL
  6
CONTINUOUS
 10
-112.0
 20
20.0
 30
0.0
 11
-140.499682
 21
20.0
 31
0.0
  0
LINE
  5
3B6
  8
DETAIL
  6
CONTINUOUS
 10
-200.499682
 20
20.0
 30
0.0
 11
-226.0
 21
20.0
 31
0.0
  0
LINE
  5
3B7
  8
DETAIL
  6
CONTINUOUS
 10
-200.499682
 20
20.0
 30
0.0
 11
-200.499682
 21
200.0
 31
0.0
  0
LINE
  5
3B8
  8
DETAIL
  6
CONTINUOUS
 10
-140.499682
 20
200.0
 30
0.0
 11
-140.499682
 21
20.0
 31
0.0
  0
LINE
  5
3B9
  8
DETAIL
  6
CONTINUOUS
 10
-720.0
 20
200.0
 30
0.0
 11
0.0
 21
200.0
 31
0.0
  0
LINE
  5
3BA
  8
DETAIL
  6
CONTINUOUS
 10
-720.0
 20
200.0
 30
0.0
 11
-720.0
 21
2143.0
 31
0.0
  0
LINE
  5
3BB
  8
DETAIL
  6
CONTINUOUS
 10
-730.0
 20
2170.0
 30
0.0
 11
0.0
 21
2170.0
 31
0.0
  0
LINE
  5
3BC
  8
DETAIL
  6
CONTINUOUS
 10
-730.0
 20
2170.0
 30
0.0
 11
-730.0
 21
2143.0
 31
0.0
  0
LINE
  5
3BD
  8
DETAIL
  6
CONTINUOUS
 10
0.0
 20
2170.0
 30
0.0
 11
0.0
 21
200.0
 31
0.0
  0
LINE
  5
3BE
  8
DETAIL
  6
CONTINUOUS
 10
-56.0
 20
18.0
 30
0.0
 11
-56.0
 21
0.0
 31
0.0
  0
LINE
  5
3BF
  8
DETAIL
  6
CONTINUOUS
 10
-96.0
 20
6.0
 30
0.0
 11
-96.0
 21
0.0
 31
0.0
  0
LINE
  5
3C0
  8
DETAIL
  6
CONTINUOUS
 10
-126.0
 20
18.0
 30
0.0
 11
-126.0
 21
10.0
 31
0.0
  0
LINE
  5
3C1
  8
DETAIL
  6
CONTINUOUS
 10
-96.0
 20
0.0
 30
0.0
 11
-56.0
 21
0.0
 31
0.0
  0
LINE
  5
3C2
  8
DETAIL
  6
CONTINUOUS
 10
-126.0
 20
18.0
 30
0.0
 11
-56.0
 21
18.0
 31
0.0
  0
LINE
  5
3C3
  8
DETAIL
  6
CONTINUOUS
 10
-126.0
 20
10.0
 30
0.0
 11
-96.0
 21
6.0
 31
0.0
  0
LINE
  5
3C4
  8
DETAIL
  6
CONTINUOUS
 10
-96.0
 20
3.2
 30
0.0
 11
-56.0
 21
3.2
 31
0.0
  0
LINE
  5
3C5
  8
DETAIL
  6
CONTINUOUS
 10
-62.0
 20
2170.0
 30
0.0
 11
80.0
 21
2170.0
 31
0.0
  0
LINE
  5
3C6
  8
DETAIL
  6
CONTINUOUS
 10
-652.6875
 20
155.5
 30
0.0
 11
-653.625
 21
170.5
 31
0.0
  0
LINE
  5
3C7
  8
DETAIL
  6
CONTINUOUS
 10
-652.6875
 20
155.5
 30
0.0
 11
-630.499682
 21
155.5
 31
0.0
  0
LINE
  5
3C8
  8
DETAIL
  6
CONTINUOUS
 10
-657.783055
 20
170.5
 30
0.0
 11
-630.499682
 21
170.5
 31
0.0
  0
LINE
  5
3C9
  8
DETAIL
  6
CONTINUOUS
 10
-657.783055
 20
185.0
 30
0.0
 11
-657.783055
 21
170.5
 31
0.0
  0
ARC
  5
3CA
  8
DETAIL
  6
CONTINUOUS
 10
-645.818893
 20
171.0
 30
0.0
 40
0.5
 50
180.0
 51
270.0
  0
LINE
  5
3CB
  8
DETAIL
  6
CONTINUOUS
 10
-664.0
 20
200.0
 30
0.0
 11
-664.0
 21
189.5
 31
0.0
  0
LINE
  5
3CC
  8
DETAIL
  6
CONTINUOUS
 10
-660.0
 20
185.5
 30
0.0
 11
-664.0
 21
189.5
 31
0.0
  0
LINE
  5
3CD
  8
DETAIL
  6
CONTINUOUS
 10
-660.0
 20
185.5
 30
0.0
 11
-630.499682
 21
185.5
 31
0.0
  0
LINE
  5
3CE
  8
DETAIL
  6
CONTINUOUS
 10
-630.499682
 20
189.5
 30
0.0
 11
-664.0
 21
189.5
 31
0.0
  0
LINE
  5
3CF
  8
DETAIL
  6
CONTINUOUS
 10
-535.0
 20
192.0
 30
0.0
 11
-570.499682
 21
192.0
 31
0.0
  0
LINE
  5
3D0
  8
DETAIL
  6
CONTINUOUS
 10
-535.0
 20
192.0
 30
0.0
 11
-527.0
 21
200.0
 31
0.0
  0
LINE
  5
3D1
  8
DETAIL
  6
CONTINUOUS
 10
-570.499682
 20
139.0
 30
0.0
 11
-557.0
 21
139.0
 31
0.0
  0
ARC
  5
3D2
  8
DETAIL
  6
CONTINUOUS
 10
-557.0
 20
143.0
 30
0.0
 40
4.0
 50
270.0
 51
0.0
  0
LINE
  5
3D3
  8
DETAIL
  6
CONTINUOUS
 10
-539.5
 20
188.5
 30
0.0
 11
-539.5
 21
192.0
 31
0.0
  0
LINE
  5
3D4
  8
DETAIL
  6
CONTINUOUS
 10
-553.0
 20
143.0
 30
0.0
 11
-553.0
 21
188.5
 31
0.0
  0
POLYLINE
  5
3D5
  8
DETAIL
  6
DASHED
 66
     1
 10
0.0
 20
0.0
 30
0.0
 70
     1
  0
VERTEX
  5
3D6
  8
DETAIL
  6
DASHED
 10
-589.0
 20
179.5
 30
0.0
  0
VERTEX
  5
3D7
  8
DETAIL
  6
DASHED
 10
-590.182672
 20
179.365497
 30
0.0
  0
VERTEX
  5
3D8
  8
DETAIL
  6
DASHED
 10
-591.319895
 20
178.967157
 30
0.0
  0
VERTEX
  5
3D9
  8
DETAIL
  6
DASHED
 10
-592.367966
 20
178.320287
 30
0.0
  0
VERTEX
  5
3DA
  8
DETAIL
  6
DASHED
 10
-593.286607
 20
177.449747
 30
0.0
  0
VERTEX
  5
3DB
  8
DETAIL
  6
DASHED
 10
-594.040517
 20
176.388992
 30
0.0
  0
VERTEX
  5
3DC
  8
DETAIL
  6
DASHED
 10
-594.600722
 20
175.178784
 30
0.0
  0
VERTEX
  5
3DD
  8
DETAIL
  6
DASHED
 10
-594.945695
 20
173.865632
 30
0.0
  0
VERTEX
  5
3DE
  8
DETAIL
  6
DASHED
 10
-595.062178
 20
172.5
 30
0.0
  0
VERTEX
  5
3DF
  8
DETAIL
  6
DASHED
 10
-594.945695
 20
171.134368
 30
0.0
  0
VERTEX
  5
3E0
  8
DETAIL
  6
DASHED
 10
-594.600722
 20
169.821216
 30
0.0
  0
VERTEX
  5
3E1
  8
DETAIL
  6
DASHED
 10
-594.040517
 20
168.611008
 30
0.0
  0
VERTEX
  5
3E2
  8
DETAIL
  6
DASHED
 10
-593.286607
 20
167.550253
 30
0.0
  0
VERTEX
  5
3E3
  8
DETAIL
  6
DASHED
 10
-592.367966
 20
166.679713
 30
0.0
  0
VERTEX
  5
3E4
  8
DETAIL
  6
DASHED
 10
-591.319895
 20
166.032843
 30
0.0
  0
VERTEX
  5
3E5
  8
DETAIL
  6
DASHED
 10
-590.182672
 20
165.634503
 30
0.0
  0
VERTEX
  5
3E6
  8
DETAIL
  6
DASHED
 10
-589.0
 20
165.5
 30
0.0
  0
VERTEX
  5
3E7
  8
DETAIL
  6
DASHED
 10
-587.817328
 20
165.634503
 30
0.0
  0
VERTEX
  5
3E8
  8
DETAIL
  6
DASHED
 10
-586.680105
 20
166.032843
 30
0.0
  0
VERTEX
  5
3E9
  8
DETAIL
  6
DASHED
 10
-585.632034
 20
166.679713
 30
0.0
  0
VERTEX
  5
3EA
  8
DETAIL
  6
DASHED
 10
-584.713393
 20
167.550253
 30
0.0
  0
VERTEX
  5
3EB
  8
DETAIL
  6
DASHED
 10
-583.959483
 20
168.611008
 30
0.0
  0
VERTEX
  5
3EC
  8
DETAIL
  6
DASHED
 10
-583.399278
 20
169.821216
 30
0.0
  0
VERTEX
  5
3ED
  8
DETAIL
  6
DASHED
 10
-583.054305
 20
171.134368
 30
0.0
  0
VERTEX
  5
3EE
  8
DETAIL
  6
DASHED
 10
-582.937822
 20
172.5
 30
0.0
  0
VERTEX
  5
3EF
  8
DETAIL
  6
DASHED
 10
-583.054305
 20
173.865632
 30
0.0
  0
VERTEX
  5
3F0
  8
DETAIL
  6
DASHED
 10
-583.399278
 20
175.178784
 30
0.0
  0
VERTEX
  5
3F1
  8
DETAIL
  6
DASHED
 10
-583.959483
 20
176.388992
 30
0.0
  0
VERTEX
  5
3F2
  8
DETAIL
  6
DASHED
 10
-584.713393
 20
177.449747
 30
0.0
  0
VERTEX
  5
3F3
  8
DETAIL
  6
DASHED
 10
-585.632034
 20
178.320287
 30
0.0
  0
VERTEX
  5
3F4
  8
DETAIL
  6
DASHED
 10
-586.680105
 20
178.967157
 30
0.0
  0
VERTEX
  5
3F5
  8
DETAIL
  6
DASHED
 10
-587.817328
 20
179.365497
 30
0.0
  0
SEQEND
  5
3F6
  8
DETAIL
  6
DASHED
  0
POLYLINE
  5
3F7
  8
DETAIL
  6
DASHED
 66
     1
 10
0.0
 20
0.0
 30
0.0
 70
     1
  0
VERTEX
  5
3F8
  8
DETAIL
  6
DASHED
 10
-589.0
 20
180.7
 30
0.0
  0
VERTEX
  5
3F9
  8
DETAIL
  6
DASHED
 10
-590.385416
 20
180.542439
 30
0.0
  0
VERTEX
  5
3FA
  8
DETAIL
  6
DASHED
 10
-591.717591
 20
180.075812
 30
0.0
  0
VERTEX
  5
3FB
  8
DETAIL
  6
DASHED
 10
-592.945331
 20
179.318051
 30
0.0
  0
VERTEX
  5
3FC
  8
DETAIL
  6
DASHED
 10
-594.021454
 20
178.298276
 30
0.0
  0
VERTEX
  5
3FD
  8
DETAIL
  6
DASHED
 10
-594.904605
 20
177.055676
 30
0.0
  0
VERTEX
  5
3FE
  8
DETAIL
  6
DASHED
 10
-595.560846
 20
175.638004
 30
0.0
  0
VERTEX
  5
3FF
  8
DETAIL
  6
DASHED
 10
-595.964957
 20
174.099741
 30
0.0
  0
VERTEX
  5
400
  8
DETAIL
  6
DASHED
 10
-596.101408
 20
172.5
 30
0.0
  0
VERTEX
  5
401
  8
DETAIL
  6
DASHED
 10
-595.964957
 20
170.900259
 30
0.0
  0
VERTEX
  5
402
  8
DETAIL
  6
DASHED
 10
-595.560846
 20
169.361996
 30
0.0
  0
VERTEX
  5
403
  8
DETAIL
  6
DASHED
 10
-594.904605
 20
167.944324
 30
0.0
  0
VERTEX
  5
404
  8
DETAIL
  6
DASHED
 10
-594.021454
 20
166.701724
 30
0.0
  0
VERTEX
  5
405
  8
DETAIL
  6
DASHED
 10
-592.945331
 20
165.681949
 30
0.0
  0
VERTEX
  5
406
  8
DETAIL
  6
DASHED
 10
-591.717591
 20
164.924188
 30
0.0
  0
VERTEX
  5
407
  8
DETAIL
  6
DASHED
 10
-590.385416
 20
164.457561
 30
0.0
  0
VERTEX
  5
408
  8
DETAIL
  6
DASHED
 10
-589.0
 20
164.3
 30
0.0
  0
VERTEX
  5
409
  8
DETAIL
  6
DASHED
 10
-587.614584
 20
164.457561
 30
0.0
  0
VERTEX
  5
40A
  8
DETAIL
  6
DASHED
 10
-586.282409
 20
164.924188
 30
0.0
  0
VERTEX
  5
40B
  8
DETAIL
  6
DASHED
 10
-585.054669
 20
165.681949
 30
0.0
  0
VERTEX
  5
40C
  8
DETAIL
  6
DASHED
 10
-583.978546
 20
166.701724
 30
0.0
  0
VERTEX
  5
40D
  8
DETAIL
  6
DASHED
 10
-583.095395
 20
167.944324
 30
0.0
  0
VERTEX
  5
40E
  8
DETAIL
  6
DASHED
 10
-582.439154
 20
169.361996
 30
0.0
  0
VERTEX
  5
40F
  8
DETAIL
  6
DASHED
 10
-582.035043
 20
170.900259
 30
0.0
  0
VERTEX
  5
410
  8
DETAIL
  6
DASHED
 10
-581.898592
 20
172.5
 30
0.0
  0
VERTEX
  5
411
  8
DETAIL
  6
DASHED
 10
-582.035043
 20
174.099741
 30
0.0
  0
VERTEX
  5
412
  8
DETAIL
  6
DASHED
 10
-582.439154
 20
175.638004
 30
0.0
  0
VERTEX
  5
413
  8
DETAIL
  6
DASHED
 10
-583.095395
 20
177.055676
 30
0.0
  0
VERTEX
  5
414
  8
DETAIL
  6
DASHED
 10
-583.978546
 20
178.298276
 30
0.0
  0
VERTEX
  5
415
  8
DETAIL
  6
DASHED
 10
-585.054669
 20
179.318051
 30
0.0
  0
VERTEX
  5
416
  8
DETAIL
  6
DASHED
 10
-586.282409
 20
180.075812
 30
0.0
  0
VERTEX
  5
417
  8
DETAIL
  6
DASHED
 10
-587.614584
 20
180.542439
 30
0.0
  0
SEQEND
  5
418
  8
DETAIL
  6
DASHED
  0
LINE
  5
419
  8
DETAIL
  6
CONTINUOUS
 10
-570.499682
 20
188.5
 30
0.0
 11
-539.5
 21
188.5
 31
0.0
  0
LINE
  5
41A
  8
DETAIL
  6
CONTINUOUS
 10
-570.499682
 20
200.0
 30
0.0
 11
-570.499682
 21
20.0
 31
0.0
  0
LINE
  5
41B
  8
DETAIL
  6
CONTINUOUS
 10
-728.8
 20
1566.0
 30
0.0
 11
-720.0
 21
1566.0
 31
0.0
  0
LINE
  5
41C
  8
DETAIL
  6
CONTINUOUS
 10
-728.8
 20
1371.5
 30
0.0
 11
-720.0
 21
1371.5
 31
0.0
  0
LINE
  5
41D
  8
DETAIL
  6
CONTINUOUS
 10
-736.3
 20
1392.5
 30
0.0
 11
-728.8
 21
1392.5
 31
0.0
  0
LINE
  5
41E
  8
DETAIL
  6
CONTINUOUS
 10
-736.3
 20
1381.5
 30
0.0
 11
-728.8
 21
1381.5
 31
0.0
  0
LINE
  5
41F
  8
DETAIL
  6
CONTINUOUS
 10
-736.3
 20
1381.5
 30
0.0
 11
-736.3
 21
1392.5
 31
0.0
  0
LINE
  5
420
  8
DETAIL
  6
CONTINUOUS
 10
-728.8
 20
1371.5
 30
0.0
 11
-728.8
 21
1566.0
 31
0.0
  0
LINE
  5
421
  8
SIZE
  6
CONTINUOUS
 62
    30
 10
-516.0
 20
0.0
 30
0.0
 11
-421.051794
 21
0.0
 31
0.0
  0
LINE
  5
422
  8
SIZE
  6
CONTINUOUS
 62
    30
 10
-559.0
 20
172.5
 30
0.0
 11
-421.051794
 21
172.5
 31
0.0
  0
LINE
  5
423
  8
SIZE
  6
CONTINUOUS
 62
    30
 10
-433.551794
 20
10.0
 30
0.0
 11
-433.551794
 21
162.5
 31
0.0
  0
CIRCLE
  5
424
  8
SIZE
  6
CONTINUOUS
 62
    30
 10
-433.551794
 20
0.0
 30
0.0
 40
5.0
  0
LINE
  5
425
  8
SIZE
  6
CONTINUOUS
 62
    30
 10
-433.551794
 20
0.0
 30
0.0
 11
-433.551794
 21
10.0
 31
0.0
  0
CIRCLE
  5
426
  8
SIZE
  6
CONTINUOUS
 62
    30
 10
-433.551794
 20
172.5
 30
0.0
 40
5.0
  0
LINE
  5
427
  8
SIZE
  6
CONTINUOUS
 62
    30
 10
-433.551794
 20
172.5
 30
0.0
 11
-433.551794
 21
162.5
 31
0.0
  0
TEXT
  5
428
  8
SIZE
  6
CONTINUOUS
 62
    30
 10
-443.551794
 20
51.25
 30
0.0
 40
30.0
  1
173
 50
90.0
 72
     1
 11
-443.551794
 21
86.25
 31
0.0
  0
POINT
  5
429
  8
DEFPOINTS
  6
CONTINUOUS
 62
    30
 10
-526.0
 20
0.0
 30
0.0
  0
POINT
  5
42A
  8
DEFPOINTS
  6
CONTINUOUS
 62
    30
 10
-569.0
 20
172.5
 30
0.0
  0
POINT
  5
42B
  8
DEFPOINTS
  6
CONTINUOUS
 62
    30
 10
-433.551794
 20
172.5
 30
0.0
  0
LINE
  5
42C
  8
SIZE
  6
CONTINUOUS
 62
    30
 10
-676.0
 20
138.0
 30
0.0
 11
-676.0
 21
-140.1
 31
0.0
  0
LINE
  5
42D
  8
SIZE
  6
CONTINUOUS
 62
    30
 10
-730.0
 20
-10.0
 30
0.0
 11
-730.0
 21
-140.1
 31
0.0
  0
LINE
  5
42E
  8
SIZE
  6
CONTINUOUS
 62
    30
 10
-686.0
 20
-127.6
 30
0.0
 11
-720.0
 21
-127.6
 31
0.0
  0
CIRCLE
  5
42F
  8
SIZE
  6
CONTINUOUS
 62
    30
 10
-676.0
 20
-127.6
 30
0.0
 40
5.0
  0
LINE
  5
430
  8
SIZE
  6
CONTINUOUS
 62
    30
 10
-676.0
 20
-127.6
 30
0.0
 11
-686.0
 21
-127.6
 31
0.0
  0
CIRCLE
  5
431
  8
SIZE
  6
CONTINUOUS
 62
    30
 10
-730.0
 20
-127.6
 30
0.0
 40
5.0
  0
LINE
  5
432
  8
SIZE
  6
CONTINUOUS
 62
    30
 10
-730.0
 20
-127.6
 30
0.0
 11
-720.0
 21
-127.6
 31
0.0
  0
TEXT
  5
433
  8
SIZE
  6
CONTINUOUS
 62
    30
 10
-728.0
 20
-117.6
 30
0.0
 40
30.0
  1
54
 72
     1
 11
-703.0
 21
-117.6
 31
0.0
  0
POINT
  5
434
  8
DEFPOINTS
  6
CONTINUOUS
 62
    30
 10
-676.0
 20
148.0
 30
0.0
  0
POINT
  5
435
  8
DEFPOINTS
  6
CONTINUOUS
 62
    30
 10
-730.0
 20
0.0
 30
0.0
  0
POINT
  5
436
  8
DEFPOINTS
  6
CONTINUOUS
 62
    30
 10
-730.0
 20
-127.6
 30
0.0
  0
LINE
  5
437
  8
SIZE
  6
CONTINUOUS
 62
    30
 10
10.0
 20
2170.0
 30
0.0
 11
240.1
 21
2170.0
 31
0.0
  0
LINE
  5
438
  8
SIZE
  6
CONTINUOUS
 62
    30
 10
10.0
 20
2370.0
 30
0.0
 11
240.1
 21
2370.0
 31
0.0
  0
LINE
  5
439
  8
SIZE
  6
CONTINUOUS
 62
    30
 10
227.6
 20
2180.0
 30
0.0
 11
227.6
 21
2360.0
 31
0.0
  0
CIRCLE
  5
43A
  8
SIZE
  6
CONTINUOUS
 62
    30
 10
227.6
 20
2170.0
 30
0.0
 40
5.0
  0
LINE
  5
43B
  8
SIZE
  6
CONTINUOUS
 62
    30
 10
227.6
 20
2170.0
 30
0.0
 11
227.6
 21
2180.0
 31
0.0
  0
CIRCLE
  5
43C
  8
SIZE
  6
CONTINUOUS
 62
    30
 10
227.6
 20
2370.0
 30
0.0
 40
5.0
  0
LINE
  5
43D
  8
SIZE
  6
CONTINUOUS
 62
    30
 10
227.6
 20
2370.0
 30
0.0
 11
227.6
 21
2360.0
 31
0.0
  0
TEXT
  5
43E
  8
SIZE
  6
CONTINUOUS
 62
    30
 10
217.6
 20
2232.143799
 30
0.0
 40
30.0
  1
200
 50
90.0
 72
     1
 11
217.6
 21
2267.143799
 31
0.0
  0
POINT
  5
43F
  8
DEFPOINTS
  6
CONTINUOUS
 62
    30
 10
0.0
 20
2170.0
 30
0.0
  0
POINT
  5
440
  8
DEFPOINTS
  6
CONTINUOUS
 62
    30
 10
0.0
 20
2370.0
 30
0.0
  0
POINT
  5
441
  8
DEFPOINTS
  6
CONTINUOUS
 62
    30
 10
227.6
 20
2370.0
 30
0.0
  0
LINE
  5
442
  8
SIZE
  6
CONTINUOUS
 62
    30
 10
0.0
 20
190.0
 30
0.0
 11
0.0
 21
-860.1
 31
0.0
  0
LINE
  5
443
  8
SIZE
  6
CONTINUOUS
 62
    30
 10
-730.0
 20
-10.0
 30
0.0
 11
-730.0
 21
-860.1
 31
0.0
  0
LINE
  5
444
  8
SIZE
  6
CONTINUOUS
 62
    30
 10
-10.0
 20
-847.6
 30
0.0
 11
-720.0
 21
-847.6
 31
0.0
  0
CIRCLE
  5
445
  8
SIZE
  6
CONTINUOUS
 62
    30
 10
0.0
 20
-847.6
 30
0.0
 40
5.0
  0
LINE
  5
446
  8
SIZE
  6
CONTINUOUS
 62
    30
 10
0.0
 20
-847.6
 30
0.0
 11
-10.0
 21
-847.6
 31
0.0
  0
CIRCLE
  5
447
  8
SIZE
  6
CONTINUOUS
 62
    30
 10
-730.0
 20
-847.6
 30
0.0
 40
5.0
  0
LINE
  5
448
  8
SIZE
  6
CONTINUOUS
 62
    30
 10
-730.0
 20
-847.6
 30
0.0
 11
-720.0
 21
-847.6
 31
0.0
  0
TEXT
  5
449
  8
SIZE
  6
CONTINUOUS
 62
    30
 10
-402.444794
 20
-837.6
 30
0.0
 40
30.0
  1
730
 72
     1
 11
-364.944794
 21
-837.6
 31
0.0
  0
POINT
  5
44A
  8
DEFPOINTS
  6
CONTINUOUS
 62
    30
 10
0.0
 20
200.0
 30
0.0
  0
POINT
  5
44B
  8
DEFPOINTS
  6
CONTINUOUS
 62
    30
 10
-730.0
 20
0.0
 30
0.0
  0
POINT
  5
44C
  8
DEFPOINTS
  6
CONTINUOUS
 62
    30
 10
-730.0
 20
-847.6
 30
0.0
  0
LINE
  5
44D
  8
SIZE
  6
CONTINUOUS
 62
    30
 10
-1340.0
 20
0.0
 30
0.0
 11
-1544.9
 21
0.0
 31
0.0
  0
LINE
  5
44E
  8
SIZE
  6
CONTINUOUS
 62
    30
 10
-1340.0
 20
2370.0
 30
0.0
 11
-1544.9
 21
2370.0
 31
0.0
  0
LINE
  5
44F
  8
SIZE
  6
CONTINUOUS
 62
    30
 10
-1532.4
 20
10.0
 30
0.0
 11
-1532.4
 21
2360.0
 31
0.0
  0
CIRCLE
  5
450
  8
SIZE
  6
CONTINUOUS
 62
    30
 10
-1532.4
 20
0.0
 30
0.0
 40
5.0
  0
LINE
  5
451
  8
SIZE
  6
CONTINUOUS
 62
    30
 10
-1532.4
 20
0.0
 30
0.0
 11
-1532.4
 21
10.0
 31
0.0
  0
CIRCLE
  5
452
  8
SIZE
  6
CONTINUOUS
 62
    30
 10
-1532.4
 20
2370.0
 30
0.0
 40
5.0
  0
LINE
  5
453
  8
SIZE
  6
CONTINUOUS
 62
    30
 10
-1532.4
 20
2370.0
 30
0.0
 11
-1532.4
 21
2360.0
 31
0.0
  0
TEXT
  5
454
  8
SIZE
  6
CONTINUOUS
 62
    30
 10
-1542.4
 20
1132.5
 30
0.0
 40
30.0
  1
2370
 50
90.0
 72
     1
 11
-1542.4
 21
1185.0
 31
0.0
  0
POINT
  5
455
  8
DEFPOINTS
  6
CONTINUOUS
 62
    30
 10
-1330.0
 20
0.0
 30
0.0
  0
POINT
  5
456
  8
DEFPOINTS
  6
CONTINUOUS
 62
    30
 10
-1330.0
 20
2370.0
 30
0.0
  0
POINT
  5
457
  8
DEFPOINTS
  6
CONTINUOUS
 62
    30
 10
-1532.4
 20
2370.0
 30
0.0
  0
LINE
  5
458
  8
SIZE
  6
CONTINUOUS
 62
    30
 10
-10.0
 20
2170.0
 30
0.0
 11
-305.4
 21
2170.0
 31
0.0
  0
LINE
  5
459
  8
SIZE
  6
CONTINUOUS
 62
    30
 10
-200.5
 20
2200.0
 30
0.0
 11
-305.4
 21
2200.0
 31
0.0
  0
LINE
  5
45A
  8
SIZE
  6
CONTINUOUS
 62
    30
 10
-292.9
 20
2210.0
 30
0.0
 11
-292.9
 21
2220.0
 31
0.0
  0
LINE
  5
45B
  8
SIZE
  6
CONTINUOUS
 62
    30
 10
-292.9
 20
2160.0
 30
0.0
 11
-292.9
 21
2036.169472
 31
0.0
  0
LINE
  5
45C
  8
SIZE
  6
CONTINUOUS
 62
    30
 10
-292.9
 20
2200.0
 30
0.0
 11
-292.9
 21
2170.0
 31
0.0
  0
CIRCLE
  5
45D
  8
SIZE
  6
CONTINUOUS
 62
    30
 10
-292.9
 20
2200.0
 30
0.0
 40
5.0
  0
LINE
  5
45E
  8
SIZE
  6
CONTINUOUS
 62
    30
 10
-292.9
 20
2200.0
 30
0.0
 11
-292.9
 21
2210.0
 31
0.0
  0
CIRCLE
  5
45F
  8
SIZE
  6
CONTINUOUS
 62
    30
 10
-292.9
 20
2170.0
 30
0.0
 40
5.0
  0
LINE
  5
460
  8
SIZE
  6
CONTINUOUS
 62
    30
 10
-292.9
 20
2170.0
 30
0.0
 11
-292.9
 21
2160.0
 31
0.0
  0
TEXT
  5
461
  8
SIZE
  6
CONTINUOUS
 62
    30
 10
-302.9
 20
2046.169472
 30
0.0
 40
30.0
  1
30
 50
90.0
 72
     1
 11
-302.9
 21
2068.669472
 31
0.0
  0
POINT
  5
462
  8
DEFPOINTS
  6
CONTINUOUS
 62
    30
 10
0.0
 20
2170.0
 30
0.0
  0
POINT
  5
463
  8
DEFPOINTS
  6
CONTINUOUS
 62
    30
 10
-190.5
 20
2200.0
 30
0.0
  0
POINT
  5
464
  8
DEFPOINTS
  6
CONTINUOUS
 62
    30
 10
-292.9
 20
2200.0
 30
0.0
  0
LINE
  5
465
  8
SIZE
  6
CONTINUOUS
 62
    30
 10
0.0
 20
2180.0
 30
0.0
 11
0.0
 21
2534.9
 31
0.0
  0
LINE
  5
466
  8
SIZE
  6
CONTINUOUS
 62
    30
 10
80.0
 20
2225.0
 30
0.0
 11
80.0
 21
2534.9
 31
0.0
  0
LINE
  5
467
  8
SIZE
  6
CONTINUOUS
 62
    30
 10
10.0
 20
2522.4
 30
0.0
 11
70.0
 21
2522.4
 31
0.0
  0
LINE
  5
468
  8
SIZE
  6
CONTINUOUS
 62
    30
 10
80.0
 20
2522.4
 30
0.0
 11
186.997406
 21
2522.4
 31
0.0
  0
CIRCLE
  5
469
  8
SIZE
  6
CONTINUOUS
 62
    30
 10
0.0
 20
2522.4
 30
0.0
 40
5.0
  0
LINE
  5
46A
  8
SIZE
  6
CONTINUOUS
 62
    30
 10
0.0
 20
2522.4
 30
0.0
 11
10.0
 21
2522.4
 31
0.0
  0
CIRCLE
  5
46B
  8
SIZE
  6
CONTINUOUS
 62
    30
 10
80.0
 20
2522.4
 30
0.0
 40
5.0
  0
LINE
  5
46C
  8
SIZE
  6
CONTINUOUS
 62
    30
 10
80.0
 20
2522.4
 30
0.0
 11
70.0
 21
2522.4
 31
0.0
  0
TEXT
  5
46D
  8
SIZE
  6
CONTINUOUS
 62
    30
 10
131.997406
 20
2532.4
 30
0.0
 40
30.0
  1
80
 72
     1
 11
154.497406
 21
2532.4
 31
0.0
  0
POINT
  5
46E
  8
DEFPOINTS
  6
CONTINUOUS
 62
    30
 10
0.0
 20
2170.0
 30
0.0
  0
POINT
  5
46F
  8
DEFPOINTS
  6
CONTINUOUS
 62
    30
 10
80.0
 20
2215.0
 30
0.0
  0
POINT
  5
470
  8
DEFPOINTS
  6
CONTINUOUS
 62
    30
 10
80.0
 20
2522.4
 30
0.0
  0
LINE
  5
471
  8
SIZE
  6
CONTINUOUS
 62
    30
 10
-665.0
 20
170.0
 30
0.0
 11
-665.0
 21
-320.1
 31
0.0
  0
LINE
  5
472
  8
SIZE
  6
CONTINUOUS
 62
    30
 10
-730.0
 20
-10.0
 30
0.0
 11
-730.0
 21
-320.1
 31
0.0
  0
LINE
  5
473
  8
SIZE
  6
CONTINUOUS
 62
    30
 10
-675.0
 20
-307.6
 30
0.0
 11
-720.0
 21
-307.6
 31
0.0
  0
CIRCLE
  5
474
  8
SIZE
  6
CONTINUOUS
 62
    30
 10
-665.0
 20
-307.6
 30
0.0
 40
5.0
  0
LINE
  5
475
  8
SIZE
  6
CONTINUOUS
 62
    30
 10
-665.0
 20
-307.6
 30
0.0
 11
-675.0
 21
-307.6
 31
0.0
  0
CIRCLE
  5
476
  8
SIZE
  6
CONTINUOUS
 62
    30
 10
-730.0
 20
-307.6
 30
0.0
 40
5.0
  0
LINE
  5
477
  8
SIZE
  6
CONTINUOUS
 62
    30
 10
-730.0
 20
-307.6
 30
0.0
 11
-720.0
 21
-307.6
 31
0.0
  0
TEXT
  5
478
  8
SIZE
  6
CONTINUOUS
 62
    30
 10
-722.5
 20
-297.6
 30
0.0
 40
30.0
  1
65
 72
     1
 11
-697.5
 21
-297.6
 31
0.0
  0
POINT
  5
479
  8
DEFPOINTS
  6
CONTINUOUS
 62
    30
 10
-665.0
 20
180.0
 30
0.0
  0
POINT
  5
47A
  8
DEFPOINTS
  6
CONTINUOUS
 62
    30
 10
-730.0
 20
0.0
 30
0.0
  0
POINT
  5
47B
  8
DEFPOINTS
  6
CONTINUOUS
 62
    30
 10
-730.0
 20
-307.6
 30
0.0
  0
LINE
  5
47C
  8
SIZE
  6
CONTINUOUS
 62
    30
 10
-646.0
 20
-30.0
 30
0.0
 11
-646.0
 21
-770.1
 31
0.0
  0
LINE
  5
47D
  8
SIZE
  6
CONTINUOUS
 62
    30
 10
-730.0
 20
-10.0
 30
0.0
 11
-730.0
 21
-770.1
 31
0.0
  0
LINE
  5
47E
  8
SIZE
  6
CONTINUOUS
 62
    30
 10
-656.0
 20
-757.6
 30
0.0
 11
-720.0
 21
-757.6
 31
0.0
  0
CIRCLE
  5
47F
  8
SIZE
  6
CONTINUOUS
 62
    30
 10
-646.0
 20
-757.6
 30
0.0
 40
5.0
  0
LINE
  5
480
  8
SIZE
  6
CONTINUOUS
 62
    30
 10
-646.0
 20
-757.6
 30
0.0
 11
-656.0
 21
-757.6
 31
0.0
  0
CIRCLE
  5
481
  8
SIZE
  6
CONTINUOUS
 62
    30
 10
-730.0
 20
-757.6
 30
0.0
 40
5.0
  0
LINE
  5
482
  8
SIZE
  6
CONTINUOUS
 62
    30
 10
-730.0
 20
-757.6
 30
0.0
 11
-720.0
 21
-757.6
 31
0.0
  0
TEXT
  5
483
  8
SIZE
  6
CONTINUOUS
 62
    30
 10
-711.701965
 20
-747.6
 30
0.0
 40
30.0
  1
84
 72
     1
 11
-686.701965
 21
-747.6
 31
0.0
  0
POINT
  5
484
  8
DEFPOINTS
  6
CONTINUOUS
 62
    30
 10
-646.0
 20
-20.0
 30
0.0
  0
POINT
  5
485
  8
DEFPOINTS
  6
CONTINUOUS
 62
    30
 10
-730.0
 20
0.0
 30
0.0
  0
POINT
  5
486
  8
DEFPOINTS
  6
CONTINUOUS
 62
    30
 10
-730.0
 20
-757.6
 30
0.0
  0
LINE
  5
487
  8
SIZE
  6
CONTINUOUS
 62
    30
 10
-112.0
 20
-30.0
 30
0.0
 11
-112.0
 21
-770.1
 31
0.0
  0
LINE
  5
488
  8
SIZE
  6
CONTINUOUS
 62
    30
 10
-646.0
 20
-30.0
 30
0.0
 11
-646.0
 21
-770.1
 31
0.0
  0
LINE
  5
489
  8
SIZE
  6
CONTINUOUS
 62
    30
 10
-122.0
 20
-757.6
 30
0.0
 11
-636.0
 21
-757.6
 31
0.0
  0
CIRCLE
  5
48A
  8
SIZE
  6
CONTINUOUS
 62
    30
 10
-112.0
 20
-757.6
 30
0.0
 40
5.0
  0
LINE
  5
48B
  8
SIZE
  6
CONTINUOUS
 62
    30
 10
-112.0
 20
-757.6
 30
0.0
 11
-122.0
 21
-757.6
 31
0.0
  0
CIRCLE
  5
48C
  8
SIZE
  6
CONTINUOUS
 62
    30
 10
-646.0
 20
-757.6
 30
0.0
 40
5.0
  0
LINE
  5
48D
  8
SIZE
  6
CONTINUOUS
 62
    30
 10
-646.0
 20
-757.6
 30
0.0
 11
-636.0
 21
-757.6
 31
0.0
  0
TEXT
  5
48E
  8
SIZE
  6
CONTINUOUS
 62
    30
 10
-409.727081
 20
-747.6
 30
0.0
 40
30.0
  1
534
 72
     1
 11
-369.727081
 21
-747.6
 31
0.0
  0
POINT
  5
48F
  8
DEFPOINTS
  6
CONTINUOUS
 62
    30
 10
-112.0
 20
-20.0
 30
0.0
  0
POINT
  5
490
  8
DEFPOINTS
  6
CONTINUOUS
 62
    30
 10
-646.0
 20
-20.0
 30
0.0
  0
POINT
  5
491
  8
DEFPOINTS
  6
CONTINUOUS
 62
    30
 10
-646.0
 20
-757.6
 30
0.0
  0
LINE
  5
492
  8
SIZE
  6
CONTINUOUS
 62
    30
 10
0.0
 20
190.0
 30
0.0
 11
0.0
 21
-770.1
 31
0.0
  0
LINE
  5
493
  8
SIZE
  6
CONTINUOUS
 62
    30
 10
-112.0
 20
-30.0
 30
0.0
 11
-112.0
 21
-770.1
 31
0.0
  0
LINE
  5
494
  8
SIZE
  6
CONTINUOUS
 62
    30
 10
-10.0
 20
-757.6
 30
0.0
 11
-102.0
 21
-757.6
 31
0.0
  0
CIRCLE
  5
495
  8
SIZE
  6
CONTINUOUS
 62
    30
 10
0.0
 20
-757.6
 30
0.0
 40
5.0
  0
LINE
  5
496
  8
SIZE
  6
CONTINUOUS
 62
    30
 10
0.0
 20
-757.6
 30
0.0
 11
-10.0
 21
-757.6
 31
0.0
  0
CIRCLE
  5
497
  8
SIZE
  6
CONTINUOUS
 62
    30
 10
-112.0
 20
-757.6
 30
0.0
 40
5.0
  0
LINE
  5
498
  8
SIZE
  6
CONTINUOUS
 62
    30
 10
-112.0
 20
-757.6
 30
0.0
 11
-102.0
 21
-757.6
 31
0.0
  0
TEXT
  5
499
  8
SIZE
  6
CONTINUOUS
 62
    30
 10
-84.705864
 20
-747.6
 30
0.0
 40
30.0
  1
112
 72
     1
 11
-54.705864
 21
-747.6
 31
0.0
  0
POINT
  5
49A
  8
DEFPOINTS
  6
CONTINUOUS
 62
    30
 10
0.0
 20
200.0
 30
0.0
  0
POINT
  5
49B
  8
DEFPOINTS
  6
CONTINUOUS
 62
    30
 10
-112.0
 20
-20.0
 30
0.0
  0
POINT
  5
49C
  8
DEFPOINTS
  6
CONTINUOUS
 62
    30
 10
-112.0
 20
-757.6
 30
0.0
  0
LINE
  5
49D
  8
SIZE
  6
CONTINUOUS
 62
    30
 10
0.0
 20
190.0
 30
0.0
 11
0.0
 21
-680.1
 31
0.0
  0
LINE
  5
49E
  8
SIZE
  6
CONTINUOUS
 62
    30
 10
-76.0
 20
-30.0
 30
0.0
 11
-76.0
 21
-680.1
 31
0.0
  0
LINE
  5
49F
  8
SIZE
  6
CONTINUOUS
 62
    30
 10
-10.0
 20
-667.6
 30
0.0
 11
-66.0
 21
-667.6
 31
0.0
  0
CIRCLE
  5
4A0
  8
SIZE
  6
CONTINUOUS
 62
    30
 10
0.0
 20
-667.6
 30
0.0
 40
5.0
  0
LINE
  5
4A1
  8
SIZE
  6
CONTINUOUS
 62
    30
 10
0.0
 20
-667.6
 30
0.0
 11
-10.0
 21
-667.6
 31
0.0
  0
CIRCLE
  5
4A2
  8
SIZE
  6
CONTINUOUS
 62
    30
 10
-76.0
 20
-667.6
 30
0.0
 40
5.0
  0
LINE
  5
4A3
  8
SIZE
  6
CONTINUOUS
 62
    30
 10
-76.0
 20
-667.6
 30
0.0
 11
-66.0
 21
-667.6
 31
0.0
  0
TEXT
  5
4A4
  8
SIZE
  6
CONTINUOUS
 62
    30
 10
-63.0
 20
-657.6
 30
0.0
 40
30.0
  1
76
 72
     1
 11
-38.0
 21
-657.6
 31
0.0
  0
POINT
  5
4A5
  8
DEFPOINTS
  6
CONTINUOUS
 62
    30
 10
0.0
 20
200.0
 30
0.0
  0
POINT
  5
4A6
  8
DEFPOINTS
  6
CONTINUOUS
 62
    30
 10
-76.0
 20
-20.0
 30
0.0
  0
POINT
  5
4A7
  8
DEFPOINTS
  6
CONTINUOUS
 62
    30
 10
-76.0
 20
-667.6
 30
0.0
  0
LINE
  5
4A8
  8
SIZE
  6
CONTINUOUS
 62
    30
 10
-646.0
 20
-30.0
 30
0.0
 11
-646.0
 21
-680.1
 31
0.0
  0
LINE
  5
4A9
  8
SIZE
  6
CONTINUOUS
 62
    30
 10
-76.0
 20
-30.0
 30
0.0
 11
-76.0
 21
-680.1
 31
0.0
  0
LINE
  5
4AA
  8
SIZE
  6
CONTINUOUS
 62
    30
 10
-636.0
 20
-667.6
 30
0.0
 11
-86.0
 21
-667.6
 31
0.0
  0
CIRCLE
  5
4AB
  8
SIZE
  6
CONTINUOUS
 62
    30
 10
-646.0
 20
-667.6
 30
0.0
 40
5.0
  0
LINE
  5
4AC
  8
SIZE
  6
CONTINUOUS
 62
    30
 10
-646.0
 20
-667.6
 30
0.0
 11
-636.0
 21
-667.6
 31
0.0
  0
CIRCLE
  5
4AD
  8
SIZE
  6
CONTINUOUS
 62
    30
 10
-76.0
 20
-667.6
 30
0.0
 40
5.0
  0
LINE
  5
4AE
  8
SIZE
  6
CONTINUOUS
 62
    30
 10
-76.0
 20
-667.6
 30
0.0
 11
-86.0
 21
-667.6
 31
0.0
  0
TEXT
  5
4AF
  8
SIZE
  6
CONTINUOUS
 62
    30
 10
-408.534058
 20
-657.6
 30
0.0
 40
30.0
  1
570
 72
     1
 11
-371.034058
 21
-657.6
 31
0.0
  0
POINT
  5
4B0
  8
DEFPOINTS
  6
CONTINUOUS
 62
    30
 10
-646.0
 20
-20.0
 30
0.0
  0
POINT
  5
4B1
  8
DEFPOINTS
  6
CONTINUOUS
 62
    30
 10
-76.0
 20
-20.0
 30
0.0
  0
POINT
  5
4B2
  8
DEFPOINTS
  6
CONTINUOUS
 62
    30
 10
-76.0
 20
-667.6
 30
0.0
  0
LINE
  5
4B3
  8
SIZE
  6
CONTINUOUS
 62
    30
 10
10.0
 20
200.0
 30
0.0
 11
240.1
 21
200.0
 31
0.0
  0
LINE
  5
4B4
  8
SIZE
  6
CONTINUOUS
 62
    30
 10
-46.0
 20
0.0
 30
0.0
 11
240.1
 21
0.0
 31
0.0
  0
LINE
  5
4B5
  8
SIZE
  6
CONTINUOUS
 62
    30
 10
227.6
 20
190.0
 30
0.0
 11
227.6
 21
10.0
 31
0.0
  0
CIRCLE
  5
4B6
  8
SIZE
  6
CONTINUOUS
 62
    30
 10
227.6
 20
200.0
 30
0.0
 40
5.0
  0
LINE
  5
4B7
  8
SIZE
  6
CONTINUOUS
 62
    30
 10
227.6
 20
200.0
 30
0.0
 11
227.6
 21
190.0
 31
0.0
  0
CIRCLE
  5
4B8
  8
SIZE
  6
CONTINUOUS
 62
    30
 10
227.6
 20
0.0
 30
0.0
 40
5.0
  0
LINE
  5
4B9
  8
SIZE
  6
CONTINUOUS
 62
    30
 10
227.6
 20
0.0
 30
0.0
 11
227.6
 21
10.0
 31
0.0
  0
TEXT
  5
4BA
  8
SIZE
  6
CONTINUOUS
 62
    30
 10
217.6
 20
65.0
 30
0.0
 40
30.0
  1
200
 50
90.0
 72
     1
 11
217.6
 21
100.0
 31
0.0
  0
POINT
  5
4BB
  8
DEFPOINTS
  6
CONTINUOUS
 62
    30
 10
0.0
 20
200.0
 30
0.0
  0
POINT
  5
4BC
  8
DEFPOINTS
  6
CONTINUOUS
 62
    30
 10
-56.0
 20
0.0
 30
0.0
  0
POINT
  5
4BD
  8
DEFPOINTS
  6
CONTINUOUS
 62
    30
 10
227.6
 20
0.0
 30
0.0
  0
LINE
  5
4BE
  8
SIZE
  6
CONTINUOUS
 62
    30
 10
90.0
 20
2215.0
 30
0.0
 11
540.1
 21
2215.0
 31
0.0
  0
LINE
  5
4BF
  8
SIZE
  6
CONTINUOUS
 62
    30
 10
-46.0
 20
0.0
 30
0.0
 11
540.1
 21
0.0
 31
0.0
  0
LINE
  5
4C0
  8
SIZE
  6
CONTINUOUS
 62
    30
 10
527.6
 20
2205.0
 30
0.0
 11
527.6
 21
10.0
 31
0.0
  0
CIRCLE
  5
4C1
  8
SIZE
  6
CONTINUOUS
 62
    30
 10
527.6
 20
2215.0
 30
0.0
 40
5.0
  0
LINE
  5
4C2
  8
SIZE
  6
CONTINUOUS
 62
    30
 10
527.6
 20
2215.0
 30
0.0
 11
527.6
 21
2205.0
 31
0.0
  0
CIRCLE
  5
4C3
  8
SIZE
  6
CONTINUOUS
 62
    30
 10
527.6
 20
0.0
 30
0.0
 40
5.0
  0
LINE
  5
4C4
  8
SIZE
  6
CONTINUOUS
 62
    30
 10
527.6
 20
0.0
 30
0.0
 11
527.6
 21
10.0
 31
0.0
  0
TEXT
  5
4C5
  8
SIZE
  6
CONTINUOUS
 62
    30
 10
517.6
 20
1137.047607
 30
0.0
 40
30.0
  1
2215
 50
90.0
 72
     1
 11
517.6
 21
1187.047607
 31
0.0
  0
POINT
  5
4C6
  8
DEFPOINTS
  6
CONTINUOUS
 62
    30
 10
80.0
 20
2215.0
 30
0.0
  0
POINT
  5
4C7
  8
DEFPOINTS
  6
CONTINUOUS
 62
    30
 10
-56.0
 20
0.0
 30
0.0
  0
POINT
  5
4C8
  8
DEFPOINTS
  6
CONTINUOUS
 62
    30
 10
527.6
 20
0.0
 30
0.0
  0
LINE
  5
4C9
  8
SIZE
  6
CONTINUOUS
 62
    30
 10
-160.5
 20
2200.0
 30
0.0
 11
440.1
 21
2200.0
 31
0.0
  0
LINE
  5
4CA
  8
SIZE
  6
CONTINUOUS
 62
    30
 10
-46.0
 20
0.0
 30
0.0
 11
440.1
 21
0.0
 31
0.0
  0
LINE
  5
4CB
  8
SIZE
  6
CONTINUOUS
 62
    30
 10
427.6
 20
2190.0
 30
0.0
 11
427.6
 21
10.0
 31
0.0
  0
CIRCLE
  5
4CC
  8
SIZE
  6
CONTINUOUS
 62
    30
 10
427.6
 20
2200.0
 30
0.0
 40
5.0
  0
LINE
  5
4CD
  8
SIZE
  6
CONTINUOUS
 62
    30
 10
427.6
 20
2200.0
 30
0.0
 11
427.6
 21
2190.0
 31
0.0
  0
CIRCLE
  5
4CE
  8
SIZE
  6
CONTINUOUS
 62
    30
 10
427.6
 20
0.0
 30
0.0
 40
5.0
  0
LINE
  5
4CF
  8
SIZE
  6
CONTINUOUS
 62
    30
 10
427.6
 20
0.0
 30
0.0
 11
427.6
 21
10.0
 31
0.0
  0
TEXT
  5
4D0
  8
SIZE
  6
CONTINUOUS
 62
    30
 10
417.6
 20
1137.047607
 30
0.0
 40
30.0
  1
2200
 50
90.0
 72
     1
 11
417.6
 21
1187.047607
 31
0.0
  0
POINT
  5
4D1
  8
DEFPOINTS
  6
CONTINUOUS
 62
    30
 10
-170.5
 20
2200.0
 30
0.0
  0
POINT
  5
4D2
  8
DEFPOINTS
  6
CONTINUOUS
 62
    30
 10
-56.0
 20
0.0
 30
0.0
  0
POINT
  5
4D3
  8
DEFPOINTS
  6
CONTINUOUS
 62
    30
 10
427.6
 20
0.0
 30
0.0
  0
LINE
  5
4D4
  8
SIZE
  6
CONTINUOUS
 62
    30
 10
10.0
 20
200.0
 30
0.0
 11
240.1
 21
200.0
 31
0.0
  0
LINE
  5
4D5
  8
SIZE
  6
CONTINUOUS
 62
    30
 10
10.0
 20
2170.0
 30
0.0
 11
240.1
 21
2170.0
 31
0.0
  0
LINE
  5
4D6
  8
SIZE
  6
CONTINUOUS
 62
    30
 10
227.6
 20
210.0
 30
0.0
 11
227.6
 21
2160.0
 31
0.0
  0
CIRCLE
  5
4D7
  8
SIZE
  6
CONTINUOUS
 62
    30
 10
227.6
 20
200.0
 30
0.0
 40
5.0
  0
LINE
  5
4D8
  8
SIZE
  6
CONTINUOUS
 62
    30
 10
227.6
 20
200.0
 30
0.0
 11
227.6
 21
210.0
 31
0.0
  0
CIRCLE
  5
4D9
  8
SIZE
  6
CONTINUOUS
 62
    30
 10
227.6
 20
2170.0
 30
0.0
 40
5.0
  0
LINE
  5
4DA
  8
SIZE
  6
CONTINUOUS
 62
    30
 10
227.6
 20
2170.0
 30
0.0
 11
227.6
 21
2160.0
 31
0.0
  0
TEXT
  5
4DB
  8
SIZE
  6
CONTINUOUS
 62
    30
 10
217.6
 20
1137.5
 30
0.0
 40
30.0
  1
1970
 50
90.0
 72
     1
 11
217.6
 21
1185.0
 31
0.0
  0
POINT
  5
4DC
  8
DEFPOINTS
  6
CONTINUOUS
 62
    30
 10
0.0
 20
200.0
 30
0.0
  0
POINT
  5
4DD
  8
DEFPOINTS
  6
CONTINUOUS
 62
    30
 10
0.0
 20
2170.0
 30
0.0
  0
POINT
  5
4DE
  8
DEFPOINTS
  6
CONTINUOUS
 62
    30
 10
227.6
 20
2170.0
 30
0.0
  0
LINE
  5
4DF
  8
SIZE
  6
CONTINUOUS
 62
    30
 10
-46.0
 20
0.0
 30
0.0
 11
340.1
 21
0.0
 31
0.0
  0
LINE
  5
4E0
  8
SIZE
  6
CONTINUOUS
 62
    30
 10
110.0
 20
2193.0
 30
0.0
 11
340.1
 21
2193.0
 31
0.0
  0
LINE
  5
4E1
  8
SIZE
  6
CONTINUOUS
 62
    30
 10
327.6
 20
10.0
 30
0.0
 11
327.6
 21
2183.0
 31
0.0
  0
CIRCLE
  5
4E2
  8
SIZE
  6
CONTINUOUS
 62
    30
 10
327.6
 20
0.0
 30
0.0
 40
5.0
  0
LINE
  5
4E3
  8
SIZE
  6
CONTINUOUS
 62
    30
 10
327.6
 20
0.0
 30
0.0
 11
327.6
 21
10.0
 31
0.0
  0
CIRCLE
  5
4E4
  8
SIZE
  6
CONTINUOUS
 62
    30
 10
327.6
 20
2193.0
 30
0.0
 40
5.0
  0
LINE
  5
4E5
  8
SIZE
  6
CONTINUOUS
 62
    30
 10
327.6
 20
2193.0
 30
0.0
 11
327.6
 21
2183.0
 31
0.0
  0
TEXT
  5
4E6
  8
SIZE
  6
CONTINUOUS
 62
    30
 10
317.6
 20
1135.837402
 30
0.0
 40
30.0
  1
2193
 50
90.0
 72
     1
 11
317.6
 21
1185.837402
 31
0.0
  0
POINT
  5
4E7
  8
DEFPOINTS
  6
CONTINUOUS
 62
    30
 10
-56.0
 20
0.0
 30
0.0
  0
POINT
  5
4E8
  8
DEFPOINTS
  6
CONTINUOUS
 62
    30
 10
100.0
 20
2193.0
 30
0.0
  0
POINT
  5
4E9
  8
DEFPOINTS
  6
CONTINUOUS
 62
    30
 10
327.6
 20
2193.0
 30
0.0
  0
LINE
  5
4EA
  8
SIZE
  6
CONTINUOUS
 62
    30
 10
-1330.0
 20
2380.0
 30
0.0
 11
-1330.0
 21
2534.9
 31
0.0
  0
LINE
  5
4EB
  8
SIZE
  6
CONTINUOUS
 62
    30
 10
-730.0
 20
2380.0
 30
0.0
 11
-730.0
 21
2534.9
 31
0.0
  0
LINE
  5
4EC
  8
SIZE
  6
CONTINUOUS
 62
    30
 10
-1320.0
 20
2522.4
 30
0.0
 11
-740.0
 21
2522.4
 31
0.0
  0
CIRCLE
  5
4ED
  8
SIZE
  6
CONTINUOUS
 62
    30
 10
-1330.0
 20
2522.4
 30
0.0
 40
5.0
  0
LINE
  5
4EE
  8
SIZE
  6
CONTINUOUS
 62
    30
 10
-1330.0
 20
2522.4
 30
0.0
 11
-1320.0
 21
2522.4
 31
0.0
  0
CIRCLE
  5
4EF
  8
SIZE
  6
CONTINUOUS
 62
    30
 10
-730.0
 20
2522.4
 30
0.0
 40
5.0
  0
LINE
  5
4F0
  8
SIZE
  6
CONTINUOUS
 62
    30
 10
-730.0
 20
2522.4
 30
0.0
 11
-740.0
 21
2522.4
 31
0.0
  0
TEXT
  5
4F1
  8
SIZE
  6
CONTINUOUS
 62
    30
 10
-1065.0
 20
2532.4
 30
0.0
 40
30.0
  1
600
 72
     1
 11
-1030.0
 21
2532.4
 31
0.0
  0
POINT
  5
4F2
  8
DEFPOINTS
  6
CONTINUOUS
 62
    30
 10
-1330.0
 20
2370.0
 30
0.0
  0
POINT
  5
4F3
  8
DEFPOINTS
  6
CONTINUOUS
 62
    30
 10
-730.0
 20
2370.0
 30
0.0
  0
POINT
  5
4F4
  8
DEFPOINTS
  6
CONTINUOUS
 62
    30
 10
-730.0
 20
2522.4
 30
0.0
  0
LINE
  5
4F5
  8
SIZE
  6
CONTINUOUS
 62
    30
 10
-730.0
 20
2380.0
 30
0.0
 11
-730.0
 21
2534.9
 31
0.0
  0
LINE
  5
4F6
  8
SIZE
  6
CONTINUOUS
 62
    30
 10
0.0
 20
2380.0
 30
0.0
 11
0.0
 21
2534.9
 31
0.0
  0
LINE
  5
4F7
  8
SIZE
  6
CONTINUOUS
 62
    30
 10
-720.0
 20
2522.4
 30
0.0
 11
-10.0
 21
2522.4
 31
0.0
  0
CIRCLE
  5
4F8
  8
SIZE
  6
CONTINUOUS
 62
    30
 10
-730.0
 20
2522.4
 30
0.0
 40
5.0
  0
LINE
  5
4F9
  8
SIZE
  6
CONTINUOUS
 62
    30
 10
-730.0
 20
2522.4
 30
0.0
 11
-720.0
 21
2522.4
 31
0.0
  0
CIRCLE
  5
4FA
  8
SIZE
  6
CONTINUOUS
 62
    30
 10
0.0
 20
2522.4
 30
0.0
 40
5.0
  0
LINE
  5
4FB
  8
SIZE
  6
CONTINUOUS
 62
    30
 10
0.0
 20
2522.4
 30
0.0
 11
-10.0
 21
2522.4
 31
0.0
  0
TEXT
  5
4FC
  8
SIZE
  6
CONTINUOUS
 62
    30
 10
-402.5
 20
2532.4
 30
0.0
 40
30.0
  1
730
 72
     1
 11
-365.0
 21
2532.4
 31
0.0
  0
POINT
  5
4FD
  8
DEFPOINTS
  6
CONTINUOUS
 62
    30
 10
-730.0
 20
2370.0
 30
0.0
  0
POINT
  5
4FE
  8
DEFPOINTS
  6
CONTINUOUS
 62
    30
 10
0.0
 20
2370.0
 30
0.0
  0
POINT
  5
4FF
  8
DEFPOINTS
  6
CONTINUOUS
 62
    30
 10
0.0
 20
2522.4
 30
0.0
  0
LINE
  5
500
  8
SIZE
  6
CONTINUOUS
 62
    30
 10
-640.0
 20
125.5
 30
0.0
 11
-640.0
 21
-410.1
 31
0.0
  0
LINE
  5
501
  8
SIZE
  6
CONTINUOUS
 62
    30
 10
-730.0
 20
-10.0
 30
0.0
 11
-730.0
 21
-410.1
 31
0.0
  0
LINE
  5
502
  8
SIZE
  6
CONTINUOUS
 62
    30
 10
-650.0
 20
-397.6
 30
0.0
 11
-720.0
 21
-397.6
 31
0.0
  0
CIRCLE
  5
503
  8
SIZE
  6
CONTINUOUS
 62
    30
 10
-640.0
 20
-397.6
 30
0.0
 40
5.0
  0
LINE
  5
504
  8
SIZE
  6
CONTINUOUS
 62
    30
 10
-640.0
 20
-397.6
 30
0.0
 11
-650.0
 21
-397.6
 31
0.0
  0
CIRCLE
  5
505
  8
SIZE
  6
CONTINUOUS
 62
    30
 10
-730.0
 20
-397.6
 30
0.0
 40
5.0
  0
LINE
  5
506
  8
SIZE
  6
CONTINUOUS
 62
    30
 10
-730.0
 20
-397.6
 30
0.0
 11
-720.0
 21
-397.6
 31
0.0
  0
TEXT
  5
507
  8
SIZE
  6
CONTINUOUS
 62
    30
 10
-707.617798
 20
-387.6
 30
0.0
 40
30.0
  1
90
 72
     1
 11
-685.117798
 21
-387.6
 31
0.0
  0
POINT
  5
508
  8
DEFPOINTS
  6
CONTINUOUS
 62
    30
 10
-640.0
 20
135.5
 30
0.0
  0
POINT
  5
509
  8
DEFPOINTS
  6
CONTINUOUS
 62
    30
 10
-730.0
 20
0.0
 30
0.0
  0
POINT
  5
50A
  8
DEFPOINTS
  6
CONTINUOUS
 62
    30
 10
-730.0
 20
-397.6
 30
0.0
  0
LINE
  5
50B
  8
SIZE
  6
CONTINUOUS
 62
    30
 10
-740.0
 20
0.0
 30
0.0
 11
-824.373999
 21
0.0
 31
0.0
  0
LINE
  5
50C
  8
SIZE
  6
CONTINUOUS
 62
    30
 10
-670.0
 20
155.5
 30
0.0
 11
-824.373999
 21
155.5
 31
0.0
  0
LINE
  5
50D
  8
SIZE
  6
CONTINUOUS
 62
    30
 10
-811.873999
 20
10.0
 30
0.0
 11
-811.873999
 21
145.5
 31
0.0
  0
CIRCLE
  5
50E
  8
SIZE
  6
CONTINUOUS
 62
    30
 10
-811.873999
 20
0.0
 30
0.0
 40
5.0
  0
LINE
  5
50F
  8
SIZE
  6
CONTINUOUS
 62
    30
 10
-811.873999
 20
0.0
 30
0.0
 11
-811.873999
 21
10.0
 31
0.0
  0
CIRCLE
  5
510
  8
SIZE
  6
CONTINUOUS
 62
    30
 10
-811.873999
 20
155.5
 30
0.0
 40
5.0
  0
LINE
  5
511
  8
SIZE
  6
CONTINUOUS
 62
    30
 10
-811.873999
 20
155.5
 30
0.0
 11
-811.873999
 21
145.5
 31
0.0
  0
TEXT
  5
512
  8
SIZE
  6
CONTINUOUS
 62
    30
 10
-821.873999
 20
42.75
 30
0.0
 40
30.0
  1
156
 50
90.0
 72
     1
 11
-821.873999
 21
77.75
 31
0.0
  0
POINT
  5
513
  8
DEFPOINTS
  6
CONTINUOUS
 62
    30
 10
-730.0
 20
0.0
 30
0.0
  0
POINT
  5
514
  8
DEFPOINTS
  6
CONTINUOUS
 62
    30
 10
-660.0
 20
155.5
 30
0.0
  0
POINT
  5
515
  8
DEFPOINTS
  6
CONTINUOUS
 62
    30
 10
-811.873999
 20
155.5
 30
0.0
  0
LINE
  5
516
  8
SIZE
  6
CONTINUOUS
 62
    30
 10
-737.5
 20
2001.0
 30
0.0
 11
-1444.9
 21
2001.0
 31
0.0
  0
LINE
  5
517
  8
SIZE
  6
CONTINUOUS
 62
    30
 10
-737.5
 20
2131.0
 30
0.0
 11
-1444.9
 21
2131.0
 31
0.0
  0
LINE
  5
518
  8
SIZE
  6
CONTINUOUS
 62
    30
 10
-1432.4
 20
2011.0
 30
0.0
 11
-1432.4
 21
2121.0
 31
0.0
  0
CIRCLE
  5
519
  8
SIZE
  6
CONTINUOUS
 62
    30
 10
-1432.4
 20
2001.0
 30
0.0
 40
5.0
  0
LINE
  5
51A
  8
SIZE
  6
CONTINUOUS
 62
    30
 10
-1432.4
 20
2001.0
 30
0.0
 11
-1432.4
 21
2011.0
 31
0.0
  0
CIRCLE
  5
51B
  8
SIZE
  6
CONTINUOUS
 62
    30
 10
-1432.4
 20
2131.0
 30
0.0
 40
5.0
  0
LINE
  5
51C
  8
SIZE
  6
CONTINUOUS
 62
    30
 10
-1432.4
 20
2131.0
 30
0.0
 11
-1432.4
 21
2121.0
 31
0.0
  0
TEXT
  5
51D
  8
SIZE
  6
CONTINUOUS
 62
    30
 10
-1442.4
 20
2033.5
 30
0.0
 40
30.0
  1
130
 50
90.0
 72
     1
 11
-1442.4
 21
2066.0
 31
0.0
  0
POINT
  5
51E
  8
DEFPOINTS
  6
CONTINUOUS
 62
    30
 10
-727.5
 20
2001.0
 30
0.0
  0
POINT
  5
51F
  8
DEFPOINTS
  6
CONTINUOUS
 62
    30
 10
-727.5
 20
2131.0
 30
0.0
  0
POINT
  5
520
  8
DEFPOINTS
  6
CONTINUOUS
 62
    30
 10
-1432.4
 20
2131.0
 30
0.0
  0
LINE
  5
521
  8
SIZE
  6
CONTINUOUS
 62
    30
 10
-737.5
 20
233.0
 30
0.0
 11
-1125.373999
 21
233.0
 31
0.0
  0
LINE
  5
522
  8
SIZE
  6
CONTINUOUS
 62
    30
 10
-737.5
 20
363.0
 30
0.0
 11
-1125.373999
 21
363.0
 31
0.0
  0
LINE
  5
523
  8
SIZE
  6
CONTINUOUS
 62
    30
 10
-1112.873999
 20
243.0
 30
0.0
 11
-1112.873999
 21
353.0
 31
0.0
  0
CIRCLE
  5
524
  8
SIZE
  6
CONTINUOUS
 62
    30
 10
-1112.873999
 20
233.0
 30
0.0
 40
5.0
  0
LINE
  5
525
  8
SIZE
  6
CONTINUOUS
 62
    30
 10
-1112.873999
 20
233.0
 30
0.0
 11
-1112.873999
 21
243.0
 31
0.0
  0
CIRCLE
  5
526
  8
SIZE
  6
CONTINUOUS
 62
    30
 10
-1112.873999
 20
363.0
 30
0.0
 40
5.0
  0
LINE
  5
527
  8
SIZE
  6
CONTINUOUS
 62
    30
 10
-1112.873999
 20
363.0
 30
0.0
 11
-1112.873999
 21
353.0
 31
0.0
  0
TEXT
  5
528
  8
SIZE
  6
CONTINUOUS
 62
    30
 10
-1122.873999
 20
265.5
 30
0.0
 40
30.0
  1
130
 50
90.0
 72
     1
 11
-1122.873999
 21
298.0
 31
0.0
  0
POINT
  5
529
  8
DEFPOINTS
  6
CONTINUOUS
 62
    30
 10
-727.5
 20
233.0
 30
0.0
  0
POINT
  5
52A
  8
DEFPOINTS
  6
CONTINUOUS
 62
    30
 10
-727.5
 20
363.0
 30
0.0
  0
POINT
  5
52B
  8
DEFPOINTS
  6
CONTINUOUS
 62
    30
 10
-1112.873999
 20
363.0
 30
0.0
  0
LINE
  5
52C
  8
SIZE
  6
CONTINUOUS
 62
    30
 10
-737.5
 20
2001.0
 30
0.0
 11
-1444.9
 21
2001.0
 31
0.0
  0
LINE
  5
52D
  8
SIZE
  6
CONTINUOUS
 62
    30
 10
-1340.0
 20
0.0
 30
0.0
 11
-1444.9
 21
0.0
 31
0.0
  0
LINE
  5
52E
  8
SIZE
  6
CONTINUOUS
 62
    30
 10
-1432.4
 20
1991.0
 30
0.0
 11
-1432.4
 21
10.0
 31
0.0
  0
CIRCLE
  5
52F
  8
SIZE
  6
CONTINUOUS
 62
    30
 10
-1432.4
 20
2001.0
 30
0.0
 40
5.0
  0
LINE
  5
530
  8
SIZE
  6
CONTINUOUS
 62
    30
 10
-1432.4
 20
2001.0
 30
0.0
 11
-1432.4
 21
1991.0
 31
0.0
  0
CIRCLE
  5
531
  8
SIZE
  6
CONTINUOUS
 62
    30
 10
-1432.4
 20
0.0
 30
0.0
 40
5.0
  0
LINE
  5
532
  8
SIZE
  6
CONTINUOUS
 62
    30
 10
-1432.4
 20
0.0
 30
0.0
 11
-1432.4
 21
10.0
 31
0.0
  0
TEXT
  5
533
  8
SIZE
  6
CONTINUOUS
 62
    30
 10
-1442.4
 20
955.5
 30
0.0
 40
30.0
  1
2001
 50
90.0
 72
     1
 11
-1442.4
 21
1000.5
 31
0.0
  0
POINT
  5
534
  8
DEFPOINTS
  6
CONTINUOUS
 62
    30
 10
-727.5
 20
2001.0
 30
0.0
  0
POINT
  5
535
  8
DEFPOINTS
  6
CONTINUOUS
 62
    30
 10
-1330.0
 20
0.0
 30
0.0
  0
POINT
  5
536
  8
DEFPOINTS
  6
CONTINUOUS
 62
    30
 10
-1432.4
 20
0.0
 30
0.0
  0
LINE
  5
537
  8
SIZE
  6
CONTINUOUS
 62
    30
 10
-740.0
 20
0.0
 30
0.0
 11
-1124.373999
 21
0.0
 31
0.0
  0
LINE
  5
538
  8
SIZE
  6
CONTINUOUS
 62
    30
 10
-737.5
 20
233.0
 30
0.0
 11
-1124.373999
 21
233.0
 31
0.0
  0
LINE
  5
539
  8
SIZE
  6
CONTINUOUS
 62
    30
 10
-1111.873999
 20
10.0
 30
0.0
 11
-1111.873999
 21
223.0
 31
0.0
  0
CIRCLE
  5
53A
  8
SIZE
  6
CONTINUOUS
 62
    30
 10
-1111.873999
 20
0.0
 30
0.0
 40
5.0
  0
LINE
  5
53B
  8
SIZE
  6
CONTINUOUS
 62
    30
 10
-1111.873999
 20
0.0
 30
0.0
 11
-1111.873999
 21
10.0
 31
0.0
  0
CIRCLE
  5
53C
  8
SIZE
  6
CONTINUOUS
 62
    30
 10
-1111.873999
 20
233.0
 30
0.0
 40
5.0
  0
LINE
  5
53D
  8
SIZE
  6
CONTINUOUS
 62
    30
 10
-1111.873999
 20
233.0
 30
0.0
 11
-1111.873999
 21
223.0
 31
0.0
  0
TEXT
  5
53E
  8
SIZE
  6
CONTINUOUS
 62
    30
 10
-1121.873999
 20
76.5
 30
0.0
 40
30.0
  1
233
 50
90.0
 72
     1
 11
-1121.873999
 21
116.5
 31
0.0
  0
POINT
  5
53F
  8
DEFPOINTS
  6
CONTINUOUS
 62
    30
 10
-730.0
 20
0.0
 30
0.0
  0
POINT
  5
540
  8
DEFPOINTS
  6
CONTINUOUS
 62
    30
 10
-727.5
 20
233.0
 30
0.0
  0
POINT
  5
541
  8
DEFPOINTS
  6
CONTINUOUS
 62
    30
 10
-1111.873999
 20
233.0
 30
0.0
  0
LINE
  5
542
  8
SIZE
  6
CONTINUOUS
 62
    30
 10
-738.799988
 20
1371.5
 30
0.0
 11
-1224.373999
 21
1371.5
 31
0.0
  0
LINE
  5
543
  8
SIZE
  6
CONTINUOUS
 62
    30
 10
-738.799988
 20
1566.0
 30
0.0
 11
-1224.373999
 21
1566.0
 31
0.0
  0
LINE
  5
544
  8
SIZE
  6
CONTINUOUS
 62
    30
 10
-1211.873999
 20
1381.5
 30
0.0
 11
-1211.873999
 21
1556.0
 31
0.0
  0
CIRCLE
  5
545
  8
SIZE
  6
CONTINUOUS
 62
    30
 10
-1211.873999
 20
1371.5
 30
0.0
 40
5.0
  0
LINE
  5
546
  8
SIZE
  6
CONTINUOUS
 62
    30
 10
-1211.873999
 20
1371.5
 30
0.0
 11
-1211.873999
 21
1381.5
 31
0.0
  0
CIRCLE
  5
547
  8
SIZE
  6
CONTINUOUS
 62
    30
 10
-1211.873999
 20
1566.0
 30
0.0
 40
5.0
  0
LINE
  5
548
  8
SIZE
  6
CONTINUOUS
 62
    30
 10
-1211.873999
 20
1566.0
 30
0.0
 11
-1211.873999
 21
1556.0
 31
0.0
  0
TEXT
  5
549
  8
SIZE
  6
CONTINUOUS
 62
    30
 10
-1221.873999
 20
1433.75
 30
0.0
 40
30.0
  1
195
 50
90.0
 72
     1
 11
-1221.873999
 21
1468.75
 31
0.0
  0
POINT
  5
54A
  8
DEFPOINTS
  6
CONTINUOUS
 62
    30
 10
-728.799988
 20
1371.5
 30
0.0
  0
POINT
  5
54B
  8
DEFPOINTS
  6
CONTINUOUS
 62
    30
 10
-728.799988
 20
1566.0
 30
0.0
  0
POINT
  5
54C
  8
DEFPOINTS
  6
CONTINUOUS
 62
    30
 10
-1211.873999
 20
1566.0
 30
0.0
  0
LINE
  5
54D
  8
SIZE
  6
CONTINUOUS
 62
    30
 10
-740.0
 20
0.0
 30
0.0
 11
-1224.373999
 21
0.0
 31
0.0
  0
LINE
  5
54E
  8
SIZE
  6
CONTINUOUS
 62
    30
 10
-738.799988
 20
1371.5
 30
0.0
 11
-1224.373999
 21
1371.5
 31
0.0
  0
LINE
  5
54F
  8
SIZE
  6
CONTINUOUS
 62
    30
 10
-1211.873999
 20
10.0
 30
0.0
 11
-1211.873999
 21
1361.5
 31
0.0
  0
CIRCLE
  5
550
  8
SIZE
  6
CONTINUOUS
 62
    30
 10
-1211.873999
 20
0.0
 30
0.0
 40
5.0
  0
LINE
  5
551
  8
SIZE
  6
CONTINUOUS
 62
    30
 10
-1211.873999
 20
0.0
 30
0.0
 11
-1211.873999
 21
10.0
 31
0.0
  0
CIRCLE
  5
552
  8
SIZE
  6
CONTINUOUS
 62
    30
 10
-1211.873999
 20
1371.5
 30
0.0
 40
5.0
  0
LINE
  5
553
  8
SIZE
  6
CONTINUOUS
 62
    30
 10
-1211.873999
 20
1371.5
 30
0.0
 11
-1211.873999
 21
1361.5
 31
0.0
  0
TEXT
  5
554
  8
SIZE
  6
CONTINUOUS
 62
    30
 10
-1221.873999
 20
635.75
 30
0.0
 40
30.0
  1
1372
 50
90.0
 72
     1
 11
-1221.873999
 21
685.75
 31
0.0
  0
POINT
  5
555
  8
DEFPOINTS
  6
CONTINUOUS
 62
    30
 10
-730.0
 20
0.0
 30
0.0
  0
POINT
  5
556
  8
DEFPOINTS
  6
CONTINUOUS
 62
    30
 10
-728.799988
 20
1371.5
 30
0.0
  0
POINT
  5
557
  8
DEFPOINTS
  6
CONTINUOUS
 62
    30
 10
-1211.873999
 20
1371.5
 30
0.0
  0
LINE
  5
558
  8
SIZE
  6
CONTINUOUS
 62
    30
 10
-740.0
 20
0.0
 30
0.0
 11
-924.373999
 21
0.0
 31
0.0
  0
LINE
  5
559
  8
SIZE
  6
CONTINUOUS
 62
    30
 10
-705.0
 20
163.0
 30
0.0
 11
-924.373999
 21
163.0
 31
0.0
  0
LINE
  5
55A
  8
SIZE
  6
CONTINUOUS
 62
    30
 10
-911.873999
 20
10.0
 30
0.0
 11
-911.873999
 21
153.0
 31
0.0
  0
CIRCLE
  5
55B
  8
SIZE
  6
CONTINUOUS
 62
    30
 10
-911.873999
 20
0.0
 30
0.0
 40
5.0
  0
LINE
  5
55C
  8
SIZE
  6
CONTINUOUS
 62
    30
 10
-911.873999
 20
0.0
 30
0.0
 11
-911.873999
 21
10.0
 31
0.0
  0
CIRCLE
  5
55D
  8
SIZE
  6
CONTINUOUS
 62
    30
 10
-911.873999
 20
163.0
 30
0.0
 40
5.0
  0
LINE
  5
55E
  8
SIZE
  6
CONTINUOUS
 62
    30
 10
-911.873999
 20
163.0
 30
0.0
 11
-911.873999
 21
153.0
 31
0.0
  0
TEXT
  5
55F
  8
SIZE
  6
CONTINUOUS
 62
    30
 10
-921.873999
 20
46.5
 30
0.0
 40
30.0
  1
163
 50
90.0
 72
     1
 11
-921.873999
 21
81.5
 31
0.0
  0
POINT
  5
560
  8
DEFPOINTS
  6
CONTINUOUS
 62
    30
 10
-730.0
 20
0.0
 30
0.0
  0
POINT
  5
561
  8
DEFPOINTS
  6
CONTINUOUS
 62
    30
 10
-695.0
 20
163.0
 30
0.0
  0
POINT
  5
562
  8
DEFPOINTS
  6
CONTINUOUS
 62
    30
 10
-911.873999
 20
163.0
 30
0.0
  0
LINE
  5
563
  8
SIZE
  6
CONTINUOUS
 62
    30
 10
-740.0
 20
0.0
 30
0.0
 11
-1024.373999
 21
0.0
 31
0.0
  0
LINE
  5
564
  8
SIZE
  6
CONTINUOUS
 62
    30
 10
-705.0
 20
168.0
 30
0.0
 11
-1024.373999
 21
168.0
 31
0.0
  0
LINE
  5
565
  8
SIZE
  6
CONTINUOUS
 62
    30
 10
-1011.873999
 20
10.0
 30
0.0
 11
-1011.873999
 21
158.0
 31
0.0
  0
CIRCLE
  5
566
  8
SIZE
  6
CONTINUOUS
 62
    30
 10
-1011.873999
 20
0.0
 30
0.0
 40
5.0
  0
LINE
  5
567
  8
SIZE
  6
CONTINUOUS
 62
    30
 10
-1011.873999
 20
0.0
 30
0.0
 11
-1011.873999
 21
10.0
 31
0.0
  0
CIRCLE
  5
568
  8
SIZE
  6
CONTINUOUS
 62
    30
 10
-1011.873999
 20
168.0
 30
0.0
 40
5.0
  0
LINE
  5
569
  8
SIZE
  6
CONTINUOUS
 62
    30
 10
-1011.873999
 20
168.0
 30
0.0
 11
-1011.873999
 21
158.0
 31
0.0
  0
TEXT
  5
56A
  8
SIZE
  6
CONTINUOUS
 62
    30
 10
-1021.873999
 20
49.0
 30
0.0
 40
30.0
  1
168
 50
90.0
 72
     1
 11
-1021.873999
 21
84.0
 31
0.0
  0
POINT
  5
56B
  8
DEFPOINTS
  6
CONTINUOUS
 62
    30
 10
-730.0
 20
0.0
 30
0.0
  0
POINT
  5
56C
  8
DEFPOINTS
  6
CONTINUOUS
 62
    30
 10
-695.0
 20
168.0
 30
0.0
  0
POINT
  5
56D
  8
DEFPOINTS
  6
CONTINUOUS
 62
    30
 10
-1011.873999
 20
168.0
 30
0.0
  0
LINE
  5
56E
  8
SIZE
  6
CONTINUOUS
 62
    30
 10
-730.0
 20
-10.0
 30
0.0
 11
-730.0
 21
-500.1
 31
0.0
  0
LINE
  5
56F
  8
SIZE
  6
CONTINUOUS
 62
    30
 10
-611.0
 20
170.0
 30
0.0
 11
-611.0
 21
-500.1
 31
0.0
  0
LINE
  5
570
  8
SIZE
  6
CONTINUOUS
 62
    30
 10
-720.0
 20
-487.6
 30
0.0
 11
-621.0
 21
-487.6
 31
0.0
  0
CIRCLE
  5
571
  8
SIZE
  6
CONTINUOUS
 62
    30
 10
-730.0
 20
-487.6
 30
0.0
 40
5.0
  0
LINE
  5
572
  8
SIZE
  6
CONTINUOUS
 62
    30
 10
-730.0
 20
-487.6
 30
0.0
 11
-720.0
 21
-487.6
 31
0.0
  0
CIRCLE
  5
573
  8
SIZE
  6
CONTINUOUS
 62
    30
 10
-611.0
 20
-487.6
 30
0.0
 40
5.0
  0
LINE
  5
574
  8
SIZE
  6
CONTINUOUS
 62
    30
 10
-611.0
 20
-487.6
 30
0.0
 11
-621.0
 21
-487.6
 31
0.0
  0
TEXT
  5
575
  8
SIZE
  6
CONTINUOUS
 62
    30
 10
-715.881897
 20
-477.6
 30
0.0
 40
30.0
  1
119
 72
     1
 11
-685.881897
 21
-477.6
 31
0.0
  0
POINT
  5
576
  8
DEFPOINTS
  6
CONTINUOUS
 62
    30
 10
-730.0
 20
0.0
 30
0.0
  0
POINT
  5
577
  8
DEFPOINTS
  6
CONTINUOUS
 62
    30
 10
-611.0
 20
180.0
 30
0.0
  0
POINT
  5
578
  8
DEFPOINTS
  6
CONTINUOUS
 62
    30
 10
-611.0
 20
-487.6
 30
0.0
  0
LINE
  5
579
  8
SIZE
  6
CONTINUOUS
 62
    30
 10
-730.0
 20
-10.0
 30
0.0
 11
-730.0
 21
-590.1
 31
0.0
  0
LINE
  5
57A
  8
SIZE
  6
CONTINUOUS
 62
    30
 10
-595.0
 20
170.0
 30
0.0
 11
-595.0
 21
-590.1
 31
0.0
  0
LINE
  5
57B
  8
SIZE
  6
CONTINUOUS
 62
    30
 10
-720.0
 20
-577.6
 30
0.0
 11
-605.0
 21
-577.6
 31
0.0
  0
CIRCLE
  5
57C
  8
SIZE
  6
CONTINUOUS
 62
    30
 10
-730.0
 20
-577.6
 30
0.0
 40
5.0
  0
LINE
  5
57D
  8
SIZE
  6
CONTINUOUS
 62
    30
 10
-730.0
 20
-577.6
 30
0.0
 11
-720.0
 21
-577.6
 31
0.0
  0
CIRCLE
  5
57E
  8
SIZE
  6
CONTINUOUS
 62
    30
 10
-595.0
 20
-577.6
 30
0.0
 40
5.0
  0
LINE
  5
57F
  8
SIZE
  6
CONTINUOUS
 62
    30
 10
-595.0
 20
-577.6
 30
0.0
 11
-605.0
 21
-577.6
 31
0.0
  0
TEXT
  5
580
  8
SIZE
  6
CONTINUOUS
 62
    30
 10
-710.0
 20
-567.6
 30
0.0
 40
30.0
  1
135
 72
     1
 11
-675.0
 21
-567.6
 31
0.0
  0
POINT
  5
581
  8
DEFPOINTS
  6
CONTINUOUS
 62
    30
 10
-730.0
 20
0.0
 30
0.0
  0
POINT
  5
582
  8
DEFPOINTS
  6
CONTINUOUS
 62
    30
 10
-595.0
 20
180.0
 30
0.0
  0
POINT
  5
583
  8
DEFPOINTS
  6
CONTINUOUS
 62
    30
 10
-595.0
 20
-577.6
 30
0.0
  0
LINE
  5
584
  8
SIZE
  6
CONTINUOUS
 62
    30
 10
-675.0
 20
133.0
 30
0.0
 11
-675.0
 21
-230.1
 31
0.0
  0
LINE
  5
585
  8
SIZE
  6
CONTINUOUS
 62
    30
 10
-730.0
 20
-10.0
 30
0.0
 11
-730.0
 21
-230.1
 31
0.0
  0
LINE
  5
586
  8
SIZE
  6
CONTINUOUS
 62
    30
 10
-685.0
 20
-217.6
 30
0.0
 11
-720.0
 21
-217.6
 31
0.0
  0
CIRCLE
  5
587
  8
SIZE
  6
CONTINUOUS
 62
    30
 10
-675.0
 20
-217.6
 30
0.0
 40
5.0
  0
LINE
  5
588
  8
SIZE
  6
CONTINUOUS
 62
    30
 10
-675.0
 20
-217.6
 30
0.0
 11
-685.0
 21
-217.6
 31
0.0
  0
CIRCLE
  5
589
  8
SIZE
  6
CONTINUOUS
 62
    30
 10
-730.0
 20
-217.6
 30
0.0
 40
5.0
  0
LINE
  5
58A
  8
SIZE
  6
CONTINUOUS
 62
    30
 10
-730.0
 20
-217.6
 30
0.0
 11
-720.0
 21
-217.6
 31
0.0
  0
TEXT
  5
58B
  8
SIZE
  6
CONTINUOUS
 62
    30
 10
-727.5
 20
-207.6
 30
0.0
 40
30.0
  1
55
 72
     1
 11
-702.5
 21
-207.6
 31
0.0
  0
POINT
  5
58C
  8
DEFPOINTS
  6
CONTINUOUS
 62
    30
 10
-675.0
 20
143.0
 30
0.0
  0
POINT
  5
58D
  8
DEFPOINTS
  6
CONTINUOUS
 62
    30
 10
-730.0
 20
0.0
 30
0.0
  0
POINT
  5
58E
  8
DEFPOINTS
  6
CONTINUOUS
 62
    30
 10
-730.0
 20
-217.6
 30
0.0
  0
LINE
  5
58F
  8
NOTE
  6
CONTINUOUS
 10
-696.0
 20
168.0
 30
0.0
 11
-656.0
 21
168.0
 31
0.0
  0
LINE
  5
590
  8
NOTE
  6
CONTINUOUS
 10
-676.0
 20
148.0
 30
0.0
 11
-676.0
 21
188.0
 31
0.0
  0
LINE
  5
591
  8
NOTE
  6
CONTINUOUS
 10
-1733.63623
 20
-448.850067
 30
0.0
 11
-925.38623
 21
-448.850067
 31
0.0
  0
LINE
  5
592
  8
NOTE
  6
CONTINUOUS
 10
-925.38623
 20
-448.850067
 30
0.0
 11
-675.0
 21
163.0
 31
0.0
  0
LINE
  5
593
  8
NOTE
  6
CONTINUOUS
 10
-675.0
 20
163.0
 30
0.0
 11
-675.252597
 21
161.016015
 31
0.0
  0
LINE
  5
594
  8
NOTE
  6
CONTINUOUS
 10
-675.0
 20
163.0
 30
0.0
 11
-676.210748
 21
161.408118
 31
0.0
  0
TEXT
  5
595
  8
NOTE
  6
CONTINUOUS
 10
-1733.63623
 20
-447.850098
 30
0.0
 40
40.0
  1
ヒートポンプ配管口(A) R1/2(φ21.7)
 50
0.000003
 41
0.730469
  7
STANDARD1
  0
LINE
  5
596
  8
NOTE
  6
CONTINUOUS
 10
-1764.182373
 20
-336.847321
 30
0.0
 11
-955.932434
 21
-336.847321
 31
0.0
  0
LINE
  5
597
  8
NOTE
  6
CONTINUOUS
 10
-955.932434
 20
-336.847321
 30
0.0
 11
-675.0
 21
168.0
 31
0.0
  0
LINE
  5
598
  8
NOTE
  6
CONTINUOUS
 10
-675.0
 20
168.0
 30
0.0
 11
-675.487048
 21
166.06021
 31
0.0
  0
LINE
  5
599
  8
NOTE
  6
CONTINUOUS
 10
-675.0
 20
168.0
 30
0.0
 11
-676.391691
 21
166.563617
 31
0.0
  0
TEXT
  5
59A
  8
NOTE
  6
CONTINUOUS
 10
-1764.182495
 20
-335.847351
 30
0.0
 40
40.0
  1
ヒートポンプ配管口(B) R1/2(φ21.7)
 50
0.000003
 41
0.730469
  7
STANDARD1
  0
LINE
  5
59B
  8
NOTE
  6
CONTINUOUS
 10
-1269.28894
 20
-564.925659
 30
0.0
 11
-850.03894
 21
-564.925659
 31
0.0
  0
LINE
  5
59C
  8
NOTE
  6
CONTINUOUS
 10
-850.03894
 20
-564.925659
 30
0.0
 11
-640.0
 21
155.5
 31
0.0
  0
LINE
  5
59D
  8
NOTE
  6
CONTINUOUS
 10
-640.0
 20
155.5
 30
0.0
 11
-640.043768
 21
153.500479
 31
0.0
  0
LINE
  5
59E
  8
NOTE
  6
CONTINUOUS
 10
-640.0
 20
155.5
 30
0.0
 11
-641.037665
 21
153.790248
 31
0.0
  0
TEXT
  5
59F
  8
NOTE
  6
CONTINUOUS
 10
-1269.28894
 20
-563.925659
 30
0.0
 40
40.0
  1
WD R3/4(φ27.2)
 50
0.000003
 41
0.650362
  7
STANDARD1
  0
LINE
  5
5A0
  8
NOTE
  6
CONTINUOUS
 10
-1422.083008
 20
-116.914635
 30
0.0
 11
-978.333008
 21
-116.914635
 31
0.0
  0
LINE
  5
5A1
  8
NOTE
  6
CONTINUOUS
 10
-978.333008
 20
-116.914635
 30
0.0
 11
-676.0
 21
168.000031
 31
0.0
  0
LINE
  5
5A2
  8
NOTE
  6
CONTINUOUS
 10
-676.0
 20
168.000031
 30
0.0
 11
-677.050912
 21
166.298389
 31
0.0
  0
LINE
  5
5A3
  8
NOTE
  6
CONTINUOUS
 10
-676.0
 20
168.000031
 30
0.0
 11
-677.760937
 21
167.051822
 31
0.0
  0
TEXT
  5
5A4
  8
NOTE
  6
CONTINUOUS
 10
-1422.083008
 20
-115.914696
 30
0.0
 40
40.0
  1
BHR R1/2(φ21.7)
 50
0.000009
 41
0.647804
  7
STANDARD1
  0
LINE
  5
5A5
  8
NOTE
  6
CONTINUOUS
 10
-1401.655762
 20
-208.553253
 30
0.0
 11
-982.405823
 21
-208.553253
 31
0.0
  0
LINE
  5
5A6
  8
NOTE
  6
CONTINUOUS
 10
-982.405823
 20
-208.553253
 30
0.0
 11
-676.0
 21
168.0
 31
0.0
  0
LINE
  5
5A7
  8
NOTE
  6
CONTINUOUS
 10
-676.0
 20
168.0
 30
0.0
 11
-676.817797
 21
166.17484
 31
0.0
  0
LINE
  5
5A8
  8
NOTE
  6
CONTINUOUS
 10
-676.0
 20
168.0
 30
0.0
 11
-677.620813
 21
166.828264
 31
0.0
  0
TEXT
  5
5A9
  8
NOTE
  6
CONTINUOUS
 10
-1401.655762
 20
-207.553314
 30
0.0
 40
40.0
  1
BH R1/2(φ21.7)
 50
0.000009
 41
0.650362
  7
STANDARD1
  0
LINE
  5
5AA
  8
NOTE
  6
CONTINUOUS
 10
-164.059723
 20
709.423584
 30
0.0
 11
-476.809723
 21
709.423584
 31
0.0
  0
LINE
  5
5AB
  8
NOTE
  6
CONTINUOUS
 10
-476.809723
 20
709.423584
 30
0.0
 11
-665.0
 21
200.0
 31
0.0
  0
LINE
  5
5AC
  8
NOTE
  6
CONTINUOUS
 10
-665.0
 20
200.0
 30
0.0
 11
-664.816123
 21
201.991529
 31
0.0
  0
LINE
  5
5AD
  8
NOTE
  6
CONTINUOUS
 10
-665.0
 20
200.0
 30
0.0
 11
-663.844993
 21
201.632776
 31
0.0
  0
TEXT
  5
5AE
  8
NOTE
  6
CONTINUOUS
 10
-416.059723
 20
710.423584
 30
0.0
 40
40.0
  1
HW φ49×69
 50
0.000003
 41
0.701389
  7
STANDARD1
  0
LINE
  5
5AF
  8
NOTE
  6
CONTINUOUS
 10
-185.503784
 20
514.796509
 30
0.0
 11
-457.753784
 21
514.796509
 31
0.0
  0
LINE
  5
5B0
  8
NOTE
  6
CONTINUOUS
 10
-457.753784
 20
514.796509
 30
0.0
 11
-611.0
 21
200.0
 31
0.0
  0
LINE
  5
5B1
  8
NOTE
  6
CONTINUOUS
 10
-611.0
 20
200.0
 30
0.0
 11
-610.619845
 21
201.963538
 31
0.0
  0
LINE
  5
5B2
  8
NOTE
  6
CONTINUOUS
 10
-611.0
 20
200.0
 30
0.0
 11
-609.689007
 21
201.510397
 31
0.0
  0
TEXT
  5
5B3
  8
NOTE
  6
CONTINUOUS
 10
-397.003784
 20
515.796509
 30
0.0
 40
40.0
  1
CL φ32.5
 50
0.000003
 41
0.679487
  7
STANDARD1
  0
LINE
  5
5B4
  8
NOTE
  6
CONTINUOUS
 10
-159.118347
 20
412.466034
 30
0.0
 11
-471.868347
 21
412.466034
 31
0.0
  0
LINE
  5
5B5
  8
NOTE
  6
CONTINUOUS
 10
-471.868347
 20
412.466034
 30
0.0
 11
-595.0
 21
200.0
 31
0.0
  0
LINE
  5
5B6
  8
NOTE
  6
CONTINUOUS
 10
-595.0
 20
200.0
 30
0.0
 11
-594.479199
 21
201.931001
 31
0.0
  0
LINE
  5
5B7
  8
NOTE
  6
CONTINUOUS
 10
-595.0
 20
200.0
 30
0.0
 11
-593.583473
 21
201.411896
 31
0.0
  0
TEXT
  5
5B8
  8
NOTE
  6
CONTINUOUS
 10
-411.118347
 20
413.466034
 30
0.0
 40
40.0
  1
EL φ49×69
 50
0.000003
 41
0.701389
  7
STANDARD1
  0
LINE
  5
5B9
  8
NOTE
  6
CONTINUOUS
 10
-164.059723
 20
611.607788
 30
0.0
 11
-476.809723
 21
611.607788
 31
0.0
  0
LINE
  5
5BA
  8
NOTE
  6
CONTINUOUS
 10
-476.809723
 20
611.607788
 30
0.0
 11
-665.0
 21
200.0
 31
0.0
  0
LINE
  5
5BB
  8
NOTE
  6
CONTINUOUS
 10
-665.0
 20
200.0
 30
0.0
 11
-664.667487
 21
201.972165
 31
0.0
  0
LINE
  5
5BC
  8
NOTE
  6
CONTINUOUS
 10
-665.0
 20
200.0
 30
0.0
 11
-663.725952
 21
201.541688
 31
0.0
  0
TEXT
  5
5BD
  8
NOTE
  6
CONTINUOUS
 10
-416.059723
 20
612.607788
 30
0.0
 40
40.0
  1
CW φ49×69
 50
359.999996
 41
0.701389
  7
STANDARD1
  0
TEXT
  5
5BE
  8
NOTE
  6
CONTINUOUS
 10
281.932434
 20
2231.810547
 30
0.0
 40
40.0
  1
メンテナンススペース
 50
90.000005
 41
0.84375
  7
STANDARD1
  0
LINE
  5
5BF
  8
NOTE
  6
CONTINUOUS
 10
100.0
 20
2193.0
 30
0.0
 11
60.0
 21
2193.0
 31
0.0
  0
LINE
  5
5C0
  8
NOTE
  6
CONTINUOUS
 10
80.0
 20
2173.0
 30
0.0
 11
80.0
 21
2213.0
 31
0.0
  0
TEXT
  5
5C1
  8
NOTE
  6
CONTINUOUS
 10
-1471.06543
 20
986.385864
 30
0.0
 40
40.0
  1
メンテナンススペース
 50
90.000005
 41
0.84375
  7
STANDARD1
  0
LINE
  5
5C2
  8
NOTE
  6
CONTINUOUS
 10
-645.0
 20
200.0
 30
0.0
 11
-685.0
 21
200.0
 31
0.0
  0
LINE
  5
5C3
  8
NOTE
  6
CONTINUOUS
 10
-665.0
 20
180.0
 30
0.0
 11
-665.0
 21
220.0
 31
0.0
  0
LINE
  5
5C4
  8
NOTE
  6
CONTINUOUS
 10
-620.0
 20
155.5
 30
0.0
 11
-660.0
 21
155.5
 31
0.0
  0
LINE
  5
5C5
  8
NOTE
  6
CONTINUOUS
 10
-640.0
 20
135.5
 30
0.0
 11
-640.0
 21
175.5
 31
0.0
  0
LINE
  5
5C6
  8
NOTE
  6
CONTINUOUS
 10
-569.0
 20
172.5
 30
0.0
 11
-609.0
 21
172.5
 31
0.0
  0
LINE
  5
5C7
  8
NOTE
  6
CONTINUOUS
 10
-589.0
 20
152.5
 30
0.0
 11
-589.0
 21
192.5
 31
0.0
  0
LINE
  5
5C8
  8
NOTE
  6
CONTINUOUS
 10
-56.0
 20
0.0
 30
0.0
 11
-96.0
 21
0.0
 31
0.0
  0
LINE
  5
5C9
  8
NOTE
  6
CONTINUOUS
 10
-76.0
 20
-20.0
 30
0.0
 11
-76.0
 21
20.0
 31
0.0
  0
LINE
  5
5CA
  8
NOTE
  6
CONTINUOUS
 10
-92.0
 20
0.0
 30
0.0
 11
-132.0
 21
0.0
 31
0.0
  0
LINE
  5
5CB
  8
NOTE
  6
CONTINUOUS
 10
-112.0
 20
-20.0
 30
0.0
 11
-112.0
 21
20.0
 31
0.0
  0
LINE
  5
5CC
  8
NOTE
  6
CONTINUOUS
 10
-626.0
 20
0.0
 30
0.0
 11
-666.0
 21
0.0
 31
0.0
  0
LINE
  5
5CD
  8
NOTE
  6
CONTINUOUS
 10
-646.0
 20
-20.0
 30
0.0
 11
-646.0
 21
20.0
 31
0.0
  0
TEXT
  5
5CE
  8
NOTE
  6
CONTINUOUS
 10
-1228.16272
 20
2466.358887
 30
0.0
 40
40.0
  1
メンテナンススペース
 50
0.000003
 41
0.84375
  7
STANDARD1
  0
TEXT
  5
5CF
  8
NOTE
  6
CONTINUOUS
 10
-562.224243
 20
2467.795166
 30
0.0
 40
40.0
  1
メンテナンススペース
 50
0.000003
 41
0.84375
  7
STANDARD1
  0
LINE
  5
5D0
  8
NOTE
  6
CONTINUOUS
 10
767.354492
 20
2020.0
 30
0.0
 11
511.104523
 21
2020.0
 31
0.0
  0
LINE
  5
5D1
  8
NOTE
  6
CONTINUOUS
 10
511.104523
 20
2020.0
 30
0.0
 11
80.0
 21
2193.0
 31
0.0
  0
LINE
  5
5D2
  8
NOTE
  6
CONTINUOUS
 10
80.0
 20
2193.0
 30
0.0
 11
81.98566
 21
2192.760928
 31
0.0
  0
LINE
  5
5D3
  8
NOTE
  6
CONTINUOUS
 10
80.0
 20
2193.0
 30
0.0
 11
81.600096
 21
2191.800127
 31
0.0
  0
TEXT
  5
5D4
  8
NOTE
  6
CONTINUOUS
 10
571.854492
 20
2021.0
 30
0.0
 40
40.0
  1
AH 2-M10
 50
0.000003
 41
0.644737
  7
STANDARD1
  0
LINE
  5
5D5
  8
NOTE
  6
CONTINUOUS
 10
-319.01123
 20
-150.0
 30
0.0
 11
-517.76123
 21
-150.0
 31
0.0
  0
LINE
  5
5D6
  8
NOTE
  6
CONTINUOUS
 10
-517.76123
 20
-150.0
 30
0.0
 11
-589.0
 21
172.5
 31
0.0
  0
LINE
  5
5D7
  8
NOTE
  6
CONTINUOUS
 10
-589.0
 20
172.5
 30
0.0
 11
-588.077855
 21
170.725275
 31
0.0
  0
LINE
  5
5D8
  8
NOTE
  6
CONTINUOUS
 10
-589.0
 20
172.5
 30
0.0
 11
-589.088761
 21
170.501971
 31
0.0
  0
TEXT
  5
5D9
  8
NOTE
  6
CONTINUOUS
 10
-457.01123
 20
-149.0
 30
0.0
 40
40.0
  1
D φ18
 50
359.999996
 41
0.721354
  7
STANDARD1
  0
LINE
  5
5DA
  8
NOTE
  6
CONTINUOUS
 10
-460.181366
 20
-250.0
 30
0.0
 11
-203.931366
 21
-250.0
 31
0.0
  0
LINE
  5
5DB
  8
NOTE
  6
CONTINUOUS
 10
-203.931366
 20
-250.0
 30
0.0
 11
-112.0
 21
0.0
 31
0.0
  0
LINE
  5
5DC
  8
NOTE
  6
CONTINUOUS
 10
-112.0
 20
0.0
 30
0.0
 11
-112.180909
 21
-1.991801
 31
0.0
  0
LINE
  5
5DD
  8
NOTE
  6
CONTINUOUS
 10
-112.0
 20
0.0
 30
0.0
 11
-113.152573
 21
-1.634496
 31
0.0
  0
TEXT
  5
5DE
  8
NOTE
  6
CONTINUOUS
 10
-460.181366
 20
-248.999969
 30
0.0
 40
40.0
  1
AH 3-M12
 50
359.999989
 41
0.644737
  7
STANDARD1
  0
TEXT
  5
5DF
  8
NOTE
  6
CONTINUOUS
 10
96.577644
 20
-206.419907
 30
0.0
 40
40.0
  1
（脚固定金具使用時のみ）
 50
0.000003
 41
0.84375
  7
STANDARD1
  0
LINE
  5
5E0
  8
NOTE
  6
CONTINUOUS
 10
343.864746
 20
-150.0
 30
0.0
 11
87.614738
 21
-150.0
 31
0.0
  0
LINE
  5
5E1
  8
NOTE
  6
CONTINUOUS
 10
87.614738
 20
-150.0
 30
0.0
 11
-76.0
 21
0.0
 31
0.0
  0
LINE
  5
5E2
  8
NOTE
  6
CONTINUOUS
 10
-76.0
 20
0.0
 30
0.0
 11
-74.226208
 21
-0.923937
 31
0.0
  0
LINE
  5
5E3
  8
NOTE
  6
CONTINUOUS
 10
-76.0
 20
0.0
 30
0.0
 11
-74.925819
 21
-1.68705
 31
0.0
  0
TEXT
  5
5E4
  8
NOTE
  6
CONTINUOUS
 10
148.364746
 20
-149.0
 30
0.0
 40
40.0
  1
AH 4-M12
 50
0.000003
 41
0.644737
  7
STANDARD1
  0
LINE
  5
5E5
  8
NOTE
  6
CONTINUOUS
 10
-397.861206
 20
300.0
 30
0.0
 11
-135.111206
 21
300.0
 31
0.0
  0
LINE
  5
5E6
  8
NOTE
  6
CONTINUOUS
 10
-135.111206
 20
300.0
 30
0.0
 11
-86.0
 21
18.0
 31
0.0
  0
LINE
  5
5E7
  8
NOTE
  6
CONTINUOUS
 10
-86.0
 20
18.0
 30
0.0
 11
-86.841412
 21
19.814394
 31
0.0
  0
LINE
  5
5E8
  8
NOTE
  6
CONTINUOUS
 10
-86.0
 20
18.0
 30
0.0
 11
-85.821487
 21
19.992017
 31
0.0
  0
TEXT
  5
5E9
  8
NOTE
  6
CONTINUOUS
 10
-397.861206
 20
301.0
 30
0.0
 40
40.0
  1
脚固定金具
 50
359.999996
 41
0.84375
  7
STANDARD1
  0
LINE
  5
5EA
  8
NOTE
  6
CONTINUOUS
 10
-675.0
 20
143.0
 30
0.0
 11
-675.0
 21
183.0
 31
0.0
  0
LINE
  5
5EB
  8
NOTE
  6
CONTINUOUS
 10
-655.0
 20
163.0
 30
0.0
 11
-695.0
 21
163.0
 31
0.0
  0
LINE
  5
5EC
  8
NOTE
  6
CONTINUOUS
 10
-675.0
 20
148.0
 30
0.0
 11
-675.0
 21
188.0
 31
0.0
  0
LINE
  5
5ED
  8
NOTE
  6
CONTINUOUS
 10
-655.0
 20
168.0
 30
0.0
 11
-695.0
 21
168.0
 31
0.0
  0
LINE
  5
5EE
  8
NOTE
  6
CONTINUOUS
 10
-575.0
 20
200.0
 30
0.0
 11
-615.0
 21
200.0
 31
0.0
  0
LINE
  5
5EF
  8
NOTE
  6
CONTINUOUS
 10
-595.0
 20
180.0
 30
0.0
 11
-595.0
 21
220.0
 31
0.0
  0
LINE
  5
5F0
  8
NOTE
  6
CONTINUOUS
 10
-611.0
 20
180.0
 30
0.0
 11
-611.0
 21
220.0
 31
0.0
  0
LINE
  5
5F1
  8
NOTE
  6
CONTINUOUS
 10
-591.0
 20
200.0
 30
0.0
 11
-631.0
 21
200.0
 31
0.0
  0
CIRCLE
  5
5F2
  8
ARRANGE
  6
CONTINUOUS
 10
0.0
 20
0.0
 30
0.0
 40
15.0
  0
CIRCLE
  5
5F3
  8
FIX
  6
CONTINUOUS
 10
80.0
 20
2193.0
 30
0.0
 40
5.0
  0
CIRCLE
  5
5F4
  8
FIX
  6
CONTINUOUS
 10
-646.0
 20
0.0
 30
0.0
 40
6.0
  0
CIRCLE
  5
5F5
  8
FIX
  6
CONTINUOUS
 10
-112.0
 20
0.0
 30
0.0
 40
6.0
  0
CIRCLE
  5
5F6
  8
FIX
  6
CONTINUOUS
 10
-76.0
 20
0.0
 30
0.0
 40
6.0
  0
LINE
  5
5F7
  8
SERVICESPACE
  6
DASHDOT
 10
-1330.0
 20
0.0
 30
0.0
 11
-1330.0
 21
2370.0
 31
0.0
  0
LINE
  5
5F8
  8
SERVICESPACE
  6
DASHDOT
 10
0.0
 20
2170.0
 30
0.0
 11
0.0
 21
2370.0
 31
0.0
  0
LINE
  5
5F9
  8
SERVICESPACE
  6
DASHDOT
 10
-1330.0
 20
2370.0
 30
0.0
 11
0.0
 21
2370.0
 31
0.0
  0
LINE
  5
5FA
  8
SERVICESPACE
  6
DASHDOT
 10
-730.0
 20
2170.0
 30
0.0
 11
0.0
 21
2170.0
 31
0.0
  0
LINE
  5
5FB
  8
SERVICESPACE
  6
DASHDOT
 10
-730.0
 20
0.0
 30
0.0
 11
-730.0
 21
2370.0
 31
0.0
  0
LINE
  5
5FC
  8
SERVICESPACE
  6
DASHDOT
 10
-730.0
 20
0.0
 30
0.0
 11
-1330.0
 21
0.0
 31
0.0
  0
LINE
  5
5FD
  8
SERVICESPACE
  6
DASHDOT
 10
-1330.0
 20
2370.0
 30
0.0
 11
-730.0
 21
0.0
 31
0.0
  0
LINE
  5
5FE
  8
SERVICESPACE
  6
DASHDOT
 10
-1330.0
 20
0.0
 30
0.0
 11
-730.0
 21
2370.0
 31
0.0
  0
LINE
  5
5FF
  8
SERVICESPACE
  6
DASHDOT
 10
-730.0
 20
2370.0
 30
0.0
 11
0.0
 21
2170.0
 31
0.0
  0
LINE
  5
600
  8
SERVICESPACE
  6
DASHDOT
 10
0.0
 20
2370.0
 30
0.0
 11
-730.0
 21
2170.0
 31
0.0
  0
TEXT
  5
601
  8
ETC
  6
CONTINUOUS
 10
359.236023
 20
2593.258301
 30
0.0
 40
40.0
  1
TTHT46W4
 50
0.000003
 41
0.6125
  7
STANDARD1
  0
TEXT
  5
602
  8
ETC
  6
CONTINUOUS
 10
359.236023
 20
2523.258301
 30
0.0
 40
40.0
  1
貯湯タンクユニット
 50
0.000003
 41
0.84375
  7
STANDARD1
  0
ENDSEC
  0
EOF
