  0
SECTION
  2
HEADER
  9
$ACADVER
  1
AC1009
  9
$INSBASE
 10
0.0
 20
0.0
 30
0.0
  9
$EXTMIN
 10
-952.4
 20
-800.876971
 30
0.0
  9
$EXTMAX
 10
1205.401566
 20
714.275732
 30
0.0
  9
$LIMMIN
 10
0.0
 20
0.0
  9
$LIMMAX
 10
12.0
 20
9.0
  9
$ORTHOMODE
 70
     0
  9
$REGENMODE
 70
     1
  9
$FILLMODE
 70
     1
  9
$QTEXTMODE
 70
     0
  9
$MIRRTEXT
 70
     1
  9
$DRAGMODE
 70
     2
  9
$LTSCALE
 40
1.0
  9
$OSMODE
 70
     0
  9
$ATTMODE
 70
     1
  9
$TEXTSIZE
 40
2.0
  9
$TRACEWID
 40
0.05
  9
$TEXTSTYLE
  7
STANDARD1
  9
$CLAYER
  8
0
  9
$CELTYPE
  6
CONTINUOUS
  9
$CECOLOR
 62
   256
  9
$DIMSCALE
 40
1.0
  9
$DIMASZ
 40
10.0
  9
$DIMEXO
 40
10.0
  9
$DIMDLI
 40
8.0
  9
$DIMRND
 40
0.0
  9
$DIMDLE
 40
0.0
  9
$DIMEXE
 40
12.5
  9
$DIMTP
 40
0.0
  9
$DIMTM
 40
0.0
  9
$DIMTXT
 40
30.0
  9
$DIMCEN
 40
2.5
  9
$DIMTSZ
 40
0.0
  9
$DIMTOL
 70
     0
  9
$DIMLIM
 70
     0
  9
$DIMTIH
 70
     0
  9
$DIMTOH
 70
     0
  9
$DIMSE1
 70
     0
  9
$DIMSE2
 70
     0
  9
$DIMTAD
 70
     3
  9
$DIMZIN
 70
    12
  9
$DIMBLK
  1

  9
$DIMASO
 70
     1
  9
$DIMSHO
 70
     1
  9
$DIMPOST
  1

  9
$DIMAPOST
  1

  9
$DIMALT
 70
     0
  9
$DIMALTD
 70
     4
  9
$DIMALTF
 40
25.4
  9
$DIMLFAC
 40
1.0
  9
$DIMTOFL
 70
     1
  9
$DIMTVP
 40
0.0
  9
$DIMTIX
 70
     0
  9
$DIMSOXD
 70
     0
  9
$DIMSAH
 70
     1
  9
$DIMBLK1
  1
_ORIGIN
  9
$DIMBLK2
  1
_ORIGIN
  9
$DIMSTYLE
  2
STANDARD
  9
$DIMCLRD
 70
     0
  9
$DIMCLRE
 70
     0
  9
$DIMCLRT
 70
     0
  9
$DIMTFAC
 40
1.0
  9
$DIMGAP
 40
0.09
  9
$LUNITS
 70
     2
  9
$LUPREC
 70
     3
  9
$SKETCHINC
 40
0.1
  9
$FILLETRAD
 40
0.0
  9
$AUNITS
 70
     0
  9
$AUPREC
 70
     0
  9
$MENU
  1
acad
  9
$ELEVATION
 40
0.0
  9
$PELEVATION
 40
0.0
  9
$THICKNESS
 40
0.0
  9
$LIMCHECK
 70
     0
  9
$BLIPMODE
 70
     0
  9
$CHAMFERA
 40
0.0
  9
$CHAMFERB
 40
0.0
  9
$SKPOLY
 70
     0
  9
$TDCREATE
 40
2452927.414676
  9
$TDUPDATE
 40
2452927.414676
  9
$TDINDWG
 40
0.0
  9
$TDUSRTIMER
 40
0.0
  9
$USRTIMER
 70
     1
  9
$ANGBASE
 50
0.0
  9
$ANGDIR
 70
     0
  9
$PDMODE
 70
     0
  9
$PDSIZE
 40
0.0
  9
$PLINEWID
 40
0.0
  9
$COORDS
 70
     1
  9
$SPLFRAME
 70
     0
  9
$SPLINETYPE
 70
     6
  9
$SPLINESEGS
 70
     8
  9
$ATTDIA
 70
     0
  9
$ATTREQ
 70
     1
  9
$HANDLING
 70
     1
  9
$HANDSEED
  5
507
  9
$SURFTAB1
 70
     6
  9
$SURFTAB2
 70
     6
  9
$SURFTYPE
 70
     6
  9
$SURFU
 70
     6
  9
$SURFV
 70
     6
  9
$UCSNAME
  2

  9
$UCSORG
 10
0.0
 20
0.0
 30
0.0
  9
$UCSXDIR
 10
1.0
 20
0.0
 30
0.0
  9
$UCSYDIR
 10
0.0
 20
1.0
 30
0.0
  9
$PUCSNAME
  2

  9
$PUCSORG
 10
0.0
 20
0.0
 30
0.0
  9
$PUCSXDIR
 10
1.0
 20
0.0
 30
0.0
  9
$PUCSYDIR
 10
0.0
 20
1.0
 30
0.0
  9
$USERI1
 70
     0
  9
$USERI2
 70
     0
  9
$USERI3
 70
     0
  9
$USERI4
 70
     0
  9
$USERI5
 70
     0
  9
$USERR1
 40
0.0
  9
$USERR2
 40
0.0
  9
$USERR3
 40
0.0
  9
$USERR4
 40
0.0
  9
$USERR5
 40
0.0
  9
$WORLDVIEW
 70
     1
  9
$SHADEDGE
 70
     3
  9
$SHADEDIF
 70
    70
  9
$TILEMODE
 70
     1
  9
$MAXACTVP
 70
    48
  9
$PLIMCHECK
 70
     0
  9
$PEXTMIN
 10
1.000000E+020
 20
1.000000E+020
 30
1.000000E+020
  9
$PEXTMAX
 10
-1.000000E+020
 20
-1.000000E+020
 30
-1.000000E+020
  9
$PLIMMIN
 10
0.0
 20
0.0
  9
$PLIMMAX
 10
12.0
 20
9.0
  9
$UNITMODE
 70
     0
  9
$VISRETAIN
 70
     1
  9
$PLINEGEN
 70
     0
  9
$PSLTSCALE
 70
     1
  0
ENDSEC
  0
SECTION
  2
TABLES
  0
TABLE
  2
VPORT
 70
     2
  0
VPORT
  2
*ACTIVE
 70
     0
 10
0.0
 20
0.0
 11
1.0
 21
1.0
 12
126.500783
 22
-43.300619
 13
0.0
 23
0.0
 14
1.0
 24
1.0
 15
0.0
 25
0.0
 16
0.0
 26
0.0
 36
1.0
 17
0.0
 27
0.0
 37
0.0
 40
1547.050654
 41
3.116197
 42
50.0
 43
0.0
 44
0.0
 50
0.0
 51
0.0
 71
     0
 72
   100
 73
     1
 74
     1
 75
     0
 76
     0
 77
     0
 78
     0
  0
ENDTAB
  0
TABLE
  2
LTYPE
 70
     4
  0
LTYPE
  2
CONTINUOUS
 70
     0
  3
Solid line
 72
    65
 73
     0
 40
0.0
  0
LTYPE
  2
DASHED
 70
     0
  3
-- -- -- -- -- -- -- -- -- -- -- -- -- -- --
 72
    65
 73
     2
 40
0.75
 49
0.5
 49
-0.25
  0
LTYPE
  2
DASHDOT
 70
     0
  3
__ . __ . __ . __ . __ . __ . __ . __ . __ . __
 72
    65
 73
     4
 40
125.0
 49
80.0
 49
-20.0
 49
5.0
 49
-20.0
  0
LTYPE
  2
DIVIDE
 70
     0
  3
__ . . __ . . __ . . __ . . __ . . __ . . __
 72
    65
 73
     6
 40
1.25
 49
0.5
 49
-0.25
 49
0.0
 49
-0.25
 49
0.0
 49
-0.25
  0
ENDTAB
  0
TABLE
  2
LAYER
 70
    12
  0
LAYER
  2
0
 70
     0
 62
     3
  6
CONTINUOUS
  0
LAYER
  2
OUTLINE
 70
     0
 62
     3
  6
CONTINUOUS
  0
LAYER
  2
DETAIL
 70
     0
 62
     5
  6
CONTINUOUS
  0
LAYER
  2
BASIS
 70
     0
 62
     6
  6
CONTINUOUS
  0
LAYER
  2
SIZE
 70
     0
 62
    30
  6
CONTINUOUS
  0
LAYER
  2
NOTE
 70
     0
 62
     4
  6
CONTINUOUS
  0
LAYER
  2
ARRANGE
 70
     0
 62
     1
  6
CONTINUOUS
  0
LAYER
  2
FIX
 70
     0
 62
    11
  6
CONTINUOUS
  0
LAYER
  2
SERVICESPACE
 70
     0
 62
     2
  6
CONTINUOUS
  0
LAYER
  2
ETC
 70
     0
 62
    61
  6
CONTINUOUS
  0
LAYER
  2
SYMBOLLINE
 70
     0
 62
     7
  6
CONTINUOUS
  0
LAYER
  2
DEFPOINTS
 70
     0
 62
     7
  6
CONTINUOUS
  0
ENDTAB
  0
TABLE
  2
STYLE
 70
     5
  0
STYLE
  2
STANDARD
 70
     0
 40
0.0
 41
1.0
 50
0.0
 71
     0
 42
0.2
  3
txt
  4

  0
STYLE
  2
STANDARD1
 70
     0
 40
0.0
 41
1.0
 50
0.0
 71
     0
 42
2.0
  3
MONOTXT
  4
BIGFONT
  0
STYLE
  2
STANDARD2
 70
     4
 40
0.0
 41
1.0
 50
0.0
 71
     0
 42
2.0
  3
MONOTXT
  4
BIGFONT
  0
STYLE
  2
STANDARD3
 70
     0
 40
0.0
 41
1.0
 50
0.0
 71
     0
 42
2.0
  3
MONOTXT
  4

  0
STYLE
  2
STANDARD4
 70
     4
 40
0.0
 41
1.0
 50
0.0
 71
     0
 42
2.0
  3
MONOTXT
  4

  0
ENDTAB
  0
TABLE
  2
VIEW
 70
     0
  0
ENDTAB
  0
TABLE
  2
UCS
 70
     0
  0
ENDTAB
  0
TABLE
  2
APPID
 70
     1
  0
APPID
  2
ACAD
 70
     0
  0
ENDTAB
  0
TABLE
  2
DIMSTYLE
 70
     1
  0
DIMSTYLE
  2
STANDARD
 70
     0
  3

  4

  5

  6

  7

 40
1.0
 41
0.18
 42
0.0625
 43
0.38
 44
0.18
 45
0.0
 46
0.0
 47
0.0
 48
0.0
140
0.18
141
0.09
142
0.0
143
25.4
144
1.0
145
0.0
146
1.0
147
0.09
 71
     0
 72
     0
 73
     1
 74
     1
 75
     0
 76
     0
 77
     0
 78
     0
170
     0
171
     2
172
     0
173
     0
174
     0
175
     0
176
     0
177
     0
178
     0
  0
ENDTAB
  0
ENDSEC
  0
SECTION
  2
BLOCKS
  0
BLOCK
  8
0
  2
$MODEL_SPACE
 70
     0
 10
0.0
 20
0.0
 30
0.0
  3
$MODEL_SPACE
  1

  0
ENDBLK
  5
1A
  8
0
  0
BLOCK
 67
     1
  8
0
  2
$PAPER_SPACE
 70
     0
 10
0.0
 20
0.0
 30
0.0
  3
$PAPER_SPACE
  1

  0
ENDBLK
  5
17
 67
     1
  8
0
  0
BLOCK
  8
SIZE
  2
*D0
 70
     1
 10
0.0
 20
0.0
 30
0.0
  3
*D0
  1

  0
TEXT
  5
35
  8
SIZE
  6
CONTINUOUS
 10
768.999976
 20
37.230206
 30
0.0
 40
2.8
  1
145
 50
90.000005
 41
0.7
  7
STANDARD1
  0
LINE
  5
36
  8
SIZE
  6
CONTINUOUS
 10
278.0
 20
12.0
 30
0.0
 11
772.0
 21
12.0
 31
0.0
  0
LINE
  5
37
  8
SIZE
  6
CONTINUOUS
 10
461.0
 20
-133.0
 30
0.0
 11
772.0
 21
-133.0
 31
0.0
  0
LINE
  5
38
  8
SIZE
  6
CONTINUOUS
 10
770.0
 20
44.510204
 30
0.0
 11
770.0
 21
-138.0
 31
0.0
  0
INSERT
  5
3A
  8
SIZE
  2
DOT
 10
770.0
 20
12.0
 30
0.0
 50
90.0
  0
INSERT
  5
3B
  8
SIZE
  2
DOT
 10
770.0
 20
-133.0
 30
0.0
 50
270.0
  0
POINT
  5
3C
  8
DEFPOINTS
  6
BYBLOCK
 10
460.0
 20
-133.0
 30
0.0
  0
POINT
  5
3D
  8
DEFPOINTS
  6
BYBLOCK
 10
277.0
 20
12.0
 30
0.0
  0
POINT
  5
3E
  8
DEFPOINTS
  6
BYBLOCK
 10
770.0
 20
12.0
 30
0.0
  0
ENDBLK
  5
3F
  8
SIZE
  0
BLOCK
  8
SIZE
  2
DOT
 70
     0
 10
0.0
 20
0.0
 30
0.0
  3
DOT
  1

  0
POLYLINE
  5
41
  8
0
  6
BYBLOCK
 66
     1
 10
0.0
 20
0.0
 30
0.0
 70
     1
 40
0.5
 41
0.5
  0
VERTEX
  5
42
  8
0
  6
BYBLOCK
 10
-0.25
 20
0.0
 30
0.0
 42
1.0
  0
VERTEX
  5
43
  8
0
  6
BYBLOCK
 10
0.25
 20
0.0
 30
0.0
 42
1.0
  0
SEQEND
  5
44
  8
0
  6
BYBLOCK
  0
LINE
  5
45
  8
0
  6
BYBLOCK
 10
-0.5
 20
0.0
 30
0.0
 11
-1.0
 21
0.0
 31
0.0
  0
ENDBLK
  5
46
  8
SIZE
  0
BLOCK
  8
SIZE
  2
*D2
 70
     1
 10
0.0
 20
0.0
 30
0.0
  3
*D2
  1

  0
TEXT
  5
49
  8
SIZE
  6
CONTINUOUS
 10
678.999976
 20
37.230206
 30
0.0
 40
2.8
  1
115
 50
90.000005
 41
0.7
  7
STANDARD1
  0
LINE
  5
4A
  8
SIZE
  6
CONTINUOUS
 10
278.0
 20
12.0
 30
0.0
 11
682.0
 21
12.0
 31
0.0
  0
LINE
  5
4B
  8
SIZE
  6
CONTINUOUS
 10
471.0
 20
-103.0
 30
0.0
 11
682.0
 21
-103.0
 31
0.0
  0
LINE
  5
4C
  8
SIZE
  6
CONTINUOUS
 10
680.0
 20
44.510204
 30
0.0
 11
680.0
 21
-108.0
 31
0.0
  0
INSERT
  5
4D
  8
SIZE
  2
DOT
 10
680.0
 20
12.0
 30
0.0
 50
90.0
  0
INSERT
  5
4E
  8
SIZE
  2
DOT
 10
680.0
 20
-103.0
 30
0.0
 50
270.0
  0
POINT
  5
4F
  8
DEFPOINTS
  6
BYBLOCK
 10
470.0
 20
-103.0
 30
0.0
  0
POINT
  5
50
  8
DEFPOINTS
  6
BYBLOCK
 10
277.0
 20
12.0
 30
0.0
  0
POINT
  5
51
  8
DEFPOINTS
  6
BYBLOCK
 10
680.0
 20
12.0
 30
0.0
  0
ENDBLK
  5
52
  8
SIZE
  0
BLOCK
  8
SIZE
  2
*D3
 70
     1
 10
0.0
 20
0.0
 30
0.0
  3
*D3
  1

  0
TEXT
  5
55
  8
SIZE
  6
CONTINUOUS
 10
-911.000024
 20
-152.940002
 30
0.0
 40
2.8
  1
357
 50
90.000005
 41
0.7
  7
STANDARD1
  0
LINE
  5
56
  8
SIZE
  6
CONTINUOUS
 10
-279.0
 20
28.5
 30
0.0
 11
-912.0
 21
28.5
 31
0.0
  0
LINE
  5
57
  8
SIZE
  6
CONTINUOUS
 10
-279.0
 20
-328.5
 30
0.0
 11
-912.0
 21
-328.5
 31
0.0
  0
LINE
  5
58
  8
SIZE
  6
CONTINUOUS
 10
-910.0
 20
28.5
 30
0.0
 11
-910.0
 21
-328.5
 31
0.0
  0
INSERT
  5
59
  8
SIZE
  2
DOT
 10
-910.0
 20
28.5
 30
0.0
 50
90.0
  0
INSERT
  5
5A
  8
SIZE
  2
DOT
 10
-910.0
 20
-328.5
 30
0.0
 50
270.0
  0
POINT
  5
5B
  8
DEFPOINTS
  6
BYBLOCK
 10
-278.0
 20
-328.5
 30
0.0
  0
POINT
  5
5C
  8
DEFPOINTS
  6
BYBLOCK
 10
-278.0
 20
28.5
 30
0.0
  0
POINT
  5
5D
  8
DEFPOINTS
  6
BYBLOCK
 10
-910.0
 20
28.5
 30
0.0
  0
ENDBLK
  5
5E
  8
SIZE
  0
BLOCK
  8
SIZE
  2
*D4
 70
     1
 10
0.0
 20
0.0
 30
0.0
  3
*D4
  1

  0
TEXT
  5
61
  8
SIZE
  6
CONTINUOUS
 10
-811.000024
 20
-152.940002
 30
0.0
 40
2.8
  1
324
 50
90.000005
 41
0.7
  7
STANDARD1
  0
LINE
  5
62
  8
SIZE
  6
CONTINUOUS
 10
-274.0
 20
12.0
 30
0.0
 11
-812.0
 21
12.0
 31
0.0
  0
LINE
  5
63
  8
SIZE
  6
CONTINUOUS
 10
-274.0
 20
-312.0
 30
0.0
 11
-812.0
 21
-312.0
 31
0.0
  0
LINE
  5
64
  8
SIZE
  6
CONTINUOUS
 10
-810.0
 20
12.0
 30
0.0
 11
-810.0
 21
-312.0
 31
0.0
  0
INSERT
  5
65
  8
SIZE
  2
DOT
 10
-810.0
 20
12.0
 30
0.0
 50
90.0
  0
INSERT
  5
66
  8
SIZE
  2
DOT
 10
-810.0
 20
-312.0
 30
0.0
 50
270.0
  0
POINT
  5
67
  8
DEFPOINTS
  6
BYBLOCK
 10
-273.0
 20
-312.0
 30
0.0
  0
POINT
  5
68
  8
DEFPOINTS
  6
BYBLOCK
 10
-273.0
 20
12.0
 30
0.0
  0
POINT
  5
69
  8
DEFPOINTS
  6
BYBLOCK
 10
-810.0
 20
12.0
 30
0.0
  0
ENDBLK
  5
6A
  8
SIZE
  0
BLOCK
  8
SIZE
  2
*D5
 70
     1
 10
0.0
 20
0.0
 30
0.0
  3
*D5
  1

  0
TEXT
  5
6D
  8
SIZE
  6
CONTINUOUS
 10
-334.440002
 20
422.875726
 30
0.0
 40
2.8
  1
157
 50
0.000003
 41
0.7
  7
STANDARD1
  0
LINE
  5
6E
  8
SIZE
  6
CONTINUOUS
 10
-410.0
 20
-19.0
 30
0.0
 11
-410.0
 21
423.875732
 31
0.0
  0
LINE
  5
6F
  8
SIZE
  6
CONTINUOUS
 10
-253.0
 20
33.0
 30
0.0
 11
-253.0
 21
423.875732
 31
0.0
  0
LINE
  5
70
  8
SIZE
  6
CONTINUOUS
 10
-410.0
 20
421.875732
 30
0.0
 11
-253.0
 21
421.875732
 31
0.0
  0
INSERT
  5
71
  8
SIZE
  2
DOT
 10
-410.0
 20
421.875732
 30
0.0
 50
180.0
  0
INSERT
  5
72
  8
SIZE
  2
DOT
 10
-253.0
 20
421.875732
 30
0.0
  0
POINT
  5
73
  8
DEFPOINTS
  6
BYBLOCK
 10
-253.0
 20
32.0
 30
0.0
  0
POINT
  5
74
  8
DEFPOINTS
  6
BYBLOCK
 10
-410.0
 20
-20.0
 30
0.0
  0
POINT
  5
75
  8
DEFPOINTS
  6
BYBLOCK
 10
-410.0
 20
421.875732
 30
0.0
  0
ENDBLK
  5
76
  8
SIZE
  0
BLOCK
  8
SIZE
  2
*D6
 70
     1
 10
0.0
 20
0.0
 30
0.0
  3
*D6
  1

  0
TEXT
  5
79
  8
SIZE
  6
CONTINUOUS
 10
-0.94
 20
422.875726
 30
0.0
 40
2.8
  1
510
 50
0.000003
 41
0.7
  7
STANDARD1
  0
LINE
  5
7A
  8
SIZE
  6
CONTINUOUS
 10
257.0
 20
33.0
 30
0.0
 11
257.0
 21
423.875732
 31
0.0
  0
LINE
  5
7B
  8
SIZE
  6
CONTINUOUS
 10
-253.0
 20
33.0
 30
0.0
 11
-253.0
 21
423.875732
 31
0.0
  0
LINE
  5
7C
  8
SIZE
  6
CONTINUOUS
 10
257.0
 20
421.875732
 30
0.0
 11
-253.0
 21
421.875732
 31
0.0
  0
INSERT
  5
7D
  8
SIZE
  2
DOT
 10
257.0
 20
421.875732
 30
0.0
  0
INSERT
  5
7E
  8
SIZE
  2
DOT
 10
-253.0
 20
421.875732
 30
0.0
 50
180.0
  0
POINT
  5
7F
  8
DEFPOINTS
  6
BYBLOCK
 10
-253.0
 20
32.0
 30
0.0
  0
POINT
  5
80
  8
DEFPOINTS
  6
BYBLOCK
 10
257.0
 20
32.0
 30
0.0
  0
POINT
  5
81
  8
DEFPOINTS
  6
BYBLOCK
 10
257.0
 20
421.875732
 30
0.0
  0
ENDBLK
  5
82
  8
SIZE
  0
BLOCK
  8
SIZE
  2
*D7
 70
     1
 10
0.0
 20
0.0
 30
0.0
  3
*D7
  1

  0
TEXT
  5
85
  8
SIZE
  6
CONTINUOUS
 10
330.559998
 20
422.875726
 30
0.0
 40
2.8
  1
153
 50
0.000003
 41
0.7
  7
STANDARD1
  0
LINE
  5
86
  8
SIZE
  6
CONTINUOUS
 10
410.0
 20
-19.0
 30
0.0
 11
410.0
 21
423.875732
 31
0.0
  0
LINE
  5
87
  8
SIZE
  6
CONTINUOUS
 10
257.0
 20
33.0
 30
0.0
 11
257.0
 21
423.875732
 31
0.0
  0
LINE
  5
88
  8
SIZE
  6
CONTINUOUS
 10
410.0
 20
421.875732
 30
0.0
 11
257.0
 21
421.875732
 31
0.0
  0
INSERT
  5
89
  8
SIZE
  2
DOT
 10
410.0
 20
421.875732
 30
0.0
  0
INSERT
  5
8A
  8
SIZE
  2
DOT
 10
257.0
 20
421.875732
 30
0.0
 50
180.0
  0
POINT
  5
8B
  8
DEFPOINTS
  6
BYBLOCK
 10
257.0
 20
32.0
 30
0.0
  0
POINT
  5
8C
  8
DEFPOINTS
  6
BYBLOCK
 10
410.0
 20
-20.0
 30
0.0
  0
POINT
  5
8D
  8
DEFPOINTS
  6
BYBLOCK
 10
410.0
 20
421.875732
 30
0.0
  0
ENDBLK
  5
8E
  8
SIZE
  0
BLOCK
  8
SIZE
  2
*D8
 70
     1
 10
0.0
 20
0.0
 30
0.0
  3
*D8
  1

  0
TEXT
  5
91
  8
SIZE
  6
CONTINUOUS
 10
255.039993
 20
-463.000006
 30
0.0
 40
2.8
  1
50
 50
0.000003
 41
0.7
  7
STANDARD1
  0
LINE
  5
92
  8
SIZE
  6
CONTINUOUS
 10
232.0
 20
-329.5
 30
0.0
 11
232.0
 21
-466.0
 31
0.0
  0
LINE
  5
93
  8
SIZE
  6
CONTINUOUS
 10
282.0
 20
-329.5
 30
0.0
 11
282.0
 21
-466.0
 31
0.0
  0
LINE
  5
94
  8
SIZE
  6
CONTINUOUS
 10
232.0
 20
-464.0
 30
0.0
 11
282.0
 21
-464.0
 31
0.0
  0
INSERT
  5
95
  8
SIZE
  2
DOT
 10
232.0
 20
-464.0
 30
0.0
 50
180.0
  0
INSERT
  5
96
  8
SIZE
  2
DOT
 10
282.0
 20
-464.0
 30
0.0
  0
POINT
  5
97
  8
DEFPOINTS
  6
BYBLOCK
 10
282.0
 20
-328.5
 30
0.0
  0
POINT
  5
98
  8
DEFPOINTS
  6
BYBLOCK
 10
232.0
 20
-328.5
 30
0.0
  0
POINT
  5
99
  8
DEFPOINTS
  6
BYBLOCK
 10
232.0
 20
-464.0
 30
0.0
  0
ENDBLK
  5
9A
  8
SIZE
  0
BLOCK
  8
SIZE
  2
*D9
 70
     1
 10
0.0
 20
0.0
 30
0.0
  3
*D9
  1

  0
TEXT
  5
9D
  8
SIZE
  6
CONTINUOUS
 10
-41.57662
 20
-369.938019
 30
0.0
 40
2.8
  1
14
 50
90.000005
 41
0.7
  7
STANDARD1
  0
LINE
  5
9E
  8
SIZE
  6
CONTINUOUS
 10
-40.576618
 20
-371.338013
 30
0.0
 11
-40.576618
 21
-295.0
 31
0.0
  0
INSERT
  5
9F
  8
SIZE
  2
DOT
 10
-40.576618
 20
-314.0
 30
0.0
 50
270.0
  0
INSERT
  5
A0
  8
SIZE
  2
DOT
 10
-40.576618
 20
-300.0
 30
0.0
 50
90.0
  0
POINT
  5
A1
  8
DEFPOINTS
  6
BYBLOCK
 10
410.0
 20
-300.0
 30
0.0
  0
POINT
  5
A2
  8
DEFPOINTS
  6
BYBLOCK
 10
80.0
 20
-314.0
 30
0.0
  0
POINT
  5
A3
  8
DEFPOINTS
  6
BYBLOCK
 10
-40.576618
 20
-314.0
 30
0.0
  0
ENDBLK
  5
A4
  8
SIZE
  0
BLOCK
  8
SIZE
  2
*D10
 70
     1
 10
0.0
 20
0.0
 30
0.0
  3
*D10
  1

  0
TEXT
  5
A7
  8
SIZE
  6
CONTINUOUS
 10
-150.940002
 20
-562.999976
 30
0.0
 40
2.8
  1
464
 50
0.000003
 41
0.7
  7
STANDARD1
  0
LINE
  5
A8
  8
SIZE
  6
CONTINUOUS
 10
84.0
 20
-311.0
 30
0.0
 11
84.0
 21
-566.0
 31
0.0
  0
LINE
  5
A9
  8
SIZE
  6
CONTINUOUS
 10
-380.0
 20
-311.0
 30
0.0
 11
-380.0
 21
-566.0
 31
0.0
  0
LINE
  5
AA
  8
SIZE
  6
CONTINUOUS
 10
84.0
 20
-564.0
 30
0.0
 11
-380.0
 21
-564.0
 31
0.0
  0
INSERT
  5
AB
  8
SIZE
  2
DOT
 10
84.0
 20
-564.0
 30
0.0
  0
INSERT
  5
AC
  8
SIZE
  2
DOT
 10
-380.0
 20
-564.0
 30
0.0
 50
180.0
  0
POINT
  5
AD
  8
DEFPOINTS
  6
BYBLOCK
 10
-380.0
 20
-310.0
 30
0.0
  0
POINT
  5
AE
  8
DEFPOINTS
  6
BYBLOCK
 10
84.0
 20
-310.0
 30
0.0
  0
POINT
  5
AF
  8
DEFPOINTS
  6
BYBLOCK
 10
84.0
 20
-564.0
 30
0.0
  0
ENDBLK
  5
B0
  8
SIZE
  0
BLOCK
  8
SIZE
  2
*D11
 70
     1
 10
0.0
 20
0.0
 30
0.0
  3
*D11
  1

  0
TEXT
  5
B3
  8
SIZE
  6
CONTINUOUS
 10
-281.940002
 20
-463.000006
 30
0.0
 40
2.8
  1
262
 50
0.000003
 41
0.7
  7
STANDARD1
  0
LINE
  5
B4
  8
SIZE
  6
CONTINUOUS
 10
-148.0
 20
-365.0
 30
0.0
 11
-148.0
 21
-466.0
 31
0.0
  0
LINE
  5
B5
  8
SIZE
  6
CONTINUOUS
 10
-410.0
 20
-281.0
 30
0.0
 11
-410.0
 21
-466.0
 31
0.0
  0
LINE
  5
B6
  8
SIZE
  6
CONTINUOUS
 10
-148.0
 20
-464.0
 30
0.0
 11
-410.0
 21
-464.0
 31
0.0
  0
INSERT
  5
B7
  8
SIZE
  2
DOT
 10
-148.0
 20
-464.0
 30
0.0
  0
INSERT
  5
B8
  8
SIZE
  2
DOT
 10
-410.0
 20
-464.0
 30
0.0
 50
180.0
  0
POINT
  5
B9
  8
DEFPOINTS
  6
BYBLOCK
 10
-410.0
 20
-280.0
 30
0.0
  0
POINT
  5
BA
  8
DEFPOINTS
  6
BYBLOCK
 10
-148.0
 20
-364.0
 30
0.0
  0
POINT
  5
BB
  8
DEFPOINTS
  6
BYBLOCK
 10
-148.0
 20
-464.0
 30
0.0
  0
ENDBLK
  5
BC
  8
SIZE
  0
BLOCK
  8
SIZE
  2
*D12
 70
     1
 10
0.0
 20
0.0
 30
0.0
  3
*D12
  1

  0
TEXT
  5
BF
  8
SIZE
  6
CONTINUOUS
 10
588.999976
 20
-23.460001
 30
0.0
 40
2.8
  1
43
 50
90.000005
 41
0.7
  7
STANDARD1
  0
LINE
  5
C0
  8
SIZE
  6
CONTINUOUS
 10
471.0
 20
-43.0
 30
0.0
 11
592.0
 21
-43.0
 31
0.0
  0
LINE
  5
C1
  8
SIZE
  6
CONTINUOUS
 10
391.0
 20
0.0
 30
0.0
 11
592.0
 21
0.0
 31
0.0
  0
LINE
  5
C2
  8
SIZE
  6
CONTINUOUS
 10
590.0
 20
-43.0
 30
0.0
 11
590.0
 21
0.0
 31
0.0
  0
INSERT
  5
C3
  8
SIZE
  2
DOT
 10
590.0
 20
-43.0
 30
0.0
 50
270.0
  0
INSERT
  5
C4
  8
SIZE
  2
DOT
 10
590.0
 20
0.0
 30
0.0
 50
90.0
  0
POINT
  5
C5
  8
DEFPOINTS
  6
BYBLOCK
 10
390.0
 20
0.0
 30
0.0
  0
POINT
  5
C6
  8
DEFPOINTS
  6
BYBLOCK
 10
470.0
 20
-43.0
 30
0.0
  0
POINT
  5
C7
  8
DEFPOINTS
  6
BYBLOCK
 10
590.0
 20
-43.0
 30
0.0
  0
ENDBLK
  5
C8
  8
SIZE
  0
BLOCK
  8
SIZE
  2
*D13
 70
     1
 10
0.0
 20
0.0
 30
0.0
  3
*D13
  1

  0
TEXT
  5
CB
  8
SIZE
  6
CONTINUOUS
 10
352.210724
 20
322.875726
 30
0.0
 40
2.8
  1
40
 50
0.000003
 41
0.7
  7
STANDARD1
  0
LINE
  5
CC
  8
SIZE
  6
CONTINUOUS
 10
450.0
 20
-82.0
 30
0.0
 11
450.0
 21
323.875732
 31
0.0
  0
LINE
  5
CD
  8
SIZE
  6
CONTINUOUS
 10
410.0
 20
-19.0
 30
0.0
 11
410.0
 21
323.875732
 31
0.0
  0
LINE
  5
CE
  8
SIZE
  6
CONTINUOUS
 10
455.0
 20
321.875732
 30
0.0
 11
350.81073
 21
321.875732
 31
0.0
  0
INSERT
  5
CF
  8
SIZE
  2
DOT
 10
450.0
 20
321.875732
 30
0.0
  0
INSERT
  5
D0
  8
SIZE
  2
DOT
 10
410.0
 20
321.875732
 30
0.0
 50
180.0
  0
POINT
  5
D1
  8
DEFPOINTS
  6
BYBLOCK
 10
410.0
 20
-20.0
 30
0.0
  0
POINT
  5
D2
  8
DEFPOINTS
  6
BYBLOCK
 10
450.0
 20
-83.0
 30
0.0
  0
POINT
  5
D3
  8
DEFPOINTS
  6
BYBLOCK
 10
450.0
 20
321.875732
 30
0.0
  0
ENDBLK
  5
D4
  8
SIZE
  0
BLOCK
  8
SIZE
  2
*D14
 70
     1
 10
0.0
 20
0.0
 30
0.0
  3
*D14
  1

  0
TEXT
  5
D7
  8
SIZE
  6
CONTINUOUS
 10
352.210724
 20
222.875726
 30
0.0
 40
2.8
  1
30
 50
0.000003
 41
0.7
  7
STANDARD1
  0
LINE
  5
D8
  8
SIZE
  6
CONTINUOUS
 10
440.0
 20
-112.0
 30
0.0
 11
440.0
 21
223.875732
 31
0.0
  0
LINE
  5
D9
  8
SIZE
  6
CONTINUOUS
 10
410.0
 20
-19.0
 30
0.0
 11
410.0
 21
223.875732
 31
0.0
  0
LINE
  5
DA
  8
SIZE
  6
CONTINUOUS
 10
445.0
 20
221.875732
 30
0.0
 11
350.81073
 21
221.875732
 31
0.0
  0
INSERT
  5
DB
  8
SIZE
  2
DOT
 10
440.0
 20
221.875732
 30
0.0
  0
INSERT
  5
DC
  8
SIZE
  2
DOT
 10
410.0
 20
221.875732
 30
0.0
 50
180.0
  0
POINT
  5
DD
  8
DEFPOINTS
  6
BYBLOCK
 10
410.0
 20
-20.0
 30
0.0
  0
POINT
  5
DE
  8
DEFPOINTS
  6
BYBLOCK
 10
440.0
 20
-113.0
 30
0.0
  0
POINT
  5
DF
  8
DEFPOINTS
  6
BYBLOCK
 10
440.0
 20
221.875732
 30
0.0
  0
ENDBLK
  5
E0
  8
SIZE
  0
BLOCK
  8
SIZE
  2
*D15
 70
     1
 10
0.0
 20
0.0
 30
0.0
  3
*D15
  1

  0
TEXT
  5
E3
  8
SIZE
  6
CONTINUOUS
 10
948.999976
 20
-152.940002
 30
0.0
 40
2.8
  1
300
 50
90.000005
 41
0.7
  7
STANDARD1
  0
LINE
  5
E4
  8
SIZE
  6
CONTINUOUS
 10
391.0
 20
0.0
 30
0.0
 11
952.0
 21
0.0
 31
0.0
  0
LINE
  5
E5
  8
SIZE
  6
CONTINUOUS
 10
391.0
 20
-300.0
 30
0.0
 11
952.0
 21
-300.0
 31
0.0
  0
LINE
  5
E6
  8
SIZE
  6
CONTINUOUS
 10
950.0
 20
0.0
 30
0.0
 11
950.0
 21
-300.0
 31
0.0
  0
INSERT
  5
E7
  8
SIZE
  2
DOT
 10
950.0
 20
0.0
 30
0.0
 50
90.0
  0
INSERT
  5
E8
  8
SIZE
  2
DOT
 10
950.0
 20
-300.0
 30
0.0
 50
270.0
  0
POINT
  5
E9
  8
DEFPOINTS
  6
BYBLOCK
 10
390.0
 20
-300.0
 30
0.0
  0
POINT
  5
EA
  8
DEFPOINTS
  6
BYBLOCK
 10
390.0
 20
0.0
 30
0.0
  0
POINT
  5
EB
  8
DEFPOINTS
  6
BYBLOCK
 10
950.0
 20
0.0
 30
0.0
  0
ENDBLK
  5
EC
  8
SIZE
  0
BLOCK
  8
SIZE
  2
*D16
 70
     1
 10
0.0
 20
0.0
 30
0.0
  3
*D16
  1

  0
TEXT
  5
EF
  8
SIZE
  6
CONTINUOUS
 10
438.040009
 20
422.875726
 30
0.0
 40
2.8
  1
60
 50
0.000003
 41
0.7
  7
STANDARD1
  0
LINE
  5
F0
  8
SIZE
  6
CONTINUOUS
 10
470.0
 20
-42.0
 30
0.0
 11
470.0
 21
423.875732
 31
0.0
  0
LINE
  5
F1
  8
SIZE
  6
CONTINUOUS
 10
410.0
 20
121.0
 30
0.0
 11
410.0
 21
423.875732
 31
0.0
  0
LINE
  5
F2
  8
SIZE
  6
CONTINUOUS
 10
470.0
 20
421.875732
 30
0.0
 11
410.0
 21
421.875732
 31
0.0
  0
INSERT
  5
F3
  8
SIZE
  2
DOT
 10
470.0
 20
421.875732
 30
0.0
  0
INSERT
  5
F4
  8
SIZE
  2
DOT
 10
410.0
 20
421.875732
 30
0.0
 50
180.0
  0
POINT
  5
F5
  8
DEFPOINTS
  6
BYBLOCK
 10
410.0
 20
120.0
 30
0.0
  0
POINT
  5
F6
  8
DEFPOINTS
  6
BYBLOCK
 10
470.0
 20
-43.0
 30
0.0
  0
POINT
  5
F7
  8
DEFPOINTS
  6
BYBLOCK
 10
470.0
 20
421.875732
 30
0.0
  0
ENDBLK
  5
F8
  8
SIZE
  0
BLOCK
  8
SIZE
  2
*D17
 70
     1
 10
0.0
 20
0.0
 30
0.0
  3
*D17
  1

  0
TEXT
  5
FB
  8
SIZE
  6
CONTINUOUS
 10
448.040009
 20
522.875757
 30
0.0
 40
2.8
  1
80
 50
0.000003
 41
0.7
  7
STANDARD1
  0
LINE
  5
FC
  8
SIZE
  6
CONTINUOUS
 10
490.0
 20
-96.670143
 30
0.0
 11
490.0
 21
523.875732
 31
0.0
  0
LINE
  5
FD
  8
SIZE
  6
CONTINUOUS
 10
410.0
 20
-19.0
 30
0.0
 11
410.0
 21
523.875732
 31
0.0
  0
LINE
  5
FE
  8
SIZE
  6
CONTINUOUS
 10
490.0
 20
521.875732
 30
0.0
 11
410.0
 21
521.875732
 31
0.0
  0
INSERT
  5
FF
  8
SIZE
  2
DOT
 10
490.0
 20
521.875732
 30
0.0
  0
INSERT
  5
100
  8
SIZE
  2
DOT
 10
410.0
 20
521.875732
 30
0.0
 50
180.0
  0
POINT
  5
101
  8
DEFPOINTS
  6
BYBLOCK
 10
410.0
 20
-20.0
 30
0.0
  0
POINT
  5
102
  8
DEFPOINTS
  6
BYBLOCK
 10
490.0
 20
-97.670143
 30
0.0
  0
POINT
  5
103
  8
DEFPOINTS
  6
BYBLOCK
 10
490.0
 20
521.875732
 30
0.0
  0
ENDBLK
  5
104
  8
SIZE
  0
BLOCK
  8
SIZE
  2
*D18
 70
     1
 10
0.0
 20
0.0
 30
0.0
  3
*D18
  1

  0
TEXT
  5
107
  8
SIZE
  6
CONTINUOUS
 10
858.999976
 20
-266.959991
 30
0.0
 40
2.8
  1
70
 50
90.000005
 41
0.7
  7
STANDARD1
  0
LINE
  5
108
  8
SIZE
  6
CONTINUOUS
 10
411.0
 20
-230.0
 30
0.0
 11
862.0
 21
-230.0
 31
0.0
  0
LINE
  5
109
  8
SIZE
  6
CONTINUOUS
 10
391.0
 20
-300.0
 30
0.0
 11
862.0
 21
-300.0
 31
0.0
  0
LINE
  5
10A
  8
SIZE
  6
CONTINUOUS
 10
860.0
 20
-230.0
 30
0.0
 11
860.0
 21
-300.0
 31
0.0
  0
INSERT
  5
10B
  8
SIZE
  2
DOT
 10
860.0
 20
-230.0
 30
0.0
 50
90.0
  0
INSERT
  5
10C
  8
SIZE
  2
DOT
 10
860.0
 20
-300.0
 30
0.0
 50
270.0
  0
POINT
  5
10D
  8
DEFPOINTS
  6
BYBLOCK
 10
390.0
 20
-300.0
 30
0.0
  0
POINT
  5
10E
  8
DEFPOINTS
  6
BYBLOCK
 10
410.0
 20
-230.0
 30
0.0
  0
POINT
  5
10F
  8
DEFPOINTS
  6
BYBLOCK
 10
860.0
 20
-230.0
 30
0.0
  0
ENDBLK
  5
110
  8
SIZE
  0
BLOCK
  8
SIZE
  2
*D19
 70
     1
 10
0.0
 20
0.0
 30
0.0
  3
*D19
  1

  0
TEXT
  5
113
  8
SIZE
  6
CONTINUOUS
 10
858.999976
 20
-26.960001
 30
0.0
 40
2.8
  1
50
 50
90.000005
 41
0.7
  7
STANDARD1
  0
LINE
  5
114
  8
SIZE
  6
CONTINUOUS
 10
411.0
 20
-50.0
 30
0.0
 11
862.0
 21
-50.0
 31
0.0
  0
LINE
  5
115
  8
SIZE
  6
CONTINUOUS
 10
391.0
 20
0.0
 30
0.0
 11
862.0
 21
0.0
 31
0.0
  0
LINE
  5
116
  8
SIZE
  6
CONTINUOUS
 10
860.0
 20
-50.0
 30
0.0
 11
860.0
 21
0.0
 31
0.0
  0
INSERT
  5
117
  8
SIZE
  2
DOT
 10
860.0
 20
-50.0
 30
0.0
 50
270.0
  0
INSERT
  5
118
  8
SIZE
  2
DOT
 10
860.0
 20
0.0
 30
0.0
 50
90.0
  0
POINT
  5
119
  8
DEFPOINTS
  6
BYBLOCK
 10
390.0
 20
0.0
 30
0.0
  0
POINT
  5
11A
  8
DEFPOINTS
  6
BYBLOCK
 10
410.0
 20
-50.0
 30
0.0
  0
POINT
  5
11B
  8
DEFPOINTS
  6
BYBLOCK
 10
860.0
 20
-50.0
 30
0.0
  0
ENDBLK
  5
11C
  8
SIZE
  0
BLOCK
  8
SIZE
  2
*D20
 70
     1
 10
0.0
 20
0.0
 30
0.0
  3
*D20
  1

  0
TEXT
  5
11F
  8
SIZE
  6
CONTINUOUS
 10
858.999976
 20
-142.940002
 30
0.0
 40
2.8
  1
180
 50
90.000005
 41
0.7
  7
STANDARD1
  0
LINE
  5
120
  8
SIZE
  6
CONTINUOUS
 10
411.0
 20
-50.0
 30
0.0
 11
862.0
 21
-50.0
 31
0.0
  0
LINE
  5
121
  8
SIZE
  6
CONTINUOUS
 10
411.0
 20
-230.0
 30
0.0
 11
862.0
 21
-230.0
 31
0.0
  0
LINE
  5
122
  8
SIZE
  6
CONTINUOUS
 10
860.0
 20
-50.0
 30
0.0
 11
860.0
 21
-230.0
 31
0.0
  0
INSERT
  5
123
  8
SIZE
  2
DOT
 10
860.0
 20
-50.0
 30
0.0
 50
90.0
  0
INSERT
  5
124
  8
SIZE
  2
DOT
 10
860.0
 20
-230.0
 30
0.0
 50
270.0
  0
POINT
  5
125
  8
DEFPOINTS
  6
BYBLOCK
 10
410.0
 20
-230.0
 30
0.0
  0
POINT
  5
126
  8
DEFPOINTS
  6
BYBLOCK
 10
410.0
 20
-50.0
 30
0.0
  0
POINT
  5
127
  8
DEFPOINTS
  6
BYBLOCK
 10
860.0
 20
-50.0
 30
0.0
  0
ENDBLK
  5
128
  8
SIZE
  0
BLOCK
  8
SIZE
  2
*D21
 70
     1
 10
0.0
 20
0.0
 30
0.0
  3
*D21
  1

  0
TEXT
  5
12B
  8
SIZE
  6
CONTINUOUS
 10
1158.999976
 20
-242.940002
 30
0.0
 40
2.8
  1
720
 50
90.000005
 41
0.7
  7
STANDARD1
  0
LINE
  5
12C
  8
SIZE
  6
CONTINUOUS
 10
1011.0
 20
120.0
 30
0.0
 11
1162.0
 21
120.0
 31
0.0
  0
LINE
  5
12D
  8
SIZE
  6
CONTINUOUS
 10
1011.0
 20
-600.0
 30
0.0
 11
1162.0
 21
-600.0
 31
0.0
  0
LINE
  5
12E
  8
SIZE
  6
CONTINUOUS
 10
1160.0
 20
120.0
 30
0.0
 11
1160.0
 21
-600.0
 31
0.0
  0
INSERT
  5
12F
  8
SIZE
  2
DOT
 10
1160.0
 20
120.0
 30
0.0
 50
90.0
  0
INSERT
  5
130
  8
SIZE
  2
DOT
 10
1160.0
 20
-600.0
 30
0.0
 50
270.0
  0
POINT
  5
131
  8
DEFPOINTS
  6
BYBLOCK
 10
1010.0
 20
-600.0
 30
0.0
  0
POINT
  5
132
  8
DEFPOINTS
  6
BYBLOCK
 10
1010.0
 20
120.0
 30
0.0
  0
POINT
  5
133
  8
DEFPOINTS
  6
BYBLOCK
 10
1160.0
 20
120.0
 30
0.0
  0
ENDBLK
  5
134
  8
SIZE
  0
BLOCK
  8
SIZE
  2
*D22
 70
     1
 10
0.0
 20
0.0
 30
0.0
  3
*D22
  1

  0
TEXT
  5
137
  8
SIZE
  6
CONTINUOUS
 10
707.059998
 20
-748.999976
 30
0.0
 40
2.8
  1
600
 50
0.000003
 41
0.7
  7
STANDARD1
  0
LINE
  5
138
  8
SIZE
  6
CONTINUOUS
 10
410.0
 20
-601.0
 30
0.0
 11
410.0
 21
-752.0
 31
0.0
  0
LINE
  5
139
  8
SIZE
  6
CONTINUOUS
 10
1010.0
 20
-601.0
 30
0.0
 11
1010.0
 21
-752.0
 31
0.0
  0
LINE
  5
13A
  8
SIZE
  6
CONTINUOUS
 10
410.0
 20
-750.0
 30
0.0
 11
1010.0
 21
-750.0
 31
0.0
  0
INSERT
  5
13B
  8
SIZE
  2
DOT
 10
410.0
 20
-750.0
 30
0.0
 50
180.0
  0
INSERT
  5
13C
  8
SIZE
  2
DOT
 10
1010.0
 20
-750.0
 30
0.0
  0
POINT
  5
13D
  8
DEFPOINTS
  6
BYBLOCK
 10
1010.0
 20
-600.0
 30
0.0
  0
POINT
  5
13E
  8
DEFPOINTS
  6
BYBLOCK
 10
410.0
 20
-600.0
 30
0.0
  0
POINT
  5
13F
  8
DEFPOINTS
  6
BYBLOCK
 10
410.0
 20
-750.0
 30
0.0
  0
ENDBLK
  5
140
  8
SIZE
  0
BLOCK
  8
SIZE
  2
*D23
 70
     1
 10
0.0
 20
0.0
 30
0.0
  3
*D23
  1

  0
TEXT
  5
143
  8
SIZE
  6
CONTINUOUS
 10
-77.940002
 20
-748.999976
 30
0.0
 40
2.8
  1
970
 50
0.000003
 41
0.7
  7
STANDARD1
  0
LINE
  5
144
  8
SIZE
  6
CONTINUOUS
 10
410.0
 20
-601.0
 30
0.0
 11
410.0
 21
-752.0
 31
0.0
  0
LINE
  5
145
  8
SIZE
  6
CONTINUOUS
 10
-560.0
 20
-601.0
 30
0.0
 11
-560.0
 21
-752.0
 31
0.0
  0
LINE
  5
146
  8
SIZE
  6
CONTINUOUS
 10
410.0
 20
-750.0
 30
0.0
 11
-560.0
 21
-750.0
 31
0.0
  0
INSERT
  5
147
  8
SIZE
  2
DOT
 10
410.0
 20
-750.0
 30
0.0
  0
INSERT
  5
148
  8
SIZE
  2
DOT
 10
-560.0
 20
-750.0
 30
0.0
 50
180.0
  0
POINT
  5
149
  8
DEFPOINTS
  6
BYBLOCK
 10
-560.0
 20
-600.0
 30
0.0
  0
POINT
  5
14A
  8
DEFPOINTS
  6
BYBLOCK
 10
410.0
 20
-600.0
 30
0.0
  0
POINT
  5
14B
  8
DEFPOINTS
  6
BYBLOCK
 10
410.0
 20
-750.0
 30
0.0
  0
ENDBLK
  5
14C
  8
SIZE
  0
BLOCK
  8
SIZE
  2
*D24
 70
     1
 10
0.0
 20
0.0
 30
0.0
  3
*D24
  1

  0
TEXT
  5
14F
  8
SIZE
  6
CONTINUOUS
 10
-77.940002
 20
672.875757
 30
0.0
 40
2.8
  1
970
 50
0.000003
 41
0.7
  7
STANDARD1
  0
LINE
  5
150
  8
SIZE
  6
CONTINUOUS
 10
-560.0
 20
121.0
 30
0.0
 11
-560.0
 21
673.875732
 31
0.0
  0
LINE
  5
151
  8
SIZE
  6
CONTINUOUS
 10
410.0
 20
121.0
 30
0.0
 11
410.0
 21
673.875732
 31
0.0
  0
LINE
  5
152
  8
SIZE
  6
CONTINUOUS
 10
-560.0
 20
671.875732
 30
0.0
 11
410.0
 21
671.875732
 31
0.0
  0
INSERT
  5
153
  8
SIZE
  2
DOT
 10
-560.0
 20
671.875732
 30
0.0
 50
180.0
  0
INSERT
  5
154
  8
SIZE
  2
DOT
 10
410.0
 20
671.875732
 30
0.0
  0
POINT
  5
155
  8
DEFPOINTS
  6
BYBLOCK
 10
410.0
 20
120.0
 30
0.0
  0
POINT
  5
156
  8
DEFPOINTS
  6
BYBLOCK
 10
-560.0
 20
120.0
 30
0.0
  0
POINT
  5
157
  8
DEFPOINTS
  6
BYBLOCK
 10
-560.0
 20
671.875732
 30
0.0
  0
ENDBLK
  5
158
  8
SIZE
  0
BLOCK
  8
SIZE
  2
*D25
 70
     1
 10
0.0
 20
0.0
 30
0.0
  3
*D25
  1

  0
TEXT
  5
15B
  8
SIZE
  6
CONTINUOUS
 10
-487.940002
 20
522.875757
 30
0.0
 40
2.8
  1
150
 50
0.000003
 41
0.7
  7
STANDARD1
  0
LINE
  5
15C
  8
SIZE
  6
CONTINUOUS
 10
-560.0
 20
121.0
 30
0.0
 11
-560.0
 21
523.875732
 31
0.0
  0
LINE
  5
15D
  8
SIZE
  6
CONTINUOUS
 10
-410.0
 20
1.0
 30
0.0
 11
-410.0
 21
523.875732
 31
0.0
  0
LINE
  5
15E
  8
SIZE
  6
CONTINUOUS
 10
-560.0
 20
521.875732
 30
0.0
 11
-410.0
 21
521.875732
 31
0.0
  0
INSERT
  5
15F
  8
SIZE
  2
DOT
 10
-560.0
 20
521.875732
 30
0.0
 50
180.0
  0
INSERT
  5
160
  8
SIZE
  2
DOT
 10
-410.0
 20
521.875732
 30
0.0
  0
POINT
  5
161
  8
DEFPOINTS
  6
BYBLOCK
 10
-410.0
 20
0.0
 30
0.0
  0
POINT
  5
162
  8
DEFPOINTS
  6
BYBLOCK
 10
-560.0
 20
120.0
 30
0.0
  0
POINT
  5
163
  8
DEFPOINTS
  6
BYBLOCK
 10
-560.0
 20
521.875732
 30
0.0
  0
ENDBLK
  5
164
  8
SIZE
  0
BLOCK
  8
SIZE
  2
*D26
 70
     1
 10
0.0
 20
0.0
 30
0.0
  3
*D26
  1

  0
TEXT
  5
167
  8
SIZE
  6
CONTINUOUS
 10
-2.94
 20
522.875757
 30
0.0
 40
2.8
  1
820
 50
0.000003
 41
0.7
  7
STANDARD1
  0
LINE
  5
168
  8
SIZE
  6
CONTINUOUS
 10
410.0
 20
-19.0
 30
0.0
 11
410.0
 21
523.875732
 31
0.0
  0
LINE
  5
169
  8
SIZE
  6
CONTINUOUS
 10
-410.0
 20
-19.0
 30
0.0
 11
-410.0
 21
523.875732
 31
0.0
  0
LINE
  5
16A
  8
SIZE
  6
CONTINUOUS
 10
410.0
 20
521.875732
 30
0.0
 11
-410.0
 21
521.875732
 31
0.0
  0
INSERT
  5
16B
  8
SIZE
  2
DOT
 10
410.0
 20
521.875732
 30
0.0
  0
INSERT
  5
16C
  8
SIZE
  2
DOT
 10
-410.0
 20
521.875732
 30
0.0
 50
180.0
  0
POINT
  5
16D
  8
DEFPOINTS
  6
BYBLOCK
 10
-410.0
 20
-20.0
 30
0.0
  0
POINT
  5
16E
  8
DEFPOINTS
  6
BYBLOCK
 10
410.0
 20
-20.0
 30
0.0
  0
POINT
  5
16F
  8
DEFPOINTS
  6
BYBLOCK
 10
410.0
 20
521.875732
 30
0.0
  0
ENDBLK
  5
170
  8
SIZE
  0
BLOCK
  8
SIZE
  2
*D27
 70
     1
 10
0.0
 20
0.0
 30
0.0
  3
*D27
  1

  0
TEXT
  5
173
  8
SIZE
  6
CONTINUOUS
 10
-711.000024
 20
-452.940002
 30
0.0
 40
2.8
  1
300
 50
90.000005
 41
0.7
  7
STANDARD1
  0
LINE
  5
174
  8
SIZE
  6
CONTINUOUS
 10
-561.0
 20
-300.0
 30
0.0
 11
-712.0
 21
-300.0
 31
0.0
  0
LINE
  5
175
  8
SIZE
  6
CONTINUOUS
 10
-561.0
 20
-600.0
 30
0.0
 11
-712.0
 21
-600.0
 31
0.0
  0
LINE
  5
176
  8
SIZE
  6
CONTINUOUS
 10
-710.0
 20
-300.0
 30
0.0
 11
-710.0
 21
-600.0
 31
0.0
  0
INSERT
  5
177
  8
SIZE
  2
DOT
 10
-710.0
 20
-300.0
 30
0.0
 50
90.0
  0
INSERT
  5
178
  8
SIZE
  2
DOT
 10
-710.0
 20
-600.0
 30
0.0
 50
270.0
  0
POINT
  5
179
  8
DEFPOINTS
  6
BYBLOCK
 10
-560.0
 20
-600.0
 30
0.0
  0
POINT
  5
17A
  8
DEFPOINTS
  6
BYBLOCK
 10
-560.0
 20
-300.0
 30
0.0
  0
POINT
  5
17B
  8
DEFPOINTS
  6
BYBLOCK
 10
-710.0
 20
-300.0
 30
0.0
  0
ENDBLK
  5
17C
  8
SIZE
  0
BLOCK
  8
SIZE
  2
*D28
 70
     1
 10
0.0
 20
0.0
 30
0.0
  3
*D28
  1

  0
TEXT
  5
17F
  8
SIZE
  6
CONTINUOUS
 10
-711.000024
 20
68.979004
 30
0.0
 40
2.8
  1
120
 50
90.000005
 41
0.7
  7
STANDARD1
  0
LINE
  5
180
  8
SIZE
  6
CONTINUOUS
 10
-561.0
 20
0.0
 30
0.0
 11
-712.0
 21
0.0
 31
0.0
  0
LINE
  5
181
  8
SIZE
  6
CONTINUOUS
 10
-561.0
 20
120.0
 30
0.0
 11
-712.0
 21
120.0
 31
0.0
  0
LINE
  5
182
  8
SIZE
  6
CONTINUOUS
 10
-710.0
 20
0.0
 30
0.0
 11
-710.0
 21
120.0
 31
0.0
  0
INSERT
  5
183
  8
SIZE
  2
DOT
 10
-710.0
 20
0.0
 30
0.0
 50
270.0
  0
INSERT
  5
184
  8
SIZE
  2
DOT
 10
-710.0
 20
120.0
 30
0.0
 50
90.0
  0
POINT
  5
185
  8
DEFPOINTS
  6
BYBLOCK
 10
-560.0
 20
120.0
 30
0.0
  0
POINT
  5
186
  8
DEFPOINTS
  6
BYBLOCK
 10
-560.0
 20
0.0
 30
0.0
  0
POINT
  5
187
  8
DEFPOINTS
  6
BYBLOCK
 10
-710.0
 20
0.0
 30
0.0
  0
ENDBLK
  5
188
  8
SIZE
  0
BLOCK
  8
SIZE
  2
*D29
 70
     1
 10
0.0
 20
0.0
 30
0.0
  3
*D29
  1

  0
TEXT
  5
18B
  8
SIZE
  6
CONTINUOUS
 10
-711.000024
 20
-152.940002
 30
0.0
 40
2.8
  1
300
 50
90.000005
 41
0.7
  7
STANDARD1
  0
LINE
  5
18C
  8
SIZE
  6
CONTINUOUS
 10
-561.0
 20
0.0
 30
0.0
 11
-712.0
 21
0.0
 31
0.0
  0
LINE
  5
18D
  8
SIZE
  6
CONTINUOUS
 10
-561.0
 20
-300.0
 30
0.0
 11
-712.0
 21
-300.0
 31
0.0
  0
LINE
  5
18E
  8
SIZE
  6
CONTINUOUS
 10
-710.0
 20
0.0
 30
0.0
 11
-710.0
 21
-300.0
 31
0.0
  0
INSERT
  5
18F
  8
SIZE
  2
DOT
 10
-710.0
 20
0.0
 30
0.0
 50
90.0
  0
INSERT
  5
190
  8
SIZE
  2
DOT
 10
-710.0
 20
-300.0
 30
0.0
 50
270.0
  0
POINT
  5
191
  8
DEFPOINTS
  6
BYBLOCK
 10
-560.0
 20
-300.0
 30
0.0
  0
POINT
  5
192
  8
DEFPOINTS
  6
BYBLOCK
 10
-560.0
 20
0.0
 30
0.0
  0
POINT
  5
193
  8
DEFPOINTS
  6
BYBLOCK
 10
-710.0
 20
0.0
 30
0.0
  0
ENDBLK
  5
194
  8
SIZE
  0
BLOCK
  8
0
  2
_ORIGIN
 70
     0
 10
0.0
 20
0.0
 30
0.0
  3
_ORIGIN
  1

  0
CIRCLE
  5
197
  8
0
  6
BYBLOCK
 62
     0
 10
0.0
 20
0.0
 30
0.0
 40
0.5
  0
LINE
  5
198
  8
0
  6
BYBLOCK
 62
     0
 10
0.0
 20
0.0
 30
0.0
 11
-1.0
 21
0.0
 31
0.0
  0
ENDBLK
  5
199
  8
0
  0
BLOCK
  8
0
  2
*D31
 70
     1
 10
0.0
 20
0.0
 30
0.0
  3
*D31
  1

  0
LINE
  5
19C
  8
0
  6
BYBLOCK
 62
     0
 10
-570.0
 20
-300.0
 30
0.0
 11
-724.9
 21
-300.0
 31
0.0
  0
LINE
  5
19D
  8
0
  6
BYBLOCK
 62
     0
 10
-570.0
 20
0.0
 30
0.0
 11
-724.9
 21
0.0
 31
0.0
  0
LINE
  5
19E
  8
0
  6
BYBLOCK
 62
     0
 10
-712.4
 20
-290.0
 30
0.0
 11
-712.4
 21
-10.0
 31
0.0
  0
INSERT
  5
19F
  8
0
  6
BYBLOCK
 62
     0
  2
_ORIGIN
 10
-712.4
 20
-300.0
 30
0.0
 41
10.0
 42
10.0
 43
10.0
 50
270.0
  0
INSERT
  5
1A0
  8
0
  6
BYBLOCK
 62
     0
  2
_ORIGIN
 10
-712.4
 20
0.0
 30
0.0
 41
10.0
 42
10.0
 43
10.0
 50
90.0
  0
TEXT
  5
1A1
  8
0
  6
BYBLOCK
 62
     0
 10
-722.4
 20
-185.0
 30
0.0
 40
30.0
  1
300
 50
90.0
 72
     1
 11
-722.4
 21
-150.0
 31
0.0
  0
POINT
  5
1A2
  8
DEFPOINTS
  6
BYBLOCK
 62
     0
 10
-560.0
 20
-300.0
 30
0.0
  0
POINT
  5
1A3
  8
DEFPOINTS
  6
BYBLOCK
 62
     0
 10
-560.0
 20
0.0
 30
0.0
  0
POINT
  5
1A4
  8
DEFPOINTS
  6
BYBLOCK
 62
     0
 10
-712.4
 20
0.0
 30
0.0
  0
ENDBLK
  5
1A5
  8
0
  0
BLOCK
  8
0
  2
*D32
 70
     1
 10
0.0
 20
0.0
 30
0.0
  3
*D32
  1

  0
LINE
  5
1A8
  8
0
  6
BYBLOCK
 62
     0
 10
-570.0
 20
120.0
 30
0.0
 11
-724.9
 21
120.0
 31
0.0
  0
LINE
  5
1A9
  8
0
  6
BYBLOCK
 62
     0
 10
-570.0
 20
0.0
 30
0.0
 11
-724.9
 21
0.0
 31
0.0
  0
LINE
  5
1AA
  8
0
  6
BYBLOCK
 62
     0
 10
-712.4
 20
110.0
 30
0.0
 11
-712.4
 21
10.0
 31
0.0
  0
INSERT
  5
1AB
  8
0
  6
BYBLOCK
 62
     0
  2
_ORIGIN
 10
-712.4
 20
120.0
 30
0.0
 41
10.0
 42
10.0
 43
10.0
 50
90.0
  0
INSERT
  5
1AC
  8
0
  6
BYBLOCK
 62
     0
  2
_ORIGIN
 10
-712.4
 20
0.0
 30
0.0
 41
10.0
 42
10.0
 43
10.0
 50
270.0
  0
TEXT
  5
1AD
  8
0
  6
BYBLOCK
 62
     0
 10
-722.4
 20
39.419006
 30
0.0
 40
30.0
  1
120
 50
90.0
 72
     1
 11
-722.4
 21
71.919006
 31
0.0
  0
POINT
  5
1AE
  8
DEFPOINTS
  6
BYBLOCK
 62
     0
 10
-560.0
 20
120.0
 30
0.0
  0
POINT
  5
1AF
  8
DEFPOINTS
  6
BYBLOCK
 62
     0
 10
-560.0
 20
0.0
 30
0.0
  0
POINT
  5
1B0
  8
DEFPOINTS
  6
BYBLOCK
 62
     0
 10
-712.4
 20
0.0
 30
0.0
  0
ENDBLK
  5
1B1
  8
0
  0
BLOCK
  8
0
  2
*D33
 70
     1
 10
0.0
 20
0.0
 30
0.0
  3
*D33
  1

  0
LINE
  5
1B4
  8
0
  6
BYBLOCK
 62
     0
 10
-570.0
 20
-600.0
 30
0.0
 11
-724.9
 21
-600.0
 31
0.0
  0
LINE
  5
1B5
  8
0
  6
BYBLOCK
 62
     0
 10
-570.0
 20
-300.0
 30
0.0
 11
-724.9
 21
-300.0
 31
0.0
  0
LINE
  5
1B6
  8
0
  6
BYBLOCK
 62
     0
 10
-712.4
 20
-590.0
 30
0.0
 11
-712.4
 21
-310.0
 31
0.0
  0
INSERT
  5
1B7
  8
0
  6
BYBLOCK
 62
     0
  2
_ORIGIN
 10
-712.4
 20
-600.0
 30
0.0
 41
10.0
 42
10.0
 43
10.0
 50
270.0
  0
INSERT
  5
1B8
  8
0
  6
BYBLOCK
 62
     0
  2
_ORIGIN
 10
-712.4
 20
-300.0
 30
0.0
 41
10.0
 42
10.0
 43
10.0
 50
90.0
  0
TEXT
  5
1B9
  8
0
  6
BYBLOCK
 62
     0
 10
-722.4
 20
-485.0
 30
0.0
 40
30.0
  1
300
 50
90.0
 72
     1
 11
-722.4
 21
-450.0
 31
0.0
  0
POINT
  5
1BA
  8
DEFPOINTS
  6
BYBLOCK
 62
     0
 10
-560.0
 20
-600.0
 30
0.0
  0
POINT
  5
1BB
  8
DEFPOINTS
  6
BYBLOCK
 62
     0
 10
-560.0
 20
-300.0
 30
0.0
  0
POINT
  5
1BC
  8
DEFPOINTS
  6
BYBLOCK
 62
     0
 10
-712.4
 20
-300.0
 30
0.0
  0
ENDBLK
  5
1BD
  8
0
  0
BLOCK
  8
0
  2
*D34
 70
     1
 10
0.0
 20
0.0
 30
0.0
  3
*D34
  1

  0
LINE
  5
1C0
  8
0
  6
BYBLOCK
 62
     0
 10
-410.0
 20
-10.0
 30
0.0
 11
-410.0
 21
536.775732
 31
0.0
  0
LINE
  5
1C1
  8
0
  6
BYBLOCK
 62
     0
 10
410.0
 20
-10.0
 30
0.0
 11
410.0
 21
536.775732
 31
0.0
  0
LINE
  5
1C2
  8
0
  6
BYBLOCK
 62
     0
 10
-400.0
 20
524.275732
 30
0.0
 11
400.0
 21
524.275732
 31
0.0
  0
INSERT
  5
1C3
  8
0
  6
BYBLOCK
 62
     0
  2
_ORIGIN
 10
-410.0
 20
524.275732
 30
0.0
 41
10.0
 42
10.0
 43
10.0
 50
180.0
  0
INSERT
  5
1C4
  8
0
  6
BYBLOCK
 62
     0
  2
_ORIGIN
 10
410.0
 20
524.275732
 30
0.0
 41
10.0
 42
10.0
 43
10.0
  0
TEXT
  5
1C5
  8
0
  6
BYBLOCK
 62
     0
 10
-37.5
 20
534.275732
 30
0.0
 40
30.0
  1
820
 72
     1
 11
0.0
 21
534.275732
 31
0.0
  0
POINT
  5
1C6
  8
DEFPOINTS
  6
BYBLOCK
 62
     0
 10
-410.0
 20
-20.0
 30
0.0
  0
POINT
  5
1C7
  8
DEFPOINTS
  6
BYBLOCK
 62
     0
 10
410.0
 20
-20.0
 30
0.0
  0
POINT
  5
1C8
  8
DEFPOINTS
  6
BYBLOCK
 62
     0
 10
410.0
 20
524.275732
 30
0.0
  0
ENDBLK
  5
1C9
  8
0
  0
BLOCK
  8
0
  2
*D35
 70
     1
 10
0.0
 20
0.0
 30
0.0
  3
*D35
  1

  0
LINE
  5
1CC
  8
0
  6
BYBLOCK
 62
     0
 10
-410.0
 20
10.0
 30
0.0
 11
-410.0
 21
536.775732
 31
0.0
  0
LINE
  5
1CD
  8
0
  6
BYBLOCK
 62
     0
 10
-560.0
 20
130.0
 30
0.0
 11
-560.0
 21
536.775732
 31
0.0
  0
LINE
  5
1CE
  8
0
  6
BYBLOCK
 62
     0
 10
-420.0
 20
524.275732
 30
0.0
 11
-550.0
 21
524.275732
 31
0.0
  0
INSERT
  5
1CF
  8
0
  6
BYBLOCK
 62
     0
  2
_ORIGIN
 10
-410.0
 20
524.275732
 30
0.0
 41
10.0
 42
10.0
 43
10.0
  0
INSERT
  5
1D0
  8
0
  6
BYBLOCK
 62
     0
  2
_ORIGIN
 10
-560.0
 20
524.275732
 30
0.0
 41
10.0
 42
10.0
 43
10.0
 50
180.0
  0
TEXT
  5
1D1
  8
0
  6
BYBLOCK
 62
     0
 10
-517.5
 20
534.275732
 30
0.0
 40
30.0
  1
150
 72
     1
 11
-485.0
 21
534.275732
 31
0.0
  0
POINT
  5
1D2
  8
DEFPOINTS
  6
BYBLOCK
 62
     0
 10
-410.0
 20
0.0
 30
0.0
  0
POINT
  5
1D3
  8
DEFPOINTS
  6
BYBLOCK
 62
     0
 10
-560.0
 20
120.0
 30
0.0
  0
POINT
  5
1D4
  8
DEFPOINTS
  6
BYBLOCK
 62
     0
 10
-560.0
 20
524.275732
 30
0.0
  0
ENDBLK
  5
1D5
  8
0
  0
BLOCK
  8
0
  2
*D36
 70
     1
 10
0.0
 20
0.0
 30
0.0
  3
*D36
  1

  0
LINE
  5
1D8
  8
0
  6
BYBLOCK
 62
     0
 10
410.0
 20
130.0
 30
0.0
 11
410.0
 21
686.775732
 31
0.0
  0
LINE
  5
1D9
  8
0
  6
BYBLOCK
 62
     0
 10
-560.0
 20
130.0
 30
0.0
 11
-560.0
 21
686.775732
 31
0.0
  0
LINE
  5
1DA
  8
0
  6
BYBLOCK
 62
     0
 10
400.0
 20
674.275732
 30
0.0
 11
-550.0
 21
674.275732
 31
0.0
  0
INSERT
  5
1DB
  8
0
  6
BYBLOCK
 62
     0
  2
_ORIGIN
 10
410.0
 20
674.275732
 30
0.0
 41
10.0
 42
10.0
 43
10.0
  0
INSERT
  5
1DC
  8
0
  6
BYBLOCK
 62
     0
  2
_ORIGIN
 10
-560.0
 20
674.275732
 30
0.0
 41
10.0
 42
10.0
 43
10.0
 50
180.0
  0
TEXT
  5
1DD
  8
0
  6
BYBLOCK
 62
     0
 10
-112.5
 20
684.275732
 30
0.0
 40
30.0
  1
970
 72
     1
 11
-75.0
 21
684.275732
 31
0.0
  0
POINT
  5
1DE
  8
DEFPOINTS
  6
BYBLOCK
 62
     0
 10
410.0
 20
120.0
 30
0.0
  0
POINT
  5
1DF
  8
DEFPOINTS
  6
BYBLOCK
 62
     0
 10
-560.0
 20
120.0
 30
0.0
  0
POINT
  5
1E0
  8
DEFPOINTS
  6
BYBLOCK
 62
     0
 10
-560.0
 20
674.275732
 30
0.0
  0
ENDBLK
  5
1E1
  8
0
  0
BLOCK
  8
0
  2
*D37
 70
     1
 10
0.0
 20
0.0
 30
0.0
  3
*D37
  1

  0
LINE
  5
1E4
  8
0
  6
BYBLOCK
 62
     0
 10
-560.0
 20
-610.0
 30
0.0
 11
-560.0
 21
-760.1
 31
0.0
  0
LINE
  5
1E5
  8
0
  6
BYBLOCK
 62
     0
 10
410.0
 20
-610.0
 30
0.0
 11
410.0
 21
-760.1
 31
0.0
  0
LINE
  5
1E6
  8
0
  6
BYBLOCK
 62
     0
 10
-550.0
 20
-747.6
 30
0.0
 11
400.0
 21
-747.6
 31
0.0
  0
INSERT
  5
1E7
  8
0
  6
BYBLOCK
 62
     0
  2
_ORIGIN
 10
-560.0
 20
-747.6
 30
0.0
 41
10.0
 42
10.0
 43
10.0
 50
180.0
  0
INSERT
  5
1E8
  8
0
  6
BYBLOCK
 62
     0
  2
_ORIGIN
 10
410.0
 20
-747.6
 30
0.0
 41
10.0
 42
10.0
 43
10.0
  0
TEXT
  5
1E9
  8
0
  6
BYBLOCK
 62
     0
 10
-112.5
 20
-737.6
 30
0.0
 40
30.0
  1
970
 72
     1
 11
-75.0
 21
-737.6
 31
0.0
  0
POINT
  5
1EA
  8
DEFPOINTS
  6
BYBLOCK
 62
     0
 10
-560.0
 20
-600.0
 30
0.0
  0
POINT
  5
1EB
  8
DEFPOINTS
  6
BYBLOCK
 62
     0
 10
410.0
 20
-600.0
 30
0.0
  0
POINT
  5
1EC
  8
DEFPOINTS
  6
BYBLOCK
 62
     0
 10
410.0
 20
-747.6
 30
0.0
  0
ENDBLK
  5
1ED
  8
0
  0
BLOCK
  8
0
  2
*D38
 70
     1
 10
0.0
 20
0.0
 30
0.0
  3
*D38
  1

  0
LINE
  5
1F0
  8
0
  6
BYBLOCK
 62
     0
 10
1010.0
 20
-610.0
 30
0.0
 11
1010.0
 21
-760.1
 31
0.0
  0
LINE
  5
1F1
  8
0
  6
BYBLOCK
 62
     0
 10
410.0
 20
-610.0
 30
0.0
 11
410.0
 21
-760.1
 31
0.0
  0
LINE
  5
1F2
  8
0
  6
BYBLOCK
 62
     0
 10
1000.0
 20
-747.6
 30
0.0
 11
420.0
 21
-747.6
 31
0.0
  0
INSERT
  5
1F3
  8
0
  6
BYBLOCK
 62
     0
  2
_ORIGIN
 10
1010.0
 20
-747.6
 30
0.0
 41
10.0
 42
10.0
 43
10.0
  0
INSERT
  5
1F4
  8
0
  6
BYBLOCK
 62
     0
  2
_ORIGIN
 10
410.0
 20
-747.6
 30
0.0
 41
10.0
 42
10.0
 43
10.0
 50
180.0
  0
TEXT
  5
1F5
  8
0
  6
BYBLOCK
 62
     0
 10
675.0
 20
-737.6
 30
0.0
 40
30.0
  1
600
 72
     1
 11
710.0
 21
-737.6
 31
0.0
  0
POINT
  5
1F6
  8
DEFPOINTS
  6
BYBLOCK
 62
     0
 10
1010.0
 20
-600.0
 30
0.0
  0
POINT
  5
1F7
  8
DEFPOINTS
  6
BYBLOCK
 62
     0
 10
410.0
 20
-600.0
 30
0.0
  0
POINT
  5
1F8
  8
DEFPOINTS
  6
BYBLOCK
 62
     0
 10
410.0
 20
-747.6
 30
0.0
  0
ENDBLK
  5
1F9
  8
0
  0
BLOCK
  8
0
  2
*D39
 70
     1
 10
0.0
 20
0.0
 30
0.0
  3
*D39
  1

  0
LINE
  5
1FC
  8
0
  6
BYBLOCK
 62
     0
 10
1020.0
 20
-600.0
 30
0.0
 11
1170.1
 21
-600.0
 31
0.0
  0
LINE
  5
1FD
  8
0
  6
BYBLOCK
 62
     0
 10
1020.0
 20
120.0
 30
0.0
 11
1170.1
 21
120.0
 31
0.0
  0
LINE
  5
1FE
  8
0
  6
BYBLOCK
 62
     0
 10
1157.6
 20
-590.0
 30
0.0
 11
1157.6
 21
110.0
 31
0.0
  0
INSERT
  5
1FF
  8
0
  6
BYBLOCK
 62
     0
  2
_ORIGIN
 10
1157.6
 20
-600.0
 30
0.0
 41
10.0
 42
10.0
 43
10.0
 50
270.0
  0
INSERT
  5
200
  8
0
  6
BYBLOCK
 62
     0
  2
_ORIGIN
 10
1157.6
 20
120.0
 30
0.0
 41
10.0
 42
10.0
 43
10.0
 50
90.0
  0
TEXT
  5
201
  8
0
  6
BYBLOCK
 62
     0
 10
1147.6
 20
-277.5
 30
0.0
 40
30.0
  1
720
 50
90.0
 72
     1
 11
1147.6
 21
-240.0
 31
0.0
  0
POINT
  5
202
  8
DEFPOINTS
  6
BYBLOCK
 62
     0
 10
1010.0
 20
-600.0
 30
0.0
  0
POINT
  5
203
  8
DEFPOINTS
  6
BYBLOCK
 62
     0
 10
1010.0
 20
120.0
 30
0.0
  0
POINT
  5
204
  8
DEFPOINTS
  6
BYBLOCK
 62
     0
 10
1157.6
 20
120.0
 30
0.0
  0
ENDBLK
  5
205
  8
0
  0
BLOCK
  8
0
  2
*D40
 70
     1
 10
0.0
 20
0.0
 30
0.0
  3
*D40
  1

  0
LINE
  5
208
  8
0
  6
BYBLOCK
 62
     0
 10
420.0
 20
-230.0
 30
0.0
 11
870.1
 21
-230.0
 31
0.0
  0
LINE
  5
209
  8
0
  6
BYBLOCK
 62
     0
 10
420.0
 20
-50.0
 30
0.0
 11
870.1
 21
-50.0
 31
0.0
  0
LINE
  5
20A
  8
0
  6
BYBLOCK
 62
     0
 10
857.6
 20
-220.0
 30
0.0
 11
857.6
 21
-60.0
 31
0.0
  0
INSERT
  5
20B
  8
0
  6
BYBLOCK
 62
     0
  2
_ORIGIN
 10
857.6
 20
-230.0
 30
0.0
 41
10.0
 42
10.0
 43
10.0
 50
270.0
  0
INSERT
  5
20C
  8
0
  6
BYBLOCK
 62
     0
  2
_ORIGIN
 10
857.6
 20
-50.0
 30
0.0
 41
10.0
 42
10.0
 43
10.0
 50
90.0
  0
TEXT
  5
20D
  8
0
  6
BYBLOCK
 62
     0
 10
847.6
 20
-172.5
 30
0.0
 40
30.0
  1
180
 50
90.0
 72
     1
 11
847.6
 21
-140.0
 31
0.0
  0
POINT
  5
20E
  8
DEFPOINTS
  6
BYBLOCK
 62
     0
 10
410.0
 20
-230.0
 30
0.0
  0
POINT
  5
20F
  8
DEFPOINTS
  6
BYBLOCK
 62
     0
 10
410.0
 20
-50.0
 30
0.0
  0
POINT
  5
210
  8
DEFPOINTS
  6
BYBLOCK
 62
     0
 10
857.6
 20
-50.0
 30
0.0
  0
ENDBLK
  5
211
  8
0
  0
BLOCK
  8
0
  2
*D41
 70
     1
 10
0.0
 20
0.0
 30
0.0
  3
*D41
  1

  0
LINE
  5
214
  8
0
  6
BYBLOCK
 62
     0
 10
400.0
 20
0.0
 30
0.0
 11
870.1
 21
0.0
 31
0.0
  0
LINE
  5
215
  8
0
  6
BYBLOCK
 62
     0
 10
420.0
 20
-50.0
 30
0.0
 11
870.1
 21
-50.0
 31
0.0
  0
LINE
  5
216
  8
0
  6
BYBLOCK
 62
     0
 10
857.6
 20
-10.0
 30
0.0
 11
857.6
 21
-40.0
 31
0.0
  0
INSERT
  5
217
  8
0
  6
BYBLOCK
 62
     0
  2
_ORIGIN
 10
857.6
 20
0.0
 30
0.0
 41
10.0
 42
10.0
 43
10.0
 50
90.0
  0
INSERT
  5
218
  8
0
  6
BYBLOCK
 62
     0
  2
_ORIGIN
 10
857.6
 20
-50.0
 30
0.0
 41
10.0
 42
10.0
 43
10.0
 50
270.0
  0
TEXT
  5
219
  8
0
  6
BYBLOCK
 62
     0
 10
847.6
 20
-47.5
 30
0.0
 40
30.0
  1
50
 50
90.0
 72
     1
 11
847.6
 21
-25.0
 31
0.0
  0
POINT
  5
21A
  8
DEFPOINTS
  6
BYBLOCK
 62
     0
 10
390.0
 20
0.0
 30
0.0
  0
POINT
  5
21B
  8
DEFPOINTS
  6
BYBLOCK
 62
     0
 10
410.0
 20
-50.0
 30
0.0
  0
POINT
  5
21C
  8
DEFPOINTS
  6
BYBLOCK
 62
     0
 10
857.6
 20
-50.0
 30
0.0
  0
ENDBLK
  5
21D
  8
0
  0
BLOCK
  8
0
  2
*D42
 70
     1
 10
0.0
 20
0.0
 30
0.0
  3
*D42
  1

  0
LINE
  5
220
  8
0
  6
BYBLOCK
 62
     0
 10
400.0
 20
-300.0
 30
0.0
 11
870.1
 21
-300.0
 31
0.0
  0
LINE
  5
221
  8
0
  6
BYBLOCK
 62
     0
 10
420.0
 20
-230.0
 30
0.0
 11
870.1
 21
-230.0
 31
0.0
  0
LINE
  5
222
  8
0
  6
BYBLOCK
 62
     0
 10
857.6
 20
-290.0
 30
0.0
 11
857.6
 21
-240.0
 31
0.0
  0
INSERT
  5
223
  8
0
  6
BYBLOCK
 62
     0
  2
_ORIGIN
 10
857.6
 20
-300.0
 30
0.0
 41
10.0
 42
10.0
 43
10.0
 50
270.0
  0
INSERT
  5
224
  8
0
  6
BYBLOCK
 62
     0
  2
_ORIGIN
 10
857.6
 20
-230.0
 30
0.0
 41
10.0
 42
10.0
 43
10.0
 50
90.0
  0
TEXT
  5
225
  8
0
  6
BYBLOCK
 62
     0
 10
847.6
 20
-287.5
 30
0.0
 40
30.0
  1
70
 50
90.0
 72
     1
 11
847.6
 21
-265.0
 31
0.0
  0
POINT
  5
226
  8
DEFPOINTS
  6
BYBLOCK
 62
     0
 10
390.0
 20
-300.0
 30
0.0
  0
POINT
  5
227
  8
DEFPOINTS
  6
BYBLOCK
 62
     0
 10
410.0
 20
-230.0
 30
0.0
  0
POINT
  5
228
  8
DEFPOINTS
  6
BYBLOCK
 62
     0
 10
857.6
 20
-230.0
 30
0.0
  0
ENDBLK
  5
229
  8
0
  0
BLOCK
  8
0
  2
*D43
 70
     1
 10
0.0
 20
0.0
 30
0.0
  3
*D43
  1

  0
LINE
  5
22C
  8
0
  6
BYBLOCK
 62
     0
 10
410.0
 20
-10.0
 30
0.0
 11
410.0
 21
536.775732
 31
0.0
  0
LINE
  5
22D
  8
0
  6
BYBLOCK
 62
     0
 10
490.0
 20
-87.670143
 30
0.0
 11
490.0
 21
536.775732
 31
0.0
  0
LINE
  5
22E
  8
0
  6
BYBLOCK
 62
     0
 10
420.0
 20
524.275732
 30
0.0
 11
480.0
 21
524.275732
 31
0.0
  0
INSERT
  5
22F
  8
0
  6
BYBLOCK
 62
     0
  2
_ORIGIN
 10
410.0
 20
524.275732
 30
0.0
 41
10.0
 42
10.0
 43
10.0
 50
180.0
  0
INSERT
  5
230
  8
0
  6
BYBLOCK
 62
     0
  2
_ORIGIN
 10
490.0
 20
524.275732
 30
0.0
 41
10.0
 42
10.0
 43
10.0
  0
TEXT
  5
231
  8
0
  6
BYBLOCK
 62
     0
 10
427.5
 20
534.275732
 30
0.0
 40
30.0
  1
80
 72
     1
 11
450.0
 21
534.275732
 31
0.0
  0
POINT
  5
232
  8
DEFPOINTS
  6
BYBLOCK
 62
     0
 10
410.0
 20
-20.0
 30
0.0
  0
POINT
  5
233
  8
DEFPOINTS
  6
BYBLOCK
 62
     0
 10
490.0
 20
-97.670143
 30
0.0
  0
POINT
  5
234
  8
DEFPOINTS
  6
BYBLOCK
 62
     0
 10
490.0
 20
524.275732
 30
0.0
  0
ENDBLK
  5
235
  8
0
  0
BLOCK
  8
0
  2
*D44
 70
     1
 10
0.0
 20
0.0
 30
0.0
  3
*D44
  1

  0
LINE
  5
238
  8
0
  6
BYBLOCK
 62
     0
 10
410.0
 20
130.0
 30
0.0
 11
410.0
 21
436.775732
 31
0.0
  0
LINE
  5
239
  8
0
  6
BYBLOCK
 62
     0
 10
470.0
 20
-33.0
 30
0.0
 11
470.0
 21
436.775732
 31
0.0
  0
LINE
  5
23A
  8
0
  6
BYBLOCK
 62
     0
 10
420.0
 20
424.275732
 30
0.0
 11
460.0
 21
424.275732
 31
0.0
  0
INSERT
  5
23B
  8
0
  6
BYBLOCK
 62
     0
  2
_ORIGIN
 10
410.0
 20
424.275732
 30
0.0
 41
10.0
 42
10.0
 43
10.0
 50
180.0
  0
INSERT
  5
23C
  8
0
  6
BYBLOCK
 62
     0
  2
_ORIGIN
 10
470.0
 20
424.275732
 30
0.0
 41
10.0
 42
10.0
 43
10.0
  0
TEXT
  5
23D
  8
0
  6
BYBLOCK
 62
     0
 10
417.5
 20
434.275732
 30
0.0
 40
30.0
  1
60
 72
     1
 11
440.0
 21
434.275732
 31
0.0
  0
POINT
  5
23E
  8
DEFPOINTS
  6
BYBLOCK
 62
     0
 10
410.0
 20
120.0
 30
0.0
  0
POINT
  5
23F
  8
DEFPOINTS
  6
BYBLOCK
 62
     0
 10
470.0
 20
-43.0
 30
0.0
  0
POINT
  5
240
  8
DEFPOINTS
  6
BYBLOCK
 62
     0
 10
470.0
 20
424.275732
 30
0.0
  0
ENDBLK
  5
241
  8
0
  0
BLOCK
  8
0
  2
*D45
 70
     1
 10
0.0
 20
0.0
 30
0.0
  3
*D45
  1

  0
LINE
  5
244
  8
0
  6
BYBLOCK
 62
     0
 10
400.0
 20
-300.0
 30
0.0
 11
960.1
 21
-300.0
 31
0.0
  0
LINE
  5
245
  8
0
  6
BYBLOCK
 62
     0
 10
400.0
 20
0.0
 30
0.0
 11
960.1
 21
0.0
 31
0.0
  0
LINE
  5
246
  8
0
  6
BYBLOCK
 62
     0
 10
947.6
 20
-290.0
 30
0.0
 11
947.6
 21
-10.0
 31
0.0
  0
INSERT
  5
247
  8
0
  6
BYBLOCK
 62
     0
  2
_ORIGIN
 10
947.6
 20
-300.0
 30
0.0
 41
10.0
 42
10.0
 43
10.0
 50
270.0
  0
INSERT
  5
248
  8
0
  6
BYBLOCK
 62
     0
  2
_ORIGIN
 10
947.6
 20
0.0
 30
0.0
 41
10.0
 42
10.0
 43
10.0
 50
90.0
  0
TEXT
  5
249
  8
0
  6
BYBLOCK
 62
     0
 10
937.6
 20
-185.0
 30
0.0
 40
30.0
  1
300
 50
90.0
 72
     1
 11
937.6
 21
-150.0
 31
0.0
  0
POINT
  5
24A
  8
DEFPOINTS
  6
BYBLOCK
 62
     0
 10
390.0
 20
-300.0
 30
0.0
  0
POINT
  5
24B
  8
DEFPOINTS
  6
BYBLOCK
 62
     0
 10
390.0
 20
0.0
 30
0.0
  0
POINT
  5
24C
  8
DEFPOINTS
  6
BYBLOCK
 62
     0
 10
947.6
 20
0.0
 30
0.0
  0
ENDBLK
  5
24D
  8
0
  0
BLOCK
  8
0
  2
*D46
 70
     1
 10
0.0
 20
0.0
 30
0.0
  3
*D46
  1

  0
LINE
  5
250
  8
0
  6
BYBLOCK
 62
     0
 10
410.0
 20
-10.0
 30
0.0
 11
410.0
 21
236.775732
 31
0.0
  0
LINE
  5
251
  8
0
  6
BYBLOCK
 62
     0
 10
440.0
 20
-103.0
 30
0.0
 11
440.0
 21
236.775732
 31
0.0
  0
LINE
  5
252
  8
0
  6
BYBLOCK
 62
     0
 10
450.0
 20
224.275732
 30
0.0
 11
460.0
 21
224.275732
 31
0.0
  0
LINE
  5
253
  8
0
  6
BYBLOCK
 62
     0
 10
400.0
 20
224.275732
 30
0.0
 11
321.670715
 21
224.275732
 31
0.0
  0
LINE
  5
254
  8
0
  6
BYBLOCK
 62
     0
 10
440.0
 20
224.275732
 30
0.0
 11
410.0
 21
224.275732
 31
0.0
  0
INSERT
  5
255
  8
0
  6
BYBLOCK
 62
     0
  2
_ORIGIN
 10
440.0
 20
224.275732
 30
0.0
 41
10.0
 42
10.0
 43
10.0
 50
180.0
  0
INSERT
  5
256
  8
0
  6
BYBLOCK
 62
     0
  2
_ORIGIN
 10
410.0
 20
224.275732
 30
0.0
 41
10.0
 42
10.0
 43
10.0
  0
TEXT
  5
257
  8
0
  6
BYBLOCK
 62
     0
 10
331.670715
 20
234.275732
 30
0.0
 40
30.0
  1
30
 72
     1
 11
354.170715
 21
234.275732
 31
0.0
  0
POINT
  5
258
  8
DEFPOINTS
  6
BYBLOCK
 62
     0
 10
410.0
 20
-20.0
 30
0.0
  0
POINT
  5
259
  8
DEFPOINTS
  6
BYBLOCK
 62
     0
 10
440.0
 20
-113.0
 30
0.0
  0
POINT
  5
25A
  8
DEFPOINTS
  6
BYBLOCK
 62
     0
 10
440.0
 20
224.275732
 30
0.0
  0
ENDBLK
  5
25B
  8
0
  0
BLOCK
  8
0
  2
*D47
 70
     1
 10
0.0
 20
0.0
 30
0.0
  3
*D47
  1

  0
LINE
  5
25E
  8
0
  6
BYBLOCK
 62
     0
 10
410.0
 20
-10.0
 30
0.0
 11
410.0
 21
336.775732
 31
0.0
  0
LINE
  5
25F
  8
0
  6
BYBLOCK
 62
     0
 10
450.0
 20
-73.0
 30
0.0
 11
450.0
 21
336.775732
 31
0.0
  0
LINE
  5
260
  8
0
  6
BYBLOCK
 62
     0
 10
440.0
 20
324.275732
 30
0.0
 11
420.0
 21
324.275732
 31
0.0
  0
LINE
  5
261
  8
0
  6
BYBLOCK
 62
     0
 10
410.0
 20
324.275732
 30
0.0
 11
321.670715
 21
324.275732
 31
0.0
  0
INSERT
  5
262
  8
0
  6
BYBLOCK
 62
     0
  2
_ORIGIN
 10
450.0
 20
324.275732
 30
0.0
 41
10.0
 42
10.0
 43
10.0
  0
INSERT
  5
263
  8
0
  6
BYBLOCK
 62
     0
  2
_ORIGIN
 10
410.0
 20
324.275732
 30
0.0
 41
10.0
 42
10.0
 43
10.0
 50
180.0
  0
TEXT
  5
264
  8
0
  6
BYBLOCK
 62
     0
 10
331.670715
 20
334.275732
 30
0.0
 40
30.0
  1
40
 72
     1
 11
354.170715
 21
334.275732
 31
0.0
  0
POINT
  5
265
  8
DEFPOINTS
  6
BYBLOCK
 62
     0
 10
410.0
 20
-20.0
 30
0.0
  0
POINT
  5
266
  8
DEFPOINTS
  6
BYBLOCK
 62
     0
 10
450.0
 20
-83.0
 30
0.0
  0
POINT
  5
267
  8
DEFPOINTS
  6
BYBLOCK
 62
     0
 10
450.0
 20
324.275732
 30
0.0
  0
ENDBLK
  5
268
  8
0
  0
BLOCK
  8
0
  2
*D48
 70
     1
 10
0.0
 20
0.0
 30
0.0
  3
*D48
  1

  0
LINE
  5
26B
  8
0
  6
BYBLOCK
 62
     0
 10
400.0
 20
0.0
 30
0.0
 11
600.1
 21
0.0
 31
0.0
  0
LINE
  5
26C
  8
0
  6
BYBLOCK
 62
     0
 10
480.0
 20
-43.0
 30
0.0
 11
600.1
 21
-43.0
 31
0.0
  0
LINE
  5
26D
  8
0
  6
BYBLOCK
 62
     0
 10
587.6
 20
-10.0
 30
0.0
 11
587.6
 21
-33.0
 31
0.0
  0
INSERT
  5
26E
  8
0
  6
BYBLOCK
 62
     0
  2
_ORIGIN
 10
587.6
 20
0.0
 30
0.0
 41
10.0
 42
10.0
 43
10.0
 50
90.0
  0
INSERT
  5
26F
  8
0
  6
BYBLOCK
 62
     0
  2
_ORIGIN
 10
587.6
 20
-43.0
 30
0.0
 41
10.0
 42
10.0
 43
10.0
 50
270.0
  0
TEXT
  5
270
  8
0
  6
BYBLOCK
 62
     0
 10
577.6
 20
-46.5
 30
0.0
 40
30.0
  1
43
 50
90.0
 72
     1
 11
577.6
 21
-21.5
 31
0.0
  0
POINT
  5
271
  8
DEFPOINTS
  6
BYBLOCK
 62
     0
 10
390.0
 20
0.0
 30
0.0
  0
POINT
  5
272
  8
DEFPOINTS
  6
BYBLOCK
 62
     0
 10
470.0
 20
-43.0
 30
0.0
  0
POINT
  5
273
  8
DEFPOINTS
  6
BYBLOCK
 62
     0
 10
587.6
 20
-43.0
 30
0.0
  0
ENDBLK
  5
274
  8
0
  0
BLOCK
  8
0
  2
*D49
 70
     1
 10
0.0
 20
0.0
 30
0.0
  3
*D49
  1

  0
LINE
  5
277
  8
0
  6
BYBLOCK
 62
     0
 10
-410.0
 20
-290.0
 30
0.0
 11
-410.0
 21
-474.1
 31
0.0
  0
LINE
  5
278
  8
0
  6
BYBLOCK
 62
     0
 10
-148.0
 20
-374.0
 30
0.0
 11
-148.0
 21
-474.1
 31
0.0
  0
LINE
  5
279
  8
0
  6
BYBLOCK
 62
     0
 10
-400.0
 20
-461.6
 30
0.0
 11
-158.0
 21
-461.6
 31
0.0
  0
INSERT
  5
27A
  8
0
  6
BYBLOCK
 62
     0
  2
_ORIGIN
 10
-410.0
 20
-461.6
 30
0.0
 41
10.0
 42
10.0
 43
10.0
 50
180.0
  0
INSERT
  5
27B
  8
0
  6
BYBLOCK
 62
     0
  2
_ORIGIN
 10
-148.0
 20
-461.6
 30
0.0
 41
10.0
 42
10.0
 43
10.0
  0
TEXT
  5
27C
  8
0
  6
BYBLOCK
 62
     0
 10
-319.0
 20
-451.6
 30
0.0
 40
30.0
  1
262
 72
     1
 11
-279.0
 21
-451.6
 31
0.0
  0
POINT
  5
27D
  8
DEFPOINTS
  6
BYBLOCK
 62
     0
 10
-410.0
 20
-280.0
 30
0.0
  0
POINT
  5
27E
  8
DEFPOINTS
  6
BYBLOCK
 62
     0
 10
-148.0
 20
-364.0
 30
0.0
  0
POINT
  5
27F
  8
DEFPOINTS
  6
BYBLOCK
 62
     0
 10
-148.0
 20
-461.6
 30
0.0
  0
ENDBLK
  5
280
  8
0
  0
BLOCK
  8
0
  2
*D50
 70
     1
 10
0.0
 20
0.0
 30
0.0
  3
*D50
  1

  0
LINE
  5
283
  8
0
  6
BYBLOCK
 62
     0
 10
-380.0
 20
-320.0
 30
0.0
 11
-380.0
 21
-574.1
 31
0.0
  0
LINE
  5
284
  8
0
  6
BYBLOCK
 62
     0
 10
84.0
 20
-320.0
 30
0.0
 11
84.0
 21
-574.1
 31
0.0
  0
LINE
  5
285
  8
0
  6
BYBLOCK
 62
     0
 10
-370.0
 20
-561.6
 30
0.0
 11
74.0
 21
-561.6
 31
0.0
  0
INSERT
  5
286
  8
0
  6
BYBLOCK
 62
     0
  2
_ORIGIN
 10
-380.0
 20
-561.6
 30
0.0
 41
10.0
 42
10.0
 43
10.0
 50
180.0
  0
INSERT
  5
287
  8
0
  6
BYBLOCK
 62
     0
  2
_ORIGIN
 10
84.0
 20
-561.6
 30
0.0
 41
10.0
 42
10.0
 43
10.0
  0
TEXT
  5
288
  8
0
  6
BYBLOCK
 62
     0
 10
-188.0
 20
-551.6
 30
0.0
 40
30.0
  1
464
 72
     1
 11
-148.0
 21
-551.6
 31
0.0
  0
POINT
  5
289
  8
DEFPOINTS
  6
BYBLOCK
 62
     0
 10
-380.0
 20
-310.0
 30
0.0
  0
POINT
  5
28A
  8
DEFPOINTS
  6
BYBLOCK
 62
     0
 10
84.0
 20
-310.0
 30
0.0
  0
POINT
  5
28B
  8
DEFPOINTS
  6
BYBLOCK
 62
     0
 10
84.0
 20
-561.6
 30
0.0
  0
ENDBLK
  5
28C
  8
0
  0
BLOCK
  8
0
  2
*D51
 70
     1
 10
0.0
 20
0.0
 30
0.0
  3
*D51
  1

  0
LINE
  5
28F
  8
0
  6
BYBLOCK
 62
     0
 10
400.0
 20
-300.0
 30
0.0
 11
-55.476618
 21
-300.0
 31
0.0
  0
LINE
  5
290
  8
0
  6
BYBLOCK
 62
     0
 10
70.0
 20
-314.0
 30
0.0
 11
-55.476618
 21
-314.0
 31
0.0
  0
LINE
  5
291
  8
0
  6
BYBLOCK
 62
     0
 10
-42.976618
 20
-290.0
 30
0.0
 11
-42.976618
 21
-280.0
 31
0.0
  0
LINE
  5
292
  8
0
  6
BYBLOCK
 62
     0
 10
-42.976618
 20
-324.0
 30
0.0
 11
-42.976618
 21
-397.978027
 31
0.0
  0
LINE
  5
293
  8
0
  6
BYBLOCK
 62
     0
 10
-42.976618
 20
-300.0
 30
0.0
 11
-42.976618
 21
-314.0
 31
0.0
  0
INSERT
  5
294
  8
0
  6
BYBLOCK
 62
     0
  2
_ORIGIN
 10
-42.976618
 20
-300.0
 30
0.0
 41
10.0
 42
10.0
 43
10.0
 50
270.0
  0
INSERT
  5
295
  8
0
  6
BYBLOCK
 62
     0
  2
_ORIGIN
 10
-42.976618
 20
-314.0
 30
0.0
 41
10.0
 42
10.0
 43
10.0
 50
90.0
  0
TEXT
  5
296
  8
0
  6
BYBLOCK
 62
     0
 10
-52.976618
 20
-387.978027
 30
0.0
 40
30.0
  1
14
 50
90.0
 72
     1
 11
-52.976618
 21
-367.978027
 31
0.0
  0
POINT
  5
297
  8
DEFPOINTS
  6
BYBLOCK
 62
     0
 10
410.0
 20
-300.0
 30
0.0
  0
POINT
  5
298
  8
DEFPOINTS
  6
BYBLOCK
 62
     0
 10
80.0
 20
-314.0
 30
0.0
  0
POINT
  5
299
  8
DEFPOINTS
  6
BYBLOCK
 62
     0
 10
-42.976618
 20
-314.0
 30
0.0
  0
ENDBLK
  5
29A
  8
0
  0
BLOCK
  8
0
  2
*D52
 70
     1
 10
0.0
 20
0.0
 30
0.0
  3
*D52
  1

  0
LINE
  5
29D
  8
0
  6
BYBLOCK
 62
     0
 10
282.0
 20
-338.5
 30
0.0
 11
282.0
 21
-474.1
 31
0.0
  0
LINE
  5
29E
  8
0
  6
BYBLOCK
 62
     0
 10
232.0
 20
-338.5
 30
0.0
 11
232.0
 21
-474.1
 31
0.0
  0
LINE
  5
29F
  8
0
  6
BYBLOCK
 62
     0
 10
272.0
 20
-461.6
 30
0.0
 11
242.0
 21
-461.6
 31
0.0
  0
INSERT
  5
2A0
  8
0
  6
BYBLOCK
 62
     0
  2
_ORIGIN
 10
282.0
 20
-461.6
 30
0.0
 41
10.0
 42
10.0
 43
10.0
  0
INSERT
  5
2A1
  8
0
  6
BYBLOCK
 62
     0
  2
_ORIGIN
 10
232.0
 20
-461.6
 30
0.0
 41
10.0
 42
10.0
 43
10.0
 50
180.0
  0
TEXT
  5
2A2
  8
0
  6
BYBLOCK
 62
     0
 10
234.5
 20
-451.6
 30
0.0
 40
30.0
  1
50
 72
     1
 11
257.0
 21
-451.6
 31
0.0
  0
POINT
  5
2A3
  8
DEFPOINTS
  6
BYBLOCK
 62
     0
 10
282.0
 20
-328.5
 30
0.0
  0
POINT
  5
2A4
  8
DEFPOINTS
  6
BYBLOCK
 62
     0
 10
232.0
 20
-328.5
 30
0.0
  0
POINT
  5
2A5
  8
DEFPOINTS
  6
BYBLOCK
 62
     0
 10
232.0
 20
-461.6
 30
0.0
  0
ENDBLK
  5
2A6
  8
0
  0
BLOCK
  8
0
  2
*D53
 70
     1
 10
0.0
 20
0.0
 30
0.0
  3
*D53
  1

  0
LINE
  5
2A9
  8
0
  6
BYBLOCK
 62
     0
 10
257.0
 20
42.0
 30
0.0
 11
257.0
 21
436.775732
 31
0.0
  0
LINE
  5
2AA
  8
0
  6
BYBLOCK
 62
     0
 10
410.0
 20
-10.0
 30
0.0
 11
410.0
 21
436.775732
 31
0.0
  0
LINE
  5
2AB
  8
0
  6
BYBLOCK
 62
     0
 10
267.0
 20
424.275732
 30
0.0
 11
400.0
 21
424.275732
 31
0.0
  0
INSERT
  5
2AC
  8
0
  6
BYBLOCK
 62
     0
  2
_ORIGIN
 10
257.0
 20
424.275732
 30
0.0
 41
10.0
 42
10.0
 43
10.0
 50
180.0
  0
INSERT
  5
2AD
  8
0
  6
BYBLOCK
 62
     0
  2
_ORIGIN
 10
410.0
 20
424.275732
 30
0.0
 41
10.0
 42
10.0
 43
10.0
  0
TEXT
  5
2AE
  8
0
  6
BYBLOCK
 62
     0
 10
298.5
 20
434.275732
 30
0.0
 40
30.0
  1
153
 72
     1
 11
333.5
 21
434.275732
 31
0.0
  0
POINT
  5
2AF
  8
DEFPOINTS
  6
BYBLOCK
 62
     0
 10
257.0
 20
32.0
 30
0.0
  0
POINT
  5
2B0
  8
DEFPOINTS
  6
BYBLOCK
 62
     0
 10
410.0
 20
-20.0
 30
0.0
  0
POINT
  5
2B1
  8
DEFPOINTS
  6
BYBLOCK
 62
     0
 10
410.0
 20
424.275732
 30
0.0
  0
ENDBLK
  5
2B2
  8
0
  0
BLOCK
  8
0
  2
*D54
 70
     1
 10
0.0
 20
0.0
 30
0.0
  3
*D54
  1

  0
LINE
  5
2B5
  8
0
  6
BYBLOCK
 62
     0
 10
-253.0
 20
42.0
 30
0.0
 11
-253.0
 21
436.775732
 31
0.0
  0
LINE
  5
2B6
  8
0
  6
BYBLOCK
 62
     0
 10
257.0
 20
42.0
 30
0.0
 11
257.0
 21
436.775732
 31
0.0
  0
LINE
  5
2B7
  8
0
  6
BYBLOCK
 62
     0
 10
-243.0
 20
424.275732
 30
0.0
 11
247.0
 21
424.275732
 31
0.0
  0
INSERT
  5
2B8
  8
0
  6
BYBLOCK
 62
     0
  2
_ORIGIN
 10
-253.0
 20
424.275732
 30
0.0
 41
10.0
 42
10.0
 43
10.0
 50
180.0
  0
INSERT
  5
2B9
  8
0
  6
BYBLOCK
 62
     0
  2
_ORIGIN
 10
257.0
 20
424.275732
 30
0.0
 41
10.0
 42
10.0
 43
10.0
  0
TEXT
  5
2BA
  8
0
  6
BYBLOCK
 62
     0
 10
-30.5
 20
434.275732
 30
0.0
 40
30.0
  1
510
 72
     1
 11
2.0
 21
434.275732
 31
0.0
  0
POINT
  5
2BB
  8
DEFPOINTS
  6
BYBLOCK
 62
     0
 10
-253.0
 20
32.0
 30
0.0
  0
POINT
  5
2BC
  8
DEFPOINTS
  6
BYBLOCK
 62
     0
 10
257.0
 20
32.0
 30
0.0
  0
POINT
  5
2BD
  8
DEFPOINTS
  6
BYBLOCK
 62
     0
 10
257.0
 20
424.275732
 30
0.0
  0
ENDBLK
  5
2BE
  8
0
  0
BLOCK
  8
0
  2
*D55
 70
     1
 10
0.0
 20
0.0
 30
0.0
  3
*D55
  1

  0
LINE
  5
2C1
  8
0
  6
BYBLOCK
 62
     0
 10
-253.0
 20
42.0
 30
0.0
 11
-253.0
 21
436.775732
 31
0.0
  0
LINE
  5
2C2
  8
0
  6
BYBLOCK
 62
     0
 10
-410.0
 20
-10.0
 30
0.0
 11
-410.0
 21
436.775732
 31
0.0
  0
LINE
  5
2C3
  8
0
  6
BYBLOCK
 62
     0
 10
-263.0
 20
424.275732
 30
0.0
 11
-400.0
 21
424.275732
 31
0.0
  0
INSERT
  5
2C4
  8
0
  6
BYBLOCK
 62
     0
  2
_ORIGIN
 10
-253.0
 20
424.275732
 30
0.0
 41
10.0
 42
10.0
 43
10.0
  0
INSERT
  5
2C5
  8
0
  6
BYBLOCK
 62
     0
  2
_ORIGIN
 10
-410.0
 20
424.275732
 30
0.0
 41
10.0
 42
10.0
 43
10.0
 50
180.0
  0
TEXT
  5
2C6
  8
0
  6
BYBLOCK
 62
     0
 10
-366.5
 20
434.275732
 30
0.0
 40
30.0
  1
157
 72
     1
 11
-331.5
 21
434.275732
 31
0.0
  0
POINT
  5
2C7
  8
DEFPOINTS
  6
BYBLOCK
 62
     0
 10
-253.0
 20
32.0
 30
0.0
  0
POINT
  5
2C8
  8
DEFPOINTS
  6
BYBLOCK
 62
     0
 10
-410.0
 20
-20.0
 30
0.0
  0
POINT
  5
2C9
  8
DEFPOINTS
  6
BYBLOCK
 62
     0
 10
-410.0
 20
424.275732
 30
0.0
  0
ENDBLK
  5
2CA
  8
0
  0
BLOCK
  8
0
  2
*D56
 70
     1
 10
0.0
 20
0.0
 30
0.0
  3
*D56
  1

  0
LINE
  5
2CD
  8
0
  6
BYBLOCK
 62
     0
 10
-283.0
 20
-312.0
 30
0.0
 11
-824.9
 21
-312.0
 31
0.0
  0
LINE
  5
2CE
  8
0
  6
BYBLOCK
 62
     0
 10
-283.0
 20
12.0
 30
0.0
 11
-824.9
 21
12.0
 31
0.0
  0
LINE
  5
2CF
  8
0
  6
BYBLOCK
 62
     0
 10
-812.4
 20
-302.0
 30
0.0
 11
-812.4
 21
2.0
 31
0.0
  0
INSERT
  5
2D0
  8
0
  6
BYBLOCK
 62
     0
  2
_ORIGIN
 10
-812.4
 20
-312.0
 30
0.0
 41
10.0
 42
10.0
 43
10.0
 50
270.0
  0
INSERT
  5
2D1
  8
0
  6
BYBLOCK
 62
     0
  2
_ORIGIN
 10
-812.4
 20
12.0
 30
0.0
 41
10.0
 42
10.0
 43
10.0
 50
90.0
  0
TEXT
  5
2D2
  8
0
  6
BYBLOCK
 62
     0
 10
-822.4
 20
-190.0
 30
0.0
 40
30.0
  1
324
 50
90.0
 72
     1
 11
-822.4
 21
-150.0
 31
0.0
  0
POINT
  5
2D3
  8
DEFPOINTS
  6
BYBLOCK
 62
     0
 10
-273.0
 20
-312.0
 30
0.0
  0
POINT
  5
2D4
  8
DEFPOINTS
  6
BYBLOCK
 62
     0
 10
-273.0
 20
12.0
 30
0.0
  0
POINT
  5
2D5
  8
DEFPOINTS
  6
BYBLOCK
 62
     0
 10
-812.4
 20
12.0
 30
0.0
  0
ENDBLK
  5
2D6
  8
0
  0
BLOCK
  8
0
  2
*D57
 70
     1
 10
0.0
 20
0.0
 30
0.0
  3
*D57
  1

  0
LINE
  5
2D9
  8
0
  6
BYBLOCK
 62
     0
 10
-288.0
 20
-328.5
 30
0.0
 11
-924.9
 21
-328.5
 31
0.0
  0
LINE
  5
2DA
  8
0
  6
BYBLOCK
 62
     0
 10
-288.0
 20
28.5
 30
0.0
 11
-924.9
 21
28.5
 31
0.0
  0
LINE
  5
2DB
  8
0
  6
BYBLOCK
 62
     0
 10
-912.4
 20
-318.5
 30
0.0
 11
-912.4
 21
18.5
 31
0.0
  0
INSERT
  5
2DC
  8
0
  6
BYBLOCK
 62
     0
  2
_ORIGIN
 10
-912.4
 20
-328.5
 30
0.0
 41
10.0
 42
10.0
 43
10.0
 50
270.0
  0
INSERT
  5
2DD
  8
0
  6
BYBLOCK
 62
     0
  2
_ORIGIN
 10
-912.4
 20
28.5
 30
0.0
 41
10.0
 42
10.0
 43
10.0
 50
90.0
  0
TEXT
  5
2DE
  8
0
  6
BYBLOCK
 62
     0
 10
-922.4
 20
-190.0
 30
0.0
 40
30.0
  1
357
 50
90.0
 72
     1
 11
-922.4
 21
-150.0
 31
0.0
  0
POINT
  5
2DF
  8
DEFPOINTS
  6
BYBLOCK
 62
     0
 10
-278.0
 20
-328.5
 30
0.0
  0
POINT
  5
2E0
  8
DEFPOINTS
  6
BYBLOCK
 62
     0
 10
-278.0
 20
28.5
 30
0.0
  0
POINT
  5
2E1
  8
DEFPOINTS
  6
BYBLOCK
 62
     0
 10
-912.4
 20
28.5
 30
0.0
  0
ENDBLK
  5
2E2
  8
0
  0
BLOCK
  8
0
  2
*D58
 70
     1
 10
0.0
 20
0.0
 30
0.0
  3
*D58
  1

  0
LINE
  5
2E5
  8
0
  6
BYBLOCK
 62
     0
 10
480.0
 20
-103.0
 30
0.0
 11
690.1
 21
-103.0
 31
0.0
  0
LINE
  5
2E6
  8
0
  6
BYBLOCK
 62
     0
 10
287.0
 20
12.0
 30
0.0
 11
690.1
 21
12.0
 31
0.0
  0
LINE
  5
2E7
  8
0
  6
BYBLOCK
 62
     0
 10
677.6
 20
-93.0
 30
0.0
 11
677.6
 21
2.0
 31
0.0
  0
LINE
  5
2E8
  8
0
  6
BYBLOCK
 62
     0
 10
677.6
 20
12.0
 30
0.0
 11
677.6
 21
102.0
 31
0.0
  0
INSERT
  5
2E9
  8
0
  6
BYBLOCK
 62
     0
  2
_ORIGIN
 10
677.6
 20
-103.0
 30
0.0
 41
10.0
 42
10.0
 43
10.0
 50
270.0
  0
INSERT
  5
2EA
  8
0
  6
BYBLOCK
 62
     0
  2
_ORIGIN
 10
677.6
 20
12.0
 30
0.0
 41
10.0
 42
10.0
 43
10.0
 50
90.0
  0
TEXT
  5
2EB
  8
0
  6
BYBLOCK
 62
     0
 10
667.6
 20
32.0
 30
0.0
 40
30.0
  1
115
 50
90.0
 72
     1
 11
667.6
 21
62.0
 31
0.0
  0
POINT
  5
2EC
  8
DEFPOINTS
  6
BYBLOCK
 62
     0
 10
470.0
 20
-103.0
 30
0.0
  0
POINT
  5
2ED
  8
DEFPOINTS
  6
BYBLOCK
 62
     0
 10
277.0
 20
12.0
 30
0.0
  0
POINT
  5
2EE
  8
DEFPOINTS
  6
BYBLOCK
 62
     0
 10
677.6
 20
12.0
 30
0.0
  0
ENDBLK
  5
2EF
  8
0
  0
BLOCK
  8
0
  2
*D59
 70
     1
 10
0.0
 20
0.0
 30
0.0
  3
*D59
  1

  0
LINE
  5
2F2
  8
0
  6
BYBLOCK
 62
     0
 10
470.0
 20
-133.0
 30
0.0
 11
780.1
 21
-133.0
 31
0.0
  0
LINE
  5
2F3
  8
0
  6
BYBLOCK
 62
     0
 10
287.0
 20
12.0
 30
0.0
 11
780.1
 21
12.0
 31
0.0
  0
LINE
  5
2F4
  8
0
  6
BYBLOCK
 62
     0
 10
767.6
 20
-123.0
 30
0.0
 11
767.6
 21
2.0
 31
0.0
  0
LINE
  5
2F5
  8
0
  6
BYBLOCK
 62
     0
 10
767.6
 20
12.0
 30
0.0
 11
767.6
 21
112.0
 31
0.0
  0
INSERT
  5
2F6
  8
0
  6
BYBLOCK
 62
     0
  2
_ORIGIN
 10
767.6
 20
-133.0
 30
0.0
 41
10.0
 42
10.0
 43
10.0
 50
270.0
  0
INSERT
  5
2F7
  8
0
  6
BYBLOCK
 62
     0
  2
_ORIGIN
 10
767.6
 20
12.0
 30
0.0
 41
10.0
 42
10.0
 43
10.0
 50
90.0
  0
TEXT
  5
2F8
  8
0
  6
BYBLOCK
 62
     0
 10
757.6
 20
32.0
 30
0.0
 40
30.0
  1
145
 50
90.0
 72
     1
 11
757.6
 21
67.0
 31
0.0
  0
POINT
  5
2F9
  8
DEFPOINTS
  6
BYBLOCK
 62
     0
 10
460.0
 20
-133.0
 30
0.0
  0
POINT
  5
2FA
  8
DEFPOINTS
  6
BYBLOCK
 62
     0
 10
277.0
 20
12.0
 30
0.0
  0
POINT
  5
2FB
  8
DEFPOINTS
  6
BYBLOCK
 62
     0
 10
767.6
 20
12.0
 30
0.0
  0
ENDBLK
  5
2FC
  8
0
  0
ENDSEC
  0
SECTION
  2
ENTITIES
  0
LINE
  5
2FD
  8
OUTLINE
  6
DASHED
 10
-278.0
 20
-300.0
 30
0.0
 11
-278.0
 21
-308.0
 31
0.0
  0
LINE
  5
2FE
  8
OUTLINE
  6
DASHED
 10
-228.0
 20
-300.0
 30
0.0
 11
-228.0
 21
-308.0
 31
0.0
  0
LINE
  5
2FF
  8
OUTLINE
  6
CONTINUOUS
 10
-228.0
 20
-328.5
 30
0.0
 11
-278.0
 21
-328.5
 31
0.0
  0
LINE
  5
300
  8
OUTLINE
  6
CONTINUOUS
 10
-278.0
 20
-308.0
 30
0.0
 11
-278.0
 21
-328.5
 31
0.0
  0
LINE
  5
301
  8
OUTLINE
  6
CONTINUOUS
 10
-228.0
 20
-308.0
 30
0.0
 11
-228.0
 21
-328.5
 31
0.0
  0
LINE
  5
302
  8
OUTLINE
  6
CONTINUOUS
 10
-228.0
 20
0.0
 30
0.0
 11
-228.0
 21
28.5
 31
0.0
  0
LINE
  5
303
  8
OUTLINE
  6
CONTINUOUS
 10
-278.0
 20
0.0
 30
0.0
 11
-278.0
 21
28.5
 31
0.0
  0
LINE
  5
304
  8
OUTLINE
  6
CONTINUOUS
 10
-228.0
 20
28.5
 30
0.0
 11
-278.0
 21
28.5
 31
0.0
  0
ARC
  5
305
  8
OUTLINE
  6
CONTINUOUS
 10
-390.0
 20
-280.0
 30
0.0
 40
20.0
 50
180.0
 51
270.0
  0
LINE
  5
306
  8
OUTLINE
  6
CONTINUOUS
 10
-410.0
 20
-20.0
 30
0.0
 11
-410.0
 21
-280.0
 31
0.0
  0
ARC
  5
307
  8
OUTLINE
  6
CONTINUOUS
 10
-390.0
 20
-20.0
 30
0.0
 40
20.0
 50
90.0
 51
180.0
  0
LINE
  5
308
  8
OUTLINE
  6
CONTINUOUS
 10
282.0
 20
-303.0
 30
0.0
 11
282.0
 21
-328.5
 31
0.0
  0
LINE
  5
309
  8
OUTLINE
  6
CONTINUOUS
 10
232.0
 20
-303.0
 30
0.0
 11
232.0
 21
-328.5
 31
0.0
  0
LINE
  5
30A
  8
OUTLINE
  6
CONTINUOUS
 10
282.0
 20
-328.5
 30
0.0
 11
232.0
 21
-328.5
 31
0.0
  0
LINE
  5
30B
  8
OUTLINE
  6
CONTINUOUS
 10
282.0
 20
28.5
 30
0.0
 11
232.0
 21
28.5
 31
0.0
  0
LINE
  5
30C
  8
OUTLINE
  6
CONTINUOUS
 10
282.0
 20
0.0
 30
0.0
 11
282.0
 21
28.5
 31
0.0
  0
LINE
  5
30D
  8
OUTLINE
  6
CONTINUOUS
 10
232.0
 20
0.0
 30
0.0
 11
232.0
 21
28.5
 31
0.0
  0
LINE
  5
30E
  8
OUTLINE
  6
CONTINUOUS
 10
390.0
 20
-300.0
 30
0.0
 11
-390.0
 21
-300.0
 31
0.0
  0
ARC
  5
30F
  8
OUTLINE
  6
CONTINUOUS
 10
390.0
 20
-280.0
 30
0.0
 40
20.0
 50
270.0
 51
0.0
  0
LINE
  5
310
  8
OUTLINE
  6
CONTINUOUS
 10
390.0
 20
0.0
 30
0.0
 11
-390.0
 21
0.0
 31
0.0
  0
LINE
  5
311
  8
OUTLINE
  6
CONTINUOUS
 10
410.0
 20
-20.0
 30
0.0
 11
410.0
 21
-280.0
 31
0.0
  0
ARC
  5
312
  8
OUTLINE
  6
CONTINUOUS
 10
390.0
 20
-20.0
 30
0.0
 40
20.0
 50
0.0
 51
90.0
  0
LINE
  5
313
  8
OUTLINE
  6
CONTINUOUS
 10
456.945927
 20
-221.722166
 30
0.0
 11
410.0
 21
-230.0
 31
0.0
  0
LINE
  5
314
  8
OUTLINE
  6
CONTINUOUS
 10
456.945927
 20
-58.277834
 30
0.0
 11
410.0
 21
-50.0
 31
0.0
  0
LINE
  5
315
  8
OUTLINE
  6
CONTINUOUS
 10
490.0
 20
-97.670144
 30
0.0
 11
490.0
 21
-182.329856
 31
0.0
  0
ARC
  5
316
  8
OUTLINE
  6
CONTINUOUS
 10
450.0
 20
-97.670144
 30
0.0
 40
40.0
 50
0.0
 51
80.0
  0
ARC
  5
317
  8
OUTLINE
  6
CONTINUOUS
 10
450.0
 20
-182.329856
 30
0.0
 40
40.0
 50
280.0
 51
0.0
  0
LINE
  5
318
  8
DETAIL
  6
CONTINUOUS
 10
-259.0
 20
-314.0
 30
0.0
 11
-259.0
 21
-315.0
 31
0.0
  0
LINE
  5
319
  8
DETAIL
  6
CONTINUOUS
 10
-247.0
 20
-314.0
 30
0.0
 11
-247.0
 21
-315.0
 31
0.0
  0
ARC
  5
31A
  8
DETAIL
  6
CONTINUOUS
 10
-376.0
 20
-310.0
 30
0.0
 40
4.0
 50
180.0
 51
270.0
  0
ARC
  5
31B
  8
DETAIL
  6
CONTINUOUS
 10
80.0
 20
-310.0
 30
0.0
 40
4.0
 50
270.0
 51
0.0
  0
ARC
  5
31C
  8
DETAIL
  6
DASHED
 10
440.85
 20
-162.5
 30
0.0
 40
10.0
 50
270.0
 51
0.0
  0
ARC
  5
31D
  8
DETAIL
  6
DASHED
 10
427.15
 20
-151.5
 30
0.0
 40
2.0
 50
270.0
 51
0.0
  0
LINE
  5
31E
  8
DETAIL
  6
DASHED
 10
440.85
 20
-172.5
 30
0.0
 11
410.0
 21
-172.5
 31
0.0
  0
LINE
  5
31F
  8
DETAIL
  6
DASHED
 10
427.15
 20
-153.5
 30
0.0
 11
410.0
 21
-153.5
 31
0.0
  0
LINE
  5
320
  8
DETAIL
  6
DASHED
 10
429.15
 20
-148.0
 30
0.0
 11
429.15
 21
-151.5
 31
0.0
  0
LINE
  5
321
  8
DETAIL
  6
DASHED
 10
450.85
 20
-148.0
 30
0.0
 11
450.85
 21
-162.5
 31
0.0
  0
LINE
  5
322
  8
DETAIL
  6
DASHED
 10
429.936117
 20
-133.0
 30
0.0
 11
450.063883
 21
-133.0
 31
0.0
  0
LINE
  5
323
  8
DETAIL
  6
DASHED
 10
450.063883
 20
-133.0
 30
0.0
 11
450.85
 21
-148.0
 31
0.0
  0
LINE
  5
324
  8
DETAIL
  6
DASHED
 10
429.15
 20
-148.0
 30
0.0
 11
450.85
 21
-148.0
 31
0.0
  0
LINE
  5
325
  8
DETAIL
  6
DASHED
 10
429.936117
 20
-133.0
 30
0.0
 11
429.15
 21
-148.0
 31
0.0
  0
CIRCLE
  5
326
  8
DETAIL
  6
DASHED
 10
450.0
 20
-103.0
 30
0.0
 40
10.85
  0
LINE
  5
327
  8
DETAIL
  6
CONTINUOUS
 10
380.0
 20
-300.0
 30
0.0
 11
368.803848
 21
-303.0
 31
0.0
  0
LINE
  5
328
  8
DETAIL
  6
CONTINUOUS
 10
100.0
 20
-300.0
 30
0.0
 11
111.196152
 21
-303.0
 31
0.0
  0
LINE
  5
329
  8
DETAIL
  6
CONTINUOUS
 10
368.803848
 20
-303.0
 30
0.0
 11
111.196152
 21
-303.0
 31
0.0
  0
ARC
  5
32A
  8
DETAIL
  6
DASHED
 10
-253.0
 20
-312.0
 30
0.0
 40
6.0
 50
0.0
 51
180.0
  0
LINE
  5
32B
  8
DETAIL
  6
CONTINUOUS
 10
80.0
 20
-314.0
 30
0.0
 11
-376.0
 21
-314.0
 31
0.0
  0
LINE
  5
32C
  8
DETAIL
  6
CONTINUOUS
 10
84.0
 20
-300.0
 30
0.0
 11
84.0
 21
-310.0
 31
0.0
  0
LINE
  5
32D
  8
DETAIL
  6
CONTINUOUS
 10
-380.0
 20
-300.0
 30
0.0
 11
-380.0
 21
-310.0
 31
0.0
  0
LINE
  5
32E
  8
DETAIL
  6
CONTINUOUS
 10
470.0
 20
-43.0
 30
0.0
 11
470.0
 21
-63.029128
 31
0.0
  0
ARC
  5
32F
  8
DETAIL
  6
CONTINUOUS
 10
412.0
 20
-60.50692
 30
0.0
 40
10.0
 50
0.0
 51
80.0
  0
ARC
  5
330
  8
DETAIL
  6
CONTINUOUS
 10
412.0
 20
-219.49308
 30
0.0
 40
10.0
 50
280.0
 51
0.0
  0
LINE
  5
331
  8
DETAIL
  6
CONTINUOUS
 10
422.0
 20
-60.50692
 30
0.0
 11
422.0
 21
-219.49308
 31
0.0
  0
LINE
  5
332
  8
DETAIL
  6
CONTINUOUS
 10
470.0
 20
-43.0
 30
0.0
 11
410.0
 21
-43.0
 31
0.0
  0
ARC
  5
333
  8
DETAIL
  6
CONTINUOUS
 10
450.0
 20
-182.329856
 30
0.0
 40
40.0
 50
280.0
 51
0.0
  0
ARC
  5
334
  8
DETAIL
  6
CONTINUOUS
 10
450.0
 20
-97.670144
 30
0.0
 40
40.0
 50
0.0
 51
80.0
  0
LINE
  5
335
  8
DETAIL
  6
CONTINUOUS
 10
456.945927
 20
-221.722166
 30
0.0
 11
410.0
 21
-230.0
 31
0.0
  0
LINE
  5
336
  8
DETAIL
  6
CONTINUOUS
 10
456.945927
 20
-58.277834
 30
0.0
 11
410.0
 21
-50.0
 31
0.0
  0
LINE
  5
337
  8
DETAIL
  6
CONTINUOUS
 10
-426.0
 20
-190.0
 30
0.0
 11
-410.0
 21
-210.0
 31
0.0
  0
LINE
  5
338
  8
DETAIL
  6
CONTINUOUS
 10
-426.0
 20
-110.0
 30
0.0
 11
-410.0
 21
-90.0
 31
0.0
  0
LINE
  5
339
  8
DETAIL
  6
CONTINUOUS
 10
-426.0
 20
-110.0
 30
0.0
 11
-426.0
 21
-190.0
 31
0.0
  0
LINE
  5
33A
  8
DETAIL
  6
CONTINUOUS
 10
490.0
 20
-97.670144
 30
0.0
 11
490.0
 21
-182.329856
 31
0.0
  0
ARC
  5
33B
  8
DETAIL
  6
CONTINUOUS
 10
366.5
 20
-204.0
 30
0.0
 40
4.0
 50
0.0
 51
90.0
  0
ARC
  5
33C
  8
DETAIL
  6
CONTINUOUS
 10
366.5
 20
-256.0
 30
0.0
 40
4.0
 50
270.0
 51
0.0
  0
LINE
  5
33D
  8
DETAIL
  6
CONTINUOUS
 10
370.5
 20
-256.0
 30
0.0
 11
370.5
 21
-204.0
 31
0.0
  0
ARC
  5
33E
  8
DETAIL
  6
CONTINUOUS
 10
-366.5
 20
-204.0
 30
0.0
 40
4.0
 50
90.0
 51
180.0
  0
ARC
  5
33F
  8
DETAIL
  6
CONTINUOUS
 10
-366.5
 20
-256.0
 30
0.0
 40
4.0
 50
180.0
 51
270.0
  0
LINE
  5
340
  8
DETAIL
  6
CONTINUOUS
 10
-370.5
 20
-256.0
 30
0.0
 11
-370.5
 21
-204.0
 31
0.0
  0
LINE
  5
341
  8
DETAIL
  6
CONTINUOUS
 10
-366.5
 20
-200.0
 30
0.0
 11
366.5
 21
-200.0
 31
0.0
  0
LINE
  5
342
  8
DETAIL
  6
CONTINUOUS
 10
-366.5
 20
-260.0
 30
0.0
 11
366.5
 21
-260.0
 31
0.0
  0
ARC
  5
343
  8
DETAIL
  6
CONTINUOUS
 10
-366.5
 20
-96.0
 30
0.0
 40
4.0
 50
180.0
 51
270.0
  0
ARC
  5
344
  8
DETAIL
  6
CONTINUOUS
 10
-366.5
 20
-44.0
 30
0.0
 40
4.0
 50
90.0
 51
180.0
  0
LINE
  5
345
  8
DETAIL
  6
CONTINUOUS
 10
-370.5
 20
-44.0
 30
0.0
 11
-370.5
 21
-96.0
 31
0.0
  0
LINE
  5
346
  8
DETAIL
  6
CONTINUOUS
 10
-366.5
 20
-100.0
 30
0.0
 11
366.5
 21
-100.0
 31
0.0
  0
ARC
  5
347
  8
DETAIL
  6
CONTINUOUS
 10
366.5
 20
-96.0
 30
0.0
 40
4.0
 50
270.0
 51
0.0
  0
LINE
  5
348
  8
DETAIL
  6
CONTINUOUS
 10
-366.5
 20
-40.0
 30
0.0
 11
366.5
 21
-40.0
 31
0.0
  0
ARC
  5
349
  8
DETAIL
  6
CONTINUOUS
 10
366.5
 20
-44.0
 30
0.0
 40
4.0
 50
0.0
 51
90.0
  0
LINE
  5
34A
  8
DETAIL
  6
CONTINUOUS
 10
370.5
 20
-44.0
 30
0.0
 11
370.5
 21
-96.0
 31
0.0
  0
ARC
  5
34B
  8
DETAIL
  6
CONTINUOUS
 10
366.5
 20
-176.0
 30
0.0
 40
4.0
 50
270.0
 51
0.0
  0
ARC
  5
34C
  8
DETAIL
  6
CONTINUOUS
 10
366.5
 20
-124.0
 30
0.0
 40
4.0
 50
0.0
 51
90.0
  0
LINE
  5
34D
  8
DETAIL
  6
CONTINUOUS
 10
370.5
 20
-124.0
 30
0.0
 11
370.5
 21
-176.0
 31
0.0
  0
ARC
  5
34E
  8
DETAIL
  6
CONTINUOUS
 10
-366.5
 20
-176.0
 30
0.0
 40
4.0
 50
180.0
 51
270.0
  0
ARC
  5
34F
  8
DETAIL
  6
CONTINUOUS
 10
-366.5
 20
-124.0
 30
0.0
 40
4.0
 50
90.0
 51
180.0
  0
LINE
  5
350
  8
DETAIL
  6
CONTINUOUS
 10
-370.5
 20
-124.0
 30
0.0
 11
-370.5
 21
-176.0
 31
0.0
  0
LINE
  5
351
  8
DETAIL
  6
CONTINUOUS
 10
-366.5
 20
-180.0
 30
0.0
 11
366.5
 21
-180.0
 31
0.0
  0
LINE
  5
352
  8
DETAIL
  6
CONTINUOUS
 10
-366.5
 20
-120.0
 30
0.0
 11
366.5
 21
-120.0
 31
0.0
  0
ARC
  5
353
  8
DETAIL
  6
CONTINUOUS
 10
362.5
 20
-252.5
 30
0.0
 40
20.0
 50
270.0
 51
0.0
  0
ARC
  5
354
  8
DETAIL
  6
CONTINUOUS
 10
-362.5
 20
-252.5
 30
0.0
 40
20.0
 50
180.0
 51
270.0
  0
ARC
  5
355
  8
DETAIL
  6
CONTINUOUS
 10
-362.5
 20
-47.5
 30
0.0
 40
20.0
 50
90.0
 51
180.0
  0
ARC
  5
356
  8
DETAIL
  6
CONTINUOUS
 10
362.5
 20
-47.5
 30
0.0
 40
20.0
 50
0.0
 51
90.0
  0
LINE
  5
357
  8
DETAIL
  6
CONTINUOUS
 10
-382.5
 20
-47.5
 30
0.0
 11
-382.5
 21
-252.5
 31
0.0
  0
LINE
  5
358
  8
DETAIL
  6
CONTINUOUS
 10
382.5
 20
-47.5
 30
0.0
 11
382.5
 21
-252.5
 31
0.0
  0
LINE
  5
359
  8
DETAIL
  6
CONTINUOUS
 10
-362.5
 20
-272.5
 30
0.0
 11
362.5
 21
-272.5
 31
0.0
  0
LINE
  5
35A
  8
DETAIL
  6
CONTINUOUS
 10
-362.5
 20
-27.5
 30
0.0
 11
362.5
 21
-27.5
 31
0.0
  0
ARC
  5
35B
  8
DETAIL
  6
CONTINUOUS
 10
-390.0
 20
-20.0
 30
0.0
 40
20.0
 50
90.0
 51
180.0
  0
ARC
  5
35C
  8
DETAIL
  6
CONTINUOUS
 10
-390.0
 20
-280.0
 30
0.0
 40
20.0
 50
180.0
 51
270.0
  0
ARC
  5
35D
  8
DETAIL
  6
CONTINUOUS
 10
390.0
 20
-280.0
 30
0.0
 40
20.0
 50
270.0
 51
0.0
  0
ARC
  5
35E
  8
DETAIL
  6
CONTINUOUS
 10
390.0
 20
-20.0
 30
0.0
 40
20.0
 50
0.0
 51
90.0
  0
LINE
  5
35F
  8
DETAIL
  6
DASHED
 10
-259.0
 20
-312.0
 30
0.0
 11
-259.0
 21
-314.0
 31
0.0
  0
LINE
  5
360
  8
DETAIL
  6
DASHED
 10
-247.0
 20
-312.0
 30
0.0
 11
-247.0
 21
-314.0
 31
0.0
  0
LINE
  5
361
  8
DETAIL
  6
CONTINUOUS
 10
-228.0
 20
-314.0
 30
0.0
 11
-228.0
 21
-328.5
 31
0.0
  0
LINE
  5
362
  8
DETAIL
  6
CONTINUOUS
 10
-278.0
 20
-314.0
 30
0.0
 11
-278.0
 21
-328.5
 31
0.0
  0
ARC
  5
363
  8
DETAIL
  6
CONTINUOUS
 10
-253.0
 20
-315.0
 30
0.0
 40
6.0
 50
180.0
 51
0.0
  0
LINE
  5
364
  8
DETAIL
  6
CONTINUOUS
 10
-228.0
 20
-328.5
 30
0.0
 11
-278.0
 21
-328.5
 31
0.0
  0
LINE
  5
365
  8
DETAIL
  6
DASHED
 10
-278.0
 20
-300.0
 30
0.0
 11
-278.0
 21
-314.0
 31
0.0
  0
LINE
  5
366
  8
DETAIL
  6
DASHED
 10
-228.0
 20
-300.0
 30
0.0
 11
-228.0
 21
-314.0
 31
0.0
  0
LINE
  5
367
  8
DETAIL
  6
CONTINUOUS
 10
251.0
 20
-312.0
 30
0.0
 11
251.0
 21
-315.0
 31
0.0
  0
ARC
  5
368
  8
DETAIL
  6
CONTINUOUS
 10
257.0
 20
-315.0
 30
0.0
 40
6.0
 50
180.0
 51
0.0
  0
LINE
  5
369
  8
DETAIL
  6
CONTINUOUS
 10
263.0
 20
-312.0
 30
0.0
 11
263.0
 21
-315.0
 31
0.0
  0
ARC
  5
36A
  8
DETAIL
  6
CONTINUOUS
 10
257.0
 20
-312.0
 30
0.0
 40
6.0
 50
0.0
 51
180.0
  0
LINE
  5
36B
  8
DETAIL
  6
CONTINUOUS
 10
282.0
 20
-328.5
 30
0.0
 11
232.0
 21
-328.5
 31
0.0
  0
LINE
  5
36C
  8
DETAIL
  6
CONTINUOUS
 10
232.0
 20
-303.0
 30
0.0
 11
232.0
 21
-328.5
 31
0.0
  0
LINE
  5
36D
  8
DETAIL
  6
CONTINUOUS
 10
282.0
 20
-303.0
 30
0.0
 11
282.0
 21
-328.5
 31
0.0
  0
LINE
  5
36E
  8
DETAIL
  6
CONTINUOUS
 10
-259.0
 20
12.0
 30
0.0
 11
-259.0
 21
15.0
 31
0.0
  0
ARC
  5
36F
  8
DETAIL
  6
CONTINUOUS
 10
-253.0
 20
15.0
 30
0.0
 40
6.0
 50
0.0
 51
180.0
  0
LINE
  5
370
  8
DETAIL
  6
CONTINUOUS
 10
-247.0
 20
12.0
 30
0.0
 11
-247.0
 21
15.0
 31
0.0
  0
ARC
  5
371
  8
DETAIL
  6
CONTINUOUS
 10
-253.0
 20
12.0
 30
0.0
 40
6.0
 50
180.0
 51
0.0
  0
LINE
  5
372
  8
DETAIL
  6
CONTINUOUS
 10
-228.0
 20
28.5
 30
0.0
 11
-278.0
 21
28.5
 31
0.0
  0
LINE
  5
373
  8
DETAIL
  6
CONTINUOUS
 10
-278.0
 20
0.0
 30
0.0
 11
-278.0
 21
28.5
 31
0.0
  0
LINE
  5
374
  8
DETAIL
  6
CONTINUOUS
 10
-228.0
 20
0.0
 30
0.0
 11
-228.0
 21
28.5
 31
0.0
  0
LINE
  5
375
  8
DETAIL
  6
CONTINUOUS
 10
251.0
 20
12.0
 30
0.0
 11
251.0
 21
15.0
 31
0.0
  0
ARC
  5
376
  8
DETAIL
  6
CONTINUOUS
 10
257.0
 20
12.0
 30
0.0
 40
6.0
 50
180.0
 51
0.0
  0
LINE
  5
377
  8
DETAIL
  6
CONTINUOUS
 10
263.0
 20
12.0
 30
0.0
 11
263.0
 21
15.0
 31
0.0
  0
ARC
  5
378
  8
DETAIL
  6
CONTINUOUS
 10
257.0
 20
15.0
 30
0.0
 40
6.0
 50
0.0
 51
180.0
  0
LINE
  5
379
  8
DETAIL
  6
CONTINUOUS
 10
232.0
 20
0.0
 30
0.0
 11
232.0
 21
28.5
 31
0.0
  0
LINE
  5
37A
  8
DETAIL
  6
CONTINUOUS
 10
282.0
 20
0.0
 30
0.0
 11
282.0
 21
28.5
 31
0.0
  0
LINE
  5
37B
  8
DETAIL
  6
CONTINUOUS
 10
410.0
 20
-20.0
 30
0.0
 11
410.0
 21
-280.0
 31
0.0
  0
LINE
  5
37C
  8
DETAIL
  6
CONTINUOUS
 10
-410.0
 20
-20.0
 30
0.0
 11
-410.0
 21
-280.0
 31
0.0
  0
LINE
  5
37D
  8
DETAIL
  6
CONTINUOUS
 10
390.0
 20
0.0
 30
0.0
 11
-390.0
 21
0.0
 31
0.0
  0
LINE
  5
37E
  8
DETAIL
  6
CONTINUOUS
 10
390.0
 20
-300.0
 30
0.0
 11
-390.0
 21
-300.0
 31
0.0
  0
LINE
  5
37F
  8
DETAIL
  6
CONTINUOUS
 10
282.0
 20
28.5
 30
0.0
 11
232.0
 21
28.5
 31
0.0
  0
LINE
  5
380
  8
BASIS
  6
DASHDOT
 10
-455.0
 20
-150.0
 30
0.0
 11
455.0
 21
-150.0
 31
0.0
  0
LINE
  5
381
  8
BASIS
  6
DASHDOT
 10
0.0
 20
50.0
 30
0.0
 11
0.0
 21
-370.0
 31
0.0
  0
LINE
  5
382
  8
BASIS
  6
DASHDOT
 10
-148.0
 20
-264.0
 30
0.0
 11
-148.0
 21
-364.0
 31
0.0
  0
LINE
  5
383
  8
SIZE
  6
CONTINUOUS
 62
    30
 10
470.0
 20
-133.0
 30
0.0
 11
780.1
 21
-133.0
 31
0.0
  0
LINE
  5
384
  8
SIZE
  6
CONTINUOUS
 62
    30
 10
287.0
 20
12.0
 30
0.0
 11
780.1
 21
12.0
 31
0.0
  0
LINE
  5
385
  8
SIZE
  6
CONTINUOUS
 62
    30
 10
767.6
 20
-123.0
 30
0.0
 11
767.6
 21
2.0
 31
0.0
  0
LINE
  5
386
  8
SIZE
  6
CONTINUOUS
 62
    30
 10
767.6
 20
12.0
 30
0.0
 11
767.6
 21
112.0
 31
0.0
  0
CIRCLE
  5
387
  8
SIZE
  6
CONTINUOUS
 62
    30
 10
767.6
 20
-133.0
 30
0.0
 40
5.0
  0
LINE
  5
388
  8
SIZE
  6
CONTINUOUS
 62
    30
 10
767.6
 20
-133.0
 30
0.0
 11
767.6
 21
-123.0
 31
0.0
  0
CIRCLE
  5
389
  8
SIZE
  6
CONTINUOUS
 62
    30
 10
767.6
 20
12.0
 30
0.0
 40
5.0
  0
LINE
  5
38A
  8
SIZE
  6
CONTINUOUS
 62
    30
 10
767.6
 20
12.0
 30
0.0
 11
767.6
 21
2.0
 31
0.0
  0
TEXT
  5
38B
  8
SIZE
  6
CONTINUOUS
 62
    30
 10
757.6
 20
32.0
 30
0.0
 40
30.0
  1
145
 50
90.0
 72
     1
 11
757.6
 21
67.0
 31
0.0
  0
POINT
  5
38C
  8
DEFPOINTS
  6
CONTINUOUS
 62
    30
 10
460.0
 20
-133.0
 30
0.0
  0
POINT
  5
38D
  8
DEFPOINTS
  6
CONTINUOUS
 62
    30
 10
277.0
 20
12.0
 30
0.0
  0
POINT
  5
38E
  8
DEFPOINTS
  6
CONTINUOUS
 62
    30
 10
767.6
 20
12.0
 30
0.0
  0
LINE
  5
38F
  8
SIZE
  6
CONTINUOUS
 62
    30
 10
480.0
 20
-103.0
 30
0.0
 11
690.1
 21
-103.0
 31
0.0
  0
LINE
  5
390
  8
SIZE
  6
CONTINUOUS
 62
    30
 10
287.0
 20
12.0
 30
0.0
 11
690.1
 21
12.0
 31
0.0
  0
LINE
  5
391
  8
SIZE
  6
CONTINUOUS
 62
    30
 10
677.6
 20
-93.0
 30
0.0
 11
677.6
 21
2.0
 31
0.0
  0
LINE
  5
392
  8
SIZE
  6
CONTINUOUS
 62
    30
 10
677.6
 20
12.0
 30
0.0
 11
677.6
 21
102.0
 31
0.0
  0
CIRCLE
  5
393
  8
SIZE
  6
CONTINUOUS
 62
    30
 10
677.6
 20
-103.0
 30
0.0
 40
5.0
  0
LINE
  5
394
  8
SIZE
  6
CONTINUOUS
 62
    30
 10
677.6
 20
-103.0
 30
0.0
 11
677.6
 21
-93.0
 31
0.0
  0
CIRCLE
  5
395
  8
SIZE
  6
CONTINUOUS
 62
    30
 10
677.6
 20
12.0
 30
0.0
 40
5.0
  0
LINE
  5
396
  8
SIZE
  6
CONTINUOUS
 62
    30
 10
677.6
 20
12.0
 30
0.0
 11
677.6
 21
2.0
 31
0.0
  0
TEXT
  5
397
  8
SIZE
  6
CONTINUOUS
 62
    30
 10
667.6
 20
32.0
 30
0.0
 40
30.0
  1
115
 50
90.0
 72
     1
 11
667.6
 21
62.0
 31
0.0
  0
POINT
  5
398
  8
DEFPOINTS
  6
CONTINUOUS
 62
    30
 10
470.0
 20
-103.0
 30
0.0
  0
POINT
  5
399
  8
DEFPOINTS
  6
CONTINUOUS
 62
    30
 10
277.0
 20
12.0
 30
0.0
  0
POINT
  5
39A
  8
DEFPOINTS
  6
CONTINUOUS
 62
    30
 10
677.6
 20
12.0
 30
0.0
  0
LINE
  5
39B
  8
SIZE
  6
CONTINUOUS
 62
    30
 10
-288.0
 20
-328.5
 30
0.0
 11
-924.9
 21
-328.5
 31
0.0
  0
LINE
  5
39C
  8
SIZE
  6
CONTINUOUS
 62
    30
 10
-288.0
 20
28.5
 30
0.0
 11
-924.9
 21
28.5
 31
0.0
  0
LINE
  5
39D
  8
SIZE
  6
CONTINUOUS
 62
    30
 10
-912.4
 20
-318.5
 30
0.0
 11
-912.4
 21
18.5
 31
0.0
  0
CIRCLE
  5
39E
  8
SIZE
  6
CONTINUOUS
 62
    30
 10
-912.4
 20
-328.5
 30
0.0
 40
5.0
  0
LINE
  5
39F
  8
SIZE
  6
CONTINUOUS
 62
    30
 10
-912.4
 20
-328.5
 30
0.0
 11
-912.4
 21
-318.5
 31
0.0
  0
CIRCLE
  5
3A0
  8
SIZE
  6
CONTINUOUS
 62
    30
 10
-912.4
 20
28.5
 30
0.0
 40
5.0
  0
LINE
  5
3A1
  8
SIZE
  6
CONTINUOUS
 62
    30
 10
-912.4
 20
28.5
 30
0.0
 11
-912.4
 21
18.5
 31
0.0
  0
TEXT
  5
3A2
  8
SIZE
  6
CONTINUOUS
 62
    30
 10
-922.4
 20
-190.0
 30
0.0
 40
30.0
  1
357
 50
90.0
 72
     1
 11
-922.4
 21
-150.0
 31
0.0
  0
POINT
  5
3A3
  8
DEFPOINTS
  6
CONTINUOUS
 62
    30
 10
-278.0
 20
-328.5
 30
0.0
  0
POINT
  5
3A4
  8
DEFPOINTS
  6
CONTINUOUS
 62
    30
 10
-278.0
 20
28.5
 30
0.0
  0
POINT
  5
3A5
  8
DEFPOINTS
  6
CONTINUOUS
 62
    30
 10
-912.4
 20
28.5
 30
0.0
  0
LINE
  5
3A6
  8
SIZE
  6
CONTINUOUS
 62
    30
 10
-283.0
 20
-312.0
 30
0.0
 11
-824.9
 21
-312.0
 31
0.0
  0
LINE
  5
3A7
  8
SIZE
  6
CONTINUOUS
 62
    30
 10
-283.0
 20
12.0
 30
0.0
 11
-824.9
 21
12.0
 31
0.0
  0
LINE
  5
3A8
  8
SIZE
  6
CONTINUOUS
 62
    30
 10
-812.4
 20
-302.0
 30
0.0
 11
-812.4
 21
2.0
 31
0.0
  0
CIRCLE
  5
3A9
  8
SIZE
  6
CONTINUOUS
 62
    30
 10
-812.4
 20
-312.0
 30
0.0
 40
5.0
  0
LINE
  5
3AA
  8
SIZE
  6
CONTINUOUS
 62
    30
 10
-812.4
 20
-312.0
 30
0.0
 11
-812.4
 21
-302.0
 31
0.0
  0
CIRCLE
  5
3AB
  8
SIZE
  6
CONTINUOUS
 62
    30
 10
-812.4
 20
12.0
 30
0.0
 40
5.0
  0
LINE
  5
3AC
  8
SIZE
  6
CONTINUOUS
 62
    30
 10
-812.4
 20
12.0
 30
0.0
 11
-812.4
 21
2.0
 31
0.0
  0
TEXT
  5
3AD
  8
SIZE
  6
CONTINUOUS
 62
    30
 10
-822.4
 20
-190.0
 30
0.0
 40
30.0
  1
324
 50
90.0
 72
     1
 11
-822.4
 21
-150.0
 31
0.0
  0
POINT
  5
3AE
  8
DEFPOINTS
  6
CONTINUOUS
 62
    30
 10
-273.0
 20
-312.0
 30
0.0
  0
POINT
  5
3AF
  8
DEFPOINTS
  6
CONTINUOUS
 62
    30
 10
-273.0
 20
12.0
 30
0.0
  0
POINT
  5
3B0
  8
DEFPOINTS
  6
CONTINUOUS
 62
    30
 10
-812.4
 20
12.0
 30
0.0
  0
LINE
  5
3B1
  8
SIZE
  6
CONTINUOUS
 62
    30
 10
-253.0
 20
42.0
 30
0.0
 11
-253.0
 21
436.775732
 31
0.0
  0
LINE
  5
3B2
  8
SIZE
  6
CONTINUOUS
 62
    30
 10
-410.0
 20
-10.0
 30
0.0
 11
-410.0
 21
436.775732
 31
0.0
  0
LINE
  5
3B3
  8
SIZE
  6
CONTINUOUS
 62
    30
 10
-263.0
 20
424.275732
 30
0.0
 11
-400.0
 21
424.275732
 31
0.0
  0
CIRCLE
  5
3B4
  8
SIZE
  6
CONTINUOUS
 62
    30
 10
-253.0
 20
424.275732
 30
0.0
 40
5.0
  0
LINE
  5
3B5
  8
SIZE
  6
CONTINUOUS
 62
    30
 10
-253.0
 20
424.275732
 30
0.0
 11
-263.0
 21
424.275732
 31
0.0
  0
CIRCLE
  5
3B6
  8
SIZE
  6
CONTINUOUS
 62
    30
 10
-410.0
 20
424.275732
 30
0.0
 40
5.0
  0
LINE
  5
3B7
  8
SIZE
  6
CONTINUOUS
 62
    30
 10
-410.0
 20
424.275732
 30
0.0
 11
-400.0
 21
424.275732
 31
0.0
  0
TEXT
  5
3B8
  8
SIZE
  6
CONTINUOUS
 62
    30
 10
-366.5
 20
434.275732
 30
0.0
 40
30.0
  1
157
 72
     1
 11
-331.5
 21
434.275732
 31
0.0
  0
POINT
  5
3B9
  8
DEFPOINTS
  6
CONTINUOUS
 62
    30
 10
-253.0
 20
32.0
 30
0.0
  0
POINT
  5
3BA
  8
DEFPOINTS
  6
CONTINUOUS
 62
    30
 10
-410.0
 20
-20.0
 30
0.0
  0
POINT
  5
3BB
  8
DEFPOINTS
  6
CONTINUOUS
 62
    30
 10
-410.0
 20
424.275732
 30
0.0
  0
LINE
  5
3BC
  8
SIZE
  6
CONTINUOUS
 62
    30
 10
-253.0
 20
42.0
 30
0.0
 11
-253.0
 21
436.775732
 31
0.0
  0
LINE
  5
3BD
  8
SIZE
  6
CONTINUOUS
 62
    30
 10
257.0
 20
42.0
 30
0.0
 11
257.0
 21
436.775732
 31
0.0
  0
LINE
  5
3BE
  8
SIZE
  6
CONTINUOUS
 62
    30
 10
-243.0
 20
424.275732
 30
0.0
 11
247.0
 21
424.275732
 31
0.0
  0
CIRCLE
  5
3BF
  8
SIZE
  6
CONTINUOUS
 62
    30
 10
-253.0
 20
424.275732
 30
0.0
 40
5.0
  0
LINE
  5
3C0
  8
SIZE
  6
CONTINUOUS
 62
    30
 10
-253.0
 20
424.275732
 30
0.0
 11
-243.0
 21
424.275732
 31
0.0
  0
CIRCLE
  5
3C1
  8
SIZE
  6
CONTINUOUS
 62
    30
 10
257.0
 20
424.275732
 30
0.0
 40
5.0
  0
LINE
  5
3C2
  8
SIZE
  6
CONTINUOUS
 62
    30
 10
257.0
 20
424.275732
 30
0.0
 11
247.0
 21
424.275732
 31
0.0
  0
TEXT
  5
3C3
  8
SIZE
  6
CONTINUOUS
 62
    30
 10
-30.5
 20
434.275732
 30
0.0
 40
30.0
  1
510
 72
     1
 11
2.0
 21
434.275732
 31
0.0
  0
POINT
  5
3C4
  8
DEFPOINTS
  6
CONTINUOUS
 62
    30
 10
-253.0
 20
32.0
 30
0.0
  0
POINT
  5
3C5
  8
DEFPOINTS
  6
CONTINUOUS
 62
    30
 10
257.0
 20
32.0
 30
0.0
  0
POINT
  5
3C6
  8
DEFPOINTS
  6
CONTINUOUS
 62
    30
 10
257.0
 20
424.275732
 30
0.0
  0
LINE
  5
3C7
  8
SIZE
  6
CONTINUOUS
 62
    30
 10
257.0
 20
42.0
 30
0.0
 11
257.0
 21
436.775732
 31
0.0
  0
LINE
  5
3C8
  8
SIZE
  6
CONTINUOUS
 62
    30
 10
410.0
 20
-10.0
 30
0.0
 11
410.0
 21
436.775732
 31
0.0
  0
LINE
  5
3C9
  8
SIZE
  6
CONTINUOUS
 62
    30
 10
267.0
 20
424.275732
 30
0.0
 11
400.0
 21
424.275732
 31
0.0
  0
CIRCLE
  5
3CA
  8
SIZE
  6
CONTINUOUS
 62
    30
 10
257.0
 20
424.275732
 30
0.0
 40
5.0
  0
LINE
  5
3CB
  8
SIZE
  6
CONTINUOUS
 62
    30
 10
257.0
 20
424.275732
 30
0.0
 11
267.0
 21
424.275732
 31
0.0
  0
CIRCLE
  5
3CC
  8
SIZE
  6
CONTINUOUS
 62
    30
 10
410.0
 20
424.275732
 30
0.0
 40
5.0
  0
LINE
  5
3CD
  8
SIZE
  6
CONTINUOUS
 62
    30
 10
410.0
 20
424.275732
 30
0.0
 11
400.0
 21
424.275732
 31
0.0
  0
TEXT
  5
3CE
  8
SIZE
  6
CONTINUOUS
 62
    30
 10
298.5
 20
434.275732
 30
0.0
 40
30.0
  1
153
 72
     1
 11
333.5
 21
434.275732
 31
0.0
  0
POINT
  5
3CF
  8
DEFPOINTS
  6
CONTINUOUS
 62
    30
 10
257.0
 20
32.0
 30
0.0
  0
POINT
  5
3D0
  8
DEFPOINTS
  6
CONTINUOUS
 62
    30
 10
410.0
 20
-20.0
 30
0.0
  0
POINT
  5
3D1
  8
DEFPOINTS
  6
CONTINUOUS
 62
    30
 10
410.0
 20
424.275732
 30
0.0
  0
LINE
  5
3D2
  8
SIZE
  6
CONTINUOUS
 62
    30
 10
282.0
 20
-338.5
 30
0.0
 11
282.0
 21
-474.1
 31
0.0
  0
LINE
  5
3D3
  8
SIZE
  6
CONTINUOUS
 62
    30
 10
232.0
 20
-338.5
 30
0.0
 11
232.0
 21
-474.1
 31
0.0
  0
LINE
  5
3D4
  8
SIZE
  6
CONTINUOUS
 62
    30
 10
272.0
 20
-461.6
 30
0.0
 11
242.0
 21
-461.6
 31
0.0
  0
CIRCLE
  5
3D5
  8
SIZE
  6
CONTINUOUS
 62
    30
 10
282.0
 20
-461.6
 30
0.0
 40
5.0
  0
LINE
  5
3D6
  8
SIZE
  6
CONTINUOUS
 62
    30
 10
282.0
 20
-461.6
 30
0.0
 11
272.0
 21
-461.6
 31
0.0
  0
CIRCLE
  5
3D7
  8
SIZE
  6
CONTINUOUS
 62
    30
 10
232.0
 20
-461.6
 30
0.0
 40
5.0
  0
LINE
  5
3D8
  8
SIZE
  6
CONTINUOUS
 62
    30
 10
232.0
 20
-461.6
 30
0.0
 11
242.0
 21
-461.6
 31
0.0
  0
TEXT
  5
3D9
  8
SIZE
  6
CONTINUOUS
 62
    30
 10
234.5
 20
-451.6
 30
0.0
 40
30.0
  1
50
 72
     1
 11
257.0
 21
-451.6
 31
0.0
  0
POINT
  5
3DA
  8
DEFPOINTS
  6
CONTINUOUS
 62
    30
 10
282.0
 20
-328.5
 30
0.0
  0
POINT
  5
3DB
  8
DEFPOINTS
  6
CONTINUOUS
 62
    30
 10
232.0
 20
-328.5
 30
0.0
  0
POINT
  5
3DC
  8
DEFPOINTS
  6
CONTINUOUS
 62
    30
 10
232.0
 20
-461.6
 30
0.0
  0
LINE
  5
3DD
  8
SIZE
  6
CONTINUOUS
 62
    30
 10
400.0
 20
-300.0
 30
0.0
 11
-55.476618
 21
-300.0
 31
0.0
  0
LINE
  5
3DE
  8
SIZE
  6
CONTINUOUS
 62
    30
 10
70.0
 20
-314.0
 30
0.0
 11
-55.476618
 21
-314.0
 31
0.0
  0
LINE
  5
3DF
  8
SIZE
  6
CONTINUOUS
 62
    30
 10
-42.976618
 20
-290.0
 30
0.0
 11
-42.976618
 21
-280.0
 31
0.0
  0
LINE
  5
3E0
  8
SIZE
  6
CONTINUOUS
 62
    30
 10
-42.976618
 20
-324.0
 30
0.0
 11
-42.976618
 21
-397.978027
 31
0.0
  0
LINE
  5
3E1
  8
SIZE
  6
CONTINUOUS
 62
    30
 10
-42.976618
 20
-300.0
 30
0.0
 11
-42.976618
 21
-314.0
 31
0.0
  0
CIRCLE
  5
3E2
  8
SIZE
  6
CONTINUOUS
 62
    30
 10
-42.976618
 20
-300.0
 30
0.0
 40
5.0
  0
LINE
  5
3E3
  8
SIZE
  6
CONTINUOUS
 62
    30
 10
-42.976618
 20
-300.0
 30
0.0
 11
-42.976618
 21
-290.0
 31
0.0
  0
CIRCLE
  5
3E4
  8
SIZE
  6
CONTINUOUS
 62
    30
 10
-42.976618
 20
-314.0
 30
0.0
 40
5.0
  0
LINE
  5
3E5
  8
SIZE
  6
CONTINUOUS
 62
    30
 10
-42.976618
 20
-314.0
 30
0.0
 11
-42.976618
 21
-324.0
 31
0.0
  0
TEXT
  5
3E6
  8
SIZE
  6
CONTINUOUS
 62
    30
 10
-52.976618
 20
-387.978027
 30
0.0
 40
30.0
  1
14
 50
90.0
 72
     1
 11
-52.976618
 21
-367.978027
 31
0.0
  0
POINT
  5
3E7
  8
DEFPOINTS
  6
CONTINUOUS
 62
    30
 10
410.0
 20
-300.0
 30
0.0
  0
POINT
  5
3E8
  8
DEFPOINTS
  6
CONTINUOUS
 62
    30
 10
80.0
 20
-314.0
 30
0.0
  0
POINT
  5
3E9
  8
DEFPOINTS
  6
CONTINUOUS
 62
    30
 10
-42.976618
 20
-314.0
 30
0.0
  0
LINE
  5
3EA
  8
SIZE
  6
CONTINUOUS
 62
    30
 10
-380.0
 20
-320.0
 30
0.0
 11
-380.0
 21
-574.1
 31
0.0
  0
LINE
  5
3EB
  8
SIZE
  6
CONTINUOUS
 62
    30
 10
84.0
 20
-320.0
 30
0.0
 11
84.0
 21
-574.1
 31
0.0
  0
LINE
  5
3EC
  8
SIZE
  6
CONTINUOUS
 62
    30
 10
-370.0
 20
-561.6
 30
0.0
 11
74.0
 21
-561.6
 31
0.0
  0
CIRCLE
  5
3ED
  8
SIZE
  6
CONTINUOUS
 62
    30
 10
-380.0
 20
-561.6
 30
0.0
 40
5.0
  0
LINE
  5
3EE
  8
SIZE
  6
CONTINUOUS
 62
    30
 10
-380.0
 20
-561.6
 30
0.0
 11
-370.0
 21
-561.6
 31
0.0
  0
CIRCLE
  5
3EF
  8
SIZE
  6
CONTINUOUS
 62
    30
 10
84.0
 20
-561.6
 30
0.0
 40
5.0
  0
LINE
  5
3F0
  8
SIZE
  6
CONTINUOUS
 62
    30
 10
84.0
 20
-561.6
 30
0.0
 11
74.0
 21
-561.6
 31
0.0
  0
TEXT
  5
3F1
  8
SIZE
  6
CONTINUOUS
 62
    30
 10
-188.0
 20
-551.6
 30
0.0
 40
30.0
  1
464
 72
     1
 11
-148.0
 21
-551.6
 31
0.0
  0
POINT
  5
3F2
  8
DEFPOINTS
  6
CONTINUOUS
 62
    30
 10
-380.0
 20
-310.0
 30
0.0
  0
POINT
  5
3F3
  8
DEFPOINTS
  6
CONTINUOUS
 62
    30
 10
84.0
 20
-310.0
 30
0.0
  0
POINT
  5
3F4
  8
DEFPOINTS
  6
CONTINUOUS
 62
    30
 10
84.0
 20
-561.6
 30
0.0
  0
LINE
  5
3F5
  8
SIZE
  6
CONTINUOUS
 62
    30
 10
-410.0
 20
-290.0
 30
0.0
 11
-410.0
 21
-474.1
 31
0.0
  0
LINE
  5
3F6
  8
SIZE
  6
CONTINUOUS
 62
    30
 10
-148.0
 20
-374.0
 30
0.0
 11
-148.0
 21
-474.1
 31
0.0
  0
LINE
  5
3F7
  8
SIZE
  6
CONTINUOUS
 62
    30
 10
-400.0
 20
-461.6
 30
0.0
 11
-158.0
 21
-461.6
 31
0.0
  0
CIRCLE
  5
3F8
  8
SIZE
  6
CONTINUOUS
 62
    30
 10
-410.0
 20
-461.6
 30
0.0
 40
5.0
  0
LINE
  5
3F9
  8
SIZE
  6
CONTINUOUS
 62
    30
 10
-410.0
 20
-461.6
 30
0.0
 11
-400.0
 21
-461.6
 31
0.0
  0
CIRCLE
  5
3FA
  8
SIZE
  6
CONTINUOUS
 62
    30
 10
-148.0
 20
-461.6
 30
0.0
 40
5.0
  0
LINE
  5
3FB
  8
SIZE
  6
CONTINUOUS
 62
    30
 10
-148.0
 20
-461.6
 30
0.0
 11
-158.0
 21
-461.6
 31
0.0
  0
TEXT
  5
3FC
  8
SIZE
  6
CONTINUOUS
 62
    30
 10
-319.0
 20
-451.6
 30
0.0
 40
30.0
  1
262
 72
     1
 11
-279.0
 21
-451.6
 31
0.0
  0
POINT
  5
3FD
  8
DEFPOINTS
  6
CONTINUOUS
 62
    30
 10
-410.0
 20
-280.0
 30
0.0
  0
POINT
  5
3FE
  8
DEFPOINTS
  6
CONTINUOUS
 62
    30
 10
-148.0
 20
-364.0
 30
0.0
  0
POINT
  5
3FF
  8
DEFPOINTS
  6
CONTINUOUS
 62
    30
 10
-148.0
 20
-461.6
 30
0.0
  0
LINE
  5
400
  8
SIZE
  6
CONTINUOUS
 62
    30
 10
400.0
 20
0.0
 30
0.0
 11
600.1
 21
0.0
 31
0.0
  0
LINE
  5
401
  8
SIZE
  6
CONTINUOUS
 62
    30
 10
480.0
 20
-43.0
 30
0.0
 11
600.1
 21
-43.0
 31
0.0
  0
LINE
  5
402
  8
SIZE
  6
CONTINUOUS
 62
    30
 10
587.6
 20
-10.0
 30
0.0
 11
587.6
 21
-33.0
 31
0.0
  0
CIRCLE
  5
403
  8
SIZE
  6
CONTINUOUS
 62
    30
 10
587.6
 20
0.0
 30
0.0
 40
5.0
  0
LINE
  5
404
  8
SIZE
  6
CONTINUOUS
 62
    30
 10
587.6
 20
0.0
 30
0.0
 11
587.6
 21
-10.0
 31
0.0
  0
CIRCLE
  5
405
  8
SIZE
  6
CONTINUOUS
 62
    30
 10
587.6
 20
-43.0
 30
0.0
 40
5.0
  0
LINE
  5
406
  8
SIZE
  6
CONTINUOUS
 62
    30
 10
587.6
 20
-43.0
 30
0.0
 11
587.6
 21
-33.0
 31
0.0
  0
TEXT
  5
407
  8
SIZE
  6
CONTINUOUS
 62
    30
 10
577.6
 20
-46.5
 30
0.0
 40
30.0
  1
43
 50
90.0
 72
     1
 11
577.6
 21
-21.5
 31
0.0
  0
POINT
  5
408
  8
DEFPOINTS
  6
CONTINUOUS
 62
    30
 10
390.0
 20
0.0
 30
0.0
  0
POINT
  5
409
  8
DEFPOINTS
  6
CONTINUOUS
 62
    30
 10
470.0
 20
-43.0
 30
0.0
  0
POINT
  5
40A
  8
DEFPOINTS
  6
CONTINUOUS
 62
    30
 10
587.6
 20
-43.0
 30
0.0
  0
LINE
  5
40B
  8
SIZE
  6
CONTINUOUS
 62
    30
 10
410.0
 20
-10.0
 30
0.0
 11
410.0
 21
336.775732
 31
0.0
  0
LINE
  5
40C
  8
SIZE
  6
CONTINUOUS
 62
    30
 10
450.0
 20
-73.0
 30
0.0
 11
450.0
 21
336.775732
 31
0.0
  0
LINE
  5
40D
  8
SIZE
  6
CONTINUOUS
 62
    30
 10
440.0
 20
324.275732
 30
0.0
 11
420.0
 21
324.275732
 31
0.0
  0
LINE
  5
40E
  8
SIZE
  6
CONTINUOUS
 62
    30
 10
410.0
 20
324.275732
 30
0.0
 11
321.670715
 21
324.275732
 31
0.0
  0
CIRCLE
  5
40F
  8
SIZE
  6
CONTINUOUS
 62
    30
 10
450.0
 20
324.275732
 30
0.0
 40
5.0
  0
LINE
  5
410
  8
SIZE
  6
CONTINUOUS
 62
    30
 10
450.0
 20
324.275732
 30
0.0
 11
440.0
 21
324.275732
 31
0.0
  0
CIRCLE
  5
411
  8
SIZE
  6
CONTINUOUS
 62
    30
 10
410.0
 20
324.275732
 30
0.0
 40
5.0
  0
LINE
  5
412
  8
SIZE
  6
CONTINUOUS
 62
    30
 10
410.0
 20
324.275732
 30
0.0
 11
420.0
 21
324.275732
 31
0.0
  0
TEXT
  5
413
  8
SIZE
  6
CONTINUOUS
 62
    30
 10
331.670715
 20
334.275732
 30
0.0
 40
30.0
  1
40
 72
     1
 11
354.170715
 21
334.275732
 31
0.0
  0
POINT
  5
414
  8
DEFPOINTS
  6
CONTINUOUS
 62
    30
 10
410.0
 20
-20.0
 30
0.0
  0
POINT
  5
415
  8
DEFPOINTS
  6
CONTINUOUS
 62
    30
 10
450.0
 20
-83.0
 30
0.0
  0
POINT
  5
416
  8
DEFPOINTS
  6
CONTINUOUS
 62
    30
 10
450.0
 20
324.275732
 30
0.0
  0
LINE
  5
417
  8
SIZE
  6
CONTINUOUS
 62
    30
 10
410.0
 20
-10.0
 30
0.0
 11
410.0
 21
236.775732
 31
0.0
  0
LINE
  5
418
  8
SIZE
  6
CONTINUOUS
 62
    30
 10
440.0
 20
-103.0
 30
0.0
 11
440.0
 21
236.775732
 31
0.0
  0
LINE
  5
419
  8
SIZE
  6
CONTINUOUS
 62
    30
 10
450.0
 20
224.275732
 30
0.0
 11
460.0
 21
224.275732
 31
0.0
  0
LINE
  5
41A
  8
SIZE
  6
CONTINUOUS
 62
    30
 10
400.0
 20
224.275732
 30
0.0
 11
321.670715
 21
224.275732
 31
0.0
  0
LINE
  5
41B
  8
SIZE
  6
CONTINUOUS
 62
    30
 10
440.0
 20
224.275732
 30
0.0
 11
410.0
 21
224.275732
 31
0.0
  0
CIRCLE
  5
41C
  8
SIZE
  6
CONTINUOUS
 62
    30
 10
440.0
 20
224.275732
 30
0.0
 40
5.0
  0
LINE
  5
41D
  8
SIZE
  6
CONTINUOUS
 62
    30
 10
440.0
 20
224.275732
 30
0.0
 11
450.0
 21
224.275732
 31
0.0
  0
CIRCLE
  5
41E
  8
SIZE
  6
CONTINUOUS
 62
    30
 10
410.0
 20
224.275732
 30
0.0
 40
5.0
  0
LINE
  5
41F
  8
SIZE
  6
CONTINUOUS
 62
    30
 10
410.0
 20
224.275732
 30
0.0
 11
400.0
 21
224.275732
 31
0.0
  0
TEXT
  5
420
  8
SIZE
  6
CONTINUOUS
 62
    30
 10
331.670715
 20
234.275732
 30
0.0
 40
30.0
  1
30
 72
     1
 11
354.170715
 21
234.275732
 31
0.0
  0
POINT
  5
421
  8
DEFPOINTS
  6
CONTINUOUS
 62
    30
 10
410.0
 20
-20.0
 30
0.0
  0
POINT
  5
422
  8
DEFPOINTS
  6
CONTINUOUS
 62
    30
 10
440.0
 20
-113.0
 30
0.0
  0
POINT
  5
423
  8
DEFPOINTS
  6
CONTINUOUS
 62
    30
 10
440.0
 20
224.275732
 30
0.0
  0
LINE
  5
424
  8
SIZE
  6
CONTINUOUS
 62
    30
 10
400.0
 20
-300.0
 30
0.0
 11
960.1
 21
-300.0
 31
0.0
  0
LINE
  5
425
  8
SIZE
  6
CONTINUOUS
 62
    30
 10
400.0
 20
0.0
 30
0.0
 11
960.1
 21
0.0
 31
0.0
  0
LINE
  5
426
  8
SIZE
  6
CONTINUOUS
 62
    30
 10
947.6
 20
-290.0
 30
0.0
 11
947.6
 21
-10.0
 31
0.0
  0
CIRCLE
  5
427
  8
SIZE
  6
CONTINUOUS
 62
    30
 10
947.6
 20
-300.0
 30
0.0
 40
5.0
  0
LINE
  5
428
  8
SIZE
  6
CONTINUOUS
 62
    30
 10
947.6
 20
-300.0
 30
0.0
 11
947.6
 21
-290.0
 31
0.0
  0
CIRCLE
  5
429
  8
SIZE
  6
CONTINUOUS
 62
    30
 10
947.6
 20
0.0
 30
0.0
 40
5.0
  0
LINE
  5
42A
  8
SIZE
  6
CONTINUOUS
 62
    30
 10
947.6
 20
0.0
 30
0.0
 11
947.6
 21
-10.0
 31
0.0
  0
TEXT
  5
42B
  8
SIZE
  6
CONTINUOUS
 62
    30
 10
937.6
 20
-185.0
 30
0.0
 40
30.0
  1
300
 50
90.0
 72
     1
 11
937.6
 21
-150.0
 31
0.0
  0
POINT
  5
42C
  8
DEFPOINTS
  6
CONTINUOUS
 62
    30
 10
390.0
 20
-300.0
 30
0.0
  0
POINT
  5
42D
  8
DEFPOINTS
  6
CONTINUOUS
 62
    30
 10
390.0
 20
0.0
 30
0.0
  0
POINT
  5
42E
  8
DEFPOINTS
  6
CONTINUOUS
 62
    30
 10
947.6
 20
0.0
 30
0.0
  0
LINE
  5
42F
  8
SIZE
  6
CONTINUOUS
 62
    30
 10
410.0
 20
130.0
 30
0.0
 11
410.0
 21
436.775732
 31
0.0
  0
LINE
  5
430
  8
SIZE
  6
CONTINUOUS
 62
    30
 10
470.0
 20
-33.0
 30
0.0
 11
470.0
 21
436.775732
 31
0.0
  0
LINE
  5
431
  8
SIZE
  6
CONTINUOUS
 62
    30
 10
420.0
 20
424.275732
 30
0.0
 11
460.0
 21
424.275732
 31
0.0
  0
CIRCLE
  5
432
  8
SIZE
  6
CONTINUOUS
 62
    30
 10
410.0
 20
424.275732
 30
0.0
 40
5.0
  0
LINE
  5
433
  8
SIZE
  6
CONTINUOUS
 62
    30
 10
410.0
 20
424.275732
 30
0.0
 11
420.0
 21
424.275732
 31
0.0
  0
CIRCLE
  5
434
  8
SIZE
  6
CONTINUOUS
 62
    30
 10
470.0
 20
424.275732
 30
0.0
 40
5.0
  0
LINE
  5
435
  8
SIZE
  6
CONTINUOUS
 62
    30
 10
470.0
 20
424.275732
 30
0.0
 11
460.0
 21
424.275732
 31
0.0
  0
TEXT
  5
436
  8
SIZE
  6
CONTINUOUS
 62
    30
 10
417.5
 20
434.275732
 30
0.0
 40
30.0
  1
60
 72
     1
 11
440.0
 21
434.275732
 31
0.0
  0
POINT
  5
437
  8
DEFPOINTS
  6
CONTINUOUS
 62
    30
 10
410.0
 20
120.0
 30
0.0
  0
POINT
  5
438
  8
DEFPOINTS
  6
CONTINUOUS
 62
    30
 10
470.0
 20
-43.0
 30
0.0
  0
POINT
  5
439
  8
DEFPOINTS
  6
CONTINUOUS
 62
    30
 10
470.0
 20
424.275732
 30
0.0
  0
LINE
  5
43A
  8
SIZE
  6
CONTINUOUS
 62
    30
 10
410.0
 20
-10.0
 30
0.0
 11
410.0
 21
536.775732
 31
0.0
  0
LINE
  5
43B
  8
SIZE
  6
CONTINUOUS
 62
    30
 10
490.0
 20
-87.670143
 30
0.0
 11
490.0
 21
536.775732
 31
0.0
  0
LINE
  5
43C
  8
SIZE
  6
CONTINUOUS
 62
    30
 10
420.0
 20
524.275732
 30
0.0
 11
480.0
 21
524.275732
 31
0.0
  0
CIRCLE
  5
43D
  8
SIZE
  6
CONTINUOUS
 62
    30
 10
410.0
 20
524.275732
 30
0.0
 40
5.0
  0
LINE
  5
43E
  8
SIZE
  6
CONTINUOUS
 62
    30
 10
410.0
 20
524.275732
 30
0.0
 11
420.0
 21
524.275732
 31
0.0
  0
CIRCLE
  5
43F
  8
SIZE
  6
CONTINUOUS
 62
    30
 10
490.0
 20
524.275732
 30
0.0
 40
5.0
  0
LINE
  5
440
  8
SIZE
  6
CONTINUOUS
 62
    30
 10
490.0
 20
524.275732
 30
0.0
 11
480.0
 21
524.275732
 31
0.0
  0
TEXT
  5
441
  8
SIZE
  6
CONTINUOUS
 62
    30
 10
427.5
 20
534.275732
 30
0.0
 40
30.0
  1
80
 72
     1
 11
450.0
 21
534.275732
 31
0.0
  0
POINT
  5
442
  8
DEFPOINTS
  6
CONTINUOUS
 62
    30
 10
410.0
 20
-20.0
 30
0.0
  0
POINT
  5
443
  8
DEFPOINTS
  6
CONTINUOUS
 62
    30
 10
490.0
 20
-97.670143
 30
0.0
  0
POINT
  5
444
  8
DEFPOINTS
  6
CONTINUOUS
 62
    30
 10
490.0
 20
524.275732
 30
0.0
  0
LINE
  5
445
  8
SIZE
  6
CONTINUOUS
 62
    30
 10
400.0
 20
-300.0
 30
0.0
 11
870.1
 21
-300.0
 31
0.0
  0
LINE
  5
446
  8
SIZE
  6
CONTINUOUS
 62
    30
 10
420.0
 20
-230.0
 30
0.0
 11
870.1
 21
-230.0
 31
0.0
  0
LINE
  5
447
  8
SIZE
  6
CONTINUOUS
 62
    30
 10
857.6
 20
-290.0
 30
0.0
 11
857.6
 21
-240.0
 31
0.0
  0
CIRCLE
  5
448
  8
SIZE
  6
CONTINUOUS
 62
    30
 10
857.6
 20
-300.0
 30
0.0
 40
5.0
  0
LINE
  5
449
  8
SIZE
  6
CONTINUOUS
 62
    30
 10
857.6
 20
-300.0
 30
0.0
 11
857.6
 21
-290.0
 31
0.0
  0
CIRCLE
  5
44A
  8
SIZE
  6
CONTINUOUS
 62
    30
 10
857.6
 20
-230.0
 30
0.0
 40
5.0
  0
LINE
  5
44B
  8
SIZE
  6
CONTINUOUS
 62
    30
 10
857.6
 20
-230.0
 30
0.0
 11
857.6
 21
-240.0
 31
0.0
  0
TEXT
  5
44C
  8
SIZE
  6
CONTINUOUS
 62
    30
 10
847.6
 20
-287.5
 30
0.0
 40
30.0
  1
70
 50
90.0
 72
     1
 11
847.6
 21
-265.0
 31
0.0
  0
POINT
  5
44D
  8
DEFPOINTS
  6
CONTINUOUS
 62
    30
 10
390.0
 20
-300.0
 30
0.0
  0
POINT
  5
44E
  8
DEFPOINTS
  6
CONTINUOUS
 62
    30
 10
410.0
 20
-230.0
 30
0.0
  0
POINT
  5
44F
  8
DEFPOINTS
  6
CONTINUOUS
 62
    30
 10
857.6
 20
-230.0
 30
0.0
  0
LINE
  5
450
  8
SIZE
  6
CONTINUOUS
 62
    30
 10
400.0
 20
0.0
 30
0.0
 11
870.1
 21
0.0
 31
0.0
  0
LINE
  5
451
  8
SIZE
  6
CONTINUOUS
 62
    30
 10
420.0
 20
-50.0
 30
0.0
 11
870.1
 21
-50.0
 31
0.0
  0
LINE
  5
452
  8
SIZE
  6
CONTINUOUS
 62
    30
 10
857.6
 20
-10.0
 30
0.0
 11
857.6
 21
-40.0
 31
0.0
  0
CIRCLE
  5
453
  8
SIZE
  6
CONTINUOUS
 62
    30
 10
857.6
 20
0.0
 30
0.0
 40
5.0
  0
LINE
  5
454
  8
SIZE
  6
CONTINUOUS
 62
    30
 10
857.6
 20
0.0
 30
0.0
 11
857.6
 21
-10.0
 31
0.0
  0
CIRCLE
  5
455
  8
SIZE
  6
CONTINUOUS
 62
    30
 10
857.6
 20
-50.0
 30
0.0
 40
5.0
  0
LINE
  5
456
  8
SIZE
  6
CONTINUOUS
 62
    30
 10
857.6
 20
-50.0
 30
0.0
 11
857.6
 21
-40.0
 31
0.0
  0
TEXT
  5
457
  8
SIZE
  6
CONTINUOUS
 62
    30
 10
847.6
 20
-47.5
 30
0.0
 40
30.0
  1
50
 50
90.0
 72
     1
 11
847.6
 21
-25.0
 31
0.0
  0
POINT
  5
458
  8
DEFPOINTS
  6
CONTINUOUS
 62
    30
 10
390.0
 20
0.0
 30
0.0
  0
POINT
  5
459
  8
DEFPOINTS
  6
CONTINUOUS
 62
    30
 10
410.0
 20
-50.0
 30
0.0
  0
POINT
  5
45A
  8
DEFPOINTS
  6
CONTINUOUS
 62
    30
 10
857.6
 20
-50.0
 30
0.0
  0
LINE
  5
45B
  8
SIZE
  6
CONTINUOUS
 62
    30
 10
420.0
 20
-230.0
 30
0.0
 11
870.1
 21
-230.0
 31
0.0
  0
LINE
  5
45C
  8
SIZE
  6
CONTINUOUS
 62
    30
 10
420.0
 20
-50.0
 30
0.0
 11
870.1
 21
-50.0
 31
0.0
  0
LINE
  5
45D
  8
SIZE
  6
CONTINUOUS
 62
    30
 10
857.6
 20
-220.0
 30
0.0
 11
857.6
 21
-60.0
 31
0.0
  0
CIRCLE
  5
45E
  8
SIZE
  6
CONTINUOUS
 62
    30
 10
857.6
 20
-230.0
 30
0.0
 40
5.0
  0
LINE
  5
45F
  8
SIZE
  6
CONTINUOUS
 62
    30
 10
857.6
 20
-230.0
 30
0.0
 11
857.6
 21
-220.0
 31
0.0
  0
CIRCLE
  5
460
  8
SIZE
  6
CONTINUOUS
 62
    30
 10
857.6
 20
-50.0
 30
0.0
 40
5.0
  0
LINE
  5
461
  8
SIZE
  6
CONTINUOUS
 62
    30
 10
857.6
 20
-50.0
 30
0.0
 11
857.6
 21
-60.0
 31
0.0
  0
TEXT
  5
462
  8
SIZE
  6
CONTINUOUS
 62
    30
 10
847.6
 20
-172.5
 30
0.0
 40
30.0
  1
180
 50
90.0
 72
     1
 11
847.6
 21
-140.0
 31
0.0
  0
POINT
  5
463
  8
DEFPOINTS
  6
CONTINUOUS
 62
    30
 10
410.0
 20
-230.0
 30
0.0
  0
POINT
  5
464
  8
DEFPOINTS
  6
CONTINUOUS
 62
    30
 10
410.0
 20
-50.0
 30
0.0
  0
POINT
  5
465
  8
DEFPOINTS
  6
CONTINUOUS
 62
    30
 10
857.6
 20
-50.0
 30
0.0
  0
LINE
  5
466
  8
SIZE
  6
CONTINUOUS
 62
    30
 10
1020.0
 20
-600.0
 30
0.0
 11
1170.1
 21
-600.0
 31
0.0
  0
LINE
  5
467
  8
SIZE
  6
CONTINUOUS
 62
    30
 10
1020.0
 20
120.0
 30
0.0
 11
1170.1
 21
120.0
 31
0.0
  0
LINE
  5
468
  8
SIZE
  6
CONTINUOUS
 62
    30
 10
1157.6
 20
-590.0
 30
0.0
 11
1157.6
 21
110.0
 31
0.0
  0
CIRCLE
  5
469
  8
SIZE
  6
CONTINUOUS
 62
    30
 10
1157.6
 20
-600.0
 30
0.0
 40
5.0
  0
LINE
  5
46A
  8
SIZE
  6
CONTINUOUS
 62
    30
 10
1157.6
 20
-600.0
 30
0.0
 11
1157.6
 21
-590.0
 31
0.0
  0
CIRCLE
  5
46B
  8
SIZE
  6
CONTINUOUS
 62
    30
 10
1157.6
 20
120.0
 30
0.0
 40
5.0
  0
LINE
  5
46C
  8
SIZE
  6
CONTINUOUS
 62
    30
 10
1157.6
 20
120.0
 30
0.0
 11
1157.6
 21
110.0
 31
0.0
  0
TEXT
  5
46D
  8
SIZE
  6
CONTINUOUS
 62
    30
 10
1147.6
 20
-277.5
 30
0.0
 40
30.0
  1
720
 50
90.0
 72
     1
 11
1147.6
 21
-240.0
 31
0.0
  0
POINT
  5
46E
  8
DEFPOINTS
  6
CONTINUOUS
 62
    30
 10
1010.0
 20
-600.0
 30
0.0
  0
POINT
  5
46F
  8
DEFPOINTS
  6
CONTINUOUS
 62
    30
 10
1010.0
 20
120.0
 30
0.0
  0
POINT
  5
470
  8
DEFPOINTS
  6
CONTINUOUS
 62
    30
 10
1157.6
 20
120.0
 30
0.0
  0
LINE
  5
471
  8
SIZE
  6
CONTINUOUS
 62
    30
 10
1010.0
 20
-610.0
 30
0.0
 11
1010.0
 21
-760.1
 31
0.0
  0
LINE
  5
472
  8
SIZE
  6
CONTINUOUS
 62
    30
 10
410.0
 20
-610.0
 30
0.0
 11
410.0
 21
-760.1
 31
0.0
  0
LINE
  5
473
  8
SIZE
  6
CONTINUOUS
 62
    30
 10
1000.0
 20
-747.6
 30
0.0
 11
420.0
 21
-747.6
 31
0.0
  0
CIRCLE
  5
474
  8
SIZE
  6
CONTINUOUS
 62
    30
 10
1010.0
 20
-747.6
 30
0.0
 40
5.0
  0
LINE
  5
475
  8
SIZE
  6
CONTINUOUS
 62
    30
 10
1010.0
 20
-747.6
 30
0.0
 11
1000.0
 21
-747.6
 31
0.0
  0
CIRCLE
  5
476
  8
SIZE
  6
CONTINUOUS
 62
    30
 10
410.0
 20
-747.6
 30
0.0
 40
5.0
  0
LINE
  5
477
  8
SIZE
  6
CONTINUOUS
 62
    30
 10
410.0
 20
-747.6
 30
0.0
 11
420.0
 21
-747.6
 31
0.0
  0
TEXT
  5
478
  8
SIZE
  6
CONTINUOUS
 62
    30
 10
675.0
 20
-737.6
 30
0.0
 40
30.0
  1
600
 72
     1
 11
710.0
 21
-737.6
 31
0.0
  0
POINT
  5
479
  8
DEFPOINTS
  6
CONTINUOUS
 62
    30
 10
1010.0
 20
-600.0
 30
0.0
  0
POINT
  5
47A
  8
DEFPOINTS
  6
CONTINUOUS
 62
    30
 10
410.0
 20
-600.0
 30
0.0
  0
POINT
  5
47B
  8
DEFPOINTS
  6
CONTINUOUS
 62
    30
 10
410.0
 20
-747.6
 30
0.0
  0
LINE
  5
47C
  8
SIZE
  6
CONTINUOUS
 62
    30
 10
-560.0
 20
-610.0
 30
0.0
 11
-560.0
 21
-760.1
 31
0.0
  0
LINE
  5
47D
  8
SIZE
  6
CONTINUOUS
 62
    30
 10
410.0
 20
-610.0
 30
0.0
 11
410.0
 21
-760.1
 31
0.0
  0
LINE
  5
47E
  8
SIZE
  6
CONTINUOUS
 62
    30
 10
-550.0
 20
-747.6
 30
0.0
 11
400.0
 21
-747.6
 31
0.0
  0
CIRCLE
  5
47F
  8
SIZE
  6
CONTINUOUS
 62
    30
 10
-560.0
 20
-747.6
 30
0.0
 40
5.0
  0
LINE
  5
480
  8
SIZE
  6
CONTINUOUS
 62
    30
 10
-560.0
 20
-747.6
 30
0.0
 11
-550.0
 21
-747.6
 31
0.0
  0
CIRCLE
  5
481
  8
SIZE
  6
CONTINUOUS
 62
    30
 10
410.0
 20
-747.6
 30
0.0
 40
5.0
  0
LINE
  5
482
  8
SIZE
  6
CONTINUOUS
 62
    30
 10
410.0
 20
-747.6
 30
0.0
 11
400.0
 21
-747.6
 31
0.0
  0
TEXT
  5
483
  8
SIZE
  6
CONTINUOUS
 62
    30
 10
-112.5
 20
-737.6
 30
0.0
 40
30.0
  1
970
 72
     1
 11
-75.0
 21
-737.6
 31
0.0
  0
POINT
  5
484
  8
DEFPOINTS
  6
CONTINUOUS
 62
    30
 10
-560.0
 20
-600.0
 30
0.0
  0
POINT
  5
485
  8
DEFPOINTS
  6
CONTINUOUS
 62
    30
 10
410.0
 20
-600.0
 30
0.0
  0
POINT
  5
486
  8
DEFPOINTS
  6
CONTINUOUS
 62
    30
 10
410.0
 20
-747.6
 30
0.0
  0
LINE
  5
487
  8
SIZE
  6
CONTINUOUS
 62
    30
 10
410.0
 20
130.0
 30
0.0
 11
410.0
 21
686.775732
 31
0.0
  0
LINE
  5
488
  8
SIZE
  6
CONTINUOUS
 62
    30
 10
-560.0
 20
130.0
 30
0.0
 11
-560.0
 21
686.775732
 31
0.0
  0
LINE
  5
489
  8
SIZE
  6
CONTINUOUS
 62
    30
 10
400.0
 20
674.275732
 30
0.0
 11
-550.0
 21
674.275732
 31
0.0
  0
CIRCLE
  5
48A
  8
SIZE
  6
CONTINUOUS
 62
    30
 10
410.0
 20
674.275732
 30
0.0
 40
5.0
  0
LINE
  5
48B
  8
SIZE
  6
CONTINUOUS
 62
    30
 10
410.0
 20
674.275732
 30
0.0
 11
400.0
 21
674.275732
 31
0.0
  0
CIRCLE
  5
48C
  8
SIZE
  6
CONTINUOUS
 62
    30
 10
-560.0
 20
674.275732
 30
0.0
 40
5.0
  0
LINE
  5
48D
  8
SIZE
  6
CONTINUOUS
 62
    30
 10
-560.0
 20
674.275732
 30
0.0
 11
-550.0
 21
674.275732
 31
0.0
  0
TEXT
  5
48E
  8
SIZE
  6
CONTINUOUS
 62
    30
 10
-112.5
 20
684.275732
 30
0.0
 40
30.0
  1
970
 72
     1
 11
-75.0
 21
684.275732
 31
0.0
  0
POINT
  5
48F
  8
DEFPOINTS
  6
CONTINUOUS
 62
    30
 10
410.0
 20
120.0
 30
0.0
  0
POINT
  5
490
  8
DEFPOINTS
  6
CONTINUOUS
 62
    30
 10
-560.0
 20
120.0
 30
0.0
  0
POINT
  5
491
  8
DEFPOINTS
  6
CONTINUOUS
 62
    30
 10
-560.0
 20
674.275732
 30
0.0
  0
LINE
  5
492
  8
SIZE
  6
CONTINUOUS
 62
    30
 10
-410.0
 20
10.0
 30
0.0
 11
-410.0
 21
536.775732
 31
0.0
  0
LINE
  5
493
  8
SIZE
  6
CONTINUOUS
 62
    30
 10
-560.0
 20
130.0
 30
0.0
 11
-560.0
 21
536.775732
 31
0.0
  0
LINE
  5
494
  8
SIZE
  6
CONTINUOUS
 62
    30
 10
-420.0
 20
524.275732
 30
0.0
 11
-550.0
 21
524.275732
 31
0.0
  0
CIRCLE
  5
495
  8
SIZE
  6
CONTINUOUS
 62
    30
 10
-410.0
 20
524.275732
 30
0.0
 40
5.0
  0
LINE
  5
496
  8
SIZE
  6
CONTINUOUS
 62
    30
 10
-410.0
 20
524.275732
 30
0.0
 11
-420.0
 21
524.275732
 31
0.0
  0
CIRCLE
  5
497
  8
SIZE
  6
CONTINUOUS
 62
    30
 10
-560.0
 20
524.275732
 30
0.0
 40
5.0
  0
LINE
  5
498
  8
SIZE
  6
CONTINUOUS
 62
    30
 10
-560.0
 20
524.275732
 30
0.0
 11
-550.0
 21
524.275732
 31
0.0
  0
TEXT
  5
499
  8
SIZE
  6
CONTINUOUS
 62
    30
 10
-517.5
 20
534.275732
 30
0.0
 40
30.0
  1
150
 72
     1
 11
-485.0
 21
534.275732
 31
0.0
  0
POINT
  5
49A
  8
DEFPOINTS
  6
CONTINUOUS
 62
    30
 10
-410.0
 20
0.0
 30
0.0
  0
POINT
  5
49B
  8
DEFPOINTS
  6
CONTINUOUS
 62
    30
 10
-560.0
 20
120.0
 30
0.0
  0
POINT
  5
49C
  8
DEFPOINTS
  6
CONTINUOUS
 62
    30
 10
-560.0
 20
524.275732
 30
0.0
  0
LINE
  5
49D
  8
SIZE
  6
CONTINUOUS
 62
    30
 10
-410.0
 20
-10.0
 30
0.0
 11
-410.0
 21
536.775732
 31
0.0
  0
LINE
  5
49E
  8
SIZE
  6
CONTINUOUS
 62
    30
 10
410.0
 20
-10.0
 30
0.0
 11
410.0
 21
536.775732
 31
0.0
  0
LINE
  5
49F
  8
SIZE
  6
CONTINUOUS
 62
    30
 10
-400.0
 20
524.275732
 30
0.0
 11
400.0
 21
524.275732
 31
0.0
  0
CIRCLE
  5
4A0
  8
SIZE
  6
CONTINUOUS
 62
    30
 10
-410.0
 20
524.275732
 30
0.0
 40
5.0
  0
LINE
  5
4A1
  8
SIZE
  6
CONTINUOUS
 62
    30
 10
-410.0
 20
524.275732
 30
0.0
 11
-400.0
 21
524.275732
 31
0.0
  0
CIRCLE
  5
4A2
  8
SIZE
  6
CONTINUOUS
 62
    30
 10
410.0
 20
524.275732
 30
0.0
 40
5.0
  0
LINE
  5
4A3
  8
SIZE
  6
CONTINUOUS
 62
    30
 10
410.0
 20
524.275732
 30
0.0
 11
400.0
 21
524.275732
 31
0.0
  0
TEXT
  5
4A4
  8
SIZE
  6
CONTINUOUS
 62
    30
 10
-37.5
 20
534.275732
 30
0.0
 40
30.0
  1
820
 72
     1
 11
0.0
 21
534.275732
 31
0.0
  0
POINT
  5
4A5
  8
DEFPOINTS
  6
CONTINUOUS
 62
    30
 10
-410.0
 20
-20.0
 30
0.0
  0
POINT
  5
4A6
  8
DEFPOINTS
  6
CONTINUOUS
 62
    30
 10
410.0
 20
-20.0
 30
0.0
  0
POINT
  5
4A7
  8
DEFPOINTS
  6
CONTINUOUS
 62
    30
 10
410.0
 20
524.275732
 30
0.0
  0
LINE
  5
4A8
  8
SIZE
  6
CONTINUOUS
 62
    30
 10
-570.0
 20
-600.0
 30
0.0
 11
-724.9
 21
-600.0
 31
0.0
  0
LINE
  5
4A9
  8
SIZE
  6
CONTINUOUS
 62
    30
 10
-570.0
 20
-300.0
 30
0.0
 11
-724.9
 21
-300.0
 31
0.0
  0
LINE
  5
4AA
  8
SIZE
  6
CONTINUOUS
 62
    30
 10
-712.4
 20
-590.0
 30
0.0
 11
-712.4
 21
-310.0
 31
0.0
  0
CIRCLE
  5
4AB
  8
SIZE
  6
CONTINUOUS
 62
    30
 10
-712.4
 20
-600.0
 30
0.0
 40
5.0
  0
LINE
  5
4AC
  8
SIZE
  6
CONTINUOUS
 62
    30
 10
-712.4
 20
-600.0
 30
0.0
 11
-712.4
 21
-590.0
 31
0.0
  0
CIRCLE
  5
4AD
  8
SIZE
  6
CONTINUOUS
 62
    30
 10
-712.4
 20
-300.0
 30
0.0
 40
5.0
  0
LINE
  5
4AE
  8
SIZE
  6
CONTINUOUS
 62
    30
 10
-712.4
 20
-300.0
 30
0.0
 11
-712.4
 21
-310.0
 31
0.0
  0
TEXT
  5
4AF
  8
SIZE
  6
CONTINUOUS
 62
    30
 10
-722.4
 20
-485.0
 30
0.0
 40
30.0
  1
300
 50
90.0
 72
     1
 11
-722.4
 21
-450.0
 31
0.0
  0
POINT
  5
4B0
  8
DEFPOINTS
  6
CONTINUOUS
 62
    30
 10
-560.0
 20
-600.0
 30
0.0
  0
POINT
  5
4B1
  8
DEFPOINTS
  6
CONTINUOUS
 62
    30
 10
-560.0
 20
-300.0
 30
0.0
  0
POINT
  5
4B2
  8
DEFPOINTS
  6
CONTINUOUS
 62
    30
 10
-712.4
 20
-300.0
 30
0.0
  0
LINE
  5
4B3
  8
SIZE
  6
CONTINUOUS
 62
    30
 10
-570.0
 20
120.0
 30
0.0
 11
-724.9
 21
120.0
 31
0.0
  0
LINE
  5
4B4
  8
SIZE
  6
CONTINUOUS
 62
    30
 10
-570.0
 20
0.0
 30
0.0
 11
-724.9
 21
0.0
 31
0.0
  0
LINE
  5
4B5
  8
SIZE
  6
CONTINUOUS
 62
    30
 10
-712.4
 20
110.0
 30
0.0
 11
-712.4
 21
10.0
 31
0.0
  0
CIRCLE
  5
4B6
  8
SIZE
  6
CONTINUOUS
 62
    30
 10
-712.4
 20
120.0
 30
0.0
 40
5.0
  0
LINE
  5
4B7
  8
SIZE
  6
CONTINUOUS
 62
    30
 10
-712.4
 20
120.0
 30
0.0
 11
-712.4
 21
110.0
 31
0.0
  0
CIRCLE
  5
4B8
  8
SIZE
  6
CONTINUOUS
 62
    30
 10
-712.4
 20
0.0
 30
0.0
 40
5.0
  0
LINE
  5
4B9
  8
SIZE
  6
CONTINUOUS
 62
    30
 10
-712.4
 20
0.0
 30
0.0
 11
-712.4
 21
10.0
 31
0.0
  0
TEXT
  5
4BA
  8
SIZE
  6
CONTINUOUS
 62
    30
 10
-722.4
 20
39.419006
 30
0.0
 40
30.0
  1
120
 50
90.0
 72
     1
 11
-722.4
 21
71.919006
 31
0.0
  0
POINT
  5
4BB
  8
DEFPOINTS
  6
CONTINUOUS
 62
    30
 10
-560.0
 20
120.0
 30
0.0
  0
POINT
  5
4BC
  8
DEFPOINTS
  6
CONTINUOUS
 62
    30
 10
-560.0
 20
0.0
 30
0.0
  0
POINT
  5
4BD
  8
DEFPOINTS
  6
CONTINUOUS
 62
    30
 10
-712.4
 20
0.0
 30
0.0
  0
LINE
  5
4BE
  8
SIZE
  6
CONTINUOUS
 62
    30
 10
-570.0
 20
-300.0
 30
0.0
 11
-724.9
 21
-300.0
 31
0.0
  0
LINE
  5
4BF
  8
SIZE
  6
CONTINUOUS
 62
    30
 10
-570.0
 20
0.0
 30
0.0
 11
-724.9
 21
0.0
 31
0.0
  0
LINE
  5
4C0
  8
SIZE
  6
CONTINUOUS
 62
    30
 10
-712.4
 20
-290.0
 30
0.0
 11
-712.4
 21
-10.0
 31
0.0
  0
CIRCLE
  5
4C1
  8
SIZE
  6
CONTINUOUS
 62
    30
 10
-712.4
 20
-300.0
 30
0.0
 40
5.0
  0
LINE
  5
4C2
  8
SIZE
  6
CONTINUOUS
 62
    30
 10
-712.4
 20
-300.0
 30
0.0
 11
-712.4
 21
-290.0
 31
0.0
  0
CIRCLE
  5
4C3
  8
SIZE
  6
CONTINUOUS
 62
    30
 10
-712.4
 20
0.0
 30
0.0
 40
5.0
  0
LINE
  5
4C4
  8
SIZE
  6
CONTINUOUS
 62
    30
 10
-712.4
 20
0.0
 30
0.0
 11
-712.4
 21
-10.0
 31
0.0
  0
TEXT
  5
4C5
  8
SIZE
  6
CONTINUOUS
 62
    30
 10
-722.4
 20
-185.0
 30
0.0
 40
30.0
  1
300
 50
90.0
 72
     1
 11
-722.4
 21
-150.0
 31
0.0
  0
POINT
  5
4C6
  8
DEFPOINTS
  6
CONTINUOUS
 62
    30
 10
-560.0
 20
-300.0
 30
0.0
  0
POINT
  5
4C7
  8
DEFPOINTS
  6
CONTINUOUS
 62
    30
 10
-560.0
 20
0.0
 30
0.0
  0
POINT
  5
4C8
  8
DEFPOINTS
  6
CONTINUOUS
 62
    30
 10
-712.4
 20
0.0
 30
0.0
  0
TEXT
  5
4C9
  8
NOTE
  6
CONTINUOUS
 10
-661.529846
 20
-702.42334
 30
0.0
 40
40.0
  1
メンテナンススペース
 50
90.000005
 41
0.84375
  7
STANDARD1
  0
TEXT
  5
4CA
  8
NOTE
  6
CONTINUOUS
 10
-662.306885
 20
-331.0047
 30
0.0
 40
40.0
  1
メンテナンススペース
 50
90.000005
 41
0.84375
  7
STANDARD1
  0
TEXT
  5
4CB
  8
NOTE
  6
CONTINUOUS
 10
528.419067
 20
-803.54364
 30
0.0
 40
40.0
  1
メンテナンススペース
 50
0.000003
 41
0.84375
  7
STANDARD1
  0
TEXT
  5
4CC
  8
NOTE
  6
CONTINUOUS
 10
-288.230835
 20
-800.898315
 30
0.0
 40
40.0
  1
メンテナンススペース
 50
0.000003
 41
0.84375
  7
STANDARD1
  0
TEXT
  5
4CD
  8
NOTE
  6
CONTINUOUS
 10
1208.068237
 20
-445.112
 30
0.0
 40
40.0
  1
メンテナンススペース
 50
90.000005
 41
0.84375
  7
STANDARD1
  0
TEXT
  5
4CE
  8
NOTE
  6
CONTINUOUS
 10
-673.935425
 20
473.139435
 30
0.0
 40
40.0
  1
メンテナンススペース
 50
0.000003
 41
0.84375
  7
STANDARD1
  0
TEXT
  5
4CF
  8
NOTE
  6
CONTINUOUS
 10
-666.969055
 20
37.305847
 30
0.0
 40
40.0
  1
メンテナンススペース
 50
90.000005
 41
0.84375
  7
STANDARD1
  0
TEXT
  5
4D0
  8
NOTE
  6
CONTINUOUS
 10
-282.946747
 20
624.482666
 30
0.0
 40
40.0
  1
メンテナンススペース
 50
0.000003
 41
0.84375
  7
STANDARD1
  0
LINE
  5
4D1
  8
NOTE
  6
CONTINUOUS
 10
-253.0
 20
-332.0
 30
0.0
 11
-253.0
 21
-292.0
 31
0.0
  0
LINE
  5
4D2
  8
NOTE
  6
CONTINUOUS
 10
-233.0
 20
-312.0
 30
0.0
 11
-273.0
 21
-312.0
 31
0.0
  0
LINE
  5
4D3
  8
NOTE
  6
CONTINUOUS
 10
-253.0
 20
32.0
 30
0.0
 11
-253.0
 21
-8.0
 31
0.0
  0
LINE
  5
4D4
  8
NOTE
  6
CONTINUOUS
 10
-233.0
 20
12.0
 30
0.0
 11
-273.0
 21
12.0
 31
0.0
  0
LINE
  5
4D5
  8
NOTE
  6
CONTINUOUS
 10
257.0
 20
32.0
 30
0.0
 11
257.0
 21
-8.0
 31
0.0
  0
LINE
  5
4D6
  8
NOTE
  6
CONTINUOUS
 10
277.0
 20
12.0
 30
0.0
 11
237.0
 21
12.0
 31
0.0
  0
LINE
  5
4D7
  8
NOTE
  6
CONTINUOUS
 10
450.0
 20
-123.0
 30
0.0
 11
450.0
 21
-83.0
 31
0.0
  0
LINE
  5
4D8
  8
NOTE
  6
CONTINUOUS
 10
470.0
 20
-103.0
 30
0.0
 11
430.0
 21
-103.0
 31
0.0
  0
LINE
  5
4D9
  8
NOTE
  6
CONTINUOUS
 10
1143.752686
 20
216.860947
 30
0.0
 11
636.002747
 21
216.860947
 31
0.0
  0
LINE
  5
4DA
  8
NOTE
  6
CONTINUOUS
 10
636.002747
 20
216.860947
 30
0.0
 11
440.0
 21
-133.0
 31
0.0
  0
LINE
  5
4DB
  8
NOTE
  6
CONTINUOUS
 10
440.0
 20
-133.0
 30
0.0
 11
440.492607
 21
-131.061614
 31
0.0
  0
LINE
  5
4DC
  8
NOTE
  6
CONTINUOUS
 10
440.0
 20
-133.0
 30
0.0
 11
441.395803
 21
-131.567612
 31
0.0
  0
TEXT
  5
4DD
  8
NOTE
  6
CONTINUOUS
 10
696.752747
 20
267.860931
 30
0.0
 40
40.0
  1
貯湯ﾀﾝｸﾕﾆｯﾄ接続口(B)
 50
359.999996
 41
0.847538
  7
STANDARD1
  0
TEXT
  5
4DE
  8
NOTE
  6
CONTINUOUS
 10
696.752747
 20
217.860947
 30
0.0
 40
40.0
  1
R1/2(φ21.7)
 50
359.999996
 41
0.637277
  7
STANDARD1
  0
LINE
  5
4DF
  8
NOTE
  6
CONTINUOUS
 10
440.0
 20
-153.0
 30
0.0
 11
440.0
 21
-113.0
 31
0.0
  0
LINE
  5
4E0
  8
NOTE
  6
CONTINUOUS
 10
1140.549194
 20
373.837189
 30
0.0
 11
632.799194
 21
373.837189
 31
0.0
  0
LINE
  5
4E1
  8
NOTE
  6
CONTINUOUS
 10
632.799194
 20
373.837189
 30
0.0
 11
450.0
 21
-103.0
 31
0.0
  0
LINE
  5
4E2
  8
NOTE
  6
CONTINUOUS
 10
450.0
 20
-103.0
 30
0.0
 11
450.208179
 21
-101.010864
 31
0.0
  0
LINE
  5
4E3
  8
NOTE
  6
CONTINUOUS
 10
450.0
 20
-103.0
 30
0.0
 11
451.174856
 21
-101.381447
 31
0.0
  0
TEXT
  5
4E4
  8
NOTE
  6
CONTINUOUS
 10
693.549194
 20
424.837189
 30
0.0
 40
40.0
  1
貯湯ﾀﾝｸﾕﾆｯﾄ接続口(A)
 50
359.999996
 41
0.847538
  7
STANDARD1
  0
TEXT
  5
4E5
  8
NOTE
  6
CONTINUOUS
 10
693.549194
 20
374.837189
 30
0.0
 40
40.0
  1
R1/2(φ21.7)
 50
359.999996
 41
0.637277
  7
STANDARD1
  0
LINE
  5
4E6
  8
NOTE
  6
CONTINUOUS
 10
460.0
 20
-133.0
 30
0.0
 11
420.0
 21
-133.0
 31
0.0
  0
LINE
  5
4E7
  8
NOTE
  6
CONTINUOUS
 10
257.0
 20
-332.0
 30
0.0
 11
257.0
 21
-292.0
 31
0.0
  0
LINE
  5
4E8
  8
NOTE
  6
CONTINUOUS
 10
277.0
 20
-312.0
 30
0.0
 11
237.0
 21
-312.0
 31
0.0
  0
LINE
  5
4E9
  8
NOTE
  6
CONTINUOUS
 10
765.166626
 20
-535.020203
 30
0.0
 11
508.916626
 21
-535.020203
 31
0.0
  0
LINE
  5
4EA
  8
NOTE
  6
CONTINUOUS
 10
508.916626
 20
-535.020203
 30
0.0
 11
257.0
 21
-312.0
 31
0.0
  0
LINE
  5
4EB
  8
NOTE
  6
CONTINUOUS
 10
257.0
 20
-312.0
 30
0.0
 11
258.789584
 21
-312.892966
 31
0.0
  0
LINE
  5
4EC
  8
NOTE
  6
CONTINUOUS
 10
257.0
 20
-312.0
 30
0.0
 11
258.103342
 21
-313.668123
 31
0.0
  0
TEXT
  5
4ED
  8
NOTE
  6
CONTINUOUS
 10
569.666626
 20
-534.020203
 30
0.0
 40
40.0
  1
AH 4-M10
 50
0.000003
 41
0.644737
  7
STANDARD1
  0
CIRCLE
  5
4EE
  8
ARRANGE
  6
CONTINUOUS
 10
0.0
 20
0.0
 30
0.0
 40
15.0
  0
CIRCLE
  5
4EF
  8
FIX
  6
CONTINUOUS
 10
-253.0
 20
-312.0
 30
0.0
 40
5.0
  0
CIRCLE
  5
4F0
  8
FIX
  6
CONTINUOUS
 10
257.0
 20
-312.0
 30
0.0
 40
5.0
  0
CIRCLE
  5
4F1
  8
FIX
  6
CONTINUOUS
 10
-253.0
 20
12.0
 30
0.0
 40
5.0
  0
CIRCLE
  5
4F2
  8
FIX
  6
CONTINUOUS
 10
257.0
 20
12.0
 30
0.0
 40
5.0
  0
LINE
  5
4F3
  8
SERVICESPACE
  6
DASHDOT
 10
1010.0
 20
120.0
 30
0.0
 11
410.0
 21
-600.0
 31
0.0
  0
LINE
  5
4F4
  8
SERVICESPACE
  6
DASHDOT
 10
410.0
 20
120.0
 30
0.0
 11
1010.0
 21
-600.0
 31
0.0
  0
LINE
  5
4F5
  8
SERVICESPACE
  6
DASHDOT
 10
-560.0
 20
-600.0
 30
0.0
 11
410.0
 21
-300.0
 31
0.0
  0
LINE
  5
4F6
  8
SERVICESPACE
  6
DASHDOT
 10
-560.0
 20
-300.0
 30
0.0
 11
410.0
 21
-600.0
 31
0.0
  0
LINE
  5
4F7
  8
SERVICESPACE
  6
DASHDOT
 10
410.0
 20
120.0
 30
0.0
 11
-560.0
 21
0.0
 31
0.0
  0
LINE
  5
4F8
  8
SERVICESPACE
  6
DASHDOT
 10
-560.0
 20
120.0
 30
0.0
 11
410.0
 21
0.0
 31
0.0
  0
LINE
  5
4F9
  8
SERVICESPACE
  6
DASHDOT
 10
-560.0
 20
0.0
 30
0.0
 11
-410.0
 21
-300.0
 31
0.0
  0
LINE
  5
4FA
  8
SERVICESPACE
  6
DASHDOT
 10
-560.0
 20
-300.0
 30
0.0
 11
-410.0
 21
0.0
 31
0.0
  0
LINE
  5
4FB
  8
SERVICESPACE
  6
DASHDOT
 10
-560.0
 20
-600.0
 30
0.0
 11
1010.0
 21
-600.0
 31
0.0
  0
LINE
  5
4FC
  8
SERVICESPACE
  6
DASHDOT
 10
1010.0
 20
-600.0
 30
0.0
 11
1010.0
 21
120.0
 31
0.0
  0
LINE
  5
4FD
  8
SERVICESPACE
  6
DASHDOT
 10
-410.0
 20
-300.0
 30
0.0
 11
-410.0
 21
0.0
 31
0.0
  0
LINE
  5
4FE
  8
SERVICESPACE
  6
DASHDOT
 10
410.0
 20
-600.0
 30
0.0
 11
410.0
 21
120.0
 31
0.0
  0
LINE
  5
4FF
  8
SERVICESPACE
  6
DASHDOT
 10
-560.0
 20
120.0
 30
0.0
 11
1010.0
 21
120.0
 31
0.0
  0
LINE
  5
500
  8
SERVICESPACE
  6
DASHDOT
 10
-560.0
 20
-600.0
 30
0.0
 11
-560.0
 21
120.0
 31
0.0
  0
LINE
  5
501
  8
SERVICESPACE
  6
DASHDOT
 10
-560.0
 20
-300.0
 30
0.0
 11
410.0
 21
-300.0
 31
0.0
  0
LINE
  5
502
  8
SERVICESPACE
  6
DASHDOT
 10
-560.0
 20
0.0
 30
0.0
 11
410.0
 21
0.0
 31
0.0
  0
TEXT
  5
503
  8
ETC
  6
CONTINUOUS
 10
745.899963
 20
636.923279
 30
0.0
 40
40.0
  1
TTHPU451
 50
0.000003
 41
0.6125
  7
STANDARD1
  0
TEXT
  5
504
  8
ETC
  6
CONTINUOUS
 10
745.899963
 20
566.923279
 30
0.0
 40
40.0
  1
ヒートポンプユニット
 50
0.000003
 41
0.84375
  7
STANDARD1
  0
ENDSEC
  0
EOF
