  0
SECTION
  2
HEADER
  9
$ACADVER
  1
AC1009
  9
$INSBASE
 10
0.0
 20
0.0
 30
0.0
  9
$EXTMIN
 10
-812.4
 20
-590.1
 30
0.0
  9
$EXTMAX
 10
669.220841
 20
1954.899668
 30
0.0
  9
$LIMMIN
 10
0.0
 20
0.0
  9
$LIMMAX
 10
12.0
 20
9.0
  9
$ORTHOMODE
 70
     0
  9
$REGENMODE
 70
     1
  9
$FILLMODE
 70
     1
  9
$QTEXTMODE
 70
     0
  9
$MIRRTEXT
 70
     1
  9
$DRAGMODE
 70
     2
  9
$LTSCALE
 40
1.0
  9
$OSMODE
 70
     0
  9
$ATTMODE
 70
     1
  9
$TEXTSIZE
 40
2.0
  9
$TRACEWID
 40
0.05
  9
$TEXTSTYLE
  7
STANDARD1
  9
$CLAYER
  8
0
  9
$CELTYPE
  6
CONTINUOUS
  9
$CECOLOR
 62
   256
  9
$DIMSCALE
 40
1.0
  9
$DIMASZ
 40
10.0
  9
$DIMEXO
 40
10.0
  9
$DIMDLI
 40
8.0
  9
$DIMRND
 40
0.0
  9
$DIMDLE
 40
0.0
  9
$DIMEXE
 40
12.5
  9
$DIMTP
 40
0.0
  9
$DIMTM
 40
0.0
  9
$DIMTXT
 40
30.0
  9
$DIMCEN
 40
2.5
  9
$DIMTSZ
 40
0.0
  9
$DIMTOL
 70
     0
  9
$DIMLIM
 70
     0
  9
$DIMTIH
 70
     0
  9
$DIMTOH
 70
     0
  9
$DIMSE1
 70
     0
  9
$DIMSE2
 70
     0
  9
$DIMTAD
 70
     3
  9
$DIMZIN
 70
    12
  9
$DIMBLK
  1

  9
$DIMASO
 70
     1
  9
$DIMSHO
 70
     1
  9
$DIMPOST
  1

  9
$DIMAPOST
  1

  9
$DIMALT
 70
     0
  9
$DIMALTD
 70
     4
  9
$DIMALTF
 40
25.4
  9
$DIMLFAC
 40
1.0
  9
$DIMTOFL
 70
     1
  9
$DIMTVP
 40
0.0
  9
$DIMTIX
 70
     0
  9
$DIMSOXD
 70
     0
  9
$DIMSAH
 70
     1
  9
$DIMBLK1
  1
_ORIGIN
  9
$DIMBLK2
  1
_ORIGIN
  9
$DIMSTYLE
  2
STANDARD
  9
$DIMCLRD
 70
     0
  9
$DIMCLRE
 70
     0
  9
$DIMCLRT
 70
     0
  9
$DIMTFAC
 40
1.0
  9
$DIMGAP
 40
0.09
  9
$LUNITS
 70
     2
  9
$LUPREC
 70
     3
  9
$SKETCHINC
 40
0.1
  9
$FILLETRAD
 40
0.0
  9
$AUNITS
 70
     0
  9
$AUPREC
 70
     0
  9
$MENU
  1
acad
  9
$ELEVATION
 40
0.0
  9
$PELEVATION
 40
0.0
  9
$THICKNESS
 40
0.0
  9
$LIMCHECK
 70
     0
  9
$BLIPMODE
 70
     0
  9
$CHAMFERA
 40
0.0
  9
$CHAMFERB
 40
0.0
  9
$SKPOLY
 70
     0
  9
$TDCREATE
 40
2452927.415671
  9
$TDUPDATE
 40
2452927.415671
  9
$TDINDWG
 40
0.0
  9
$TDUSRTIMER
 40
0.0
  9
$USRTIMER
 70
     1
  9
$ANGBASE
 50
0.0
  9
$ANGDIR
 70
     0
  9
$PDMODE
 70
     0
  9
$PDSIZE
 40
0.0
  9
$PLINEWID
 40
0.0
  9
$COORDS
 70
     1
  9
$SPLFRAME
 70
     0
  9
$SPLINETYPE
 70
     6
  9
$SPLINESEGS
 70
     8
  9
$ATTDIA
 70
     0
  9
$ATTREQ
 70
     1
  9
$HANDLING
 70
     1
  9
$HANDSEED
  5
35C
  9
$SURFTAB1
 70
     6
  9
$SURFTAB2
 70
     6
  9
$SURFTYPE
 70
     6
  9
$SURFU
 70
     6
  9
$SURFV
 70
     6
  9
$UCSNAME
  2

  9
$UCSORG
 10
0.0
 20
0.0
 30
0.0
  9
$UCSXDIR
 10
1.0
 20
0.0
 30
0.0
  9
$UCSYDIR
 10
0.0
 20
1.0
 30
0.0
  9
$PUCSNAME
  2

  9
$PUCSORG
 10
0.0
 20
0.0
 30
0.0
  9
$PUCSXDIR
 10
1.0
 20
0.0
 30
0.0
  9
$PUCSYDIR
 10
0.0
 20
1.0
 30
0.0
  9
$USERI1
 70
     0
  9
$USERI2
 70
     0
  9
$USERI3
 70
     0
  9
$USERI4
 70
     0
  9
$USERI5
 70
     0
  9
$USERR1
 40
0.0
  9
$USERR2
 40
0.0
  9
$USERR3
 40
0.0
  9
$USERR4
 40
0.0
  9
$USERR5
 40
0.0
  9
$WORLDVIEW
 70
     1
  9
$SHADEDGE
 70
     3
  9
$SHADEDIF
 70
    70
  9
$TILEMODE
 70
     1
  9
$MAXACTVP
 70
    48
  9
$PLIMCHECK
 70
     0
  9
$PEXTMIN
 10
1.000000E+020
 20
1.000000E+020
 30
1.000000E+020
  9
$PEXTMAX
 10
-1.000000E+020
 20
-1.000000E+020
 30
-1.000000E+020
  9
$PLIMMIN
 10
0.0
 20
0.0
  9
$PLIMMAX
 10
12.0
 20
9.0
  9
$UNITMODE
 70
     0
  9
$VISRETAIN
 70
     1
  9
$PLINEGEN
 70
     0
  9
$PSLTSCALE
 70
     1
  0
ENDSEC
  0
SECTION
  2
TABLES
  0
TABLE
  2
VPORT
 70
     2
  0
VPORT
  2
*ACTIVE
 70
     0
 10
0.0
 20
0.0
 11
1.0
 21
1.0
 12
-71.589579
 22
682.399834
 13
0.0
 23
0.0
 14
1.0
 24
1.0
 15
0.0
 25
0.0
 16
0.0
 26
0.0
 36
1.0
 17
0.0
 27
0.0
 37
0.0
 40
2598.578608
 41
3.116197
 42
50.0
 43
0.0
 44
0.0
 50
0.0
 51
0.0
 71
     0
 72
   100
 73
     1
 74
     1
 75
     0
 76
     0
 77
     0
 78
     0
  0
ENDTAB
  0
TABLE
  2
LTYPE
 70
     4
  0
LTYPE
  2
CONTINUOUS
 70
     0
  3
Solid line
 72
    65
 73
     0
 40
0.0
  0
LTYPE
  2
DASHED
 70
     0
  3
-- -- -- -- -- -- -- -- -- -- -- -- -- -- --
 72
    65
 73
     2
 40
0.75
 49
0.5
 49
-0.25
  0
LTYPE
  2
DASHDOT
 70
     0
  3
__ . __ . __ . __ . __ . __ . __ . __ . __ . __
 72
    65
 73
     4
 40
125.0
 49
80.0
 49
-20.0
 49
5.0
 49
-20.0
  0
LTYPE
  2
DIVIDE
 70
     0
  3
__ . . __ . . __ . . __ . . __ . . __ . . __
 72
    65
 73
     6
 40
1.25
 49
0.5
 49
-0.25
 49
0.0
 49
-0.25
 49
0.0
 49
-0.25
  0
ENDTAB
  0
TABLE
  2
LAYER
 70
    12
  0
LAYER
  2
0
 70
     0
 62
     3
  6
CONTINUOUS
  0
LAYER
  2
OUTLINE
 70
     0
 62
     3
  6
CONTINUOUS
  0
LAYER
  2
DETAIL
 70
     0
 62
     5
  6
CONTINUOUS
  0
LAYER
  2
BASIS
 70
     0
 62
     6
  6
CONTINUOUS
  0
LAYER
  2
SIZE
 70
     0
 62
    30
  6
CONTINUOUS
  0
LAYER
  2
NOTE
 70
     0
 62
     4
  6
CONTINUOUS
  0
LAYER
  2
ARRANGE
 70
     0
 62
     1
  6
CONTINUOUS
  0
LAYER
  2
FIX
 70
     0
 62
    11
  6
CONTINUOUS
  0
LAYER
  2
SERVICESPACE
 70
     0
 62
     2
  6
CONTINUOUS
  0
LAYER
  2
ETC
 70
     0
 62
    61
  6
CONTINUOUS
  0
LAYER
  2
SYMBOLLINE
 70
     0
 62
     7
  6
CONTINUOUS
  0
LAYER
  2
DEFPOINTS
 70
     0
 62
     7
  6
CONTINUOUS
  0
ENDTAB
  0
TABLE
  2
STYLE
 70
     5
  0
STYLE
  2
STANDARD
 70
     0
 40
0.0
 41
1.0
 50
0.0
 71
     0
 42
0.2
  3
txt
  4

  0
STYLE
  2
STANDARD1
 70
     0
 40
0.0
 41
1.0
 50
0.0
 71
     0
 42
2.0
  3
MONOTXT
  4
BIGFONT
  0
STYLE
  2
STANDARD2
 70
     4
 40
0.0
 41
1.0
 50
0.0
 71
     0
 42
2.0
  3
MONOTXT
  4
BIGFONT
  0
STYLE
  2
STANDARD3
 70
     0
 40
0.0
 41
1.0
 50
0.0
 71
     0
 42
2.0
  3
MONOTXT
  4

  0
STYLE
  2
STANDARD4
 70
     4
 40
0.0
 41
1.0
 50
0.0
 71
     0
 42
2.0
  3
MONOTXT
  4

  0
ENDTAB
  0
TABLE
  2
VIEW
 70
     0
  0
ENDTAB
  0
TABLE
  2
UCS
 70
     0
  0
ENDTAB
  0
TABLE
  2
APPID
 70
     1
  0
APPID
  2
ACAD
 70
     0
  0
ENDTAB
  0
TABLE
  2
DIMSTYLE
 70
     1
  0
DIMSTYLE
  2
STANDARD
 70
     0
  3

  4

  5

  6

  7

 40
1.0
 41
0.18
 42
0.0625
 43
0.38
 44
0.18
 45
0.0
 46
0.0
 47
0.0
 48
0.0
140
0.18
141
0.09
142
0.0
143
25.4
144
1.0
145
0.0
146
1.0
147
0.09
 71
     0
 72
     0
 73
     1
 74
     1
 75
     0
 76
     0
 77
     0
 78
     0
170
     0
171
     2
172
     0
173
     0
174
     0
175
     0
176
     0
177
     0
178
     0
  0
ENDTAB
  0
ENDSEC
  0
SECTION
  2
BLOCKS
  0
BLOCK
  8
0
  2
$MODEL_SPACE
 70
     0
 10
0.0
 20
0.0
 30
0.0
  3
$MODEL_SPACE
  1

  0
ENDBLK
  5
1A
  8
0
  0
BLOCK
 67
     1
  8
0
  2
$PAPER_SPACE
 70
     0
 10
0.0
 20
0.0
 30
0.0
  3
$PAPER_SPACE
  1

  0
ENDBLK
  5
17
 67
     1
  8
0
  0
BLOCK
  8
SIZE
  2
*D0
 70
     1
 10
0.0
 20
0.0
 30
0.0
  3
*D0
  1

  0
TEXT
  5
35
  8
SIZE
  6
CONTINUOUS
 10
-152.940002
 20
-399.000006
 30
0.0
 40
2.8
  1
300
 50
0.000003
 41
0.7
  7
STANDARD1
  0
LINE
  5
36
  8
SIZE
  6
CONTINUOUS
 10
0.0
 20
19.0
 30
0.0
 11
0.0
 21
-402.0
 31
0.0
  0
LINE
  5
37
  8
SIZE
  6
CONTINUOUS
 10
-300.0
 20
19.0
 30
0.0
 11
-300.0
 21
-402.0
 31
0.0
  0
LINE
  5
38
  8
SIZE
  6
CONTINUOUS
 10
0.0
 20
-400.0
 30
0.0
 11
-300.0
 21
-400.0
 31
0.0
  0
INSERT
  5
3A
  8
SIZE
  2
DOT
 10
0.0
 20
-400.0
 30
0.0
  0
INSERT
  5
3B
  8
SIZE
  2
DOT
 10
-300.0
 20
-400.0
 30
0.0
 50
180.0
  0
POINT
  5
3C
  8
DEFPOINTS
  6
BYBLOCK
 10
-300.0
 20
20.0
 30
0.0
  0
POINT
  5
3D
  8
DEFPOINTS
  6
BYBLOCK
 10
0.0
 20
20.0
 30
0.0
  0
POINT
  5
3E
  8
DEFPOINTS
  6
BYBLOCK
 10
0.0
 20
-400.0
 30
0.0
  0
ENDBLK
  5
3F
  8
SIZE
  0
BLOCK
  8
SIZE
  2
DOT
 70
     0
 10
0.0
 20
0.0
 30
0.0
  3
DOT
  1

  0
POLYLINE
  5
41
  8
0
  6
BYBLOCK
 66
     1
 10
0.0
 20
0.0
 30
0.0
 70
     1
 40
0.5
 41
0.5
  0
VERTEX
  5
42
  8
0
  6
BYBLOCK
 10
-0.25
 20
0.0
 30
0.0
 42
1.0
  0
VERTEX
  5
43
  8
0
  6
BYBLOCK
 10
0.25
 20
0.0
 30
0.0
 42
1.0
  0
SEQEND
  5
44
  8
0
  6
BYBLOCK
  0
LINE
  5
45
  8
0
  6
BYBLOCK
 10
-0.5
 20
0.0
 30
0.0
 11
-1.0
 21
0.0
 31
0.0
  0
ENDBLK
  5
46
  8
SIZE
  0
BLOCK
  8
SIZE
  2
*D2
 70
     1
 10
0.0
 20
0.0
 30
0.0
  3
*D2
  1

  0
TEXT
  5
49
  8
SIZE
  6
CONTINUOUS
 10
-490.999994
 20
-66.229828
 30
0.0
 40
2.8
  1
20
 50
90.000005
 41
0.7
  7
STANDARD1
  0
LINE
  5
4A
  8
SIZE
  6
CONTINUOUS
 10
-329.5
 20
0.0
 30
0.0
 11
-492.0
 21
0.0
 31
0.0
  0
LINE
  5
4B
  8
SIZE
  6
CONTINUOUS
 10
-301.0
 20
20.0
 30
0.0
 11
-492.0
 21
20.0
 31
0.0
  0
LINE
  5
4C
  8
SIZE
  6
CONTINUOUS
 10
-490.0
 20
-67.629829
 30
0.0
 11
-490.0
 21
25.0
 31
0.0
  0
INSERT
  5
4D
  8
SIZE
  2
DOT
 10
-490.0
 20
0.0
 30
0.0
 50
270.0
  0
INSERT
  5
4E
  8
SIZE
  2
DOT
 10
-490.0
 20
20.0
 30
0.0
 50
90.0
  0
POINT
  5
4F
  8
DEFPOINTS
  6
BYBLOCK
 10
-300.0
 20
20.0
 30
0.0
  0
POINT
  5
50
  8
DEFPOINTS
  6
BYBLOCK
 10
-328.5
 20
0.0
 30
0.0
  0
POINT
  5
51
  8
DEFPOINTS
  6
BYBLOCK
 10
-490.0
 20
0.0
 30
0.0
  0
ENDBLK
  5
52
  8
SIZE
  0
BLOCK
  8
SIZE
  2
*D3
 70
     1
 10
0.0
 20
0.0
 30
0.0
  3
*D3
  1

  0
TEXT
  5
55
  8
SIZE
  6
CONTINUOUS
 10
-27.459999
 20
-128.999998
 30
0.0
 40
2.8
  1
51
 50
0.000003
 41
0.7
  7
STANDARD1
  0
LINE
  5
56
  8
SIZE
  6
CONTINUOUS
 10
0.0
 20
19.0
 30
0.0
 11
0.0
 21
-132.0
 31
0.0
  0
LINE
  5
57
  8
SIZE
  6
CONTINUOUS
 10
-51.0
 20
-1.0
 30
0.0
 11
-51.0
 21
-132.0
 31
0.0
  0
LINE
  5
58
  8
SIZE
  6
CONTINUOUS
 10
0.0
 20
-130.0
 30
0.0
 11
-51.0
 21
-130.0
 31
0.0
  0
INSERT
  5
59
  8
SIZE
  2
DOT
 10
0.0
 20
-130.0
 30
0.0
  0
INSERT
  5
5A
  8
SIZE
  2
DOT
 10
-51.0
 20
-130.0
 30
0.0
 50
180.0
  0
POINT
  5
5B
  8
DEFPOINTS
  6
BYBLOCK
 10
-51.0
 20
0.0
 30
0.0
  0
POINT
  5
5C
  8
DEFPOINTS
  6
BYBLOCK
 10
0.0
 20
20.0
 30
0.0
  0
POINT
  5
5D
  8
DEFPOINTS
  6
BYBLOCK
 10
0.0
 20
-130.0
 30
0.0
  0
ENDBLK
  5
5E
  8
SIZE
  0
BLOCK
  8
SIZE
  2
*D4
 70
     1
 10
0.0
 20
0.0
 30
0.0
  3
*D4
  1

  0
TEXT
  5
61
  8
SIZE
  6
CONTINUOUS
 10
469.000006
 20
317.059998
 30
0.0
 40
2.8
  1
640
 50
90.000005
 41
0.7
  7
STANDARD1
  0
LINE
  5
62
  8
SIZE
  6
CONTINUOUS
 10
29.5
 20
0.0
 30
0.0
 11
472.0
 21
0.0
 31
0.0
  0
LINE
  5
63
  8
SIZE
  6
CONTINUOUS
 10
-4.0
 20
640.0
 30
0.0
 11
472.0
 21
640.0
 31
0.0
  0
LINE
  5
64
  8
SIZE
  6
CONTINUOUS
 10
470.0
 20
0.0
 30
0.0
 11
470.0
 21
640.0
 31
0.0
  0
INSERT
  5
65
  8
SIZE
  2
DOT
 10
470.0
 20
0.0
 30
0.0
 50
270.0
  0
INSERT
  5
66
  8
SIZE
  2
DOT
 10
470.0
 20
640.0
 30
0.0
 50
90.0
  0
POINT
  5
67
  8
DEFPOINTS
  6
BYBLOCK
 10
-5.0
 20
640.0
 30
0.0
  0
POINT
  5
68
  8
DEFPOINTS
  6
BYBLOCK
 10
28.5
 20
0.0
 30
0.0
  0
POINT
  5
69
  8
DEFPOINTS
  6
BYBLOCK
 10
470.0
 20
0.0
 30
0.0
  0
ENDBLK
  5
6A
  8
SIZE
  0
BLOCK
  8
SIZE
  2
*D5
 70
     1
 10
0.0
 20
0.0
 30
0.0
  3
*D5
  1

  0
TEXT
  5
6D
  8
SIZE
  6
CONTINUOUS
 10
-152.940002
 20
-578.999976
 30
0.0
 40
2.8
  1
357
 50
0.000003
 41
0.7
  7
STANDARD1
  0
LINE
  5
6E
  8
SIZE
  6
CONTINUOUS
 10
28.5
 20
-1.0
 30
0.0
 11
28.5
 21
-582.0
 31
0.0
  0
LINE
  5
6F
  8
SIZE
  6
CONTINUOUS
 10
-328.5
 20
-1.0
 30
0.0
 11
-328.5
 21
-582.0
 31
0.0
  0
LINE
  5
70
  8
SIZE
  6
CONTINUOUS
 10
28.5
 20
-580.0
 30
0.0
 11
-328.5
 21
-580.0
 31
0.0
  0
INSERT
  5
71
  8
SIZE
  2
DOT
 10
28.5
 20
-580.0
 30
0.0
  0
INSERT
  5
72
  8
SIZE
  2
DOT
 10
-328.5
 20
-580.0
 30
0.0
 50
180.0
  0
POINT
  5
73
  8
DEFPOINTS
  6
BYBLOCK
 10
-328.5
 20
0.0
 30
0.0
  0
POINT
  5
74
  8
DEFPOINTS
  6
BYBLOCK
 10
28.5
 20
0.0
 30
0.0
  0
POINT
  5
75
  8
DEFPOINTS
  6
BYBLOCK
 10
28.5
 20
-580.0
 30
0.0
  0
ENDBLK
  5
76
  8
SIZE
  0
BLOCK
  8
SIZE
  2
*D6
 70
     1
 10
0.0
 20
0.0
 30
0.0
  3
*D6
  1

  0
TEXT
  5
79
  8
SIZE
  6
CONTINUOUS
 10
-152.940002
 20
-489.000006
 30
0.0
 40
2.8
  1
324
 50
0.000003
 41
0.7
  7
STANDARD1
  0
LINE
  5
7A
  8
SIZE
  6
CONTINUOUS
 10
12.0
 20
-21.0
 30
0.0
 11
12.0
 21
-492.0
 31
0.0
  0
LINE
  5
7B
  8
SIZE
  6
CONTINUOUS
 10
-312.0
 20
-21.0
 30
0.0
 11
-312.0
 21
-492.0
 31
0.0
  0
LINE
  5
7C
  8
SIZE
  6
CONTINUOUS
 10
12.0
 20
-490.0
 30
0.0
 11
-312.0
 21
-490.0
 31
0.0
  0
INSERT
  5
7D
  8
SIZE
  2
DOT
 10
12.0
 20
-490.0
 30
0.0
  0
INSERT
  5
7E
  8
SIZE
  2
DOT
 10
-312.0
 20
-490.0
 30
0.0
 50
180.0
  0
POINT
  5
7F
  8
DEFPOINTS
  6
BYBLOCK
 10
-312.0
 20
-20.0
 30
0.0
  0
POINT
  5
80
  8
DEFPOINTS
  6
BYBLOCK
 10
12.0
 20
-20.0
 30
0.0
  0
POINT
  5
81
  8
DEFPOINTS
  6
BYBLOCK
 10
12.0
 20
-490.0
 30
0.0
  0
ENDBLK
  5
82
  8
SIZE
  0
BLOCK
  8
SIZE
  2
*D7
 70
     1
 10
0.0
 20
0.0
 30
0.0
  3
*D7
  1

  0
TEXT
  5
85
  8
SIZE
  6
CONTINUOUS
 10
-63.439999
 20
-309.000006
 30
0.0
 40
2.8
  1
145
 50
0.000003
 41
0.7
  7
STANDARD1
  0
LINE
  5
86
  8
SIZE
  6
CONTINUOUS
 10
12.0
 20
-21.0
 30
0.0
 11
12.0
 21
-312.0
 31
0.0
  0
LINE
  5
87
  8
SIZE
  6
CONTINUOUS
 10
-133.0
 20
259.0
 30
0.0
 11
-133.0
 21
-312.0
 31
0.0
  0
LINE
  5
88
  8
SIZE
  6
CONTINUOUS
 10
12.0
 20
-310.0
 30
0.0
 11
-133.0
 21
-310.0
 31
0.0
  0
INSERT
  5
89
  8
SIZE
  2
DOT
 10
12.0
 20
-310.0
 30
0.0
  0
INSERT
  5
8A
  8
SIZE
  2
DOT
 10
-133.0
 20
-310.0
 30
0.0
 50
180.0
  0
POINT
  5
8B
  8
DEFPOINTS
  6
BYBLOCK
 10
-133.0
 20
260.0
 30
0.0
  0
POINT
  5
8C
  8
DEFPOINTS
  6
BYBLOCK
 10
12.0
 20
-20.0
 30
0.0
  0
POINT
  5
8D
  8
DEFPOINTS
  6
BYBLOCK
 10
12.0
 20
-310.0
 30
0.0
  0
ENDBLK
  5
8E
  8
SIZE
  0
BLOCK
  8
SIZE
  2
*D8
 70
     1
 10
0.0
 20
0.0
 30
0.0
  3
*D8
  1

  0
TEXT
  5
91
  8
SIZE
  6
CONTINUOUS
 10
-48.439999
 20
-219.000006
 30
0.0
 40
2.8
  1
115
 50
0.000003
 41
0.7
  7
STANDARD1
  0
LINE
  5
92
  8
SIZE
  6
CONTINUOUS
 10
12.0
 20
-21.0
 30
0.0
 11
12.0
 21
-222.0
 31
0.0
  0
LINE
  5
93
  8
SIZE
  6
CONTINUOUS
 10
-103.0
 20
32.0
 30
0.0
 11
-103.0
 21
-222.0
 31
0.0
  0
LINE
  5
94
  8
SIZE
  6
CONTINUOUS
 10
12.0
 20
-220.0
 30
0.0
 11
-103.0
 21
-220.0
 31
0.0
  0
INSERT
  5
95
  8
SIZE
  2
DOT
 10
12.0
 20
-220.0
 30
0.0
  0
INSERT
  5
96
  8
SIZE
  2
DOT
 10
-103.0
 20
-220.0
 30
0.0
 50
180.0
  0
POINT
  5
97
  8
DEFPOINTS
  6
BYBLOCK
 10
-103.0
 20
33.0
 30
0.0
  0
POINT
  5
98
  8
DEFPOINTS
  6
BYBLOCK
 10
12.0
 20
-20.0
 30
0.0
  0
POINT
  5
99
  8
DEFPOINTS
  6
BYBLOCK
 10
12.0
 20
-220.0
 30
0.0
  0
ENDBLK
  5
9A
  8
SIZE
  0
BLOCK
  8
SIZE
  2
*D9
 70
     1
 10
0.0
 20
0.0
 30
0.0
  3
*D9
  1

  0
TEXT
  5
9D
  8
SIZE
  6
CONTINUOUS
 10
369.000006
 20
137.059998
 30
0.0
 40
2.8
  1
280
 50
90.000005
 41
0.7
  7
STANDARD1
  0
LINE
  5
9E
  8
SIZE
  6
CONTINUOUS
 10
29.5
 20
0.0
 30
0.0
 11
372.0
 21
0.0
 31
0.0
  0
LINE
  5
9F
  8
SIZE
  6
CONTINUOUS
 10
-112.0
 20
280.0
 30
0.0
 11
372.0
 21
280.0
 31
0.0
  0
LINE
  5
A0
  8
SIZE
  6
CONTINUOUS
 10
370.0
 20
0.0
 30
0.0
 11
370.0
 21
280.0
 31
0.0
  0
INSERT
  5
A1
  8
SIZE
  2
DOT
 10
370.0
 20
0.0
 30
0.0
 50
270.0
  0
INSERT
  5
A2
  8
SIZE
  2
DOT
 10
370.0
 20
280.0
 30
0.0
 50
90.0
  0
POINT
  5
A3
  8
DEFPOINTS
  6
BYBLOCK
 10
-113.0
 20
280.0
 30
0.0
  0
POINT
  5
A4
  8
DEFPOINTS
  6
BYBLOCK
 10
28.5
 20
0.0
 30
0.0
  0
POINT
  5
A5
  8
DEFPOINTS
  6
BYBLOCK
 10
370.0
 20
0.0
 30
0.0
  0
ENDBLK
  5
A6
  8
SIZE
  0
BLOCK
  8
SIZE
  2
*D10
 70
     1
 10
0.0
 20
0.0
 30
0.0
  3
*D10
  1

  0
TEXT
  5
A9
  8
SIZE
  6
CONTINUOUS
 10
269.000006
 20
24.539999
 30
0.0
 40
2.8
  1
53
 50
90.000005
 41
0.7
  7
STANDARD1
  0
LINE
  5
AA
  8
SIZE
  6
CONTINUOUS
 10
-82.0
 20
53.0
 30
0.0
 11
272.0
 21
53.0
 31
0.0
  0
LINE
  5
AB
  8
SIZE
  6
CONTINUOUS
 10
29.5
 20
0.0
 30
0.0
 11
272.0
 21
0.0
 31
0.0
  0
LINE
  5
AC
  8
SIZE
  6
CONTINUOUS
 10
270.0
 20
53.0
 30
0.0
 11
270.0
 21
0.0
 31
0.0
  0
INSERT
  5
AD
  8
SIZE
  2
DOT
 10
270.0
 20
53.0
 30
0.0
 50
90.0
  0
INSERT
  5
AE
  8
SIZE
  2
DOT
 10
270.0
 20
0.0
 30
0.0
 50
270.0
  0
POINT
  5
AF
  8
DEFPOINTS
  6
BYBLOCK
 10
28.5
 20
0.0
 30
0.0
  0
POINT
  5
B0
  8
DEFPOINTS
  6
BYBLOCK
 10
-83.0
 20
53.0
 30
0.0
  0
POINT
  5
B1
  8
DEFPOINTS
  6
BYBLOCK
 10
270.0
 20
53.0
 30
0.0
  0
ENDBLK
  5
B2
  8
SIZE
  0
BLOCK
  8
SIZE
  2
*D11
 70
     1
 10
0.0
 20
0.0
 30
0.0
  3
*D11
  1

  0
TEXT
  5
B5
  8
SIZE
  6
CONTINUOUS
 10
-490.999994
 20
317.059998
 30
0.0
 40
2.8
  1
492
 50
90.000005
 41
0.7
  7
STANDARD1
  0
LINE
  5
B6
  8
SIZE
  6
CONTINUOUS
 10
-311.0
 20
566.0
 30
0.0
 11
-492.0
 21
566.0
 31
0.0
  0
LINE
  5
B7
  8
SIZE
  6
CONTINUOUS
 10
-311.0
 20
74.0
 30
0.0
 11
-492.0
 21
74.0
 31
0.0
  0
LINE
  5
B8
  8
SIZE
  6
CONTINUOUS
 10
-490.0
 20
566.0
 30
0.0
 11
-490.0
 21
74.0
 31
0.0
  0
INSERT
  5
B9
  8
SIZE
  2
DOT
 10
-490.0
 20
566.0
 30
0.0
 50
90.0
  0
INSERT
  5
BA
  8
SIZE
  2
DOT
 10
-490.0
 20
74.0
 30
0.0
 50
270.0
  0
POINT
  5
BB
  8
DEFPOINTS
  6
BYBLOCK
 10
-310.0
 20
74.0
 30
0.0
  0
POINT
  5
BC
  8
DEFPOINTS
  6
BYBLOCK
 10
-310.0
 20
566.0
 30
0.0
  0
POINT
  5
BD
  8
DEFPOINTS
  6
BYBLOCK
 10
-490.0
 20
566.0
 30
0.0
  0
ENDBLK
  5
BE
  8
SIZE
  0
BLOCK
  8
SIZE
  2
*D12
 70
     1
 10
0.0
 20
0.0
 30
0.0
  3
*D12
  1

  0
TEXT
  5
C1
  8
SIZE
  6
CONTINUOUS
 10
-400.999994
 20
157.059998
 30
0.0
 40
2.8
  1
320
 50
90.000005
 41
0.7
  7
STANDARD1
  0
LINE
  5
C2
  8
SIZE
  6
CONTINUOUS
 10
-370.0
 20
320.0
 30
0.0
 11
-402.0
 21
320.0
 31
0.0
  0
LINE
  5
C3
  8
SIZE
  6
CONTINUOUS
 10
-329.5
 20
0.0
 30
0.0
 11
-402.0
 21
0.0
 31
0.0
  0
LINE
  5
C4
  8
SIZE
  6
CONTINUOUS
 10
-400.0
 20
320.0
 30
0.0
 11
-400.0
 21
0.0
 31
0.0
  0
INSERT
  5
C5
  8
SIZE
  2
DOT
 10
-400.0
 20
320.0
 30
0.0
 50
90.0
  0
INSERT
  5
C6
  8
SIZE
  2
DOT
 10
-400.0
 20
0.0
 30
0.0
 50
270.0
  0
POINT
  5
C7
  8
DEFPOINTS
  6
BYBLOCK
 10
-328.5
 20
0.0
 30
0.0
  0
POINT
  5
C8
  8
DEFPOINTS
  6
BYBLOCK
 10
-369.0
 20
320.0
 30
0.0
  0
POINT
  5
C9
  8
DEFPOINTS
  6
BYBLOCK
 10
-400.0
 20
320.0
 30
0.0
  0
ENDBLK
  5
CA
  8
SIZE
  0
BLOCK
  8
SIZE
  2
*D13
 70
     1
 10
0.0
 20
0.0
 30
0.0
  3
*D13
  1

  0
TEXT
  5
CD
  8
SIZE
  6
CONTINUOUS
 10
618.999976
 20
816.080017
 30
0.0
 40
2.8
  1
1640
 50
90.000005
 41
0.7
  7
STANDARD1
  0
LINE
  5
CE
  8
SIZE
  6
CONTINUOUS
 10
121.0
 20
1640.0
 30
0.0
 11
622.0
 21
1640.0
 31
0.0
  0
LINE
  5
CF
  8
SIZE
  6
CONTINUOUS
 10
121.0
 20
0.0
 30
0.0
 11
622.0
 21
0.0
 31
0.0
  0
LINE
  5
D0
  8
SIZE
  6
CONTINUOUS
 10
620.0
 20
1640.0
 30
0.0
 11
620.0
 21
0.0
 31
0.0
  0
INSERT
  5
D1
  8
SIZE
  2
DOT
 10
620.0
 20
1640.0
 30
0.0
 50
90.0
  0
INSERT
  5
D2
  8
SIZE
  2
DOT
 10
620.0
 20
0.0
 30
0.0
 50
270.0
  0
POINT
  5
D3
  8
DEFPOINTS
  6
BYBLOCK
 10
120.0
 20
0.0
 30
0.0
  0
POINT
  5
D4
  8
DEFPOINTS
  6
BYBLOCK
 10
120.0
 20
1640.0
 30
0.0
  0
POINT
  5
D5
  8
DEFPOINTS
  6
BYBLOCK
 10
620.0
 20
1640.0
 30
0.0
  0
ENDBLK
  5
D6
  8
SIZE
  0
BLOCK
  8
SIZE
  2
*D14
 70
     1
 10
0.0
 20
0.0
 30
0.0
  3
*D14
  1

  0
TEXT
  5
D9
  8
SIZE
  6
CONTINUOUS
 10
469.000006
 20
1136.079956
 30
0.0
 40
2.8
  1
1000
 50
90.000005
 41
0.7
  7
STANDARD1
  0
LINE
  5
DA
  8
SIZE
  6
CONTINUOUS
 10
121.0
 20
1640.0
 30
0.0
 11
472.0
 21
1640.0
 31
0.0
  0
LINE
  5
DB
  8
SIZE
  6
CONTINUOUS
 10
1.0
 20
640.0
 30
0.0
 11
472.0
 21
640.0
 31
0.0
  0
LINE
  5
DC
  8
SIZE
  6
CONTINUOUS
 10
470.0
 20
1640.0
 30
0.0
 11
470.0
 21
640.0
 31
0.0
  0
INSERT
  5
DD
  8
SIZE
  2
DOT
 10
470.0
 20
1640.0
 30
0.0
 50
90.0
  0
INSERT
  5
DE
  8
SIZE
  2
DOT
 10
470.0
 20
640.0
 30
0.0
 50
270.0
  0
POINT
  5
DF
  8
DEFPOINTS
  6
BYBLOCK
 10
0.0
 20
640.0
 30
0.0
  0
POINT
  5
E0
  8
DEFPOINTS
  6
BYBLOCK
 10
120.0
 20
1640.0
 30
0.0
  0
POINT
  5
E1
  8
DEFPOINTS
  6
BYBLOCK
 10
470.0
 20
1640.0
 30
0.0
  0
ENDBLK
  5
E2
  8
SIZE
  0
BLOCK
  8
SIZE
  2
*D15
 70
     1
 10
0.0
 20
0.0
 30
0.0
  3
*D15
  1

  0
TEXT
  5
E5
  8
SIZE
  6
CONTINUOUS
 10
-771.000024
 20
816.080017
 30
0.0
 40
2.8
  1
1640
 50
90.000005
 41
0.7
  7
STANDARD1
  0
LINE
  5
E6
  8
SIZE
  6
CONTINUOUS
 10
-621.0
 20
1640.0
 30
0.0
 11
-772.0
 21
1640.0
 31
0.0
  0
LINE
  5
E7
  8
SIZE
  6
CONTINUOUS
 10
-621.0
 20
0.0
 30
0.0
 11
-772.0
 21
0.0
 31
0.0
  0
LINE
  5
E8
  8
SIZE
  6
CONTINUOUS
 10
-770.0
 20
1640.0
 30
0.0
 11
-770.0
 21
0.0
 31
0.0
  0
INSERT
  5
E9
  8
SIZE
  2
DOT
 10
-770.0
 20
1640.0
 30
0.0
 50
90.0
  0
INSERT
  5
EA
  8
SIZE
  2
DOT
 10
-770.0
 20
0.0
 30
0.0
 50
270.0
  0
POINT
  5
EB
  8
DEFPOINTS
  6
BYBLOCK
 10
-620.0
 20
0.0
 30
0.0
  0
POINT
  5
EC
  8
DEFPOINTS
  6
BYBLOCK
 10
-620.0
 20
1640.0
 30
0.0
  0
POINT
  5
ED
  8
DEFPOINTS
  6
BYBLOCK
 10
-770.0
 20
1640.0
 30
0.0
  0
ENDBLK
  5
EE
  8
SIZE
  0
BLOCK
  8
SIZE
  2
*D16
 70
     1
 10
0.0
 20
0.0
 30
0.0
  3
*D16
  1

  0
TEXT
  5
F1
  8
SIZE
  6
CONTINUOUS
 10
-369.659241
 20
741.000024
 30
0.0
 40
2.8
  1
14
 50
0.000003
 41
0.7
  7
STANDARD1
  0
LINE
  5
F2
  8
SIZE
  6
CONTINUOUS
 10
-314.0
 20
563.0
 30
0.0
 11
-314.0
 21
742.0
 31
0.0
  0
LINE
  5
F3
  8
SIZE
  6
CONTINUOUS
 10
-300.0
 20
636.0
 30
0.0
 11
-300.0
 21
742.0
 31
0.0
  0
LINE
  5
F4
  8
SIZE
  6
CONTINUOUS
 10
-371.059235
 20
740.0
 30
0.0
 11
-295.0
 21
740.0
 31
0.0
  0
INSERT
  5
F5
  8
SIZE
  2
DOT
 10
-314.0
 20
740.0
 30
0.0
 50
180.0
  0
INSERT
  5
F6
  8
SIZE
  2
DOT
 10
-300.0
 20
740.0
 30
0.0
  0
POINT
  5
F7
  8
DEFPOINTS
  6
BYBLOCK
 10
-300.0
 20
635.0
 30
0.0
  0
POINT
  5
F8
  8
DEFPOINTS
  6
BYBLOCK
 10
-314.0
 20
562.0
 30
0.0
  0
POINT
  5
F9
  8
DEFPOINTS
  6
BYBLOCK
 10
-314.0
 20
740.0
 30
0.0
  0
ENDBLK
  5
FA
  8
SIZE
  0
BLOCK
  8
SIZE
  2
*D17
 70
     1
 10
0.0
 20
0.0
 30
0.0
  3
*D17
  1

  0
TEXT
  5
FD
  8
SIZE
  6
CONTINUOUS
 10
57.060001
 20
1791.000024
 30
0.0
 40
2.8
  1
120
 50
0.000003
 41
0.7
  7
STANDARD1
  0
LINE
  5
FE
  8
SIZE
  6
CONTINUOUS
 10
0.0
 20
1641.0
 30
0.0
 11
0.0
 21
1792.0
 31
0.0
  0
LINE
  5
FF
  8
SIZE
  6
CONTINUOUS
 10
120.0
 20
1641.0
 30
0.0
 11
120.0
 21
1792.0
 31
0.0
  0
LINE
  5
100
  8
SIZE
  6
CONTINUOUS
 10
0.0
 20
1790.0
 30
0.0
 11
120.0
 21
1790.0
 31
0.0
  0
INSERT
  5
101
  8
SIZE
  2
DOT
 10
0.0
 20
1790.0
 30
0.0
 50
180.0
  0
INSERT
  5
102
  8
SIZE
  2
DOT
 10
120.0
 20
1790.0
 30
0.0
  0
POINT
  5
103
  8
DEFPOINTS
  6
BYBLOCK
 10
120.0
 20
1640.0
 30
0.0
  0
POINT
  5
104
  8
DEFPOINTS
  6
BYBLOCK
 10
0.0
 20
1640.0
 30
0.0
  0
POINT
  5
105
  8
DEFPOINTS
  6
BYBLOCK
 10
0.0
 20
1790.0
 30
0.0
  0
ENDBLK
  5
106
  8
SIZE
  0
BLOCK
  8
SIZE
  2
*D18
 70
     1
 10
0.0
 20
0.0
 30
0.0
  3
*D18
  1

  0
TEXT
  5
109
  8
SIZE
  6
CONTINUOUS
 10
-152.940002
 20
1791.000024
 30
0.0
 40
2.8
  1
300
 50
0.000003
 41
0.7
  7
STANDARD1
  0
LINE
  5
10A
  8
SIZE
  6
CONTINUOUS
 10
-300.0
 20
1641.0
 30
0.0
 11
-300.0
 21
1792.0
 31
0.0
  0
LINE
  5
10B
  8
SIZE
  6
CONTINUOUS
 10
0.0
 20
1641.0
 30
0.0
 11
0.0
 21
1792.0
 31
0.0
  0
LINE
  5
10C
  8
SIZE
  6
CONTINUOUS
 10
-300.0
 20
1790.0
 30
0.0
 11
0.0
 21
1790.0
 31
0.0
  0
INSERT
  5
10D
  8
SIZE
  2
DOT
 10
-300.0
 20
1790.0
 30
0.0
 50
180.0
  0
INSERT
  5
10E
  8
SIZE
  2
DOT
 10
0.0
 20
1790.0
 30
0.0
  0
POINT
  5
10F
  8
DEFPOINTS
  6
BYBLOCK
 10
0.0
 20
1640.0
 30
0.0
  0
POINT
  5
110
  8
DEFPOINTS
  6
BYBLOCK
 10
-300.0
 20
1640.0
 30
0.0
  0
POINT
  5
111
  8
DEFPOINTS
  6
BYBLOCK
 10
-300.0
 20
1790.0
 30
0.0
  0
ENDBLK
  5
112
  8
SIZE
  0
BLOCK
  8
SIZE
  2
*D19
 70
     1
 10
0.0
 20
0.0
 30
0.0
  3
*D19
  1

  0
TEXT
  5
115
  8
SIZE
  6
CONTINUOUS
 10
-462.940002
 20
1791.000024
 30
0.0
 40
2.8
  1
320
 50
0.000003
 41
0.7
  7
STANDARD1
  0
LINE
  5
116
  8
SIZE
  6
CONTINUOUS
 10
-620.0
 20
1641.0
 30
0.0
 11
-620.0
 21
1792.0
 31
0.0
  0
LINE
  5
117
  8
SIZE
  6
CONTINUOUS
 10
-300.0
 20
1641.0
 30
0.0
 11
-300.0
 21
1792.0
 31
0.0
  0
LINE
  5
118
  8
SIZE
  6
CONTINUOUS
 10
-620.0
 20
1790.0
 30
0.0
 11
-300.0
 21
1790.0
 31
0.0
  0
INSERT
  5
119
  8
SIZE
  2
DOT
 10
-620.0
 20
1790.0
 30
0.0
 50
180.0
  0
INSERT
  5
11A
  8
SIZE
  2
DOT
 10
-300.0
 20
1790.0
 30
0.0
  0
POINT
  5
11B
  8
DEFPOINTS
  6
BYBLOCK
 10
-300.0
 20
1640.0
 30
0.0
  0
POINT
  5
11C
  8
DEFPOINTS
  6
BYBLOCK
 10
-620.0
 20
1640.0
 30
0.0
  0
POINT
  5
11D
  8
DEFPOINTS
  6
BYBLOCK
 10
-620.0
 20
1790.0
 30
0.0
  0
ENDBLK
  5
11E
  8
SIZE
  0
BLOCK
  8
0
  2
_ORIGIN
 70
     0
 10
0.0
 20
0.0
 30
0.0
  3
_ORIGIN
  1

  0
CIRCLE
  5
121
  8
0
  6
BYBLOCK
 62
     0
 10
0.0
 20
0.0
 30
0.0
 40
0.5
  0
LINE
  5
122
  8
0
  6
BYBLOCK
 62
     0
 10
0.0
 20
0.0
 30
0.0
 11
-1.0
 21
0.0
 31
0.0
  0
ENDBLK
  5
123
  8
0
  0
BLOCK
  8
0
  2
*D21
 70
     1
 10
0.0
 20
0.0
 30
0.0
  3
*D21
  1

  0
LINE
  5
126
  8
0
  6
BYBLOCK
 62
     0
 10
-300.0
 20
1650.0
 30
0.0
 11
-300.0
 21
1804.9
 31
0.0
  0
LINE
  5
127
  8
0
  6
BYBLOCK
 62
     0
 10
-620.0
 20
1650.0
 30
0.0
 11
-620.0
 21
1804.9
 31
0.0
  0
LINE
  5
128
  8
0
  6
BYBLOCK
 62
     0
 10
-310.0
 20
1792.4
 30
0.0
 11
-610.0
 21
1792.4
 31
0.0
  0
INSERT
  5
129
  8
0
  6
BYBLOCK
 62
     0
  2
_ORIGIN
 10
-300.0
 20
1792.4
 30
0.0
 41
10.0
 42
10.0
 43
10.0
  0
INSERT
  5
12A
  8
0
  6
BYBLOCK
 62
     0
  2
_ORIGIN
 10
-620.0
 20
1792.4
 30
0.0
 41
10.0
 42
10.0
 43
10.0
 50
180.0
  0
TEXT
  5
12B
  8
0
  6
BYBLOCK
 62
     0
 10
-497.5
 20
1802.4
 30
0.0
 40
30.0
  1
320
 72
     1
 11
-460.0
 21
1802.4
 31
0.0
  0
POINT
  5
12C
  8
DEFPOINTS
  6
BYBLOCK
 62
     0
 10
-300.0
 20
1640.0
 30
0.0
  0
POINT
  5
12D
  8
DEFPOINTS
  6
BYBLOCK
 62
     0
 10
-620.0
 20
1640.0
 30
0.0
  0
POINT
  5
12E
  8
DEFPOINTS
  6
BYBLOCK
 62
     0
 10
-620.0
 20
1792.4
 30
0.0
  0
ENDBLK
  5
12F
  8
0
  0
BLOCK
  8
0
  2
*D22
 70
     1
 10
0.0
 20
0.0
 30
0.0
  3
*D22
  1

  0
LINE
  5
132
  8
0
  6
BYBLOCK
 62
     0
 10
0.0
 20
1650.0
 30
0.0
 11
0.0
 21
1804.9
 31
0.0
  0
LINE
  5
133
  8
0
  6
BYBLOCK
 62
     0
 10
-300.0
 20
1650.0
 30
0.0
 11
-300.0
 21
1804.9
 31
0.0
  0
LINE
  5
134
  8
0
  6
BYBLOCK
 62
     0
 10
-10.0
 20
1792.4
 30
0.0
 11
-290.0
 21
1792.4
 31
0.0
  0
INSERT
  5
135
  8
0
  6
BYBLOCK
 62
     0
  2
_ORIGIN
 10
0.0
 20
1792.4
 30
0.0
 41
10.0
 42
10.0
 43
10.0
  0
INSERT
  5
136
  8
0
  6
BYBLOCK
 62
     0
  2
_ORIGIN
 10
-300.0
 20
1792.4
 30
0.0
 41
10.0
 42
10.0
 43
10.0
 50
180.0
  0
TEXT
  5
137
  8
0
  6
BYBLOCK
 62
     0
 10
-185.0
 20
1802.4
 30
0.0
 40
30.0
  1
300
 72
     1
 11
-150.0
 21
1802.4
 31
0.0
  0
POINT
  5
138
  8
DEFPOINTS
  6
BYBLOCK
 62
     0
 10
0.0
 20
1640.0
 30
0.0
  0
POINT
  5
139
  8
DEFPOINTS
  6
BYBLOCK
 62
     0
 10
-300.0
 20
1640.0
 30
0.0
  0
POINT
  5
13A
  8
DEFPOINTS
  6
BYBLOCK
 62
     0
 10
-300.0
 20
1792.4
 30
0.0
  0
ENDBLK
  5
13B
  8
0
  0
BLOCK
  8
0
  2
*D23
 70
     1
 10
0.0
 20
0.0
 30
0.0
  3
*D23
  1

  0
LINE
  5
13E
  8
0
  6
BYBLOCK
 62
     0
 10
120.0
 20
1650.0
 30
0.0
 11
120.0
 21
1804.9
 31
0.0
  0
LINE
  5
13F
  8
0
  6
BYBLOCK
 62
     0
 10
0.0
 20
1650.0
 30
0.0
 11
0.0
 21
1804.9
 31
0.0
  0
LINE
  5
140
  8
0
  6
BYBLOCK
 62
     0
 10
110.0
 20
1792.4
 30
0.0
 11
10.0
 21
1792.4
 31
0.0
  0
INSERT
  5
141
  8
0
  6
BYBLOCK
 62
     0
  2
_ORIGIN
 10
120.0
 20
1792.4
 30
0.0
 41
10.0
 42
10.0
 43
10.0
  0
INSERT
  5
142
  8
0
  6
BYBLOCK
 62
     0
  2
_ORIGIN
 10
0.0
 20
1792.4
 30
0.0
 41
10.0
 42
10.0
 43
10.0
 50
180.0
  0
TEXT
  5
143
  8
0
  6
BYBLOCK
 62
     0
 10
27.5
 20
1802.4
 30
0.0
 40
30.0
  1
120
 72
     1
 11
60.0
 21
1802.4
 31
0.0
  0
POINT
  5
144
  8
DEFPOINTS
  6
BYBLOCK
 62
     0
 10
120.0
 20
1640.0
 30
0.0
  0
POINT
  5
145
  8
DEFPOINTS
  6
BYBLOCK
 62
     0
 10
0.0
 20
1640.0
 30
0.0
  0
POINT
  5
146
  8
DEFPOINTS
  6
BYBLOCK
 62
     0
 10
0.0
 20
1792.4
 30
0.0
  0
ENDBLK
  5
147
  8
0
  0
BLOCK
  8
0
  2
*D24
 70
     1
 10
0.0
 20
0.0
 30
0.0
  3
*D24
  1

  0
LINE
  5
14A
  8
0
  6
BYBLOCK
 62
     0
 10
-300.0
 20
645.0
 30
0.0
 11
-300.0
 21
754.9
 31
0.0
  0
LINE
  5
14B
  8
0
  6
BYBLOCK
 62
     0
 10
-314.0
 20
572.0
 30
0.0
 11
-314.0
 21
754.9
 31
0.0
  0
LINE
  5
14C
  8
0
  6
BYBLOCK
 62
     0
 10
-290.0
 20
742.4
 30
0.0
 11
-280.0
 21
742.4
 31
0.0
  0
LINE
  5
14D
  8
0
  6
BYBLOCK
 62
     0
 10
-324.0
 20
742.4
 30
0.0
 11
-397.699249
 21
742.4
 31
0.0
  0
LINE
  5
14E
  8
0
  6
BYBLOCK
 62
     0
 10
-300.0
 20
742.4
 30
0.0
 11
-314.0
 21
742.4
 31
0.0
  0
INSERT
  5
14F
  8
0
  6
BYBLOCK
 62
     0
  2
_ORIGIN
 10
-300.0
 20
742.4
 30
0.0
 41
10.0
 42
10.0
 43
10.0
 50
180.0
  0
INSERT
  5
150
  8
0
  6
BYBLOCK
 62
     0
  2
_ORIGIN
 10
-314.0
 20
742.4
 30
0.0
 41
10.0
 42
10.0
 43
10.0
  0
TEXT
  5
151
  8
0
  6
BYBLOCK
 62
     0
 10
-387.699249
 20
752.4
 30
0.0
 40
30.0
  1
14
 72
     1
 11
-367.699249
 21
752.4
 31
0.0
  0
POINT
  5
152
  8
DEFPOINTS
  6
BYBLOCK
 62
     0
 10
-300.0
 20
635.0
 30
0.0
  0
POINT
  5
153
  8
DEFPOINTS
  6
BYBLOCK
 62
     0
 10
-314.0
 20
562.0
 30
0.0
  0
POINT
  5
154
  8
DEFPOINTS
  6
BYBLOCK
 62
     0
 10
-314.0
 20
742.4
 30
0.0
  0
ENDBLK
  5
155
  8
0
  0
BLOCK
  8
0
  2
*D25
 70
     1
 10
0.0
 20
0.0
 30
0.0
  3
*D25
  1

  0
LINE
  5
158
  8
0
  6
BYBLOCK
 62
     0
 10
-630.0
 20
0.0
 30
0.0
 11
-784.9
 21
0.0
 31
0.0
  0
LINE
  5
159
  8
0
  6
BYBLOCK
 62
     0
 10
-630.0
 20
1640.0
 30
0.0
 11
-784.9
 21
1640.0
 31
0.0
  0
LINE
  5
15A
  8
0
  6
BYBLOCK
 62
     0
 10
-772.4
 20
10.0
 30
0.0
 11
-772.4
 21
1630.0
 31
0.0
  0
INSERT
  5
15B
  8
0
  6
BYBLOCK
 62
     0
  2
_ORIGIN
 10
-772.4
 20
0.0
 30
0.0
 41
10.0
 42
10.0
 43
10.0
 50
270.0
  0
INSERT
  5
15C
  8
0
  6
BYBLOCK
 62
     0
  2
_ORIGIN
 10
-772.4
 20
1640.0
 30
0.0
 41
10.0
 42
10.0
 43
10.0
 50
90.0
  0
TEXT
  5
15D
  8
0
  6
BYBLOCK
 62
     0
 10
-782.4
 20
772.5
 30
0.0
 40
30.0
  1
1640
 50
90.0
 72
     1
 11
-782.4
 21
820.0
 31
0.0
  0
POINT
  5
15E
  8
DEFPOINTS
  6
BYBLOCK
 62
     0
 10
-620.0
 20
0.0
 30
0.0
  0
POINT
  5
15F
  8
DEFPOINTS
  6
BYBLOCK
 62
     0
 10
-620.0
 20
1640.0
 30
0.0
  0
POINT
  5
160
  8
DEFPOINTS
  6
BYBLOCK
 62
     0
 10
-772.4
 20
1640.0
 30
0.0
  0
ENDBLK
  5
161
  8
0
  0
BLOCK
  8
0
  2
*D26
 70
     1
 10
0.0
 20
0.0
 30
0.0
  3
*D26
  1

  0
LINE
  5
164
  8
0
  6
BYBLOCK
 62
     0
 10
10.0
 20
640.0
 30
0.0
 11
480.1
 21
640.0
 31
0.0
  0
LINE
  5
165
  8
0
  6
BYBLOCK
 62
     0
 10
130.0
 20
1640.0
 30
0.0
 11
480.1
 21
1640.0
 31
0.0
  0
LINE
  5
166
  8
0
  6
BYBLOCK
 62
     0
 10
467.6
 20
650.0
 30
0.0
 11
467.6
 21
1630.0
 31
0.0
  0
INSERT
  5
167
  8
0
  6
BYBLOCK
 62
     0
  2
_ORIGIN
 10
467.6
 20
640.0
 30
0.0
 41
10.0
 42
10.0
 43
10.0
 50
270.0
  0
INSERT
  5
168
  8
0
  6
BYBLOCK
 62
     0
  2
_ORIGIN
 10
467.6
 20
1640.0
 30
0.0
 41
10.0
 42
10.0
 43
10.0
 50
90.0
  0
TEXT
  5
169
  8
0
  6
BYBLOCK
 62
     0
 10
457.6
 20
1097.5
 30
0.0
 40
30.0
  1
1000
 50
90.0
 72
     1
 11
457.6
 21
1140.0
 31
0.0
  0
POINT
  5
16A
  8
DEFPOINTS
  6
BYBLOCK
 62
     0
 10
0.0
 20
640.0
 30
0.0
  0
POINT
  5
16B
  8
DEFPOINTS
  6
BYBLOCK
 62
     0
 10
120.0
 20
1640.0
 30
0.0
  0
POINT
  5
16C
  8
DEFPOINTS
  6
BYBLOCK
 62
     0
 10
467.6
 20
1640.0
 30
0.0
  0
ENDBLK
  5
16D
  8
0
  0
BLOCK
  8
0
  2
*D27
 70
     1
 10
0.0
 20
0.0
 30
0.0
  3
*D27
  1

  0
LINE
  5
170
  8
0
  6
BYBLOCK
 62
     0
 10
130.0
 20
0.0
 30
0.0
 11
630.1
 21
0.0
 31
0.0
  0
LINE
  5
171
  8
0
  6
BYBLOCK
 62
     0
 10
130.0
 20
1640.0
 30
0.0
 11
630.1
 21
1640.0
 31
0.0
  0
LINE
  5
172
  8
0
  6
BYBLOCK
 62
     0
 10
617.6
 20
10.0
 30
0.0
 11
617.6
 21
1630.0
 31
0.0
  0
INSERT
  5
173
  8
0
  6
BYBLOCK
 62
     0
  2
_ORIGIN
 10
617.6
 20
0.0
 30
0.0
 41
10.0
 42
10.0
 43
10.0
 50
270.0
  0
INSERT
  5
174
  8
0
  6
BYBLOCK
 62
     0
  2
_ORIGIN
 10
617.6
 20
1640.0
 30
0.0
 41
10.0
 42
10.0
 43
10.0
 50
90.0
  0
TEXT
  5
175
  8
0
  6
BYBLOCK
 62
     0
 10
607.6
 20
772.5
 30
0.0
 40
30.0
  1
1640
 50
90.0
 72
     1
 11
607.6
 21
820.0
 31
0.0
  0
POINT
  5
176
  8
DEFPOINTS
  6
BYBLOCK
 62
     0
 10
120.0
 20
0.0
 30
0.0
  0
POINT
  5
177
  8
DEFPOINTS
  6
BYBLOCK
 62
     0
 10
120.0
 20
1640.0
 30
0.0
  0
POINT
  5
178
  8
DEFPOINTS
  6
BYBLOCK
 62
     0
 10
617.6
 20
1640.0
 30
0.0
  0
ENDBLK
  5
179
  8
0
  0
BLOCK
  8
0
  2
*D28
 70
     1
 10
0.0
 20
0.0
 30
0.0
  3
*D28
  1

  0
LINE
  5
17C
  8
0
  6
BYBLOCK
 62
     0
 10
-338.5
 20
0.0
 30
0.0
 11
-414.9
 21
0.0
 31
0.0
  0
LINE
  5
17D
  8
0
  6
BYBLOCK
 62
     0
 10
-379.0
 20
320.0
 30
0.0
 11
-414.9
 21
320.0
 31
0.0
  0
LINE
  5
17E
  8
0
  6
BYBLOCK
 62
     0
 10
-402.4
 20
10.0
 30
0.0
 11
-402.4
 21
310.0
 31
0.0
  0
INSERT
  5
17F
  8
0
  6
BYBLOCK
 62
     0
  2
_ORIGIN
 10
-402.4
 20
0.0
 30
0.0
 41
10.0
 42
10.0
 43
10.0
 50
270.0
  0
INSERT
  5
180
  8
0
  6
BYBLOCK
 62
     0
  2
_ORIGIN
 10
-402.4
 20
320.0
 30
0.0
 41
10.0
 42
10.0
 43
10.0
 50
90.0
  0
TEXT
  5
181
  8
0
  6
BYBLOCK
 62
     0
 10
-412.4
 20
122.5
 30
0.0
 40
30.0
  1
320
 50
90.0
 72
     1
 11
-412.4
 21
160.0
 31
0.0
  0
POINT
  5
182
  8
DEFPOINTS
  6
BYBLOCK
 62
     0
 10
-328.5
 20
0.0
 30
0.0
  0
POINT
  5
183
  8
DEFPOINTS
  6
BYBLOCK
 62
     0
 10
-369.0
 20
320.0
 30
0.0
  0
POINT
  5
184
  8
DEFPOINTS
  6
BYBLOCK
 62
     0
 10
-402.4
 20
320.0
 30
0.0
  0
ENDBLK
  5
185
  8
0
  0
BLOCK
  8
0
  2
*D29
 70
     1
 10
0.0
 20
0.0
 30
0.0
  3
*D29
  1

  0
LINE
  5
188
  8
0
  6
BYBLOCK
 62
     0
 10
-320.0
 20
74.0
 30
0.0
 11
-504.9
 21
74.0
 31
0.0
  0
LINE
  5
189
  8
0
  6
BYBLOCK
 62
     0
 10
-320.0
 20
566.0
 30
0.0
 11
-504.9
 21
566.0
 31
0.0
  0
LINE
  5
18A
  8
0
  6
BYBLOCK
 62
     0
 10
-492.4
 20
84.0
 30
0.0
 11
-492.4
 21
556.0
 31
0.0
  0
INSERT
  5
18B
  8
0
  6
BYBLOCK
 62
     0
  2
_ORIGIN
 10
-492.4
 20
74.0
 30
0.0
 41
10.0
 42
10.0
 43
10.0
 50
270.0
  0
INSERT
  5
18C
  8
0
  6
BYBLOCK
 62
     0
  2
_ORIGIN
 10
-492.4
 20
566.0
 30
0.0
 41
10.0
 42
10.0
 43
10.0
 50
90.0
  0
TEXT
  5
18D
  8
0
  6
BYBLOCK
 62
     0
 10
-502.4
 20
280.0
 30
0.0
 40
30.0
  1
492
 50
90.0
 72
     1
 11
-502.4
 21
320.0
 31
0.0
  0
POINT
  5
18E
  8
DEFPOINTS
  6
BYBLOCK
 62
     0
 10
-310.0
 20
74.0
 30
0.0
  0
POINT
  5
18F
  8
DEFPOINTS
  6
BYBLOCK
 62
     0
 10
-310.0
 20
566.0
 30
0.0
  0
POINT
  5
190
  8
DEFPOINTS
  6
BYBLOCK
 62
     0
 10
-492.4
 20
566.0
 30
0.0
  0
ENDBLK
  5
191
  8
0
  0
BLOCK
  8
0
  2
*D30
 70
     1
 10
0.0
 20
0.0
 30
0.0
  3
*D30
  1

  0
LINE
  5
194
  8
0
  6
BYBLOCK
 62
     0
 10
38.5
 20
0.0
 30
0.0
 11
280.1
 21
0.0
 31
0.0
  0
LINE
  5
195
  8
0
  6
BYBLOCK
 62
     0
 10
-73.0
 20
53.0
 30
0.0
 11
280.1
 21
53.0
 31
0.0
  0
LINE
  5
196
  8
0
  6
BYBLOCK
 62
     0
 10
267.6
 20
10.0
 30
0.0
 11
267.6
 21
43.0
 31
0.0
  0
INSERT
  5
197
  8
0
  6
BYBLOCK
 62
     0
  2
_ORIGIN
 10
267.6
 20
0.0
 30
0.0
 41
10.0
 42
10.0
 43
10.0
 50
270.0
  0
INSERT
  5
198
  8
0
  6
BYBLOCK
 62
     0
  2
_ORIGIN
 10
267.6
 20
53.0
 30
0.0
 41
10.0
 42
10.0
 43
10.0
 50
90.0
  0
TEXT
  5
199
  8
0
  6
BYBLOCK
 62
     0
 10
257.6
 20
1.5
 30
0.0
 40
30.0
  1
53
 50
90.0
 72
     1
 11
257.6
 21
26.5
 31
0.0
  0
POINT
  5
19A
  8
DEFPOINTS
  6
BYBLOCK
 62
     0
 10
28.5
 20
0.0
 30
0.0
  0
POINT
  5
19B
  8
DEFPOINTS
  6
BYBLOCK
 62
     0
 10
-83.0
 20
53.0
 30
0.0
  0
POINT
  5
19C
  8
DEFPOINTS
  6
BYBLOCK
 62
     0
 10
267.6
 20
53.0
 30
0.0
  0
ENDBLK
  5
19D
  8
0
  0
BLOCK
  8
0
  2
*D31
 70
     1
 10
0.0
 20
0.0
 30
0.0
  3
*D31
  1

  0
LINE
  5
1A0
  8
0
  6
BYBLOCK
 62
     0
 10
-103.0
 20
280.0
 30
0.0
 11
380.1
 21
280.0
 31
0.0
  0
LINE
  5
1A1
  8
0
  6
BYBLOCK
 62
     0
 10
38.5
 20
0.0
 30
0.0
 11
380.1
 21
0.0
 31
0.0
  0
LINE
  5
1A2
  8
0
  6
BYBLOCK
 62
     0
 10
367.6
 20
270.0
 30
0.0
 11
367.6
 21
10.0
 31
0.0
  0
INSERT
  5
1A3
  8
0
  6
BYBLOCK
 62
     0
  2
_ORIGIN
 10
367.6
 20
280.0
 30
0.0
 41
10.0
 42
10.0
 43
10.0
 50
90.0
  0
INSERT
  5
1A4
  8
0
  6
BYBLOCK
 62
     0
  2
_ORIGIN
 10
367.6
 20
0.0
 30
0.0
 41
10.0
 42
10.0
 43
10.0
 50
270.0
  0
TEXT
  5
1A5
  8
0
  6
BYBLOCK
 62
     0
 10
357.6
 20
102.5
 30
0.0
 40
30.0
  1
280
 50
90.0
 72
     1
 11
357.6
 21
140.0
 31
0.0
  0
POINT
  5
1A6
  8
DEFPOINTS
  6
BYBLOCK
 62
     0
 10
-113.0
 20
280.0
 30
0.0
  0
POINT
  5
1A7
  8
DEFPOINTS
  6
BYBLOCK
 62
     0
 10
28.5
 20
0.0
 30
0.0
  0
POINT
  5
1A8
  8
DEFPOINTS
  6
BYBLOCK
 62
     0
 10
367.6
 20
0.0
 30
0.0
  0
ENDBLK
  5
1A9
  8
0
  0
BLOCK
  8
0
  2
*D32
 70
     1
 10
0.0
 20
0.0
 30
0.0
  3
*D32
  1

  0
LINE
  5
1AC
  8
0
  6
BYBLOCK
 62
     0
 10
-103.0
 20
23.0
 30
0.0
 11
-103.0
 21
-230.1
 31
0.0
  0
LINE
  5
1AD
  8
0
  6
BYBLOCK
 62
     0
 10
12.0
 20
-30.0
 30
0.0
 11
12.0
 21
-230.1
 31
0.0
  0
LINE
  5
1AE
  8
0
  6
BYBLOCK
 62
     0
 10
-93.0
 20
-217.6
 30
0.0
 11
2.0
 21
-217.6
 31
0.0
  0
INSERT
  5
1AF
  8
0
  6
BYBLOCK
 62
     0
  2
_ORIGIN
 10
-103.0
 20
-217.6
 30
0.0
 41
10.0
 42
10.0
 43
10.0
 50
180.0
  0
INSERT
  5
1B0
  8
0
  6
BYBLOCK
 62
     0
  2
_ORIGIN
 10
12.0
 20
-217.6
 30
0.0
 41
10.0
 42
10.0
 43
10.0
  0
TEXT
  5
1B1
  8
0
  6
BYBLOCK
 62
     0
 10
-75.5
 20
-207.6
 30
0.0
 40
30.0
  1
115
 72
     1
 11
-45.5
 21
-207.6
 31
0.0
  0
POINT
  5
1B2
  8
DEFPOINTS
  6
BYBLOCK
 62
     0
 10
-103.0
 20
33.0
 30
0.0
  0
POINT
  5
1B3
  8
DEFPOINTS
  6
BYBLOCK
 62
     0
 10
12.0
 20
-20.0
 30
0.0
  0
POINT
  5
1B4
  8
DEFPOINTS
  6
BYBLOCK
 62
     0
 10
12.0
 20
-217.6
 30
0.0
  0
ENDBLK
  5
1B5
  8
0
  0
BLOCK
  8
0
  2
*D33
 70
     1
 10
0.0
 20
0.0
 30
0.0
  3
*D33
  1

  0
LINE
  5
1B8
  8
0
  6
BYBLOCK
 62
     0
 10
-133.0
 20
250.0
 30
0.0
 11
-133.0
 21
-320.1
 31
0.0
  0
LINE
  5
1B9
  8
0
  6
BYBLOCK
 62
     0
 10
12.0
 20
-30.0
 30
0.0
 11
12.0
 21
-320.1
 31
0.0
  0
LINE
  5
1BA
  8
0
  6
BYBLOCK
 62
     0
 10
-123.0
 20
-307.6
 30
0.0
 11
2.0
 21
-307.6
 31
0.0
  0
INSERT
  5
1BB
  8
0
  6
BYBLOCK
 62
     0
  2
_ORIGIN
 10
-133.0
 20
-307.6
 30
0.0
 41
10.0
 42
10.0
 43
10.0
 50
180.0
  0
INSERT
  5
1BC
  8
0
  6
BYBLOCK
 62
     0
  2
_ORIGIN
 10
12.0
 20
-307.6
 30
0.0
 41
10.0
 42
10.0
 43
10.0
  0
TEXT
  5
1BD
  8
0
  6
BYBLOCK
 62
     0
 10
-95.5
 20
-297.6
 30
0.0
 40
30.0
  1
145
 72
     1
 11
-60.5
 21
-297.6
 31
0.0
  0
POINT
  5
1BE
  8
DEFPOINTS
  6
BYBLOCK
 62
     0
 10
-133.0
 20
260.0
 30
0.0
  0
POINT
  5
1BF
  8
DEFPOINTS
  6
BYBLOCK
 62
     0
 10
12.0
 20
-20.0
 30
0.0
  0
POINT
  5
1C0
  8
DEFPOINTS
  6
BYBLOCK
 62
     0
 10
12.0
 20
-307.6
 30
0.0
  0
ENDBLK
  5
1C1
  8
0
  0
BLOCK
  8
0
  2
*D34
 70
     1
 10
0.0
 20
0.0
 30
0.0
  3
*D34
  1

  0
LINE
  5
1C4
  8
0
  6
BYBLOCK
 62
     0
 10
-312.0
 20
-30.0
 30
0.0
 11
-312.0
 21
-500.1
 31
0.0
  0
LINE
  5
1C5
  8
0
  6
BYBLOCK
 62
     0
 10
12.0
 20
-30.0
 30
0.0
 11
12.0
 21
-500.1
 31
0.0
  0
LINE
  5
1C6
  8
0
  6
BYBLOCK
 62
     0
 10
-302.0
 20
-487.6
 30
0.0
 11
2.0
 21
-487.6
 31
0.0
  0
INSERT
  5
1C7
  8
0
  6
BYBLOCK
 62
     0
  2
_ORIGIN
 10
-312.0
 20
-487.6
 30
0.0
 41
10.0
 42
10.0
 43
10.0
 50
180.0
  0
INSERT
  5
1C8
  8
0
  6
BYBLOCK
 62
     0
  2
_ORIGIN
 10
12.0
 20
-487.6
 30
0.0
 41
10.0
 42
10.0
 43
10.0
  0
TEXT
  5
1C9
  8
0
  6
BYBLOCK
 62
     0
 10
-190.0
 20
-477.6
 30
0.0
 40
30.0
  1
324
 72
     1
 11
-150.0
 21
-477.6
 31
0.0
  0
POINT
  5
1CA
  8
DEFPOINTS
  6
BYBLOCK
 62
     0
 10
-312.0
 20
-20.0
 30
0.0
  0
POINT
  5
1CB
  8
DEFPOINTS
  6
BYBLOCK
 62
     0
 10
12.0
 20
-20.0
 30
0.0
  0
POINT
  5
1CC
  8
DEFPOINTS
  6
BYBLOCK
 62
     0
 10
12.0
 20
-487.6
 30
0.0
  0
ENDBLK
  5
1CD
  8
0
  0
BLOCK
  8
0
  2
*D35
 70
     1
 10
0.0
 20
0.0
 30
0.0
  3
*D35
  1

  0
LINE
  5
1D0
  8
0
  6
BYBLOCK
 62
     0
 10
-328.5
 20
-10.0
 30
0.0
 11
-328.5
 21
-590.1
 31
0.0
  0
LINE
  5
1D1
  8
0
  6
BYBLOCK
 62
     0
 10
28.5
 20
-10.0
 30
0.0
 11
28.5
 21
-590.1
 31
0.0
  0
LINE
  5
1D2
  8
0
  6
BYBLOCK
 62
     0
 10
-318.5
 20
-577.6
 30
0.0
 11
18.5
 21
-577.6
 31
0.0
  0
INSERT
  5
1D3
  8
0
  6
BYBLOCK
 62
     0
  2
_ORIGIN
 10
-328.5
 20
-577.6
 30
0.0
 41
10.0
 42
10.0
 43
10.0
 50
180.0
  0
INSERT
  5
1D4
  8
0
  6
BYBLOCK
 62
     0
  2
_ORIGIN
 10
28.5
 20
-577.6
 30
0.0
 41
10.0
 42
10.0
 43
10.0
  0
TEXT
  5
1D5
  8
0
  6
BYBLOCK
 62
     0
 10
-190.0
 20
-567.6
 30
0.0
 40
30.0
  1
357
 72
     1
 11
-150.0
 21
-567.6
 31
0.0
  0
POINT
  5
1D6
  8
DEFPOINTS
  6
BYBLOCK
 62
     0
 10
-328.5
 20
0.0
 30
0.0
  0
POINT
  5
1D7
  8
DEFPOINTS
  6
BYBLOCK
 62
     0
 10
28.5
 20
0.0
 30
0.0
  0
POINT
  5
1D8
  8
DEFPOINTS
  6
BYBLOCK
 62
     0
 10
28.5
 20
-577.6
 30
0.0
  0
ENDBLK
  5
1D9
  8
0
  0
BLOCK
  8
0
  2
*D36
 70
     1
 10
0.0
 20
0.0
 30
0.0
  3
*D36
  1

  0
LINE
  5
1DC
  8
0
  6
BYBLOCK
 62
     0
 10
5.0
 20
640.0
 30
0.0
 11
480.1
 21
640.0
 31
0.0
  0
LINE
  5
1DD
  8
0
  6
BYBLOCK
 62
     0
 10
38.5
 20
0.0
 30
0.0
 11
480.1
 21
0.0
 31
0.0
  0
LINE
  5
1DE
  8
0
  6
BYBLOCK
 62
     0
 10
467.6
 20
630.0
 30
0.0
 11
467.6
 21
10.0
 31
0.0
  0
INSERT
  5
1DF
  8
0
  6
BYBLOCK
 62
     0
  2
_ORIGIN
 10
467.6
 20
640.0
 30
0.0
 41
10.0
 42
10.0
 43
10.0
 50
90.0
  0
INSERT
  5
1E0
  8
0
  6
BYBLOCK
 62
     0
  2
_ORIGIN
 10
467.6
 20
0.0
 30
0.0
 41
10.0
 42
10.0
 43
10.0
 50
270.0
  0
TEXT
  5
1E1
  8
0
  6
BYBLOCK
 62
     0
 10
457.6
 20
282.5
 30
0.0
 40
30.0
  1
640
 50
90.0
 72
     1
 11
457.6
 21
320.0
 31
0.0
  0
POINT
  5
1E2
  8
DEFPOINTS
  6
BYBLOCK
 62
     0
 10
-5.0
 20
640.0
 30
0.0
  0
POINT
  5
1E3
  8
DEFPOINTS
  6
BYBLOCK
 62
     0
 10
28.5
 20
0.0
 30
0.0
  0
POINT
  5
1E4
  8
DEFPOINTS
  6
BYBLOCK
 62
     0
 10
467.6
 20
0.0
 30
0.0
  0
ENDBLK
  5
1E5
  8
0
  0
BLOCK
  8
0
  2
*D37
 70
     1
 10
0.0
 20
0.0
 30
0.0
  3
*D37
  1

  0
LINE
  5
1E8
  8
0
  6
BYBLOCK
 62
     0
 10
-51.0
 20
-10.0
 30
0.0
 11
-51.0
 21
-140.1
 31
0.0
  0
LINE
  5
1E9
  8
0
  6
BYBLOCK
 62
     0
 10
0.0
 20
10.0
 30
0.0
 11
0.0
 21
-140.1
 31
0.0
  0
LINE
  5
1EA
  8
0
  6
BYBLOCK
 62
     0
 10
-41.0
 20
-127.6
 30
0.0
 11
-10.0
 21
-127.6
 31
0.0
  0
INSERT
  5
1EB
  8
0
  6
BYBLOCK
 62
     0
  2
_ORIGIN
 10
-51.0
 20
-127.6
 30
0.0
 41
10.0
 42
10.0
 43
10.0
 50
180.0
  0
INSERT
  5
1EC
  8
0
  6
BYBLOCK
 62
     0
  2
_ORIGIN
 10
0.0
 20
-127.6
 30
0.0
 41
10.0
 42
10.0
 43
10.0
  0
TEXT
  5
1ED
  8
0
  6
BYBLOCK
 62
     0
 10
-45.5
 20
-117.6
 30
0.0
 40
30.0
  1
51
 72
     1
 11
-25.5
 21
-117.6
 31
0.0
  0
POINT
  5
1EE
  8
DEFPOINTS
  6
BYBLOCK
 62
     0
 10
-51.0
 20
0.0
 30
0.0
  0
POINT
  5
1EF
  8
DEFPOINTS
  6
BYBLOCK
 62
     0
 10
0.0
 20
20.0
 30
0.0
  0
POINT
  5
1F0
  8
DEFPOINTS
  6
BYBLOCK
 62
     0
 10
0.0
 20
-127.6
 30
0.0
  0
ENDBLK
  5
1F1
  8
0
  0
BLOCK
  8
0
  2
*D38
 70
     1
 10
0.0
 20
0.0
 30
0.0
  3
*D38
  1

  0
LINE
  5
1F4
  8
0
  6
BYBLOCK
 62
     0
 10
-310.0
 20
20.0
 30
0.0
 11
-504.9
 21
20.0
 31
0.0
  0
LINE
  5
1F5
  8
0
  6
BYBLOCK
 62
     0
 10
-338.5
 20
0.0
 30
0.0
 11
-504.9
 21
0.0
 31
0.0
  0
LINE
  5
1F6
  8
0
  6
BYBLOCK
 62
     0
 10
-492.4
 20
30.0
 30
0.0
 11
-492.4
 21
40.0
 31
0.0
  0
LINE
  5
1F7
  8
0
  6
BYBLOCK
 62
     0
 10
-492.4
 20
-10.0
 30
0.0
 11
-492.4
 21
-96.769828
 31
0.0
  0
LINE
  5
1F8
  8
0
  6
BYBLOCK
 62
     0
 10
-492.4
 20
20.0
 30
0.0
 11
-492.4
 21
0.0
 31
0.0
  0
INSERT
  5
1F9
  8
0
  6
BYBLOCK
 62
     0
  2
_ORIGIN
 10
-492.4
 20
20.0
 30
0.0
 41
10.0
 42
10.0
 43
10.0
 50
270.0
  0
INSERT
  5
1FA
  8
0
  6
BYBLOCK
 62
     0
  2
_ORIGIN
 10
-492.4
 20
0.0
 30
0.0
 41
10.0
 42
10.0
 43
10.0
 50
90.0
  0
TEXT
  5
1FB
  8
0
  6
BYBLOCK
 62
     0
 10
-502.4
 20
-86.769828
 30
0.0
 40
30.0
  1
20
 50
90.0
 72
     1
 11
-502.4
 21
-64.269828
 31
0.0
  0
POINT
  5
1FC
  8
DEFPOINTS
  6
BYBLOCK
 62
     0
 10
-300.0
 20
20.0
 30
0.0
  0
POINT
  5
1FD
  8
DEFPOINTS
  6
BYBLOCK
 62
     0
 10
-328.5
 20
0.0
 30
0.0
  0
POINT
  5
1FE
  8
DEFPOINTS
  6
BYBLOCK
 62
     0
 10
-492.4
 20
0.0
 30
0.0
  0
ENDBLK
  5
1FF
  8
0
  0
BLOCK
  8
0
  2
*D39
 70
     1
 10
0.0
 20
0.0
 30
0.0
  3
*D39
  1

  0
LINE
  5
202
  8
0
  6
BYBLOCK
 62
     0
 10
-300.0
 20
10.0
 30
0.0
 11
-300.0
 21
-410.1
 31
0.0
  0
LINE
  5
203
  8
0
  6
BYBLOCK
 62
     0
 10
0.0
 20
10.0
 30
0.0
 11
0.0
 21
-410.1
 31
0.0
  0
LINE
  5
204
  8
0
  6
BYBLOCK
 62
     0
 10
-290.0
 20
-397.6
 30
0.0
 11
-10.0
 21
-397.6
 31
0.0
  0
INSERT
  5
205
  8
0
  6
BYBLOCK
 62
     0
  2
_ORIGIN
 10
-300.0
 20
-397.6
 30
0.0
 41
10.0
 42
10.0
 43
10.0
 50
180.0
  0
INSERT
  5
206
  8
0
  6
BYBLOCK
 62
     0
  2
_ORIGIN
 10
0.0
 20
-397.6
 30
0.0
 41
10.0
 42
10.0
 43
10.0
  0
TEXT
  5
207
  8
0
  6
BYBLOCK
 62
     0
 10
-185.0
 20
-387.6
 30
0.0
 40
30.0
  1
300
 72
     1
 11
-150.0
 21
-387.6
 31
0.0
  0
POINT
  5
208
  8
DEFPOINTS
  6
BYBLOCK
 62
     0
 10
-300.0
 20
20.0
 30
0.0
  0
POINT
  5
209
  8
DEFPOINTS
  6
BYBLOCK
 62
     0
 10
0.0
 20
20.0
 30
0.0
  0
POINT
  5
20A
  8
DEFPOINTS
  6
BYBLOCK
 62
     0
 10
0.0
 20
-397.6
 30
0.0
  0
ENDBLK
  5
20B
  8
0
  0
ENDSEC
  0
SECTION
  2
ENTITIES
  0
LINE
  5
20C
  8
OUTLINE
  6
CONTINUOUS
 10
-300.0
 20
20.0
 30
0.0
 11
0.0
 21
20.0
 31
0.0
  0
LINE
  5
20D
  8
OUTLINE
  6
CONTINUOUS
 10
-3.5
 20
2.0
 30
0.0
 11
-13.892305
 21
20.0
 31
0.0
  0
LINE
  5
20E
  8
OUTLINE
  6
CONTINUOUS
 10
28.5
 20
2.0
 30
0.0
 11
28.5
 21
0.0
 31
0.0
  0
LINE
  5
20F
  8
OUTLINE
  6
CONTINUOUS
 10
28.5
 20
0.0
 30
0.0
 11
-328.5
 21
0.0
 31
0.0
  0
LINE
  5
210
  8
OUTLINE
  6
CONTINUOUS
 10
-328.5
 20
2.0
 30
0.0
 11
-328.5
 21
0.0
 31
0.0
  0
LINE
  5
211
  8
OUTLINE
  6
CONTINUOUS
 10
28.5
 20
2.0
 30
0.0
 11
-328.5
 21
2.0
 31
0.0
  0
LINE
  5
212
  8
OUTLINE
  6
CONTINUOUS
 10
-296.5
 20
2.0
 30
0.0
 11
-286.107695
 21
20.0
 31
0.0
  0
LINE
  5
213
  8
OUTLINE
  6
CONTINUOUS
 10
-295.0
 20
640.0
 30
0.0
 11
-5.0
 21
640.0
 31
0.0
  0
LINE
  5
214
  8
OUTLINE
  6
CONTINUOUS
 10
0.0
 20
635.0
 30
0.0
 11
0.0
 21
20.0
 31
0.0
  0
LINE
  5
215
  8
OUTLINE
  6
CONTINUOUS
 10
-300.0
 20
635.0
 30
0.0
 11
-300.0
 21
20.0
 31
0.0
  0
ARC
  5
216
  8
OUTLINE
  6
CONTINUOUS
 10
-5.0
 20
635.0
 30
0.0
 40
5.0
 50
0.0
 51
90.0
  0
ARC
  5
217
  8
OUTLINE
  6
CONTINUOUS
 10
-295.0
 20
635.0
 30
0.0
 40
5.0
 50
90.0
 51
180.0
  0
ARC
  5
218
  8
DETAIL
  6
CONTINUOUS
 10
-56.0
 20
245.0
 30
0.0
 40
5.0
 50
180.0
 51
270.0
  0
ARC
  5
219
  8
DETAIL
  6
CONTINUOUS
 10
-56.0
 20
315.0
 30
0.0
 40
5.0
 50
90.0
 51
180.0
  0
LINE
  5
21A
  8
DETAIL
  6
CONTINUOUS
 10
-61.0
 20
245.0
 30
0.0
 11
-61.0
 21
315.0
 31
0.0
  0
LINE
  5
21B
  8
DETAIL
  6
CONTINUOUS
 10
-50.0
 20
320.0
 30
0.0
 11
-50.0
 21
615.0
 31
0.0
  0
LINE
  5
21C
  8
DETAIL
  6
CONTINUOUS
 10
-43.0
 20
240.0
 30
0.0
 11
-43.0
 21
320.0
 31
0.0
  0
LINE
  5
21D
  8
DETAIL
  6
CONTINUOUS
 10
-43.0
 20
240.0
 30
0.0
 11
-56.0
 21
240.0
 31
0.0
  0
LINE
  5
21E
  8
DETAIL
  6
CONTINUOUS
 10
-43.0
 20
320.0
 30
0.0
 11
-56.0
 21
320.0
 31
0.0
  0
LINE
  5
21F
  8
DETAIL
  6
CONTINUOUS
 10
-230.0
 20
360.0
 30
0.0
 11
-216.0
 21
320.740182
 31
0.0
  0
LINE
  5
220
  8
DETAIL
  6
CONTINUOUS
 10
-50.0
 20
360.0
 30
0.0
 11
-64.0
 21
320.740182
 31
0.0
  0
LINE
  5
221
  8
DETAIL
  6
CONTINUOUS
 10
-216.0
 20
20.0
 30
0.0
 11
-216.0
 21
320.740182
 31
0.0
  0
LINE
  5
222
  8
DETAIL
  6
CONTINUOUS
 10
-64.0
 20
20.0
 30
0.0
 11
-64.0
 21
320.740182
 31
0.0
  0
LINE
  5
223
  8
DETAIL
  6
CONTINUOUS
 10
-216.0
 20
320.740182
 30
0.0
 11
-64.0
 21
320.740182
 31
0.0
  0
LINE
  5
224
  8
DETAIL
  6
CONTINUOUS
 10
-230.0
 20
360.0
 30
0.0
 11
-50.0
 21
360.0
 31
0.0
  0
LINE
  5
225
  8
DETAIL
  6
CONTINUOUS
 10
-230.0
 20
20.0
 30
0.0
 11
-230.0
 21
615.0
 31
0.0
  0
LINE
  5
226
  8
DETAIL
  6
CONTINUOUS
 10
-50.0
 20
20.0
 30
0.0
 11
-50.0
 21
240.0
 31
0.0
  0
LINE
  5
227
  8
DETAIL
  6
CONTINUOUS
 10
-3.5
 20
2.0
 30
0.0
 11
-13.892305
 21
20.0
 31
0.0
  0
LINE
  5
228
  8
DETAIL
  6
CONTINUOUS
 10
-296.5
 20
2.0
 30
0.0
 11
-286.107695
 21
20.0
 31
0.0
  0
ARC
  5
229
  8
DETAIL
  6
DASHED
 10
-161.65
 20
280.0
 30
0.0
 40
10.85
 50
90.0
 51
270.0
  0
ARC
  5
22A
  8
DETAIL
  6
DASHED
 10
-103.0
 20
81.65
 30
0.0
 40
10.85
 50
0.0
 51
180.0
  0
LINE
  5
22B
  8
DETAIL
  6
CONTINUOUS
 10
-303.0
 20
70.0
 30
0.0
 11
-300.0
 21
55.0
 31
0.0
  0
LINE
  5
22C
  8
DETAIL
  6
CONTINUOUS
 10
-300.0
 20
584.0
 30
0.0
 11
-303.0
 21
569.0
 31
0.0
  0
ARC
  5
22D
  8
DETAIL
  6
CONTINUOUS
 10
-310.0
 20
78.0
 30
0.0
 40
4.0
 50
180.0
 51
270.0
  0
ARC
  5
22E
  8
DETAIL
  6
CONTINUOUS
 10
-310.0
 20
562.0
 30
0.0
 40
4.0
 50
90.0
 51
180.0
  0
LINE
  5
22F
  8
DETAIL
  6
CONTINUOUS
 10
-303.0
 20
74.0
 30
0.0
 11
-310.0
 21
74.0
 31
0.0
  0
LINE
  5
230
  8
DETAIL
  6
CONTINUOUS
 10
-303.0
 20
566.0
 30
0.0
 11
-310.0
 21
566.0
 31
0.0
  0
LINE
  5
231
  8
DETAIL
  6
DASHED
 10
-113.85
 20
68.0
 30
0.0
 11
-113.85
 21
81.65
 31
0.0
  0
LINE
  5
232
  8
DETAIL
  6
DASHED
 10
-92.15
 20
68.0
 30
0.0
 11
-92.15
 21
81.65
 31
0.0
  0
LINE
  5
233
  8
DETAIL
  6
DASHED
 10
-113.063883
 20
53.0
 30
0.0
 11
-92.936117
 21
53.0
 31
0.0
  0
LINE
  5
234
  8
DETAIL
  6
DASHED
 10
-92.936117
 20
53.0
 30
0.0
 11
-92.15
 21
68.0
 31
0.0
  0
LINE
  5
235
  8
DETAIL
  6
DASHED
 10
-113.85
 20
68.0
 30
0.0
 11
-92.15
 21
68.0
 31
0.0
  0
LINE
  5
236
  8
DETAIL
  6
DASHED
 10
-113.063883
 20
53.0
 30
0.0
 11
-113.85
 21
68.0
 31
0.0
  0
LINE
  5
237
  8
DETAIL
  6
CONTINUOUS
 10
-303.0
 20
70.0
 30
0.0
 11
-303.0
 21
569.0
 31
0.0
  0
LINE
  5
238
  8
DETAIL
  6
CONTINUOUS
 10
-314.0
 20
78.0
 30
0.0
 11
-314.0
 21
562.0
 31
0.0
  0
LINE
  5
239
  8
DETAIL
  6
CONTINUOUS
 10
-300.0
 20
615.0
 30
0.0
 11
0.0
 21
615.0
 31
0.0
  0
ARC
  5
23A
  8
DETAIL
  6
CONTINUOUS
 10
-295.0
 20
635.0
 30
0.0
 40
5.0
 50
90.0
 51
180.0
  0
ARC
  5
23B
  8
DETAIL
  6
CONTINUOUS
 10
-5.0
 20
635.0
 30
0.0
 40
5.0
 50
0.0
 51
90.0
  0
LINE
  5
23C
  8
DETAIL
  6
CONTINUOUS
 10
28.5
 20
2.0
 30
0.0
 11
-328.5
 21
2.0
 31
0.0
  0
LINE
  5
23D
  8
DETAIL
  6
CONTINUOUS
 10
-300.0
 20
20.0
 30
0.0
 11
0.0
 21
20.0
 31
0.0
  0
LINE
  5
23E
  8
DETAIL
  6
CONTINUOUS
 10
-300.0
 20
635.0
 30
0.0
 11
-300.0
 21
20.0
 31
0.0
  0
LINE
  5
23F
  8
DETAIL
  6
CONTINUOUS
 10
0.0
 20
635.0
 30
0.0
 11
0.0
 21
20.0
 31
0.0
  0
LINE
  5
240
  8
DETAIL
  6
CONTINUOUS
 10
-328.5
 20
2.0
 30
0.0
 11
-328.5
 21
0.0
 31
0.0
  0
LINE
  5
241
  8
DETAIL
  6
CONTINUOUS
 10
28.5
 20
2.0
 30
0.0
 11
28.5
 21
0.0
 31
0.0
  0
LINE
  5
242
  8
DETAIL
  6
CONTINUOUS
 10
-295.0
 20
640.0
 30
0.0
 11
-5.0
 21
640.0
 31
0.0
  0
LINE
  5
243
  8
DETAIL
  6
CONTINUOUS
 10
28.5
 20
0.0
 30
0.0
 11
-328.5
 21
0.0
 31
0.0
  0
LINE
  5
244
  8
DETAIL
  6
DASHED
 10
-133.0
 20
290.063883
 30
0.0
 11
-148.0
 21
290.85
 31
0.0
  0
LINE
  5
245
  8
DETAIL
  6
DASHED
 10
-148.0
 20
290.85
 30
0.0
 11
-148.0
 21
269.15
 31
0.0
  0
LINE
  5
246
  8
DETAIL
  6
DASHED
 10
-133.0
 20
269.936117
 30
0.0
 11
-148.0
 21
269.15
 31
0.0
  0
LINE
  5
247
  8
DETAIL
  6
DASHED
 10
-133.0
 20
290.063883
 30
0.0
 11
-133.0
 21
269.936117
 31
0.0
  0
LINE
  5
248
  8
DETAIL
  6
DASHED
 10
-148.0
 20
269.15
 30
0.0
 11
-161.65
 21
269.15
 31
0.0
  0
LINE
  5
249
  8
DETAIL
  6
DASHED
 10
-148.0
 20
290.85
 30
0.0
 11
-161.65
 21
290.85
 31
0.0
  0
LINE
  5
24A
  8
BASIS
  6
DASHDOT
 10
-150.0
 20
-26.3
 30
0.0
 11
-150.0
 21
720.0
 31
0.0
  0
LINE
  5
24B
  8
BASIS
  6
DASHDOT
 10
-269.0
 20
320.0
 30
0.0
 11
-369.0
 21
320.0
 31
0.0
  0
LINE
  5
24C
  8
SIZE
  6
CONTINUOUS
 62
    30
 10
-300.0
 20
10.0
 30
0.0
 11
-300.0
 21
-410.1
 31
0.0
  0
LINE
  5
24D
  8
SIZE
  6
CONTINUOUS
 62
    30
 10
0.0
 20
10.0
 30
0.0
 11
0.0
 21
-410.1
 31
0.0
  0
LINE
  5
24E
  8
SIZE
  6
CONTINUOUS
 62
    30
 10
-290.0
 20
-397.6
 30
0.0
 11
-10.0
 21
-397.6
 31
0.0
  0
CIRCLE
  5
24F
  8
SIZE
  6
CONTINUOUS
 62
    30
 10
-300.0
 20
-397.6
 30
0.0
 40
5.0
  0
LINE
  5
250
  8
SIZE
  6
CONTINUOUS
 62
    30
 10
-300.0
 20
-397.6
 30
0.0
 11
-290.0
 21
-397.6
 31
0.0
  0
CIRCLE
  5
251
  8
SIZE
  6
CONTINUOUS
 62
    30
 10
0.0
 20
-397.6
 30
0.0
 40
5.0
  0
LINE
  5
252
  8
SIZE
  6
CONTINUOUS
 62
    30
 10
0.0
 20
-397.6
 30
0.0
 11
-10.0
 21
-397.6
 31
0.0
  0
TEXT
  5
253
  8
SIZE
  6
CONTINUOUS
 62
    30
 10
-185.0
 20
-387.6
 30
0.0
 40
30.0
  1
300
 72
     1
 11
-150.0
 21
-387.6
 31
0.0
  0
POINT
  5
254
  8
DEFPOINTS
  6
CONTINUOUS
 62
    30
 10
-300.0
 20
20.0
 30
0.0
  0
POINT
  5
255
  8
DEFPOINTS
  6
CONTINUOUS
 62
    30
 10
0.0
 20
20.0
 30
0.0
  0
POINT
  5
256
  8
DEFPOINTS
  6
CONTINUOUS
 62
    30
 10
0.0
 20
-397.6
 30
0.0
  0
LINE
  5
257
  8
SIZE
  6
CONTINUOUS
 62
    30
 10
-310.0
 20
20.0
 30
0.0
 11
-504.9
 21
20.0
 31
0.0
  0
LINE
  5
258
  8
SIZE
  6
CONTINUOUS
 62
    30
 10
-338.5
 20
0.0
 30
0.0
 11
-504.9
 21
0.0
 31
0.0
  0
LINE
  5
259
  8
SIZE
  6
CONTINUOUS
 62
    30
 10
-492.4
 20
30.0
 30
0.0
 11
-492.4
 21
40.0
 31
0.0
  0
LINE
  5
25A
  8
SIZE
  6
CONTINUOUS
 62
    30
 10
-492.4
 20
-10.0
 30
0.0
 11
-492.4
 21
-96.769828
 31
0.0
  0
LINE
  5
25B
  8
SIZE
  6
CONTINUOUS
 62
    30
 10
-492.4
 20
20.0
 30
0.0
 11
-492.4
 21
0.0
 31
0.0
  0
CIRCLE
  5
25C
  8
SIZE
  6
CONTINUOUS
 62
    30
 10
-492.4
 20
20.0
 30
0.0
 40
5.0
  0
LINE
  5
25D
  8
SIZE
  6
CONTINUOUS
 62
    30
 10
-492.4
 20
20.0
 30
0.0
 11
-492.4
 21
30.0
 31
0.0
  0
CIRCLE
  5
25E
  8
SIZE
  6
CONTINUOUS
 62
    30
 10
-492.4
 20
0.0
 30
0.0
 40
5.0
  0
LINE
  5
25F
  8
SIZE
  6
CONTINUOUS
 62
    30
 10
-492.4
 20
0.0
 30
0.0
 11
-492.4
 21
-10.0
 31
0.0
  0
TEXT
  5
260
  8
SIZE
  6
CONTINUOUS
 62
    30
 10
-502.4
 20
-86.769828
 30
0.0
 40
30.0
  1
20
 50
90.0
 72
     1
 11
-502.4
 21
-64.269828
 31
0.0
  0
POINT
  5
261
  8
DEFPOINTS
  6
CONTINUOUS
 62
    30
 10
-300.0
 20
20.0
 30
0.0
  0
POINT
  5
262
  8
DEFPOINTS
  6
CONTINUOUS
 62
    30
 10
-328.5
 20
0.0
 30
0.0
  0
POINT
  5
263
  8
DEFPOINTS
  6
CONTINUOUS
 62
    30
 10
-492.4
 20
0.0
 30
0.0
  0
LINE
  5
264
  8
SIZE
  6
CONTINUOUS
 62
    30
 10
-51.0
 20
-10.0
 30
0.0
 11
-51.0
 21
-140.1
 31
0.0
  0
LINE
  5
265
  8
SIZE
  6
CONTINUOUS
 62
    30
 10
0.0
 20
10.0
 30
0.0
 11
0.0
 21
-140.1
 31
0.0
  0
LINE
  5
266
  8
SIZE
  6
CONTINUOUS
 62
    30
 10
-41.0
 20
-127.6
 30
0.0
 11
-10.0
 21
-127.6
 31
0.0
  0
CIRCLE
  5
267
  8
SIZE
  6
CONTINUOUS
 62
    30
 10
-51.0
 20
-127.6
 30
0.0
 40
5.0
  0
LINE
  5
268
  8
SIZE
  6
CONTINUOUS
 62
    30
 10
-51.0
 20
-127.6
 30
0.0
 11
-41.0
 21
-127.6
 31
0.0
  0
CIRCLE
  5
269
  8
SIZE
  6
CONTINUOUS
 62
    30
 10
0.0
 20
-127.6
 30
0.0
 40
5.0
  0
LINE
  5
26A
  8
SIZE
  6
CONTINUOUS
 62
    30
 10
0.0
 20
-127.6
 30
0.0
 11
-10.0
 21
-127.6
 31
0.0
  0
TEXT
  5
26B
  8
SIZE
  6
CONTINUOUS
 62
    30
 10
-45.5
 20
-117.6
 30
0.0
 40
30.0
  1
51
 72
     1
 11
-25.5
 21
-117.6
 31
0.0
  0
POINT
  5
26C
  8
DEFPOINTS
  6
CONTINUOUS
 62
    30
 10
-51.0
 20
0.0
 30
0.0
  0
POINT
  5
26D
  8
DEFPOINTS
  6
CONTINUOUS
 62
    30
 10
0.0
 20
20.0
 30
0.0
  0
POINT
  5
26E
  8
DEFPOINTS
  6
CONTINUOUS
 62
    30
 10
0.0
 20
-127.6
 30
0.0
  0
LINE
  5
26F
  8
SIZE
  6
CONTINUOUS
 62
    30
 10
5.0
 20
640.0
 30
0.0
 11
480.1
 21
640.0
 31
0.0
  0
LINE
  5
270
  8
SIZE
  6
CONTINUOUS
 62
    30
 10
38.5
 20
0.0
 30
0.0
 11
480.1
 21
0.0
 31
0.0
  0
LINE
  5
271
  8
SIZE
  6
CONTINUOUS
 62
    30
 10
467.6
 20
630.0
 30
0.0
 11
467.6
 21
10.0
 31
0.0
  0
CIRCLE
  5
272
  8
SIZE
  6
CONTINUOUS
 62
    30
 10
467.6
 20
640.0
 30
0.0
 40
5.0
  0
LINE
  5
273
  8
SIZE
  6
CONTINUOUS
 62
    30
 10
467.6
 20
640.0
 30
0.0
 11
467.6
 21
630.0
 31
0.0
  0
CIRCLE
  5
274
  8
SIZE
  6
CONTINUOUS
 62
    30
 10
467.6
 20
0.0
 30
0.0
 40
5.0
  0
LINE
  5
275
  8
SIZE
  6
CONTINUOUS
 62
    30
 10
467.6
 20
0.0
 30
0.0
 11
467.6
 21
10.0
 31
0.0
  0
TEXT
  5
276
  8
SIZE
  6
CONTINUOUS
 62
    30
 10
457.6
 20
282.5
 30
0.0
 40
30.0
  1
640
 50
90.0
 72
     1
 11
457.6
 21
320.0
 31
0.0
  0
POINT
  5
277
  8
DEFPOINTS
  6
CONTINUOUS
 62
    30
 10
-5.0
 20
640.0
 30
0.0
  0
POINT
  5
278
  8
DEFPOINTS
  6
CONTINUOUS
 62
    30
 10
28.5
 20
0.0
 30
0.0
  0
POINT
  5
279
  8
DEFPOINTS
  6
CONTINUOUS
 62
    30
 10
467.6
 20
0.0
 30
0.0
  0
LINE
  5
27A
  8
SIZE
  6
CONTINUOUS
 62
    30
 10
-328.5
 20
-10.0
 30
0.0
 11
-328.5
 21
-590.1
 31
0.0
  0
LINE
  5
27B
  8
SIZE
  6
CONTINUOUS
 62
    30
 10
28.5
 20
-10.0
 30
0.0
 11
28.5
 21
-590.1
 31
0.0
  0
LINE
  5
27C
  8
SIZE
  6
CONTINUOUS
 62
    30
 10
-318.5
 20
-577.6
 30
0.0
 11
18.5
 21
-577.6
 31
0.0
  0
CIRCLE
  5
27D
  8
SIZE
  6
CONTINUOUS
 62
    30
 10
-328.5
 20
-577.6
 30
0.0
 40
5.0
  0
LINE
  5
27E
  8
SIZE
  6
CONTINUOUS
 62
    30
 10
-328.5
 20
-577.6
 30
0.0
 11
-318.5
 21
-577.6
 31
0.0
  0
CIRCLE
  5
27F
  8
SIZE
  6
CONTINUOUS
 62
    30
 10
28.5
 20
-577.6
 30
0.0
 40
5.0
  0
LINE
  5
280
  8
SIZE
  6
CONTINUOUS
 62
    30
 10
28.5
 20
-577.6
 30
0.0
 11
18.5
 21
-577.6
 31
0.0
  0
TEXT
  5
281
  8
SIZE
  6
CONTINUOUS
 62
    30
 10
-190.0
 20
-567.6
 30
0.0
 40
30.0
  1
357
 72
     1
 11
-150.0
 21
-567.6
 31
0.0
  0
POINT
  5
282
  8
DEFPOINTS
  6
CONTINUOUS
 62
    30
 10
-328.5
 20
0.0
 30
0.0
  0
POINT
  5
283
  8
DEFPOINTS
  6
CONTINUOUS
 62
    30
 10
28.5
 20
0.0
 30
0.0
  0
POINT
  5
284
  8
DEFPOINTS
  6
CONTINUOUS
 62
    30
 10
28.5
 20
-577.6
 30
0.0
  0
LINE
  5
285
  8
SIZE
  6
CONTINUOUS
 62
    30
 10
-312.0
 20
-30.0
 30
0.0
 11
-312.0
 21
-500.1
 31
0.0
  0
LINE
  5
286
  8
SIZE
  6
CONTINUOUS
 62
    30
 10
12.0
 20
-30.0
 30
0.0
 11
12.0
 21
-500.1
 31
0.0
  0
LINE
  5
287
  8
SIZE
  6
CONTINUOUS
 62
    30
 10
-302.0
 20
-487.6
 30
0.0
 11
2.0
 21
-487.6
 31
0.0
  0
CIRCLE
  5
288
  8
SIZE
  6
CONTINUOUS
 62
    30
 10
-312.0
 20
-487.6
 30
0.0
 40
5.0
  0
LINE
  5
289
  8
SIZE
  6
CONTINUOUS
 62
    30
 10
-312.0
 20
-487.6
 30
0.0
 11
-302.0
 21
-487.6
 31
0.0
  0
CIRCLE
  5
28A
  8
SIZE
  6
CONTINUOUS
 62
    30
 10
12.0
 20
-487.6
 30
0.0
 40
5.0
  0
LINE
  5
28B
  8
SIZE
  6
CONTINUOUS
 62
    30
 10
12.0
 20
-487.6
 30
0.0
 11
2.0
 21
-487.6
 31
0.0
  0
TEXT
  5
28C
  8
SIZE
  6
CONTINUOUS
 62
    30
 10
-190.0
 20
-477.6
 30
0.0
 40
30.0
  1
324
 72
     1
 11
-150.0
 21
-477.6
 31
0.0
  0
POINT
  5
28D
  8
DEFPOINTS
  6
CONTINUOUS
 62
    30
 10
-312.0
 20
-20.0
 30
0.0
  0
POINT
  5
28E
  8
DEFPOINTS
  6
CONTINUOUS
 62
    30
 10
12.0
 20
-20.0
 30
0.0
  0
POINT
  5
28F
  8
DEFPOINTS
  6
CONTINUOUS
 62
    30
 10
12.0
 20
-487.6
 30
0.0
  0
LINE
  5
290
  8
SIZE
  6
CONTINUOUS
 62
    30
 10
-133.0
 20
250.0
 30
0.0
 11
-133.0
 21
-320.1
 31
0.0
  0
LINE
  5
291
  8
SIZE
  6
CONTINUOUS
 62
    30
 10
12.0
 20
-30.0
 30
0.0
 11
12.0
 21
-320.1
 31
0.0
  0
LINE
  5
292
  8
SIZE
  6
CONTINUOUS
 62
    30
 10
-123.0
 20
-307.6
 30
0.0
 11
2.0
 21
-307.6
 31
0.0
  0
CIRCLE
  5
293
  8
SIZE
  6
CONTINUOUS
 62
    30
 10
-133.0
 20
-307.6
 30
0.0
 40
5.0
  0
LINE
  5
294
  8
SIZE
  6
CONTINUOUS
 62
    30
 10
-133.0
 20
-307.6
 30
0.0
 11
-123.0
 21
-307.6
 31
0.0
  0
CIRCLE
  5
295
  8
SIZE
  6
CONTINUOUS
 62
    30
 10
12.0
 20
-307.6
 30
0.0
 40
5.0
  0
LINE
  5
296
  8
SIZE
  6
CONTINUOUS
 62
    30
 10
12.0
 20
-307.6
 30
0.0
 11
2.0
 21
-307.6
 31
0.0
  0
TEXT
  5
297
  8
SIZE
  6
CONTINUOUS
 62
    30
 10
-95.5
 20
-297.6
 30
0.0
 40
30.0
  1
145
 72
     1
 11
-60.5
 21
-297.6
 31
0.0
  0
POINT
  5
298
  8
DEFPOINTS
  6
CONTINUOUS
 62
    30
 10
-133.0
 20
260.0
 30
0.0
  0
POINT
  5
299
  8
DEFPOINTS
  6
CONTINUOUS
 62
    30
 10
12.0
 20
-20.0
 30
0.0
  0
POINT
  5
29A
  8
DEFPOINTS
  6
CONTINUOUS
 62
    30
 10
12.0
 20
-307.6
 30
0.0
  0
LINE
  5
29B
  8
SIZE
  6
CONTINUOUS
 62
    30
 10
-103.0
 20
23.0
 30
0.0
 11
-103.0
 21
-230.1
 31
0.0
  0
LINE
  5
29C
  8
SIZE
  6
CONTINUOUS
 62
    30
 10
12.0
 20
-30.0
 30
0.0
 11
12.0
 21
-230.1
 31
0.0
  0
LINE
  5
29D
  8
SIZE
  6
CONTINUOUS
 62
    30
 10
-93.0
 20
-217.6
 30
0.0
 11
2.0
 21
-217.6
 31
0.0
  0
CIRCLE
  5
29E
  8
SIZE
  6
CONTINUOUS
 62
    30
 10
-103.0
 20
-217.6
 30
0.0
 40
5.0
  0
LINE
  5
29F
  8
SIZE
  6
CONTINUOUS
 62
    30
 10
-103.0
 20
-217.6
 30
0.0
 11
-93.0
 21
-217.6
 31
0.0
  0
CIRCLE
  5
2A0
  8
SIZE
  6
CONTINUOUS
 62
    30
 10
12.0
 20
-217.6
 30
0.0
 40
5.0
  0
LINE
  5
2A1
  8
SIZE
  6
CONTINUOUS
 62
    30
 10
12.0
 20
-217.6
 30
0.0
 11
2.0
 21
-217.6
 31
0.0
  0
TEXT
  5
2A2
  8
SIZE
  6
CONTINUOUS
 62
    30
 10
-75.5
 20
-207.6
 30
0.0
 40
30.0
  1
115
 72
     1
 11
-45.5
 21
-207.6
 31
0.0
  0
POINT
  5
2A3
  8
DEFPOINTS
  6
CONTINUOUS
 62
    30
 10
-103.0
 20
33.0
 30
0.0
  0
POINT
  5
2A4
  8
DEFPOINTS
  6
CONTINUOUS
 62
    30
 10
12.0
 20
-20.0
 30
0.0
  0
POINT
  5
2A5
  8
DEFPOINTS
  6
CONTINUOUS
 62
    30
 10
12.0
 20
-217.6
 30
0.0
  0
LINE
  5
2A6
  8
SIZE
  6
CONTINUOUS
 62
    30
 10
-103.0
 20
280.0
 30
0.0
 11
380.1
 21
280.0
 31
0.0
  0
LINE
  5
2A7
  8
SIZE
  6
CONTINUOUS
 62
    30
 10
38.5
 20
0.0
 30
0.0
 11
380.1
 21
0.0
 31
0.0
  0
LINE
  5
2A8
  8
SIZE
  6
CONTINUOUS
 62
    30
 10
367.6
 20
270.0
 30
0.0
 11
367.6
 21
10.0
 31
0.0
  0
CIRCLE
  5
2A9
  8
SIZE
  6
CONTINUOUS
 62
    30
 10
367.6
 20
280.0
 30
0.0
 40
5.0
  0
LINE
  5
2AA
  8
SIZE
  6
CONTINUOUS
 62
    30
 10
367.6
 20
280.0
 30
0.0
 11
367.6
 21
270.0
 31
0.0
  0
CIRCLE
  5
2AB
  8
SIZE
  6
CONTINUOUS
 62
    30
 10
367.6
 20
0.0
 30
0.0
 40
5.0
  0
LINE
  5
2AC
  8
SIZE
  6
CONTINUOUS
 62
    30
 10
367.6
 20
0.0
 30
0.0
 11
367.6
 21
10.0
 31
0.0
  0
TEXT
  5
2AD
  8
SIZE
  6
CONTINUOUS
 62
    30
 10
357.6
 20
102.5
 30
0.0
 40
30.0
  1
280
 50
90.0
 72
     1
 11
357.6
 21
140.0
 31
0.0
  0
POINT
  5
2AE
  8
DEFPOINTS
  6
CONTINUOUS
 62
    30
 10
-113.0
 20
280.0
 30
0.0
  0
POINT
  5
2AF
  8
DEFPOINTS
  6
CONTINUOUS
 62
    30
 10
28.5
 20
0.0
 30
0.0
  0
POINT
  5
2B0
  8
DEFPOINTS
  6
CONTINUOUS
 62
    30
 10
367.6
 20
0.0
 30
0.0
  0
LINE
  5
2B1
  8
SIZE
  6
CONTINUOUS
 62
    30
 10
38.5
 20
0.0
 30
0.0
 11
280.1
 21
0.0
 31
0.0
  0
LINE
  5
2B2
  8
SIZE
  6
CONTINUOUS
 62
    30
 10
-73.0
 20
53.0
 30
0.0
 11
280.1
 21
53.0
 31
0.0
  0
LINE
  5
2B3
  8
SIZE
  6
CONTINUOUS
 62
    30
 10
267.6
 20
10.0
 30
0.0
 11
267.6
 21
43.0
 31
0.0
  0
CIRCLE
  5
2B4
  8
SIZE
  6
CONTINUOUS
 62
    30
 10
267.6
 20
0.0
 30
0.0
 40
5.0
  0
LINE
  5
2B5
  8
SIZE
  6
CONTINUOUS
 62
    30
 10
267.6
 20
0.0
 30
0.0
 11
267.6
 21
10.0
 31
0.0
  0
CIRCLE
  5
2B6
  8
SIZE
  6
CONTINUOUS
 62
    30
 10
267.6
 20
53.0
 30
0.0
 40
5.0
  0
LINE
  5
2B7
  8
SIZE
  6
CONTINUOUS
 62
    30
 10
267.6
 20
53.0
 30
0.0
 11
267.6
 21
43.0
 31
0.0
  0
TEXT
  5
2B8
  8
SIZE
  6
CONTINUOUS
 62
    30
 10
257.6
 20
1.5
 30
0.0
 40
30.0
  1
53
 50
90.0
 72
     1
 11
257.6
 21
26.5
 31
0.0
  0
POINT
  5
2B9
  8
DEFPOINTS
  6
CONTINUOUS
 62
    30
 10
28.5
 20
0.0
 30
0.0
  0
POINT
  5
2BA
  8
DEFPOINTS
  6
CONTINUOUS
 62
    30
 10
-83.0
 20
53.0
 30
0.0
  0
POINT
  5
2BB
  8
DEFPOINTS
  6
CONTINUOUS
 62
    30
 10
267.6
 20
53.0
 30
0.0
  0
LINE
  5
2BC
  8
SIZE
  6
CONTINUOUS
 62
    30
 10
-320.0
 20
74.0
 30
0.0
 11
-504.9
 21
74.0
 31
0.0
  0
LINE
  5
2BD
  8
SIZE
  6
CONTINUOUS
 62
    30
 10
-320.0
 20
566.0
 30
0.0
 11
-504.9
 21
566.0
 31
0.0
  0
LINE
  5
2BE
  8
SIZE
  6
CONTINUOUS
 62
    30
 10
-492.4
 20
84.0
 30
0.0
 11
-492.4
 21
556.0
 31
0.0
  0
CIRCLE
  5
2BF
  8
SIZE
  6
CONTINUOUS
 62
    30
 10
-492.4
 20
74.0
 30
0.0
 40
5.0
  0
LINE
  5
2C0
  8
SIZE
  6
CONTINUOUS
 62
    30
 10
-492.4
 20
74.0
 30
0.0
 11
-492.4
 21
84.0
 31
0.0
  0
CIRCLE
  5
2C1
  8
SIZE
  6
CONTINUOUS
 62
    30
 10
-492.4
 20
566.0
 30
0.0
 40
5.0
  0
LINE
  5
2C2
  8
SIZE
  6
CONTINUOUS
 62
    30
 10
-492.4
 20
566.0
 30
0.0
 11
-492.4
 21
556.0
 31
0.0
  0
TEXT
  5
2C3
  8
SIZE
  6
CONTINUOUS
 62
    30
 10
-502.4
 20
280.0
 30
0.0
 40
30.0
  1
492
 50
90.0
 72
     1
 11
-502.4
 21
320.0
 31
0.0
  0
POINT
  5
2C4
  8
DEFPOINTS
  6
CONTINUOUS
 62
    30
 10
-310.0
 20
74.0
 30
0.0
  0
POINT
  5
2C5
  8
DEFPOINTS
  6
CONTINUOUS
 62
    30
 10
-310.0
 20
566.0
 30
0.0
  0
POINT
  5
2C6
  8
DEFPOINTS
  6
CONTINUOUS
 62
    30
 10
-492.4
 20
566.0
 30
0.0
  0
LINE
  5
2C7
  8
SIZE
  6
CONTINUOUS
 62
    30
 10
-338.5
 20
0.0
 30
0.0
 11
-414.9
 21
0.0
 31
0.0
  0
LINE
  5
2C8
  8
SIZE
  6
CONTINUOUS
 62
    30
 10
-379.0
 20
320.0
 30
0.0
 11
-414.9
 21
320.0
 31
0.0
  0
LINE
  5
2C9
  8
SIZE
  6
CONTINUOUS
 62
    30
 10
-402.4
 20
10.0
 30
0.0
 11
-402.4
 21
310.0
 31
0.0
  0
CIRCLE
  5
2CA
  8
SIZE
  6
CONTINUOUS
 62
    30
 10
-402.4
 20
0.0
 30
0.0
 40
5.0
  0
LINE
  5
2CB
  8
SIZE
  6
CONTINUOUS
 62
    30
 10
-402.4
 20
0.0
 30
0.0
 11
-402.4
 21
10.0
 31
0.0
  0
CIRCLE
  5
2CC
  8
SIZE
  6
CONTINUOUS
 62
    30
 10
-402.4
 20
320.0
 30
0.0
 40
5.0
  0
LINE
  5
2CD
  8
SIZE
  6
CONTINUOUS
 62
    30
 10
-402.4
 20
320.0
 30
0.0
 11
-402.4
 21
310.0
 31
0.0
  0
TEXT
  5
2CE
  8
SIZE
  6
CONTINUOUS
 62
    30
 10
-412.4
 20
122.5
 30
0.0
 40
30.0
  1
320
 50
90.0
 72
     1
 11
-412.4
 21
160.0
 31
0.0
  0
POINT
  5
2CF
  8
DEFPOINTS
  6
CONTINUOUS
 62
    30
 10
-328.5
 20
0.0
 30
0.0
  0
POINT
  5
2D0
  8
DEFPOINTS
  6
CONTINUOUS
 62
    30
 10
-369.0
 20
320.0
 30
0.0
  0
POINT
  5
2D1
  8
DEFPOINTS
  6
CONTINUOUS
 62
    30
 10
-402.4
 20
320.0
 30
0.0
  0
LINE
  5
2D2
  8
SIZE
  6
CONTINUOUS
 62
    30
 10
130.0
 20
0.0
 30
0.0
 11
630.1
 21
0.0
 31
0.0
  0
LINE
  5
2D3
  8
SIZE
  6
CONTINUOUS
 62
    30
 10
130.0
 20
1640.0
 30
0.0
 11
630.1
 21
1640.0
 31
0.0
  0
LINE
  5
2D4
  8
SIZE
  6
CONTINUOUS
 62
    30
 10
617.6
 20
10.0
 30
0.0
 11
617.6
 21
1630.0
 31
0.0
  0
CIRCLE
  5
2D5
  8
SIZE
  6
CONTINUOUS
 62
    30
 10
617.6
 20
0.0
 30
0.0
 40
5.0
  0
LINE
  5
2D6
  8
SIZE
  6
CONTINUOUS
 62
    30
 10
617.6
 20
0.0
 30
0.0
 11
617.6
 21
10.0
 31
0.0
  0
CIRCLE
  5
2D7
  8
SIZE
  6
CONTINUOUS
 62
    30
 10
617.6
 20
1640.0
 30
0.0
 40
5.0
  0
LINE
  5
2D8
  8
SIZE
  6
CONTINUOUS
 62
    30
 10
617.6
 20
1640.0
 30
0.0
 11
617.6
 21
1630.0
 31
0.0
  0
TEXT
  5
2D9
  8
SIZE
  6
CONTINUOUS
 62
    30
 10
607.6
 20
772.5
 30
0.0
 40
30.0
  1
1640
 50
90.0
 72
     1
 11
607.6
 21
820.0
 31
0.0
  0
POINT
  5
2DA
  8
DEFPOINTS
  6
CONTINUOUS
 62
    30
 10
120.0
 20
0.0
 30
0.0
  0
POINT
  5
2DB
  8
DEFPOINTS
  6
CONTINUOUS
 62
    30
 10
120.0
 20
1640.0
 30
0.0
  0
POINT
  5
2DC
  8
DEFPOINTS
  6
CONTINUOUS
 62
    30
 10
617.6
 20
1640.0
 30
0.0
  0
LINE
  5
2DD
  8
SIZE
  6
CONTINUOUS
 62
    30
 10
10.0
 20
640.0
 30
0.0
 11
480.1
 21
640.0
 31
0.0
  0
LINE
  5
2DE
  8
SIZE
  6
CONTINUOUS
 62
    30
 10
130.0
 20
1640.0
 30
0.0
 11
480.1
 21
1640.0
 31
0.0
  0
LINE
  5
2DF
  8
SIZE
  6
CONTINUOUS
 62
    30
 10
467.6
 20
650.0
 30
0.0
 11
467.6
 21
1630.0
 31
0.0
  0
CIRCLE
  5
2E0
  8
SIZE
  6
CONTINUOUS
 62
    30
 10
467.6
 20
640.0
 30
0.0
 40
5.0
  0
LINE
  5
2E1
  8
SIZE
  6
CONTINUOUS
 62
    30
 10
467.6
 20
640.0
 30
0.0
 11
467.6
 21
650.0
 31
0.0
  0
CIRCLE
  5
2E2
  8
SIZE
  6
CONTINUOUS
 62
    30
 10
467.6
 20
1640.0
 30
0.0
 40
5.0
  0
LINE
  5
2E3
  8
SIZE
  6
CONTINUOUS
 62
    30
 10
467.6
 20
1640.0
 30
0.0
 11
467.6
 21
1630.0
 31
0.0
  0
TEXT
  5
2E4
  8
SIZE
  6
CONTINUOUS
 62
    30
 10
457.6
 20
1097.5
 30
0.0
 40
30.0
  1
1000
 50
90.0
 72
     1
 11
457.6
 21
1140.0
 31
0.0
  0
POINT
  5
2E5
  8
DEFPOINTS
  6
CONTINUOUS
 62
    30
 10
0.0
 20
640.0
 30
0.0
  0
POINT
  5
2E6
  8
DEFPOINTS
  6
CONTINUOUS
 62
    30
 10
120.0
 20
1640.0
 30
0.0
  0
POINT
  5
2E7
  8
DEFPOINTS
  6
CONTINUOUS
 62
    30
 10
467.6
 20
1640.0
 30
0.0
  0
LINE
  5
2E8
  8
SIZE
  6
CONTINUOUS
 62
    30
 10
-630.0
 20
0.0
 30
0.0
 11
-784.9
 21
0.0
 31
0.0
  0
LINE
  5
2E9
  8
SIZE
  6
CONTINUOUS
 62
    30
 10
-630.0
 20
1640.0
 30
0.0
 11
-784.9
 21
1640.0
 31
0.0
  0
LINE
  5
2EA
  8
SIZE
  6
CONTINUOUS
 62
    30
 10
-772.4
 20
10.0
 30
0.0
 11
-772.4
 21
1630.0
 31
0.0
  0
CIRCLE
  5
2EB
  8
SIZE
  6
CONTINUOUS
 62
    30
 10
-772.4
 20
0.0
 30
0.0
 40
5.0
  0
LINE
  5
2EC
  8
SIZE
  6
CONTINUOUS
 62
    30
 10
-772.4
 20
0.0
 30
0.0
 11
-772.4
 21
10.0
 31
0.0
  0
CIRCLE
  5
2ED
  8
SIZE
  6
CONTINUOUS
 62
    30
 10
-772.4
 20
1640.0
 30
0.0
 40
5.0
  0
LINE
  5
2EE
  8
SIZE
  6
CONTINUOUS
 62
    30
 10
-772.4
 20
1640.0
 30
0.0
 11
-772.4
 21
1630.0
 31
0.0
  0
TEXT
  5
2EF
  8
SIZE
  6
CONTINUOUS
 62
    30
 10
-782.4
 20
772.5
 30
0.0
 40
30.0
  1
1640
 50
90.0
 72
     1
 11
-782.4
 21
820.0
 31
0.0
  0
POINT
  5
2F0
  8
DEFPOINTS
  6
CONTINUOUS
 62
    30
 10
-620.0
 20
0.0
 30
0.0
  0
POINT
  5
2F1
  8
DEFPOINTS
  6
CONTINUOUS
 62
    30
 10
-620.0
 20
1640.0
 30
0.0
  0
POINT
  5
2F2
  8
DEFPOINTS
  6
CONTINUOUS
 62
    30
 10
-772.4
 20
1640.0
 30
0.0
  0
LINE
  5
2F3
  8
SIZE
  6
CONTINUOUS
 62
    30
 10
-300.0
 20
645.0
 30
0.0
 11
-300.0
 21
754.9
 31
0.0
  0
LINE
  5
2F4
  8
SIZE
  6
CONTINUOUS
 62
    30
 10
-314.0
 20
572.0
 30
0.0
 11
-314.0
 21
754.9
 31
0.0
  0
LINE
  5
2F5
  8
SIZE
  6
CONTINUOUS
 62
    30
 10
-290.0
 20
742.4
 30
0.0
 11
-280.0
 21
742.4
 31
0.0
  0
LINE
  5
2F6
  8
SIZE
  6
CONTINUOUS
 62
    30
 10
-324.0
 20
742.4
 30
0.0
 11
-397.699249
 21
742.4
 31
0.0
  0
LINE
  5
2F7
  8
SIZE
  6
CONTINUOUS
 62
    30
 10
-300.0
 20
742.4
 30
0.0
 11
-314.0
 21
742.4
 31
0.0
  0
CIRCLE
  5
2F8
  8
SIZE
  6
CONTINUOUS
 62
    30
 10
-300.0
 20
742.4
 30
0.0
 40
5.0
  0
LINE
  5
2F9
  8
SIZE
  6
CONTINUOUS
 62
    30
 10
-300.0
 20
742.4
 30
0.0
 11
-290.0
 21
742.4
 31
0.0
  0
CIRCLE
  5
2FA
  8
SIZE
  6
CONTINUOUS
 62
    30
 10
-314.0
 20
742.4
 30
0.0
 40
5.0
  0
LINE
  5
2FB
  8
SIZE
  6
CONTINUOUS
 62
    30
 10
-314.0
 20
742.4
 30
0.0
 11
-324.0
 21
742.4
 31
0.0
  0
TEXT
  5
2FC
  8
SIZE
  6
CONTINUOUS
 62
    30
 10
-387.699249
 20
752.4
 30
0.0
 40
30.0
  1
14
 72
     1
 11
-367.699249
 21
752.4
 31
0.0
  0
POINT
  5
2FD
  8
DEFPOINTS
  6
CONTINUOUS
 62
    30
 10
-300.0
 20
635.0
 30
0.0
  0
POINT
  5
2FE
  8
DEFPOINTS
  6
CONTINUOUS
 62
    30
 10
-314.0
 20
562.0
 30
0.0
  0
POINT
  5
2FF
  8
DEFPOINTS
  6
CONTINUOUS
 62
    30
 10
-314.0
 20
742.4
 30
0.0
  0
LINE
  5
300
  8
SIZE
  6
CONTINUOUS
 62
    30
 10
120.0
 20
1650.0
 30
0.0
 11
120.0
 21
1804.9
 31
0.0
  0
LINE
  5
301
  8
SIZE
  6
CONTINUOUS
 62
    30
 10
0.0
 20
1650.0
 30
0.0
 11
0.0
 21
1804.9
 31
0.0
  0
LINE
  5
302
  8
SIZE
  6
CONTINUOUS
 62
    30
 10
110.0
 20
1792.4
 30
0.0
 11
10.0
 21
1792.4
 31
0.0
  0
CIRCLE
  5
303
  8
SIZE
  6
CONTINUOUS
 62
    30
 10
120.0
 20
1792.4
 30
0.0
 40
5.0
  0
LINE
  5
304
  8
SIZE
  6
CONTINUOUS
 62
    30
 10
120.0
 20
1792.4
 30
0.0
 11
110.0
 21
1792.4
 31
0.0
  0
CIRCLE
  5
305
  8
SIZE
  6
CONTINUOUS
 62
    30
 10
0.0
 20
1792.4
 30
0.0
 40
5.0
  0
LINE
  5
306
  8
SIZE
  6
CONTINUOUS
 62
    30
 10
0.0
 20
1792.4
 30
0.0
 11
10.0
 21
1792.4
 31
0.0
  0
TEXT
  5
307
  8
SIZE
  6
CONTINUOUS
 62
    30
 10
27.5
 20
1802.4
 30
0.0
 40
30.0
  1
120
 72
     1
 11
60.0
 21
1802.4
 31
0.0
  0
POINT
  5
308
  8
DEFPOINTS
  6
CONTINUOUS
 62
    30
 10
120.0
 20
1640.0
 30
0.0
  0
POINT
  5
309
  8
DEFPOINTS
  6
CONTINUOUS
 62
    30
 10
0.0
 20
1640.0
 30
0.0
  0
POINT
  5
30A
  8
DEFPOINTS
  6
CONTINUOUS
 62
    30
 10
0.0
 20
1792.4
 30
0.0
  0
LINE
  5
30B
  8
SIZE
  6
CONTINUOUS
 62
    30
 10
0.0
 20
1650.0
 30
0.0
 11
0.0
 21
1804.9
 31
0.0
  0
LINE
  5
30C
  8
SIZE
  6
CONTINUOUS
 62
    30
 10
-300.0
 20
1650.0
 30
0.0
 11
-300.0
 21
1804.9
 31
0.0
  0
LINE
  5
30D
  8
SIZE
  6
CONTINUOUS
 62
    30
 10
-10.0
 20
1792.4
 30
0.0
 11
-290.0
 21
1792.4
 31
0.0
  0
CIRCLE
  5
30E
  8
SIZE
  6
CONTINUOUS
 62
    30
 10
0.0
 20
1792.4
 30
0.0
 40
5.0
  0
LINE
  5
30F
  8
SIZE
  6
CONTINUOUS
 62
    30
 10
0.0
 20
1792.4
 30
0.0
 11
-10.0
 21
1792.4
 31
0.0
  0
CIRCLE
  5
310
  8
SIZE
  6
CONTINUOUS
 62
    30
 10
-300.0
 20
1792.4
 30
0.0
 40
5.0
  0
LINE
  5
311
  8
SIZE
  6
CONTINUOUS
 62
    30
 10
-300.0
 20
1792.4
 30
0.0
 11
-290.0
 21
1792.4
 31
0.0
  0
TEXT
  5
312
  8
SIZE
  6
CONTINUOUS
 62
    30
 10
-185.0
 20
1802.4
 30
0.0
 40
30.0
  1
300
 72
     1
 11
-150.0
 21
1802.4
 31
0.0
  0
POINT
  5
313
  8
DEFPOINTS
  6
CONTINUOUS
 62
    30
 10
0.0
 20
1640.0
 30
0.0
  0
POINT
  5
314
  8
DEFPOINTS
  6
CONTINUOUS
 62
    30
 10
-300.0
 20
1640.0
 30
0.0
  0
POINT
  5
315
  8
DEFPOINTS
  6
CONTINUOUS
 62
    30
 10
-300.0
 20
1792.4
 30
0.0
  0
LINE
  5
316
  8
SIZE
  6
CONTINUOUS
 62
    30
 10
-300.0
 20
1650.0
 30
0.0
 11
-300.0
 21
1804.9
 31
0.0
  0
LINE
  5
317
  8
SIZE
  6
CONTINUOUS
 62
    30
 10
-620.0
 20
1650.0
 30
0.0
 11
-620.0
 21
1804.9
 31
0.0
  0
LINE
  5
318
  8
SIZE
  6
CONTINUOUS
 62
    30
 10
-310.0
 20
1792.4
 30
0.0
 11
-610.0
 21
1792.4
 31
0.0
  0
CIRCLE
  5
319
  8
SIZE
  6
CONTINUOUS
 62
    30
 10
-300.0
 20
1792.4
 30
0.0
 40
5.0
  0
LINE
  5
31A
  8
SIZE
  6
CONTINUOUS
 62
    30
 10
-300.0
 20
1792.4
 30
0.0
 11
-310.0
 21
1792.4
 31
0.0
  0
CIRCLE
  5
31B
  8
SIZE
  6
CONTINUOUS
 62
    30
 10
-620.0
 20
1792.4
 30
0.0
 40
5.0
  0
LINE
  5
31C
  8
SIZE
  6
CONTINUOUS
 62
    30
 10
-620.0
 20
1792.4
 30
0.0
 11
-610.0
 21
1792.4
 31
0.0
  0
TEXT
  5
31D
  8
SIZE
  6
CONTINUOUS
 62
    30
 10
-497.5
 20
1802.4
 30
0.0
 40
30.0
  1
320
 72
     1
 11
-460.0
 21
1802.4
 31
0.0
  0
POINT
  5
31E
  8
DEFPOINTS
  6
CONTINUOUS
 62
    30
 10
-300.0
 20
1640.0
 30
0.0
  0
POINT
  5
31F
  8
DEFPOINTS
  6
CONTINUOUS
 62
    30
 10
-620.0
 20
1640.0
 30
0.0
  0
POINT
  5
320
  8
DEFPOINTS
  6
CONTINUOUS
 62
    30
 10
-620.0
 20
1792.4
 30
0.0
  0
LINE
  5
321
  8
NOTE
  6
CONTINUOUS
 10
32.0
 20
0.0
 30
0.0
 11
-8.0
 21
0.0
 31
0.0
  0
LINE
  5
322
  8
NOTE
  6
CONTINUOUS
 10
12.0
 20
-20.0
 30
0.0
 11
12.0
 21
20.0
 31
0.0
  0
LINE
  5
323
  8
NOTE
  6
CONTINUOUS
 10
-113.0
 20
280.0
 30
0.0
 11
-153.0
 21
280.0
 31
0.0
  0
LINE
  5
324
  8
NOTE
  6
CONTINUOUS
 10
-133.0
 20
260.0
 30
0.0
 11
-133.0
 21
300.0
 31
0.0
  0
LINE
  5
325
  8
NOTE
  6
CONTINUOUS
 10
652.465149
 20
-161.62001
 30
0.0
 11
144.715134
 21
-161.62001
 31
0.0
  0
LINE
  5
326
  8
NOTE
  6
CONTINUOUS
 10
144.715134
 20
-161.62001
 30
0.0
 11
-133.0
 21
280.000031
 31
0.0
  0
LINE
  5
327
  8
NOTE
  6
CONTINUOUS
 10
-133.0
 20
280.000031
 30
0.0
 11
-131.533395
 21
278.640225
 31
0.0
  0
LINE
  5
328
  8
NOTE
  6
CONTINUOUS
 10
-133.0
 20
280.000031
 30
0.0
 11
-132.409786
 21
278.089102
 31
0.0
  0
TEXT
  5
329
  8
NOTE
  6
CONTINUOUS
 10
205.465134
 20
-110.62001
 30
0.0
 40
40.0
  1
貯湯ﾀﾝｸﾕﾆｯﾄ接続口(B)
 50
359.999996
 41
0.847538
  7
STANDARD1
  0
TEXT
  5
32A
  8
NOTE
  6
CONTINUOUS
 10
205.465134
 20
-160.62001
 30
0.0
 40
40.0
  1
R1/2(φ21.7)
 50
359.999996
 41
0.637277
  7
STANDARD1
  0
LINE
  5
32B
  8
NOTE
  6
CONTINUOUS
 10
-83.0
 20
53.0
 30
0.0
 11
-123.0
 21
53.0
 31
0.0
  0
LINE
  5
32C
  8
NOTE
  6
CONTINUOUS
 10
-103.0
 20
33.0
 30
0.0
 11
-103.0
 21
73.0
 31
0.0
  0
LINE
  5
32D
  8
NOTE
  6
CONTINUOUS
 10
655.234436
 20
-424.703339
 30
0.0
 11
147.484421
 21
-424.703339
 31
0.0
  0
LINE
  5
32E
  8
NOTE
  6
CONTINUOUS
 10
147.484421
 20
-424.703339
 30
0.0
 11
-103.0
 21
53.000023
 31
0.0
  0
LINE
  5
32F
  8
NOTE
  6
CONTINUOUS
 10
-103.0
 20
53.000023
 30
0.0
 11
-101.644442
 21
51.529492
 31
0.0
  0
LINE
  5
330
  8
NOTE
  6
CONTINUOUS
 10
-103.0
 20
53.000023
 30
0.0
 11
-102.561318
 21
51.048726
 31
0.0
  0
TEXT
  5
331
  8
NOTE
  6
CONTINUOUS
 10
208.234421
 20
-373.703339
 30
0.0
 40
40.0
  1
貯湯ﾀﾝｸﾕﾆｯﾄ接続口(A)
 50
359.999996
 41
0.847538
  7
STANDARD1
  0
TEXT
  5
332
  8
NOTE
  6
CONTINUOUS
 10
208.234421
 20
-423.703339
 30
0.0
 40
40.0
  1
R1/2(φ21.7)
 50
359.999996
 41
0.637277
  7
STANDARD1
  0
LINE
  5
333
  8
NOTE
  6
CONTINUOUS
 10
-332.0
 20
0.0
 30
0.0
 11
-292.0
 21
0.0
 31
0.0
  0
LINE
  5
334
  8
NOTE
  6
CONTINUOUS
 10
-312.0
 20
-20.0
 30
0.0
 11
-312.0
 21
20.0
 31
0.0
  0
LINE
  5
335
  8
NOTE
  6
CONTINUOUS
 10
-672.207275
 20
-159.819061
 30
0.0
 11
-415.957306
 21
-159.819061
 31
0.0
  0
LINE
  5
336
  8
NOTE
  6
CONTINUOUS
 10
-415.957306
 20
-159.819061
 30
0.0
 11
-312.0
 21
0.0
 31
0.0
  0
LINE
  5
337
  8
NOTE
  6
CONTINUOUS
 10
-312.0
 20
0.0
 30
0.0
 11
-312.619453
 21
-1.901651
 31
0.0
  0
LINE
  5
338
  8
NOTE
  6
CONTINUOUS
 10
-312.0
 20
0.0
 30
0.0
 11
-313.487288
 21
-1.337152
 31
0.0
  0
TEXT
  5
339
  8
NOTE
  6
CONTINUOUS
 10
-672.207336
 20
-158.819046
 30
0.0
 40
40.0
  1
AH 4-M10
 50
359.999996
 41
0.644737
  7
STANDARD1
  0
TEXT
  5
33A
  8
NOTE
  6
CONTINUOUS
 10
519.502014
 20
942.764832
 30
0.0
 40
40.0
  1
メンテナンススペース
 50
90.000005
 41
0.84375
  7
STANDARD1
  0
TEXT
  5
33B
  8
NOTE
  6
CONTINUOUS
 10
-381.720734
 20
1741.131836
 30
0.0
 40
40.0
  1
メンテナンススペース
 50
0.000003
 41
0.84375
  7
STANDARD1
  0
TEXT
  5
33C
  8
NOTE
  6
CONTINUOUS
 10
671.887512
 20
622.795288
 30
0.0
 40
40.0
  1
メンテナンススペース
 50
90.000005
 41
0.84375
  7
STANDARD1
  0
TEXT
  5
33D
  8
NOTE
  6
CONTINUOUS
 10
51.598763
 20
1743.384399
 30
0.0
 40
40.0
  1
メンテナンススペース
 50
0.000003
 41
0.84375
  7
STANDARD1
  0
TEXT
  5
33E
  8
NOTE
  6
CONTINUOUS
 10
-814.132019
 20
1737.22876
 30
0.0
 40
40.0
  1
メンテナンススペース
 50
0.000003
 41
0.84375
  7
STANDARD1
  0
TEXT
  5
33F
  8
NOTE
  6
CONTINUOUS
 10
-722.51416
 20
629.921204
 30
0.0
 40
40.0
  1
メンテナンススペース
 50
90.000005
 41
0.84375
  7
STANDARD1
  0
LINE
  5
340
  8
NOTE
  6
CONTINUOUS
 10
-71.0
 20
20.0
 30
0.0
 11
-31.0
 21
20.0
 31
0.0
  0
LINE
  5
341
  8
NOTE
  6
CONTINUOUS
 10
-51.0
 20
0.0
 30
0.0
 11
-51.0
 21
40.0
 31
0.0
  0
LINE
  5
342
  8
NOTE
  6
CONTINUOUS
 10
340.695831
 20
-272.391937
 30
0.0
 11
141.945831
 21
-272.391937
 31
0.0
  0
LINE
  5
343
  8
NOTE
  6
CONTINUOUS
 10
141.945831
 20
-272.391937
 30
0.0
 11
-51.0
 21
20.0
 31
0.0
  0
LINE
  5
344
  8
NOTE
  6
CONTINUOUS
 10
-51.0
 20
20.0
 30
0.0
 11
-49.503933
 21
18.672678
 31
0.0
  0
LINE
  5
345
  8
NOTE
  6
CONTINUOUS
 10
-51.0
 20
20.0
 30
0.0
 11
-50.368029
 21
18.102472
 31
0.0
  0
TEXT
  5
346
  8
NOTE
  6
CONTINUOUS
 10
202.695831
 20
-271.391937
 30
0.0
 40
40.0
  1
D φ25
 50
0.000003
 41
0.721354
  7
STANDARD1
  0
CIRCLE
  5
347
  8
ARRANGE
  6
CONTINUOUS
 10
0.0
 20
0.0
 30
0.0
 40
15.0
  0
CIRCLE
  5
348
  8
FIX
  6
CONTINUOUS
 10
12.0
 20
0.0
 30
0.0
 40
5.0
  0
CIRCLE
  5
349
  8
FIX
  6
CONTINUOUS
 10
-312.0
 20
0.0
 30
0.0
 40
5.0
  0
LINE
  5
34A
  8
SERVICESPACE
  6
DASHDOT
 10
-620.0
 20
0.0
 30
0.0
 11
-300.0
 21
1640.0
 31
0.0
  0
LINE
  5
34B
  8
SERVICESPACE
  6
DASHDOT
 10
-620.0
 20
1640.0
 30
0.0
 11
-300.0
 21
0.0
 31
0.0
  0
LINE
  5
34C
  8
SERVICESPACE
  6
DASHDOT
 10
0.0
 20
0.0
 30
0.0
 11
120.0
 21
1640.0
 31
0.0
  0
LINE
  5
34D
  8
SERVICESPACE
  6
DASHDOT
 10
0.0
 20
1640.0
 30
0.0
 11
120.0
 21
0.0
 31
0.0
  0
LINE
  5
34E
  8
SERVICESPACE
  6
DASHDOT
 10
-300.0
 20
1640.0
 30
0.0
 11
0.0
 21
640.0
 31
0.0
  0
LINE
  5
34F
  8
SERVICESPACE
  6
DASHDOT
 10
-300.0
 20
640.0
 30
0.0
 11
0.0
 21
1640.0
 31
0.0
  0
LINE
  5
350
  8
SERVICESPACE
  6
DASHDOT
 10
-300.0
 20
0.0
 30
0.0
 11
-300.0
 21
1640.0
 31
0.0
  0
LINE
  5
351
  8
SERVICESPACE
  6
DASHDOT
 10
120.0
 20
1640.0
 30
0.0
 11
-620.0
 21
1640.0
 31
0.0
  0
LINE
  5
352
  8
SERVICESPACE
  6
DASHDOT
 10
120.0
 20
0.0
 30
0.0
 11
120.0
 21
1640.0
 31
0.0
  0
LINE
  5
353
  8
SERVICESPACE
  6
DASHDOT
 10
0.0
 20
640.0
 30
0.0
 11
-300.0
 21
640.0
 31
0.0
  0
LINE
  5
354
  8
SERVICESPACE
  6
DASHDOT
 10
120.0
 20
0.0
 30
0.0
 11
0.0
 21
0.0
 31
0.0
  0
LINE
  5
355
  8
SERVICESPACE
  6
DASHDOT
 10
0.0
 20
1640.0
 30
0.0
 11
0.0
 21
0.0
 31
0.0
  0
LINE
  5
356
  8
SERVICESPACE
  6
DASHDOT
 10
-620.0
 20
1640.0
 30
0.0
 11
-620.0
 21
0.0
 31
0.0
  0
LINE
  5
357
  8
SERVICESPACE
  6
DASHDOT
 10
-300.0
 20
0.0
 30
0.0
 11
-620.0
 21
0.0
 31
0.0
  0
TEXT
  5
358
  8
ETC
  6
CONTINUOUS
 10
248.300888
 20
1914.899658
 30
0.0
 40
40.0
  1
TTHPU454
 50
0.000003
 41
0.6125
  7
STANDARD1
  0
TEXT
  5
359
  8
ETC
  6
CONTINUOUS
 10
248.300888
 20
1844.899658
 30
0.0
 40
40.0
  1
ヒートポンプユニット
 50
0.000003
 41
0.84375
  7
STANDARD1
  0
ENDSEC
  0
EOF
