  0
SECTION
  2
HEADER
  9
$ACADVER
  1
AC1009
  9
$INSBASE
 10
0.0
 20
0.0
 30
0.0
  9
$EXTMIN
 10
-1757.4
 20
-462.5
 30
0.0
  9
$EXTMAX
 10
866.584042
 20
2351.4
 30
0.0
  9
$LIMMIN
 10
0.0
 20
0.0
  9
$LIMMAX
 10
12.0
 20
9.0
  9
$ORTHOMODE
 70
     0
  9
$REGENMODE
 70
     1
  9
$FILLMODE
 70
     1
  9
$QTEXTMODE
 70
     0
  9
$MIRRTEXT
 70
     1
  9
$DRAGMODE
 70
     2
  9
$LTSCALE
 40
1.0
  9
$OSMODE
 70
     0
  9
$ATTMODE
 70
     1
  9
$TEXTSIZE
 40
40.0
  9
$TRACEWID
 40
0.05
  9
$TEXTSTYLE
  7
STANDARD1
  9
$CLAYER
  8
0
  9
$CELTYPE
  6
CONTINUOUS
  9
$CECOLOR
 62
   256
  9
$DIMSCALE
 40
1.0
  9
$DIMASZ
 40
10.0
  9
$DIMEXO
 40
10.0
  9
$DIMDLI
 40
8.0
  9
$DIMRND
 40
0.0
  9
$DIMDLE
 40
0.0
  9
$DIMEXE
 40
12.5
  9
$DIMTP
 40
0.0
  9
$DIMTM
 40
0.0
  9
$DIMTXT
 40
30.0
  9
$DIMCEN
 40
2.5
  9
$DIMTSZ
 40
0.0
  9
$DIMTOL
 70
     0
  9
$DIMLIM
 70
     0
  9
$DIMTIH
 70
     0
  9
$DIMTOH
 70
     0
  9
$DIMSE1
 70
     0
  9
$DIMSE2
 70
     0
  9
$DIMTAD
 70
     3
  9
$DIMZIN
 70
    12
  9
$DIMBLK
  1

  9
$DIMASO
 70
     1
  9
$DIMSHO
 70
     1
  9
$DIMPOST
  1

  9
$DIMAPOST
  1

  9
$DIMALT
 70
     0
  9
$DIMALTD
 70
     4
  9
$DIMALTF
 40
25.4
  9
$DIMLFAC
 40
1.0
  9
$DIMTOFL
 70
     1
  9
$DIMTVP
 40
0.0
  9
$DIMTIX
 70
     0
  9
$DIMSOXD
 70
     0
  9
$DIMSAH
 70
     1
  9
$DIMBLK1
  1
_ORIGIN
  9
$DIMBLK2
  1
_ORIGIN
  9
$DIMSTYLE
  2
STANDARD
  9
$DIMCLRD
 70
     0
  9
$DIMCLRE
 70
     0
  9
$DIMCLRT
 70
     0
  9
$DIMTFAC
 40
1.0
  9
$DIMGAP
 40
0.09
  9
$LUNITS
 70
     2
  9
$LUPREC
 70
     3
  9
$SKETCHINC
 40
0.1
  9
$FILLETRAD
 40
0.0
  9
$AUNITS
 70
     0
  9
$AUPREC
 70
     0
  9
$MENU
  1
acad
  9
$ELEVATION
 40
0.0
  9
$PELEVATION
 40
0.0
  9
$THICKNESS
 40
0.0
  9
$LIMCHECK
 70
     0
  9
$BLIPMODE
 70
     0
  9
$CHAMFERA
 40
0.0
  9
$CHAMFERB
 40
0.0
  9
$SKPOLY
 70
     0
  9
$TDCREATE
 40
2451878.917975
  9
$TDUPDATE
 40
2451878.917975
  9
$TDINDWG
 40
0.0
  9
$TDUSRTIMER
 40
0.0
  9
$USRTIMER
 70
     1
  9
$ANGBASE
 50
0.0
  9
$ANGDIR
 70
     0
  9
$PDMODE
 70
     0
  9
$PDSIZE
 40
0.0
  9
$PLINEWID
 40
0.0
  9
$COORDS
 70
     1
  9
$SPLFRAME
 70
     0
  9
$SPLINETYPE
 70
     6
  9
$SPLINESEGS
 70
     8
  9
$ATTDIA
 70
     0
  9
$ATTREQ
 70
     1
  9
$HANDLING
 70
     1
  9
$HANDSEED
  5
457
  9
$SURFTAB1
 70
     6
  9
$SURFTAB2
 70
     6
  9
$SURFTYPE
 70
     6
  9
$SURFU
 70
     6
  9
$SURFV
 70
     6
  9
$UCSNAME
  2

  9
$UCSORG
 10
0.0
 20
0.0
 30
0.0
  9
$UCSXDIR
 10
1.0
 20
0.0
 30
0.0
  9
$UCSYDIR
 10
0.0
 20
1.0
 30
0.0
  9
$PUCSNAME
  2

  9
$PUCSORG
 10
0.0
 20
0.0
 30
0.0
  9
$PUCSXDIR
 10
1.0
 20
0.0
 30
0.0
  9
$PUCSYDIR
 10
0.0
 20
1.0
 30
0.0
  9
$USERI1
 70
     0
  9
$USERI2
 70
     0
  9
$USERI3
 70
     0
  9
$USERI4
 70
     0
  9
$USERI5
 70
     0
  9
$USERR1
 40
0.0
  9
$USERR2
 40
0.0
  9
$USERR3
 40
0.0
  9
$USERR4
 40
0.0
  9
$USERR5
 40
0.0
  9
$WORLDVIEW
 70
     1
  9
$SHADEDGE
 70
     3
  9
$SHADEDIF
 70
    70
  9
$TILEMODE
 70
     1
  9
$MAXACTVP
 70
    48
  9
$PLIMCHECK
 70
     0
  9
$PEXTMIN
 10
1.000000E+020
 20
1.000000E+020
 30
1.000000E+020
  9
$PEXTMAX
 10
-1.000000E+020
 20
-1.000000E+020
 30
-1.000000E+020
  9
$PLIMMIN
 10
0.0
 20
0.0
  9
$PLIMMAX
 10
12.0
 20
9.0
  9
$UNITMODE
 70
     0
  9
$VISRETAIN
 70
     1
  9
$PLINEGEN
 70
     0
  9
$PSLTSCALE
 70
     1
  0
ENDSEC
  0
SECTION
  2
TABLES
  0
TABLE
  2
VPORT
 70
     2
  0
VPORT
  2
*ACTIVE
 70
     0
 10
0.0
 20
0.0
 11
1.0
 21
1.0
 12
-445.407979
 22
944.45
 13
0.0
 23
0.0
 14
1.0
 24
1.0
 15
0.0
 25
0.0
 16
0.0
 26
0.0
 36
1.0
 17
0.0
 27
0.0
 37
0.0
 40
2867.66879
 41
2.827476
 42
50.0
 43
0.0
 44
0.0
 50
0.0
 51
0.0
 71
     0
 72
   100
 73
     1
 74
     1
 75
     0
 76
     0
 77
     0
 78
     0
  0
ENDTAB
  0
TABLE
  2
LTYPE
 70
     4
  0
LTYPE
  2
CONTINUOUS
 70
     0
  3
Solid line
 72
    65
 73
     0
 40
0.0
  0
LTYPE
  2
DASHED
 70
     0
  3
-- -- -- -- -- -- -- -- -- -- -- -- -- -- --
 72
    65
 73
     2
 40
0.75
 49
0.5
 49
-0.25
  0
LTYPE
  2
DASHDOT
 70
     0
  3
__ . __ . __ . __ . __ . __ . __ . __ . __ . __
 72
    65
 73
     4
 40
125.0
 49
80.0
 49
-20.0
 49
5.0
 49
-20.0
  0
LTYPE
  2
DIVIDE
 70
     0
  3
__ . . __ . . __ . . __ . . __ . . __ . . __
 72
    65
 73
     6
 40
1.25
 49
0.5
 49
-0.25
 49
0.0
 49
-0.25
 49
0.0
 49
-0.25
  0
ENDTAB
  0
TABLE
  2
LAYER
 70
    12
  0
LAYER
  2
0
 70
     0
 62
     3
  6
CONTINUOUS
  0
LAYER
  2
OUTLINE
 70
     0
 62
     3
  6
CONTINUOUS
  0
LAYER
  2
DETAIL
 70
     0
 62
     5
  6
CONTINUOUS
  0
LAYER
  2
BASIS
 70
     0
 62
     6
  6
CONTINUOUS
  0
LAYER
  2
SIZE
 70
     0
 62
    30
  6
CONTINUOUS
  0
LAYER
  2
NOTE
 70
     0
 62
     4
  6
CONTINUOUS
  0
LAYER
  2
ARRANGE
 70
     0
 62
     1
  6
CONTINUOUS
  0
LAYER
  2
FIX
 70
     0
 62
    11
  6
CONTINUOUS
  0
LAYER
  2
SERVICESPACE
 70
     0
 62
     2
  6
CONTINUOUS
  0
LAYER
  2
ETC
 70
     0
 62
    61
  6
CONTINUOUS
  0
LAYER
  2
SYMBOLLINE
 70
     0
 62
     7
  6
CONTINUOUS
  0
LAYER
  2
DEFPOINTS
 70
     0
 62
     7
  6
CONTINUOUS
  0
ENDTAB
  0
TABLE
  2
STYLE
 70
     5
  0
STYLE
  2
STANDARD
 70
     0
 40
0.0
 41
1.0
 50
0.0
 71
     0
 42
0.2
  3
txt
  4

  0
STYLE
  2
STANDARD1
 70
     0
 40
0.0
 41
1.0
 50
0.0
 71
     0
 42
40.0
  3
MONOTXT
  4
BIGFONT
  0
STYLE
  2
STANDARD2
 70
     4
 40
0.0
 41
1.0
 50
0.0
 71
     0
 42
40.0
  3
MONOTXT
  4
BIGFONT
  0
STYLE
  2
STANDARD3
 70
     0
 40
0.0
 41
1.0
 50
0.0
 71
     0
 42
40.0
  3
MONOTXT
  4

  0
STYLE
  2
STANDARD4
 70
     4
 40
0.0
 41
1.0
 50
0.0
 71
     0
 42
40.0
  3
MONOTXT
  4

  0
ENDTAB
  0
TABLE
  2
VIEW
 70
     0
  0
ENDTAB
  0
TABLE
  2
UCS
 70
     0
  0
ENDTAB
  0
TABLE
  2
APPID
 70
     1
  0
APPID
  2
ACAD
 70
     0
  0
ENDTAB
  0
TABLE
  2
DIMSTYLE
 70
     1
  0
DIMSTYLE
  2
STANDARD
 70
     0
  3

  4

  5

  6

  7

 40
1.0
 41
0.18
 42
0.0625
 43
0.38
 44
0.18
 45
0.0
 46
0.0
 47
0.0
 48
0.0
140
0.18
141
0.09
142
0.0
143
25.4
144
1.0
145
0.0
146
1.0
147
0.09
 71
     0
 72
     0
 73
     1
 74
     1
 75
     0
 76
     0
 77
     0
 78
     0
170
     0
171
     2
172
     0
173
     0
174
     0
175
     0
176
     0
177
     0
178
     0
  0
ENDTAB
  0
ENDSEC
  0
SECTION
  2
BLOCKS
  0
BLOCK
  8
0
  2
$MODEL_SPACE
 70
     0
 10
0.0
 20
0.0
 30
0.0
  3
$MODEL_SPACE
  1

  0
ENDBLK
  5
1A
  8
0
  0
BLOCK
 67
     1
  8
0
  2
$PAPER_SPACE
 70
     0
 10
0.0
 20
0.0
 30
0.0
  3
$PAPER_SPACE
  1

  0
ENDBLK
  5
17
 67
     1
  8
0
  0
BLOCK
  8
SIZE
  2
*D0
 70
     1
 10
0.0
 20
0.0
 30
0.0
  3
*D0
  1

  0
TEXT
  5
35
  8
SIZE
  6
CONTINUOUS
 10
-365.999994
 20
59.613087
 30
0.0
 40
2.8
  1
124
 50
90.000005
 41
0.7
  7
STANDARD1
  0
LINE
  5
36
  8
SIZE
  6
CONTINUOUS
 10
-186.0
 20
124.0
 30
0.0
 11
-367.0
 21
124.0
 31
0.0
  0
LINE
  5
37
  8
SIZE
  6
CONTINUOUS
 10
-144.0
 20
0.0
 30
0.0
 11
-367.0
 21
0.0
 31
0.0
  0
LINE
  5
38
  8
SIZE
  6
CONTINUOUS
 10
-365.0
 20
124.0
 30
0.0
 11
-365.0
 21
0.0
 31
0.0
  0
INSERT
  5
3A
  8
SIZE
  2
DOT
 10
-365.0
 20
124.0
 30
0.0
 50
90.0
  0
INSERT
  5
3B
  8
SIZE
  2
DOT
 10
-365.0
 20
0.0
 30
0.0
 50
270.0
  0
POINT
  5
3C
  8
DEFPOINTS
  6
BYBLOCK
 10
-143.0
 20
0.0
 30
0.0
  0
POINT
  5
3D
  8
DEFPOINTS
  6
BYBLOCK
 10
-185.0
 20
124.0
 30
0.0
  0
POINT
  5
3E
  8
DEFPOINTS
  6
BYBLOCK
 10
-365.0
 20
124.0
 30
0.0
  0
ENDBLK
  5
3F
  8
SIZE
  0
BLOCK
  8
SIZE
  2
DOT
 70
     0
 10
0.0
 20
0.0
 30
0.0
  3
DOT
  1

  0
POLYLINE
  5
41
  8
0
  6
BYBLOCK
 66
     1
 10
0.0
 20
0.0
 30
0.0
 70
     1
 40
0.5
 41
0.5
  0
VERTEX
  5
42
  8
0
  6
BYBLOCK
 10
-0.25
 20
0.0
 30
0.0
 42
1.0
  0
VERTEX
  5
43
  8
0
  6
BYBLOCK
 10
0.25
 20
0.0
 30
0.0
 42
1.0
  0
SEQEND
  5
44
  8
0
  6
BYBLOCK
  0
LINE
  5
45
  8
0
  6
BYBLOCK
 10
-0.5
 20
0.0
 30
0.0
 11
-1.0
 21
0.0
 31
0.0
  0
ENDBLK
  5
46
  8
SIZE
  0
BLOCK
  8
SIZE
  2
*D2
 70
     1
 10
0.0
 20
0.0
 30
0.0
  3
*D2
  1

  0
TEXT
  5
49
  8
SIZE
  6
CONTINUOUS
 10
-83.902031
 20
-349.000006
 30
0.0
 40
2.8
  1
165
 50
0.000003
 41
0.7
  7
STANDARD1
  0
LINE
  5
4A
  8
SIZE
  6
CONTINUOUS
 10
-165.0
 20
103.0
 30
0.0
 11
-165.0
 21
-352.0
 31
0.0
  0
LINE
  5
4B
  8
SIZE
  6
CONTINUOUS
 10
0.0
 20
-51.245148
 30
0.0
 11
0.0
 21
-352.0
 31
0.0
  0
LINE
  5
4C
  8
SIZE
  6
CONTINUOUS
 10
-165.0
 20
-350.0
 30
0.0
 11
0.0
 21
-350.0
 31
0.0
  0
INSERT
  5
4D
  8
SIZE
  2
DOT
 10
-165.0
 20
-350.0
 30
0.0
 50
180.0
  0
INSERT
  5
4E
  8
SIZE
  2
DOT
 10
0.0
 20
-350.0
 30
0.0
  0
POINT
  5
4F
  8
DEFPOINTS
  6
BYBLOCK
 10
0.0
 20
-50.245148
 30
0.0
  0
POINT
  5
50
  8
DEFPOINTS
  6
BYBLOCK
 10
-165.0
 20
104.0
 30
0.0
  0
POINT
  5
51
  8
DEFPOINTS
  6
BYBLOCK
 10
-165.0
 20
-350.0
 30
0.0
  0
ENDBLK
  5
52
  8
SIZE
  0
BLOCK
  8
SIZE
  2
*D3
 70
     1
 10
0.0
 20
0.0
 30
0.0
  3
*D3
  1

  0
TEXT
  5
55
  8
SIZE
  6
CONTINUOUS
 10
179.0
 20
-149.000006
 30
0.0
 40
2.8
  1
5
 50
0.000003
 41
0.7
  7
STANDARD1
  0
LINE
  5
56
  8
SIZE
  6
CONTINUOUS
 10
247.0
 20
-21.0
 30
0.0
 11
247.0
 21
-152.0
 31
0.0
  0
LINE
  5
57
  8
SIZE
  6
CONTINUOUS
 10
242.0
 20
-21.0
 30
0.0
 11
242.0
 21
-152.0
 31
0.0
  0
LINE
  5
58
  8
SIZE
  6
CONTINUOUS
 10
252.0
 20
-150.0
 30
0.0
 11
177.600006
 21
-150.0
 31
0.0
  0
INSERT
  5
59
  8
SIZE
  2
DOT
 10
247.0
 20
-150.0
 30
0.0
  0
INSERT
  5
5A
  8
SIZE
  2
DOT
 10
242.0
 20
-150.0
 30
0.0
 50
180.0
  0
POINT
  5
5B
  8
DEFPOINTS
  6
BYBLOCK
 10
242.0
 20
-20.0
 30
0.0
  0
POINT
  5
5C
  8
DEFPOINTS
  6
BYBLOCK
 10
247.0
 20
-20.0
 30
0.0
  0
POINT
  5
5D
  8
DEFPOINTS
  6
BYBLOCK
 10
247.0
 20
-150.0
 30
0.0
  0
ENDBLK
  5
5E
  8
SIZE
  0
BLOCK
  8
SIZE
  2
*D4
 70
     1
 10
0.0
 20
0.0
 30
0.0
  3
*D4
  1

  0
TEXT
  5
61
  8
SIZE
  6
CONTINUOUS
 10
118.052414
 20
-249.000006
 30
0.0
 40
2.8
  1
247
 50
0.000003
 41
0.7
  7
STANDARD1
  0
LINE
  5
62
  8
SIZE
  6
CONTINUOUS
 10
0.0
 20
-51.245148
 30
0.0
 11
0.0
 21
-252.0
 31
0.0
  0
LINE
  5
63
  8
SIZE
  6
CONTINUOUS
 10
247.0
 20
-21.0
 30
0.0
 11
247.0
 21
-252.0
 31
0.0
  0
LINE
  5
64
  8
SIZE
  6
CONTINUOUS
 10
0.0
 20
-250.0
 30
0.0
 11
247.0
 21
-250.0
 31
0.0
  0
INSERT
  5
65
  8
SIZE
  2
DOT
 10
0.0
 20
-250.0
 30
0.0
 50
180.0
  0
INSERT
  5
66
  8
SIZE
  2
DOT
 10
247.0
 20
-250.0
 30
0.0
  0
POINT
  5
67
  8
DEFPOINTS
  6
BYBLOCK
 10
247.0
 20
-20.0
 30
0.0
  0
POINT
  5
68
  8
DEFPOINTS
  6
BYBLOCK
 10
0.0
 20
-50.245148
 30
0.0
  0
POINT
  5
69
  8
DEFPOINTS
  6
BYBLOCK
 10
0.0
 20
-250.0
 30
0.0
  0
ENDBLK
  5
6A
  8
SIZE
  0
BLOCK
  8
SIZE
  2
*D5
 70
     1
 10
0.0
 20
0.0
 30
0.0
  3
*D5
  1

  0
TEXT
  5
6D
  8
SIZE
  6
CONTINUOUS
 10
-66.915207
 20
-249.000006
 30
0.0
 40
2.8
  1
123
 50
0.000003
 41
0.7
  7
STANDARD1
  0
LINE
  5
6E
  8
SIZE
  6
CONTINUOUS
 10
0.0
 20
-51.245148
 30
0.0
 11
0.0
 21
-252.0
 31
0.0
  0
LINE
  5
6F
  8
SIZE
  6
CONTINUOUS
 10
-123.0
 20
-21.0
 30
0.0
 11
-123.0
 21
-252.0
 31
0.0
  0
LINE
  5
70
  8
SIZE
  6
CONTINUOUS
 10
0.0
 20
-250.0
 30
0.0
 11
-123.0
 21
-250.0
 31
0.0
  0
INSERT
  5
71
  8
SIZE
  2
DOT
 10
0.0
 20
-250.0
 30
0.0
  0
INSERT
  5
72
  8
SIZE
  2
DOT
 10
-123.0
 20
-250.0
 30
0.0
 50
180.0
  0
POINT
  5
73
  8
DEFPOINTS
  6
BYBLOCK
 10
-123.0
 20
-20.0
 30
0.0
  0
POINT
  5
74
  8
DEFPOINTS
  6
BYBLOCK
 10
0.0
 20
-50.245148
 30
0.0
  0
POINT
  5
75
  8
DEFPOINTS
  6
BYBLOCK
 10
0.0
 20
-250.0
 30
0.0
  0
ENDBLK
  5
76
  8
SIZE
  0
BLOCK
  8
SIZE
  2
*D6
 70
     1
 10
0.0
 20
0.0
 30
0.0
  3
*D6
  1

  0
TEXT
  5
79
  8
SIZE
  6
CONTINUOUS
 10
663.999976
 20
72.059998
 30
0.0
 40
2.8
  1
150
 50
90.000005
 41
0.7
  7
STANDARD1
  0
LINE
  5
7A
  8
SIZE
  6
CONTINUOUS
 10
263.0
 20
0.0
 30
0.0
 11
667.0
 21
0.0
 31
0.0
  0
LINE
  5
7B
  8
SIZE
  6
CONTINUOUS
 10
266.0
 20
150.0
 30
0.0
 11
667.0
 21
150.0
 31
0.0
  0
LINE
  5
7C
  8
SIZE
  6
CONTINUOUS
 10
665.0
 20
0.0
 30
0.0
 11
665.0
 21
150.0
 31
0.0
  0
INSERT
  5
7D
  8
SIZE
  2
DOT
 10
665.0
 20
0.0
 30
0.0
 50
270.0
  0
INSERT
  5
7E
  8
SIZE
  2
DOT
 10
665.0
 20
150.0
 30
0.0
 50
90.0
  0
POINT
  5
7F
  8
DEFPOINTS
  6
BYBLOCK
 10
265.0
 20
150.0
 30
0.0
  0
POINT
  5
80
  8
DEFPOINTS
  6
BYBLOCK
 10
262.0
 20
0.0
 30
0.0
  0
POINT
  5
81
  8
DEFPOINTS
  6
BYBLOCK
 10
665.0
 20
0.0
 30
0.0
  0
ENDBLK
  5
82
  8
SIZE
  0
BLOCK
  8
SIZE
  2
*D7
 70
     1
 10
0.0
 20
0.0
 30
0.0
  3
*D7
  1

  0
TEXT
  5
85
  8
SIZE
  6
CONTINUOUS
 10
663.999976
 20
900.580017
 30
0.0
 40
2.8
  1
1509
 50
90.000005
 41
0.7
  7
STANDARD1
  0
LINE
  5
86
  8
SIZE
  6
CONTINUOUS
 10
266.0
 20
1659.0
 30
0.0
 11
667.0
 21
1659.0
 31
0.0
  0
LINE
  5
87
  8
SIZE
  6
CONTINUOUS
 10
266.0
 20
150.0
 30
0.0
 11
667.0
 21
150.0
 31
0.0
  0
LINE
  5
88
  8
SIZE
  6
CONTINUOUS
 10
665.0
 20
1659.0
 30
0.0
 11
665.0
 21
150.0
 31
0.0
  0
INSERT
  5
89
  8
SIZE
  2
DOT
 10
665.0
 20
1659.0
 30
0.0
 50
90.0
  0
INSERT
  5
8A
  8
SIZE
  2
DOT
 10
665.0
 20
150.0
 30
0.0
 50
270.0
  0
POINT
  5
8B
  8
DEFPOINTS
  6
BYBLOCK
 10
265.0
 20
150.0
 30
0.0
  0
POINT
  5
8C
  8
DEFPOINTS
  6
BYBLOCK
 10
265.0
 20
1659.0
 30
0.0
  0
POINT
  5
8D
  8
DEFPOINTS
  6
BYBLOCK
 10
665.0
 20
1659.0
 30
0.0
  0
ENDBLK
  5
8E
  8
SIZE
  0
BLOCK
  8
SIZE
  2
*D8
 70
     1
 10
0.0
 20
0.0
 30
0.0
  3
*D8
  1

  0
TEXT
  5
91
  8
SIZE
  6
CONTINUOUS
 10
763.999976
 20
928.347656
 30
0.0
 40
2.8
  1
1709
 50
90.000005
 41
0.7
  7
STANDARD1
  0
LINE
  5
92
  8
SIZE
  6
CONTINUOUS
 10
263.0
 20
0.0
 30
0.0
 11
767.0
 21
0.0
 31
0.0
  0
LINE
  5
93
  8
SIZE
  6
CONTINUOUS
 10
13.112693
 20
1709.0
 30
0.0
 11
767.0
 21
1709.0
 31
0.0
  0
LINE
  5
94
  8
SIZE
  6
CONTINUOUS
 10
765.0
 20
0.0
 30
0.0
 11
765.0
 21
1709.0
 31
0.0
  0
INSERT
  5
95
  8
SIZE
  2
DOT
 10
765.0
 20
0.0
 30
0.0
 50
270.0
  0
INSERT
  5
96
  8
SIZE
  2
DOT
 10
765.0
 20
1709.0
 30
0.0
 50
90.0
  0
POINT
  5
97
  8
DEFPOINTS
  6
BYBLOCK
 10
12.112693
 20
1709.0
 30
0.0
  0
POINT
  5
98
  8
DEFPOINTS
  6
BYBLOCK
 10
262.0
 20
0.0
 30
0.0
  0
POINT
  5
99
  8
DEFPOINTS
  6
BYBLOCK
 10
765.0
 20
0.0
 30
0.0
  0
ENDBLK
  5
9A
  8
SIZE
  0
BLOCK
  8
SIZE
  2
*D9
 70
     1
 10
0.0
 20
0.0
 30
0.0
  3
*D9
  1

  0
TEXT
  5
9D
  8
SIZE
  6
CONTINUOUS
 10
-7.497614
 20
-449.000006
 30
0.0
 40
2.8
  1
φ
 50
0.000003
 41
0.583333
  7
STANDARD1
  0
TEXT
  5
9E
  8
SIZE
  6
CONTINUOUS
 10
-5.537614
 20
-449.000006
 30
0.0
 40
2.8
  1
530
 50
0.000003
 41
0.7
  7
STANDARD1
  0
LINE
  5
9F
  8
SIZE
  6
CONTINUOUS
 10
265.0
 20
149.0
 30
0.0
 11
265.0
 21
-452.0
 31
0.0
  0
LINE
  5
A0
  8
SIZE
  6
CONTINUOUS
 10
-265.0
 20
149.0
 30
0.0
 11
-265.0
 21
-452.0
 31
0.0
  0
LINE
  5
A1
  8
SIZE
  6
CONTINUOUS
 10
265.0
 20
-450.0
 30
0.0
 11
-265.0
 21
-450.0
 31
0.0
  0
INSERT
  5
A2
  8
SIZE
  2
DOT
 10
265.0
 20
-450.0
 30
0.0
  0
INSERT
  5
A3
  8
SIZE
  2
DOT
 10
-265.0
 20
-450.0
 30
0.0
 50
180.0
  0
POINT
  5
A4
  8
DEFPOINTS
  6
BYBLOCK
 10
-265.0
 20
150.0
 30
0.0
  0
POINT
  5
A5
  8
DEFPOINTS
  6
BYBLOCK
 10
265.0
 20
150.0
 30
0.0
  0
POINT
  5
A6
  8
DEFPOINTS
  6
BYBLOCK
 10
265.0
 20
-450.0
 30
0.0
  0
ENDBLK
  5
A7
  8
SIZE
  0
BLOCK
  8
SIZE
  2
*D10
 70
     1
 10
0.0
 20
0.0
 30
0.0
  3
*D10
  1

  0
TEXT
  5
AA
  8
SIZE
  6
CONTINUOUS
 10
-465.999994
 20
103.156044
 30
0.0
 40
2.8
  1
210
 50
90.000005
 41
0.7
  7
STANDARD1
  0
LINE
  5
AB
  8
SIZE
  6
CONTINUOUS
 10
-254.643555
 20
211.0
 30
0.0
 11
-467.0
 21
211.0
 31
0.0
  0
LINE
  5
AC
  8
SIZE
  6
CONTINUOUS
 10
-159.466568
 20
0.0
 30
0.0
 11
-467.0
 21
0.0
 31
0.0
  0
LINE
  5
AD
  8
SIZE
  6
CONTINUOUS
 10
-465.0
 20
211.0
 30
0.0
 11
-465.0
 21
0.0
 31
0.0
  0
INSERT
  5
AE
  8
SIZE
  2
DOT
 10
-465.0
 20
211.0
 30
0.0
 50
90.0
  0
INSERT
  5
AF
  8
SIZE
  2
DOT
 10
-465.0
 20
0.0
 30
0.0
 50
270.0
  0
POINT
  5
B0
  8
DEFPOINTS
  6
BYBLOCK
 10
-158.466568
 20
0.0
 30
0.0
  0
POINT
  5
B1
  8
DEFPOINTS
  6
BYBLOCK
 10
-253.643555
 20
211.0
 30
0.0
  0
POINT
  5
B2
  8
DEFPOINTS
  6
BYBLOCK
 10
-465.0
 20
211.0
 30
0.0
  0
ENDBLK
  5
B3
  8
SIZE
  0
BLOCK
  8
SIZE
  2
*D11
 70
     1
 10
0.0
 20
0.0
 30
0.0
  3
*D11
  1

  0
TEXT
  5
B6
  8
SIZE
  6
CONTINUOUS
 10
-918.919983
 20
2309.999902
 30
0.0
 40
2.8
  1
1300
 50
0.000003
 41
0.7
  7
STANDARD1
  0
LINE
  5
B7
  8
SIZE
  6
CONTINUOUS
 10
-265.0
 20
2160.0
 30
0.0
 11
-265.0
 21
2311.0
 31
0.0
  0
LINE
  5
B8
  8
SIZE
  6
CONTINUOUS
 10
-1565.0
 20
2160.0
 30
0.0
 11
-1565.0
 21
2311.0
 31
0.0
  0
LINE
  5
B9
  8
SIZE
  6
CONTINUOUS
 10
-265.0
 20
2309.0
 30
0.0
 11
-1565.0
 21
2309.0
 31
0.0
  0
INSERT
  5
BA
  8
SIZE
  2
DOT
 10
-265.0
 20
2309.0
 30
0.0
  0
INSERT
  5
BB
  8
SIZE
  2
DOT
 10
-1565.0
 20
2309.0
 30
0.0
 50
180.0
  0
POINT
  5
BC
  8
DEFPOINTS
  6
BYBLOCK
 10
-1565.0
 20
2159.0
 30
0.0
  0
POINT
  5
BD
  8
DEFPOINTS
  6
BYBLOCK
 10
-265.0
 20
2159.0
 30
0.0
  0
POINT
  5
BE
  8
DEFPOINTS
  6
BYBLOCK
 10
-265.0
 20
2309.0
 30
0.0
  0
ENDBLK
  5
BF
  8
SIZE
  0
BLOCK
  8
SIZE
  2
*D12
 70
     1
 10
0.0
 20
0.0
 30
0.0
  3
*D12
  1

  0
TEXT
  5
C2
  8
SIZE
  6
CONTINUOUS
 10
-1716.000024
 20
1075.579956
 30
0.0
 40
2.8
  1
2159
 50
90.000005
 41
0.7
  7
STANDARD1
  0
LINE
  5
C3
  8
SIZE
  6
CONTINUOUS
 10
-1566.0
 20
2159.0
 30
0.0
 11
-1717.0
 21
2159.0
 31
0.0
  0
LINE
  5
C4
  8
SIZE
  6
CONTINUOUS
 10
-1566.0
 20
0.0
 30
0.0
 11
-1717.0
 21
0.0
 31
0.0
  0
LINE
  5
C5
  8
SIZE
  6
CONTINUOUS
 10
-1715.0
 20
2159.0
 30
0.0
 11
-1715.0
 21
0.0
 31
0.0
  0
INSERT
  5
C6
  8
SIZE
  2
DOT
 10
-1715.0
 20
2159.0
 30
0.0
 50
90.0
  0
INSERT
  5
C7
  8
SIZE
  2
DOT
 10
-1715.0
 20
0.0
 30
0.0
 50
270.0
  0
POINT
  5
C8
  8
DEFPOINTS
  6
BYBLOCK
 10
-1565.0
 20
0.0
 30
0.0
  0
POINT
  5
C9
  8
DEFPOINTS
  6
BYBLOCK
 10
-1565.0
 20
2159.0
 30
0.0
  0
POINT
  5
CA
  8
DEFPOINTS
  6
BYBLOCK
 10
-1715.0
 20
2159.0
 30
0.0
  0
ENDBLK
  5
CB
  8
SIZE
  0
BLOCK
  8
SIZE
  2
*D13
 70
     1
 10
0.0
 20
0.0
 30
0.0
  3
*D13
  1

  0
TEXT
  5
CE
  8
SIZE
  6
CONTINUOUS
 10
-2.94
 20
2309.999902
 30
0.0
 40
2.8
  1
530
 50
0.000003
 41
0.7
  7
STANDARD1
  0
LINE
  5
CF
  8
SIZE
  6
CONTINUOUS
 10
-265.0
 20
2160.0
 30
0.0
 11
-265.0
 21
2311.0
 31
0.0
  0
LINE
  5
D0
  8
SIZE
  6
CONTINUOUS
 10
265.0
 20
2160.0
 30
0.0
 11
265.0
 21
2311.0
 31
0.0
  0
LINE
  5
D1
  8
SIZE
  6
CONTINUOUS
 10
-265.0
 20
2309.0
 30
0.0
 11
265.0
 21
2309.0
 31
0.0
  0
INSERT
  5
D2
  8
SIZE
  2
DOT
 10
-265.0
 20
2309.0
 30
0.0
 50
180.0
  0
INSERT
  5
D3
  8
SIZE
  2
DOT
 10
265.0
 20
2309.0
 30
0.0
  0
POINT
  5
D4
  8
DEFPOINTS
  6
BYBLOCK
 10
265.0
 20
2159.0
 30
0.0
  0
POINT
  5
D5
  8
DEFPOINTS
  6
BYBLOCK
 10
-265.0
 20
2159.0
 30
0.0
  0
POINT
  5
D6
  8
DEFPOINTS
  6
BYBLOCK
 10
-265.0
 20
2309.0
 30
0.0
  0
ENDBLK
  5
D7
  8
SIZE
  0
BLOCK
  8
SIZE
  2
*D14
 70
     1
 10
0.0
 20
0.0
 30
0.0
  3
*D14
  1

  0
TEXT
  5
DA
  8
SIZE
  6
CONTINUOUS
 10
513.999976
 20
1906.060059
 30
0.0
 40
2.8
  1
500
 50
90.000005
 41
0.7
  7
STANDARD1
  0
LINE
  5
DB
  8
SIZE
  6
CONTINUOUS
 10
266.0
 20
1659.0
 30
0.0
 11
517.0
 21
1659.0
 31
0.0
  0
LINE
  5
DC
  8
SIZE
  6
CONTINUOUS
 10
266.0
 20
2159.0
 30
0.0
 11
517.0
 21
2159.0
 31
0.0
  0
LINE
  5
DD
  8
SIZE
  6
CONTINUOUS
 10
515.0
 20
1659.0
 30
0.0
 11
515.0
 21
2159.0
 31
0.0
  0
INSERT
  5
DE
  8
SIZE
  2
DOT
 10
515.0
 20
1659.0
 30
0.0
 50
270.0
  0
INSERT
  5
DF
  8
SIZE
  2
DOT
 10
515.0
 20
2159.0
 30
0.0
 50
90.0
  0
POINT
  5
E0
  8
DEFPOINTS
  6
BYBLOCK
 10
265.0
 20
2159.0
 30
0.0
  0
POINT
  5
E1
  8
DEFPOINTS
  6
BYBLOCK
 10
265.0
 20
1659.0
 30
0.0
  0
POINT
  5
E2
  8
DEFPOINTS
  6
BYBLOCK
 10
515.0
 20
1659.0
 30
0.0
  0
ENDBLK
  5
E3
  8
SIZE
  0
BLOCK
  8
SIZE
  2
*D15
 70
     1
 10
0.0
 20
0.0
 30
0.0
  3
*D15
  1

  0
TEXT
  5
E6
  8
SIZE
  6
CONTINUOUS
 10
663.999976
 20
1743.243164
 30
0.0
 40
2.8
  1
50
 50
90.000005
 41
0.7
  7
STANDARD1
  0
LINE
  5
E7
  8
SIZE
  6
CONTINUOUS
 10
13.112693
 20
1709.0
 30
0.0
 11
667.0
 21
1709.0
 31
0.0
  0
LINE
  5
E8
  8
SIZE
  6
CONTINUOUS
 10
266.0
 20
1659.0
 30
0.0
 11
667.0
 21
1659.0
 31
0.0
  0
LINE
  5
E9
  8
SIZE
  6
CONTINUOUS
 10
665.0
 20
1748.56311
 30
0.0
 11
665.0
 21
1654.0
 31
0.0
  0
INSERT
  5
EA
  8
SIZE
  2
DOT
 10
665.0
 20
1709.0
 30
0.0
 50
90.0
  0
INSERT
  5
EB
  8
SIZE
  2
DOT
 10
665.0
 20
1659.0
 30
0.0
 50
270.0
  0
POINT
  5
EC
  8
DEFPOINTS
  6
BYBLOCK
 10
265.0
 20
1659.0
 30
0.0
  0
POINT
  5
ED
  8
DEFPOINTS
  6
BYBLOCK
 10
12.112693
 20
1709.0
 30
0.0
  0
POINT
  5
EE
  8
DEFPOINTS
  6
BYBLOCK
 10
665.0
 20
1709.0
 30
0.0
  0
ENDBLK
  5
EF
  8
SIZE
  0
BLOCK
  8
SIZE
  2
*D16
 70
     1
 10
0.0
 20
0.0
 30
0.0
  3
*D16
  1

  0
TEXT
  5
F2
  8
SIZE
  6
CONTINUOUS
 10
414.000006
 20
1740.540527
 30
0.0
 40
2.8
  1
18
 50
90.000005
 41
0.7
  7
STANDARD1
  0
LINE
  5
F3
  8
SIZE
  6
CONTINUOUS
 10
56.204582
 20
1692.0
 30
0.0
 11
417.0
 21
1692.0
 31
0.0
  0
LINE
  5
F4
  8
SIZE
  6
CONTINUOUS
 10
86.0
 20
1674.0
 30
0.0
 11
417.0
 21
1674.0
 31
0.0
  0
LINE
  5
F5
  8
SIZE
  6
CONTINUOUS
 10
415.0
 20
1745.860474
 30
0.0
 11
415.0
 21
1669.0
 31
0.0
  0
INSERT
  5
F6
  8
SIZE
  2
DOT
 10
415.0
 20
1692.0
 30
0.0
 50
90.0
  0
INSERT
  5
F7
  8
SIZE
  2
DOT
 10
415.0
 20
1674.0
 30
0.0
 50
270.0
  0
POINT
  5
F8
  8
DEFPOINTS
  6
BYBLOCK
 10
85.0
 20
1674.0
 30
0.0
  0
POINT
  5
F9
  8
DEFPOINTS
  6
BYBLOCK
 10
55.204582
 20
1692.0
 30
0.0
  0
POINT
  5
FA
  8
DEFPOINTS
  6
BYBLOCK
 10
415.0
 20
1692.0
 30
0.0
  0
ENDBLK
  5
FB
  8
SIZE
  0
BLOCK
  8
SIZE
  2
*D17
 70
     1
 10
0.0
 20
0.0
 30
0.0
  3
*D17
  1

  0
TEXT
  5
FE
  8
SIZE
  6
CONTINUOUS
 10
414.000006
 20
1583.05603
 30
0.0
 40
2.8
  1
15
 50
90.000005
 41
0.7
  7
STANDARD1
  0
LINE
  5
FF
  8
SIZE
  6
CONTINUOUS
 10
86.0
 20
1674.0
 30
0.0
 11
417.0
 21
1674.0
 31
0.0
  0
LINE
  5
100
  8
SIZE
  6
CONTINUOUS
 10
266.0
 20
1659.0
 30
0.0
 11
417.0
 21
1659.0
 31
0.0
  0
LINE
  5
101
  8
SIZE
  6
CONTINUOUS
 10
415.0
 20
1679.0
 30
0.0
 11
415.0
 21
1581.656006
 31
0.0
  0
INSERT
  5
102
  8
SIZE
  2
DOT
 10
415.0
 20
1674.0
 30
0.0
 50
90.0
  0
INSERT
  5
103
  8
SIZE
  2
DOT
 10
415.0
 20
1659.0
 30
0.0
 50
270.0
  0
POINT
  5
104
  8
DEFPOINTS
  6
BYBLOCK
 10
265.0
 20
1659.0
 30
0.0
  0
POINT
  5
105
  8
DEFPOINTS
  6
BYBLOCK
 10
85.0
 20
1674.0
 30
0.0
  0
POINT
  5
106
  8
DEFPOINTS
  6
BYBLOCK
 10
415.0
 20
1674.0
 30
0.0
  0
ENDBLK
  5
107
  8
SIZE
  0
BLOCK
  8
0
  2
_ORIGIN
 70
     0
 10
0.0
 20
0.0
 30
0.0
  3
_ORIGIN
  1

  0
CIRCLE
  5
10A
  8
0
  6
BYBLOCK
 62
     0
 10
0.0
 20
0.0
 30
0.0
 40
0.5
  0
LINE
  5
10B
  8
0
  6
BYBLOCK
 62
     0
 10
0.0
 20
0.0
 30
0.0
 11
-1.0
 21
0.0
 31
0.0
  0
ENDBLK
  5
10C
  8
0
  0
BLOCK
  8
0
  2
*D19
 70
     1
 10
0.0
 20
0.0
 30
0.0
  3
*D19
  1

  0
LINE
  5
10F
  8
0
  6
BYBLOCK
 62
     0
 10
275.0
 20
1659.0
 30
0.0
 11
425.1
 21
1659.0
 31
0.0
  0
LINE
  5
110
  8
0
  6
BYBLOCK
 62
     0
 10
95.0
 20
1674.0
 30
0.0
 11
425.1
 21
1674.0
 31
0.0
  0
LINE
  5
111
  8
0
  6
BYBLOCK
 62
     0
 10
412.6
 20
1684.0
 30
0.0
 11
412.6
 21
1694.0
 31
0.0
  0
LINE
  5
112
  8
0
  6
BYBLOCK
 62
     0
 10
412.6
 20
1649.0
 30
0.0
 11
412.6
 21
1555.01603
 31
0.0
  0
LINE
  5
113
  8
0
  6
BYBLOCK
 62
     0
 10
412.6
 20
1674.0
 30
0.0
 11
412.6
 21
1659.0
 31
0.0
  0
INSERT
  5
114
  8
0
  6
BYBLOCK
 62
     0
  2
_ORIGIN
 10
412.6
 20
1674.0
 30
0.0
 41
10.0
 42
10.0
 43
10.0
 50
270.0
  0
INSERT
  5
115
  8
0
  6
BYBLOCK
 62
     0
  2
_ORIGIN
 10
412.6
 20
1659.0
 30
0.0
 41
10.0
 42
10.0
 43
10.0
 50
90.0
  0
TEXT
  5
116
  8
0
  6
BYBLOCK
 62
     0
 10
402.6
 20
1565.01603
 30
0.0
 40
30.0
  1
15
 50
90.0
 72
     1
 11
402.6
 21
1585.01603
 31
0.0
  0
POINT
  5
117
  8
DEFPOINTS
  6
BYBLOCK
 62
     0
 10
265.0
 20
1659.0
 30
0.0
  0
POINT
  5
118
  8
DEFPOINTS
  6
BYBLOCK
 62
     0
 10
85.0
 20
1674.0
 30
0.0
  0
POINT
  5
119
  8
DEFPOINTS
  6
BYBLOCK
 62
     0
 10
412.6
 20
1674.0
 30
0.0
  0
ENDBLK
  5
11A
  8
0
  0
BLOCK
  8
0
  2
*D20
 70
     1
 10
0.0
 20
0.0
 30
0.0
  3
*D20
  1

  0
LINE
  5
11D
  8
0
  6
BYBLOCK
 62
     0
 10
95.0
 20
1674.0
 30
0.0
 11
425.1
 21
1674.0
 31
0.0
  0
LINE
  5
11E
  8
0
  6
BYBLOCK
 62
     0
 10
65.204582
 20
1692.0
 30
0.0
 11
425.1
 21
1692.0
 31
0.0
  0
LINE
  5
11F
  8
0
  6
BYBLOCK
 62
     0
 10
412.6
 20
1664.0
 30
0.0
 11
412.6
 21
1654.0
 31
0.0
  0
LINE
  5
120
  8
0
  6
BYBLOCK
 62
     0
 10
412.6
 20
1702.0
 30
0.0
 11
412.6
 21
1772.500527
 31
0.0
  0
LINE
  5
121
  8
0
  6
BYBLOCK
 62
     0
 10
412.6
 20
1674.0
 30
0.0
 11
412.6
 21
1692.0
 31
0.0
  0
INSERT
  5
122
  8
0
  6
BYBLOCK
 62
     0
  2
_ORIGIN
 10
412.6
 20
1674.0
 30
0.0
 41
10.0
 42
10.0
 43
10.0
 50
90.0
  0
INSERT
  5
123
  8
0
  6
BYBLOCK
 62
     0
  2
_ORIGIN
 10
412.6
 20
1692.0
 30
0.0
 41
10.0
 42
10.0
 43
10.0
 50
270.0
  0
TEXT
  5
124
  8
0
  6
BYBLOCK
 62
     0
 10
402.6
 20
1722.500527
 30
0.0
 40
30.0
  1
18
 50
90.0
 72
     1
 11
402.6
 21
1742.500527
 31
0.0
  0
POINT
  5
125
  8
DEFPOINTS
  6
BYBLOCK
 62
     0
 10
85.0
 20
1674.0
 30
0.0
  0
POINT
  5
126
  8
DEFPOINTS
  6
BYBLOCK
 62
     0
 10
55.204582
 20
1692.0
 30
0.0
  0
POINT
  5
127
  8
DEFPOINTS
  6
BYBLOCK
 62
     0
 10
412.6
 20
1692.0
 30
0.0
  0
ENDBLK
  5
128
  8
0
  0
BLOCK
  8
0
  2
*D21
 70
     1
 10
0.0
 20
0.0
 30
0.0
  3
*D21
  1

  0
LINE
  5
12B
  8
0
  6
BYBLOCK
 62
     0
 10
275.0
 20
1659.0
 30
0.0
 11
675.1
 21
1659.0
 31
0.0
  0
LINE
  5
12C
  8
0
  6
BYBLOCK
 62
     0
 10
22.112693
 20
1709.0
 30
0.0
 11
675.1
 21
1709.0
 31
0.0
  0
LINE
  5
12D
  8
0
  6
BYBLOCK
 62
     0
 10
662.6
 20
1669.0
 30
0.0
 11
662.6
 21
1699.0
 31
0.0
  0
LINE
  5
12E
  8
0
  6
BYBLOCK
 62
     0
 10
662.6
 20
1709.0
 30
0.0
 11
662.6
 21
1784.0
 31
0.0
  0
INSERT
  5
12F
  8
0
  6
BYBLOCK
 62
     0
  2
_ORIGIN
 10
662.6
 20
1659.0
 30
0.0
 41
10.0
 42
10.0
 43
10.0
 50
270.0
  0
INSERT
  5
130
  8
0
  6
BYBLOCK
 62
     0
  2
_ORIGIN
 10
662.6
 20
1709.0
 30
0.0
 41
10.0
 42
10.0
 43
10.0
 50
90.0
  0
TEXT
  5
131
  8
0
  6
BYBLOCK
 62
     0
 10
652.6
 20
1729.0
 30
0.0
 40
30.0
  1
50
 50
90.0
 72
     1
 11
652.6
 21
1751.5
 31
0.0
  0
POINT
  5
132
  8
DEFPOINTS
  6
BYBLOCK
 62
     0
 10
265.0
 20
1659.0
 30
0.0
  0
POINT
  5
133
  8
DEFPOINTS
  6
BYBLOCK
 62
     0
 10
12.112693
 20
1709.0
 30
0.0
  0
POINT
  5
134
  8
DEFPOINTS
  6
BYBLOCK
 62
     0
 10
662.6
 20
1709.0
 30
0.0
  0
ENDBLK
  5
135
  8
0
  0
BLOCK
  8
0
  2
*D22
 70
     1
 10
0.0
 20
0.0
 30
0.0
  3
*D22
  1

  0
LINE
  5
138
  8
0
  6
BYBLOCK
 62
     0
 10
275.0
 20
2159.0
 30
0.0
 11
525.1
 21
2159.0
 31
0.0
  0
LINE
  5
139
  8
0
  6
BYBLOCK
 62
     0
 10
275.0
 20
1659.0
 30
0.0
 11
525.1
 21
1659.0
 31
0.0
  0
LINE
  5
13A
  8
0
  6
BYBLOCK
 62
     0
 10
512.6
 20
2149.0
 30
0.0
 11
512.6
 21
1669.0
 31
0.0
  0
INSERT
  5
13B
  8
0
  6
BYBLOCK
 62
     0
  2
_ORIGIN
 10
512.6
 20
2159.0
 30
0.0
 41
10.0
 42
10.0
 43
10.0
 50
90.0
  0
INSERT
  5
13C
  8
0
  6
BYBLOCK
 62
     0
  2
_ORIGIN
 10
512.6
 20
1659.0
 30
0.0
 41
10.0
 42
10.0
 43
10.0
 50
270.0
  0
TEXT
  5
13D
  8
0
  6
BYBLOCK
 62
     0
 10
502.6
 20
1874.0
 30
0.0
 40
30.0
  1
500
 50
90.0
 72
     1
 11
502.6
 21
1909.0
 31
0.0
  0
POINT
  5
13E
  8
DEFPOINTS
  6
BYBLOCK
 62
     0
 10
265.0
 20
2159.0
 30
0.0
  0
POINT
  5
13F
  8
DEFPOINTS
  6
BYBLOCK
 62
     0
 10
265.0
 20
1659.0
 30
0.0
  0
POINT
  5
140
  8
DEFPOINTS
  6
BYBLOCK
 62
     0
 10
512.6
 20
1659.0
 30
0.0
  0
ENDBLK
  5
141
  8
0
  0
BLOCK
  8
0
  2
*D23
 70
     1
 10
0.0
 20
0.0
 30
0.0
  3
*D23
  1

  0
LINE
  5
144
  8
0
  6
BYBLOCK
 62
     0
 10
265.0
 20
2169.0
 30
0.0
 11
265.0
 21
2323.9
 31
0.0
  0
LINE
  5
145
  8
0
  6
BYBLOCK
 62
     0
 10
-265.0
 20
2169.0
 30
0.0
 11
-265.0
 21
2323.9
 31
0.0
  0
LINE
  5
146
  8
0
  6
BYBLOCK
 62
     0
 10
255.0
 20
2311.4
 30
0.0
 11
-255.0
 21
2311.4
 31
0.0
  0
INSERT
  5
147
  8
0
  6
BYBLOCK
 62
     0
  2
_ORIGIN
 10
265.0
 20
2311.4
 30
0.0
 41
10.0
 42
10.0
 43
10.0
  0
INSERT
  5
148
  8
0
  6
BYBLOCK
 62
     0
  2
_ORIGIN
 10
-265.0
 20
2311.4
 30
0.0
 41
10.0
 42
10.0
 43
10.0
 50
180.0
  0
TEXT
  5
149
  8
0
  6
BYBLOCK
 62
     0
 10
-37.5
 20
2321.4
 30
0.0
 40
30.0
  1
530
 72
     1
 11
0.0
 21
2321.4
 31
0.0
  0
POINT
  5
14A
  8
DEFPOINTS
  6
BYBLOCK
 62
     0
 10
265.0
 20
2159.0
 30
0.0
  0
POINT
  5
14B
  8
DEFPOINTS
  6
BYBLOCK
 62
     0
 10
-265.0
 20
2159.0
 30
0.0
  0
POINT
  5
14C
  8
DEFPOINTS
  6
BYBLOCK
 62
     0
 10
-265.0
 20
2311.4
 30
0.0
  0
ENDBLK
  5
14D
  8
0
  0
BLOCK
  8
0
  2
*D24
 70
     1
 10
0.0
 20
0.0
 30
0.0
  3
*D24
  1

  0
LINE
  5
150
  8
0
  6
BYBLOCK
 62
     0
 10
-1575.0
 20
0.0
 30
0.0
 11
-1729.9
 21
0.0
 31
0.0
  0
LINE
  5
151
  8
0
  6
BYBLOCK
 62
     0
 10
-1575.0
 20
2159.0
 30
0.0
 11
-1729.9
 21
2159.0
 31
0.0
  0
LINE
  5
152
  8
0
  6
BYBLOCK
 62
     0
 10
-1717.4
 20
10.0
 30
0.0
 11
-1717.4
 21
2149.0
 31
0.0
  0
INSERT
  5
153
  8
0
  6
BYBLOCK
 62
     0
  2
_ORIGIN
 10
-1717.4
 20
0.0
 30
0.0
 41
10.0
 42
10.0
 43
10.0
 50
270.0
  0
INSERT
  5
154
  8
0
  6
BYBLOCK
 62
     0
  2
_ORIGIN
 10
-1717.4
 20
2159.0
 30
0.0
 41
10.0
 42
10.0
 43
10.0
 50
90.0
  0
TEXT
  5
155
  8
0
  6
BYBLOCK
 62
     0
 10
-1727.4
 20
1029.5
 30
0.0
 40
30.0
  1
2159
 50
90.0
 72
     1
 11
-1727.4
 21
1079.5
 31
0.0
  0
POINT
  5
156
  8
DEFPOINTS
  6
BYBLOCK
 62
     0
 10
-1565.0
 20
0.0
 30
0.0
  0
POINT
  5
157
  8
DEFPOINTS
  6
BYBLOCK
 62
     0
 10
-1565.0
 20
2159.0
 30
0.0
  0
POINT
  5
158
  8
DEFPOINTS
  6
BYBLOCK
 62
     0
 10
-1717.4
 20
2159.0
 30
0.0
  0
ENDBLK
  5
159
  8
0
  0
BLOCK
  8
0
  2
*D25
 70
     1
 10
0.0
 20
0.0
 30
0.0
  3
*D25
  1

  0
LINE
  5
15C
  8
0
  6
BYBLOCK
 62
     0
 10
-1565.0
 20
2169.0
 30
0.0
 11
-1565.0
 21
2323.9
 31
0.0
  0
LINE
  5
15D
  8
0
  6
BYBLOCK
 62
     0
 10
-265.0
 20
2169.0
 30
0.0
 11
-265.0
 21
2323.9
 31
0.0
  0
LINE
  5
15E
  8
0
  6
BYBLOCK
 62
     0
 10
-1555.0
 20
2311.4
 30
0.0
 11
-275.0
 21
2311.4
 31
0.0
  0
INSERT
  5
15F
  8
0
  6
BYBLOCK
 62
     0
  2
_ORIGIN
 10
-1565.0
 20
2311.4
 30
0.0
 41
10.0
 42
10.0
 43
10.0
 50
180.0
  0
INSERT
  5
160
  8
0
  6
BYBLOCK
 62
     0
  2
_ORIGIN
 10
-265.0
 20
2311.4
 30
0.0
 41
10.0
 42
10.0
 43
10.0
  0
TEXT
  5
161
  8
0
  6
BYBLOCK
 62
     0
 10
-960.0
 20
2321.4
 30
0.0
 40
30.0
  1
1300
 72
     1
 11
-915.0
 21
2321.4
 31
0.0
  0
POINT
  5
162
  8
DEFPOINTS
  6
BYBLOCK
 62
     0
 10
-1565.0
 20
2159.0
 30
0.0
  0
POINT
  5
163
  8
DEFPOINTS
  6
BYBLOCK
 62
     0
 10
-265.0
 20
2159.0
 30
0.0
  0
POINT
  5
164
  8
DEFPOINTS
  6
BYBLOCK
 62
     0
 10
-265.0
 20
2311.4
 30
0.0
  0
ENDBLK
  5
165
  8
0
  0
BLOCK
  8
0
  2
*D26
 70
     1
 10
0.0
 20
0.0
 30
0.0
  3
*D26
  1

  0
LINE
  5
168
  8
0
  6
BYBLOCK
 62
     0
 10
-168.466568
 20
0.0
 30
0.0
 11
-479.9
 21
0.0
 31
0.0
  0
LINE
  5
169
  8
0
  6
BYBLOCK
 62
     0
 10
-263.643555
 20
211.0
 30
0.0
 11
-479.9
 21
211.0
 31
0.0
  0
LINE
  5
16A
  8
0
  6
BYBLOCK
 62
     0
 10
-467.4
 20
10.0
 30
0.0
 11
-467.4
 21
201.0
 31
0.0
  0
INSERT
  5
16B
  8
0
  6
BYBLOCK
 62
     0
  2
_ORIGIN
 10
-467.4
 20
0.0
 30
0.0
 41
10.0
 42
10.0
 43
10.0
 50
270.0
  0
INSERT
  5
16C
  8
0
  6
BYBLOCK
 62
     0
  2
_ORIGIN
 10
-467.4
 20
211.0
 30
0.0
 41
10.0
 42
10.0
 43
10.0
 50
90.0
  0
TEXT
  5
16D
  8
0
  6
BYBLOCK
 62
     0
 10
-477.4
 20
76.096046
 30
0.0
 40
30.0
  1
211
 50
90.0
 72
     1
 11
-477.4
 21
106.096046
 31
0.0
  0
POINT
  5
16E
  8
DEFPOINTS
  6
BYBLOCK
 62
     0
 10
-158.466568
 20
0.0
 30
0.0
  0
POINT
  5
16F
  8
DEFPOINTS
  6
BYBLOCK
 62
     0
 10
-253.643555
 20
211.0
 30
0.0
  0
POINT
  5
170
  8
DEFPOINTS
  6
BYBLOCK
 62
     0
 10
-467.4
 20
211.0
 30
0.0
  0
ENDBLK
  5
171
  8
0
  0
BLOCK
  8
0
  2
*D27
 70
     1
 10
0.0
 20
0.0
 30
0.0
  3
*D27
  1

  0
LINE
  5
174
  8
0
  6
BYBLOCK
 62
     0
 10
-265.0
 20
140.0
 30
0.0
 11
-265.0
 21
-462.5
 31
0.0
  0
LINE
  5
175
  8
0
  6
BYBLOCK
 62
     0
 10
265.0
 20
140.0
 30
0.0
 11
265.0
 21
-462.5
 31
0.0
  0
LINE
  5
176
  8
0
  6
BYBLOCK
 62
     0
 10
-255.0
 20
-450.0
 30
0.0
 11
255.0
 21
-450.0
 31
0.0
  0
INSERT
  5
177
  8
0
  6
BYBLOCK
 62
     0
  2
_ORIGIN
 10
-265.0
 20
-450.0
 30
0.0
 41
10.0
 42
10.0
 43
10.0
 50
180.0
  0
INSERT
  5
178
  8
0
  6
BYBLOCK
 62
     0
  2
_ORIGIN
 10
265.0
 20
-450.0
 30
0.0
 41
10.0
 42
10.0
 43
10.0
  0
TEXT
  5
179
  8
0
  6
BYBLOCK
 62
     0
 10
-37.5
 20
-440.0
 30
0.0
 40
30.0
  1
530
 72
     1
 11
0.0
 21
-440.0
 31
0.0
  0
POINT
  5
17A
  8
DEFPOINTS
  6
BYBLOCK
 62
     0
 10
-265.0
 20
150.0
 30
0.0
  0
POINT
  5
17B
  8
DEFPOINTS
  6
BYBLOCK
 62
     0
 10
265.0
 20
150.0
 30
0.0
  0
POINT
  5
17C
  8
DEFPOINTS
  6
BYBLOCK
 62
     0
 10
265.0
 20
-450.0
 30
0.0
  0
ENDBLK
  5
17D
  8
0
  0
BLOCK
  8
0
  2
*D28
 70
     1
 10
0.0
 20
0.0
 30
0.0
  3
*D28
  1

  0
LINE
  5
180
  8
0
  6
BYBLOCK
 62
     0
 10
22.112693
 20
1709.0
 30
0.0
 11
775.1
 21
1709.0
 31
0.0
  0
LINE
  5
181
  8
0
  6
BYBLOCK
 62
     0
 10
272.0
 20
0.0
 30
0.0
 11
775.1
 21
0.0
 31
0.0
  0
LINE
  5
182
  8
0
  6
BYBLOCK
 62
     0
 10
762.6
 20
1699.0
 30
0.0
 11
762.6
 21
10.0
 31
0.0
  0
INSERT
  5
183
  8
0
  6
BYBLOCK
 62
     0
  2
_ORIGIN
 10
762.6
 20
1709.0
 30
0.0
 41
10.0
 42
10.0
 43
10.0
 50
90.0
  0
INSERT
  5
184
  8
0
  6
BYBLOCK
 62
     0
  2
_ORIGIN
 10
762.6
 20
0.0
 30
0.0
 41
10.0
 42
10.0
 43
10.0
 50
270.0
  0
TEXT
  5
185
  8
0
  6
BYBLOCK
 62
     0
 10
752.6
 20
884.767639
 30
0.0
 40
30.0
  1
1709
 50
90.0
 72
     1
 11
752.6
 21
932.267639
 31
0.0
  0
POINT
  5
186
  8
DEFPOINTS
  6
BYBLOCK
 62
     0
 10
12.112693
 20
1709.0
 30
0.0
  0
POINT
  5
187
  8
DEFPOINTS
  6
BYBLOCK
 62
     0
 10
262.0
 20
0.0
 30
0.0
  0
POINT
  5
188
  8
DEFPOINTS
  6
BYBLOCK
 62
     0
 10
762.6
 20
0.0
 30
0.0
  0
ENDBLK
  5
189
  8
0
  0
BLOCK
  8
0
  2
*D29
 70
     1
 10
0.0
 20
0.0
 30
0.0
  3
*D29
  1

  0
LINE
  5
18C
  8
0
  6
BYBLOCK
 62
     0
 10
275.0
 20
150.0
 30
0.0
 11
675.1
 21
150.0
 31
0.0
  0
LINE
  5
18D
  8
0
  6
BYBLOCK
 62
     0
 10
275.0
 20
1659.0
 30
0.0
 11
675.1
 21
1659.0
 31
0.0
  0
LINE
  5
18E
  8
0
  6
BYBLOCK
 62
     0
 10
662.6
 20
160.0
 30
0.0
 11
662.6
 21
1649.0
 31
0.0
  0
INSERT
  5
18F
  8
0
  6
BYBLOCK
 62
     0
  2
_ORIGIN
 10
662.6
 20
150.0
 30
0.0
 41
10.0
 42
10.0
 43
10.0
 50
270.0
  0
INSERT
  5
190
  8
0
  6
BYBLOCK
 62
     0
  2
_ORIGIN
 10
662.6
 20
1659.0
 30
0.0
 41
10.0
 42
10.0
 43
10.0
 50
90.0
  0
TEXT
  5
191
  8
0
  6
BYBLOCK
 62
     0
 10
652.6
 20
857.0
 30
0.0
 40
30.0
  1
1509
 50
90.0
 72
     1
 11
652.6
 21
904.5
 31
0.0
  0
POINT
  5
192
  8
DEFPOINTS
  6
BYBLOCK
 62
     0
 10
265.0
 20
150.0
 30
0.0
  0
POINT
  5
193
  8
DEFPOINTS
  6
BYBLOCK
 62
     0
 10
265.0
 20
1659.0
 30
0.0
  0
POINT
  5
194
  8
DEFPOINTS
  6
BYBLOCK
 62
     0
 10
662.6
 20
1659.0
 30
0.0
  0
ENDBLK
  5
195
  8
0
  0
BLOCK
  8
0
  2
*D30
 70
     1
 10
0.0
 20
0.0
 30
0.0
  3
*D30
  1

  0
LINE
  5
198
  8
0
  6
BYBLOCK
 62
     0
 10
275.0
 20
150.0
 30
0.0
 11
675.1
 21
150.0
 31
0.0
  0
LINE
  5
199
  8
0
  6
BYBLOCK
 62
     0
 10
272.0
 20
0.0
 30
0.0
 11
675.1
 21
0.0
 31
0.0
  0
LINE
  5
19A
  8
0
  6
BYBLOCK
 62
     0
 10
662.6
 20
140.0
 30
0.0
 11
662.6
 21
10.0
 31
0.0
  0
INSERT
  5
19B
  8
0
  6
BYBLOCK
 62
     0
  2
_ORIGIN
 10
662.6
 20
150.0
 30
0.0
 41
10.0
 42
10.0
 43
10.0
 50
90.0
  0
INSERT
  5
19C
  8
0
  6
BYBLOCK
 62
     0
  2
_ORIGIN
 10
662.6
 20
0.0
 30
0.0
 41
10.0
 42
10.0
 43
10.0
 50
270.0
  0
TEXT
  5
19D
  8
0
  6
BYBLOCK
 62
     0
 10
652.6
 20
42.5
 30
0.0
 40
30.0
  1
150
 50
90.0
 72
     1
 11
652.6
 21
75.0
 31
0.0
  0
POINT
  5
19E
  8
DEFPOINTS
  6
BYBLOCK
 62
     0
 10
265.0
 20
150.0
 30
0.0
  0
POINT
  5
19F
  8
DEFPOINTS
  6
BYBLOCK
 62
     0
 10
262.0
 20
0.0
 30
0.0
  0
POINT
  5
1A0
  8
DEFPOINTS
  6
BYBLOCK
 62
     0
 10
662.6
 20
0.0
 30
0.0
  0
ENDBLK
  5
1A1
  8
0
  0
BLOCK
  8
0
  2
*D31
 70
     1
 10
0.0
 20
0.0
 30
0.0
  3
*D31
  1

  0
LINE
  5
1A4
  8
0
  6
BYBLOCK
 62
     0
 10
-123.0
 20
-30.0
 30
0.0
 11
-123.0
 21
-260.1
 31
0.0
  0
LINE
  5
1A5
  8
0
  6
BYBLOCK
 62
     0
 10
0.0
 20
-60.245148
 30
0.0
 11
0.0
 21
-260.1
 31
0.0
  0
LINE
  5
1A6
  8
0
  6
BYBLOCK
 62
     0
 10
-113.0
 20
-247.6
 30
0.0
 11
-10.0
 21
-247.6
 31
0.0
  0
INSERT
  5
1A7
  8
0
  6
BYBLOCK
 62
     0
  2
_ORIGIN
 10
-123.0
 20
-247.6
 30
0.0
 41
10.0
 42
10.0
 43
10.0
 50
180.0
  0
INSERT
  5
1A8
  8
0
  6
BYBLOCK
 62
     0
  2
_ORIGIN
 10
0.0
 20
-247.6
 30
0.0
 41
10.0
 42
10.0
 43
10.0
  0
TEXT
  5
1A9
  8
0
  6
BYBLOCK
 62
     0
 10
-98.975205
 20
-237.6
 30
0.0
 40
30.0
  1
123
 72
     1
 11
-63.975205
 21
-237.6
 31
0.0
  0
POINT
  5
1AA
  8
DEFPOINTS
  6
BYBLOCK
 62
     0
 10
-123.0
 20
-20.0
 30
0.0
  0
POINT
  5
1AB
  8
DEFPOINTS
  6
BYBLOCK
 62
     0
 10
0.0
 20
-50.245148
 30
0.0
  0
POINT
  5
1AC
  8
DEFPOINTS
  6
BYBLOCK
 62
     0
 10
0.0
 20
-247.6
 30
0.0
  0
ENDBLK
  5
1AD
  8
0
  0
BLOCK
  8
0
  2
*D32
 70
     1
 10
0.0
 20
0.0
 30
0.0
  3
*D32
  1

  0
LINE
  5
1B0
  8
0
  6
BYBLOCK
 62
     0
 10
247.0
 20
-30.0
 30
0.0
 11
247.0
 21
-260.1
 31
0.0
  0
LINE
  5
1B1
  8
0
  6
BYBLOCK
 62
     0
 10
0.0
 20
-60.245148
 30
0.0
 11
0.0
 21
-260.1
 31
0.0
  0
LINE
  5
1B2
  8
0
  6
BYBLOCK
 62
     0
 10
237.0
 20
-247.6
 30
0.0
 11
10.0
 21
-247.6
 31
0.0
  0
INSERT
  5
1B3
  8
0
  6
BYBLOCK
 62
     0
  2
_ORIGIN
 10
247.0
 20
-247.6
 30
0.0
 41
10.0
 42
10.0
 43
10.0
  0
INSERT
  5
1B4
  8
0
  6
BYBLOCK
 62
     0
  2
_ORIGIN
 10
0.0
 20
-247.6
 30
0.0
 41
10.0
 42
10.0
 43
10.0
 50
180.0
  0
TEXT
  5
1B5
  8
0
  6
BYBLOCK
 62
     0
 10
80.992416
 20
-237.6
 30
0.0
 40
30.0
  1
247
 72
     1
 11
120.992416
 21
-237.6
 31
0.0
  0
POINT
  5
1B6
  8
DEFPOINTS
  6
BYBLOCK
 62
     0
 10
247.0
 20
-20.0
 30
0.0
  0
POINT
  5
1B7
  8
DEFPOINTS
  6
BYBLOCK
 62
     0
 10
0.0
 20
-50.245148
 30
0.0
  0
POINT
  5
1B8
  8
DEFPOINTS
  6
BYBLOCK
 62
     0
 10
0.0
 20
-247.6
 30
0.0
  0
ENDBLK
  5
1B9
  8
0
  0
BLOCK
  8
0
  2
*D33
 70
     1
 10
0.0
 20
0.0
 30
0.0
  3
*D33
  1

  0
LINE
  5
1BC
  8
0
  6
BYBLOCK
 62
     0
 10
242.0
 20
-30.0
 30
0.0
 11
242.0
 21
-160.1
 31
0.0
  0
LINE
  5
1BD
  8
0
  6
BYBLOCK
 62
     0
 10
247.0
 20
-30.0
 30
0.0
 11
247.0
 21
-160.1
 31
0.0
  0
LINE
  5
1BE
  8
0
  6
BYBLOCK
 62
     0
 10
257.0
 20
-147.6
 30
0.0
 11
267.0
 21
-147.6
 31
0.0
  0
LINE
  5
1BF
  8
0
  6
BYBLOCK
 62
     0
 10
232.0
 20
-147.6
 30
0.0
 11
159.98
 21
-147.6
 31
0.0
  0
LINE
  5
1C0
  8
0
  6
BYBLOCK
 62
     0
 10
247.0
 20
-147.6
 30
0.0
 11
242.0
 21
-147.6
 31
0.0
  0
INSERT
  5
1C1
  8
0
  6
BYBLOCK
 62
     0
  2
_ORIGIN
 10
247.0
 20
-147.6
 30
0.0
 41
10.0
 42
10.0
 43
10.0
 50
180.0
  0
INSERT
  5
1C2
  8
0
  6
BYBLOCK
 62
     0
  2
_ORIGIN
 10
242.0
 20
-147.6
 30
0.0
 41
10.0
 42
10.0
 43
10.0
  0
TEXT
  5
1C3
  8
0
  6
BYBLOCK
 62
     0
 10
169.98
 20
-137.6
 30
0.0
 40
30.0
  1
5
 72
     1
 11
179.98
 21
-137.6
 31
0.0
  0
POINT
  5
1C4
  8
DEFPOINTS
  6
BYBLOCK
 62
     0
 10
242.0
 20
-20.0
 30
0.0
  0
POINT
  5
1C5
  8
DEFPOINTS
  6
BYBLOCK
 62
     0
 10
247.0
 20
-20.0
 30
0.0
  0
POINT
  5
1C6
  8
DEFPOINTS
  6
BYBLOCK
 62
     0
 10
247.0
 20
-147.6
 30
0.0
  0
ENDBLK
  5
1C7
  8
0
  0
BLOCK
  8
0
  2
*D34
 70
     1
 10
0.0
 20
0.0
 30
0.0
  3
*D34
  1

  0
LINE
  5
1CA
  8
0
  6
BYBLOCK
 62
     0
 10
0.0
 20
-60.245148
 30
0.0
 11
0.0
 21
-360.1
 31
0.0
  0
LINE
  5
1CB
  8
0
  6
BYBLOCK
 62
     0
 10
-165.0
 20
94.0
 30
0.0
 11
-165.0
 21
-360.1
 31
0.0
  0
LINE
  5
1CC
  8
0
  6
BYBLOCK
 62
     0
 10
-10.0
 20
-347.6
 30
0.0
 11
-155.0
 21
-347.6
 31
0.0
  0
INSERT
  5
1CD
  8
0
  6
BYBLOCK
 62
     0
  2
_ORIGIN
 10
0.0
 20
-347.6
 30
0.0
 41
10.0
 42
10.0
 43
10.0
  0
INSERT
  5
1CE
  8
0
  6
BYBLOCK
 62
     0
  2
_ORIGIN
 10
-165.0
 20
-347.6
 30
0.0
 41
10.0
 42
10.0
 43
10.0
 50
180.0
  0
TEXT
  5
1CF
  8
0
  6
BYBLOCK
 62
     0
 10
-115.962029
 20
-337.6
 30
0.0
 40
30.0
  1
165
 72
     1
 11
-80.962029
 21
-337.6
 31
0.0
  0
POINT
  5
1D0
  8
DEFPOINTS
  6
BYBLOCK
 62
     0
 10
0.0
 20
-50.245148
 30
0.0
  0
POINT
  5
1D1
  8
DEFPOINTS
  6
BYBLOCK
 62
     0
 10
-165.0
 20
104.0
 30
0.0
  0
POINT
  5
1D2
  8
DEFPOINTS
  6
BYBLOCK
 62
     0
 10
-165.0
 20
-347.6
 30
0.0
  0
ENDBLK
  5
1D3
  8
0
  0
BLOCK
  8
0
  2
*D35
 70
     1
 10
0.0
 20
0.0
 30
0.0
  3
*D35
  1

  0
LINE
  5
1D6
  8
0
  6
BYBLOCK
 62
     0
 10
-153.0
 20
0.0
 30
0.0
 11
-379.9
 21
0.0
 31
0.0
  0
LINE
  5
1D7
  8
0
  6
BYBLOCK
 62
     0
 10
-195.0
 20
124.0
 30
0.0
 11
-379.9
 21
124.0
 31
0.0
  0
LINE
  5
1D8
  8
0
  6
BYBLOCK
 62
     0
 10
-367.4
 20
10.0
 30
0.0
 11
-367.4
 21
114.0
 31
0.0
  0
INSERT
  5
1D9
  8
0
  6
BYBLOCK
 62
     0
  2
_ORIGIN
 10
-367.4
 20
0.0
 30
0.0
 41
10.0
 42
10.0
 43
10.0
 50
270.0
  0
INSERT
  5
1DA
  8
0
  6
BYBLOCK
 62
     0
  2
_ORIGIN
 10
-367.4
 20
124.0
 30
0.0
 41
10.0
 42
10.0
 43
10.0
 50
90.0
  0
TEXT
  5
1DB
  8
0
  6
BYBLOCK
 62
     0
 10
-377.4
 20
27.553085
 30
0.0
 40
30.0
  1
124
 50
90.0
 72
     1
 11
-377.4
 21
62.553085
 31
0.0
  0
POINT
  5
1DC
  8
DEFPOINTS
  6
BYBLOCK
 62
     0
 10
-143.0
 20
0.0
 30
0.0
  0
POINT
  5
1DD
  8
DEFPOINTS
  6
BYBLOCK
 62
     0
 10
-185.0
 20
124.0
 30
0.0
  0
POINT
  5
1DE
  8
DEFPOINTS
  6
BYBLOCK
 62
     0
 10
-367.4
 20
124.0
 30
0.0
  0
ENDBLK
  5
1DF
  8
0
  0
ENDSEC
  0
SECTION
  2
ENTITIES
  0
ARC
  5
1E0
  8
OUTLINE
  6
CONTINUOUS
 10
249.0
 20
25.0
 30
0.0
 40
10.0
 50
180.0
 51
202.333683
  0
LINE
  5
1E1
  8
OUTLINE
  6
CONTINUOUS
 10
-91.537187
 20
150.0
 30
0.0
 11
-91.537187
 21
20.0
 31
0.0
  0
LINE
  5
1E2
  8
OUTLINE
  6
CONTINUOUS
 10
-116.962813
 20
150.0
 30
0.0
 11
-116.962813
 21
0.0
 31
0.0
  0
LINE
  5
1E3
  8
OUTLINE
  6
CONTINUOUS
 10
-146.966574
 20
150.0
 30
0.0
 11
-146.966574
 21
20.0
 31
0.0
  0
LINE
  5
1E4
  8
OUTLINE
  6
CONTINUOUS
 10
-158.462813
 20
15.0
 30
0.0
 11
-158.462813
 21
0.0
 31
0.0
  0
LINE
  5
1E5
  8
OUTLINE
  6
CONTINUOUS
 10
-151.966574
 20
15.0
 30
0.0
 11
-158.466574
 21
15.0
 31
0.0
  0
LINE
  5
1E6
  8
OUTLINE
  6
CONTINUOUS
 10
-96.537187
 20
15.0
 30
0.0
 11
-103.037187
 21
15.0
 31
0.0
  0
ARC
  5
1E7
  8
OUTLINE
  6
CONTINUOUS
 10
-151.966574
 20
20.0
 30
0.0
 40
5.0
 50
270.0
 51
0.0
  0
LINE
  5
1E8
  8
OUTLINE
  6
CONTINUOUS
 10
-103.037187
 20
15.0
 30
0.0
 11
-103.037187
 21
0.0
 31
0.0
  0
ARC
  5
1E9
  8
OUTLINE
  6
CONTINUOUS
 10
-96.537187
 20
20.0
 30
0.0
 40
5.0
 50
270.0
 51
0.0
  0
LINE
  5
1EA
  8
OUTLINE
  6
CONTINUOUS
 10
-61.537187
 20
150.0
 30
0.0
 11
-61.537187
 21
0.0
 31
0.0
  0
LINE
  5
1EB
  8
OUTLINE
  6
CONTINUOUS
 10
-158.466574
 20
0.0
 30
0.0
 11
-61.537187
 21
0.0
 31
0.0
  0
LINE
  5
1EC
  8
OUTLINE
  6
CONTINUOUS
 10
-158.466574
 20
15.0
 30
0.0
 11
-158.466574
 21
0.0
 31
0.0
  0
LINE
  5
1ED
  8
OUTLINE
  6
CONTINUOUS
 10
179.0
 20
0.0
 30
0.0
 11
179.0
 21
150.0
 31
0.0
  0
LINE
  5
1EE
  8
OUTLINE
  6
CONTINUOUS
 10
179.0
 20
0.0
 30
0.0
 11
262.0
 21
0.0
 31
0.0
  0
LINE
  5
1EF
  8
OUTLINE
  6
CONTINUOUS
 10
239.0
 20
25.0
 30
0.0
 11
239.0
 21
150.0
 31
0.0
  0
ARC
  5
1F0
  8
OUTLINE
  6
CONTINUOUS
 10
257.0
 20
10.0
 30
0.0
 40
5.0
 50
0.0
 51
90.0
  0
LINE
  5
1F1
  8
OUTLINE
  6
CONTINUOUS
 10
262.0
 20
10.0
 30
0.0
 11
262.0
 21
0.0
 31
0.0
  0
LINE
  5
1F2
  8
OUTLINE
  6
CONTINUOUS
 10
-265.0
 20
1659.0
 30
0.0
 11
265.0
 21
1659.0
 31
0.0
  0
LINE
  5
1F3
  8
OUTLINE
  6
CONTINUOUS
 10
265.0
 20
1659.0
 30
0.0
 11
265.0
 21
150.0
 31
0.0
  0
LINE
  5
1F4
  8
OUTLINE
  6
CONTINUOUS
 10
-265.0
 20
150.0
 30
0.0
 11
265.0
 21
150.0
 31
0.0
  0
LINE
  5
1F5
  8
OUTLINE
  6
CONTINUOUS
 10
-265.0
 20
1659.0
 30
0.0
 11
-265.0
 21
150.0
 31
0.0
  0
LINE
  5
1F6
  8
DETAIL
  6
CONTINUOUS
 10
-265.0
 20
1638.5
 30
0.0
 11
265.0
 21
1638.5
 31
0.0
  0
LINE
  5
1F7
  8
DETAIL
  6
CONTINUOUS
 10
-13.6
 20
1674.0
 30
0.0
 11
-13.6
 21
1692.0
 31
0.0
  0
LINE
  5
1F8
  8
DETAIL
  6
CONTINUOUS
 10
13.6
 20
1674.0
 30
0.0
 11
13.6
 21
1692.0
 31
0.0
  0
LINE
  5
1F9
  8
DETAIL
  6
CONTINUOUS
 10
-12.112693
 20
1709.0
 30
0.0
 11
-13.6
 21
1692.0
 31
0.0
  0
LINE
  5
1FA
  8
DETAIL
  6
CONTINUOUS
 10
-11.108873
 20
1709.0
 30
0.0
 11
-12.59618
 21
1692.0
 31
0.0
  0
LINE
  5
1FB
  8
DETAIL
  6
CONTINUOUS
 10
-13.6
 20
1692.0
 30
0.0
 11
13.6
 21
1692.0
 31
0.0
  0
LINE
  5
1FC
  8
DETAIL
  6
CONTINUOUS
 10
-12.112693
 20
1709.0
 30
0.0
 11
12.112693
 21
1709.0
 31
0.0
  0
LINE
  5
1FD
  8
DETAIL
  6
CONTINUOUS
 10
11.108873
 20
1709.0
 30
0.0
 11
12.59618
 21
1692.0
 31
0.0
  0
LINE
  5
1FE
  8
DETAIL
  6
CONTINUOUS
 10
12.112693
 20
1709.0
 30
0.0
 11
13.6
 21
1692.0
 31
0.0
  0
LINE
  5
1FF
  8
DETAIL
  6
CONTINUOUS
 10
102.0
 20
1659.0
 30
0.0
 11
102.0
 21
1661.0
 31
0.0
  0
LINE
  5
200
  8
DETAIL
  6
CONTINUOUS
 10
-102.0
 20
1661.0
 30
0.0
 11
102.0
 21
1661.0
 31
0.0
  0
ARC
  5
201
  8
DETAIL
  6
CONTINUOUS
 10
95.0
 20
1665.0
 30
0.0
 40
4.0
 50
180.0
 51
270.0
  0
LINE
  5
202
  8
DETAIL
  6
CONTINUOUS
 10
91.0
 20
1665.0
 30
0.0
 11
91.0
 21
1668.0
 31
0.0
  0
ARC
  5
203
  8
DETAIL
  6
CONTINUOUS
 10
85.0
 20
1668.0
 30
0.0
 40
6.0
 50
0.0
 51
90.0
  0
LINE
  5
204
  8
DETAIL
  6
CONTINUOUS
 10
45.204581
 20
1692.0
 30
0.0
 11
55.204581
 21
1692.0
 31
0.0
  0
LINE
  5
205
  8
DETAIL
  6
CONTINUOUS
 10
55.204581
 20
1674.0
 30
0.0
 11
55.204581
 21
1692.0
 31
0.0
  0
LINE
  5
206
  8
DETAIL
  6
CONTINUOUS
 10
45.204581
 20
1674.0
 30
0.0
 11
45.204581
 21
1692.0
 31
0.0
  0
LINE
  5
207
  8
DETAIL
  6
CONTINUOUS
 10
54.204581
 20
1674.0
 30
0.0
 11
54.204581
 21
1692.0
 31
0.0
  0
LINE
  5
208
  8
DETAIL
  6
CONTINUOUS
 10
46.204581
 20
1674.0
 30
0.0
 11
46.204581
 21
1692.0
 31
0.0
  0
LINE
  5
209
  8
DETAIL
  6
CONTINUOUS
 10
-91.0
 20
1665.0
 30
0.0
 11
-91.0
 21
1668.0
 31
0.0
  0
ARC
  5
20A
  8
DETAIL
  6
CONTINUOUS
 10
-95.0
 20
1665.0
 30
0.0
 40
4.0
 50
270.0
 51
0.0
  0
LINE
  5
20B
  8
DETAIL
  6
CONTINUOUS
 10
-46.204581
 20
1674.0
 30
0.0
 11
-46.204581
 21
1692.0
 31
0.0
  0
LINE
  5
20C
  8
DETAIL
  6
CONTINUOUS
 10
-54.204581
 20
1674.0
 30
0.0
 11
-54.204581
 21
1692.0
 31
0.0
  0
LINE
  5
20D
  8
DETAIL
  6
CONTINUOUS
 10
-45.204581
 20
1674.0
 30
0.0
 11
-45.204581
 21
1692.0
 31
0.0
  0
LINE
  5
20E
  8
DETAIL
  6
CONTINUOUS
 10
-55.204581
 20
1674.0
 30
0.0
 11
-55.204581
 21
1692.0
 31
0.0
  0
LINE
  5
20F
  8
DETAIL
  6
CONTINUOUS
 10
-45.204581
 20
1692.0
 30
0.0
 11
-55.204581
 21
1692.0
 31
0.0
  0
ARC
  5
210
  8
DETAIL
  6
CONTINUOUS
 10
-85.0
 20
1668.0
 30
0.0
 40
6.0
 50
90.0
 51
180.0
  0
LINE
  5
211
  8
DETAIL
  6
CONTINUOUS
 10
-85.0
 20
1674.0
 30
0.0
 11
85.0
 21
1674.0
 31
0.0
  0
LINE
  5
212
  8
DETAIL
  6
CONTINUOUS
 10
-102.0
 20
1659.0
 30
0.0
 11
-102.0
 21
1661.0
 31
0.0
  0
LINE
  5
213
  8
DETAIL
  6
CONTINUOUS
 10
-220.6208
 20
224.6
 30
0.0
 11
-202.734266
 21
224.6
 31
0.0
  0
POLYLINE
  5
214
  8
DETAIL
  6
CONTINUOUS
 66
     1
 10
0.0
 20
0.0
 30
0.0
  0
VERTEX
  5
215
  8
DETAIL
  6
CONTINUOUS
 10
-202.734266
 20
197.4
 30
0.0
  0
VERTEX
  5
216
  8
DETAIL
  6
CONTINUOUS
 10
-201.028804
 20
197.66132
 30
0.0
  0
VERTEX
  5
217
  8
DETAIL
  6
CONTINUOUS
 10
-199.388881
 20
198.435238
 30
0.0
  0
VERTEX
  5
218
  8
DETAIL
  6
CONTINUOUS
 10
-197.87752
 20
199.692013
 30
0.0
  0
VERTEX
  5
219
  8
DETAIL
  6
CONTINUOUS
 10
-196.552801
 20
201.383348
 30
0.0
  0
VERTEX
  5
21A
  8
DETAIL
  6
CONTINUOUS
 10
-195.465632
 20
203.444245
 30
0.0
  0
VERTEX
  5
21B
  8
DETAIL
  6
CONTINUOUS
 10
-194.657793
 20
205.795505
 30
0.0
  0
VERTEX
  5
21C
  8
DETAIL
  6
CONTINUOUS
 10
-194.160328
 20
208.346772
 30
0.0
  0
VERTEX
  5
21D
  8
DETAIL
  6
CONTINUOUS
 10
-193.992355
 20
211.0
 30
0.0
  0
VERTEX
  5
21E
  8
DETAIL
  6
CONTINUOUS
 10
-194.160328
 20
213.653228
 30
0.0
  0
VERTEX
  5
21F
  8
DETAIL
  6
CONTINUOUS
 10
-194.657793
 20
216.204495
 30
0.0
  0
VERTEX
  5
220
  8
DETAIL
  6
CONTINUOUS
 10
-195.465632
 20
218.555755
 30
0.0
  0
VERTEX
  5
221
  8
DETAIL
  6
CONTINUOUS
 10
-196.552801
 20
220.616652
 30
0.0
  0
VERTEX
  5
222
  8
DETAIL
  6
CONTINUOUS
 10
-197.87752
 20
222.307987
 30
0.0
  0
VERTEX
  5
223
  8
DETAIL
  6
CONTINUOUS
 10
-199.388881
 20
223.564762
 30
0.0
  0
VERTEX
  5
224
  8
DETAIL
  6
CONTINUOUS
 10
-201.028804
 20
224.33868
 30
0.0
  0
VERTEX
  5
225
  8
DETAIL
  6
CONTINUOUS
 10
-202.734266
 20
224.6
 30
0.0
  0
SEQEND
  5
226
  8
DETAIL
  6
CONTINUOUS
  0
LINE
  5
227
  8
DETAIL
  6
CONTINUOUS
 10
-220.6208
 20
197.4
 30
0.0
 11
-202.734266
 21
197.4
 31
0.0
  0
POLYLINE
  5
228
  8
DETAIL
  6
CONTINUOUS
 66
     1
 10
0.0
 20
0.0
 30
0.0
 70
     1
  0
VERTEX
  5
229
  8
DETAIL
  6
CONTINUOUS
 10
-233.643555
 20
223.1
 30
0.0
  0
VERTEX
  5
22A
  8
DETAIL
  6
CONTINUOUS
 10
-235.162507
 20
222.867502
 30
0.0
  0
VERTEX
  5
22B
  8
DETAIL
  6
CONTINUOUS
 10
-236.623086
 20
222.178942
 30
0.0
  0
VERTEX
  5
22C
  8
DETAIL
  6
CONTINUOUS
 10
-237.969163
 20
221.060782
 30
0.0
  0
VERTEX
  5
22D
  8
DETAIL
  6
CONTINUOUS
 10
-239.14901
 20
219.555992
 30
0.0
  0
VERTEX
  5
22E
  8
DETAIL
  6
CONTINUOUS
 10
-240.117285
 20
217.7224
 30
0.0
  0
VERTEX
  5
22F
  8
DETAIL
  6
CONTINUOUS
 10
-240.836778
 20
215.63047
 30
0.0
  0
VERTEX
  5
230
  8
DETAIL
  6
CONTINUOUS
 10
-241.27984
 20
213.360593
 30
0.0
  0
VERTEX
  5
231
  8
DETAIL
  6
CONTINUOUS
 10
-241.429444
 20
211.0
 30
0.0
  0
VERTEX
  5
232
  8
DETAIL
  6
CONTINUOUS
 10
-241.27984
 20
208.639407
 30
0.0
  0
VERTEX
  5
233
  8
DETAIL
  6
CONTINUOUS
 10
-240.836778
 20
206.36953
 30
0.0
  0
VERTEX
  5
234
  8
DETAIL
  6
CONTINUOUS
 10
-240.117285
 20
204.2776
 30
0.0
  0
VERTEX
  5
235
  8
DETAIL
  6
CONTINUOUS
 10
-239.14901
 20
202.444008
 30
0.0
  0
VERTEX
  5
236
  8
DETAIL
  6
CONTINUOUS
 10
-237.969163
 20
200.939218
 30
0.0
  0
VERTEX
  5
237
  8
DETAIL
  6
CONTINUOUS
 10
-236.623086
 20
199.821058
 30
0.0
  0
VERTEX
  5
238
  8
DETAIL
  6
CONTINUOUS
 10
-235.162507
 20
199.132498
 30
0.0
  0
VERTEX
  5
239
  8
DETAIL
  6
CONTINUOUS
 10
-233.643555
 20
198.9
 30
0.0
  0
VERTEX
  5
23A
  8
DETAIL
  6
CONTINUOUS
 10
-232.124604
 20
199.132498
 30
0.0
  0
VERTEX
  5
23B
  8
DETAIL
  6
CONTINUOUS
 10
-230.664025
 20
199.821058
 30
0.0
  0
VERTEX
  5
23C
  8
DETAIL
  6
CONTINUOUS
 10
-229.317947
 20
200.939218
 30
0.0
  0
VERTEX
  5
23D
  8
DETAIL
  6
CONTINUOUS
 10
-228.1381
 20
202.444008
 30
0.0
  0
VERTEX
  5
23E
  8
DETAIL
  6
CONTINUOUS
 10
-227.169825
 20
204.2776
 30
0.0
  0
VERTEX
  5
23F
  8
DETAIL
  6
CONTINUOUS
 10
-226.450332
 20
206.36953
 30
0.0
  0
VERTEX
  5
240
  8
DETAIL
  6
CONTINUOUS
 10
-226.00727
 20
208.639407
 30
0.0
  0
VERTEX
  5
241
  8
DETAIL
  6
CONTINUOUS
 10
-225.857666
 20
211.0
 30
0.0
  0
VERTEX
  5
242
  8
DETAIL
  6
CONTINUOUS
 10
-226.00727
 20
213.360593
 30
0.0
  0
VERTEX
  5
243
  8
DETAIL
  6
CONTINUOUS
 10
-226.450332
 20
215.63047
 30
0.0
  0
VERTEX
  5
244
  8
DETAIL
  6
CONTINUOUS
 10
-227.169825
 20
217.7224
 30
0.0
  0
VERTEX
  5
245
  8
DETAIL
  6
CONTINUOUS
 10
-228.1381
 20
219.555992
 30
0.0
  0
VERTEX
  5
246
  8
DETAIL
  6
CONTINUOUS
 10
-229.317947
 20
221.060782
 30
0.0
  0
VERTEX
  5
247
  8
DETAIL
  6
CONTINUOUS
 10
-230.664025
 20
222.178942
 30
0.0
  0
VERTEX
  5
248
  8
DETAIL
  6
CONTINUOUS
 10
-232.124604
 20
222.867502
 30
0.0
  0
SEQEND
  5
249
  8
DETAIL
  6
CONTINUOUS
  0
LINE
  5
24A
  8
DETAIL
  6
CONTINUOUS
 10
-221.268005
 20
224.562677
 30
0.0
 11
-234.220583
 21
223.066724
 31
0.0
  0
LINE
  5
24B
  8
DETAIL
  6
CONTINUOUS
 10
-221.268005
 20
197.437323
 30
0.0
 11
-234.220583
 21
198.933276
 31
0.0
  0
POLYLINE
  5
24C
  8
DETAIL
  6
CONTINUOUS
 66
     1
 10
0.0
 20
0.0
 30
0.0
  0
VERTEX
  5
24D
  8
DETAIL
  6
CONTINUOUS
 10
-221.268005
 20
197.437323
 30
0.0
  0
VERTEX
  5
24E
  8
DETAIL
  6
CONTINUOUS
 10
-219.579364
 20
197.496852
 30
0.0
  0
VERTEX
  5
24F
  8
DETAIL
  6
CONTINUOUS
 10
-217.929602
 20
198.060485
 30
0.0
  0
VERTEX
  5
250
  8
DETAIL
  6
CONTINUOUS
 10
-216.380309
 20
199.10718
 30
0.0
  0
VERTEX
  5
251
  8
DETAIL
  6
CONTINUOUS
 10
-214.989323
 20
200.597862
 30
0.0
  0
VERTEX
  5
252
  8
DETAIL
  6
CONTINUOUS
 10
-213.808573
 20
202.476879
 30
0.0
  0
VERTEX
  5
253
  8
DETAIL
  6
CONTINUOUS
 10
-212.882139
 20
204.674084
 30
0.0
  0
VERTEX
  5
254
  8
DETAIL
  6
CONTINUOUS
 10
-212.244607
 20
207.107449
 30
0.0
  0
VERTEX
  5
255
  8
DETAIL
  6
CONTINUOUS
 10
-211.919778
 20
209.686133
 30
0.0
  0
VERTEX
  5
256
  8
DETAIL
  6
CONTINUOUS
 10
-211.919778
 20
212.313867
 30
0.0
  0
VERTEX
  5
257
  8
DETAIL
  6
CONTINUOUS
 10
-212.244607
 20
214.892551
 30
0.0
  0
VERTEX
  5
258
  8
DETAIL
  6
CONTINUOUS
 10
-212.882139
 20
217.325916
 30
0.0
  0
VERTEX
  5
259
  8
DETAIL
  6
CONTINUOUS
 10
-213.808573
 20
219.523121
 30
0.0
  0
VERTEX
  5
25A
  8
DETAIL
  6
CONTINUOUS
 10
-214.989323
 20
221.402138
 30
0.0
  0
VERTEX
  5
25B
  8
DETAIL
  6
CONTINUOUS
 10
-216.380309
 20
222.89282
 30
0.0
  0
VERTEX
  5
25C
  8
DETAIL
  6
CONTINUOUS
 10
-217.929602
 20
223.939515
 30
0.0
  0
VERTEX
  5
25D
  8
DETAIL
  6
CONTINUOUS
 10
-219.579364
 20
224.503148
 30
0.0
  0
VERTEX
  5
25E
  8
DETAIL
  6
CONTINUOUS
 10
-221.268005
 20
224.562677
 30
0.0
  0
SEQEND
  5
25F
  8
DETAIL
  6
CONTINUOUS
  0
POLYLINE
  5
260
  8
DETAIL
  6
CONTINUOUS
 66
     1
 10
0.0
 20
0.0
 30
0.0
  0
VERTEX
  5
261
  8
DETAIL
  6
CONTINUOUS
 10
-221.9855
 20
197.52019
 30
0.0
  0
VERTEX
  5
262
  8
DETAIL
  6
CONTINUOUS
 10
-219.898554
 20
191.483284
 30
0.0
  0
VERTEX
  5
263
  8
DETAIL
  6
CONTINUOUS
 10
-217.095315
 20
186.194949
 30
0.0
  0
VERTEX
  5
264
  8
DETAIL
  6
CONTINUOUS
 10
-213.683303
 20
181.858023
 30
0.0
  0
VERTEX
  5
265
  8
DETAIL
  6
CONTINUOUS
 10
-209.793387
 20
178.638849
 30
0.0
  0
VERTEX
  5
266
  8
DETAIL
  6
CONTINUOUS
 10
-205.574766
 20
176.660899
 30
0.0
  0
VERTEX
  5
267
  8
DETAIL
  6
CONTINUOUS
 10
-201.189247
 20
176.00004
 30
0.0
  0
VERTEX
  5
268
  8
DETAIL
  6
CONTINUOUS
 10
-196.805039
 20
176.681619
 30
0.0
  0
VERTEX
  5
269
  8
DETAIL
  6
CONTINUOUS
 10
-192.590299
 20
178.679493
 30
0.0
  0
VERTEX
  5
26A
  8
DETAIL
  6
CONTINUOUS
 10
-188.706686
 20
181.917033
 30
0.0
  0
VERTEX
  5
26B
  8
DETAIL
  6
CONTINUOUS
 10
-185.303157
 20
186.270062
 30
0.0
  0
VERTEX
  5
26C
  8
DETAIL
  6
CONTINUOUS
 10
-182.510256
 20
191.571618
 30
0.0
  0
VERTEX
  5
26D
  8
DETAIL
  6
CONTINUOUS
 10
-180.435105
 20
197.618358
 30
0.0
  0
VERTEX
  5
26E
  8
DETAIL
  6
CONTINUOUS
 10
-179.157299
 20
204.178355
 30
0.0
  0
VERTEX
  5
26F
  8
DETAIL
  6
CONTINUOUS
 10
-178.725847
 20
211.0
 30
0.0
  0
VERTEX
  5
270
  8
DETAIL
  6
CONTINUOUS
 10
-179.157299
 20
217.821645
 30
0.0
  0
VERTEX
  5
271
  8
DETAIL
  6
CONTINUOUS
 10
-180.435105
 20
224.381642
 30
0.0
  0
VERTEX
  5
272
  8
DETAIL
  6
CONTINUOUS
 10
-182.510256
 20
230.428382
 30
0.0
  0
VERTEX
  5
273
  8
DETAIL
  6
CONTINUOUS
 10
-185.303157
 20
235.729938
 30
0.0
  0
VERTEX
  5
274
  8
DETAIL
  6
CONTINUOUS
 10
-188.706686
 20
240.082967
 30
0.0
  0
VERTEX
  5
275
  8
DETAIL
  6
CONTINUOUS
 10
-192.590299
 20
243.320507
 30
0.0
  0
VERTEX
  5
276
  8
DETAIL
  6
CONTINUOUS
 10
-196.805039
 20
245.318381
 30
0.0
  0
VERTEX
  5
277
  8
DETAIL
  6
CONTINUOUS
 10
-201.189247
 20
245.99996
 30
0.0
  0
VERTEX
  5
278
  8
DETAIL
  6
CONTINUOUS
 10
-205.574766
 20
245.339101
 30
0.0
  0
VERTEX
  5
279
  8
DETAIL
  6
CONTINUOUS
 10
-209.793387
 20
243.361151
 30
0.0
  0
VERTEX
  5
27A
  8
DETAIL
  6
CONTINUOUS
 10
-213.683303
 20
240.141977
 30
0.0
  0
VERTEX
  5
27B
  8
DETAIL
  6
CONTINUOUS
 10
-217.095315
 20
235.805051
 30
0.0
  0
VERTEX
  5
27C
  8
DETAIL
  6
CONTINUOUS
 10
-219.898554
 20
230.516716
 30
0.0
  0
VERTEX
  5
27D
  8
DETAIL
  6
CONTINUOUS
 10
-221.9855
 20
224.47981
 30
0.0
  0
SEQEND
  5
27E
  8
DETAIL
  6
CONTINUOUS
  0
LINE
  5
27F
  8
DETAIL
  6
CONTINUOUS
 10
-245.407824
 20
180.0
 30
0.0
 11
-245.407824
 21
680.0
 31
0.0
  0
ARC
  5
280
  8
DETAIL
  6
CONTINUOUS
 10
-250.407824
 20
180.0
 30
0.0
 40
5.0
 50
270.0
 51
0.0
  0
LINE
  5
281
  8
DETAIL
  6
CONTINUOUS
 10
-265.0
 20
175.0
 30
0.0
 11
-250.407824
 21
175.0
 31
0.0
  0
LINE
  5
282
  8
DETAIL
  6
CONTINUOUS
 10
-265.0
 20
685.0
 30
0.0
 11
-250.407824
 21
685.0
 31
0.0
  0
ARC
  5
283
  8
DETAIL
  6
CONTINUOUS
 10
-250.407824
 20
680.0
 30
0.0
 40
5.0
 50
0.0
 51
90.0
  0
ARC
  5
284
  8
DETAIL
  6
CONTINUOUS
 10
-258.012964
 20
265.0
 30
0.0
 40
5.0
 50
0.0
 51
90.0
  0
LINE
  5
285
  8
DETAIL
  6
CONTINUOUS
 10
-253.012964
 20
185.0
 30
0.0
 11
-253.012964
 21
265.0
 31
0.0
  0
ARC
  5
286
  8
DETAIL
  6
CONTINUOUS
 10
-258.012964
 20
185.0
 30
0.0
 40
5.0
 50
270.0
 51
0.0
  0
LINE
  5
287
  8
DETAIL
  6
CONTINUOUS
 10
-265.0
 20
270.0
 30
0.0
 11
-258.012964
 21
270.0
 31
0.0
  0
LINE
  5
288
  8
DETAIL
  6
CONTINUOUS
 10
-265.0
 20
180.0
 30
0.0
 11
-258.012964
 21
180.0
 31
0.0
  0
LINE
  5
289
  8
DETAIL
  6
CONTINUOUS
 10
-165.0
 20
116.0
 30
0.0
 11
-162.0
 21
115.0
 31
0.0
  0
LINE
  5
28A
  8
DETAIL
  6
CONTINUOUS
 10
-165.0
 20
132.0
 30
0.0
 11
-162.0
 21
133.0
 31
0.0
  0
LINE
  5
28B
  8
DETAIL
  6
CONTINUOUS
 10
-162.0
 20
133.0
 30
0.0
 11
-162.0
 21
115.0
 31
0.0
  0
LINE
  5
28C
  8
DETAIL
  6
CONTINUOUS
 10
-165.0
 20
132.0
 30
0.0
 11
-165.0
 21
116.0
 31
0.0
  0
LINE
  5
28D
  8
DETAIL
  6
CONTINUOUS
 10
-153.0
 20
140.0
 30
0.0
 11
-153.0
 21
142.0
 31
0.0
  0
LINE
  5
28E
  8
DETAIL
  6
CONTINUOUS
 10
-170.0
 20
150.0
 30
0.0
 11
-160.0
 21
142.0
 31
0.0
  0
LINE
  5
28F
  8
DETAIL
  6
CONTINUOUS
 10
-162.0
 20
133.0
 30
0.0
 11
-146.966574
 21
133.0
 31
0.0
  0
LINE
  5
290
  8
DETAIL
  6
CONTINUOUS
 10
-162.0
 20
115.0
 30
0.0
 11
-146.966574
 21
115.0
 31
0.0
  0
LINE
  5
291
  8
DETAIL
  6
CONTINUOUS
 10
-153.0
 20
140.0
 30
0.0
 11
-146.966574
 21
140.0
 31
0.0
  0
LINE
  5
292
  8
DETAIL
  6
CONTINUOUS
 10
-160.0
 20
142.0
 30
0.0
 11
-146.966574
 21
142.0
 31
0.0
  0
LINE
  5
293
  8
DETAIL
  6
CONTINUOUS
 10
257.0
 20
21.2
 30
0.0
 11
257.0
 21
0.0
 31
0.0
  0
LINE
  5
294
  8
DETAIL
  6
CONTINUOUS
 10
227.0
 20
21.2
 30
0.0
 11
257.0
 21
21.2
 31
0.0
  0
LINE
  5
295
  8
DETAIL
  6
CONTINUOUS
 10
227.0
 20
21.2
 30
0.0
 11
227.0
 21
0.0
 31
0.0
  0
LINE
  5
296
  8
DETAIL
  6
CONTINUOUS
 10
227.0
 20
3.2
 30
0.0
 11
257.0
 21
3.2
 31
0.0
  0
LINE
  5
297
  8
DETAIL
  6
CONTINUOUS
 10
-265.0
 20
1659.0
 30
0.0
 11
-265.0
 21
150.0
 31
0.0
  0
LINE
  5
298
  8
DETAIL
  6
CONTINUOUS
 10
-265.0
 20
150.0
 30
0.0
 11
265.0
 21
150.0
 31
0.0
  0
LINE
  5
299
  8
DETAIL
  6
CONTINUOUS
 10
265.0
 20
1659.0
 30
0.0
 11
265.0
 21
150.0
 31
0.0
  0
LINE
  5
29A
  8
DETAIL
  6
CONTINUOUS
 10
-265.0
 20
1659.0
 30
0.0
 11
265.0
 21
1659.0
 31
0.0
  0
LINE
  5
29B
  8
DETAIL
  6
CONTINUOUS
 10
262.0
 20
10.0
 30
0.0
 11
262.0
 21
0.0
 31
0.0
  0
ARC
  5
29C
  8
DETAIL
  6
CONTINUOUS
 10
257.0
 20
10.0
 30
0.0
 40
5.0
 50
0.0
 51
90.0
  0
LINE
  5
29D
  8
DETAIL
  6
CONTINUOUS
 10
239.0
 20
25.0
 30
0.0
 11
239.0
 21
150.0
 31
0.0
  0
LINE
  5
29E
  8
DETAIL
  6
CONTINUOUS
 10
179.0
 20
0.0
 30
0.0
 11
262.0
 21
0.0
 31
0.0
  0
LINE
  5
29F
  8
DETAIL
  6
CONTINUOUS
 10
179.0
 20
0.0
 30
0.0
 11
179.0
 21
150.0
 31
0.0
  0
LINE
  5
2A0
  8
DETAIL
  6
CONTINUOUS
 10
-158.466574
 20
15.0
 30
0.0
 11
-158.466574
 21
0.0
 31
0.0
  0
LINE
  5
2A1
  8
DETAIL
  6
CONTINUOUS
 10
-158.466574
 20
0.0
 30
0.0
 11
-61.537187
 21
0.0
 31
0.0
  0
LINE
  5
2A2
  8
DETAIL
  6
CONTINUOUS
 10
-61.537187
 20
150.0
 30
0.0
 11
-61.537187
 21
0.0
 31
0.0
  0
ARC
  5
2A3
  8
DETAIL
  6
CONTINUOUS
 10
-96.537187
 20
20.0
 30
0.0
 40
5.0
 50
270.0
 51
0.0
  0
LINE
  5
2A4
  8
DETAIL
  6
CONTINUOUS
 10
-103.037187
 20
15.0
 30
0.0
 11
-103.037187
 21
0.0
 31
0.0
  0
ARC
  5
2A5
  8
DETAIL
  6
CONTINUOUS
 10
-151.966574
 20
20.0
 30
0.0
 40
5.0
 50
270.0
 51
0.0
  0
LINE
  5
2A6
  8
DETAIL
  6
CONTINUOUS
 10
-96.537187
 20
15.0
 30
0.0
 11
-103.037187
 21
15.0
 31
0.0
  0
LINE
  5
2A7
  8
DETAIL
  6
CONTINUOUS
 10
-151.966574
 20
15.0
 30
0.0
 11
-158.466574
 21
15.0
 31
0.0
  0
LINE
  5
2A8
  8
DETAIL
  6
CONTINUOUS
 10
-158.462813
 20
15.0
 30
0.0
 11
-158.462813
 21
0.0
 31
0.0
  0
LINE
  5
2A9
  8
DETAIL
  6
CONTINUOUS
 10
-146.966574
 20
150.0
 30
0.0
 11
-146.966574
 21
20.0
 31
0.0
  0
LINE
  5
2AA
  8
DETAIL
  6
CONTINUOUS
 10
-116.962813
 20
150.0
 30
0.0
 11
-116.962813
 21
0.0
 31
0.0
  0
LINE
  5
2AB
  8
DETAIL
  6
CONTINUOUS
 10
-91.537187
 20
150.0
 30
0.0
 11
-91.537187
 21
20.0
 31
0.0
  0
ARC
  5
2AC
  8
DETAIL
  6
CONTINUOUS
 10
249.0
 20
25.0
 30
0.0
 40
10.0
 50
180.0
 51
202.333683
  0
LINE
  5
2AD
  8
DETAIL
  6
CONTINUOUS
 10
227.0
 20
3.2
 30
0.0
 11
257.0
 21
3.2
 31
0.0
  0
LINE
  5
2AE
  8
DETAIL
  6
CONTINUOUS
 10
227.0
 20
21.2
 30
0.0
 11
227.0
 21
0.0
 31
0.0
  0
LINE
  5
2AF
  8
DETAIL
  6
CONTINUOUS
 10
227.0
 20
21.2
 30
0.0
 11
257.0
 21
21.2
 31
0.0
  0
LINE
  5
2B0
  8
DETAIL
  6
CONTINUOUS
 10
257.0
 20
21.2
 30
0.0
 11
257.0
 21
0.0
 31
0.0
  0
LINE
  5
2B1
  8
DETAIL
  6
CONTINUOUS
 10
-160.0
 20
142.0
 30
0.0
 11
-146.966574
 21
142.0
 31
0.0
  0
LINE
  5
2B2
  8
DETAIL
  6
CONTINUOUS
 10
-153.0
 20
140.0
 30
0.0
 11
-146.966574
 21
140.0
 31
0.0
  0
LINE
  5
2B3
  8
DETAIL
  6
CONTINUOUS
 10
-162.0
 20
115.0
 30
0.0
 11
-146.966574
 21
115.0
 31
0.0
  0
LINE
  5
2B4
  8
DETAIL
  6
CONTINUOUS
 10
-162.0
 20
133.0
 30
0.0
 11
-146.966574
 21
133.0
 31
0.0
  0
LINE
  5
2B5
  8
DETAIL
  6
CONTINUOUS
 10
-170.0
 20
150.0
 30
0.0
 11
-160.0
 21
142.0
 31
0.0
  0
LINE
  5
2B6
  8
DETAIL
  6
CONTINUOUS
 10
-153.0
 20
140.0
 30
0.0
 11
-153.0
 21
142.0
 31
0.0
  0
LINE
  5
2B7
  8
DETAIL
  6
CONTINUOUS
 10
-165.0
 20
132.0
 30
0.0
 11
-165.0
 21
116.0
 31
0.0
  0
LINE
  5
2B8
  8
DETAIL
  6
CONTINUOUS
 10
-162.0
 20
133.0
 30
0.0
 11
-162.0
 21
115.0
 31
0.0
  0
LINE
  5
2B9
  8
DETAIL
  6
CONTINUOUS
 10
-165.0
 20
132.0
 30
0.0
 11
-162.0
 21
133.0
 31
0.0
  0
LINE
  5
2BA
  8
DETAIL
  6
CONTINUOUS
 10
-165.0
 20
116.0
 30
0.0
 11
-162.0
 21
115.0
 31
0.0
  0
LINE
  5
2BB
  8
DETAIL
  6
CONTINUOUS
 10
-265.0
 20
180.0
 30
0.0
 11
-258.012964
 21
180.0
 31
0.0
  0
LINE
  5
2BC
  8
DETAIL
  6
CONTINUOUS
 10
-265.0
 20
270.0
 30
0.0
 11
-258.012964
 21
270.0
 31
0.0
  0
ARC
  5
2BD
  8
DETAIL
  6
CONTINUOUS
 10
-258.012964
 20
185.0
 30
0.0
 40
5.0
 50
270.0
 51
0.0
  0
LINE
  5
2BE
  8
DETAIL
  6
CONTINUOUS
 10
-253.012964
 20
185.0
 30
0.0
 11
-253.012964
 21
265.0
 31
0.0
  0
ARC
  5
2BF
  8
DETAIL
  6
CONTINUOUS
 10
-258.012964
 20
265.0
 30
0.0
 40
5.0
 50
0.0
 51
90.0
  0
ARC
  5
2C0
  8
DETAIL
  6
CONTINUOUS
 10
-250.407824
 20
680.0
 30
0.0
 40
5.0
 50
0.0
 51
90.0
  0
LINE
  5
2C1
  8
DETAIL
  6
CONTINUOUS
 10
-265.0
 20
685.0
 30
0.0
 11
-250.407824
 21
685.0
 31
0.0
  0
LINE
  5
2C2
  8
DETAIL
  6
CONTINUOUS
 10
-265.0
 20
175.0
 30
0.0
 11
-250.407824
 21
175.0
 31
0.0
  0
ARC
  5
2C3
  8
DETAIL
  6
CONTINUOUS
 10
-250.407824
 20
180.0
 30
0.0
 40
5.0
 50
270.0
 51
0.0
  0
LINE
  5
2C4
  8
DETAIL
  6
CONTINUOUS
 10
-245.407824
 20
180.0
 30
0.0
 11
-245.407824
 21
680.0
 31
0.0
  0
POLYLINE
  5
2C5
  8
DETAIL
  6
CONTINUOUS
 66
     1
 10
0.0
 20
0.0
 30
0.0
  0
VERTEX
  5
2C6
  8
DETAIL
  6
CONTINUOUS
 10
-221.9855
 20
197.52019
 30
0.0
  0
VERTEX
  5
2C7
  8
DETAIL
  6
CONTINUOUS
 10
-219.898554
 20
191.483284
 30
0.0
  0
VERTEX
  5
2C8
  8
DETAIL
  6
CONTINUOUS
 10
-217.095315
 20
186.194949
 30
0.0
  0
VERTEX
  5
2C9
  8
DETAIL
  6
CONTINUOUS
 10
-213.683303
 20
181.858023
 30
0.0
  0
VERTEX
  5
2CA
  8
DETAIL
  6
CONTINUOUS
 10
-209.793387
 20
178.638849
 30
0.0
  0
VERTEX
  5
2CB
  8
DETAIL
  6
CONTINUOUS
 10
-205.574766
 20
176.660899
 30
0.0
  0
VERTEX
  5
2CC
  8
DETAIL
  6
CONTINUOUS
 10
-201.189247
 20
176.00004
 30
0.0
  0
VERTEX
  5
2CD
  8
DETAIL
  6
CONTINUOUS
 10
-196.805039
 20
176.681619
 30
0.0
  0
VERTEX
  5
2CE
  8
DETAIL
  6
CONTINUOUS
 10
-192.590299
 20
178.679493
 30
0.0
  0
VERTEX
  5
2CF
  8
DETAIL
  6
CONTINUOUS
 10
-188.706686
 20
181.917033
 30
0.0
  0
VERTEX
  5
2D0
  8
DETAIL
  6
CONTINUOUS
 10
-185.303157
 20
186.270062
 30
0.0
  0
VERTEX
  5
2D1
  8
DETAIL
  6
CONTINUOUS
 10
-182.510256
 20
191.571618
 30
0.0
  0
VERTEX
  5
2D2
  8
DETAIL
  6
CONTINUOUS
 10
-180.435105
 20
197.618358
 30
0.0
  0
VERTEX
  5
2D3
  8
DETAIL
  6
CONTINUOUS
 10
-179.157299
 20
204.178355
 30
0.0
  0
VERTEX
  5
2D4
  8
DETAIL
  6
CONTINUOUS
 10
-178.725847
 20
211.0
 30
0.0
  0
VERTEX
  5
2D5
  8
DETAIL
  6
CONTINUOUS
 10
-179.157299
 20
217.821645
 30
0.0
  0
VERTEX
  5
2D6
  8
DETAIL
  6
CONTINUOUS
 10
-180.435105
 20
224.381642
 30
0.0
  0
VERTEX
  5
2D7
  8
DETAIL
  6
CONTINUOUS
 10
-182.510256
 20
230.428382
 30
0.0
  0
VERTEX
  5
2D8
  8
DETAIL
  6
CONTINUOUS
 10
-185.303157
 20
235.729938
 30
0.0
  0
VERTEX
  5
2D9
  8
DETAIL
  6
CONTINUOUS
 10
-188.706686
 20
240.082967
 30
0.0
  0
VERTEX
  5
2DA
  8
DETAIL
  6
CONTINUOUS
 10
-192.590299
 20
243.320507
 30
0.0
  0
VERTEX
  5
2DB
  8
DETAIL
  6
CONTINUOUS
 10
-196.805039
 20
245.318381
 30
0.0
  0
VERTEX
  5
2DC
  8
DETAIL
  6
CONTINUOUS
 10
-201.189247
 20
245.99996
 30
0.0
  0
VERTEX
  5
2DD
  8
DETAIL
  6
CONTINUOUS
 10
-205.574766
 20
245.339101
 30
0.0
  0
VERTEX
  5
2DE
  8
DETAIL
  6
CONTINUOUS
 10
-209.793387
 20
243.361151
 30
0.0
  0
VERTEX
  5
2DF
  8
DETAIL
  6
CONTINUOUS
 10
-213.683303
 20
240.141977
 30
0.0
  0
VERTEX
  5
2E0
  8
DETAIL
  6
CONTINUOUS
 10
-217.095315
 20
235.805051
 30
0.0
  0
VERTEX
  5
2E1
  8
DETAIL
  6
CONTINUOUS
 10
-219.898554
 20
230.516716
 30
0.0
  0
VERTEX
  5
2E2
  8
DETAIL
  6
CONTINUOUS
 10
-221.9855
 20
224.47981
 30
0.0
  0
SEQEND
  5
2E3
  8
DETAIL
  6
CONTINUOUS
  0
POLYLINE
  5
2E4
  8
DETAIL
  6
CONTINUOUS
 66
     1
 10
0.0
 20
0.0
 30
0.0
  0
VERTEX
  5
2E5
  8
DETAIL
  6
CONTINUOUS
 10
-221.268005
 20
197.437323
 30
0.0
  0
VERTEX
  5
2E6
  8
DETAIL
  6
CONTINUOUS
 10
-219.579364
 20
197.496852
 30
0.0
  0
VERTEX
  5
2E7
  8
DETAIL
  6
CONTINUOUS
 10
-217.929602
 20
198.060485
 30
0.0
  0
VERTEX
  5
2E8
  8
DETAIL
  6
CONTINUOUS
 10
-216.380309
 20
199.10718
 30
0.0
  0
VERTEX
  5
2E9
  8
DETAIL
  6
CONTINUOUS
 10
-214.989323
 20
200.597862
 30
0.0
  0
VERTEX
  5
2EA
  8
DETAIL
  6
CONTINUOUS
 10
-213.808573
 20
202.476879
 30
0.0
  0
VERTEX
  5
2EB
  8
DETAIL
  6
CONTINUOUS
 10
-212.882139
 20
204.674084
 30
0.0
  0
VERTEX
  5
2EC
  8
DETAIL
  6
CONTINUOUS
 10
-212.244607
 20
207.107449
 30
0.0
  0
VERTEX
  5
2ED
  8
DETAIL
  6
CONTINUOUS
 10
-211.919778
 20
209.686133
 30
0.0
  0
VERTEX
  5
2EE
  8
DETAIL
  6
CONTINUOUS
 10
-211.919778
 20
212.313867
 30
0.0
  0
VERTEX
  5
2EF
  8
DETAIL
  6
CONTINUOUS
 10
-212.244607
 20
214.892551
 30
0.0
  0
VERTEX
  5
2F0
  8
DETAIL
  6
CONTINUOUS
 10
-212.882139
 20
217.325916
 30
0.0
  0
VERTEX
  5
2F1
  8
DETAIL
  6
CONTINUOUS
 10
-213.808573
 20
219.523121
 30
0.0
  0
VERTEX
  5
2F2
  8
DETAIL
  6
CONTINUOUS
 10
-214.989323
 20
221.402138
 30
0.0
  0
VERTEX
  5
2F3
  8
DETAIL
  6
CONTINUOUS
 10
-216.380309
 20
222.89282
 30
0.0
  0
VERTEX
  5
2F4
  8
DETAIL
  6
CONTINUOUS
 10
-217.929602
 20
223.939515
 30
0.0
  0
VERTEX
  5
2F5
  8
DETAIL
  6
CONTINUOUS
 10
-219.579364
 20
224.503148
 30
0.0
  0
VERTEX
  5
2F6
  8
DETAIL
  6
CONTINUOUS
 10
-221.268005
 20
224.562677
 30
0.0
  0
SEQEND
  5
2F7
  8
DETAIL
  6
CONTINUOUS
  0
LINE
  5
2F8
  8
DETAIL
  6
CONTINUOUS
 10
-221.268005
 20
197.437323
 30
0.0
 11
-234.220583
 21
198.933276
 31
0.0
  0
LINE
  5
2F9
  8
DETAIL
  6
CONTINUOUS
 10
-221.268005
 20
224.562677
 30
0.0
 11
-234.220583
 21
223.066724
 31
0.0
  0
POLYLINE
  5
2FA
  8
DETAIL
  6
CONTINUOUS
 66
     1
 10
0.0
 20
0.0
 30
0.0
 70
     1
  0
VERTEX
  5
2FB
  8
DETAIL
  6
CONTINUOUS
 10
-233.643555
 20
223.1
 30
0.0
  0
VERTEX
  5
2FC
  8
DETAIL
  6
CONTINUOUS
 10
-235.162507
 20
222.867502
 30
0.0
  0
VERTEX
  5
2FD
  8
DETAIL
  6
CONTINUOUS
 10
-236.623086
 20
222.178942
 30
0.0
  0
VERTEX
  5
2FE
  8
DETAIL
  6
CONTINUOUS
 10
-237.969163
 20
221.060782
 30
0.0
  0
VERTEX
  5
2FF
  8
DETAIL
  6
CONTINUOUS
 10
-239.14901
 20
219.555992
 30
0.0
  0
VERTEX
  5
300
  8
DETAIL
  6
CONTINUOUS
 10
-240.117285
 20
217.7224
 30
0.0
  0
VERTEX
  5
301
  8
DETAIL
  6
CONTINUOUS
 10
-240.836778
 20
215.63047
 30
0.0
  0
VERTEX
  5
302
  8
DETAIL
  6
CONTINUOUS
 10
-241.27984
 20
213.360593
 30
0.0
  0
VERTEX
  5
303
  8
DETAIL
  6
CONTINUOUS
 10
-241.429444
 20
211.0
 30
0.0
  0
VERTEX
  5
304
  8
DETAIL
  6
CONTINUOUS
 10
-241.27984
 20
208.639407
 30
0.0
  0
VERTEX
  5
305
  8
DETAIL
  6
CONTINUOUS
 10
-240.836778
 20
206.36953
 30
0.0
  0
VERTEX
  5
306
  8
DETAIL
  6
CONTINUOUS
 10
-240.117285
 20
204.2776
 30
0.0
  0
VERTEX
  5
307
  8
DETAIL
  6
CONTINUOUS
 10
-239.14901
 20
202.444008
 30
0.0
  0
VERTEX
  5
308
  8
DETAIL
  6
CONTINUOUS
 10
-237.969163
 20
200.939218
 30
0.0
  0
VERTEX
  5
309
  8
DETAIL
  6
CONTINUOUS
 10
-236.623086
 20
199.821058
 30
0.0
  0
VERTEX
  5
30A
  8
DETAIL
  6
CONTINUOUS
 10
-235.162507
 20
199.132498
 30
0.0
  0
VERTEX
  5
30B
  8
DETAIL
  6
CONTINUOUS
 10
-233.643555
 20
198.9
 30
0.0
  0
VERTEX
  5
30C
  8
DETAIL
  6
CONTINUOUS
 10
-232.124604
 20
199.132498
 30
0.0
  0
VERTEX
  5
30D
  8
DETAIL
  6
CONTINUOUS
 10
-230.664025
 20
199.821058
 30
0.0
  0
VERTEX
  5
30E
  8
DETAIL
  6
CONTINUOUS
 10
-229.317947
 20
200.939218
 30
0.0
  0
VERTEX
  5
30F
  8
DETAIL
  6
CONTINUOUS
 10
-228.1381
 20
202.444008
 30
0.0
  0
VERTEX
  5
310
  8
DETAIL
  6
CONTINUOUS
 10
-227.169825
 20
204.2776
 30
0.0
  0
VERTEX
  5
311
  8
DETAIL
  6
CONTINUOUS
 10
-226.450332
 20
206.36953
 30
0.0
  0
VERTEX
  5
312
  8
DETAIL
  6
CONTINUOUS
 10
-226.00727
 20
208.639407
 30
0.0
  0
VERTEX
  5
313
  8
DETAIL
  6
CONTINUOUS
 10
-225.857666
 20
211.0
 30
0.0
  0
VERTEX
  5
314
  8
DETAIL
  6
CONTINUOUS
 10
-226.00727
 20
213.360593
 30
0.0
  0
VERTEX
  5
315
  8
DETAIL
  6
CONTINUOUS
 10
-226.450332
 20
215.63047
 30
0.0
  0
VERTEX
  5
316
  8
DETAIL
  6
CONTINUOUS
 10
-227.169825
 20
217.7224
 30
0.0
  0
VERTEX
  5
317
  8
DETAIL
  6
CONTINUOUS
 10
-228.1381
 20
219.555992
 30
0.0
  0
VERTEX
  5
318
  8
DETAIL
  6
CONTINUOUS
 10
-229.317947
 20
221.060782
 30
0.0
  0
VERTEX
  5
319
  8
DETAIL
  6
CONTINUOUS
 10
-230.664025
 20
222.178942
 30
0.0
  0
VERTEX
  5
31A
  8
DETAIL
  6
CONTINUOUS
 10
-232.124604
 20
222.867502
 30
0.0
  0
SEQEND
  5
31B
  8
DETAIL
  6
CONTINUOUS
  0
LINE
  5
31C
  8
DETAIL
  6
CONTINUOUS
 10
-220.6208
 20
197.4
 30
0.0
 11
-202.734266
 21
197.4
 31
0.0
  0
POLYLINE
  5
31D
  8
DETAIL
  6
CONTINUOUS
 66
     1
 10
0.0
 20
0.0
 30
0.0
  0
VERTEX
  5
31E
  8
DETAIL
  6
CONTINUOUS
 10
-202.734266
 20
197.4
 30
0.0
  0
VERTEX
  5
31F
  8
DETAIL
  6
CONTINUOUS
 10
-201.028804
 20
197.66132
 30
0.0
  0
VERTEX
  5
320
  8
DETAIL
  6
CONTINUOUS
 10
-199.388881
 20
198.435238
 30
0.0
  0
VERTEX
  5
321
  8
DETAIL
  6
CONTINUOUS
 10
-197.87752
 20
199.692013
 30
0.0
  0
VERTEX
  5
322
  8
DETAIL
  6
CONTINUOUS
 10
-196.552801
 20
201.383348
 30
0.0
  0
VERTEX
  5
323
  8
DETAIL
  6
CONTINUOUS
 10
-195.465632
 20
203.444245
 30
0.0
  0
VERTEX
  5
324
  8
DETAIL
  6
CONTINUOUS
 10
-194.657793
 20
205.795505
 30
0.0
  0
VERTEX
  5
325
  8
DETAIL
  6
CONTINUOUS
 10
-194.160328
 20
208.346772
 30
0.0
  0
VERTEX
  5
326
  8
DETAIL
  6
CONTINUOUS
 10
-193.992355
 20
211.0
 30
0.0
  0
VERTEX
  5
327
  8
DETAIL
  6
CONTINUOUS
 10
-194.160328
 20
213.653228
 30
0.0
  0
VERTEX
  5
328
  8
DETAIL
  6
CONTINUOUS
 10
-194.657793
 20
216.204495
 30
0.0
  0
VERTEX
  5
329
  8
DETAIL
  6
CONTINUOUS
 10
-195.465632
 20
218.555755
 30
0.0
  0
VERTEX
  5
32A
  8
DETAIL
  6
CONTINUOUS
 10
-196.552801
 20
220.616652
 30
0.0
  0
VERTEX
  5
32B
  8
DETAIL
  6
CONTINUOUS
 10
-197.87752
 20
222.307987
 30
0.0
  0
VERTEX
  5
32C
  8
DETAIL
  6
CONTINUOUS
 10
-199.388881
 20
223.564762
 30
0.0
  0
VERTEX
  5
32D
  8
DETAIL
  6
CONTINUOUS
 10
-201.028804
 20
224.33868
 30
0.0
  0
VERTEX
  5
32E
  8
DETAIL
  6
CONTINUOUS
 10
-202.734266
 20
224.6
 30
0.0
  0
SEQEND
  5
32F
  8
DETAIL
  6
CONTINUOUS
  0
LINE
  5
330
  8
DETAIL
  6
CONTINUOUS
 10
-220.6208
 20
224.6
 30
0.0
 11
-202.734266
 21
224.6
 31
0.0
  0
LINE
  5
331
  8
DETAIL
  6
CONTINUOUS
 10
-102.0
 20
1659.0
 30
0.0
 11
-102.0
 21
1661.0
 31
0.0
  0
LINE
  5
332
  8
DETAIL
  6
CONTINUOUS
 10
-85.0
 20
1674.0
 30
0.0
 11
85.0
 21
1674.0
 31
0.0
  0
ARC
  5
333
  8
DETAIL
  6
CONTINUOUS
 10
-85.0
 20
1668.0
 30
0.0
 40
6.0
 50
90.0
 51
180.0
  0
LINE
  5
334
  8
DETAIL
  6
CONTINUOUS
 10
-45.204581
 20
1692.0
 30
0.0
 11
-55.204581
 21
1692.0
 31
0.0
  0
LINE
  5
335
  8
DETAIL
  6
CONTINUOUS
 10
-55.204581
 20
1674.0
 30
0.0
 11
-55.204581
 21
1692.0
 31
0.0
  0
LINE
  5
336
  8
DETAIL
  6
CONTINUOUS
 10
-45.204581
 20
1674.0
 30
0.0
 11
-45.204581
 21
1692.0
 31
0.0
  0
LINE
  5
337
  8
DETAIL
  6
CONTINUOUS
 10
-54.204581
 20
1674.0
 30
0.0
 11
-54.204581
 21
1692.0
 31
0.0
  0
LINE
  5
338
  8
DETAIL
  6
CONTINUOUS
 10
-46.204581
 20
1674.0
 30
0.0
 11
-46.204581
 21
1692.0
 31
0.0
  0
ARC
  5
339
  8
DETAIL
  6
CONTINUOUS
 10
-95.0
 20
1665.0
 30
0.0
 40
4.0
 50
270.0
 51
0.0
  0
LINE
  5
33A
  8
DETAIL
  6
CONTINUOUS
 10
-91.0
 20
1665.0
 30
0.0
 11
-91.0
 21
1668.0
 31
0.0
  0
LINE
  5
33B
  8
DETAIL
  6
CONTINUOUS
 10
46.204581
 20
1674.0
 30
0.0
 11
46.204581
 21
1692.0
 31
0.0
  0
LINE
  5
33C
  8
DETAIL
  6
CONTINUOUS
 10
54.204581
 20
1674.0
 30
0.0
 11
54.204581
 21
1692.0
 31
0.0
  0
LINE
  5
33D
  8
DETAIL
  6
CONTINUOUS
 10
45.204581
 20
1674.0
 30
0.0
 11
45.204581
 21
1692.0
 31
0.0
  0
LINE
  5
33E
  8
DETAIL
  6
CONTINUOUS
 10
55.204581
 20
1674.0
 30
0.0
 11
55.204581
 21
1692.0
 31
0.0
  0
LINE
  5
33F
  8
DETAIL
  6
CONTINUOUS
 10
45.204581
 20
1692.0
 30
0.0
 11
55.204581
 21
1692.0
 31
0.0
  0
ARC
  5
340
  8
DETAIL
  6
CONTINUOUS
 10
85.0
 20
1668.0
 30
0.0
 40
6.0
 50
0.0
 51
90.0
  0
LINE
  5
341
  8
DETAIL
  6
CONTINUOUS
 10
91.0
 20
1665.0
 30
0.0
 11
91.0
 21
1668.0
 31
0.0
  0
ARC
  5
342
  8
DETAIL
  6
CONTINUOUS
 10
95.0
 20
1665.0
 30
0.0
 40
4.0
 50
180.0
 51
270.0
  0
LINE
  5
343
  8
DETAIL
  6
CONTINUOUS
 10
-102.0
 20
1661.0
 30
0.0
 11
102.0
 21
1661.0
 31
0.0
  0
LINE
  5
344
  8
DETAIL
  6
CONTINUOUS
 10
102.0
 20
1659.0
 30
0.0
 11
102.0
 21
1661.0
 31
0.0
  0
LINE
  5
345
  8
DETAIL
  6
CONTINUOUS
 10
12.112693
 20
1709.0
 30
0.0
 11
13.6
 21
1692.0
 31
0.0
  0
LINE
  5
346
  8
DETAIL
  6
CONTINUOUS
 10
11.108873
 20
1709.0
 30
0.0
 11
12.59618
 21
1692.0
 31
0.0
  0
LINE
  5
347
  8
DETAIL
  6
CONTINUOUS
 10
-12.112693
 20
1709.0
 30
0.0
 11
12.112693
 21
1709.0
 31
0.0
  0
LINE
  5
348
  8
DETAIL
  6
CONTINUOUS
 10
-13.6
 20
1692.0
 30
0.0
 11
13.6
 21
1692.0
 31
0.0
  0
LINE
  5
349
  8
DETAIL
  6
CONTINUOUS
 10
-11.108873
 20
1709.0
 30
0.0
 11
-12.59618
 21
1692.0
 31
0.0
  0
LINE
  5
34A
  8
DETAIL
  6
CONTINUOUS
 10
-12.112693
 20
1709.0
 30
0.0
 11
-13.6
 21
1692.0
 31
0.0
  0
LINE
  5
34B
  8
DETAIL
  6
CONTINUOUS
 10
13.6
 20
1674.0
 30
0.0
 11
13.6
 21
1692.0
 31
0.0
  0
LINE
  5
34C
  8
DETAIL
  6
CONTINUOUS
 10
-13.6
 20
1674.0
 30
0.0
 11
-13.6
 21
1692.0
 31
0.0
  0
LINE
  5
34D
  8
DETAIL
  6
CONTINUOUS
 10
-265.0
 20
1638.5
 30
0.0
 11
265.0
 21
1638.5
 31
0.0
  0
LINE
  5
34E
  8
BASIS
  6
DASHDOT
 10
0.0
 20
1738.196135
 30
0.0
 11
0.0
 21
-50.245148
 31
0.0
  0
LINE
  5
34F
  8
SIZE
  6
CONTINUOUS
 62
    30
 10
-153.0
 20
0.0
 30
0.0
 11
-379.9
 21
0.0
 31
0.0
  0
LINE
  5
350
  8
SIZE
  6
CONTINUOUS
 62
    30
 10
-195.0
 20
124.0
 30
0.0
 11
-379.9
 21
124.0
 31
0.0
  0
LINE
  5
351
  8
SIZE
  6
CONTINUOUS
 62
    30
 10
-367.4
 20
10.0
 30
0.0
 11
-367.4
 21
114.0
 31
0.0
  0
CIRCLE
  5
352
  8
SIZE
  6
CONTINUOUS
 62
    30
 10
-367.4
 20
0.0
 30
0.0
 40
5.0
  0
LINE
  5
353
  8
SIZE
  6
CONTINUOUS
 62
    30
 10
-367.4
 20
0.0
 30
0.0
 11
-367.4
 21
10.0
 31
0.0
  0
CIRCLE
  5
354
  8
SIZE
  6
CONTINUOUS
 62
    30
 10
-367.4
 20
124.0
 30
0.0
 40
5.0
  0
LINE
  5
355
  8
SIZE
  6
CONTINUOUS
 62
    30
 10
-367.4
 20
124.0
 30
0.0
 11
-367.4
 21
114.0
 31
0.0
  0
TEXT
  5
356
  8
SIZE
  6
CONTINUOUS
 62
    30
 10
-377.4
 20
27.553085
 30
0.0
 40
30.0
  1
124
 50
90.0
 72
     1
 11
-377.4
 21
62.553085
 31
0.0
  0
POINT
  5
357
  8
DEFPOINTS
  6
CONTINUOUS
 62
    30
 10
-143.0
 20
0.0
 30
0.0
  0
POINT
  5
358
  8
DEFPOINTS
  6
CONTINUOUS
 62
    30
 10
-185.0
 20
124.0
 30
0.0
  0
POINT
  5
359
  8
DEFPOINTS
  6
CONTINUOUS
 62
    30
 10
-367.4
 20
124.0
 30
0.0
  0
LINE
  5
35A
  8
SIZE
  6
CONTINUOUS
 62
    30
 10
0.0
 20
-60.245148
 30
0.0
 11
0.0
 21
-360.1
 31
0.0
  0
LINE
  5
35B
  8
SIZE
  6
CONTINUOUS
 62
    30
 10
-165.0
 20
94.0
 30
0.0
 11
-165.0
 21
-360.1
 31
0.0
  0
LINE
  5
35C
  8
SIZE
  6
CONTINUOUS
 62
    30
 10
-10.0
 20
-347.6
 30
0.0
 11
-155.0
 21
-347.6
 31
0.0
  0
CIRCLE
  5
35D
  8
SIZE
  6
CONTINUOUS
 62
    30
 10
0.0
 20
-347.6
 30
0.0
 40
5.0
  0
LINE
  5
35E
  8
SIZE
  6
CONTINUOUS
 62
    30
 10
0.0
 20
-347.6
 30
0.0
 11
-10.0
 21
-347.6
 31
0.0
  0
CIRCLE
  5
35F
  8
SIZE
  6
CONTINUOUS
 62
    30
 10
-165.0
 20
-347.6
 30
0.0
 40
5.0
  0
LINE
  5
360
  8
SIZE
  6
CONTINUOUS
 62
    30
 10
-165.0
 20
-347.6
 30
0.0
 11
-155.0
 21
-347.6
 31
0.0
  0
TEXT
  5
361
  8
SIZE
  6
CONTINUOUS
 62
    30
 10
-115.962029
 20
-337.6
 30
0.0
 40
30.0
  1
165
 72
     1
 11
-80.962029
 21
-337.6
 31
0.0
  0
POINT
  5
362
  8
DEFPOINTS
  6
CONTINUOUS
 62
    30
 10
0.0
 20
-50.245148
 30
0.0
  0
POINT
  5
363
  8
DEFPOINTS
  6
CONTINUOUS
 62
    30
 10
-165.0
 20
104.0
 30
0.0
  0
POINT
  5
364
  8
DEFPOINTS
  6
CONTINUOUS
 62
    30
 10
-165.0
 20
-347.6
 30
0.0
  0
LINE
  5
365
  8
SIZE
  6
CONTINUOUS
 62
    30
 10
242.0
 20
-30.0
 30
0.0
 11
242.0
 21
-160.1
 31
0.0
  0
LINE
  5
366
  8
SIZE
  6
CONTINUOUS
 62
    30
 10
247.0
 20
-30.0
 30
0.0
 11
247.0
 21
-160.1
 31
0.0
  0
LINE
  5
367
  8
SIZE
  6
CONTINUOUS
 62
    30
 10
257.0
 20
-147.6
 30
0.0
 11
267.0
 21
-147.6
 31
0.0
  0
LINE
  5
368
  8
SIZE
  6
CONTINUOUS
 62
    30
 10
232.0
 20
-147.6
 30
0.0
 11
159.98
 21
-147.6
 31
0.0
  0
LINE
  5
369
  8
SIZE
  6
CONTINUOUS
 62
    30
 10
247.0
 20
-147.6
 30
0.0
 11
242.0
 21
-147.6
 31
0.0
  0
CIRCLE
  5
36A
  8
SIZE
  6
CONTINUOUS
 62
    30
 10
247.0
 20
-147.6
 30
0.0
 40
5.0
  0
LINE
  5
36B
  8
SIZE
  6
CONTINUOUS
 62
    30
 10
247.0
 20
-147.6
 30
0.0
 11
257.0
 21
-147.6
 31
0.0
  0
CIRCLE
  5
36C
  8
SIZE
  6
CONTINUOUS
 62
    30
 10
242.0
 20
-147.6
 30
0.0
 40
5.0
  0
LINE
  5
36D
  8
SIZE
  6
CONTINUOUS
 62
    30
 10
242.0
 20
-147.6
 30
0.0
 11
232.0
 21
-147.6
 31
0.0
  0
TEXT
  5
36E
  8
SIZE
  6
CONTINUOUS
 62
    30
 10
169.98
 20
-137.6
 30
0.0
 40
30.0
  1
5
 72
     1
 11
179.98
 21
-137.6
 31
0.0
  0
POINT
  5
36F
  8
DEFPOINTS
  6
CONTINUOUS
 62
    30
 10
242.0
 20
-20.0
 30
0.0
  0
POINT
  5
370
  8
DEFPOINTS
  6
CONTINUOUS
 62
    30
 10
247.0
 20
-20.0
 30
0.0
  0
POINT
  5
371
  8
DEFPOINTS
  6
CONTINUOUS
 62
    30
 10
247.0
 20
-147.6
 30
0.0
  0
LINE
  5
372
  8
SIZE
  6
CONTINUOUS
 62
    30
 10
247.0
 20
-30.0
 30
0.0
 11
247.0
 21
-260.1
 31
0.0
  0
LINE
  5
373
  8
SIZE
  6
CONTINUOUS
 62
    30
 10
0.0
 20
-60.245148
 30
0.0
 11
0.0
 21
-260.1
 31
0.0
  0
LINE
  5
374
  8
SIZE
  6
CONTINUOUS
 62
    30
 10
237.0
 20
-247.6
 30
0.0
 11
10.0
 21
-247.6
 31
0.0
  0
CIRCLE
  5
375
  8
SIZE
  6
CONTINUOUS
 62
    30
 10
247.0
 20
-247.6
 30
0.0
 40
5.0
  0
LINE
  5
376
  8
SIZE
  6
CONTINUOUS
 62
    30
 10
247.0
 20
-247.6
 30
0.0
 11
237.0
 21
-247.6
 31
0.0
  0
CIRCLE
  5
377
  8
SIZE
  6
CONTINUOUS
 62
    30
 10
0.0
 20
-247.6
 30
0.0
 40
5.0
  0
LINE
  5
378
  8
SIZE
  6
CONTINUOUS
 62
    30
 10
0.0
 20
-247.6
 30
0.0
 11
10.0
 21
-247.6
 31
0.0
  0
TEXT
  5
379
  8
SIZE
  6
CONTINUOUS
 62
    30
 10
80.992416
 20
-237.6
 30
0.0
 40
30.0
  1
247
 72
     1
 11
120.992416
 21
-237.6
 31
0.0
  0
POINT
  5
37A
  8
DEFPOINTS
  6
CONTINUOUS
 62
    30
 10
247.0
 20
-20.0
 30
0.0
  0
POINT
  5
37B
  8
DEFPOINTS
  6
CONTINUOUS
 62
    30
 10
0.0
 20
-50.245148
 30
0.0
  0
POINT
  5
37C
  8
DEFPOINTS
  6
CONTINUOUS
 62
    30
 10
0.0
 20
-247.6
 30
0.0
  0
LINE
  5
37D
  8
SIZE
  6
CONTINUOUS
 62
    30
 10
-123.0
 20
-30.0
 30
0.0
 11
-123.0
 21
-260.1
 31
0.0
  0
LINE
  5
37E
  8
SIZE
  6
CONTINUOUS
 62
    30
 10
0.0
 20
-60.245148
 30
0.0
 11
0.0
 21
-260.1
 31
0.0
  0
LINE
  5
37F
  8
SIZE
  6
CONTINUOUS
 62
    30
 10
-113.0
 20
-247.6
 30
0.0
 11
-10.0
 21
-247.6
 31
0.0
  0
CIRCLE
  5
380
  8
SIZE
  6
CONTINUOUS
 62
    30
 10
-123.0
 20
-247.6
 30
0.0
 40
5.0
  0
LINE
  5
381
  8
SIZE
  6
CONTINUOUS
 62
    30
 10
-123.0
 20
-247.6
 30
0.0
 11
-113.0
 21
-247.6
 31
0.0
  0
CIRCLE
  5
382
  8
SIZE
  6
CONTINUOUS
 62
    30
 10
0.0
 20
-247.6
 30
0.0
 40
5.0
  0
LINE
  5
383
  8
SIZE
  6
CONTINUOUS
 62
    30
 10
0.0
 20
-247.6
 30
0.0
 11
-10.0
 21
-247.6
 31
0.0
  0
TEXT
  5
384
  8
SIZE
  6
CONTINUOUS
 62
    30
 10
-98.975205
 20
-237.6
 30
0.0
 40
30.0
  1
123
 72
     1
 11
-63.975205
 21
-237.6
 31
0.0
  0
POINT
  5
385
  8
DEFPOINTS
  6
CONTINUOUS
 62
    30
 10
-123.0
 20
-20.0
 30
0.0
  0
POINT
  5
386
  8
DEFPOINTS
  6
CONTINUOUS
 62
    30
 10
0.0
 20
-50.245148
 30
0.0
  0
POINT
  5
387
  8
DEFPOINTS
  6
CONTINUOUS
 62
    30
 10
0.0
 20
-247.6
 30
0.0
  0
LINE
  5
388
  8
SIZE
  6
CONTINUOUS
 62
    30
 10
275.0
 20
150.0
 30
0.0
 11
675.1
 21
150.0
 31
0.0
  0
LINE
  5
389
  8
SIZE
  6
CONTINUOUS
 62
    30
 10
272.0
 20
0.0
 30
0.0
 11
675.1
 21
0.0
 31
0.0
  0
LINE
  5
38A
  8
SIZE
  6
CONTINUOUS
 62
    30
 10
662.6
 20
140.0
 30
0.0
 11
662.6
 21
10.0
 31
0.0
  0
CIRCLE
  5
38B
  8
SIZE
  6
CONTINUOUS
 62
    30
 10
662.6
 20
150.0
 30
0.0
 40
5.0
  0
LINE
  5
38C
  8
SIZE
  6
CONTINUOUS
 62
    30
 10
662.6
 20
150.0
 30
0.0
 11
662.6
 21
140.0
 31
0.0
  0
CIRCLE
  5
38D
  8
SIZE
  6
CONTINUOUS
 62
    30
 10
662.6
 20
0.0
 30
0.0
 40
5.0
  0
LINE
  5
38E
  8
SIZE
  6
CONTINUOUS
 62
    30
 10
662.6
 20
0.0
 30
0.0
 11
662.6
 21
10.0
 31
0.0
  0
TEXT
  5
38F
  8
SIZE
  6
CONTINUOUS
 62
    30
 10
652.6
 20
42.5
 30
0.0
 40
30.0
  1
150
 50
90.0
 72
     1
 11
652.6
 21
75.0
 31
0.0
  0
POINT
  5
390
  8
DEFPOINTS
  6
CONTINUOUS
 62
    30
 10
265.0
 20
150.0
 30
0.0
  0
POINT
  5
391
  8
DEFPOINTS
  6
CONTINUOUS
 62
    30
 10
262.0
 20
0.0
 30
0.0
  0
POINT
  5
392
  8
DEFPOINTS
  6
CONTINUOUS
 62
    30
 10
662.6
 20
0.0
 30
0.0
  0
LINE
  5
393
  8
SIZE
  6
CONTINUOUS
 62
    30
 10
275.0
 20
150.0
 30
0.0
 11
675.1
 21
150.0
 31
0.0
  0
LINE
  5
394
  8
SIZE
  6
CONTINUOUS
 62
    30
 10
275.0
 20
1659.0
 30
0.0
 11
675.1
 21
1659.0
 31
0.0
  0
LINE
  5
395
  8
SIZE
  6
CONTINUOUS
 62
    30
 10
662.6
 20
160.0
 30
0.0
 11
662.6
 21
1649.0
 31
0.0
  0
CIRCLE
  5
396
  8
SIZE
  6
CONTINUOUS
 62
    30
 10
662.6
 20
150.0
 30
0.0
 40
5.0
  0
LINE
  5
397
  8
SIZE
  6
CONTINUOUS
 62
    30
 10
662.6
 20
150.0
 30
0.0
 11
662.6
 21
160.0
 31
0.0
  0
CIRCLE
  5
398
  8
SIZE
  6
CONTINUOUS
 62
    30
 10
662.6
 20
1659.0
 30
0.0
 40
5.0
  0
LINE
  5
399
  8
SIZE
  6
CONTINUOUS
 62
    30
 10
662.6
 20
1659.0
 30
0.0
 11
662.6
 21
1649.0
 31
0.0
  0
TEXT
  5
39A
  8
SIZE
  6
CONTINUOUS
 62
    30
 10
652.6
 20
857.0
 30
0.0
 40
30.0
  1
1509
 50
90.0
 72
     1
 11
652.6
 21
904.5
 31
0.0
  0
POINT
  5
39B
  8
DEFPOINTS
  6
CONTINUOUS
 62
    30
 10
265.0
 20
150.0
 30
0.0
  0
POINT
  5
39C
  8
DEFPOINTS
  6
CONTINUOUS
 62
    30
 10
265.0
 20
1659.0
 30
0.0
  0
POINT
  5
39D
  8
DEFPOINTS
  6
CONTINUOUS
 62
    30
 10
662.6
 20
1659.0
 30
0.0
  0
LINE
  5
39E
  8
SIZE
  6
CONTINUOUS
 62
    30
 10
22.112693
 20
1709.0
 30
0.0
 11
775.1
 21
1709.0
 31
0.0
  0
LINE
  5
39F
  8
SIZE
  6
CONTINUOUS
 62
    30
 10
272.0
 20
0.0
 30
0.0
 11
775.1
 21
0.0
 31
0.0
  0
LINE
  5
3A0
  8
SIZE
  6
CONTINUOUS
 62
    30
 10
762.6
 20
1699.0
 30
0.0
 11
762.6
 21
10.0
 31
0.0
  0
CIRCLE
  5
3A1
  8
SIZE
  6
CONTINUOUS
 62
    30
 10
762.6
 20
1709.0
 30
0.0
 40
5.0
  0
LINE
  5
3A2
  8
SIZE
  6
CONTINUOUS
 62
    30
 10
762.6
 20
1709.0
 30
0.0
 11
762.6
 21
1699.0
 31
0.0
  0
CIRCLE
  5
3A3
  8
SIZE
  6
CONTINUOUS
 62
    30
 10
762.6
 20
0.0
 30
0.0
 40
5.0
  0
LINE
  5
3A4
  8
SIZE
  6
CONTINUOUS
 62
    30
 10
762.6
 20
0.0
 30
0.0
 11
762.6
 21
10.0
 31
0.0
  0
TEXT
  5
3A5
  8
SIZE
  6
CONTINUOUS
 62
    30
 10
752.6
 20
884.767639
 30
0.0
 40
30.0
  1
1709
 50
90.0
 72
     1
 11
752.6
 21
932.267639
 31
0.0
  0
POINT
  5
3A6
  8
DEFPOINTS
  6
CONTINUOUS
 62
    30
 10
12.112693
 20
1709.0
 30
0.0
  0
POINT
  5
3A7
  8
DEFPOINTS
  6
CONTINUOUS
 62
    30
 10
262.0
 20
0.0
 30
0.0
  0
POINT
  5
3A8
  8
DEFPOINTS
  6
CONTINUOUS
 62
    30
 10
762.6
 20
0.0
 30
0.0
  0
LINE
  5
3A9
  8
SIZE
  6
CONTINUOUS
 62
    30
 10
-265.0
 20
140.0
 30
0.0
 11
-265.0
 21
-462.5
 31
0.0
  0
LINE
  5
3AA
  8
SIZE
  6
CONTINUOUS
 62
    30
 10
265.0
 20
140.0
 30
0.0
 11
265.0
 21
-462.5
 31
0.0
  0
LINE
  5
3AB
  8
SIZE
  6
CONTINUOUS
 62
    30
 10
-255.0
 20
-450.0
 30
0.0
 11
255.0
 21
-450.0
 31
0.0
  0
CIRCLE
  5
3AC
  8
SIZE
  6
CONTINUOUS
 62
    30
 10
-265.0
 20
-450.0
 30
0.0
 40
5.0
  0
LINE
  5
3AD
  8
SIZE
  6
CONTINUOUS
 62
    30
 10
-265.0
 20
-450.0
 30
0.0
 11
-255.0
 21
-450.0
 31
0.0
  0
CIRCLE
  5
3AE
  8
SIZE
  6
CONTINUOUS
 62
    30
 10
265.0
 20
-450.0
 30
0.0
 40
5.0
  0
LINE
  5
3AF
  8
SIZE
  6
CONTINUOUS
 62
    30
 10
265.0
 20
-450.0
 30
0.0
 11
255.0
 21
-450.0
 31
0.0
  0
TEXT
  5
3B0
  8
SIZE
  6
CONTINUOUS
 62
    30
 10
-37.5
 20
-440.0
 30
0.0
 40
30.0
  1
530
 72
     1
 11
0.0
 21
-440.0
 31
0.0
  0
POINT
  5
3B1
  8
DEFPOINTS
  6
CONTINUOUS
 62
    30
 10
-265.0
 20
150.0
 30
0.0
  0
POINT
  5
3B2
  8
DEFPOINTS
  6
CONTINUOUS
 62
    30
 10
265.0
 20
150.0
 30
0.0
  0
POINT
  5
3B3
  8
DEFPOINTS
  6
CONTINUOUS
 62
    30
 10
265.0
 20
-450.0
 30
0.0
  0
LINE
  5
3B4
  8
SIZE
  6
CONTINUOUS
 62
    30
 10
-168.466568
 20
0.0
 30
0.0
 11
-479.9
 21
0.0
 31
0.0
  0
LINE
  5
3B5
  8
SIZE
  6
CONTINUOUS
 62
    30
 10
-263.643555
 20
211.0
 30
0.0
 11
-479.9
 21
211.0
 31
0.0
  0
LINE
  5
3B6
  8
SIZE
  6
CONTINUOUS
 62
    30
 10
-467.4
 20
10.0
 30
0.0
 11
-467.4
 21
201.0
 31
0.0
  0
CIRCLE
  5
3B7
  8
SIZE
  6
CONTINUOUS
 62
    30
 10
-467.4
 20
0.0
 30
0.0
 40
5.0
  0
LINE
  5
3B8
  8
SIZE
  6
CONTINUOUS
 62
    30
 10
-467.4
 20
0.0
 30
0.0
 11
-467.4
 21
10.0
 31
0.0
  0
CIRCLE
  5
3B9
  8
SIZE
  6
CONTINUOUS
 62
    30
 10
-467.4
 20
211.0
 30
0.0
 40
5.0
  0
LINE
  5
3BA
  8
SIZE
  6
CONTINUOUS
 62
    30
 10
-467.4
 20
211.0
 30
0.0
 11
-467.4
 21
201.0
 31
0.0
  0
TEXT
  5
3BB
  8
SIZE
  6
CONTINUOUS
 62
    30
 10
-477.4
 20
76.096046
 30
0.0
 40
30.0
  1
211
 50
90.0
 72
     1
 11
-477.4
 21
106.096046
 31
0.0
  0
POINT
  5
3BC
  8
DEFPOINTS
  6
CONTINUOUS
 62
    30
 10
-158.466568
 20
0.0
 30
0.0
  0
POINT
  5
3BD
  8
DEFPOINTS
  6
CONTINUOUS
 62
    30
 10
-253.643555
 20
211.0
 30
0.0
  0
POINT
  5
3BE
  8
DEFPOINTS
  6
CONTINUOUS
 62
    30
 10
-467.4
 20
211.0
 30
0.0
  0
LINE
  5
3BF
  8
SIZE
  6
CONTINUOUS
 62
    30
 10
-1565.0
 20
2169.0
 30
0.0
 11
-1565.0
 21
2323.9
 31
0.0
  0
LINE
  5
3C0
  8
SIZE
  6
CONTINUOUS
 62
    30
 10
-265.0
 20
2169.0
 30
0.0
 11
-265.0
 21
2323.9
 31
0.0
  0
LINE
  5
3C1
  8
SIZE
  6
CONTINUOUS
 62
    30
 10
-1555.0
 20
2311.4
 30
0.0
 11
-275.0
 21
2311.4
 31
0.0
  0
CIRCLE
  5
3C2
  8
SIZE
  6
CONTINUOUS
 62
    30
 10
-1565.0
 20
2311.4
 30
0.0
 40
5.0
  0
LINE
  5
3C3
  8
SIZE
  6
CONTINUOUS
 62
    30
 10
-1565.0
 20
2311.4
 30
0.0
 11
-1555.0
 21
2311.4
 31
0.0
  0
CIRCLE
  5
3C4
  8
SIZE
  6
CONTINUOUS
 62
    30
 10
-265.0
 20
2311.4
 30
0.0
 40
5.0
  0
LINE
  5
3C5
  8
SIZE
  6
CONTINUOUS
 62
    30
 10
-265.0
 20
2311.4
 30
0.0
 11
-275.0
 21
2311.4
 31
0.0
  0
TEXT
  5
3C6
  8
SIZE
  6
CONTINUOUS
 62
    30
 10
-960.0
 20
2321.4
 30
0.0
 40
30.0
  1
1300
 72
     1
 11
-915.0
 21
2321.4
 31
0.0
  0
POINT
  5
3C7
  8
DEFPOINTS
  6
CONTINUOUS
 62
    30
 10
-1565.0
 20
2159.0
 30
0.0
  0
POINT
  5
3C8
  8
DEFPOINTS
  6
CONTINUOUS
 62
    30
 10
-265.0
 20
2159.0
 30
0.0
  0
POINT
  5
3C9
  8
DEFPOINTS
  6
CONTINUOUS
 62
    30
 10
-265.0
 20
2311.4
 30
0.0
  0
LINE
  5
3CA
  8
SIZE
  6
CONTINUOUS
 62
    30
 10
-1575.0
 20
0.0
 30
0.0
 11
-1729.9
 21
0.0
 31
0.0
  0
LINE
  5
3CB
  8
SIZE
  6
CONTINUOUS
 62
    30
 10
-1575.0
 20
2159.0
 30
0.0
 11
-1729.9
 21
2159.0
 31
0.0
  0
LINE
  5
3CC
  8
SIZE
  6
CONTINUOUS
 62
    30
 10
-1717.4
 20
10.0
 30
0.0
 11
-1717.4
 21
2149.0
 31
0.0
  0
CIRCLE
  5
3CD
  8
SIZE
  6
CONTINUOUS
 62
    30
 10
-1717.4
 20
0.0
 30
0.0
 40
5.0
  0
LINE
  5
3CE
  8
SIZE
  6
CONTINUOUS
 62
    30
 10
-1717.4
 20
0.0
 30
0.0
 11
-1717.4
 21
10.0
 31
0.0
  0
CIRCLE
  5
3CF
  8
SIZE
  6
CONTINUOUS
 62
    30
 10
-1717.4
 20
2159.0
 30
0.0
 40
5.0
  0
LINE
  5
3D0
  8
SIZE
  6
CONTINUOUS
 62
    30
 10
-1717.4
 20
2159.0
 30
0.0
 11
-1717.4
 21
2149.0
 31
0.0
  0
TEXT
  5
3D1
  8
SIZE
  6
CONTINUOUS
 62
    30
 10
-1727.4
 20
1029.5
 30
0.0
 40
30.0
  1
2159
 50
90.0
 72
     1
 11
-1727.4
 21
1079.5
 31
0.0
  0
POINT
  5
3D2
  8
DEFPOINTS
  6
CONTINUOUS
 62
    30
 10
-1565.0
 20
0.0
 30
0.0
  0
POINT
  5
3D3
  8
DEFPOINTS
  6
CONTINUOUS
 62
    30
 10
-1565.0
 20
2159.0
 30
0.0
  0
POINT
  5
3D4
  8
DEFPOINTS
  6
CONTINUOUS
 62
    30
 10
-1717.4
 20
2159.0
 30
0.0
  0
LINE
  5
3D5
  8
SIZE
  6
CONTINUOUS
 62
    30
 10
265.0
 20
2169.0
 30
0.0
 11
265.0
 21
2323.9
 31
0.0
  0
LINE
  5
3D6
  8
SIZE
  6
CONTINUOUS
 62
    30
 10
-265.0
 20
2169.0
 30
0.0
 11
-265.0
 21
2323.9
 31
0.0
  0
LINE
  5
3D7
  8
SIZE
  6
CONTINUOUS
 62
    30
 10
255.0
 20
2311.4
 30
0.0
 11
-255.0
 21
2311.4
 31
0.0
  0
CIRCLE
  5
3D8
  8
SIZE
  6
CONTINUOUS
 62
    30
 10
265.0
 20
2311.4
 30
0.0
 40
5.0
  0
LINE
  5
3D9
  8
SIZE
  6
CONTINUOUS
 62
    30
 10
265.0
 20
2311.4
 30
0.0
 11
255.0
 21
2311.4
 31
0.0
  0
CIRCLE
  5
3DA
  8
SIZE
  6
CONTINUOUS
 62
    30
 10
-265.0
 20
2311.4
 30
0.0
 40
5.0
  0
LINE
  5
3DB
  8
SIZE
  6
CONTINUOUS
 62
    30
 10
-265.0
 20
2311.4
 30
0.0
 11
-255.0
 21
2311.4
 31
0.0
  0
TEXT
  5
3DC
  8
SIZE
  6
CONTINUOUS
 62
    30
 10
-37.5
 20
2321.4
 30
0.0
 40
30.0
  1
530
 72
     1
 11
0.0
 21
2321.4
 31
0.0
  0
POINT
  5
3DD
  8
DEFPOINTS
  6
CONTINUOUS
 62
    30
 10
265.0
 20
2159.0
 30
0.0
  0
POINT
  5
3DE
  8
DEFPOINTS
  6
CONTINUOUS
 62
    30
 10
-265.0
 20
2159.0
 30
0.0
  0
POINT
  5
3DF
  8
DEFPOINTS
  6
CONTINUOUS
 62
    30
 10
-265.0
 20
2311.4
 30
0.0
  0
LINE
  5
3E0
  8
SIZE
  6
CONTINUOUS
 62
    30
 10
275.0
 20
2159.0
 30
0.0
 11
525.1
 21
2159.0
 31
0.0
  0
LINE
  5
3E1
  8
SIZE
  6
CONTINUOUS
 62
    30
 10
275.0
 20
1659.0
 30
0.0
 11
525.1
 21
1659.0
 31
0.0
  0
LINE
  5
3E2
  8
SIZE
  6
CONTINUOUS
 62
    30
 10
512.6
 20
2149.0
 30
0.0
 11
512.6
 21
1669.0
 31
0.0
  0
CIRCLE
  5
3E3
  8
SIZE
  6
CONTINUOUS
 62
    30
 10
512.6
 20
2159.0
 30
0.0
 40
5.0
  0
LINE
  5
3E4
  8
SIZE
  6
CONTINUOUS
 62
    30
 10
512.6
 20
2159.0
 30
0.0
 11
512.6
 21
2149.0
 31
0.0
  0
CIRCLE
  5
3E5
  8
SIZE
  6
CONTINUOUS
 62
    30
 10
512.6
 20
1659.0
 30
0.0
 40
5.0
  0
LINE
  5
3E6
  8
SIZE
  6
CONTINUOUS
 62
    30
 10
512.6
 20
1659.0
 30
0.0
 11
512.6
 21
1669.0
 31
0.0
  0
TEXT
  5
3E7
  8
SIZE
  6
CONTINUOUS
 62
    30
 10
502.6
 20
1874.0
 30
0.0
 40
30.0
  1
500
 50
90.0
 72
     1
 11
502.6
 21
1909.0
 31
0.0
  0
POINT
  5
3E8
  8
DEFPOINTS
  6
CONTINUOUS
 62
    30
 10
265.0
 20
2159.0
 30
0.0
  0
POINT
  5
3E9
  8
DEFPOINTS
  6
CONTINUOUS
 62
    30
 10
265.0
 20
1659.0
 30
0.0
  0
POINT
  5
3EA
  8
DEFPOINTS
  6
CONTINUOUS
 62
    30
 10
512.6
 20
1659.0
 30
0.0
  0
LINE
  5
3EB
  8
SIZE
  6
CONTINUOUS
 62
    30
 10
275.0
 20
1659.0
 30
0.0
 11
675.1
 21
1659.0
 31
0.0
  0
LINE
  5
3EC
  8
SIZE
  6
CONTINUOUS
 62
    30
 10
22.112693
 20
1709.0
 30
0.0
 11
675.1
 21
1709.0
 31
0.0
  0
LINE
  5
3ED
  8
SIZE
  6
CONTINUOUS
 62
    30
 10
662.6
 20
1669.0
 30
0.0
 11
662.6
 21
1699.0
 31
0.0
  0
LINE
  5
3EE
  8
SIZE
  6
CONTINUOUS
 62
    30
 10
662.6
 20
1709.0
 30
0.0
 11
662.6
 21
1784.0
 31
0.0
  0
CIRCLE
  5
3EF
  8
SIZE
  6
CONTINUOUS
 62
    30
 10
662.6
 20
1659.0
 30
0.0
 40
5.0
  0
LINE
  5
3F0
  8
SIZE
  6
CONTINUOUS
 62
    30
 10
662.6
 20
1659.0
 30
0.0
 11
662.6
 21
1669.0
 31
0.0
  0
CIRCLE
  5
3F1
  8
SIZE
  6
CONTINUOUS
 62
    30
 10
662.6
 20
1709.0
 30
0.0
 40
5.0
  0
LINE
  5
3F2
  8
SIZE
  6
CONTINUOUS
 62
    30
 10
662.6
 20
1709.0
 30
0.0
 11
662.6
 21
1699.0
 31
0.0
  0
TEXT
  5
3F3
  8
SIZE
  6
CONTINUOUS
 62
    30
 10
652.6
 20
1729.0
 30
0.0
 40
30.0
  1
50
 50
90.0
 72
     1
 11
652.6
 21
1751.5
 31
0.0
  0
POINT
  5
3F4
  8
DEFPOINTS
  6
CONTINUOUS
 62
    30
 10
265.0
 20
1659.0
 30
0.0
  0
POINT
  5
3F5
  8
DEFPOINTS
  6
CONTINUOUS
 62
    30
 10
12.112693
 20
1709.0
 30
0.0
  0
POINT
  5
3F6
  8
DEFPOINTS
  6
CONTINUOUS
 62
    30
 10
662.6
 20
1709.0
 30
0.0
  0
LINE
  5
3F7
  8
SIZE
  6
CONTINUOUS
 62
    30
 10
95.0
 20
1674.0
 30
0.0
 11
425.1
 21
1674.0
 31
0.0
  0
LINE
  5
3F8
  8
SIZE
  6
CONTINUOUS
 62
    30
 10
65.204582
 20
1692.0
 30
0.0
 11
425.1
 21
1692.0
 31
0.0
  0
LINE
  5
3F9
  8
SIZE
  6
CONTINUOUS
 62
    30
 10
412.6
 20
1664.0
 30
0.0
 11
412.6
 21
1654.0
 31
0.0
  0
LINE
  5
3FA
  8
SIZE
  6
CONTINUOUS
 62
    30
 10
412.6
 20
1702.0
 30
0.0
 11
412.6
 21
1772.500527
 31
0.0
  0
LINE
  5
3FB
  8
SIZE
  6
CONTINUOUS
 62
    30
 10
412.6
 20
1674.0
 30
0.0
 11
412.6
 21
1692.0
 31
0.0
  0
CIRCLE
  5
3FC
  8
SIZE
  6
CONTINUOUS
 62
    30
 10
412.6
 20
1674.0
 30
0.0
 40
5.0
  0
LINE
  5
3FD
  8
SIZE
  6
CONTINUOUS
 62
    30
 10
412.6
 20
1674.0
 30
0.0
 11
412.6
 21
1664.0
 31
0.0
  0
CIRCLE
  5
3FE
  8
SIZE
  6
CONTINUOUS
 62
    30
 10
412.6
 20
1692.0
 30
0.0
 40
5.0
  0
LINE
  5
3FF
  8
SIZE
  6
CONTINUOUS
 62
    30
 10
412.6
 20
1692.0
 30
0.0
 11
412.6
 21
1702.0
 31
0.0
  0
TEXT
  5
400
  8
SIZE
  6
CONTINUOUS
 62
    30
 10
402.6
 20
1722.500527
 30
0.0
 40
30.0
  1
18
 50
90.0
 72
     1
 11
402.6
 21
1742.500527
 31
0.0
  0
POINT
  5
401
  8
DEFPOINTS
  6
CONTINUOUS
 62
    30
 10
85.0
 20
1674.0
 30
0.0
  0
POINT
  5
402
  8
DEFPOINTS
  6
CONTINUOUS
 62
    30
 10
55.204582
 20
1692.0
 30
0.0
  0
POINT
  5
403
  8
DEFPOINTS
  6
CONTINUOUS
 62
    30
 10
412.6
 20
1692.0
 30
0.0
  0
LINE
  5
404
  8
SIZE
  6
CONTINUOUS
 62
    30
 10
275.0
 20
1659.0
 30
0.0
 11
425.1
 21
1659.0
 31
0.0
  0
LINE
  5
405
  8
SIZE
  6
CONTINUOUS
 62
    30
 10
95.0
 20
1674.0
 30
0.0
 11
425.1
 21
1674.0
 31
0.0
  0
LINE
  5
406
  8
SIZE
  6
CONTINUOUS
 62
    30
 10
412.6
 20
1684.0
 30
0.0
 11
412.6
 21
1694.0
 31
0.0
  0
LINE
  5
407
  8
SIZE
  6
CONTINUOUS
 62
    30
 10
412.6
 20
1649.0
 30
0.0
 11
412.6
 21
1555.01603
 31
0.0
  0
LINE
  5
408
  8
SIZE
  6
CONTINUOUS
 62
    30
 10
412.6
 20
1674.0
 30
0.0
 11
412.6
 21
1659.0
 31
0.0
  0
CIRCLE
  5
409
  8
SIZE
  6
CONTINUOUS
 62
    30
 10
412.6
 20
1674.0
 30
0.0
 40
5.0
  0
LINE
  5
40A
  8
SIZE
  6
CONTINUOUS
 62
    30
 10
412.6
 20
1674.0
 30
0.0
 11
412.6
 21
1684.0
 31
0.0
  0
CIRCLE
  5
40B
  8
SIZE
  6
CONTINUOUS
 62
    30
 10
412.6
 20
1659.0
 30
0.0
 40
5.0
  0
LINE
  5
40C
  8
SIZE
  6
CONTINUOUS
 62
    30
 10
412.6
 20
1659.0
 30
0.0
 11
412.6
 21
1649.0
 31
0.0
  0
TEXT
  5
40D
  8
SIZE
  6
CONTINUOUS
 62
    30
 10
402.6
 20
1565.01603
 30
0.0
 40
30.0
  1
15
 50
90.0
 72
     1
 11
402.6
 21
1585.01603
 31
0.0
  0
POINT
  5
40E
  8
DEFPOINTS
  6
CONTINUOUS
 62
    30
 10
265.0
 20
1659.0
 30
0.0
  0
POINT
  5
40F
  8
DEFPOINTS
  6
CONTINUOUS
 62
    30
 10
85.0
 20
1674.0
 30
0.0
  0
POINT
  5
410
  8
DEFPOINTS
  6
CONTINUOUS
 62
    30
 10
412.6
 20
1674.0
 30
0.0
  0
TEXT
  5
411
  8
NOTE
  6
CONTINUOUS
 10
569.49585
 20
1743.466797
 30
0.0
 40
40.0
  1
メンテナンススペース
 50
90.000005
 41
0.839583
  7
STANDARD1
  0
TEXT
  5
412
  8
NOTE
  6
CONTINUOUS
 10
-194.653656
 20
2256.318848
 30
0.0
 40
40.0
  1
メンテナンススペース
 50
0.000003
 41
0.839583
  7
STANDARD1
  0
TEXT
  5
413
  8
NOTE
  6
CONTINUOUS
 10
-1656.281982
 20
897.260925
 30
0.0
 40
40.0
  1
メンテナンススペース
 50
90.000005
 41
0.839583
  7
STANDARD1
  0
TEXT
  5
414
  8
NOTE
  6
CONTINUOUS
 10
-1112.658813
 20
2251.19043
 30
0.0
 40
40.0
  1
メンテナンススペース
 50
0.000003
 41
0.839583
  7
STANDARD1
  0
TEXT
  5
415
  8
NOTE
  6
CONTINUOUS
 10
409.850891
 20
-373.443298
 30
0.0
 40
40.0
  1
（脚固定金具使用時のみ）
 50
0.000003
 41
0.839583
  7
STANDARD1
  0
LINE
  5
416
  8
NOTE
  6
CONTINUOUS
 10
703.356384
 20
-318.006683
 30
0.0
 11
448.806366
 21
-318.006683
 31
0.0
  0
LINE
  5
417
  8
NOTE
  6
CONTINUOUS
 10
448.806366
 20
-318.006683
 30
0.0
 11
242.0
 21
0.0
 31
0.0
  0
LINE
  5
418
  8
NOTE
  6
CONTINUOUS
 10
242.0
 20
0.0
 30
0.0
 11
243.487149
 21
-1.337307
 31
0.0
  0
LINE
  5
419
  8
NOTE
  6
CONTINUOUS
 10
242.0
 20
0.0
 30
0.0
 11
242.619255
 21
-1.901716
 31
0.0
  0
TEXT
  5
41A
  8
NOTE
  6
CONTINUOUS
 10
509.256378
 20
-317.006683
 30
0.0
 40
40.0
  1
AH 2-M10
 50
0.000003
 41
0.639474
  7
STANDARD1
  0
LINE
  5
41B
  8
NOTE
  6
CONTINUOUS
 10
714.951233
 20
-166.679672
 30
0.0
 11
453.301239
 21
-166.679672
 31
0.0
  0
LINE
  5
41C
  8
NOTE
  6
CONTINUOUS
 10
453.301239
 20
-166.679672
 30
0.0
 11
247.0
 21
0.0
 31
0.0
  0
LINE
  5
41D
  8
NOTE
  6
CONTINUOUS
 10
247.0
 20
0.0
 30
0.0
 11
248.827995
 21
-0.81144
 31
0.0
  0
LINE
  5
41E
  8
NOTE
  6
CONTINUOUS
 10
247.0
 20
0.0
 30
0.0
 11
248.17737
 21
-1.616725
 31
0.0
  0
TEXT
  5
41F
  8
NOTE
  6
CONTINUOUS
 10
513.751221
 20
-165.679672
 30
0.0
 40
40.0
  1
脚固定金具
 50
359.999996
 41
0.839583
  7
STANDARD1
  0
LINE
  5
420
  8
NOTE
  6
CONTINUOUS
 10
-596.421082
 20
-321.734863
 30
0.0
 11
-341.871033
 21
-321.734863
 31
0.0
  0
LINE
  5
421
  8
NOTE
  6
CONTINUOUS
 10
-341.871033
 20
-321.734863
 30
0.0
 11
-123.0
 21
0.0
 31
0.0
  0
LINE
  5
422
  8
NOTE
  6
CONTINUOUS
 10
-123.0
 20
0.0
 30
0.0
 11
-123.658617
 21
-1.888445
 31
0.0
  0
LINE
  5
423
  8
NOTE
  6
CONTINUOUS
 10
-123.0
 20
0.0
 30
0.0
 11
-124.514602
 21
-1.306132
 31
0.0
  0
TEXT
  5
424
  8
NOTE
  6
CONTINUOUS
 10
-596.421082
 20
-320.734863
 30
0.0
 40
40.0
  1
AH 3-M10
 50
0.000003
 41
0.639474
  7
STANDARD1
  0
LINE
  5
425
  8
NOTE
  6
CONTINUOUS
 10
-606.67865
 20
-179.29097
 30
0.0
 11
-409.028625
 21
-179.29097
 31
0.0
  0
LINE
  5
426
  8
NOTE
  6
CONTINUOUS
 10
-409.028625
 20
-179.29097
 30
0.0
 11
-165.0
 21
124.0
 31
0.0
  0
LINE
  5
427
  8
NOTE
  6
CONTINUOUS
 10
-165.0
 20
124.0
 30
0.0
 11
-165.807737
 21
122.170366
 31
0.0
  0
LINE
  5
428
  8
NOTE
  6
CONTINUOUS
 10
-165.0
 20
124.0
 30
0.0
 11
-166.614338
 21
122.819359
 31
0.0
  0
TEXT
  5
429
  8
NOTE
  6
CONTINUOUS
 10
-606.67865
 20
-178.290955
 30
0.0
 40
40.0
  1
D φ18
 50
359.999996
 41
0.716146
  7
STANDARD1
  0
LINE
  5
42A
  8
NOTE
  6
CONTINUOUS
 10
-1062.542114
 20
407.964813
 30
0.0
 11
-548.992065
 21
407.964813
 31
0.0
  0
LINE
  5
42B
  8
NOTE
  6
CONTINUOUS
 10
-548.992065
 20
407.964813
 30
0.0
 11
-233.643555
 21
211.0
 31
0.0
  0
LINE
  5
42C
  8
NOTE
  6
CONTINUOUS
 10
-233.643555
 20
211.0
 30
0.0
 11
-235.55628
 21
211.584365
 31
0.0
  0
LINE
  5
42D
  8
NOTE
  6
CONTINUOUS
 10
-233.643555
 20
211.0
 30
0.0
 11
-235.007841
 21
212.462437
 31
0.0
  0
TEXT
  5
42E
  8
NOTE
  6
CONTINUOUS
 10
-1062.542114
 20
408.964783
 30
0.0
 40
40.0
  1
CW(WD) R3/4(φ27.2)
 50
0.000003
 41
0.636798
  7
STANDARD1
  0
LINE
  5
42F
  8
NOTE
  6
CONTINUOUS
 10
-165.0
 20
104.0
 30
0.0
 11
-165.0
 21
144.0
 31
0.0
  0
LINE
  5
430
  8
NOTE
  6
CONTINUOUS
 10
-185.0
 20
124.0
 30
0.0
 11
-145.0
 21
124.0
 31
0.0
  0
LINE
  5
431
  8
NOTE
  6
CONTINUOUS
 10
0.0
 20
1689.0
 30
0.0
 11
0.0
 21
1729.0
 31
0.0
  0
LINE
  5
432
  8
NOTE
  6
CONTINUOUS
 10
-20.0
 20
1709.0
 30
0.0
 11
20.0
 21
1709.0
 31
0.0
  0
LINE
  5
433
  8
NOTE
  6
CONTINUOUS
 10
-233.643555
 20
191.0
 30
0.0
 11
-233.643555
 21
231.0
 31
0.0
  0
LINE
  5
434
  8
NOTE
  6
CONTINUOUS
 10
-253.643555
 20
211.0
 30
0.0
 11
-213.643555
 21
211.0
 31
0.0
  0
LINE
  5
435
  8
NOTE
  6
CONTINUOUS
 10
222.0
 20
0.0
 30
0.0
 11
262.0
 21
0.0
 31
0.0
  0
LINE
  5
436
  8
NOTE
  6
CONTINUOUS
 10
242.0
 20
-20.0
 30
0.0
 11
242.0
 21
20.0
 31
0.0
  0
LINE
  5
437
  8
NOTE
  6
CONTINUOUS
 10
247.0
 20
-20.0
 30
0.0
 11
247.0
 21
20.0
 31
0.0
  0
LINE
  5
438
  8
NOTE
  6
CONTINUOUS
 10
227.0
 20
0.0
 30
0.0
 11
267.0
 21
0.0
 31
0.0
  0
LINE
  5
439
  8
NOTE
  6
CONTINUOUS
 10
-123.0
 20
-20.0
 30
0.0
 11
-123.0
 21
20.0
 31
0.0
  0
LINE
  5
43A
  8
NOTE
  6
CONTINUOUS
 10
-143.0
 20
0.0
 30
0.0
 11
-103.0
 21
0.0
 31
0.0
  0
LINE
  5
43B
  8
NOTE
  6
CONTINUOUS
 10
-809.548767
 20
1837.085693
 30
0.0
 11
-426.998749
 21
1837.085693
 31
0.0
  0
LINE
  5
43C
  8
NOTE
  6
CONTINUOUS
 10
-426.998749
 20
1837.085693
 30
0.0
 11
-68.0
 21
1674.0
 31
0.0
  0
LINE
  5
43D
  8
NOTE
  6
CONTINUOUS
 10
-68.0
 20
1674.0
 30
0.0
 11
-69.972966
 21
1674.32773
 31
0.0
  0
LINE
  5
43E
  8
NOTE
  6
CONTINUOUS
 10
-68.0
 20
1674.0
 30
0.0
 11
-69.544773
 21
1675.270306
 31
0.0
  0
TEXT
  5
43F
  8
NOTE
  6
CONTINUOUS
 10
-809.548767
 20
1838.085693
 30
0.0
 40
40.0
  1
上部振れ止め金具
 50
0.000003
 41
0.839583
  7
STANDARD1
  0
LINE
  5
440
  8
NOTE
  6
CONTINUOUS
 10
-783.536865
 20
1961.494507
 30
0.0
 11
-367.186829
 21
1961.494507
 31
0.0
  0
LINE
  5
441
  8
NOTE
  6
CONTINUOUS
 10
-367.186829
 20
1961.494507
 30
0.0
 11
0.0
 21
1709.0
 31
0.0
  0
LINE
  5
442
  8
NOTE
  6
CONTINUOUS
 10
0.0
 20
1709.0
 30
0.0
 11
-1.885117
 21
1709.668081
 31
0.0
  0
LINE
  5
443
  8
NOTE
  6
CONTINUOUS
 10
0.0
 20
1709.0
 30
0.0
 11
-1.298519
 21
1710.521134
 31
0.0
  0
TEXT
  5
444
  8
NOTE
  6
CONTINUOUS
 10
-783.536865
 20
1962.494507
 30
0.0
 40
40.0
  1
HW R3/4(φ27.2)
 50
0.000003
 41
0.64529
  7
STANDARD1
  0
CIRCLE
  5
445
  8
ARRANGE
  6
CONTINUOUS
 10
0.0
 20
0.0
 30
0.0
 40
15.0
  0
CIRCLE
  5
446
  8
FIX
  6
CONTINUOUS
 10
247.0
 20
0.0
 30
0.0
 40
5.0
  0
CIRCLE
  5
447
  8
FIX
  6
CONTINUOUS
 10
242.0
 20
0.0
 30
0.0
 40
5.0
  0
CIRCLE
  5
448
  8
FIX
  6
CONTINUOUS
 10
-123.0
 20
0.0
 30
0.0
 40
5.0
  0
LINE
  5
449
  8
SERVICESPACE
  6
DASHDOT
 10
-1565.0
 20
2159.0
 30
0.0
 11
-265.0
 21
0.0
 31
0.0
  0
LINE
  5
44A
  8
SERVICESPACE
  6
DASHDOT
 10
-265.0
 20
2159.0
 30
0.0
 11
-1565.0
 21
0.0
 31
0.0
  0
LINE
  5
44B
  8
SERVICESPACE
  6
DASHDOT
 10
-265.0
 20
2159.0
 30
0.0
 11
265.0
 21
1659.0
 31
0.0
  0
LINE
  5
44C
  8
SERVICESPACE
  6
DASHDOT
 10
265.0
 20
2159.0
 30
0.0
 11
-265.0
 21
1659.0
 31
0.0
  0
LINE
  5
44D
  8
SERVICESPACE
  6
DASHDOT
 10
-265.0
 20
1659.0
 30
0.0
 11
265.0
 21
1659.0
 31
0.0
  0
LINE
  5
44E
  8
SERVICESPACE
  6
DASHDOT
 10
265.0
 20
1659.0
 30
0.0
 11
265.0
 21
2159.0
 31
0.0
  0
LINE
  5
44F
  8
SERVICESPACE
  6
DASHDOT
 10
-265.0
 20
2159.0
 30
0.0
 11
-265.0
 21
0.0
 31
0.0
  0
LINE
  5
450
  8
SERVICESPACE
  6
DASHDOT
 10
-1565.0
 20
2159.0
 30
0.0
 11
265.0
 21
2159.0
 31
0.0
  0
LINE
  5
451
  8
SERVICESPACE
  6
DASHDOT
 10
-1565.0
 20
2159.0
 30
0.0
 11
-1565.0
 21
0.0
 31
0.0
  0
LINE
  5
452
  8
SERVICESPACE
  6
DASHDOT
 10
-1565.0
 20
0.0
 30
0.0
 11
-265.0
 21
0.0
 31
0.0
  0
TEXT
  5
453
  8
ETC
  6
CONTINUOUS
 10
656.007996
 20
2254.17041
 30
0.0
 40
40.0
  1
T20144
 50
0.000003
 41
0.6075
  7
STANDARD1
  0
TEXT
  5
454
  8
ETC
  6
CONTINUOUS
 10
656.007996
 20
2184.17041
 30
0.0
 40
40.0
  1
電気温水器
 50
0.000003
 41
0.839583
  7
STANDARD1
  0
ENDSEC
  0
EOF
