  0
SECTION
  2
HEADER
  9
$ACADVER
  1
AC1009
  9
$INSBASE
 10
0.0
 20
0.0
 30
0.0
  9
$EXTMIN
 10
-966.275696
 20
-365.202698
 30
0.0
  9
$EXTMAX
 10
964.442688
 20
2586.630469
 30
0.0
  9
$LIMMIN
 10
0.0
 20
0.0
  9
$LIMMAX
 10
12.0
 20
9.0
  9
$ORTHOMODE
 70
     0
  9
$REGENMODE
 70
     1
  9
$FILLMODE
 70
     1
  9
$QTEXTMODE
 70
     0
  9
$MIRRTEXT
 70
     1
  9
$DRAGMODE
 70
     2
  9
$LTSCALE
 40
1.0
  9
$OSMODE
 70
     0
  9
$ATTMODE
 70
     1
  9
$TEXTSIZE
 40
40.0
  9
$TRACEWID
 40
0.05
  9
$TEXTSTYLE
  7
STANDARD1
  9
$CLAYER
  8
0
  9
$CELTYPE
  6
CONTINUOUS
  9
$CECOLOR
 62
   256
  9
$DIMSCALE
 40
1.0
  9
$DIMASZ
 40
10.0
  9
$DIMEXO
 40
10.0
  9
$DIMDLI
 40
8.0
  9
$DIMRND
 40
0.0
  9
$DIMDLE
 40
0.0
  9
$DIMEXE
 40
12.5
  9
$DIMTP
 40
0.0
  9
$DIMTM
 40
0.0
  9
$DIMTXT
 40
30.0
  9
$DIMCEN
 40
2.5
  9
$DIMTSZ
 40
0.0
  9
$DIMTOL
 70
     0
  9
$DIMLIM
 70
     0
  9
$DIMTIH
 70
     0
  9
$DIMTOH
 70
     0
  9
$DIMSE1
 70
     0
  9
$DIMSE2
 70
     0
  9
$DIMTAD
 70
     3
  9
$DIMZIN
 70
    12
  9
$DIMBLK
  1

  9
$DIMASO
 70
     1
  9
$DIMSHO
 70
     1
  9
$DIMPOST
  1

  9
$DIMAPOST
  1

  9
$DIMALT
 70
     0
  9
$DIMALTD
 70
     4
  9
$DIMALTF
 40
25.4
  9
$DIMLFAC
 40
1.0
  9
$DIMTOFL
 70
     1
  9
$DIMTVP
 40
0.0
  9
$DIMTIX
 70
     0
  9
$DIMSOXD
 70
     0
  9
$DIMSAH
 70
     1
  9
$DIMBLK1
  1
_ORIGIN
  9
$DIMBLK2
  1
_ORIGIN
  9
$DIMSTYLE
  2
STANDARD
  9
$DIMCLRD
 70
     0
  9
$DIMCLRE
 70
     0
  9
$DIMCLRT
 70
     0
  9
$DIMTFAC
 40
1.0
  9
$DIMGAP
 40
0.09
  9
$LUNITS
 70
     2
  9
$LUPREC
 70
     3
  9
$SKETCHINC
 40
0.1
  9
$FILLETRAD
 40
0.0
  9
$AUNITS
 70
     0
  9
$AUPREC
 70
     0
  9
$MENU
  1
acad
  9
$ELEVATION
 40
0.0
  9
$PELEVATION
 40
0.0
  9
$THICKNESS
 40
0.0
  9
$LIMCHECK
 70
     0
  9
$BLIPMODE
 70
     0
  9
$CHAMFERA
 40
0.0
  9
$CHAMFERB
 40
0.0
  9
$SKPOLY
 70
     0
  9
$TDCREATE
 40
2451878.918553
  9
$TDUPDATE
 40
2451878.918553
  9
$TDINDWG
 40
0.0
  9
$TDUSRTIMER
 40
0.0
  9
$USRTIMER
 70
     1
  9
$ANGBASE
 50
0.0
  9
$ANGDIR
 70
     0
  9
$PDMODE
 70
     0
  9
$PDSIZE
 40
0.0
  9
$PLINEWID
 40
0.0
  9
$COORDS
 70
     1
  9
$SPLFRAME
 70
     0
  9
$SPLINETYPE
 70
     6
  9
$SPLINESEGS
 70
     8
  9
$ATTDIA
 70
     0
  9
$ATTREQ
 70
     1
  9
$HANDLING
 70
     1
  9
$HANDSEED
  5
58E
  9
$SURFTAB1
 70
     6
  9
$SURFTAB2
 70
     6
  9
$SURFTYPE
 70
     6
  9
$SURFU
 70
     6
  9
$SURFV
 70
     6
  9
$UCSNAME
  2

  9
$UCSORG
 10
0.0
 20
0.0
 30
0.0
  9
$UCSXDIR
 10
1.0
 20
0.0
 30
0.0
  9
$UCSYDIR
 10
0.0
 20
1.0
 30
0.0
  9
$PUCSNAME
  2

  9
$PUCSORG
 10
0.0
 20
0.0
 30
0.0
  9
$PUCSXDIR
 10
1.0
 20
0.0
 30
0.0
  9
$PUCSYDIR
 10
0.0
 20
1.0
 30
0.0
  9
$USERI1
 70
     0
  9
$USERI2
 70
     0
  9
$USERI3
 70
     0
  9
$USERI4
 70
     0
  9
$USERI5
 70
     0
  9
$USERR1
 40
0.0
  9
$USERR2
 40
0.0
  9
$USERR3
 40
0.0
  9
$USERR4
 40
0.0
  9
$USERR5
 40
0.0
  9
$WORLDVIEW
 70
     1
  9
$SHADEDGE
 70
     3
  9
$SHADEDIF
 70
    70
  9
$TILEMODE
 70
     1
  9
$MAXACTVP
 70
    48
  9
$PLIMCHECK
 70
     0
  9
$PEXTMIN
 10
1.000000E+020
 20
1.000000E+020
 30
1.000000E+020
  9
$PEXTMAX
 10
-1.000000E+020
 20
-1.000000E+020
 30
-1.000000E+020
  9
$PLIMMIN
 10
0.0
 20
0.0
  9
$PLIMMAX
 10
12.0
 20
9.0
  9
$UNITMODE
 70
     0
  9
$VISRETAIN
 70
     1
  9
$PLINEGEN
 70
     0
  9
$PSLTSCALE
 70
     1
  0
ENDSEC
  0
SECTION
  2
TABLES
  0
TABLE
  2
VPORT
 70
     2
  0
VPORT
  2
*ACTIVE
 70
     0
 10
0.0
 20
0.0
 11
1.0
 21
1.0
 12
-0.916504
 22
1110.713886
 13
0.0
 23
0.0
 14
1.0
 24
1.0
 15
0.0
 25
0.0
 16
0.0
 26
0.0
 36
1.0
 17
0.0
 27
0.0
 37
0.0
 40
3008.237622
 41
2.827476
 42
50.0
 43
0.0
 44
0.0
 50
0.0
 51
0.0
 71
     0
 72
   100
 73
     1
 74
     1
 75
     0
 76
     0
 77
     0
 78
     0
  0
ENDTAB
  0
TABLE
  2
LTYPE
 70
     4
  0
LTYPE
  2
CONTINUOUS
 70
     0
  3
Solid line
 72
    65
 73
     0
 40
0.0
  0
LTYPE
  2
DASHED
 70
     0
  3
-- -- -- -- -- -- -- -- -- -- -- -- -- -- --
 72
    65
 73
     2
 40
0.75
 49
0.5
 49
-0.25
  0
LTYPE
  2
DASHDOT
 70
     0
  3
__ . __ . __ . __ . __ . __ . __ . __ . __ . __
 72
    65
 73
     4
 40
125.0
 49
80.0
 49
-20.0
 49
5.0
 49
-20.0
  0
LTYPE
  2
DIVIDE
 70
     0
  3
__ . . __ . . __ . . __ . . __ . . __ . . __
 72
    65
 73
     6
 40
1.25
 49
0.5
 49
-0.25
 49
0.0
 49
-0.25
 49
0.0
 49
-0.25
  0
ENDTAB
  0
TABLE
  2
LAYER
 70
    12
  0
LAYER
  2
0
 70
     0
 62
     3
  6
CONTINUOUS
  0
LAYER
  2
OUTLINE
 70
     0
 62
     3
  6
CONTINUOUS
  0
LAYER
  2
DETAIL
 70
     0
 62
     5
  6
CONTINUOUS
  0
LAYER
  2
BASIS
 70
     0
 62
     6
  6
CONTINUOUS
  0
LAYER
  2
SIZE
 70
     0
 62
    30
  6
CONTINUOUS
  0
LAYER
  2
NOTE
 70
     0
 62
     4
  6
CONTINUOUS
  0
LAYER
  2
ARRANGE
 70
     0
 62
     1
  6
CONTINUOUS
  0
LAYER
  2
FIX
 70
     0
 62
    11
  6
CONTINUOUS
  0
LAYER
  2
SERVICESPACE
 70
     0
 62
     2
  6
CONTINUOUS
  0
LAYER
  2
ETC
 70
     0
 62
    61
  6
CONTINUOUS
  0
LAYER
  2
SYMBOLLINE
 70
     0
 62
     7
  6
CONTINUOUS
  0
LAYER
  2
DEFPOINTS
 70
     0
 62
     7
  6
CONTINUOUS
  0
ENDTAB
  0
TABLE
  2
STYLE
 70
     5
  0
STYLE
  2
STANDARD
 70
     0
 40
0.0
 41
1.0
 50
0.0
 71
     0
 42
0.2
  3
txt
  4

  0
STYLE
  2
STANDARD1
 70
     0
 40
0.0
 41
1.0
 50
0.0
 71
     0
 42
40.0
  3
MONOTXT
  4
BIGFONT
  0
STYLE
  2
STANDARD2
 70
     4
 40
0.0
 41
1.0
 50
0.0
 71
     0
 42
40.0
  3
MONOTXT
  4
BIGFONT
  0
STYLE
  2
STANDARD3
 70
     0
 40
0.0
 41
1.0
 50
0.0
 71
     0
 42
40.0
  3
MONOTXT
  4

  0
STYLE
  2
STANDARD4
 70
     4
 40
0.0
 41
1.0
 50
0.0
 71
     0
 42
40.0
  3
MONOTXT
  4

  0
ENDTAB
  0
TABLE
  2
VIEW
 70
     0
  0
ENDTAB
  0
TABLE
  2
UCS
 70
     0
  0
ENDTAB
  0
TABLE
  2
APPID
 70
     1
  0
APPID
  2
ACAD
 70
     0
  0
ENDTAB
  0
TABLE
  2
DIMSTYLE
 70
     1
  0
DIMSTYLE
  2
STANDARD
 70
     0
  3

  4

  5

  6

  7

 40
1.0
 41
0.18
 42
0.0625
 43
0.38
 44
0.18
 45
0.0
 46
0.0
 47
0.0
 48
0.0
140
0.18
141
0.09
142
0.0
143
25.4
144
1.0
145
0.0
146
1.0
147
0.09
 71
     0
 72
     0
 73
     1
 74
     1
 75
     0
 76
     0
 77
     0
 78
     0
170
     0
171
     2
172
     0
173
     0
174
     0
175
     0
176
     0
177
     0
178
     0
  0
ENDTAB
  0
ENDSEC
  0
SECTION
  2
BLOCKS
  0
BLOCK
  8
0
  2
$MODEL_SPACE
 70
     0
 10
0.0
 20
0.0
 30
0.0
  3
$MODEL_SPACE
  1

  0
ENDBLK
  5
1A
  8
0
  0
BLOCK
 67
     1
  8
0
  2
$PAPER_SPACE
 70
     0
 10
0.0
 20
0.0
 30
0.0
  3
$PAPER_SPACE
  1

  0
ENDBLK
  5
17
 67
     1
  8
0
  0
BLOCK
  8
SIZE
  2
*D0
 70
     1
 10
0.0
 20
0.0
 30
0.0
  3
*D0
  1

  0
TEXT
  5
35
  8
SIZE
  6
CONTINUOUS
 10
507.108099
 20
-88.0075
 30
0.0
 40
2.8
  1
100
 50
90.000005
 41
0.7
  7
STANDARD1
  0
LINE
  5
36
  8
SIZE
  6
CONTINUOUS
 10
355.927185
 20
0.0
 30
0.0
 11
510.108093
 21
0.0
 31
0.0
  0
LINE
  5
37
  8
SIZE
  6
CONTINUOUS
 10
263.950348
 20
100.0
 30
0.0
 11
510.108093
 21
100.0
 31
0.0
  0
LINE
  5
38
  8
SIZE
  6
CONTINUOUS
 10
508.108093
 20
-89.407501
 30
0.0
 11
508.108093
 21
105.0
 31
0.0
  0
INSERT
  5
3A
  8
SIZE
  2
DOT
 10
508.108093
 20
0.0
 30
0.0
 50
270.0
  0
INSERT
  5
3B
  8
SIZE
  2
DOT
 10
508.108093
 20
100.0
 30
0.0
 50
90.0
  0
POINT
  5
3C
  8
DEFPOINTS
  6
BYBLOCK
 10
262.950348
 20
100.0
 30
0.0
  0
POINT
  5
3D
  8
DEFPOINTS
  6
BYBLOCK
 10
354.927185
 20
0.0
 30
0.0
  0
POINT
  5
3E
  8
DEFPOINTS
  6
BYBLOCK
 10
508.108093
 20
0.0
 30
0.0
  0
ENDBLK
  5
3F
  8
SIZE
  0
BLOCK
  8
SIZE
  2
DOT
 70
     0
 10
0.0
 20
0.0
 30
0.0
  3
DOT
  1

  0
POLYLINE
  5
41
  8
0
  6
BYBLOCK
 66
     1
 10
0.0
 20
0.0
 30
0.0
 70
     1
 40
0.5
 41
0.5
  0
VERTEX
  5
42
  8
0
  6
BYBLOCK
 10
-0.25
 20
0.0
 30
0.0
 42
1.0
  0
VERTEX
  5
43
  8
0
  6
BYBLOCK
 10
0.25
 20
0.0
 30
0.0
 42
1.0
  0
SEQEND
  5
44
  8
0
  6
BYBLOCK
  0
LINE
  5
45
  8
0
  6
BYBLOCK
 10
-0.5
 20
0.0
 30
0.0
 11
-1.0
 21
0.0
 31
0.0
  0
ENDBLK
  5
46
  8
SIZE
  0
BLOCK
  8
SIZE
  2
*D2
 70
     1
 10
0.0
 20
0.0
 30
0.0
  3
*D2
  1

  0
TEXT
  5
49
  8
SIZE
  6
CONTINUOUS
 10
-135.431177
 20
-69.465668
 30
0.0
 40
2.8
  1
23
 50
90.000005
 41
0.7
  7
STANDARD1
  0
LINE
  5
4A
  8
SIZE
  6
CONTINUOUS
 10
-56.0
 20
23.0
 30
0.0
 11
-136.431183
 21
23.0
 31
0.0
  0
LINE
  5
4B
  8
SIZE
  6
CONTINUOUS
 10
-43.900002
 20
0.0
 30
0.0
 11
-136.431183
 21
0.0
 31
0.0
  0
LINE
  5
4C
  8
SIZE
  6
CONTINUOUS
 10
-134.431183
 20
28.0
 30
0.0
 11
-134.431183
 21
-70.865669
 31
0.0
  0
INSERT
  5
4D
  8
SIZE
  2
DOT
 10
-134.431183
 20
23.0
 30
0.0
 50
90.0
  0
INSERT
  5
4E
  8
SIZE
  2
DOT
 10
-134.431183
 20
0.0
 30
0.0
 50
270.0
  0
POINT
  5
4F
  8
DEFPOINTS
  6
BYBLOCK
 10
-42.900002
 20
0.0
 30
0.0
  0
POINT
  5
50
  8
DEFPOINTS
  6
BYBLOCK
 10
-55.0
 20
23.0
 30
0.0
  0
POINT
  5
51
  8
DEFPOINTS
  6
BYBLOCK
 10
-134.431183
 20
23.0
 30
0.0
  0
ENDBLK
  5
52
  8
SIZE
  0
BLOCK
  8
SIZE
  2
*D3
 70
     1
 10
0.0
 20
0.0
 30
0.0
  3
*D3
  1

  0
TEXT
  5
55
  8
SIZE
  6
CONTINUOUS
 10
-3.29477
 20
-251.702704
 30
0.0
 40
2.8
  1
662
 50
0.000003
 41
0.7
  7
STANDARD1
  0
LINE
  5
56
  8
SIZE
  6
CONTINUOUS
 10
330.821716
 20
-21.0
 30
0.0
 11
330.821716
 21
-254.702698
 31
0.0
  0
LINE
  5
57
  8
SIZE
  6
CONTINUOUS
 10
-330.821716
 20
-21.0
 30
0.0
 11
-330.821716
 21
-254.702698
 31
0.0
  0
LINE
  5
58
  8
SIZE
  6
CONTINUOUS
 10
330.821716
 20
-252.702698
 30
0.0
 11
-330.821716
 21
-252.702698
 31
0.0
  0
INSERT
  5
59
  8
SIZE
  2
DOT
 10
330.821716
 20
-252.702698
 30
0.0
  0
INSERT
  5
5A
  8
SIZE
  2
DOT
 10
-330.821716
 20
-252.702698
 30
0.0
 50
180.0
  0
POINT
  5
5B
  8
DEFPOINTS
  6
BYBLOCK
 10
-330.821716
 20
-20.0
 30
0.0
  0
POINT
  5
5C
  8
DEFPOINTS
  6
BYBLOCK
 10
330.821716
 20
-20.0
 30
0.0
  0
POINT
  5
5D
  8
DEFPOINTS
  6
BYBLOCK
 10
330.821716
 20
-252.702698
 30
0.0
  0
ENDBLK
  5
5E
  8
SIZE
  0
BLOCK
  8
SIZE
  2
*D4
 70
     1
 10
0.0
 20
0.0
 30
0.0
  3
*D4
  1

  0
TEXT
  5
61
  8
SIZE
  6
CONTINUOUS
 10
58.447662
 20
-151.702704
 30
0.0
 40
2.8
  1
35
 50
0.000003
 41
0.7
  7
STANDARD1
  0
LINE
  5
62
  8
SIZE
  6
CONTINUOUS
 10
-35.0
 20
2.0
 30
0.0
 11
-35.0
 21
-154.702698
 31
0.0
  0
LINE
  5
63
  8
SIZE
  6
CONTINUOUS
 10
0.0
 20
-15.77456
 30
0.0
 11
0.0
 21
-154.702698
 31
0.0
  0
LINE
  5
64
  8
SIZE
  6
CONTINUOUS
 10
-40.0
 20
-152.702698
 30
0.0
 11
63.767662
 21
-152.702698
 31
0.0
  0
INSERT
  5
65
  8
SIZE
  2
DOT
 10
-35.0
 20
-152.702698
 30
0.0
 50
180.0
  0
INSERT
  5
66
  8
SIZE
  2
DOT
 10
0.0
 20
-152.702698
 30
0.0
  0
POINT
  5
67
  8
DEFPOINTS
  6
BYBLOCK
 10
0.0
 20
-14.77456
 30
0.0
  0
POINT
  5
68
  8
DEFPOINTS
  6
BYBLOCK
 10
-35.0
 20
3.0
 30
0.0
  0
POINT
  5
69
  8
DEFPOINTS
  6
BYBLOCK
 10
-35.0
 20
-152.702698
 30
0.0
  0
ENDBLK
  5
6A
  8
SIZE
  0
BLOCK
  8
SIZE
  2
*D5
 70
     1
 10
0.0
 20
0.0
 30
0.0
  3
*D5
  1

  0
TEXT
  5
6D
  8
SIZE
  6
CONTINUOUS
 10
-561.27334
 20
2193.360108
 30
0.0
 40
2.8
  1
500
 50
90.000005
 41
0.7
  7
STANDARD1
  0
LINE
  5
6E
  8
SIZE
  6
CONTINUOUS
 10
-361.0
 20
2446.300049
 30
0.0
 11
-562.273315
 21
2446.300049
 31
0.0
  0
LINE
  5
6F
  8
SIZE
  6
CONTINUOUS
 10
-361.0
 20
1946.300049
 30
0.0
 11
-562.273315
 21
1946.300049
 31
0.0
  0
LINE
  5
70
  8
SIZE
  6
CONTINUOUS
 10
-560.273315
 20
2446.300049
 30
0.0
 11
-560.273315
 21
1946.300049
 31
0.0
  0
INSERT
  5
71
  8
SIZE
  2
DOT
 10
-560.273315
 20
2446.300049
 30
0.0
 50
90.0
  0
INSERT
  5
72
  8
SIZE
  2
DOT
 10
-560.273315
 20
1946.300049
 30
0.0
 50
270.0
  0
POINT
  5
73
  8
DEFPOINTS
  6
BYBLOCK
 10
-360.0
 20
1946.300049
 30
0.0
  0
POINT
  5
74
  8
DEFPOINTS
  6
BYBLOCK
 10
-360.0
 20
2446.300049
 30
0.0
  0
POINT
  5
75
  8
DEFPOINTS
  6
BYBLOCK
 10
-560.273315
 20
2446.300049
 30
0.0
  0
ENDBLK
  5
76
  8
SIZE
  0
BLOCK
  8
SIZE
  2
*D6
 70
     1
 10
0.0
 20
0.0
 30
0.0
  3
*D6
  1

  0
TEXT
  5
79
  8
SIZE
  6
CONTINUOUS
 10
-2.94
 20
2545.230371
 30
0.0
 40
2.8
  1
720
 50
0.000003
 41
0.7
  7
STANDARD1
  0
LINE
  5
7A
  8
SIZE
  6
CONTINUOUS
 10
360.0
 20
2447.300049
 30
0.0
 11
360.0
 21
2546.230469
 31
0.0
  0
LINE
  5
7B
  8
SIZE
  6
CONTINUOUS
 10
-360.0
 20
2447.300049
 30
0.0
 11
-360.0
 21
2546.230469
 31
0.0
  0
LINE
  5
7C
  8
SIZE
  6
CONTINUOUS
 10
360.0
 20
2544.230469
 30
0.0
 11
-360.0
 21
2544.230469
 31
0.0
  0
INSERT
  5
7D
  8
SIZE
  2
DOT
 10
360.0
 20
2544.230469
 30
0.0
  0
INSERT
  5
7E
  8
SIZE
  2
DOT
 10
-360.0
 20
2544.230469
 30
0.0
 50
180.0
  0
POINT
  5
7F
  8
DEFPOINTS
  6
BYBLOCK
 10
-360.0
 20
2446.300049
 30
0.0
  0
POINT
  5
80
  8
DEFPOINTS
  6
BYBLOCK
 10
360.0
 20
2446.300049
 30
0.0
  0
POINT
  5
81
  8
DEFPOINTS
  6
BYBLOCK
 10
360.0
 20
2544.230469
 30
0.0
  0
ENDBLK
  5
82
  8
SIZE
  0
BLOCK
  8
SIZE
  2
*D7
 70
     1
 10
0.0
 20
0.0
 30
0.0
  3
*D7
  1

  0
TEXT
  5
85
  8
SIZE
  6
CONTINUOUS
 10
-460.999994
 20
119.568756
 30
0.0
 40
2.8
  1
161
 50
90.000005
 41
0.7
  7
STANDARD1
  0
LINE
  5
86
  8
SIZE
  6
CONTINUOUS
 10
-97.5
 20
200.699997
 30
0.0
 11
-462.0
 21
200.699997
 31
0.0
  0
LINE
  5
87
  8
SIZE
  6
CONTINUOUS
 10
-361.0
 20
40.000004
 30
0.0
 11
-462.0
 21
40.000004
 31
0.0
  0
LINE
  5
88
  8
SIZE
  6
CONTINUOUS
 10
-460.0
 20
200.699997
 30
0.0
 11
-460.0
 21
40.000004
 31
0.0
  0
INSERT
  5
89
  8
SIZE
  2
DOT
 10
-460.0
 20
200.699997
 30
0.0
 50
90.0
  0
INSERT
  5
8A
  8
SIZE
  2
DOT
 10
-460.0
 20
40.000004
 30
0.0
 50
270.0
  0
POINT
  5
8B
  8
DEFPOINTS
  6
BYBLOCK
 10
-360.0
 20
40.000004
 30
0.0
  0
POINT
  5
8C
  8
DEFPOINTS
  6
BYBLOCK
 10
-96.5
 20
200.699997
 30
0.0
  0
POINT
  5
8D
  8
DEFPOINTS
  6
BYBLOCK
 10
-460.0
 20
200.699997
 30
0.0
  0
ENDBLK
  5
8E
  8
SIZE
  0
BLOCK
  8
SIZE
  2
*D8
 70
     1
 10
0.0
 20
0.0
 30
0.0
  3
*D8
  1

  0
TEXT
  5
91
  8
SIZE
  6
CONTINUOUS
 10
-460.999994
 20
629.76001
 30
0.0
 40
2.8
  1
864
 50
90.000005
 41
0.7
  7
STANDARD1
  0
LINE
  5
92
  8
SIZE
  6
CONTINUOUS
 10
-97.5
 20
1064.699951
 30
0.0
 11
-462.0
 21
1064.699951
 31
0.0
  0
LINE
  5
93
  8
SIZE
  6
CONTINUOUS
 10
-97.5
 20
200.699997
 30
0.0
 11
-462.0
 21
200.699997
 31
0.0
  0
LINE
  5
94
  8
SIZE
  6
CONTINUOUS
 10
-460.0
 20
1064.699951
 30
0.0
 11
-460.0
 21
200.699997
 31
0.0
  0
INSERT
  5
95
  8
SIZE
  2
DOT
 10
-460.0
 20
1064.699951
 30
0.0
 50
90.0
  0
INSERT
  5
96
  8
SIZE
  2
DOT
 10
-460.0
 20
200.699997
 30
0.0
 50
270.0
  0
POINT
  5
97
  8
DEFPOINTS
  6
BYBLOCK
 10
-96.5
 20
200.699997
 30
0.0
  0
POINT
  5
98
  8
DEFPOINTS
  6
BYBLOCK
 10
-96.5
 20
1064.699951
 30
0.0
  0
POINT
  5
99
  8
DEFPOINTS
  6
BYBLOCK
 10
-460.0
 20
1064.699951
 30
0.0
  0
ENDBLK
  5
9A
  8
SIZE
  0
BLOCK
  8
SIZE
  2
*D9
 70
     1
 10
0.0
 20
0.0
 30
0.0
  3
*D9
  1

  0
TEXT
  5
9D
  8
SIZE
  6
CONTINUOUS
 10
-6.622703
 20
-351.702704
 30
0.0
 40
2.8
  1
φ
 50
0.000003
 41
0.583333
  7
STANDARD1
  0
TEXT
  5
9E
  8
SIZE
  6
CONTINUOUS
 10
-4.662702
 20
-351.702704
 30
0.0
 40
2.8
  1
720
 50
0.000003
 41
0.7
  7
STANDARD1
  0
LINE
  5
9F
  8
SIZE
  6
CONTINUOUS
 10
360.0
 20
39.0
 30
0.0
 11
360.0
 21
-354.702698
 31
0.0
  0
LINE
  5
A0
  8
SIZE
  6
CONTINUOUS
 10
-360.0
 20
39.0
 30
0.0
 11
-360.0
 21
-354.702698
 31
0.0
  0
LINE
  5
A1
  8
SIZE
  6
CONTINUOUS
 10
360.0
 20
-352.702698
 30
0.0
 11
-360.0
 21
-352.702698
 31
0.0
  0
INSERT
  5
A2
  8
SIZE
  2
DOT
 10
360.0
 20
-352.702698
 30
0.0
  0
INSERT
  5
A3
  8
SIZE
  2
DOT
 10
-360.0
 20
-352.702698
 30
0.0
 50
180.0
  0
POINT
  5
A4
  8
DEFPOINTS
  6
BYBLOCK
 10
-360.0
 20
40.0
 30
0.0
  0
POINT
  5
A5
  8
DEFPOINTS
  6
BYBLOCK
 10
360.0
 20
40.0
 30
0.0
  0
POINT
  5
A6
  8
DEFPOINTS
  6
BYBLOCK
 10
360.0
 20
-352.702698
 30
0.0
  0
ENDBLK
  5
A7
  8
SIZE
  0
BLOCK
  8
SIZE
  2
*D10
 70
     1
 10
0.0
 20
0.0
 30
0.0
  3
*D10
  1

  0
TEXT
  5
AA
  8
SIZE
  6
CONTINUOUS
 10
707.108069
 20
991.561768
 30
0.0
 40
2.8
  1
1996
 50
90.000005
 41
0.7
  7
STANDARD1
  0
LINE
  5
AB
  8
SIZE
  6
CONTINUOUS
 10
13.112693
 20
1996.199951
 30
0.0
 11
710.108093
 21
1996.199951
 31
0.0
  0
LINE
  5
AC
  8
SIZE
  6
CONTINUOUS
 10
355.879944
 20
0.0
 30
0.0
 11
710.108093
 21
0.0
 31
0.0
  0
LINE
  5
AD
  8
SIZE
  6
CONTINUOUS
 10
708.108093
 20
1996.199951
 30
0.0
 11
708.108093
 21
0.0
 31
0.0
  0
INSERT
  5
AE
  8
SIZE
  2
DOT
 10
708.108093
 20
1996.199951
 30
0.0
 50
90.0
  0
INSERT
  5
AF
  8
SIZE
  2
DOT
 10
708.108093
 20
0.0
 30
0.0
 50
270.0
  0
POINT
  5
B0
  8
DEFPOINTS
  6
BYBLOCK
 10
354.879944
 20
0.0
 30
0.0
  0
POINT
  5
B1
  8
DEFPOINTS
  6
BYBLOCK
 10
12.112693
 20
1996.199951
 30
0.0
  0
POINT
  5
B2
  8
DEFPOINTS
  6
BYBLOCK
 10
708.108093
 20
1996.199951
 30
0.0
  0
ENDBLK
  5
B3
  8
SIZE
  0
BLOCK
  8
SIZE
  2
*D11
 70
     1
 10
0.0
 20
0.0
 30
0.0
  3
*D11
  1

  0
TEXT
  5
B6
  8
SIZE
  6
CONTINUOUS
 10
607.108069
 20
-57.829613
 30
0.0
 40
2.8
  1
40
 50
90.000005
 41
0.7
  7
STANDARD1
  0
LINE
  5
B7
  8
SIZE
  6
CONTINUOUS
 10
361.0
 20
40.000004
 30
0.0
 11
610.108093
 21
40.000004
 31
0.0
  0
LINE
  5
B8
  8
SIZE
  6
CONTINUOUS
 10
355.880005
 20
0.000003
 30
0.0
 11
610.108093
 21
0.000003
 31
0.0
  0
LINE
  5
B9
  8
SIZE
  6
CONTINUOUS
 10
608.108093
 20
45.000004
 30
0.0
 11
608.108093
 21
-59.229614
 31
0.0
  0
INSERT
  5
BA
  8
SIZE
  2
DOT
 10
608.108093
 20
40.000004
 30
0.0
 50
90.0
  0
INSERT
  5
BB
  8
SIZE
  2
DOT
 10
608.108093
 20
0.000003
 30
0.0
 50
270.0
  0
POINT
  5
BC
  8
DEFPOINTS
  6
BYBLOCK
 10
354.880005
 20
0.000003
 30
0.0
  0
POINT
  5
BD
  8
DEFPOINTS
  6
BYBLOCK
 10
360.0
 20
40.000004
 30
0.0
  0
POINT
  5
BE
  8
DEFPOINTS
  6
BYBLOCK
 10
608.108093
 20
40.000004
 30
0.0
  0
ENDBLK
  5
BF
  8
SIZE
  0
BLOCK
  8
SIZE
  2
*D12
 70
     1
 10
0.0
 20
0.0
 30
0.0
  3
*D12
  1

  0
TEXT
  5
C2
  8
SIZE
  6
CONTINUOUS
 10
607.108069
 20
989.230042
 30
0.0
 40
2.8
  1
1906
 50
90.000005
 41
0.7
  7
STANDARD1
  0
LINE
  5
C3
  8
SIZE
  6
CONTINUOUS
 10
361.0
 20
40.0
 30
0.0
 11
610.108093
 21
40.0
 31
0.0
  0
LINE
  5
C4
  8
SIZE
  6
CONTINUOUS
 10
51.000336
 20
1946.300049
 30
0.0
 11
610.108093
 21
1946.300049
 31
0.0
  0
LINE
  5
C5
  8
SIZE
  6
CONTINUOUS
 10
608.108093
 20
40.0
 30
0.0
 11
608.108093
 21
1946.300049
 31
0.0
  0
INSERT
  5
C6
  8
SIZE
  2
DOT
 10
608.108093
 20
40.0
 30
0.0
 50
270.0
  0
INSERT
  5
C7
  8
SIZE
  2
DOT
 10
608.108093
 20
1946.300049
 30
0.0
 50
90.0
  0
POINT
  5
C8
  8
DEFPOINTS
  6
BYBLOCK
 10
50.000336
 20
1946.300049
 30
0.0
  0
POINT
  5
C9
  8
DEFPOINTS
  6
BYBLOCK
 10
360.0
 20
40.0
 30
0.0
  0
POINT
  5
CA
  8
DEFPOINTS
  6
BYBLOCK
 10
608.108093
 20
40.0
 30
0.0
  0
ENDBLK
  5
CB
  8
SIZE
  0
BLOCK
  8
SIZE
  2
*D13
 70
     1
 10
0.0
 20
0.0
 30
0.0
  3
*D13
  1

  0
TEXT
  5
CE
  8
SIZE
  6
CONTINUOUS
 10
-6.801773
 20
119.355959
 30
0.0
 40
2.8
  1
253
 50
0.000003
 41
0.7
  7
STANDARD1
  0
LINE
  5
CF
  8
SIZE
  6
CONTINUOUS
 10
-126.5
 20
229.699997
 30
0.0
 11
-126.5
 21
116.355957
 31
0.0
  0
LINE
  5
D0
  8
SIZE
  6
CONTINUOUS
 10
126.5
 20
229.699997
 30
0.0
 11
126.5
 21
116.355957
 31
0.0
  0
LINE
  5
D1
  8
SIZE
  6
CONTINUOUS
 10
-126.5
 20
118.355957
 30
0.0
 11
126.5
 21
118.355957
 31
0.0
  0
INSERT
  5
D2
  8
SIZE
  2
DOT
 10
-126.5
 20
118.355957
 30
0.0
 50
180.0
  0
INSERT
  5
D3
  8
SIZE
  2
DOT
 10
126.5
 20
118.355957
 30
0.0
  0
POINT
  5
D4
  8
DEFPOINTS
  6
BYBLOCK
 10
126.5
 20
230.699997
 30
0.0
  0
POINT
  5
D5
  8
DEFPOINTS
  6
BYBLOCK
 10
-126.5
 20
230.699997
 30
0.0
  0
POINT
  5
D6
  8
DEFPOINTS
  6
BYBLOCK
 10
-126.5
 20
118.355957
 30
0.0
  0
ENDBLK
  5
D7
  8
SIZE
  0
BLOCK
  8
SIZE
  2
*D14
 70
     1
 10
0.0
 20
0.0
 30
0.0
  3
*D14
  1

  0
TEXT
  5
DA
  8
SIZE
  6
CONTINUOUS
 10
606.220679
 20
1969.290039
 30
0.0
 40
2.8
  1
50
 50
90.000005
 41
0.7
  7
STANDARD1
  0
LINE
  5
DB
  8
SIZE
  6
CONTINUOUS
 10
51.000244
 20
1946.300049
 30
0.0
 11
609.220703
 21
1946.300049
 31
0.0
  0
LINE
  5
DC
  8
SIZE
  6
CONTINUOUS
 10
13.112792
 20
1996.199951
 30
0.0
 11
609.220703
 21
1996.199951
 31
0.0
  0
LINE
  5
DD
  8
SIZE
  6
CONTINUOUS
 10
607.220703
 20
1946.300049
 30
0.0
 11
607.220703
 21
1996.199951
 31
0.0
  0
INSERT
  5
DE
  8
SIZE
  2
DOT
 10
607.220703
 20
1946.300049
 30
0.0
 50
270.0
  0
INSERT
  5
DF
  8
SIZE
  2
DOT
 10
607.220703
 20
1996.199951
 30
0.0
 50
90.0
  0
POINT
  5
E0
  8
DEFPOINTS
  6
BYBLOCK
 10
12.112792
 20
1996.199951
 30
0.0
  0
POINT
  5
E1
  8
DEFPOINTS
  6
BYBLOCK
 10
50.000244
 20
1946.300049
 30
0.0
  0
POINT
  5
E2
  8
DEFPOINTS
  6
BYBLOCK
 10
607.220703
 20
1946.300049
 30
0.0
  0
ENDBLK
  5
E3
  8
SIZE
  0
BLOCK
  8
SIZE
  2
*D15
 70
     1
 10
0.0
 20
0.0
 30
0.0
  3
*D15
  1

  0
TEXT
  5
E6
  8
SIZE
  6
CONTINUOUS
 10
-461.273309
 20
1881.755493
 30
0.0
 40
2.8
  1
35
 50
90.000005
 41
0.7
  7
STANDARD1
  0
LINE
  5
E7
  8
SIZE
  6
CONTINUOUS
 10
-162.217041
 20
1981.300049
 30
0.0
 11
-462.273315
 21
1981.300049
 31
0.0
  0
LINE
  5
E8
  8
SIZE
  6
CONTINUOUS
 10
-51.000244
 20
1946.300049
 30
0.0
 11
-462.273315
 21
1946.300049
 31
0.0
  0
LINE
  5
E9
  8
SIZE
  6
CONTINUOUS
 10
-460.273315
 20
1986.300049
 30
0.0
 11
-460.273315
 21
1880.355469
 31
0.0
  0
INSERT
  5
EA
  8
SIZE
  2
DOT
 10
-460.273315
 20
1981.300049
 30
0.0
 50
90.0
  0
INSERT
  5
EB
  8
SIZE
  2
DOT
 10
-460.273315
 20
1946.300049
 30
0.0
 50
270.0
  0
POINT
  5
EC
  8
DEFPOINTS
  6
BYBLOCK
 10
-50.000244
 20
1946.300049
 30
0.0
  0
POINT
  5
ED
  8
DEFPOINTS
  6
BYBLOCK
 10
-161.217041
 20
1981.300049
 30
0.0
  0
POINT
  5
EE
  8
DEFPOINTS
  6
BYBLOCK
 10
-460.273315
 20
1981.300049
 30
0.0
  0
ENDBLK
  5
EF
  8
SIZE
  0
BLOCK
  8
0
  2
_ORIGIN
 70
     0
 10
0.0
 20
0.0
 30
0.0
  3
_ORIGIN
  1

  0
CIRCLE
  5
F2
  8
0
  6
BYBLOCK
 62
     0
 10
0.0
 20
0.0
 30
0.0
 40
0.5
  0
LINE
  5
F3
  8
0
  6
BYBLOCK
 62
     0
 10
0.0
 20
0.0
 30
0.0
 11
-1.0
 21
0.0
 31
0.0
  0
ENDBLK
  5
F4
  8
0
  0
BLOCK
  8
0
  2
*D17
 70
     1
 10
0.0
 20
0.0
 30
0.0
  3
*D17
  1

  0
LINE
  5
F7
  8
0
  6
BYBLOCK
 62
     0
 10
-60.000244
 20
1946.300049
 30
0.0
 11
-475.173315
 21
1946.300049
 31
0.0
  0
LINE
  5
F8
  8
0
  6
BYBLOCK
 62
     0
 10
-171.217041
 20
1981.300049
 30
0.0
 11
-475.173315
 21
1981.300049
 31
0.0
  0
LINE
  5
F9
  8
0
  6
BYBLOCK
 62
     0
 10
-462.673315
 20
1991.300049
 30
0.0
 11
-462.673315
 21
2001.300049
 31
0.0
  0
LINE
  5
FA
  8
0
  6
BYBLOCK
 62
     0
 10
-462.673315
 20
1936.300049
 30
0.0
 11
-462.673315
 21
1848.715454
 31
0.0
  0
LINE
  5
FB
  8
0
  6
BYBLOCK
 62
     0
 10
-462.673315
 20
1981.300049
 30
0.0
 11
-462.673315
 21
1946.300049
 31
0.0
  0
INSERT
  5
FC
  8
0
  6
BYBLOCK
 62
     0
  2
_ORIGIN
 10
-462.673315
 20
1981.300049
 30
0.0
 41
10.0
 42
10.0
 43
10.0
 50
270.0
  0
INSERT
  5
FD
  8
0
  6
BYBLOCK
 62
     0
  2
_ORIGIN
 10
-462.673315
 20
1946.300049
 30
0.0
 41
10.0
 42
10.0
 43
10.0
 50
90.0
  0
TEXT
  5
FE
  8
0
  6
BYBLOCK
 62
     0
 10
-472.673315
 20
1858.715454
 30
0.0
 40
30.0
  1
35
 50
90.0
 72
     1
 11
-472.673315
 21
1883.715454
 31
0.0
  0
POINT
  5
FF
  8
DEFPOINTS
  6
BYBLOCK
 62
     0
 10
-50.000244
 20
1946.300049
 30
0.0
  0
POINT
  5
100
  8
DEFPOINTS
  6
BYBLOCK
 62
     0
 10
-161.217041
 20
1981.300049
 30
0.0
  0
POINT
  5
101
  8
DEFPOINTS
  6
BYBLOCK
 62
     0
 10
-462.673315
 20
1981.300049
 30
0.0
  0
ENDBLK
  5
102
  8
0
  0
BLOCK
  8
0
  2
*D18
 70
     1
 10
0.0
 20
0.0
 30
0.0
  3
*D18
  1

  0
LINE
  5
105
  8
0
  6
BYBLOCK
 62
     0
 10
22.112792
 20
1996.199951
 30
0.0
 11
617.320703
 21
1996.199951
 31
0.0
  0
LINE
  5
106
  8
0
  6
BYBLOCK
 62
     0
 10
60.000244
 20
1946.300049
 30
0.0
 11
617.320703
 21
1946.300049
 31
0.0
  0
LINE
  5
107
  8
0
  6
BYBLOCK
 62
     0
 10
604.820703
 20
1986.199951
 30
0.0
 11
604.820703
 21
1956.300049
 31
0.0
  0
INSERT
  5
108
  8
0
  6
BYBLOCK
 62
     0
  2
_ORIGIN
 10
604.820703
 20
1996.199951
 30
0.0
 41
10.0
 42
10.0
 43
10.0
 50
90.0
  0
INSERT
  5
109
  8
0
  6
BYBLOCK
 62
     0
  2
_ORIGIN
 10
604.820703
 20
1946.300049
 30
0.0
 41
10.0
 42
10.0
 43
10.0
 50
270.0
  0
TEXT
  5
10A
  8
0
  6
BYBLOCK
 62
     0
 10
594.820703
 20
1948.75
 30
0.0
 40
30.0
  1
50
 50
90.0
 72
     1
 11
594.820703
 21
1971.25
 31
0.0
  0
POINT
  5
10B
  8
DEFPOINTS
  6
BYBLOCK
 62
     0
 10
12.112792
 20
1996.199951
 30
0.0
  0
POINT
  5
10C
  8
DEFPOINTS
  6
BYBLOCK
 62
     0
 10
50.000244
 20
1946.300049
 30
0.0
  0
POINT
  5
10D
  8
DEFPOINTS
  6
BYBLOCK
 62
     0
 10
604.820703
 20
1946.300049
 30
0.0
  0
ENDBLK
  5
10E
  8
0
  0
BLOCK
  8
0
  2
*D19
 70
     1
 10
0.0
 20
0.0
 30
0.0
  3
*D19
  1

  0
LINE
  5
111
  8
0
  6
BYBLOCK
 62
     0
 10
126.5
 20
220.699997
 30
0.0
 11
126.5
 21
108.255957
 31
0.0
  0
LINE
  5
112
  8
0
  6
BYBLOCK
 62
     0
 10
-126.5
 20
220.699997
 30
0.0
 11
-126.5
 21
108.255957
 31
0.0
  0
LINE
  5
113
  8
0
  6
BYBLOCK
 62
     0
 10
116.5
 20
120.755957
 30
0.0
 11
-116.5
 21
120.755957
 31
0.0
  0
INSERT
  5
114
  8
0
  6
BYBLOCK
 62
     0
  2
_ORIGIN
 10
126.5
 20
120.755957
 30
0.0
 41
10.0
 42
10.0
 43
10.0
  0
INSERT
  5
115
  8
0
  6
BYBLOCK
 62
     0
  2
_ORIGIN
 10
-126.5
 20
120.755957
 30
0.0
 41
10.0
 42
10.0
 43
10.0
 50
180.0
  0
TEXT
  5
116
  8
0
  6
BYBLOCK
 62
     0
 10
-43.861773
 20
130.755957
 30
0.0
 40
30.0
  1
253
 72
     1
 11
-3.861773
 21
130.755957
 31
0.0
  0
POINT
  5
117
  8
DEFPOINTS
  6
BYBLOCK
 62
     0
 10
126.5
 20
230.699997
 30
0.0
  0
POINT
  5
118
  8
DEFPOINTS
  6
BYBLOCK
 62
     0
 10
-126.5
 20
230.699997
 30
0.0
  0
POINT
  5
119
  8
DEFPOINTS
  6
BYBLOCK
 62
     0
 10
-126.5
 20
120.755957
 30
0.0
  0
ENDBLK
  5
11A
  8
0
  0
BLOCK
  8
0
  2
*D20
 70
     1
 10
0.0
 20
0.0
 30
0.0
  3
*D20
  1

  0
LINE
  5
11D
  8
0
  6
BYBLOCK
 62
     0
 10
60.000336
 20
1946.300049
 30
0.0
 11
618.208093
 21
1946.300049
 31
0.0
  0
LINE
  5
11E
  8
0
  6
BYBLOCK
 62
     0
 10
370.0
 20
40.0
 30
0.0
 11
618.208093
 21
40.0
 31
0.0
  0
LINE
  5
11F
  8
0
  6
BYBLOCK
 62
     0
 10
605.708093
 20
1936.300049
 30
0.0
 11
605.708093
 21
50.0
 31
0.0
  0
INSERT
  5
120
  8
0
  6
BYBLOCK
 62
     0
  2
_ORIGIN
 10
605.708093
 20
1946.300049
 30
0.0
 41
10.0
 42
10.0
 43
10.0
 50
90.0
  0
INSERT
  5
121
  8
0
  6
BYBLOCK
 62
     0
  2
_ORIGIN
 10
605.708093
 20
40.0
 30
0.0
 41
10.0
 42
10.0
 43
10.0
 50
270.0
  0
TEXT
  5
122
  8
0
  6
BYBLOCK
 62
     0
 10
595.708093
 20
945.650024
 30
0.0
 40
30.0
  1
1906
 50
90.0
 72
     1
 11
595.708093
 21
993.150024
 31
0.0
  0
POINT
  5
123
  8
DEFPOINTS
  6
BYBLOCK
 62
     0
 10
50.000336
 20
1946.300049
 30
0.0
  0
POINT
  5
124
  8
DEFPOINTS
  6
BYBLOCK
 62
     0
 10
360.0
 20
40.0
 30
0.0
  0
POINT
  5
125
  8
DEFPOINTS
  6
BYBLOCK
 62
     0
 10
605.708093
 20
40.0
 30
0.0
  0
ENDBLK
  5
126
  8
0
  0
BLOCK
  8
0
  2
*D21
 70
     1
 10
0.0
 20
0.0
 30
0.0
  3
*D21
  1

  0
LINE
  5
129
  8
0
  6
BYBLOCK
 62
     0
 10
364.880005
 20
0.000003
 30
0.0
 11
618.208093
 21
0.000003
 31
0.0
  0
LINE
  5
12A
  8
0
  6
BYBLOCK
 62
     0
 10
370.0
 20
40.000004
 30
0.0
 11
618.208093
 21
40.000004
 31
0.0
  0
LINE
  5
12B
  8
0
  6
BYBLOCK
 62
     0
 10
605.708093
 20
30.000004
 30
0.0
 11
605.708093
 21
10.000003
 31
0.0
  0
LINE
  5
12C
  8
0
  6
BYBLOCK
 62
     0
 10
605.708093
 20
0.000003
 30
0.0
 11
605.708093
 21
-88.369614
 31
0.0
  0
INSERT
  5
12D
  8
0
  6
BYBLOCK
 62
     0
  2
_ORIGIN
 10
605.708093
 20
40.000004
 30
0.0
 41
10.0
 42
10.0
 43
10.0
 50
90.0
  0
INSERT
  5
12E
  8
0
  6
BYBLOCK
 62
     0
  2
_ORIGIN
 10
605.708093
 20
0.000003
 30
0.0
 41
10.0
 42
10.0
 43
10.0
 50
270.0
  0
TEXT
  5
12F
  8
0
  6
BYBLOCK
 62
     0
 10
595.708093
 20
-78.369614
 30
0.0
 40
30.0
  1
40
 50
90.0
 72
     1
 11
595.708093
 21
-55.869614
 31
0.0
  0
POINT
  5
130
  8
DEFPOINTS
  6
BYBLOCK
 62
     0
 10
354.880005
 20
0.000003
 30
0.0
  0
POINT
  5
131
  8
DEFPOINTS
  6
BYBLOCK
 62
     0
 10
360.0
 20
40.000004
 30
0.0
  0
POINT
  5
132
  8
DEFPOINTS
  6
BYBLOCK
 62
     0
 10
605.708093
 20
40.000004
 30
0.0
  0
ENDBLK
  5
133
  8
0
  0
BLOCK
  8
0
  2
*D22
 70
     1
 10
0.0
 20
0.0
 30
0.0
  3
*D22
  1

  0
LINE
  5
136
  8
0
  6
BYBLOCK
 62
     0
 10
364.879944
 20
0.0
 30
0.0
 11
718.208093
 21
0.0
 31
0.0
  0
LINE
  5
137
  8
0
  6
BYBLOCK
 62
     0
 10
22.112693
 20
1996.199951
 30
0.0
 11
718.208093
 21
1996.199951
 31
0.0
  0
LINE
  5
138
  8
0
  6
BYBLOCK
 62
     0
 10
705.708093
 20
10.0
 30
0.0
 11
705.708093
 21
1986.199951
 31
0.0
  0
INSERT
  5
139
  8
0
  6
BYBLOCK
 62
     0
  2
_ORIGIN
 10
705.708093
 20
0.0
 30
0.0
 41
10.0
 42
10.0
 43
10.0
 50
270.0
  0
INSERT
  5
13A
  8
0
  6
BYBLOCK
 62
     0
  2
_ORIGIN
 10
705.708093
 20
1996.199951
 30
0.0
 41
10.0
 42
10.0
 43
10.0
 50
90.0
  0
TEXT
  5
13B
  8
0
  6
BYBLOCK
 62
     0
 10
695.708093
 20
945.48175
 30
0.0
 40
30.0
  1
1996
 50
90.0
 72
     1
 11
695.708093
 21
995.48175
 31
0.0
  0
POINT
  5
13C
  8
DEFPOINTS
  6
BYBLOCK
 62
     0
 10
354.879944
 20
0.0
 30
0.0
  0
POINT
  5
13D
  8
DEFPOINTS
  6
BYBLOCK
 62
     0
 10
12.112693
 20
1996.199951
 30
0.0
  0
POINT
  5
13E
  8
DEFPOINTS
  6
BYBLOCK
 62
     0
 10
705.708093
 20
1996.199951
 30
0.0
  0
ENDBLK
  5
13F
  8
0
  0
BLOCK
  8
0
  2
*D23
 70
     1
 10
0.0
 20
0.0
 30
0.0
  3
*D23
  1

  0
LINE
  5
142
  8
0
  6
BYBLOCK
 62
     0
 10
-360.0
 20
30.0
 30
0.0
 11
-360.0
 21
-365.202698
 31
0.0
  0
LINE
  5
143
  8
0
  6
BYBLOCK
 62
     0
 10
360.0
 20
30.0
 30
0.0
 11
360.0
 21
-365.202698
 31
0.0
  0
LINE
  5
144
  8
0
  6
BYBLOCK
 62
     0
 10
-350.0
 20
-352.702698
 30
0.0
 11
350.0
 21
-352.702698
 31
0.0
  0
INSERT
  5
145
  8
0
  6
BYBLOCK
 62
     0
  2
_ORIGIN
 10
-360.0
 20
-352.702698
 30
0.0
 41
10.0
 42
10.0
 43
10.0
 50
180.0
  0
INSERT
  5
146
  8
0
  6
BYBLOCK
 62
     0
  2
_ORIGIN
 10
360.0
 20
-352.702698
 30
0.0
 41
10.0
 42
10.0
 43
10.0
  0
TEXT
  5
147
  8
0
  6
BYBLOCK
 62
     0
 10
-37.5
 20
-342.702698
 30
0.0
 40
30.0
  1
720
 72
     1
 11
0.0
 21
-342.702698
 31
0.0
  0
POINT
  5
148
  8
DEFPOINTS
  6
BYBLOCK
 62
     0
 10
-360.0
 20
40.0
 30
0.0
  0
POINT
  5
149
  8
DEFPOINTS
  6
BYBLOCK
 62
     0
 10
360.0
 20
40.0
 30
0.0
  0
POINT
  5
14A
  8
DEFPOINTS
  6
BYBLOCK
 62
     0
 10
360.0
 20
-352.702698
 30
0.0
  0
ENDBLK
  5
14B
  8
0
  0
BLOCK
  8
0
  2
*D24
 70
     1
 10
0.0
 20
0.0
 30
0.0
  3
*D24
  1

  0
LINE
  5
14E
  8
0
  6
BYBLOCK
 62
     0
 10
-106.5
 20
200.699997
 30
0.0
 11
-474.9
 21
200.699997
 31
0.0
  0
LINE
  5
14F
  8
0
  6
BYBLOCK
 62
     0
 10
-106.5
 20
1064.699951
 30
0.0
 11
-474.9
 21
1064.699951
 31
0.0
  0
LINE
  5
150
  8
0
  6
BYBLOCK
 62
     0
 10
-462.4
 20
210.699997
 30
0.0
 11
-462.4
 21
1054.699951
 31
0.0
  0
INSERT
  5
151
  8
0
  6
BYBLOCK
 62
     0
  2
_ORIGIN
 10
-462.4
 20
200.699997
 30
0.0
 41
10.0
 42
10.0
 43
10.0
 50
270.0
  0
INSERT
  5
152
  8
0
  6
BYBLOCK
 62
     0
  2
_ORIGIN
 10
-462.4
 20
1064.699951
 30
0.0
 41
10.0
 42
10.0
 43
10.0
 50
90.0
  0
TEXT
  5
153
  8
0
  6
BYBLOCK
 62
     0
 10
-472.4
 20
592.700012
 30
0.0
 40
30.0
  1
864
 50
90.0
 72
     1
 11
-472.4
 21
632.700012
 31
0.0
  0
POINT
  5
154
  8
DEFPOINTS
  6
BYBLOCK
 62
     0
 10
-96.5
 20
200.699997
 30
0.0
  0
POINT
  5
155
  8
DEFPOINTS
  6
BYBLOCK
 62
     0
 10
-96.5
 20
1064.699951
 30
0.0
  0
POINT
  5
156
  8
DEFPOINTS
  6
BYBLOCK
 62
     0
 10
-462.4
 20
1064.699951
 30
0.0
  0
ENDBLK
  5
157
  8
0
  0
BLOCK
  8
0
  2
*D25
 70
     1
 10
0.0
 20
0.0
 30
0.0
  3
*D25
  1

  0
LINE
  5
15A
  8
0
  6
BYBLOCK
 62
     0
 10
-370.0
 20
40.000004
 30
0.0
 11
-474.9
 21
40.000004
 31
0.0
  0
LINE
  5
15B
  8
0
  6
BYBLOCK
 62
     0
 10
-106.5
 20
200.699997
 30
0.0
 11
-474.9
 21
200.699997
 31
0.0
  0
LINE
  5
15C
  8
0
  6
BYBLOCK
 62
     0
 10
-462.4
 20
50.000004
 30
0.0
 11
-462.4
 21
190.699997
 31
0.0
  0
INSERT
  5
15D
  8
0
  6
BYBLOCK
 62
     0
  2
_ORIGIN
 10
-462.4
 20
40.000004
 30
0.0
 41
10.0
 42
10.0
 43
10.0
 50
270.0
  0
INSERT
  5
15E
  8
0
  6
BYBLOCK
 62
     0
  2
_ORIGIN
 10
-462.4
 20
200.699997
 30
0.0
 41
10.0
 42
10.0
 43
10.0
 50
90.0
  0
TEXT
  5
15F
  8
0
  6
BYBLOCK
 62
     0
 10
-472.4
 20
92.508758
 30
0.0
 40
30.0
  1
161
 50
90.0
 72
     1
 11
-472.4
 21
122.508758
 31
0.0
  0
POINT
  5
160
  8
DEFPOINTS
  6
BYBLOCK
 62
     0
 10
-360.0
 20
40.000004
 30
0.0
  0
POINT
  5
161
  8
DEFPOINTS
  6
BYBLOCK
 62
     0
 10
-96.5
 20
200.699997
 30
0.0
  0
POINT
  5
162
  8
DEFPOINTS
  6
BYBLOCK
 62
     0
 10
-462.4
 20
200.699997
 30
0.0
  0
ENDBLK
  5
163
  8
0
  0
BLOCK
  8
0
  2
*D26
 70
     1
 10
0.0
 20
0.0
 30
0.0
  3
*D26
  1

  0
LINE
  5
166
  8
0
  6
BYBLOCK
 62
     0
 10
-360.0
 20
2456.300049
 30
0.0
 11
-360.0
 21
2559.130469
 31
0.0
  0
LINE
  5
167
  8
0
  6
BYBLOCK
 62
     0
 10
360.0
 20
2456.300049
 30
0.0
 11
360.0
 21
2559.130469
 31
0.0
  0
LINE
  5
168
  8
0
  6
BYBLOCK
 62
     0
 10
-350.0
 20
2546.630469
 30
0.0
 11
350.0
 21
2546.630469
 31
0.0
  0
INSERT
  5
169
  8
0
  6
BYBLOCK
 62
     0
  2
_ORIGIN
 10
-360.0
 20
2546.630469
 30
0.0
 41
10.0
 42
10.0
 43
10.0
 50
180.0
  0
INSERT
  5
16A
  8
0
  6
BYBLOCK
 62
     0
  2
_ORIGIN
 10
360.0
 20
2546.630469
 30
0.0
 41
10.0
 42
10.0
 43
10.0
  0
TEXT
  5
16B
  8
0
  6
BYBLOCK
 62
     0
 10
-37.5
 20
2556.630469
 30
0.0
 40
30.0
  1
720
 72
     1
 11
0.0
 21
2556.630469
 31
0.0
  0
POINT
  5
16C
  8
DEFPOINTS
  6
BYBLOCK
 62
     0
 10
-360.0
 20
2446.300049
 30
0.0
  0
POINT
  5
16D
  8
DEFPOINTS
  6
BYBLOCK
 62
     0
 10
360.0
 20
2446.300049
 30
0.0
  0
POINT
  5
16E
  8
DEFPOINTS
  6
BYBLOCK
 62
     0
 10
360.0
 20
2546.630469
 30
0.0
  0
ENDBLK
  5
16F
  8
0
  0
BLOCK
  8
0
  2
*D27
 70
     1
 10
0.0
 20
0.0
 30
0.0
  3
*D27
  1

  0
LINE
  5
172
  8
0
  6
BYBLOCK
 62
     0
 10
-370.0
 20
1946.300049
 30
0.0
 11
-575.173315
 21
1946.300049
 31
0.0
  0
LINE
  5
173
  8
0
  6
BYBLOCK
 62
     0
 10
-370.0
 20
2446.300049
 30
0.0
 11
-575.173315
 21
2446.300049
 31
0.0
  0
LINE
  5
174
  8
0
  6
BYBLOCK
 62
     0
 10
-562.673315
 20
1956.300049
 30
0.0
 11
-562.673315
 21
2436.300049
 31
0.0
  0
INSERT
  5
175
  8
0
  6
BYBLOCK
 62
     0
  2
_ORIGIN
 10
-562.673315
 20
1946.300049
 30
0.0
 41
10.0
 42
10.0
 43
10.0
 50
270.0
  0
INSERT
  5
176
  8
0
  6
BYBLOCK
 62
     0
  2
_ORIGIN
 10
-562.673315
 20
2446.300049
 30
0.0
 41
10.0
 42
10.0
 43
10.0
 50
90.0
  0
TEXT
  5
177
  8
0
  6
BYBLOCK
 62
     0
 10
-572.673315
 20
2161.300049
 30
0.0
 40
30.0
  1
500
 50
90.0
 72
     1
 11
-572.673315
 21
2196.300049
 31
0.0
  0
POINT
  5
178
  8
DEFPOINTS
  6
BYBLOCK
 62
     0
 10
-360.0
 20
1946.300049
 30
0.0
  0
POINT
  5
179
  8
DEFPOINTS
  6
BYBLOCK
 62
     0
 10
-360.0
 20
2446.300049
 30
0.0
  0
POINT
  5
17A
  8
DEFPOINTS
  6
BYBLOCK
 62
     0
 10
-562.673315
 20
2446.300049
 30
0.0
  0
ENDBLK
  5
17B
  8
0
  0
BLOCK
  8
0
  2
*D28
 70
     1
 10
0.0
 20
0.0
 30
0.0
  3
*D28
  1

  0
LINE
  5
17E
  8
0
  6
BYBLOCK
 62
     0
 10
0.0
 20
-24.77456
 30
0.0
 11
0.0
 21
-162.802698
 31
0.0
  0
LINE
  5
17F
  8
0
  6
BYBLOCK
 62
     0
 10
-35.0
 20
-7.0
 30
0.0
 11
-35.0
 21
-162.802698
 31
0.0
  0
LINE
  5
180
  8
0
  6
BYBLOCK
 62
     0
 10
-45.0
 20
-150.302698
 30
0.0
 11
-55.0
 21
-150.302698
 31
0.0
  0
LINE
  5
181
  8
0
  6
BYBLOCK
 62
     0
 10
10.0
 20
-150.302698
 30
0.0
 11
95.407661
 21
-150.302698
 31
0.0
  0
LINE
  5
182
  8
0
  6
BYBLOCK
 62
     0
 10
-35.0
 20
-150.302698
 30
0.0
 11
0.0
 21
-150.302698
 31
0.0
  0
INSERT
  5
183
  8
0
  6
BYBLOCK
 62
     0
  2
_ORIGIN
 10
-35.0
 20
-150.302698
 30
0.0
 41
10.0
 42
10.0
 43
10.0
  0
INSERT
  5
184
  8
0
  6
BYBLOCK
 62
     0
  2
_ORIGIN
 10
0.0
 20
-150.302698
 30
0.0
 41
10.0
 42
10.0
 43
10.0
 50
180.0
  0
TEXT
  5
185
  8
0
  6
BYBLOCK
 62
     0
 10
35.407661
 20
-140.302698
 30
0.0
 40
30.0
  1
35
 72
     1
 11
60.407661
 21
-140.302698
 31
0.0
  0
POINT
  5
186
  8
DEFPOINTS
  6
BYBLOCK
 62
     0
 10
0.0
 20
-14.77456
 30
0.0
  0
POINT
  5
187
  8
DEFPOINTS
  6
BYBLOCK
 62
     0
 10
-35.0
 20
3.0
 30
0.0
  0
POINT
  5
188
  8
DEFPOINTS
  6
BYBLOCK
 62
     0
 10
-35.0
 20
-150.302698
 30
0.0
  0
ENDBLK
  5
189
  8
0
  0
BLOCK
  8
0
  2
*D29
 70
     1
 10
0.0
 20
0.0
 30
0.0
  3
*D29
  1

  0
LINE
  5
18C
  8
0
  6
BYBLOCK
 62
     0
 10
-330.821716
 20
-30.0
 30
0.0
 11
-330.821716
 21
-262.802698
 31
0.0
  0
LINE
  5
18D
  8
0
  6
BYBLOCK
 62
     0
 10
330.821716
 20
-30.0
 30
0.0
 11
330.821716
 21
-262.802698
 31
0.0
  0
LINE
  5
18E
  8
0
  6
BYBLOCK
 62
     0
 10
-320.821716
 20
-250.302698
 30
0.0
 11
320.821716
 21
-250.302698
 31
0.0
  0
INSERT
  5
18F
  8
0
  6
BYBLOCK
 62
     0
  2
_ORIGIN
 10
-330.821716
 20
-250.302698
 30
0.0
 41
10.0
 42
10.0
 43
10.0
 50
180.0
  0
INSERT
  5
190
  8
0
  6
BYBLOCK
 62
     0
  2
_ORIGIN
 10
330.821716
 20
-250.302698
 30
0.0
 41
10.0
 42
10.0
 43
10.0
  0
TEXT
  5
191
  8
0
  6
BYBLOCK
 62
     0
 10
-40.35477
 20
-240.302698
 30
0.0
 40
30.0
  1
662
 72
     1
 11
-0.35477
 21
-240.302698
 31
0.0
  0
POINT
  5
192
  8
DEFPOINTS
  6
BYBLOCK
 62
     0
 10
-330.821716
 20
-20.0
 30
0.0
  0
POINT
  5
193
  8
DEFPOINTS
  6
BYBLOCK
 62
     0
 10
330.821716
 20
-20.0
 30
0.0
  0
POINT
  5
194
  8
DEFPOINTS
  6
BYBLOCK
 62
     0
 10
330.821716
 20
-250.302698
 30
0.0
  0
ENDBLK
  5
195
  8
0
  0
BLOCK
  8
0
  2
*D30
 70
     1
 10
0.0
 20
0.0
 30
0.0
  3
*D30
  1

  0
LINE
  5
198
  8
0
  6
BYBLOCK
 62
     0
 10
-52.900002
 20
0.0
 30
0.0
 11
-149.331183
 21
0.0
 31
0.0
  0
LINE
  5
199
  8
0
  6
BYBLOCK
 62
     0
 10
-65.0
 20
23.0
 30
0.0
 11
-149.331183
 21
23.0
 31
0.0
  0
LINE
  5
19A
  8
0
  6
BYBLOCK
 62
     0
 10
-136.831183
 20
33.0
 30
0.0
 11
-136.831183
 21
43.0
 31
0.0
  0
LINE
  5
19B
  8
0
  6
BYBLOCK
 62
     0
 10
-136.831183
 20
-10.0
 30
0.0
 11
-136.831183
 21
-102.505668
 31
0.0
  0
LINE
  5
19C
  8
0
  6
BYBLOCK
 62
     0
 10
-136.831183
 20
23.0
 30
0.0
 11
-136.831183
 21
0.0
 31
0.0
  0
INSERT
  5
19D
  8
0
  6
BYBLOCK
 62
     0
  2
_ORIGIN
 10
-136.831183
 20
23.0
 30
0.0
 41
10.0
 42
10.0
 43
10.0
 50
270.0
  0
INSERT
  5
19E
  8
0
  6
BYBLOCK
 62
     0
  2
_ORIGIN
 10
-136.831183
 20
0.0
 30
0.0
 41
10.0
 42
10.0
 43
10.0
 50
90.0
  0
TEXT
  5
19F
  8
0
  6
BYBLOCK
 62
     0
 10
-146.831183
 20
-92.505668
 30
0.0
 40
30.0
  1
23
 50
90.0
 72
     1
 11
-146.831183
 21
-67.505668
 31
0.0
  0
POINT
  5
1A0
  8
DEFPOINTS
  6
BYBLOCK
 62
     0
 10
-42.900002
 20
0.0
 30
0.0
  0
POINT
  5
1A1
  8
DEFPOINTS
  6
BYBLOCK
 62
     0
 10
-55.0
 20
23.0
 30
0.0
  0
POINT
  5
1A2
  8
DEFPOINTS
  6
BYBLOCK
 62
     0
 10
-136.831183
 20
23.0
 30
0.0
  0
ENDBLK
  5
1A3
  8
0
  0
BLOCK
  8
0
  2
*D31
 70
     1
 10
0.0
 20
0.0
 30
0.0
  3
*D31
  1

  0
LINE
  5
1A6
  8
0
  6
BYBLOCK
 62
     0
 10
272.950348
 20
100.0
 30
0.0
 11
518.208093
 21
100.0
 31
0.0
  0
LINE
  5
1A7
  8
0
  6
BYBLOCK
 62
     0
 10
364.927185
 20
0.0
 30
0.0
 11
518.208093
 21
0.0
 31
0.0
  0
LINE
  5
1A8
  8
0
  6
BYBLOCK
 62
     0
 10
505.708093
 20
90.0
 30
0.0
 11
505.708093
 21
10.0
 31
0.0
  0
LINE
  5
1A9
  8
0
  6
BYBLOCK
 62
     0
 10
505.708093
 20
0.0
 30
0.0
 11
505.708093
 21
-125.0675
 31
0.0
  0
INSERT
  5
1AA
  8
0
  6
BYBLOCK
 62
     0
  2
_ORIGIN
 10
505.708093
 20
100.0
 30
0.0
 41
10.0
 42
10.0
 43
10.0
 50
90.0
  0
INSERT
  5
1AB
  8
0
  6
BYBLOCK
 62
     0
  2
_ORIGIN
 10
505.708093
 20
0.0
 30
0.0
 41
10.0
 42
10.0
 43
10.0
 50
270.0
  0
TEXT
  5
1AC
  8
0
  6
BYBLOCK
 62
     0
 10
495.708093
 20
-115.0675
 30
0.0
 40
30.0
  1
100
 50
90.0
 72
     1
 11
495.708093
 21
-85.0675
 31
0.0
  0
POINT
  5
1AD
  8
DEFPOINTS
  6
BYBLOCK
 62
     0
 10
262.950348
 20
100.0
 30
0.0
  0
POINT
  5
1AE
  8
DEFPOINTS
  6
BYBLOCK
 62
     0
 10
354.927185
 20
0.0
 30
0.0
  0
POINT
  5
1AF
  8
DEFPOINTS
  6
BYBLOCK
 62
     0
 10
505.708093
 20
0.0
 30
0.0
  0
ENDBLK
  5
1B0
  8
0
  0
ENDSEC
  0
SECTION
  2
ENTITIES
  0
LINE
  5
1B1
  8
OUTLINE
  6
CONTINUOUS
 10
356.146602
 20
1936.3
 30
0.0
 11
-356.146602
 21
1936.3
 31
0.0
  0
ARC
  5
1B2
  8
OUTLINE
  6
CONTINUOUS
 10
44.380536
 20
-3054.296842
 30
0.0
 40
5000.6
 50
86.445908
 51
89.93561
  0
LINE
  5
1B3
  8
OUTLINE
  6
CONTINUOUS
 10
360.0
 20
40.0
 30
0.0
 11
360.0
 21
1930.697135
 31
0.0
  0
LINE
  5
1B4
  8
OUTLINE
  6
CONTINUOUS
 10
360.0
 20
1910.7
 30
0.0
 11
-360.0
 21
1910.7
 31
0.0
  0
LINE
  5
1B5
  8
OUTLINE
  6
CONTINUOUS
 10
50.000337
 20
1946.3
 30
0.0
 11
-50.000337
 21
1946.3
 31
0.0
  0
ARC
  5
1B6
  8
OUTLINE
  6
CONTINUOUS
 10
-44.380536
 20
-3054.296842
 30
0.0
 40
5000.6
 50
90.06439
 51
93.554092
  0
LINE
  5
1B7
  8
OUTLINE
  6
CONTINUOUS
 10
-360.0
 20
40.0
 30
0.0
 11
-360.0
 21
1930.697135
 31
0.0
  0
ARC
  5
1B8
  8
OUTLINE
  6
CONTINUOUS
 10
335.127822
 20
11.6
 30
0.0
 40
10.0
 50
192.709145
 51
201.100196
  0
ARC
  5
1B9
  8
OUTLINE
  6
CONTINUOUS
 10
305.984228
 20
11.6
 30
0.0
 40
10.0
 50
192.709145
 51
201.100196
  0
ARC
  5
1BA
  8
OUTLINE
  6
CONTINUOUS
 10
335.127822
 20
11.6
 30
0.0
 40
10.0
 50
192.709145
 51
201.100196
  0
ARC
  5
1BB
  8
OUTLINE
  6
CONTINUOUS
 10
305.984228
 20
11.6
 30
0.0
 40
10.0
 50
192.709145
 51
201.100196
  0
ARC
  5
1BC
  8
OUTLINE
  6
CONTINUOUS
 10
310.475799
 20
30.0
 30
0.0
 40
10.0
 50
12.709145
 51
90.0
  0
ARC
  5
1BD
  8
OUTLINE
  6
CONTINUOUS
 10
281.332205
 20
30.0
 30
0.0
 40
10.0
 50
12.709145
 51
90.0
  0
LINE
  5
1BE
  8
OUTLINE
  6
CONTINUOUS
 10
320.230793
 20
32.200019
 30
0.0
 11
325.372827
 21
9.399981
 31
0.0
  0
LINE
  5
1BF
  8
OUTLINE
  6
CONTINUOUS
 10
241.124896
 20
8.0
 30
0.0
 11
242.904495
 21
30.778877
 31
0.0
  0
LINE
  5
1C0
  8
OUTLINE
  6
CONTINUOUS
 10
291.087199
 20
32.200019
 30
0.0
 11
296.229234
 21
9.399981
 31
0.0
  0
ARC
  5
1C1
  8
OUTLINE
  6
CONTINUOUS
 10
252.874117
 20
30.0
 30
0.0
 40
10.0
 50
90.0
 51
175.532841
  0
LINE
  5
1C2
  8
OUTLINE
  6
CONTINUOUS
 10
311.300727
 20
0.0
 30
0.0
 11
311.300727
 21
8.0
 31
0.0
  0
ARC
  5
1C3
  8
OUTLINE
  6
CONTINUOUS
 10
336.072549
 20
3.2
 30
0.0
 40
3.2
 50
180.0
 51
270.0
  0
LINE
  5
1C4
  8
OUTLINE
  6
CONTINUOUS
 10
332.872549
 20
3.2
 30
0.0
 11
332.872549
 21
8.0
 31
0.0
  0
ARC
  5
1C5
  8
OUTLINE
  6
CONTINUOUS
 10
354.927183
 20
3.2
 30
0.0
 40
3.2
 50
270.0
 51
0.0
  0
LINE
  5
1C6
  8
OUTLINE
  6
CONTINUOUS
 10
358.127183
 20
3.2
 30
0.0
 11
358.127183
 21
8.0
 31
0.0
  0
LINE
  5
1C7
  8
OUTLINE
  6
CONTINUOUS
 10
358.079955
 20
3.2
 30
0.0
 11
358.079955
 21
8.0
 31
0.0
  0
ARC
  5
1C8
  8
OUTLINE
  6
CONTINUOUS
 10
354.879955
 20
3.2
 30
0.0
 40
3.2
 50
270.0
 51
0.0
  0
LINE
  5
1C9
  8
OUTLINE
  6
CONTINUOUS
 10
229.611211
 20
0.0
 30
0.0
 11
354.879955
 21
0.0
 31
0.0
  0
ARC
  5
1CA
  8
OUTLINE
  6
CONTINUOUS
 10
229.611211
 20
3.2
 30
0.0
 40
3.2
 50
180.0
 51
270.0
  0
LINE
  5
1CB
  8
OUTLINE
  6
CONTINUOUS
 10
226.411211
 20
8.0
 30
0.0
 11
358.079955
 21
8.0
 31
0.0
  0
LINE
  5
1CC
  8
OUTLINE
  6
CONTINUOUS
 10
226.411211
 20
3.2
 30
0.0
 11
226.411211
 21
8.0
 31
0.0
  0
ARC
  5
1CD
  8
OUTLINE
  6
CONTINUOUS
 10
-335.127822
 20
11.6
 30
0.0
 40
10.0
 50
338.899804
 51
347.290855
  0
ARC
  5
1CE
  8
OUTLINE
  6
CONTINUOUS
 10
-305.984228
 20
11.6
 30
0.0
 40
10.0
 50
338.899804
 51
347.290855
  0
ARC
  5
1CF
  8
OUTLINE
  6
CONTINUOUS
 10
-335.127822
 20
11.6
 30
0.0
 40
10.0
 50
338.899804
 51
347.290855
  0
ARC
  5
1D0
  8
OUTLINE
  6
CONTINUOUS
 10
-305.984228
 20
11.6
 30
0.0
 40
10.0
 50
338.899804
 51
347.290855
  0
ARC
  5
1D1
  8
OUTLINE
  6
CONTINUOUS
 10
-310.475799
 20
30.0
 30
0.0
 40
10.0
 50
90.0
 51
167.290855
  0
ARC
  5
1D2
  8
OUTLINE
  6
CONTINUOUS
 10
-281.332205
 20
30.0
 30
0.0
 40
10.0
 50
90.0
 51
167.290855
  0
LINE
  5
1D3
  8
OUTLINE
  6
CONTINUOUS
 10
-320.230793
 20
32.200019
 30
0.0
 11
-325.372827
 21
9.399981
 31
0.0
  0
LINE
  5
1D4
  8
OUTLINE
  6
CONTINUOUS
 10
-241.124896
 20
8.0
 30
0.0
 11
-242.904495
 21
30.778877
 31
0.0
  0
LINE
  5
1D5
  8
OUTLINE
  6
CONTINUOUS
 10
-291.087199
 20
32.200019
 30
0.0
 11
-296.229234
 21
9.399981
 31
0.0
  0
ARC
  5
1D6
  8
OUTLINE
  6
CONTINUOUS
 10
-252.874117
 20
30.0
 30
0.0
 40
10.0
 50
4.467159
 51
90.0
  0
LINE
  5
1D7
  8
OUTLINE
  6
CONTINUOUS
 10
-311.300727
 20
0.0
 30
0.0
 11
-311.300727
 21
8.0
 31
0.0
  0
ARC
  5
1D8
  8
OUTLINE
  6
CONTINUOUS
 10
-336.072549
 20
3.2
 30
0.0
 40
3.2
 50
270.0
 51
0.0
  0
LINE
  5
1D9
  8
OUTLINE
  6
CONTINUOUS
 10
-332.872549
 20
3.2
 30
0.0
 11
-332.872549
 21
8.0
 31
0.0
  0
ARC
  5
1DA
  8
OUTLINE
  6
CONTINUOUS
 10
-354.927183
 20
3.2
 30
0.0
 40
3.2
 50
180.0
 51
270.0
  0
LINE
  5
1DB
  8
OUTLINE
  6
CONTINUOUS
 10
-358.127183
 20
3.2
 30
0.0
 11
-358.127183
 21
8.0
 31
0.0
  0
LINE
  5
1DC
  8
OUTLINE
  6
CONTINUOUS
 10
-358.079955
 20
3.2
 30
0.0
 11
-358.079955
 21
8.0
 31
0.0
  0
ARC
  5
1DD
  8
OUTLINE
  6
CONTINUOUS
 10
-354.879955
 20
3.2
 30
0.0
 40
3.2
 50
180.0
 51
270.0
  0
LINE
  5
1DE
  8
OUTLINE
  6
CONTINUOUS
 10
-229.611211
 20
0.0
 30
0.0
 11
-354.879955
 21
0.0
 31
0.0
  0
ARC
  5
1DF
  8
OUTLINE
  6
CONTINUOUS
 10
-229.611211
 20
3.2
 30
0.0
 40
3.2
 50
270.0
 51
0.0
  0
LINE
  5
1E0
  8
OUTLINE
  6
CONTINUOUS
 10
-226.411211
 20
8.0
 30
0.0
 11
-358.079955
 21
8.0
 31
0.0
  0
LINE
  5
1E1
  8
OUTLINE
  6
CONTINUOUS
 10
-226.411211
 20
3.2
 30
0.0
 11
-226.411211
 21
8.0
 31
0.0
  0
ARC
  5
1E2
  8
OUTLINE
  6
CONTINUOUS
 10
42.9
 20
3.6
 30
0.0
 40
3.6
 50
270.0
 51
0.0
  0
LINE
  5
1E3
  8
OUTLINE
  6
CONTINUOUS
 10
46.5
 20
8.0
 30
0.0
 11
46.5
 21
3.6
 31
0.0
  0
ARC
  5
1E4
  8
OUTLINE
  6
CONTINUOUS
 10
-42.9
 20
3.6
 30
0.0
 40
3.6
 50
180.0
 51
270.0
  0
LINE
  5
1E5
  8
OUTLINE
  6
CONTINUOUS
 10
-46.5
 20
8.0
 30
0.0
 11
-46.5
 21
3.6
 31
0.0
  0
LINE
  5
1E6
  8
OUTLINE
  6
CONTINUOUS
 10
-42.9
 20
0.0
 30
0.0
 11
42.9
 21
0.0
 31
0.0
  0
LINE
  5
1E7
  8
OUTLINE
  6
CONTINUOUS
 10
-46.5
 20
8.0
 30
0.0
 11
46.5
 21
8.0
 31
0.0
  0
LINE
  5
1E8
  8
OUTLINE
  6
CONTINUOUS
 10
35.0
 20
30.0
 30
0.0
 11
35.0
 21
8.0
 31
0.0
  0
LINE
  5
1E9
  8
OUTLINE
  6
CONTINUOUS
 10
-360.0
 20
40.0
 30
0.0
 11
360.0
 21
40.0
 31
0.0
  0
ARC
  5
1EA
  8
OUTLINE
  6
CONTINUOUS
 10
25.0
 20
30.0
 30
0.0
 40
10.0
 50
0.0
 51
29.674931
  0
LINE
  5
1EB
  8
OUTLINE
  6
CONTINUOUS
 10
-35.0
 20
23.0
 30
0.0
 11
-35.0
 21
8.0
 31
0.0
  0
ARC
  5
1EC
  8
OUTLINE
  6
CONTINUOUS
 10
354.0
 20
1930.697135
 30
0.0
 40
6.0
 50
0.0
 51
86.445908
  0
ARC
  5
1ED
  8
OUTLINE
  6
CONTINUOUS
 10
-354.0
 20
1930.697135
 30
0.0
 40
6.0
 50
93.554092
 51
180.0
  0
LINE
  5
1EE
  8
DETAIL
  6
CONTINUOUS
 10
-12.112693
 20
1996.2
 30
0.0
 11
-13.6
 21
1979.2
 31
0.0
  0
LINE
  5
1EF
  8
DETAIL
  6
CONTINUOUS
 10
-11.108873
 20
1996.2
 30
0.0
 11
-12.59618
 21
1979.2
 31
0.0
  0
LINE
  5
1F0
  8
DETAIL
  6
CONTINUOUS
 10
-13.6
 20
1979.2
 30
0.0
 11
13.6
 21
1979.2
 31
0.0
  0
LINE
  5
1F1
  8
DETAIL
  6
CONTINUOUS
 10
-12.112693
 20
1996.2
 30
0.0
 11
12.112693
 21
1996.2
 31
0.0
  0
LINE
  5
1F2
  8
DETAIL
  6
CONTINUOUS
 10
-13.6
 20
1946.3
 30
0.0
 11
-13.6
 21
1979.2
 31
0.0
  0
LINE
  5
1F3
  8
DETAIL
  6
CONTINUOUS
 10
11.108873
 20
1996.2
 30
0.0
 11
12.59618
 21
1979.2
 31
0.0
  0
LINE
  5
1F4
  8
DETAIL
  6
CONTINUOUS
 10
12.112693
 20
1996.2
 30
0.0
 11
13.6
 21
1979.2
 31
0.0
  0
LINE
  5
1F5
  8
DETAIL
  6
CONTINUOUS
 10
13.6
 20
1946.3
 30
0.0
 11
13.6
 21
1979.2
 31
0.0
  0
LINE
  5
1F6
  8
DETAIL
  6
CONTINUOUS
 10
137.525769
 20
1950.602268
 30
0.0
 11
135.203054
 21
1950.681957
 31
0.0
  0
ARC
  5
1F7
  8
DETAIL
  6
CONTINUOUS
 10
137.697211
 20
1955.599328
 30
0.0
 40
5.0
 50
268.035034
 51
324.344966
  0
LINE
  5
1F8
  8
DETAIL
  6
CONTINUOUS
 10
135.031612
 20
1945.684897
 30
0.0
 11
135.203054
 21
1950.681957
 31
0.0
  0
ARC
  5
1F9
  8
DETAIL
  6
CONTINUOUS
 10
171.228619
 20
1959.451854
 30
0.0
 40
20.0
 50
88.035034
 51
144.344966
  0
LINE
  5
1FA
  8
DETAIL
  6
CONTINUOUS
 10
163.221659
 20
1964.319053
 30
0.0
 11
155.019851
 21
1944.999129
 31
0.0
  0
ARC
  5
1FB
  8
DETAIL
  6
CONTINUOUS
 10
172.426538
 20
1960.411344
 30
0.0
 40
10.0
 50
88.035034
 51
156.997523
  0
LINE
  5
1FC
  8
DETAIL
  6
CONTINUOUS
 10
171.914387
 20
1979.440094
 30
0.0
 11
260.454942
 21
1976.402393
 31
0.0
  0
LINE
  5
1FD
  8
DETAIL
  6
CONTINUOUS
 10
172.769422
 20
1970.405464
 30
0.0
 11
258.982715
 21
1967.447607
 31
0.0
  0
LINE
  5
1FE
  8
DETAIL
  6
CONTINUOUS
 10
154.977794
 20
1971.109928
 30
0.0
 11
141.759917
 21
1952.684809
 31
0.0
  0
LINE
  5
1FF
  8
DETAIL
  6
CONTINUOUS
 10
276.78079
 20
1966.93104
 30
0.0
 11
288.704794
 21
1947.643338
 31
0.0
  0
ARC
  5
200
  8
DETAIL
  6
CONTINUOUS
 10
258.639831
 20
1957.453488
 30
0.0
 40
10.0
 50
19.072545
 51
88.035034
  0
ARC
  5
201
  8
DETAIL
  6
CONTINUOUS
 10
259.769174
 20
1956.414153
 30
0.0
 40
20.0
 50
31.725101
 51
88.035034
  0
LINE
  5
202
  8
DETAIL
  6
CONTINUOUS
 10
294.937529
 20
1940.198751
 30
0.0
 11
295.108971
 21
1945.195811
 31
0.0
  0
LINE
  5
203
  8
DETAIL
  6
CONTINUOUS
 10
292.786256
 20
1945.2755
 30
0.0
 11
295.108971
 21
1945.195811
 31
0.0
  0
ARC
  5
204
  8
DETAIL
  6
CONTINUOUS
 10
292.957698
 20
1950.27256
 30
0.0
 40
5.0
 50
211.725101
 51
268.035034
  0
LINE
  5
205
  8
DETAIL
  6
CONTINUOUS
 10
268.090887
 20
1960.721138
 30
0.0
 11
274.949289
 21
1940.884519
 31
0.0
  0
LINE
  5
206
  8
DETAIL
  6
CONTINUOUS
 10
155.019851
 20
1944.999129
 30
0.0
 11
135.031612
 21
1945.684897
 31
0.0
  0
LINE
  5
207
  8
DETAIL
  6
CONTINUOUS
 10
274.949289
 20
1940.884519
 30
0.0
 11
294.937529
 21
1940.198751
 31
0.0
  0
LINE
  5
208
  8
DETAIL
  6
CONTINUOUS
 10
-137.525769
 20
1950.602268
 30
0.0
 11
-135.203054
 21
1950.681957
 31
0.0
  0
ARC
  5
209
  8
DETAIL
  6
CONTINUOUS
 10
-137.697211
 20
1955.599328
 30
0.0
 40
5.0
 50
215.655034
 51
271.964966
  0
LINE
  5
20A
  8
DETAIL
  6
CONTINUOUS
 10
-135.031612
 20
1945.684897
 30
0.0
 11
-135.203054
 21
1950.681957
 31
0.0
  0
ARC
  5
20B
  8
DETAIL
  6
CONTINUOUS
 10
-171.228619
 20
1959.451854
 30
0.0
 40
20.0
 50
35.655034
 51
91.964966
  0
LINE
  5
20C
  8
DETAIL
  6
CONTINUOUS
 10
-163.221659
 20
1964.319053
 30
0.0
 11
-155.019851
 21
1944.999129
 31
0.0
  0
ARC
  5
20D
  8
DETAIL
  6
CONTINUOUS
 10
-172.426538
 20
1960.411344
 30
0.0
 40
10.0
 50
23.002477
 51
91.964966
  0
LINE
  5
20E
  8
DETAIL
  6
CONTINUOUS
 10
-171.914387
 20
1979.440094
 30
0.0
 11
-260.454942
 21
1976.402393
 31
0.0
  0
LINE
  5
20F
  8
DETAIL
  6
CONTINUOUS
 10
-172.769422
 20
1970.405464
 30
0.0
 11
-258.982715
 21
1967.447607
 31
0.0
  0
LINE
  5
210
  8
DETAIL
  6
CONTINUOUS
 10
-154.977794
 20
1971.109928
 30
0.0
 11
-141.759917
 21
1952.684809
 31
0.0
  0
LINE
  5
211
  8
DETAIL
  6
CONTINUOUS
 10
-276.78079
 20
1966.93104
 30
0.0
 11
-288.704794
 21
1947.643338
 31
0.0
  0
ARC
  5
212
  8
DETAIL
  6
CONTINUOUS
 10
-258.639831
 20
1957.453488
 30
0.0
 40
10.0
 50
91.964966
 51
160.927455
  0
ARC
  5
213
  8
DETAIL
  6
CONTINUOUS
 10
-259.769174
 20
1956.414153
 30
0.0
 40
20.0
 50
91.964966
 51
148.274899
  0
LINE
  5
214
  8
DETAIL
  6
CONTINUOUS
 10
-294.937529
 20
1940.198751
 30
0.0
 11
-295.108971
 21
1945.195811
 31
0.0
  0
LINE
  5
215
  8
DETAIL
  6
CONTINUOUS
 10
-292.786256
 20
1945.2755
 30
0.0
 11
-295.108971
 21
1945.195811
 31
0.0
  0
ARC
  5
216
  8
DETAIL
  6
CONTINUOUS
 10
-292.957698
 20
1950.27256
 30
0.0
 40
5.0
 50
271.964966
 51
328.274899
  0
LINE
  5
217
  8
DETAIL
  6
CONTINUOUS
 10
-268.090887
 20
1960.721138
 30
0.0
 11
-274.949289
 21
1940.884519
 31
0.0
  0
LINE
  5
218
  8
DETAIL
  6
CONTINUOUS
 10
-155.019851
 20
1944.999129
 30
0.0
 11
-135.031612
 21
1945.684897
 31
0.0
  0
LINE
  5
219
  8
DETAIL
  6
CONTINUOUS
 10
-274.949289
 20
1940.884519
 30
0.0
 11
-294.937529
 21
1940.198751
 31
0.0
  0
ARC
  5
21A
  8
DETAIL
  6
CONTINUOUS
 10
48.985354
 20
697.5
 30
0.0
 40
1.0
 50
270.0
 51
0.0
  0
CIRCLE
  5
21B
  8
DETAIL
  6
CONTINUOUS
 10
-0.014646
 20
707.0
 30
0.0
 40
8.25
  0
ARC
  5
21C
  8
DETAIL
  6
CONTINUOUS
 10
49.0
 20
696.5
 30
0.0
 40
5.0
 50
270.0
 51
0.0
  0
ARC
  5
21D
  8
DETAIL
  6
CONTINUOUS
 10
-49.0
 20
696.5
 30
0.0
 40
5.0
 50
180.0
 51
270.0
  0
ARC
  5
21E
  8
DETAIL
  6
CONTINUOUS
 10
49.0
 20
881.0
 30
0.0
 40
5.0
 50
0.0
 51
90.0
  0
ARC
  5
21F
  8
DETAIL
  6
CONTINUOUS
 10
-49.0
 20
881.0
 30
0.0
 40
5.0
 50
90.0
 51
180.0
  0
LINE
  5
220
  8
DETAIL
  6
CONTINUOUS
 10
-49.0
 20
691.5
 30
0.0
 11
49.0
 21
691.5
 31
0.0
  0
LINE
  5
221
  8
DETAIL
  6
CONTINUOUS
 10
-50.0
 20
696.5
 30
0.0
 11
50.0
 21
696.5
 31
0.0
  0
LINE
  5
222
  8
DETAIL
  6
CONTINUOUS
 10
-50.0
 20
881.0
 30
0.0
 11
50.0
 21
881.0
 31
0.0
  0
LINE
  5
223
  8
DETAIL
  6
CONTINUOUS
 10
-49.0
 20
886.0
 30
0.0
 11
49.0
 21
886.0
 31
0.0
  0
LINE
  5
224
  8
DETAIL
  6
CONTINUOUS
 10
-50.0
 20
696.5
 30
0.0
 11
-50.0
 21
881.0
 31
0.0
  0
LINE
  5
225
  8
DETAIL
  6
CONTINUOUS
 10
-54.0
 20
696.5
 30
0.0
 11
-54.0
 21
881.0
 31
0.0
  0
LINE
  5
226
  8
DETAIL
  6
CONTINUOUS
 10
54.0
 20
696.5
 30
0.0
 11
54.0
 21
881.0
 31
0.0
  0
LINE
  5
227
  8
DETAIL
  6
CONTINUOUS
 10
50.0
 20
696.5
 30
0.0
 11
50.0
 21
881.0
 31
0.0
  0
LINE
  5
228
  8
DETAIL
  6
CONTINUOUS
 10
96.5
 20
200.7
 30
0.0
 11
-96.5
 21
200.7
 31
0.0
  0
ARC
  5
229
  8
DETAIL
  6
CONTINUOUS
 10
96.5
 20
230.7
 30
0.0
 40
30.0
 50
270.0
 51
0.0
  0
ARC
  5
22A
  8
DETAIL
  6
CONTINUOUS
 10
125.0
 20
339.2
 30
0.0
 40
1.5
 50
0.0
 51
90.0
  0
LINE
  5
22B
  8
DETAIL
  6
CONTINUOUS
 10
126.5
 20
230.7
 30
0.0
 11
126.5
 21
339.2
 31
0.0
  0
ARC
  5
22C
  8
DETAIL
  6
CONTINUOUS
 10
-96.5
 20
230.7
 30
0.0
 40
30.0
 50
180.0
 51
270.0
  0
ARC
  5
22D
  8
DETAIL
  6
CONTINUOUS
 10
-125.0
 20
339.2
 30
0.0
 40
1.5
 50
90.0
 51
180.0
  0
LINE
  5
22E
  8
DETAIL
  6
CONTINUOUS
 10
-126.5
 20
230.7
 30
0.0
 11
-126.5
 21
339.2
 31
0.0
  0
LINE
  5
22F
  8
DETAIL
  6
CONTINUOUS
 10
-125.0
 20
340.7
 30
0.0
 11
125.0
 21
340.7
 31
0.0
  0
POLYLINE
  5
230
  8
DETAIL
  6
CONTINUOUS
 66
     1
 10
0.0
 20
0.0
 30
0.0
  0
VERTEX
  5
231
  8
DETAIL
  6
CONTINUOUS
 10
-218.499218
 20
86.4
 30
0.0
  0
VERTEX
  5
232
  8
DETAIL
  6
CONTINUOUS
 10
-216.391454
 20
86.66132
 30
0.0
  0
VERTEX
  5
233
  8
DETAIL
  6
CONTINUOUS
 10
-214.364691
 20
87.435239
 30
0.0
  0
VERTEX
  5
234
  8
DETAIL
  6
CONTINUOUS
 10
-212.496816
 20
88.692014
 30
0.0
  0
VERTEX
  5
235
  8
DETAIL
  6
CONTINUOUS
 10
-210.859609
 20
90.383348
 30
0.0
  0
VERTEX
  5
236
  8
DETAIL
  6
CONTINUOUS
 10
-209.515988
 20
92.444245
 30
0.0
  0
VERTEX
  5
237
  8
DETAIL
  6
CONTINUOUS
 10
-208.517588
 20
94.795506
 30
0.0
  0
VERTEX
  5
238
  8
DETAIL
  6
CONTINUOUS
 10
-207.902776
 20
97.346772
 30
0.0
  0
VERTEX
  5
239
  8
DETAIL
  6
CONTINUOUS
 10
-207.69518
 20
100.0
 30
0.0
  0
VERTEX
  5
23A
  8
DETAIL
  6
CONTINUOUS
 10
-207.902776
 20
102.653229
 30
0.0
  0
VERTEX
  5
23B
  8
DETAIL
  6
CONTINUOUS
 10
-208.517588
 20
105.204495
 30
0.0
  0
VERTEX
  5
23C
  8
DETAIL
  6
CONTINUOUS
 10
-209.515989
 20
107.555755
 30
0.0
  0
VERTEX
  5
23D
  8
DETAIL
  6
CONTINUOUS
 10
-210.859609
 20
109.616652
 30
0.0
  0
VERTEX
  5
23E
  8
DETAIL
  6
CONTINUOUS
 10
-212.496816
 20
111.307987
 30
0.0
  0
VERTEX
  5
23F
  8
DETAIL
  6
CONTINUOUS
 10
-214.364692
 20
112.564762
 30
0.0
  0
VERTEX
  5
240
  8
DETAIL
  6
CONTINUOUS
 10
-216.391455
 20
113.33868
 30
0.0
  0
VERTEX
  5
241
  8
DETAIL
  6
CONTINUOUS
 10
-218.499218
 20
113.6
 30
0.0
  0
SEQEND
  5
242
  8
DETAIL
  6
CONTINUOUS
  0
LINE
  5
243
  8
DETAIL
  6
CONTINUOUS
 10
-232.624947
 20
113.6
 30
0.0
 11
-218.499218
 21
113.6
 31
0.0
  0
LINE
  5
244
  8
DETAIL
  6
CONTINUOUS
 10
-232.624947
 20
86.4
 30
0.0
 11
-218.499218
 21
86.4
 31
0.0
  0
POLYLINE
  5
245
  8
DETAIL
  6
CONTINUOUS
 66
     1
 10
0.0
 20
0.0
 30
0.0
 70
     1
  0
VERTEX
  5
246
  8
DETAIL
  6
CONTINUOUS
 10
-242.950336
 20
112.1
 30
0.0
  0
VERTEX
  5
247
  8
DETAIL
  6
CONTINUOUS
 10
-244.827593
 20
111.867502
 30
0.0
  0
VERTEX
  5
248
  8
DETAIL
  6
CONTINUOUS
 10
-246.632707
 20
111.178942
 30
0.0
  0
VERTEX
  5
249
  8
DETAIL
  6
CONTINUOUS
 10
-248.296311
 20
110.060782
 30
0.0
  0
VERTEX
  5
24A
  8
DETAIL
  6
CONTINUOUS
 10
-249.754471
 20
108.555992
 30
0.0
  0
VERTEX
  5
24B
  8
DETAIL
  6
CONTINUOUS
 10
-250.951152
 20
106.7224
 30
0.0
  0
VERTEX
  5
24C
  8
DETAIL
  6
CONTINUOUS
 10
-251.840367
 20
104.63047
 30
0.0
  0
VERTEX
  5
24D
  8
DETAIL
  6
CONTINUOUS
 10
-252.387942
 20
102.360593
 30
0.0
  0
VERTEX
  5
24E
  8
DETAIL
  6
CONTINUOUS
 10
-252.572836
 20
100.0
 30
0.0
  0
VERTEX
  5
24F
  8
DETAIL
  6
CONTINUOUS
 10
-252.387942
 20
97.639407
 30
0.0
  0
VERTEX
  5
250
  8
DETAIL
  6
CONTINUOUS
 10
-251.840367
 20
95.36953
 30
0.0
  0
VERTEX
  5
251
  8
DETAIL
  6
CONTINUOUS
 10
-250.951152
 20
93.2776
 30
0.0
  0
VERTEX
  5
252
  8
DETAIL
  6
CONTINUOUS
 10
-249.754471
 20
91.444008
 30
0.0
  0
VERTEX
  5
253
  8
DETAIL
  6
CONTINUOUS
 10
-248.296311
 20
89.939218
 30
0.0
  0
VERTEX
  5
254
  8
DETAIL
  6
CONTINUOUS
 10
-246.632707
 20
88.821058
 30
0.0
  0
VERTEX
  5
255
  8
DETAIL
  6
CONTINUOUS
 10
-244.827593
 20
88.132498
 30
0.0
  0
VERTEX
  5
256
  8
DETAIL
  6
CONTINUOUS
 10
-242.950336
 20
87.9
 30
0.0
  0
VERTEX
  5
257
  8
DETAIL
  6
CONTINUOUS
 10
-241.073079
 20
88.132498
 30
0.0
  0
VERTEX
  5
258
  8
DETAIL
  6
CONTINUOUS
 10
-239.267964
 20
88.821058
 30
0.0
  0
VERTEX
  5
259
  8
DETAIL
  6
CONTINUOUS
 10
-237.604361
 20
89.939218
 30
0.0
  0
VERTEX
  5
25A
  8
DETAIL
  6
CONTINUOUS
 10
-236.146201
 20
91.444008
 30
0.0
  0
VERTEX
  5
25B
  8
DETAIL
  6
CONTINUOUS
 10
-234.949519
 20
93.2776
 30
0.0
  0
VERTEX
  5
25C
  8
DETAIL
  6
CONTINUOUS
 10
-234.060305
 20
95.36953
 30
0.0
  0
VERTEX
  5
25D
  8
DETAIL
  6
CONTINUOUS
 10
-233.512729
 20
97.639407
 30
0.0
  0
VERTEX
  5
25E
  8
DETAIL
  6
CONTINUOUS
 10
-233.327836
 20
100.0
 30
0.0
  0
VERTEX
  5
25F
  8
DETAIL
  6
CONTINUOUS
 10
-233.512729
 20
102.360593
 30
0.0
  0
VERTEX
  5
260
  8
DETAIL
  6
CONTINUOUS
 10
-234.060305
 20
104.63047
 30
0.0
  0
VERTEX
  5
261
  8
DETAIL
  6
CONTINUOUS
 10
-234.949519
 20
106.7224
 30
0.0
  0
VERTEX
  5
262
  8
DETAIL
  6
CONTINUOUS
 10
-236.146201
 20
108.555992
 30
0.0
  0
VERTEX
  5
263
  8
DETAIL
  6
CONTINUOUS
 10
-237.604361
 20
110.060782
 30
0.0
  0
VERTEX
  5
264
  8
DETAIL
  6
CONTINUOUS
 10
-239.267964
 20
111.178942
 30
0.0
  0
VERTEX
  5
265
  8
DETAIL
  6
CONTINUOUS
 10
-241.073079
 20
111.867502
 30
0.0
  0
SEQEND
  5
266
  8
DETAIL
  6
CONTINUOUS
  0
LINE
  5
267
  8
DETAIL
  6
CONTINUOUS
 10
-244.061864
 20
112.019002
 30
0.0
 11
-233.871667
 21
113.509149
 31
0.0
  0
LINE
  5
268
  8
DETAIL
  6
CONTINUOUS
 10
-244.061864
 20
87.980998
 30
0.0
 11
-233.871667
 21
86.490851
 31
0.0
  0
POLYLINE
  5
269
  8
DETAIL
  6
CONTINUOUS
 66
     1
 10
0.0
 20
0.0
 30
0.0
  0
VERTEX
  5
26A
  8
DETAIL
  6
CONTINUOUS
 10
-233.871667
 20
86.490851
 30
0.0
  0
VERTEX
  5
26B
  8
DETAIL
  6
CONTINUOUS
 10
-231.850621
 20
86.434974
 30
0.0
  0
VERTEX
  5
26C
  8
DETAIL
  6
CONTINUOUS
 10
-229.856684
 20
86.854006
 30
0.0
  0
VERTEX
  5
26D
  8
DETAIL
  6
CONTINUOUS
 10
-227.959663
 20
87.733277
 30
0.0
  0
VERTEX
  5
26E
  8
DETAIL
  6
CONTINUOUS
 10
-226.225972
 20
89.042003
 30
0.0
  0
VERTEX
  5
26F
  8
DETAIL
  6
CONTINUOUS
 10
-224.716309
 20
90.734367
 30
0.0
  0
VERTEX
  5
270
  8
DETAIL
  6
CONTINUOUS
 10
-223.483525
 20
92.751119
 30
0.0
  0
VERTEX
  5
271
  8
DETAIL
  6
CONTINUOUS
 10
-222.570781
 20
95.021652
 30
0.0
  0
VERTEX
  5
272
  8
DETAIL
  6
CONTINUOUS
 10
-222.010031
 20
97.466477
 30
0.0
  0
VERTEX
  5
273
  8
DETAIL
  6
CONTINUOUS
 10
-221.820908
 20
100.0
 30
0.0
  0
VERTEX
  5
274
  8
DETAIL
  6
CONTINUOUS
 10
-222.010031
 20
102.533523
 30
0.0
  0
VERTEX
  5
275
  8
DETAIL
  6
CONTINUOUS
 10
-222.570781
 20
104.978348
 30
0.0
  0
VERTEX
  5
276
  8
DETAIL
  6
CONTINUOUS
 10
-223.483525
 20
107.248881
 30
0.0
  0
VERTEX
  5
277
  8
DETAIL
  6
CONTINUOUS
 10
-224.716309
 20
109.265633
 30
0.0
  0
VERTEX
  5
278
  8
DETAIL
  6
CONTINUOUS
 10
-226.225972
 20
110.957997
 30
0.0
  0
VERTEX
  5
279
  8
DETAIL
  6
CONTINUOUS
 10
-227.959663
 20
112.266723
 30
0.0
  0
VERTEX
  5
27A
  8
DETAIL
  6
CONTINUOUS
 10
-229.856684
 20
113.145994
 30
0.0
  0
VERTEX
  5
27B
  8
DETAIL
  6
CONTINUOUS
 10
-231.850621
 20
113.565026
 30
0.0
  0
VERTEX
  5
27C
  8
DETAIL
  6
CONTINUOUS
 10
-233.871667
 20
113.509149
 30
0.0
  0
SEQEND
  5
27D
  8
DETAIL
  6
CONTINUOUS
  0
POLYLINE
  5
27E
  8
DETAIL
  6
CONTINUOUS
 66
     1
 10
0.0
 20
0.0
 30
0.0
  0
VERTEX
  5
27F
  8
DETAIL
  6
CONTINUOUS
 10
-243.7209
 20
87.938859
 30
0.0
  0
VERTEX
  5
280
  8
DETAIL
  6
CONTINUOUS
 10
-241.407167
 20
81.878859
 30
0.0
  0
VERTEX
  5
281
  8
DETAIL
  6
CONTINUOUS
 10
-238.215595
 20
76.487585
 30
0.0
  0
VERTEX
  5
282
  8
DETAIL
  6
CONTINUOUS
 10
-234.263963
 20
71.963991
 30
0.0
  0
VERTEX
  5
283
  8
DETAIL
  6
CONTINUOUS
 10
-229.698098
 20
68.475011
 30
0.0
  0
VERTEX
  5
284
  8
DETAIL
  6
CONTINUOUS
 10
-224.686494
 20
66.149401
 30
0.0
  0
VERTEX
  5
285
  8
DETAIL
  6
CONTINUOUS
 10
-219.414096
 20
65.072981
 30
0.0
  0
VERTEX
  5
286
  8
DETAIL
  6
CONTINUOUS
 10
-214.07547
 20
65.285476
 30
0.0
  0
VERTEX
  5
287
  8
DETAIL
  6
CONTINUOUS
 10
-208.867628
 20
66.779042
 30
0.0
  0
VERTEX
  5
288
  8
DETAIL
  6
CONTINUOUS
 10
-203.982756
 20
69.498565
 30
0.0
  0
VERTEX
  5
289
  8
DETAIL
  6
CONTINUOUS
 10
-199.60112
 20
73.343683
 30
0.0
  0
VERTEX
  5
28A
  8
DETAIL
  6
CONTINUOUS
 10
-195.884417
 20
78.172502
 30
0.0
  0
VERTEX
  5
28B
  8
DETAIL
  6
CONTINUOUS
 10
-192.969804
 20
83.806822
 30
0.0
  0
VERTEX
  5
28C
  8
DETAIL
  6
CONTINUOUS
 10
-190.964838
 20
90.03872
 30
0.0
  0
VERTEX
  5
28D
  8
DETAIL
  6
CONTINUOUS
 10
-189.943511
 20
96.63822
 30
0.0
  0
VERTEX
  5
28E
  8
DETAIL
  6
CONTINUOUS
 10
-189.943511
 20
103.36178
 30
0.0
  0
VERTEX
  5
28F
  8
DETAIL
  6
CONTINUOUS
 10
-190.964838
 20
109.96128
 30
0.0
  0
VERTEX
  5
290
  8
DETAIL
  6
CONTINUOUS
 10
-192.969804
 20
116.193178
 30
0.0
  0
VERTEX
  5
291
  8
DETAIL
  6
CONTINUOUS
 10
-195.884417
 20
121.827498
 30
0.0
  0
VERTEX
  5
292
  8
DETAIL
  6
CONTINUOUS
 10
-199.60112
 20
126.656317
 30
0.0
  0
VERTEX
  5
293
  8
DETAIL
  6
CONTINUOUS
 10
-203.982756
 20
130.501435
 30
0.0
  0
VERTEX
  5
294
  8
DETAIL
  6
CONTINUOUS
 10
-208.867628
 20
133.220958
 30
0.0
  0
VERTEX
  5
295
  8
DETAIL
  6
CONTINUOUS
 10
-214.07547
 20
134.714524
 30
0.0
  0
VERTEX
  5
296
  8
DETAIL
  6
CONTINUOUS
 10
-219.414096
 20
134.927019
 30
0.0
  0
VERTEX
  5
297
  8
DETAIL
  6
CONTINUOUS
 10
-224.686494
 20
133.850599
 30
0.0
  0
VERTEX
  5
298
  8
DETAIL
  6
CONTINUOUS
 10
-229.698098
 20
131.524989
 30
0.0
  0
VERTEX
  5
299
  8
DETAIL
  6
CONTINUOUS
 10
-234.263963
 20
128.036009
 30
0.0
  0
VERTEX
  5
29A
  8
DETAIL
  6
CONTINUOUS
 10
-238.215595
 20
123.512415
 30
0.0
  0
VERTEX
  5
29B
  8
DETAIL
  6
CONTINUOUS
 10
-241.407167
 20
118.121141
 30
0.0
  0
VERTEX
  5
29C
  8
DETAIL
  6
CONTINUOUS
 10
-243.7209
 20
112.061141
 30
0.0
  0
SEQEND
  5
29D
  8
DETAIL
  6
CONTINUOUS
  0
POLYLINE
  5
29E
  8
DETAIL
  6
CONTINUOUS
 66
     1
 10
0.0
 20
0.0
 30
0.0
  0
VERTEX
  5
29F
  8
DETAIL
  6
CONTINUOUS
 10
218.499218
 20
113.6
 30
0.0
  0
VERTEX
  5
2A0
  8
DETAIL
  6
CONTINUOUS
 10
216.391455
 20
113.33868
 30
0.0
  0
VERTEX
  5
2A1
  8
DETAIL
  6
CONTINUOUS
 10
214.364692
 20
112.564762
 30
0.0
  0
VERTEX
  5
2A2
  8
DETAIL
  6
CONTINUOUS
 10
212.496816
 20
111.307987
 30
0.0
  0
VERTEX
  5
2A3
  8
DETAIL
  6
CONTINUOUS
 10
210.859609
 20
109.616652
 30
0.0
  0
VERTEX
  5
2A4
  8
DETAIL
  6
CONTINUOUS
 10
209.515989
 20
107.555755
 30
0.0
  0
VERTEX
  5
2A5
  8
DETAIL
  6
CONTINUOUS
 10
208.517588
 20
105.204495
 30
0.0
  0
VERTEX
  5
2A6
  8
DETAIL
  6
CONTINUOUS
 10
207.902776
 20
102.653228
 30
0.0
  0
VERTEX
  5
2A7
  8
DETAIL
  6
CONTINUOUS
 10
207.69518
 20
100.0
 30
0.0
  0
VERTEX
  5
2A8
  8
DETAIL
  6
CONTINUOUS
 10
207.902776
 20
97.346772
 30
0.0
  0
VERTEX
  5
2A9
  8
DETAIL
  6
CONTINUOUS
 10
208.517588
 20
94.795505
 30
0.0
  0
VERTEX
  5
2AA
  8
DETAIL
  6
CONTINUOUS
 10
209.515989
 20
92.444245
 30
0.0
  0
VERTEX
  5
2AB
  8
DETAIL
  6
CONTINUOUS
 10
210.859609
 20
90.383348
 30
0.0
  0
VERTEX
  5
2AC
  8
DETAIL
  6
CONTINUOUS
 10
212.496816
 20
88.692013
 30
0.0
  0
VERTEX
  5
2AD
  8
DETAIL
  6
CONTINUOUS
 10
214.364692
 20
87.435238
 30
0.0
  0
VERTEX
  5
2AE
  8
DETAIL
  6
CONTINUOUS
 10
216.391455
 20
86.66132
 30
0.0
  0
VERTEX
  5
2AF
  8
DETAIL
  6
CONTINUOUS
 10
218.499218
 20
86.4
 30
0.0
  0
SEQEND
  5
2B0
  8
DETAIL
  6
CONTINUOUS
  0
LINE
  5
2B1
  8
DETAIL
  6
CONTINUOUS
 10
232.624947
 20
113.6
 30
0.0
 11
218.499218
 21
113.6
 31
0.0
  0
LINE
  5
2B2
  8
DETAIL
  6
CONTINUOUS
 10
232.624947
 20
86.4
 30
0.0
 11
218.499218
 21
86.4
 31
0.0
  0
POLYLINE
  5
2B3
  8
DETAIL
  6
CONTINUOUS
 66
     1
 10
0.0
 20
0.0
 30
0.0
 70
     1
  0
VERTEX
  5
2B4
  8
DETAIL
  6
CONTINUOUS
 10
242.950336
 20
112.1
 30
0.0
  0
VERTEX
  5
2B5
  8
DETAIL
  6
CONTINUOUS
 10
241.073079
 20
111.867502
 30
0.0
  0
VERTEX
  5
2B6
  8
DETAIL
  6
CONTINUOUS
 10
239.267964
 20
111.178942
 30
0.0
  0
VERTEX
  5
2B7
  8
DETAIL
  6
CONTINUOUS
 10
237.604361
 20
110.060782
 30
0.0
  0
VERTEX
  5
2B8
  8
DETAIL
  6
CONTINUOUS
 10
236.146201
 20
108.555992
 30
0.0
  0
VERTEX
  5
2B9
  8
DETAIL
  6
CONTINUOUS
 10
234.949519
 20
106.7224
 30
0.0
  0
VERTEX
  5
2BA
  8
DETAIL
  6
CONTINUOUS
 10
234.060305
 20
104.63047
 30
0.0
  0
VERTEX
  5
2BB
  8
DETAIL
  6
CONTINUOUS
 10
233.512729
 20
102.360593
 30
0.0
  0
VERTEX
  5
2BC
  8
DETAIL
  6
CONTINUOUS
 10
233.327836
 20
100.0
 30
0.0
  0
VERTEX
  5
2BD
  8
DETAIL
  6
CONTINUOUS
 10
233.512729
 20
97.639407
 30
0.0
  0
VERTEX
  5
2BE
  8
DETAIL
  6
CONTINUOUS
 10
234.060305
 20
95.36953
 30
0.0
  0
VERTEX
  5
2BF
  8
DETAIL
  6
CONTINUOUS
 10
234.949519
 20
93.2776
 30
0.0
  0
VERTEX
  5
2C0
  8
DETAIL
  6
CONTINUOUS
 10
236.146201
 20
91.444008
 30
0.0
  0
VERTEX
  5
2C1
  8
DETAIL
  6
CONTINUOUS
 10
237.604361
 20
89.939218
 30
0.0
  0
VERTEX
  5
2C2
  8
DETAIL
  6
CONTINUOUS
 10
239.267964
 20
88.821058
 30
0.0
  0
VERTEX
  5
2C3
  8
DETAIL
  6
CONTINUOUS
 10
241.073079
 20
88.132498
 30
0.0
  0
VERTEX
  5
2C4
  8
DETAIL
  6
CONTINUOUS
 10
242.950336
 20
87.9
 30
0.0
  0
VERTEX
  5
2C5
  8
DETAIL
  6
CONTINUOUS
 10
244.827593
 20
88.132498
 30
0.0
  0
VERTEX
  5
2C6
  8
DETAIL
  6
CONTINUOUS
 10
246.632707
 20
88.821058
 30
0.0
  0
VERTEX
  5
2C7
  8
DETAIL
  6
CONTINUOUS
 10
248.296311
 20
89.939218
 30
0.0
  0
VERTEX
  5
2C8
  8
DETAIL
  6
CONTINUOUS
 10
249.754471
 20
91.444008
 30
0.0
  0
VERTEX
  5
2C9
  8
DETAIL
  6
CONTINUOUS
 10
250.951152
 20
93.2776
 30
0.0
  0
VERTEX
  5
2CA
  8
DETAIL
  6
CONTINUOUS
 10
251.840367
 20
95.36953
 30
0.0
  0
VERTEX
  5
2CB
  8
DETAIL
  6
CONTINUOUS
 10
252.387942
 20
97.639407
 30
0.0
  0
VERTEX
  5
2CC
  8
DETAIL
  6
CONTINUOUS
 10
252.572836
 20
100.0
 30
0.0
  0
VERTEX
  5
2CD
  8
DETAIL
  6
CONTINUOUS
 10
252.387942
 20
102.360593
 30
0.0
  0
VERTEX
  5
2CE
  8
DETAIL
  6
CONTINUOUS
 10
251.840367
 20
104.63047
 30
0.0
  0
VERTEX
  5
2CF
  8
DETAIL
  6
CONTINUOUS
 10
250.951152
 20
106.7224
 30
0.0
  0
VERTEX
  5
2D0
  8
DETAIL
  6
CONTINUOUS
 10
249.754471
 20
108.555992
 30
0.0
  0
VERTEX
  5
2D1
  8
DETAIL
  6
CONTINUOUS
 10
248.296311
 20
110.060782
 30
0.0
  0
VERTEX
  5
2D2
  8
DETAIL
  6
CONTINUOUS
 10
246.632707
 20
111.178942
 30
0.0
  0
VERTEX
  5
2D3
  8
DETAIL
  6
CONTINUOUS
 10
244.827593
 20
111.867502
 30
0.0
  0
SEQEND
  5
2D4
  8
DETAIL
  6
CONTINUOUS
  0
LINE
  5
2D5
  8
DETAIL
  6
CONTINUOUS
 10
244.061864
 20
112.019002
 30
0.0
 11
233.871669
 21
113.509149
 31
0.0
  0
LINE
  5
2D6
  8
DETAIL
  6
CONTINUOUS
 10
244.061864
 20
87.980998
 30
0.0
 11
233.871667
 21
86.490851
 31
0.0
  0
POLYLINE
  5
2D7
  8
DETAIL
  6
CONTINUOUS
 66
     1
 10
0.0
 20
0.0
 30
0.0
  0
VERTEX
  5
2D8
  8
DETAIL
  6
CONTINUOUS
 10
233.871669
 20
113.509149
 30
0.0
  0
VERTEX
  5
2D9
  8
DETAIL
  6
CONTINUOUS
 10
231.850622
 20
113.565026
 30
0.0
  0
VERTEX
  5
2DA
  8
DETAIL
  6
CONTINUOUS
 10
229.856685
 20
113.145995
 30
0.0
  0
VERTEX
  5
2DB
  8
DETAIL
  6
CONTINUOUS
 10
227.959664
 20
112.266724
 30
0.0
  0
VERTEX
  5
2DC
  8
DETAIL
  6
CONTINUOUS
 10
226.225973
 20
110.957998
 30
0.0
  0
VERTEX
  5
2DD
  8
DETAIL
  6
CONTINUOUS
 10
224.71631
 20
109.265634
 30
0.0
  0
VERTEX
  5
2DE
  8
DETAIL
  6
CONTINUOUS
 10
223.483526
 20
107.248882
 30
0.0
  0
VERTEX
  5
2DF
  8
DETAIL
  6
CONTINUOUS
 10
222.570782
 20
104.978349
 30
0.0
  0
VERTEX
  5
2E0
  8
DETAIL
  6
CONTINUOUS
 10
222.010032
 20
102.533524
 30
0.0
  0
VERTEX
  5
2E1
  8
DETAIL
  6
CONTINUOUS
 10
221.820908
 20
100.000001
 30
0.0
  0
VERTEX
  5
2E2
  8
DETAIL
  6
CONTINUOUS
 10
222.010031
 20
97.466478
 30
0.0
  0
VERTEX
  5
2E3
  8
DETAIL
  6
CONTINUOUS
 10
222.570781
 20
95.021653
 30
0.0
  0
VERTEX
  5
2E4
  8
DETAIL
  6
CONTINUOUS
 10
223.483525
 20
92.751119
 30
0.0
  0
VERTEX
  5
2E5
  8
DETAIL
  6
CONTINUOUS
 10
224.716309
 20
90.734367
 30
0.0
  0
VERTEX
  5
2E6
  8
DETAIL
  6
CONTINUOUS
 10
226.225972
 20
89.042003
 30
0.0
  0
VERTEX
  5
2E7
  8
DETAIL
  6
CONTINUOUS
 10
227.959663
 20
87.733277
 30
0.0
  0
VERTEX
  5
2E8
  8
DETAIL
  6
CONTINUOUS
 10
229.856684
 20
86.854006
 30
0.0
  0
VERTEX
  5
2E9
  8
DETAIL
  6
CONTINUOUS
 10
231.850621
 20
86.434974
 30
0.0
  0
VERTEX
  5
2EA
  8
DETAIL
  6
CONTINUOUS
 10
233.871667
 20
86.490851
 30
0.0
  0
SEQEND
  5
2EB
  8
DETAIL
  6
CONTINUOUS
  0
POLYLINE
  5
2EC
  8
DETAIL
  6
CONTINUOUS
 66
     1
 10
0.0
 20
0.0
 30
0.0
  0
VERTEX
  5
2ED
  8
DETAIL
  6
CONTINUOUS
 10
243.7209
 20
112.061141
 30
0.0
  0
VERTEX
  5
2EE
  8
DETAIL
  6
CONTINUOUS
 10
241.407167
 20
118.121141
 30
0.0
  0
VERTEX
  5
2EF
  8
DETAIL
  6
CONTINUOUS
 10
238.215595
 20
123.512415
 30
0.0
  0
VERTEX
  5
2F0
  8
DETAIL
  6
CONTINUOUS
 10
234.263963
 20
128.036009
 30
0.0
  0
VERTEX
  5
2F1
  8
DETAIL
  6
CONTINUOUS
 10
229.698098
 20
131.524989
 30
0.0
  0
VERTEX
  5
2F2
  8
DETAIL
  6
CONTINUOUS
 10
224.686494
 20
133.850599
 30
0.0
  0
VERTEX
  5
2F3
  8
DETAIL
  6
CONTINUOUS
 10
219.414096
 20
134.927019
 30
0.0
  0
VERTEX
  5
2F4
  8
DETAIL
  6
CONTINUOUS
 10
214.07547
 20
134.714524
 30
0.0
  0
VERTEX
  5
2F5
  8
DETAIL
  6
CONTINUOUS
 10
208.867628
 20
133.220958
 30
0.0
  0
VERTEX
  5
2F6
  8
DETAIL
  6
CONTINUOUS
 10
203.982756
 20
130.501435
 30
0.0
  0
VERTEX
  5
2F7
  8
DETAIL
  6
CONTINUOUS
 10
199.60112
 20
126.656317
 30
0.0
  0
VERTEX
  5
2F8
  8
DETAIL
  6
CONTINUOUS
 10
195.884417
 20
121.827498
 30
0.0
  0
VERTEX
  5
2F9
  8
DETAIL
  6
CONTINUOUS
 10
192.969804
 20
116.193178
 30
0.0
  0
VERTEX
  5
2FA
  8
DETAIL
  6
CONTINUOUS
 10
190.964838
 20
109.96128
 30
0.0
  0
VERTEX
  5
2FB
  8
DETAIL
  6
CONTINUOUS
 10
189.943511
 20
103.36178
 30
0.0
  0
VERTEX
  5
2FC
  8
DETAIL
  6
CONTINUOUS
 10
189.943511
 20
96.63822
 30
0.0
  0
VERTEX
  5
2FD
  8
DETAIL
  6
CONTINUOUS
 10
190.964838
 20
90.03872
 30
0.0
  0
VERTEX
  5
2FE
  8
DETAIL
  6
CONTINUOUS
 10
192.969804
 20
83.806822
 30
0.0
  0
VERTEX
  5
2FF
  8
DETAIL
  6
CONTINUOUS
 10
195.884417
 20
78.172502
 30
0.0
  0
VERTEX
  5
300
  8
DETAIL
  6
CONTINUOUS
 10
199.60112
 20
73.343683
 30
0.0
  0
VERTEX
  5
301
  8
DETAIL
  6
CONTINUOUS
 10
203.982756
 20
69.498565
 30
0.0
  0
VERTEX
  5
302
  8
DETAIL
  6
CONTINUOUS
 10
208.867628
 20
66.779042
 30
0.0
  0
VERTEX
  5
303
  8
DETAIL
  6
CONTINUOUS
 10
214.07547
 20
65.285476
 30
0.0
  0
VERTEX
  5
304
  8
DETAIL
  6
CONTINUOUS
 10
219.414096
 20
65.072981
 30
0.0
  0
VERTEX
  5
305
  8
DETAIL
  6
CONTINUOUS
 10
224.686494
 20
66.149401
 30
0.0
  0
VERTEX
  5
306
  8
DETAIL
  6
CONTINUOUS
 10
229.698098
 20
68.475011
 30
0.0
  0
VERTEX
  5
307
  8
DETAIL
  6
CONTINUOUS
 10
234.263963
 20
71.963991
 30
0.0
  0
VERTEX
  5
308
  8
DETAIL
  6
CONTINUOUS
 10
238.215595
 20
76.487585
 30
0.0
  0
VERTEX
  5
309
  8
DETAIL
  6
CONTINUOUS
 10
241.407167
 20
81.878859
 30
0.0
  0
VERTEX
  5
30A
  8
DETAIL
  6
CONTINUOUS
 10
243.7209
 20
87.938859
 30
0.0
  0
SEQEND
  5
30B
  8
DETAIL
  6
CONTINUOUS
  0
LINE
  5
30C
  8
DETAIL
  6
CONTINUOUS
 10
-44.0
 20
38.0
 30
0.0
 11
-44.0
 21
26.0
 31
0.0
  0
LINE
  5
30D
  8
DETAIL
  6
CONTINUOUS
 10
-44.0
 20
26.0
 30
0.0
 11
-26.0
 21
26.0
 31
0.0
  0
LINE
  5
30E
  8
DETAIL
  6
CONTINUOUS
 10
-43.0
 20
23.0
 30
0.0
 11
-27.0
 21
23.0
 31
0.0
  0
LINE
  5
30F
  8
DETAIL
  6
CONTINUOUS
 10
-44.0
 20
26.0
 30
0.0
 11
-43.0
 21
23.0
 31
0.0
  0
LINE
  5
310
  8
DETAIL
  6
CONTINUOUS
 10
-26.0
 20
26.0
 30
0.0
 11
-27.0
 21
23.0
 31
0.0
  0
LINE
  5
311
  8
DETAIL
  6
CONTINUOUS
 10
-26.0
 20
38.0
 30
0.0
 11
-26.0
 21
26.0
 31
0.0
  0
LINE
  5
312
  8
DETAIL
  6
CONTINUOUS
 10
-55.0
 20
40.0
 30
0.0
 11
-55.0
 21
38.0
 31
0.0
  0
LINE
  5
313
  8
DETAIL
  6
CONTINUOUS
 10
-15.0
 20
40.0
 30
0.0
 11
-15.0
 21
38.0
 31
0.0
  0
LINE
  5
314
  8
DETAIL
  6
CONTINUOUS
 10
-55.0
 20
38.0
 30
0.0
 11
-15.0
 21
38.0
 31
0.0
  0
LINE
  5
315
  8
DETAIL
  6
CONTINUOUS
 10
40.0
 20
40.0
 30
0.0
 11
30.0
 21
32.0
 31
0.0
  0
LINE
  5
316
  8
DETAIL
  6
CONTINUOUS
 10
-26.0
 20
32.0
 30
0.0
 11
30.0
 21
32.0
 31
0.0
  0
LINE
  5
317
  8
DETAIL
  6
CONTINUOUS
 10
-126.5
 20
1007.7
 30
0.0
 11
-126.5
 21
1034.7
 31
0.0
  0
ARC
  5
318
  8
DETAIL
  6
CONTINUOUS
 10
-96.5
 20
1034.7
 30
0.0
 40
30.0
 50
90.0
 51
180.0
  0
LINE
  5
319
  8
DETAIL
  6
CONTINUOUS
 10
-96.5
 20
1064.7
 30
0.0
 11
96.5
 21
1064.7
 31
0.0
  0
ARC
  5
31A
  8
DETAIL
  6
CONTINUOUS
 10
96.5
 20
1034.7
 30
0.0
 40
30.0
 50
0.0
 51
90.0
  0
LINE
  5
31B
  8
DETAIL
  6
CONTINUOUS
 10
-126.5
 20
1007.7
 30
0.0
 11
126.5
 21
1007.7
 31
0.0
  0
LINE
  5
31C
  8
DETAIL
  6
CONTINUOUS
 10
126.5
 20
1007.7
 30
0.0
 11
126.5
 21
1034.7
 31
0.0
  0
ARC
  5
31D
  8
DETAIL
  6
CONTINUOUS
 10
62.0
 20
927.7
 30
0.0
 40
3.0
 50
0.000001
 51
90.0
  0
ARC
  5
31E
  8
DETAIL
  6
CONTINUOUS
 10
62.0
 20
904.7
 30
0.0
 40
3.0
 50
270.0
 51
0.000001
  0
LINE
  5
31F
  8
DETAIL
  6
CONTINUOUS
 10
65.0
 20
904.7
 30
0.0
 11
65.0
 21
927.7
 31
0.0
  0
ARC
  5
320
  8
DETAIL
  6
CONTINUOUS
 10
-62.0
 20
904.7
 30
0.0
 40
3.0
 50
179.999982
 51
270.0
  0
ARC
  5
321
  8
DETAIL
  6
CONTINUOUS
 10
-62.0
 20
927.7
 30
0.0
 40
3.0
 50
90.0
 51
179.999982
  0
LINE
  5
322
  8
DETAIL
  6
CONTINUOUS
 10
-65.0
 20
927.7
 30
0.0
 11
-65.0
 21
904.7
 31
0.0
  0
LINE
  5
323
  8
DETAIL
  6
CONTINUOUS
 10
-62.0
 20
901.7
 30
0.0
 11
62.0
 21
901.7
 31
0.0
  0
LINE
  5
324
  8
DETAIL
  6
CONTINUOUS
 10
-62.0
 20
930.7
 30
0.0
 11
62.0
 21
930.7
 31
0.0
  0
LINE
  5
325
  8
DETAIL
  6
CONTINUOUS
 10
124.5
 20
340.7
 30
0.0
 11
124.5
 21
1007.7
 31
0.0
  0
LINE
  5
326
  8
DETAIL
  6
CONTINUOUS
 10
107.422668
 20
1007.7
 30
0.0
 11
107.422668
 21
340.7
 31
0.0
  0
LINE
  5
327
  8
DETAIL
  6
CONTINUOUS
 10
-107.422668
 20
1007.7
 30
0.0
 11
-107.422668
 21
340.7
 31
0.0
  0
LINE
  5
328
  8
DETAIL
  6
CONTINUOUS
 10
-124.5
 20
340.7
 30
0.0
 11
-124.5
 21
1007.7
 31
0.0
  0
ARC
  5
329
  8
DETAIL
  6
CONTINUOUS
 10
-354.0
 20
1930.697135
 30
0.0
 40
6.0
 50
93.554092
 51
180.0
  0
ARC
  5
32A
  8
DETAIL
  6
CONTINUOUS
 10
354.0
 20
1930.697135
 30
0.0
 40
6.0
 50
0.0
 51
86.445908
  0
LINE
  5
32B
  8
DETAIL
  6
CONTINUOUS
 10
-35.0
 20
23.0
 30
0.0
 11
-35.0
 21
8.0
 31
0.0
  0
ARC
  5
32C
  8
DETAIL
  6
CONTINUOUS
 10
25.0
 20
30.0
 30
0.0
 40
10.0
 50
0.0
 51
29.674931
  0
LINE
  5
32D
  8
DETAIL
  6
CONTINUOUS
 10
-360.0
 20
40.0
 30
0.0
 11
360.0
 21
40.0
 31
0.0
  0
LINE
  5
32E
  8
DETAIL
  6
CONTINUOUS
 10
35.0
 20
30.0
 30
0.0
 11
35.0
 21
8.0
 31
0.0
  0
LINE
  5
32F
  8
DETAIL
  6
CONTINUOUS
 10
-46.5
 20
8.0
 30
0.0
 11
46.5
 21
8.0
 31
0.0
  0
LINE
  5
330
  8
DETAIL
  6
CONTINUOUS
 10
-42.9
 20
0.0
 30
0.0
 11
42.9
 21
0.0
 31
0.0
  0
LINE
  5
331
  8
DETAIL
  6
CONTINUOUS
 10
-46.5
 20
8.0
 30
0.0
 11
-46.5
 21
3.6
 31
0.0
  0
ARC
  5
332
  8
DETAIL
  6
CONTINUOUS
 10
-42.9
 20
3.6
 30
0.0
 40
3.6
 50
180.0
 51
270.0
  0
LINE
  5
333
  8
DETAIL
  6
CONTINUOUS
 10
46.5
 20
8.0
 30
0.0
 11
46.5
 21
3.6
 31
0.0
  0
ARC
  5
334
  8
DETAIL
  6
CONTINUOUS
 10
42.9
 20
3.6
 30
0.0
 40
3.6
 50
270.0
 51
0.0
  0
LINE
  5
335
  8
DETAIL
  6
CONTINUOUS
 10
-226.411211
 20
3.2
 30
0.0
 11
-226.411211
 21
8.0
 31
0.0
  0
LINE
  5
336
  8
DETAIL
  6
CONTINUOUS
 10
-226.411211
 20
8.0
 30
0.0
 11
-358.079955
 21
8.0
 31
0.0
  0
ARC
  5
337
  8
DETAIL
  6
CONTINUOUS
 10
-229.611211
 20
3.2
 30
0.0
 40
3.2
 50
270.0
 51
0.0
  0
LINE
  5
338
  8
DETAIL
  6
CONTINUOUS
 10
-229.611211
 20
0.0
 30
0.0
 11
-354.879955
 21
0.0
 31
0.0
  0
ARC
  5
339
  8
DETAIL
  6
CONTINUOUS
 10
-354.879955
 20
3.2
 30
0.0
 40
3.2
 50
180.0
 51
270.0
  0
LINE
  5
33A
  8
DETAIL
  6
CONTINUOUS
 10
-358.079955
 20
3.2
 30
0.0
 11
-358.079955
 21
8.0
 31
0.0
  0
LINE
  5
33B
  8
DETAIL
  6
CONTINUOUS
 10
-358.127183
 20
3.2
 30
0.0
 11
-358.127183
 21
8.0
 31
0.0
  0
ARC
  5
33C
  8
DETAIL
  6
CONTINUOUS
 10
-354.927183
 20
3.2
 30
0.0
 40
3.2
 50
180.0
 51
270.0
  0
LINE
  5
33D
  8
DETAIL
  6
CONTINUOUS
 10
-332.872549
 20
3.2
 30
0.0
 11
-332.872549
 21
8.0
 31
0.0
  0
ARC
  5
33E
  8
DETAIL
  6
CONTINUOUS
 10
-336.072549
 20
3.2
 30
0.0
 40
3.2
 50
270.0
 51
0.0
  0
LINE
  5
33F
  8
DETAIL
  6
CONTINUOUS
 10
-311.300727
 20
0.0
 30
0.0
 11
-311.300727
 21
8.0
 31
0.0
  0
ARC
  5
340
  8
DETAIL
  6
CONTINUOUS
 10
-252.874117
 20
30.0
 30
0.0
 40
10.0
 50
4.467159
 51
90.0
  0
LINE
  5
341
  8
DETAIL
  6
CONTINUOUS
 10
-291.087199
 20
32.200019
 30
0.0
 11
-296.229234
 21
9.399981
 31
0.0
  0
LINE
  5
342
  8
DETAIL
  6
CONTINUOUS
 10
-241.124896
 20
8.0
 30
0.0
 11
-242.904495
 21
30.778877
 31
0.0
  0
LINE
  5
343
  8
DETAIL
  6
CONTINUOUS
 10
-320.230793
 20
32.200019
 30
0.0
 11
-325.372827
 21
9.399981
 31
0.0
  0
ARC
  5
344
  8
DETAIL
  6
CONTINUOUS
 10
-281.332205
 20
30.0
 30
0.0
 40
10.0
 50
90.0
 51
167.290855
  0
ARC
  5
345
  8
DETAIL
  6
CONTINUOUS
 10
-310.475799
 20
30.0
 30
0.0
 40
10.0
 50
90.0
 51
167.290855
  0
ARC
  5
346
  8
DETAIL
  6
CONTINUOUS
 10
-305.984228
 20
11.6
 30
0.0
 40
10.0
 50
338.899804
 51
347.290855
  0
ARC
  5
347
  8
DETAIL
  6
CONTINUOUS
 10
-335.127822
 20
11.6
 30
0.0
 40
10.0
 50
338.899804
 51
347.290855
  0
ARC
  5
348
  8
DETAIL
  6
CONTINUOUS
 10
-305.984228
 20
11.6
 30
0.0
 40
10.0
 50
338.899804
 51
347.290855
  0
ARC
  5
349
  8
DETAIL
  6
CONTINUOUS
 10
-335.127822
 20
11.6
 30
0.0
 40
10.0
 50
338.899804
 51
347.290855
  0
LINE
  5
34A
  8
DETAIL
  6
CONTINUOUS
 10
226.411211
 20
3.2
 30
0.0
 11
226.411211
 21
8.0
 31
0.0
  0
LINE
  5
34B
  8
DETAIL
  6
CONTINUOUS
 10
226.411211
 20
8.0
 30
0.0
 11
358.079955
 21
8.0
 31
0.0
  0
ARC
  5
34C
  8
DETAIL
  6
CONTINUOUS
 10
229.611211
 20
3.2
 30
0.0
 40
3.2
 50
180.0
 51
270.0
  0
LINE
  5
34D
  8
DETAIL
  6
CONTINUOUS
 10
229.611211
 20
0.0
 30
0.0
 11
354.879955
 21
0.0
 31
0.0
  0
ARC
  5
34E
  8
DETAIL
  6
CONTINUOUS
 10
354.879955
 20
3.2
 30
0.0
 40
3.2
 50
270.0
 51
0.0
  0
LINE
  5
34F
  8
DETAIL
  6
CONTINUOUS
 10
358.079955
 20
3.2
 30
0.0
 11
358.079955
 21
8.0
 31
0.0
  0
LINE
  5
350
  8
DETAIL
  6
CONTINUOUS
 10
358.127183
 20
3.2
 30
0.0
 11
358.127183
 21
8.0
 31
0.0
  0
ARC
  5
351
  8
DETAIL
  6
CONTINUOUS
 10
354.927183
 20
3.2
 30
0.0
 40
3.2
 50
270.0
 51
0.0
  0
LINE
  5
352
  8
DETAIL
  6
CONTINUOUS
 10
332.872549
 20
3.2
 30
0.0
 11
332.872549
 21
8.0
 31
0.0
  0
ARC
  5
353
  8
DETAIL
  6
CONTINUOUS
 10
336.072549
 20
3.2
 30
0.0
 40
3.2
 50
180.0
 51
270.0
  0
LINE
  5
354
  8
DETAIL
  6
CONTINUOUS
 10
311.300727
 20
0.0
 30
0.0
 11
311.300727
 21
8.0
 31
0.0
  0
ARC
  5
355
  8
DETAIL
  6
CONTINUOUS
 10
252.874117
 20
30.0
 30
0.0
 40
10.0
 50
90.0
 51
175.532841
  0
LINE
  5
356
  8
DETAIL
  6
CONTINUOUS
 10
291.087199
 20
32.200019
 30
0.0
 11
296.229234
 21
9.399981
 31
0.0
  0
LINE
  5
357
  8
DETAIL
  6
CONTINUOUS
 10
241.124896
 20
8.0
 30
0.0
 11
242.904495
 21
30.778877
 31
0.0
  0
LINE
  5
358
  8
DETAIL
  6
CONTINUOUS
 10
320.230793
 20
32.200019
 30
0.0
 11
325.372827
 21
9.399981
 31
0.0
  0
ARC
  5
359
  8
DETAIL
  6
CONTINUOUS
 10
281.332205
 20
30.0
 30
0.0
 40
10.0
 50
12.709145
 51
90.0
  0
ARC
  5
35A
  8
DETAIL
  6
CONTINUOUS
 10
310.475799
 20
30.0
 30
0.0
 40
10.0
 50
12.709145
 51
90.0
  0
ARC
  5
35B
  8
DETAIL
  6
CONTINUOUS
 10
305.984228
 20
11.6
 30
0.0
 40
10.0
 50
192.709145
 51
201.100196
  0
ARC
  5
35C
  8
DETAIL
  6
CONTINUOUS
 10
335.127822
 20
11.6
 30
0.0
 40
10.0
 50
192.709145
 51
201.100196
  0
ARC
  5
35D
  8
DETAIL
  6
CONTINUOUS
 10
305.984228
 20
11.6
 30
0.0
 40
10.0
 50
192.709145
 51
201.100196
  0
ARC
  5
35E
  8
DETAIL
  6
CONTINUOUS
 10
335.127822
 20
11.6
 30
0.0
 40
10.0
 50
192.709145
 51
201.100196
  0
LINE
  5
35F
  8
DETAIL
  6
CONTINUOUS
 10
-360.0
 20
40.0
 30
0.0
 11
-360.0
 21
1930.697135
 31
0.0
  0
ARC
  5
360
  8
DETAIL
  6
CONTINUOUS
 10
-44.380536
 20
-3054.296842
 30
0.0
 40
5000.6
 50
90.06439
 51
93.554092
  0
LINE
  5
361
  8
DETAIL
  6
CONTINUOUS
 10
50.000337
 20
1946.3
 30
0.0
 11
-50.000337
 21
1946.3
 31
0.0
  0
LINE
  5
362
  8
DETAIL
  6
CONTINUOUS
 10
360.0
 20
1910.7
 30
0.0
 11
-360.0
 21
1910.7
 31
0.0
  0
LINE
  5
363
  8
DETAIL
  6
CONTINUOUS
 10
360.0
 20
40.0
 30
0.0
 11
360.0
 21
1930.697135
 31
0.0
  0
ARC
  5
364
  8
DETAIL
  6
CONTINUOUS
 10
44.380536
 20
-3054.296842
 30
0.0
 40
5000.6
 50
86.445908
 51
89.93561
  0
LINE
  5
365
  8
DETAIL
  6
CONTINUOUS
 10
356.146602
 20
1936.3
 30
0.0
 11
-356.146602
 21
1936.3
 31
0.0
  0
LINE
  5
366
  8
DETAIL
  6
CONTINUOUS
 10
-124.5
 20
340.7
 30
0.0
 11
-124.5
 21
1007.7
 31
0.0
  0
LINE
  5
367
  8
DETAIL
  6
CONTINUOUS
 10
-107.422668
 20
1007.7
 30
0.0
 11
-107.422668
 21
340.7
 31
0.0
  0
LINE
  5
368
  8
DETAIL
  6
CONTINUOUS
 10
107.422668
 20
1007.7
 30
0.0
 11
107.422668
 21
340.7
 31
0.0
  0
LINE
  5
369
  8
DETAIL
  6
CONTINUOUS
 10
124.5
 20
340.7
 30
0.0
 11
124.5
 21
1007.7
 31
0.0
  0
LINE
  5
36A
  8
DETAIL
  6
CONTINUOUS
 10
-62.0
 20
930.7
 30
0.0
 11
62.0
 21
930.7
 31
0.0
  0
LINE
  5
36B
  8
DETAIL
  6
CONTINUOUS
 10
-62.0
 20
901.7
 30
0.0
 11
62.0
 21
901.7
 31
0.0
  0
LINE
  5
36C
  8
DETAIL
  6
CONTINUOUS
 10
-65.0
 20
927.7
 30
0.0
 11
-65.0
 21
904.7
 31
0.0
  0
ARC
  5
36D
  8
DETAIL
  6
CONTINUOUS
 10
-62.0
 20
927.7
 30
0.0
 40
3.0
 50
90.0
 51
179.999982
  0
ARC
  5
36E
  8
DETAIL
  6
CONTINUOUS
 10
-62.0
 20
904.7
 30
0.0
 40
3.0
 50
179.999982
 51
270.0
  0
LINE
  5
36F
  8
DETAIL
  6
CONTINUOUS
 10
65.0
 20
904.7
 30
0.0
 11
65.0
 21
927.7
 31
0.0
  0
ARC
  5
370
  8
DETAIL
  6
CONTINUOUS
 10
62.0
 20
904.7
 30
0.0
 40
3.0
 50
270.0
 51
0.000001
  0
ARC
  5
371
  8
DETAIL
  6
CONTINUOUS
 10
62.0
 20
927.7
 30
0.0
 40
3.0
 50
0.000001
 51
90.0
  0
LINE
  5
372
  8
DETAIL
  6
CONTINUOUS
 10
126.5
 20
1007.7
 30
0.0
 11
126.5
 21
1034.7
 31
0.0
  0
LINE
  5
373
  8
DETAIL
  6
CONTINUOUS
 10
-126.5
 20
1007.7
 30
0.0
 11
126.5
 21
1007.7
 31
0.0
  0
ARC
  5
374
  8
DETAIL
  6
CONTINUOUS
 10
96.5
 20
1034.7
 30
0.0
 40
30.0
 50
0.0
 51
90.0
  0
LINE
  5
375
  8
DETAIL
  6
CONTINUOUS
 10
-96.5
 20
1064.7
 30
0.0
 11
96.5
 21
1064.7
 31
0.0
  0
ARC
  5
376
  8
DETAIL
  6
CONTINUOUS
 10
-96.5
 20
1034.7
 30
0.0
 40
30.0
 50
90.0
 51
180.0
  0
LINE
  5
377
  8
DETAIL
  6
CONTINUOUS
 10
-126.5
 20
1007.7
 30
0.0
 11
-126.5
 21
1034.7
 31
0.0
  0
LINE
  5
378
  8
DETAIL
  6
CONTINUOUS
 10
-26.0
 20
32.0
 30
0.0
 11
30.0
 21
32.0
 31
0.0
  0
LINE
  5
379
  8
DETAIL
  6
CONTINUOUS
 10
40.0
 20
40.0
 30
0.0
 11
30.0
 21
32.0
 31
0.0
  0
LINE
  5
37A
  8
DETAIL
  6
CONTINUOUS
 10
-55.0
 20
38.0
 30
0.0
 11
-15.0
 21
38.0
 31
0.0
  0
LINE
  5
37B
  8
DETAIL
  6
CONTINUOUS
 10
-15.0
 20
40.0
 30
0.0
 11
-15.0
 21
38.0
 31
0.0
  0
LINE
  5
37C
  8
DETAIL
  6
CONTINUOUS
 10
-55.0
 20
40.0
 30
0.0
 11
-55.0
 21
38.0
 31
0.0
  0
LINE
  5
37D
  8
DETAIL
  6
CONTINUOUS
 10
-26.0
 20
38.0
 30
0.0
 11
-26.0
 21
26.0
 31
0.0
  0
LINE
  5
37E
  8
DETAIL
  6
CONTINUOUS
 10
-26.0
 20
26.0
 30
0.0
 11
-27.0
 21
23.0
 31
0.0
  0
LINE
  5
37F
  8
DETAIL
  6
CONTINUOUS
 10
-44.0
 20
26.0
 30
0.0
 11
-43.0
 21
23.0
 31
0.0
  0
LINE
  5
380
  8
DETAIL
  6
CONTINUOUS
 10
-43.0
 20
23.0
 30
0.0
 11
-27.0
 21
23.0
 31
0.0
  0
LINE
  5
381
  8
DETAIL
  6
CONTINUOUS
 10
-44.0
 20
26.0
 30
0.0
 11
-26.0
 21
26.0
 31
0.0
  0
LINE
  5
382
  8
DETAIL
  6
CONTINUOUS
 10
-44.0
 20
38.0
 30
0.0
 11
-44.0
 21
26.0
 31
0.0
  0
POLYLINE
  5
383
  8
DETAIL
  6
CONTINUOUS
 66
     1
 10
0.0
 20
0.0
 30
0.0
  0
VERTEX
  5
384
  8
DETAIL
  6
CONTINUOUS
 10
243.7209
 20
112.061141
 30
0.0
  0
VERTEX
  5
385
  8
DETAIL
  6
CONTINUOUS
 10
241.407167
 20
118.121141
 30
0.0
  0
VERTEX
  5
386
  8
DETAIL
  6
CONTINUOUS
 10
238.215595
 20
123.512415
 30
0.0
  0
VERTEX
  5
387
  8
DETAIL
  6
CONTINUOUS
 10
234.263963
 20
128.036009
 30
0.0
  0
VERTEX
  5
388
  8
DETAIL
  6
CONTINUOUS
 10
229.698098
 20
131.524989
 30
0.0
  0
VERTEX
  5
389
  8
DETAIL
  6
CONTINUOUS
 10
224.686494
 20
133.850599
 30
0.0
  0
VERTEX
  5
38A
  8
DETAIL
  6
CONTINUOUS
 10
219.414096
 20
134.927019
 30
0.0
  0
VERTEX
  5
38B
  8
DETAIL
  6
CONTINUOUS
 10
214.07547
 20
134.714524
 30
0.0
  0
VERTEX
  5
38C
  8
DETAIL
  6
CONTINUOUS
 10
208.867628
 20
133.220958
 30
0.0
  0
VERTEX
  5
38D
  8
DETAIL
  6
CONTINUOUS
 10
203.982756
 20
130.501435
 30
0.0
  0
VERTEX
  5
38E
  8
DETAIL
  6
CONTINUOUS
 10
199.60112
 20
126.656317
 30
0.0
  0
VERTEX
  5
38F
  8
DETAIL
  6
CONTINUOUS
 10
195.884417
 20
121.827498
 30
0.0
  0
VERTEX
  5
390
  8
DETAIL
  6
CONTINUOUS
 10
192.969804
 20
116.193178
 30
0.0
  0
VERTEX
  5
391
  8
DETAIL
  6
CONTINUOUS
 10
190.964838
 20
109.96128
 30
0.0
  0
VERTEX
  5
392
  8
DETAIL
  6
CONTINUOUS
 10
189.943511
 20
103.36178
 30
0.0
  0
VERTEX
  5
393
  8
DETAIL
  6
CONTINUOUS
 10
189.943511
 20
96.63822
 30
0.0
  0
VERTEX
  5
394
  8
DETAIL
  6
CONTINUOUS
 10
190.964838
 20
90.03872
 30
0.0
  0
VERTEX
  5
395
  8
DETAIL
  6
CONTINUOUS
 10
192.969804
 20
83.806822
 30
0.0
  0
VERTEX
  5
396
  8
DETAIL
  6
CONTINUOUS
 10
195.884417
 20
78.172502
 30
0.0
  0
VERTEX
  5
397
  8
DETAIL
  6
CONTINUOUS
 10
199.60112
 20
73.343683
 30
0.0
  0
VERTEX
  5
398
  8
DETAIL
  6
CONTINUOUS
 10
203.982756
 20
69.498565
 30
0.0
  0
VERTEX
  5
399
  8
DETAIL
  6
CONTINUOUS
 10
208.867628
 20
66.779042
 30
0.0
  0
VERTEX
  5
39A
  8
DETAIL
  6
CONTINUOUS
 10
214.07547
 20
65.285476
 30
0.0
  0
VERTEX
  5
39B
  8
DETAIL
  6
CONTINUOUS
 10
219.414096
 20
65.072981
 30
0.0
  0
VERTEX
  5
39C
  8
DETAIL
  6
CONTINUOUS
 10
224.686494
 20
66.149401
 30
0.0
  0
VERTEX
  5
39D
  8
DETAIL
  6
CONTINUOUS
 10
229.698098
 20
68.475011
 30
0.0
  0
VERTEX
  5
39E
  8
DETAIL
  6
CONTINUOUS
 10
234.263963
 20
71.963991
 30
0.0
  0
VERTEX
  5
39F
  8
DETAIL
  6
CONTINUOUS
 10
238.215595
 20
76.487585
 30
0.0
  0
VERTEX
  5
3A0
  8
DETAIL
  6
CONTINUOUS
 10
241.407167
 20
81.878859
 30
0.0
  0
VERTEX
  5
3A1
  8
DETAIL
  6
CONTINUOUS
 10
243.7209
 20
87.938859
 30
0.0
  0
SEQEND
  5
3A2
  8
DETAIL
  6
CONTINUOUS
  0
POLYLINE
  5
3A3
  8
DETAIL
  6
CONTINUOUS
 66
     1
 10
0.0
 20
0.0
 30
0.0
  0
VERTEX
  5
3A4
  8
DETAIL
  6
CONTINUOUS
 10
233.871669
 20
113.509149
 30
0.0
  0
VERTEX
  5
3A5
  8
DETAIL
  6
CONTINUOUS
 10
231.850622
 20
113.565026
 30
0.0
  0
VERTEX
  5
3A6
  8
DETAIL
  6
CONTINUOUS
 10
229.856685
 20
113.145995
 30
0.0
  0
VERTEX
  5
3A7
  8
DETAIL
  6
CONTINUOUS
 10
227.959664
 20
112.266724
 30
0.0
  0
VERTEX
  5
3A8
  8
DETAIL
  6
CONTINUOUS
 10
226.225973
 20
110.957998
 30
0.0
  0
VERTEX
  5
3A9
  8
DETAIL
  6
CONTINUOUS
 10
224.71631
 20
109.265634
 30
0.0
  0
VERTEX
  5
3AA
  8
DETAIL
  6
CONTINUOUS
 10
223.483526
 20
107.248882
 30
0.0
  0
VERTEX
  5
3AB
  8
DETAIL
  6
CONTINUOUS
 10
222.570782
 20
104.978349
 30
0.0
  0
VERTEX
  5
3AC
  8
DETAIL
  6
CONTINUOUS
 10
222.010032
 20
102.533524
 30
0.0
  0
VERTEX
  5
3AD
  8
DETAIL
  6
CONTINUOUS
 10
221.820908
 20
100.000001
 30
0.0
  0
VERTEX
  5
3AE
  8
DETAIL
  6
CONTINUOUS
 10
222.010031
 20
97.466478
 30
0.0
  0
VERTEX
  5
3AF
  8
DETAIL
  6
CONTINUOUS
 10
222.570781
 20
95.021653
 30
0.0
  0
VERTEX
  5
3B0
  8
DETAIL
  6
CONTINUOUS
 10
223.483525
 20
92.751119
 30
0.0
  0
VERTEX
  5
3B1
  8
DETAIL
  6
CONTINUOUS
 10
224.716309
 20
90.734367
 30
0.0
  0
VERTEX
  5
3B2
  8
DETAIL
  6
CONTINUOUS
 10
226.225972
 20
89.042003
 30
0.0
  0
VERTEX
  5
3B3
  8
DETAIL
  6
CONTINUOUS
 10
227.959663
 20
87.733277
 30
0.0
  0
VERTEX
  5
3B4
  8
DETAIL
  6
CONTINUOUS
 10
229.856684
 20
86.854006
 30
0.0
  0
VERTEX
  5
3B5
  8
DETAIL
  6
CONTINUOUS
 10
231.850621
 20
86.434974
 30
0.0
  0
VERTEX
  5
3B6
  8
DETAIL
  6
CONTINUOUS
 10
233.871667
 20
86.490851
 30
0.0
  0
SEQEND
  5
3B7
  8
DETAIL
  6
CONTINUOUS
  0
LINE
  5
3B8
  8
DETAIL
  6
CONTINUOUS
 10
244.061864
 20
87.980998
 30
0.0
 11
233.871667
 21
86.490851
 31
0.0
  0
LINE
  5
3B9
  8
DETAIL
  6
CONTINUOUS
 10
244.061864
 20
112.019002
 30
0.0
 11
233.871669
 21
113.509149
 31
0.0
  0
POLYLINE
  5
3BA
  8
DETAIL
  6
CONTINUOUS
 66
     1
 10
0.0
 20
0.0
 30
0.0
 70
     1
  0
VERTEX
  5
3BB
  8
DETAIL
  6
CONTINUOUS
 10
242.950336
 20
112.1
 30
0.0
  0
VERTEX
  5
3BC
  8
DETAIL
  6
CONTINUOUS
 10
241.073079
 20
111.867502
 30
0.0
  0
VERTEX
  5
3BD
  8
DETAIL
  6
CONTINUOUS
 10
239.267964
 20
111.178942
 30
0.0
  0
VERTEX
  5
3BE
  8
DETAIL
  6
CONTINUOUS
 10
237.604361
 20
110.060782
 30
0.0
  0
VERTEX
  5
3BF
  8
DETAIL
  6
CONTINUOUS
 10
236.146201
 20
108.555992
 30
0.0
  0
VERTEX
  5
3C0
  8
DETAIL
  6
CONTINUOUS
 10
234.949519
 20
106.7224
 30
0.0
  0
VERTEX
  5
3C1
  8
DETAIL
  6
CONTINUOUS
 10
234.060305
 20
104.63047
 30
0.0
  0
VERTEX
  5
3C2
  8
DETAIL
  6
CONTINUOUS
 10
233.512729
 20
102.360593
 30
0.0
  0
VERTEX
  5
3C3
  8
DETAIL
  6
CONTINUOUS
 10
233.327836
 20
100.0
 30
0.0
  0
VERTEX
  5
3C4
  8
DETAIL
  6
CONTINUOUS
 10
233.512729
 20
97.639407
 30
0.0
  0
VERTEX
  5
3C5
  8
DETAIL
  6
CONTINUOUS
 10
234.060305
 20
95.36953
 30
0.0
  0
VERTEX
  5
3C6
  8
DETAIL
  6
CONTINUOUS
 10
234.949519
 20
93.2776
 30
0.0
  0
VERTEX
  5
3C7
  8
DETAIL
  6
CONTINUOUS
 10
236.146201
 20
91.444008
 30
0.0
  0
VERTEX
  5
3C8
  8
DETAIL
  6
CONTINUOUS
 10
237.604361
 20
89.939218
 30
0.0
  0
VERTEX
  5
3C9
  8
DETAIL
  6
CONTINUOUS
 10
239.267964
 20
88.821058
 30
0.0
  0
VERTEX
  5
3CA
  8
DETAIL
  6
CONTINUOUS
 10
241.073079
 20
88.132498
 30
0.0
  0
VERTEX
  5
3CB
  8
DETAIL
  6
CONTINUOUS
 10
242.950336
 20
87.9
 30
0.0
  0
VERTEX
  5
3CC
  8
DETAIL
  6
CONTINUOUS
 10
244.827593
 20
88.132498
 30
0.0
  0
VERTEX
  5
3CD
  8
DETAIL
  6
CONTINUOUS
 10
246.632707
 20
88.821058
 30
0.0
  0
VERTEX
  5
3CE
  8
DETAIL
  6
CONTINUOUS
 10
248.296311
 20
89.939218
 30
0.0
  0
VERTEX
  5
3CF
  8
DETAIL
  6
CONTINUOUS
 10
249.754471
 20
91.444008
 30
0.0
  0
VERTEX
  5
3D0
  8
DETAIL
  6
CONTINUOUS
 10
250.951152
 20
93.2776
 30
0.0
  0
VERTEX
  5
3D1
  8
DETAIL
  6
CONTINUOUS
 10
251.840367
 20
95.36953
 30
0.0
  0
VERTEX
  5
3D2
  8
DETAIL
  6
CONTINUOUS
 10
252.387942
 20
97.639407
 30
0.0
  0
VERTEX
  5
3D3
  8
DETAIL
  6
CONTINUOUS
 10
252.572836
 20
100.0
 30
0.0
  0
VERTEX
  5
3D4
  8
DETAIL
  6
CONTINUOUS
 10
252.387942
 20
102.360593
 30
0.0
  0
VERTEX
  5
3D5
  8
DETAIL
  6
CONTINUOUS
 10
251.840367
 20
104.63047
 30
0.0
  0
VERTEX
  5
3D6
  8
DETAIL
  6
CONTINUOUS
 10
250.951152
 20
106.7224
 30
0.0
  0
VERTEX
  5
3D7
  8
DETAIL
  6
CONTINUOUS
 10
249.754471
 20
108.555992
 30
0.0
  0
VERTEX
  5
3D8
  8
DETAIL
  6
CONTINUOUS
 10
248.296311
 20
110.060782
 30
0.0
  0
VERTEX
  5
3D9
  8
DETAIL
  6
CONTINUOUS
 10
246.632707
 20
111.178942
 30
0.0
  0
VERTEX
  5
3DA
  8
DETAIL
  6
CONTINUOUS
 10
244.827593
 20
111.867502
 30
0.0
  0
SEQEND
  5
3DB
  8
DETAIL
  6
CONTINUOUS
  0
LINE
  5
3DC
  8
DETAIL
  6
CONTINUOUS
 10
232.624947
 20
86.4
 30
0.0
 11
218.499218
 21
86.4
 31
0.0
  0
LINE
  5
3DD
  8
DETAIL
  6
CONTINUOUS
 10
232.624947
 20
113.6
 30
0.0
 11
218.499218
 21
113.6
 31
0.0
  0
POLYLINE
  5
3DE
  8
DETAIL
  6
CONTINUOUS
 66
     1
 10
0.0
 20
0.0
 30
0.0
  0
VERTEX
  5
3DF
  8
DETAIL
  6
CONTINUOUS
 10
218.499218
 20
113.6
 30
0.0
  0
VERTEX
  5
3E0
  8
DETAIL
  6
CONTINUOUS
 10
216.391455
 20
113.33868
 30
0.0
  0
VERTEX
  5
3E1
  8
DETAIL
  6
CONTINUOUS
 10
214.364692
 20
112.564762
 30
0.0
  0
VERTEX
  5
3E2
  8
DETAIL
  6
CONTINUOUS
 10
212.496816
 20
111.307987
 30
0.0
  0
VERTEX
  5
3E3
  8
DETAIL
  6
CONTINUOUS
 10
210.859609
 20
109.616652
 30
0.0
  0
VERTEX
  5
3E4
  8
DETAIL
  6
CONTINUOUS
 10
209.515989
 20
107.555755
 30
0.0
  0
VERTEX
  5
3E5
  8
DETAIL
  6
CONTINUOUS
 10
208.517588
 20
105.204495
 30
0.0
  0
VERTEX
  5
3E6
  8
DETAIL
  6
CONTINUOUS
 10
207.902776
 20
102.653228
 30
0.0
  0
VERTEX
  5
3E7
  8
DETAIL
  6
CONTINUOUS
 10
207.69518
 20
100.0
 30
0.0
  0
VERTEX
  5
3E8
  8
DETAIL
  6
CONTINUOUS
 10
207.902776
 20
97.346772
 30
0.0
  0
VERTEX
  5
3E9
  8
DETAIL
  6
CONTINUOUS
 10
208.517588
 20
94.795505
 30
0.0
  0
VERTEX
  5
3EA
  8
DETAIL
  6
CONTINUOUS
 10
209.515989
 20
92.444245
 30
0.0
  0
VERTEX
  5
3EB
  8
DETAIL
  6
CONTINUOUS
 10
210.859609
 20
90.383348
 30
0.0
  0
VERTEX
  5
3EC
  8
DETAIL
  6
CONTINUOUS
 10
212.496816
 20
88.692013
 30
0.0
  0
VERTEX
  5
3ED
  8
DETAIL
  6
CONTINUOUS
 10
214.364692
 20
87.435238
 30
0.0
  0
VERTEX
  5
3EE
  8
DETAIL
  6
CONTINUOUS
 10
216.391455
 20
86.66132
 30
0.0
  0
VERTEX
  5
3EF
  8
DETAIL
  6
CONTINUOUS
 10
218.499218
 20
86.4
 30
0.0
  0
SEQEND
  5
3F0
  8
DETAIL
  6
CONTINUOUS
  0
POLYLINE
  5
3F1
  8
DETAIL
  6
CONTINUOUS
 66
     1
 10
0.0
 20
0.0
 30
0.0
  0
VERTEX
  5
3F2
  8
DETAIL
  6
CONTINUOUS
 10
-243.7209
 20
87.938859
 30
0.0
  0
VERTEX
  5
3F3
  8
DETAIL
  6
CONTINUOUS
 10
-241.407167
 20
81.878859
 30
0.0
  0
VERTEX
  5
3F4
  8
DETAIL
  6
CONTINUOUS
 10
-238.215595
 20
76.487585
 30
0.0
  0
VERTEX
  5
3F5
  8
DETAIL
  6
CONTINUOUS
 10
-234.263963
 20
71.963991
 30
0.0
  0
VERTEX
  5
3F6
  8
DETAIL
  6
CONTINUOUS
 10
-229.698098
 20
68.475011
 30
0.0
  0
VERTEX
  5
3F7
  8
DETAIL
  6
CONTINUOUS
 10
-224.686494
 20
66.149401
 30
0.0
  0
VERTEX
  5
3F8
  8
DETAIL
  6
CONTINUOUS
 10
-219.414096
 20
65.072981
 30
0.0
  0
VERTEX
  5
3F9
  8
DETAIL
  6
CONTINUOUS
 10
-214.07547
 20
65.285476
 30
0.0
  0
VERTEX
  5
3FA
  8
DETAIL
  6
CONTINUOUS
 10
-208.867628
 20
66.779042
 30
0.0
  0
VERTEX
  5
3FB
  8
DETAIL
  6
CONTINUOUS
 10
-203.982756
 20
69.498565
 30
0.0
  0
VERTEX
  5
3FC
  8
DETAIL
  6
CONTINUOUS
 10
-199.60112
 20
73.343683
 30
0.0
  0
VERTEX
  5
3FD
  8
DETAIL
  6
CONTINUOUS
 10
-195.884417
 20
78.172502
 30
0.0
  0
VERTEX
  5
3FE
  8
DETAIL
  6
CONTINUOUS
 10
-192.969804
 20
83.806822
 30
0.0
  0
VERTEX
  5
3FF
  8
DETAIL
  6
CONTINUOUS
 10
-190.964838
 20
90.03872
 30
0.0
  0
VERTEX
  5
400
  8
DETAIL
  6
CONTINUOUS
 10
-189.943511
 20
96.63822
 30
0.0
  0
VERTEX
  5
401
  8
DETAIL
  6
CONTINUOUS
 10
-189.943511
 20
103.36178
 30
0.0
  0
VERTEX
  5
402
  8
DETAIL
  6
CONTINUOUS
 10
-190.964838
 20
109.96128
 30
0.0
  0
VERTEX
  5
403
  8
DETAIL
  6
CONTINUOUS
 10
-192.969804
 20
116.193178
 30
0.0
  0
VERTEX
  5
404
  8
DETAIL
  6
CONTINUOUS
 10
-195.884417
 20
121.827498
 30
0.0
  0
VERTEX
  5
405
  8
DETAIL
  6
CONTINUOUS
 10
-199.60112
 20
126.656317
 30
0.0
  0
VERTEX
  5
406
  8
DETAIL
  6
CONTINUOUS
 10
-203.982756
 20
130.501435
 30
0.0
  0
VERTEX
  5
407
  8
DETAIL
  6
CONTINUOUS
 10
-208.867628
 20
133.220958
 30
0.0
  0
VERTEX
  5
408
  8
DETAIL
  6
CONTINUOUS
 10
-214.07547
 20
134.714524
 30
0.0
  0
VERTEX
  5
409
  8
DETAIL
  6
CONTINUOUS
 10
-219.414096
 20
134.927019
 30
0.0
  0
VERTEX
  5
40A
  8
DETAIL
  6
CONTINUOUS
 10
-224.686494
 20
133.850599
 30
0.0
  0
VERTEX
  5
40B
  8
DETAIL
  6
CONTINUOUS
 10
-229.698098
 20
131.524989
 30
0.0
  0
VERTEX
  5
40C
  8
DETAIL
  6
CONTINUOUS
 10
-234.263963
 20
128.036009
 30
0.0
  0
VERTEX
  5
40D
  8
DETAIL
  6
CONTINUOUS
 10
-238.215595
 20
123.512415
 30
0.0
  0
VERTEX
  5
40E
  8
DETAIL
  6
CONTINUOUS
 10
-241.407167
 20
118.121141
 30
0.0
  0
VERTEX
  5
40F
  8
DETAIL
  6
CONTINUOUS
 10
-243.7209
 20
112.061141
 30
0.0
  0
SEQEND
  5
410
  8
DETAIL
  6
CONTINUOUS
  0
POLYLINE
  5
411
  8
DETAIL
  6
CONTINUOUS
 66
     1
 10
0.0
 20
0.0
 30
0.0
  0
VERTEX
  5
412
  8
DETAIL
  6
CONTINUOUS
 10
-233.871667
 20
86.490851
 30
0.0
  0
VERTEX
  5
413
  8
DETAIL
  6
CONTINUOUS
 10
-231.850621
 20
86.434974
 30
0.0
  0
VERTEX
  5
414
  8
DETAIL
  6
CONTINUOUS
 10
-229.856684
 20
86.854006
 30
0.0
  0
VERTEX
  5
415
  8
DETAIL
  6
CONTINUOUS
 10
-227.959663
 20
87.733277
 30
0.0
  0
VERTEX
  5
416
  8
DETAIL
  6
CONTINUOUS
 10
-226.225972
 20
89.042003
 30
0.0
  0
VERTEX
  5
417
  8
DETAIL
  6
CONTINUOUS
 10
-224.716309
 20
90.734367
 30
0.0
  0
VERTEX
  5
418
  8
DETAIL
  6
CONTINUOUS
 10
-223.483525
 20
92.751119
 30
0.0
  0
VERTEX
  5
419
  8
DETAIL
  6
CONTINUOUS
 10
-222.570781
 20
95.021652
 30
0.0
  0
VERTEX
  5
41A
  8
DETAIL
  6
CONTINUOUS
 10
-222.010031
 20
97.466477
 30
0.0
  0
VERTEX
  5
41B
  8
DETAIL
  6
CONTINUOUS
 10
-221.820908
 20
100.0
 30
0.0
  0
VERTEX
  5
41C
  8
DETAIL
  6
CONTINUOUS
 10
-222.010031
 20
102.533523
 30
0.0
  0
VERTEX
  5
41D
  8
DETAIL
  6
CONTINUOUS
 10
-222.570781
 20
104.978348
 30
0.0
  0
VERTEX
  5
41E
  8
DETAIL
  6
CONTINUOUS
 10
-223.483525
 20
107.248881
 30
0.0
  0
VERTEX
  5
41F
  8
DETAIL
  6
CONTINUOUS
 10
-224.716309
 20
109.265633
 30
0.0
  0
VERTEX
  5
420
  8
DETAIL
  6
CONTINUOUS
 10
-226.225972
 20
110.957997
 30
0.0
  0
VERTEX
  5
421
  8
DETAIL
  6
CONTINUOUS
 10
-227.959663
 20
112.266723
 30
0.0
  0
VERTEX
  5
422
  8
DETAIL
  6
CONTINUOUS
 10
-229.856684
 20
113.145994
 30
0.0
  0
VERTEX
  5
423
  8
DETAIL
  6
CONTINUOUS
 10
-231.850621
 20
113.565026
 30
0.0
  0
VERTEX
  5
424
  8
DETAIL
  6
CONTINUOUS
 10
-233.871667
 20
113.509149
 30
0.0
  0
SEQEND
  5
425
  8
DETAIL
  6
CONTINUOUS
  0
LINE
  5
426
  8
DETAIL
  6
CONTINUOUS
 10
-244.061864
 20
87.980998
 30
0.0
 11
-233.871667
 21
86.490851
 31
0.0
  0
LINE
  5
427
  8
DETAIL
  6
CONTINUOUS
 10
-244.061864
 20
112.019002
 30
0.0
 11
-233.871667
 21
113.509149
 31
0.0
  0
POLYLINE
  5
428
  8
DETAIL
  6
CONTINUOUS
 66
     1
 10
0.0
 20
0.0
 30
0.0
 70
     1
  0
VERTEX
  5
429
  8
DETAIL
  6
CONTINUOUS
 10
-242.950336
 20
112.1
 30
0.0
  0
VERTEX
  5
42A
  8
DETAIL
  6
CONTINUOUS
 10
-244.827593
 20
111.867502
 30
0.0
  0
VERTEX
  5
42B
  8
DETAIL
  6
CONTINUOUS
 10
-246.632707
 20
111.178942
 30
0.0
  0
VERTEX
  5
42C
  8
DETAIL
  6
CONTINUOUS
 10
-248.296311
 20
110.060782
 30
0.0
  0
VERTEX
  5
42D
  8
DETAIL
  6
CONTINUOUS
 10
-249.754471
 20
108.555992
 30
0.0
  0
VERTEX
  5
42E
  8
DETAIL
  6
CONTINUOUS
 10
-250.951152
 20
106.7224
 30
0.0
  0
VERTEX
  5
42F
  8
DETAIL
  6
CONTINUOUS
 10
-251.840367
 20
104.63047
 30
0.0
  0
VERTEX
  5
430
  8
DETAIL
  6
CONTINUOUS
 10
-252.387942
 20
102.360593
 30
0.0
  0
VERTEX
  5
431
  8
DETAIL
  6
CONTINUOUS
 10
-252.572836
 20
100.0
 30
0.0
  0
VERTEX
  5
432
  8
DETAIL
  6
CONTINUOUS
 10
-252.387942
 20
97.639407
 30
0.0
  0
VERTEX
  5
433
  8
DETAIL
  6
CONTINUOUS
 10
-251.840367
 20
95.36953
 30
0.0
  0
VERTEX
  5
434
  8
DETAIL
  6
CONTINUOUS
 10
-250.951152
 20
93.2776
 30
0.0
  0
VERTEX
  5
435
  8
DETAIL
  6
CONTINUOUS
 10
-249.754471
 20
91.444008
 30
0.0
  0
VERTEX
  5
436
  8
DETAIL
  6
CONTINUOUS
 10
-248.296311
 20
89.939218
 30
0.0
  0
VERTEX
  5
437
  8
DETAIL
  6
CONTINUOUS
 10
-246.632707
 20
88.821058
 30
0.0
  0
VERTEX
  5
438
  8
DETAIL
  6
CONTINUOUS
 10
-244.827593
 20
88.132498
 30
0.0
  0
VERTEX
  5
439
  8
DETAIL
  6
CONTINUOUS
 10
-242.950336
 20
87.9
 30
0.0
  0
VERTEX
  5
43A
  8
DETAIL
  6
CONTINUOUS
 10
-241.073079
 20
88.132498
 30
0.0
  0
VERTEX
  5
43B
  8
DETAIL
  6
CONTINUOUS
 10
-239.267964
 20
88.821058
 30
0.0
  0
VERTEX
  5
43C
  8
DETAIL
  6
CONTINUOUS
 10
-237.604361
 20
89.939218
 30
0.0
  0
VERTEX
  5
43D
  8
DETAIL
  6
CONTINUOUS
 10
-236.146201
 20
91.444008
 30
0.0
  0
VERTEX
  5
43E
  8
DETAIL
  6
CONTINUOUS
 10
-234.949519
 20
93.2776
 30
0.0
  0
VERTEX
  5
43F
  8
DETAIL
  6
CONTINUOUS
 10
-234.060305
 20
95.36953
 30
0.0
  0
VERTEX
  5
440
  8
DETAIL
  6
CONTINUOUS
 10
-233.512729
 20
97.639407
 30
0.0
  0
VERTEX
  5
441
  8
DETAIL
  6
CONTINUOUS
 10
-233.327836
 20
100.0
 30
0.0
  0
VERTEX
  5
442
  8
DETAIL
  6
CONTINUOUS
 10
-233.512729
 20
102.360593
 30
0.0
  0
VERTEX
  5
443
  8
DETAIL
  6
CONTINUOUS
 10
-234.060305
 20
104.63047
 30
0.0
  0
VERTEX
  5
444
  8
DETAIL
  6
CONTINUOUS
 10
-234.949519
 20
106.7224
 30
0.0
  0
VERTEX
  5
445
  8
DETAIL
  6
CONTINUOUS
 10
-236.146201
 20
108.555992
 30
0.0
  0
VERTEX
  5
446
  8
DETAIL
  6
CONTINUOUS
 10
-237.604361
 20
110.060782
 30
0.0
  0
VERTEX
  5
447
  8
DETAIL
  6
CONTINUOUS
 10
-239.267964
 20
111.178942
 30
0.0
  0
VERTEX
  5
448
  8
DETAIL
  6
CONTINUOUS
 10
-241.073079
 20
111.867502
 30
0.0
  0
SEQEND
  5
449
  8
DETAIL
  6
CONTINUOUS
  0
LINE
  5
44A
  8
DETAIL
  6
CONTINUOUS
 10
-232.624947
 20
86.4
 30
0.0
 11
-218.499218
 21
86.4
 31
0.0
  0
LINE
  5
44B
  8
DETAIL
  6
CONTINUOUS
 10
-232.624947
 20
113.6
 30
0.0
 11
-218.499218
 21
113.6
 31
0.0
  0
POLYLINE
  5
44C
  8
DETAIL
  6
CONTINUOUS
 66
     1
 10
0.0
 20
0.0
 30
0.0
  0
VERTEX
  5
44D
  8
DETAIL
  6
CONTINUOUS
 10
-218.499218
 20
86.4
 30
0.0
  0
VERTEX
  5
44E
  8
DETAIL
  6
CONTINUOUS
 10
-216.391454
 20
86.66132
 30
0.0
  0
VERTEX
  5
44F
  8
DETAIL
  6
CONTINUOUS
 10
-214.364691
 20
87.435239
 30
0.0
  0
VERTEX
  5
450
  8
DETAIL
  6
CONTINUOUS
 10
-212.496816
 20
88.692014
 30
0.0
  0
VERTEX
  5
451
  8
DETAIL
  6
CONTINUOUS
 10
-210.859609
 20
90.383348
 30
0.0
  0
VERTEX
  5
452
  8
DETAIL
  6
CONTINUOUS
 10
-209.515988
 20
92.444245
 30
0.0
  0
VERTEX
  5
453
  8
DETAIL
  6
CONTINUOUS
 10
-208.517588
 20
94.795506
 30
0.0
  0
VERTEX
  5
454
  8
DETAIL
  6
CONTINUOUS
 10
-207.902776
 20
97.346772
 30
0.0
  0
VERTEX
  5
455
  8
DETAIL
  6
CONTINUOUS
 10
-207.69518
 20
100.0
 30
0.0
  0
VERTEX
  5
456
  8
DETAIL
  6
CONTINUOUS
 10
-207.902776
 20
102.653229
 30
0.0
  0
VERTEX
  5
457
  8
DETAIL
  6
CONTINUOUS
 10
-208.517588
 20
105.204495
 30
0.0
  0
VERTEX
  5
458
  8
DETAIL
  6
CONTINUOUS
 10
-209.515989
 20
107.555755
 30
0.0
  0
VERTEX
  5
459
  8
DETAIL
  6
CONTINUOUS
 10
-210.859609
 20
109.616652
 30
0.0
  0
VERTEX
  5
45A
  8
DETAIL
  6
CONTINUOUS
 10
-212.496816
 20
111.307987
 30
0.0
  0
VERTEX
  5
45B
  8
DETAIL
  6
CONTINUOUS
 10
-214.364692
 20
112.564762
 30
0.0
  0
VERTEX
  5
45C
  8
DETAIL
  6
CONTINUOUS
 10
-216.391455
 20
113.33868
 30
0.0
  0
VERTEX
  5
45D
  8
DETAIL
  6
CONTINUOUS
 10
-218.499218
 20
113.6
 30
0.0
  0
SEQEND
  5
45E
  8
DETAIL
  6
CONTINUOUS
  0
LINE
  5
45F
  8
DETAIL
  6
CONTINUOUS
 10
-125.0
 20
340.7
 30
0.0
 11
125.0
 21
340.7
 31
0.0
  0
LINE
  5
460
  8
DETAIL
  6
CONTINUOUS
 10
-126.5
 20
230.7
 30
0.0
 11
-126.5
 21
339.2
 31
0.0
  0
ARC
  5
461
  8
DETAIL
  6
CONTINUOUS
 10
-125.0
 20
339.2
 30
0.0
 40
1.5
 50
90.0
 51
180.0
  0
ARC
  5
462
  8
DETAIL
  6
CONTINUOUS
 10
-96.5
 20
230.7
 30
0.0
 40
30.0
 50
180.0
 51
270.0
  0
LINE
  5
463
  8
DETAIL
  6
CONTINUOUS
 10
126.5
 20
230.7
 30
0.0
 11
126.5
 21
339.2
 31
0.0
  0
ARC
  5
464
  8
DETAIL
  6
CONTINUOUS
 10
125.0
 20
339.2
 30
0.0
 40
1.5
 50
0.0
 51
90.0
  0
ARC
  5
465
  8
DETAIL
  6
CONTINUOUS
 10
96.5
 20
230.7
 30
0.0
 40
30.0
 50
270.0
 51
0.0
  0
LINE
  5
466
  8
DETAIL
  6
CONTINUOUS
 10
96.5
 20
200.7
 30
0.0
 11
-96.5
 21
200.7
 31
0.0
  0
LINE
  5
467
  8
DETAIL
  6
CONTINUOUS
 10
50.0
 20
696.5
 30
0.0
 11
50.0
 21
881.0
 31
0.0
  0
LINE
  5
468
  8
DETAIL
  6
CONTINUOUS
 10
54.0
 20
696.5
 30
0.0
 11
54.0
 21
881.0
 31
0.0
  0
LINE
  5
469
  8
DETAIL
  6
CONTINUOUS
 10
-54.0
 20
696.5
 30
0.0
 11
-54.0
 21
881.0
 31
0.0
  0
LINE
  5
46A
  8
DETAIL
  6
CONTINUOUS
 10
-50.0
 20
696.5
 30
0.0
 11
-50.0
 21
881.0
 31
0.0
  0
LINE
  5
46B
  8
DETAIL
  6
CONTINUOUS
 10
-49.0
 20
886.0
 30
0.0
 11
49.0
 21
886.0
 31
0.0
  0
LINE
  5
46C
  8
DETAIL
  6
CONTINUOUS
 10
-50.0
 20
881.0
 30
0.0
 11
50.0
 21
881.0
 31
0.0
  0
LINE
  5
46D
  8
DETAIL
  6
CONTINUOUS
 10
-50.0
 20
696.5
 30
0.0
 11
50.0
 21
696.5
 31
0.0
  0
LINE
  5
46E
  8
DETAIL
  6
CONTINUOUS
 10
-49.0
 20
691.5
 30
0.0
 11
49.0
 21
691.5
 31
0.0
  0
ARC
  5
46F
  8
DETAIL
  6
CONTINUOUS
 10
-49.0
 20
881.0
 30
0.0
 40
5.0
 50
90.0
 51
180.0
  0
ARC
  5
470
  8
DETAIL
  6
CONTINUOUS
 10
49.0
 20
881.0
 30
0.0
 40
5.0
 50
0.0
 51
90.0
  0
ARC
  5
471
  8
DETAIL
  6
CONTINUOUS
 10
-49.0
 20
696.5
 30
0.0
 40
5.0
 50
180.0
 51
270.0
  0
ARC
  5
472
  8
DETAIL
  6
CONTINUOUS
 10
49.0
 20
696.5
 30
0.0
 40
5.0
 50
270.0
 51
0.0
  0
CIRCLE
  5
473
  8
DETAIL
  6
CONTINUOUS
 10
-0.014646
 20
707.0
 30
0.0
 40
8.25
  0
ARC
  5
474
  8
DETAIL
  6
CONTINUOUS
 10
48.985354
 20
697.5
 30
0.0
 40
1.0
 50
270.0
 51
0.0
  0
LINE
  5
475
  8
DETAIL
  6
CONTINUOUS
 10
-274.949289
 20
1940.884519
 30
0.0
 11
-294.937529
 21
1940.198751
 31
0.0
  0
LINE
  5
476
  8
DETAIL
  6
CONTINUOUS
 10
-155.019851
 20
1944.999129
 30
0.0
 11
-135.031612
 21
1945.684897
 31
0.0
  0
LINE
  5
477
  8
DETAIL
  6
CONTINUOUS
 10
-268.090887
 20
1960.721138
 30
0.0
 11
-274.949289
 21
1940.884519
 31
0.0
  0
ARC
  5
478
  8
DETAIL
  6
CONTINUOUS
 10
-292.957698
 20
1950.27256
 30
0.0
 40
5.0
 50
271.964966
 51
328.274899
  0
LINE
  5
479
  8
DETAIL
  6
CONTINUOUS
 10
-292.786256
 20
1945.2755
 30
0.0
 11
-295.108971
 21
1945.195811
 31
0.0
  0
LINE
  5
47A
  8
DETAIL
  6
CONTINUOUS
 10
-294.937529
 20
1940.198751
 30
0.0
 11
-295.108971
 21
1945.195811
 31
0.0
  0
ARC
  5
47B
  8
DETAIL
  6
CONTINUOUS
 10
-259.769174
 20
1956.414153
 30
0.0
 40
20.0
 50
91.964966
 51
148.274899
  0
ARC
  5
47C
  8
DETAIL
  6
CONTINUOUS
 10
-258.639831
 20
1957.453488
 30
0.0
 40
10.0
 50
91.964966
 51
160.927455
  0
LINE
  5
47D
  8
DETAIL
  6
CONTINUOUS
 10
-276.78079
 20
1966.93104
 30
0.0
 11
-288.704794
 21
1947.643338
 31
0.0
  0
LINE
  5
47E
  8
DETAIL
  6
CONTINUOUS
 10
-154.977794
 20
1971.109928
 30
0.0
 11
-141.759917
 21
1952.684809
 31
0.0
  0
LINE
  5
47F
  8
DETAIL
  6
CONTINUOUS
 10
-172.769422
 20
1970.405464
 30
0.0
 11
-258.982715
 21
1967.447607
 31
0.0
  0
LINE
  5
480
  8
DETAIL
  6
CONTINUOUS
 10
-171.914387
 20
1979.440094
 30
0.0
 11
-260.454942
 21
1976.402393
 31
0.0
  0
ARC
  5
481
  8
DETAIL
  6
CONTINUOUS
 10
-172.426538
 20
1960.411344
 30
0.0
 40
10.0
 50
23.002477
 51
91.964966
  0
LINE
  5
482
  8
DETAIL
  6
CONTINUOUS
 10
-163.221659
 20
1964.319053
 30
0.0
 11
-155.019851
 21
1944.999129
 31
0.0
  0
ARC
  5
483
  8
DETAIL
  6
CONTINUOUS
 10
-171.228619
 20
1959.451854
 30
0.0
 40
20.0
 50
35.655034
 51
91.964966
  0
LINE
  5
484
  8
DETAIL
  6
CONTINUOUS
 10
-135.031612
 20
1945.684897
 30
0.0
 11
-135.203054
 21
1950.681957
 31
0.0
  0
ARC
  5
485
  8
DETAIL
  6
CONTINUOUS
 10
-137.697211
 20
1955.599328
 30
0.0
 40
5.0
 50
215.655034
 51
271.964966
  0
LINE
  5
486
  8
DETAIL
  6
CONTINUOUS
 10
-137.525769
 20
1950.602268
 30
0.0
 11
-135.203054
 21
1950.681957
 31
0.0
  0
LINE
  5
487
  8
DETAIL
  6
CONTINUOUS
 10
274.949289
 20
1940.884519
 30
0.0
 11
294.937529
 21
1940.198751
 31
0.0
  0
LINE
  5
488
  8
DETAIL
  6
CONTINUOUS
 10
155.019851
 20
1944.999129
 30
0.0
 11
135.031612
 21
1945.684897
 31
0.0
  0
LINE
  5
489
  8
DETAIL
  6
CONTINUOUS
 10
268.090887
 20
1960.721138
 30
0.0
 11
274.949289
 21
1940.884519
 31
0.0
  0
ARC
  5
48A
  8
DETAIL
  6
CONTINUOUS
 10
292.957698
 20
1950.27256
 30
0.0
 40
5.0
 50
211.725101
 51
268.035034
  0
LINE
  5
48B
  8
DETAIL
  6
CONTINUOUS
 10
292.786256
 20
1945.2755
 30
0.0
 11
295.108971
 21
1945.195811
 31
0.0
  0
LINE
  5
48C
  8
DETAIL
  6
CONTINUOUS
 10
294.937529
 20
1940.198751
 30
0.0
 11
295.108971
 21
1945.195811
 31
0.0
  0
ARC
  5
48D
  8
DETAIL
  6
CONTINUOUS
 10
259.769174
 20
1956.414153
 30
0.0
 40
20.0
 50
31.725101
 51
88.035034
  0
ARC
  5
48E
  8
DETAIL
  6
CONTINUOUS
 10
258.639831
 20
1957.453488
 30
0.0
 40
10.0
 50
19.072545
 51
88.035034
  0
LINE
  5
48F
  8
DETAIL
  6
CONTINUOUS
 10
276.78079
 20
1966.93104
 30
0.0
 11
288.704794
 21
1947.643338
 31
0.0
  0
LINE
  5
490
  8
DETAIL
  6
CONTINUOUS
 10
154.977794
 20
1971.109928
 30
0.0
 11
141.759917
 21
1952.684809
 31
0.0
  0
LINE
  5
491
  8
DETAIL
  6
CONTINUOUS
 10
172.769422
 20
1970.405464
 30
0.0
 11
258.982715
 21
1967.447607
 31
0.0
  0
LINE
  5
492
  8
DETAIL
  6
CONTINUOUS
 10
171.914387
 20
1979.440094
 30
0.0
 11
260.454942
 21
1976.402393
 31
0.0
  0
ARC
  5
493
  8
DETAIL
  6
CONTINUOUS
 10
172.426538
 20
1960.411344
 30
0.0
 40
10.0
 50
88.035034
 51
156.997523
  0
LINE
  5
494
  8
DETAIL
  6
CONTINUOUS
 10
163.221659
 20
1964.319053
 30
0.0
 11
155.019851
 21
1944.999129
 31
0.0
  0
ARC
  5
495
  8
DETAIL
  6
CONTINUOUS
 10
171.228619
 20
1959.451854
 30
0.0
 40
20.0
 50
88.035034
 51
144.344966
  0
LINE
  5
496
  8
DETAIL
  6
CONTINUOUS
 10
135.031612
 20
1945.684897
 30
0.0
 11
135.203054
 21
1950.681957
 31
0.0
  0
ARC
  5
497
  8
DETAIL
  6
CONTINUOUS
 10
137.697211
 20
1955.599328
 30
0.0
 40
5.0
 50
268.035034
 51
324.344966
  0
LINE
  5
498
  8
DETAIL
  6
CONTINUOUS
 10
137.525769
 20
1950.602268
 30
0.0
 11
135.203054
 21
1950.681957
 31
0.0
  0
LINE
  5
499
  8
DETAIL
  6
CONTINUOUS
 10
13.6
 20
1946.3
 30
0.0
 11
13.6
 21
1979.2
 31
0.0
  0
LINE
  5
49A
  8
DETAIL
  6
CONTINUOUS
 10
12.112693
 20
1996.2
 30
0.0
 11
13.6
 21
1979.2
 31
0.0
  0
LINE
  5
49B
  8
DETAIL
  6
CONTINUOUS
 10
11.108873
 20
1996.2
 30
0.0
 11
12.59618
 21
1979.2
 31
0.0
  0
LINE
  5
49C
  8
DETAIL
  6
CONTINUOUS
 10
-13.6
 20
1946.3
 30
0.0
 11
-13.6
 21
1979.2
 31
0.0
  0
LINE
  5
49D
  8
DETAIL
  6
CONTINUOUS
 10
-12.112693
 20
1996.2
 30
0.0
 11
12.112693
 21
1996.2
 31
0.0
  0
LINE
  5
49E
  8
DETAIL
  6
CONTINUOUS
 10
-13.6
 20
1979.2
 30
0.0
 11
13.6
 21
1979.2
 31
0.0
  0
LINE
  5
49F
  8
DETAIL
  6
CONTINUOUS
 10
-11.108873
 20
1996.2
 30
0.0
 11
-12.59618
 21
1979.2
 31
0.0
  0
LINE
  5
4A0
  8
DETAIL
  6
CONTINUOUS
 10
-12.112693
 20
1996.2
 30
0.0
 11
-13.6
 21
1979.2
 31
0.0
  0
LINE
  5
4A1
  8
BASIS
  6
DASHDOT
 10
0.0
 20
-14.77456
 30
0.0
 11
0.0
 21
2051.224693
 31
0.0
  0
LINE
  5
4A2
  8
SIZE
  6
CONTINUOUS
 62
    30
 10
272.950348
 20
100.0
 30
0.0
 11
518.208093
 21
100.0
 31
0.0
  0
LINE
  5
4A3
  8
SIZE
  6
CONTINUOUS
 62
    30
 10
364.927185
 20
0.0
 30
0.0
 11
518.208093
 21
0.0
 31
0.0
  0
LINE
  5
4A4
  8
SIZE
  6
CONTINUOUS
 62
    30
 10
505.708093
 20
90.0
 30
0.0
 11
505.708093
 21
10.0
 31
0.0
  0
LINE
  5
4A5
  8
SIZE
  6
CONTINUOUS
 62
    30
 10
505.708093
 20
0.0
 30
0.0
 11
505.708093
 21
-125.0675
 31
0.0
  0
CIRCLE
  5
4A6
  8
SIZE
  6
CONTINUOUS
 62
    30
 10
505.708093
 20
100.0
 30
0.0
 40
5.0
  0
LINE
  5
4A7
  8
SIZE
  6
CONTINUOUS
 62
    30
 10
505.708093
 20
100.0
 30
0.0
 11
505.708093
 21
90.0
 31
0.0
  0
CIRCLE
  5
4A8
  8
SIZE
  6
CONTINUOUS
 62
    30
 10
505.708093
 20
0.0
 30
0.0
 40
5.0
  0
LINE
  5
4A9
  8
SIZE
  6
CONTINUOUS
 62
    30
 10
505.708093
 20
0.0
 30
0.0
 11
505.708093
 21
10.0
 31
0.0
  0
TEXT
  5
4AA
  8
SIZE
  6
CONTINUOUS
 62
    30
 10
495.708093
 20
-115.0675
 30
0.0
 40
30.0
  1
100
 50
90.0
 72
     1
 11
495.708093
 21
-85.0675
 31
0.0
  0
POINT
  5
4AB
  8
DEFPOINTS
  6
CONTINUOUS
 62
    30
 10
262.950348
 20
100.0
 30
0.0
  0
POINT
  5
4AC
  8
DEFPOINTS
  6
CONTINUOUS
 62
    30
 10
354.927185
 20
0.0
 30
0.0
  0
POINT
  5
4AD
  8
DEFPOINTS
  6
CONTINUOUS
 62
    30
 10
505.708093
 20
0.0
 30
0.0
  0
LINE
  5
4AE
  8
SIZE
  6
CONTINUOUS
 62
    30
 10
-52.900002
 20
0.0
 30
0.0
 11
-149.331183
 21
0.0
 31
0.0
  0
LINE
  5
4AF
  8
SIZE
  6
CONTINUOUS
 62
    30
 10
-65.0
 20
23.0
 30
0.0
 11
-149.331183
 21
23.0
 31
0.0
  0
LINE
  5
4B0
  8
SIZE
  6
CONTINUOUS
 62
    30
 10
-136.831183
 20
33.0
 30
0.0
 11
-136.831183
 21
43.0
 31
0.0
  0
LINE
  5
4B1
  8
SIZE
  6
CONTINUOUS
 62
    30
 10
-136.831183
 20
-10.0
 30
0.0
 11
-136.831183
 21
-102.505668
 31
0.0
  0
LINE
  5
4B2
  8
SIZE
  6
CONTINUOUS
 62
    30
 10
-136.831183
 20
23.0
 30
0.0
 11
-136.831183
 21
0.0
 31
0.0
  0
CIRCLE
  5
4B3
  8
SIZE
  6
CONTINUOUS
 62
    30
 10
-136.831183
 20
23.0
 30
0.0
 40
5.0
  0
LINE
  5
4B4
  8
SIZE
  6
CONTINUOUS
 62
    30
 10
-136.831183
 20
23.0
 30
0.0
 11
-136.831183
 21
33.0
 31
0.0
  0
CIRCLE
  5
4B5
  8
SIZE
  6
CONTINUOUS
 62
    30
 10
-136.831183
 20
0.0
 30
0.0
 40
5.0
  0
LINE
  5
4B6
  8
SIZE
  6
CONTINUOUS
 62
    30
 10
-136.831183
 20
0.0
 30
0.0
 11
-136.831183
 21
-10.0
 31
0.0
  0
TEXT
  5
4B7
  8
SIZE
  6
CONTINUOUS
 62
    30
 10
-146.831183
 20
-92.505668
 30
0.0
 40
30.0
  1
23
 50
90.0
 72
     1
 11
-146.831183
 21
-67.505668
 31
0.0
  0
POINT
  5
4B8
  8
DEFPOINTS
  6
CONTINUOUS
 62
    30
 10
-42.900002
 20
0.0
 30
0.0
  0
POINT
  5
4B9
  8
DEFPOINTS
  6
CONTINUOUS
 62
    30
 10
-55.0
 20
23.0
 30
0.0
  0
POINT
  5
4BA
  8
DEFPOINTS
  6
CONTINUOUS
 62
    30
 10
-136.831183
 20
23.0
 30
0.0
  0
LINE
  5
4BB
  8
SIZE
  6
CONTINUOUS
 62
    30
 10
-330.821716
 20
-30.0
 30
0.0
 11
-330.821716
 21
-262.802698
 31
0.0
  0
LINE
  5
4BC
  8
SIZE
  6
CONTINUOUS
 62
    30
 10
330.821716
 20
-30.0
 30
0.0
 11
330.821716
 21
-262.802698
 31
0.0
  0
LINE
  5
4BD
  8
SIZE
  6
CONTINUOUS
 62
    30
 10
-320.821716
 20
-250.302698
 30
0.0
 11
320.821716
 21
-250.302698
 31
0.0
  0
CIRCLE
  5
4BE
  8
SIZE
  6
CONTINUOUS
 62
    30
 10
-330.821716
 20
-250.302698
 30
0.0
 40
5.0
  0
LINE
  5
4BF
  8
SIZE
  6
CONTINUOUS
 62
    30
 10
-330.821716
 20
-250.302698
 30
0.0
 11
-320.821716
 21
-250.302698
 31
0.0
  0
CIRCLE
  5
4C0
  8
SIZE
  6
CONTINUOUS
 62
    30
 10
330.821716
 20
-250.302698
 30
0.0
 40
5.0
  0
LINE
  5
4C1
  8
SIZE
  6
CONTINUOUS
 62
    30
 10
330.821716
 20
-250.302698
 30
0.0
 11
320.821716
 21
-250.302698
 31
0.0
  0
TEXT
  5
4C2
  8
SIZE
  6
CONTINUOUS
 62
    30
 10
-40.35477
 20
-240.302698
 30
0.0
 40
30.0
  1
662
 72
     1
 11
-0.35477
 21
-240.302698
 31
0.0
  0
POINT
  5
4C3
  8
DEFPOINTS
  6
CONTINUOUS
 62
    30
 10
-330.821716
 20
-20.0
 30
0.0
  0
POINT
  5
4C4
  8
DEFPOINTS
  6
CONTINUOUS
 62
    30
 10
330.821716
 20
-20.0
 30
0.0
  0
POINT
  5
4C5
  8
DEFPOINTS
  6
CONTINUOUS
 62
    30
 10
330.821716
 20
-250.302698
 30
0.0
  0
LINE
  5
4C6
  8
SIZE
  6
CONTINUOUS
 62
    30
 10
0.0
 20
-24.77456
 30
0.0
 11
0.0
 21
-162.802698
 31
0.0
  0
LINE
  5
4C7
  8
SIZE
  6
CONTINUOUS
 62
    30
 10
-35.0
 20
-7.0
 30
0.0
 11
-35.0
 21
-162.802698
 31
0.0
  0
LINE
  5
4C8
  8
SIZE
  6
CONTINUOUS
 62
    30
 10
-45.0
 20
-150.302698
 30
0.0
 11
-55.0
 21
-150.302698
 31
0.0
  0
LINE
  5
4C9
  8
SIZE
  6
CONTINUOUS
 62
    30
 10
10.0
 20
-150.302698
 30
0.0
 11
95.407661
 21
-150.302698
 31
0.0
  0
LINE
  5
4CA
  8
SIZE
  6
CONTINUOUS
 62
    30
 10
-35.0
 20
-150.302698
 30
0.0
 11
0.0
 21
-150.302698
 31
0.0
  0
CIRCLE
  5
4CB
  8
SIZE
  6
CONTINUOUS
 62
    30
 10
-35.0
 20
-150.302698
 30
0.0
 40
5.0
  0
LINE
  5
4CC
  8
SIZE
  6
CONTINUOUS
 62
    30
 10
-35.0
 20
-150.302698
 30
0.0
 11
-45.0
 21
-150.302698
 31
0.0
  0
CIRCLE
  5
4CD
  8
SIZE
  6
CONTINUOUS
 62
    30
 10
0.0
 20
-150.302698
 30
0.0
 40
5.0
  0
LINE
  5
4CE
  8
SIZE
  6
CONTINUOUS
 62
    30
 10
0.0
 20
-150.302698
 30
0.0
 11
10.0
 21
-150.302698
 31
0.0
  0
TEXT
  5
4CF
  8
SIZE
  6
CONTINUOUS
 62
    30
 10
35.407661
 20
-140.302698
 30
0.0
 40
30.0
  1
35
 72
     1
 11
60.407661
 21
-140.302698
 31
0.0
  0
POINT
  5
4D0
  8
DEFPOINTS
  6
CONTINUOUS
 62
    30
 10
0.0
 20
-14.77456
 30
0.0
  0
POINT
  5
4D1
  8
DEFPOINTS
  6
CONTINUOUS
 62
    30
 10
-35.0
 20
3.0
 30
0.0
  0
POINT
  5
4D2
  8
DEFPOINTS
  6
CONTINUOUS
 62
    30
 10
-35.0
 20
-150.302698
 30
0.0
  0
LINE
  5
4D3
  8
SIZE
  6
CONTINUOUS
 62
    30
 10
-370.0
 20
1946.300049
 30
0.0
 11
-575.173315
 21
1946.300049
 31
0.0
  0
LINE
  5
4D4
  8
SIZE
  6
CONTINUOUS
 62
    30
 10
-370.0
 20
2446.300049
 30
0.0
 11
-575.173315
 21
2446.300049
 31
0.0
  0
LINE
  5
4D5
  8
SIZE
  6
CONTINUOUS
 62
    30
 10
-562.673315
 20
1956.300049
 30
0.0
 11
-562.673315
 21
2436.300049
 31
0.0
  0
CIRCLE
  5
4D6
  8
SIZE
  6
CONTINUOUS
 62
    30
 10
-562.673315
 20
1946.300049
 30
0.0
 40
5.0
  0
LINE
  5
4D7
  8
SIZE
  6
CONTINUOUS
 62
    30
 10
-562.673315
 20
1946.300049
 30
0.0
 11
-562.673315
 21
1956.300049
 31
0.0
  0
CIRCLE
  5
4D8
  8
SIZE
  6
CONTINUOUS
 62
    30
 10
-562.673315
 20
2446.300049
 30
0.0
 40
5.0
  0
LINE
  5
4D9
  8
SIZE
  6
CONTINUOUS
 62
    30
 10
-562.673315
 20
2446.300049
 30
0.0
 11
-562.673315
 21
2436.300049
 31
0.0
  0
TEXT
  5
4DA
  8
SIZE
  6
CONTINUOUS
 62
    30
 10
-572.673315
 20
2161.300049
 30
0.0
 40
30.0
  1
500
 50
90.0
 72
     1
 11
-572.673315
 21
2196.300049
 31
0.0
  0
POINT
  5
4DB
  8
DEFPOINTS
  6
CONTINUOUS
 62
    30
 10
-360.0
 20
1946.300049
 30
0.0
  0
POINT
  5
4DC
  8
DEFPOINTS
  6
CONTINUOUS
 62
    30
 10
-360.0
 20
2446.300049
 30
0.0
  0
POINT
  5
4DD
  8
DEFPOINTS
  6
CONTINUOUS
 62
    30
 10
-562.673315
 20
2446.300049
 30
0.0
  0
LINE
  5
4DE
  8
SIZE
  6
CONTINUOUS
 62
    30
 10
-360.0
 20
2456.300049
 30
0.0
 11
-360.0
 21
2559.130469
 31
0.0
  0
LINE
  5
4DF
  8
SIZE
  6
CONTINUOUS
 62
    30
 10
360.0
 20
2456.300049
 30
0.0
 11
360.0
 21
2559.130469
 31
0.0
  0
LINE
  5
4E0
  8
SIZE
  6
CONTINUOUS
 62
    30
 10
-350.0
 20
2546.630469
 30
0.0
 11
350.0
 21
2546.630469
 31
0.0
  0
CIRCLE
  5
4E1
  8
SIZE
  6
CONTINUOUS
 62
    30
 10
-360.0
 20
2546.630469
 30
0.0
 40
5.0
  0
LINE
  5
4E2
  8
SIZE
  6
CONTINUOUS
 62
    30
 10
-360.0
 20
2546.630469
 30
0.0
 11
-350.0
 21
2546.630469
 31
0.0
  0
CIRCLE
  5
4E3
  8
SIZE
  6
CONTINUOUS
 62
    30
 10
360.0
 20
2546.630469
 30
0.0
 40
5.0
  0
LINE
  5
4E4
  8
SIZE
  6
CONTINUOUS
 62
    30
 10
360.0
 20
2546.630469
 30
0.0
 11
350.0
 21
2546.630469
 31
0.0
  0
TEXT
  5
4E5
  8
SIZE
  6
CONTINUOUS
 62
    30
 10
-37.5
 20
2556.630469
 30
0.0
 40
30.0
  1
720
 72
     1
 11
0.0
 21
2556.630469
 31
0.0
  0
POINT
  5
4E6
  8
DEFPOINTS
  6
CONTINUOUS
 62
    30
 10
-360.0
 20
2446.300049
 30
0.0
  0
POINT
  5
4E7
  8
DEFPOINTS
  6
CONTINUOUS
 62
    30
 10
360.0
 20
2446.300049
 30
0.0
  0
POINT
  5
4E8
  8
DEFPOINTS
  6
CONTINUOUS
 62
    30
 10
360.0
 20
2546.630469
 30
0.0
  0
LINE
  5
4E9
  8
SIZE
  6
CONTINUOUS
 62
    30
 10
-370.0
 20
40.000004
 30
0.0
 11
-474.9
 21
40.000004
 31
0.0
  0
LINE
  5
4EA
  8
SIZE
  6
CONTINUOUS
 62
    30
 10
-106.5
 20
200.699997
 30
0.0
 11
-474.9
 21
200.699997
 31
0.0
  0
LINE
  5
4EB
  8
SIZE
  6
CONTINUOUS
 62
    30
 10
-462.4
 20
50.000004
 30
0.0
 11
-462.4
 21
190.699997
 31
0.0
  0
CIRCLE
  5
4EC
  8
SIZE
  6
CONTINUOUS
 62
    30
 10
-462.4
 20
40.000004
 30
0.0
 40
5.0
  0
LINE
  5
4ED
  8
SIZE
  6
CONTINUOUS
 62
    30
 10
-462.4
 20
40.000004
 30
0.0
 11
-462.4
 21
50.000004
 31
0.0
  0
CIRCLE
  5
4EE
  8
SIZE
  6
CONTINUOUS
 62
    30
 10
-462.4
 20
200.699997
 30
0.0
 40
5.0
  0
LINE
  5
4EF
  8
SIZE
  6
CONTINUOUS
 62
    30
 10
-462.4
 20
200.699997
 30
0.0
 11
-462.4
 21
190.699997
 31
0.0
  0
TEXT
  5
4F0
  8
SIZE
  6
CONTINUOUS
 62
    30
 10
-472.4
 20
92.508758
 30
0.0
 40
30.0
  1
161
 50
90.0
 72
     1
 11
-472.4
 21
122.508758
 31
0.0
  0
POINT
  5
4F1
  8
DEFPOINTS
  6
CONTINUOUS
 62
    30
 10
-360.0
 20
40.000004
 30
0.0
  0
POINT
  5
4F2
  8
DEFPOINTS
  6
CONTINUOUS
 62
    30
 10
-96.5
 20
200.699997
 30
0.0
  0
POINT
  5
4F3
  8
DEFPOINTS
  6
CONTINUOUS
 62
    30
 10
-462.4
 20
200.699997
 30
0.0
  0
LINE
  5
4F4
  8
SIZE
  6
CONTINUOUS
 62
    30
 10
-106.5
 20
200.699997
 30
0.0
 11
-474.9
 21
200.699997
 31
0.0
  0
LINE
  5
4F5
  8
SIZE
  6
CONTINUOUS
 62
    30
 10
-106.5
 20
1064.699951
 30
0.0
 11
-474.9
 21
1064.699951
 31
0.0
  0
LINE
  5
4F6
  8
SIZE
  6
CONTINUOUS
 62
    30
 10
-462.4
 20
210.699997
 30
0.0
 11
-462.4
 21
1054.699951
 31
0.0
  0
CIRCLE
  5
4F7
  8
SIZE
  6
CONTINUOUS
 62
    30
 10
-462.4
 20
200.699997
 30
0.0
 40
5.0
  0
LINE
  5
4F8
  8
SIZE
  6
CONTINUOUS
 62
    30
 10
-462.4
 20
200.699997
 30
0.0
 11
-462.4
 21
210.699997
 31
0.0
  0
CIRCLE
  5
4F9
  8
SIZE
  6
CONTINUOUS
 62
    30
 10
-462.4
 20
1064.699951
 30
0.0
 40
5.0
  0
LINE
  5
4FA
  8
SIZE
  6
CONTINUOUS
 62
    30
 10
-462.4
 20
1064.699951
 30
0.0
 11
-462.4
 21
1054.699951
 31
0.0
  0
TEXT
  5
4FB
  8
SIZE
  6
CONTINUOUS
 62
    30
 10
-472.4
 20
592.700012
 30
0.0
 40
30.0
  1
864
 50
90.0
 72
     1
 11
-472.4
 21
632.700012
 31
0.0
  0
POINT
  5
4FC
  8
DEFPOINTS
  6
CONTINUOUS
 62
    30
 10
-96.5
 20
200.699997
 30
0.0
  0
POINT
  5
4FD
  8
DEFPOINTS
  6
CONTINUOUS
 62
    30
 10
-96.5
 20
1064.699951
 30
0.0
  0
POINT
  5
4FE
  8
DEFPOINTS
  6
CONTINUOUS
 62
    30
 10
-462.4
 20
1064.699951
 30
0.0
  0
LINE
  5
4FF
  8
SIZE
  6
CONTINUOUS
 62
    30
 10
-360.0
 20
30.0
 30
0.0
 11
-360.0
 21
-365.202698
 31
0.0
  0
LINE
  5
500
  8
SIZE
  6
CONTINUOUS
 62
    30
 10
360.0
 20
30.0
 30
0.0
 11
360.0
 21
-365.202698
 31
0.0
  0
LINE
  5
501
  8
SIZE
  6
CONTINUOUS
 62
    30
 10
-350.0
 20
-352.702698
 30
0.0
 11
350.0
 21
-352.702698
 31
0.0
  0
CIRCLE
  5
502
  8
SIZE
  6
CONTINUOUS
 62
    30
 10
-360.0
 20
-352.702698
 30
0.0
 40
5.0
  0
LINE
  5
503
  8
SIZE
  6
CONTINUOUS
 62
    30
 10
-360.0
 20
-352.702698
 30
0.0
 11
-350.0
 21
-352.702698
 31
0.0
  0
CIRCLE
  5
504
  8
SIZE
  6
CONTINUOUS
 62
    30
 10
360.0
 20
-352.702698
 30
0.0
 40
5.0
  0
LINE
  5
505
  8
SIZE
  6
CONTINUOUS
 62
    30
 10
360.0
 20
-352.702698
 30
0.0
 11
350.0
 21
-352.702698
 31
0.0
  0
TEXT
  5
506
  8
SIZE
  6
CONTINUOUS
 62
    30
 10
-37.5
 20
-342.702698
 30
0.0
 40
30.0
  1
720
 72
     1
 11
0.0
 21
-342.702698
 31
0.0
  0
POINT
  5
507
  8
DEFPOINTS
  6
CONTINUOUS
 62
    30
 10
-360.0
 20
40.0
 30
0.0
  0
POINT
  5
508
  8
DEFPOINTS
  6
CONTINUOUS
 62
    30
 10
360.0
 20
40.0
 30
0.0
  0
POINT
  5
509
  8
DEFPOINTS
  6
CONTINUOUS
 62
    30
 10
360.0
 20
-352.702698
 30
0.0
  0
LINE
  5
50A
  8
SIZE
  6
CONTINUOUS
 62
    30
 10
364.879944
 20
0.0
 30
0.0
 11
718.208093
 21
0.0
 31
0.0
  0
LINE
  5
50B
  8
SIZE
  6
CONTINUOUS
 62
    30
 10
22.112693
 20
1996.199951
 30
0.0
 11
718.208093
 21
1996.199951
 31
0.0
  0
LINE
  5
50C
  8
SIZE
  6
CONTINUOUS
 62
    30
 10
705.708093
 20
10.0
 30
0.0
 11
705.708093
 21
1986.199951
 31
0.0
  0
CIRCLE
  5
50D
  8
SIZE
  6
CONTINUOUS
 62
    30
 10
705.708093
 20
0.0
 30
0.0
 40
5.0
  0
LINE
  5
50E
  8
SIZE
  6
CONTINUOUS
 62
    30
 10
705.708093
 20
0.0
 30
0.0
 11
705.708093
 21
10.0
 31
0.0
  0
CIRCLE
  5
50F
  8
SIZE
  6
CONTINUOUS
 62
    30
 10
705.708093
 20
1996.199951
 30
0.0
 40
5.0
  0
LINE
  5
510
  8
SIZE
  6
CONTINUOUS
 62
    30
 10
705.708093
 20
1996.199951
 30
0.0
 11
705.708093
 21
1986.199951
 31
0.0
  0
TEXT
  5
511
  8
SIZE
  6
CONTINUOUS
 62
    30
 10
695.708093
 20
945.48175
 30
0.0
 40
30.0
  1
1996
 50
90.0
 72
     1
 11
695.708093
 21
995.48175
 31
0.0
  0
POINT
  5
512
  8
DEFPOINTS
  6
CONTINUOUS
 62
    30
 10
354.879944
 20
0.0
 30
0.0
  0
POINT
  5
513
  8
DEFPOINTS
  6
CONTINUOUS
 62
    30
 10
12.112693
 20
1996.199951
 30
0.0
  0
POINT
  5
514
  8
DEFPOINTS
  6
CONTINUOUS
 62
    30
 10
705.708093
 20
1996.199951
 30
0.0
  0
LINE
  5
515
  8
SIZE
  6
CONTINUOUS
 62
    30
 10
364.880005
 20
0.000003
 30
0.0
 11
618.208093
 21
0.000003
 31
0.0
  0
LINE
  5
516
  8
SIZE
  6
CONTINUOUS
 62
    30
 10
370.0
 20
40.000004
 30
0.0
 11
618.208093
 21
40.000004
 31
0.0
  0
LINE
  5
517
  8
SIZE
  6
CONTINUOUS
 62
    30
 10
605.708093
 20
30.000004
 30
0.0
 11
605.708093
 21
10.000003
 31
0.0
  0
LINE
  5
518
  8
SIZE
  6
CONTINUOUS
 62
    30
 10
605.708093
 20
0.000003
 30
0.0
 11
605.708093
 21
-88.369614
 31
0.0
  0
CIRCLE
  5
519
  8
SIZE
  6
CONTINUOUS
 62
    30
 10
605.708093
 20
40.000004
 30
0.0
 40
5.0
  0
LINE
  5
51A
  8
SIZE
  6
CONTINUOUS
 62
    30
 10
605.708093
 20
40.000004
 30
0.0
 11
605.708093
 21
30.000004
 31
0.0
  0
CIRCLE
  5
51B
  8
SIZE
  6
CONTINUOUS
 62
    30
 10
605.708093
 20
0.000003
 30
0.0
 40
5.0
  0
LINE
  5
51C
  8
SIZE
  6
CONTINUOUS
 62
    30
 10
605.708093
 20
0.000003
 30
0.0
 11
605.708093
 21
10.000003
 31
0.0
  0
TEXT
  5
51D
  8
SIZE
  6
CONTINUOUS
 62
    30
 10
595.708093
 20
-78.369614
 30
0.0
 40
30.0
  1
40
 50
90.0
 72
     1
 11
595.708093
 21
-55.869614
 31
0.0
  0
POINT
  5
51E
  8
DEFPOINTS
  6
CONTINUOUS
 62
    30
 10
354.880005
 20
0.000003
 30
0.0
  0
POINT
  5
51F
  8
DEFPOINTS
  6
CONTINUOUS
 62
    30
 10
360.0
 20
40.000004
 30
0.0
  0
POINT
  5
520
  8
DEFPOINTS
  6
CONTINUOUS
 62
    30
 10
605.708093
 20
40.000004
 30
0.0
  0
LINE
  5
521
  8
SIZE
  6
CONTINUOUS
 62
    30
 10
60.000336
 20
1946.300049
 30
0.0
 11
618.208093
 21
1946.300049
 31
0.0
  0
LINE
  5
522
  8
SIZE
  6
CONTINUOUS
 62
    30
 10
370.0
 20
40.0
 30
0.0
 11
618.208093
 21
40.0
 31
0.0
  0
LINE
  5
523
  8
SIZE
  6
CONTINUOUS
 62
    30
 10
605.708093
 20
1936.300049
 30
0.0
 11
605.708093
 21
50.0
 31
0.0
  0
CIRCLE
  5
524
  8
SIZE
  6
CONTINUOUS
 62
    30
 10
605.708093
 20
1946.300049
 30
0.0
 40
5.0
  0
LINE
  5
525
  8
SIZE
  6
CONTINUOUS
 62
    30
 10
605.708093
 20
1946.300049
 30
0.0
 11
605.708093
 21
1936.300049
 31
0.0
  0
CIRCLE
  5
526
  8
SIZE
  6
CONTINUOUS
 62
    30
 10
605.708093
 20
40.0
 30
0.0
 40
5.0
  0
LINE
  5
527
  8
SIZE
  6
CONTINUOUS
 62
    30
 10
605.708093
 20
40.0
 30
0.0
 11
605.708093
 21
50.0
 31
0.0
  0
TEXT
  5
528
  8
SIZE
  6
CONTINUOUS
 62
    30
 10
595.708093
 20
945.650024
 30
0.0
 40
30.0
  1
1906
 50
90.0
 72
     1
 11
595.708093
 21
993.150024
 31
0.0
  0
POINT
  5
529
  8
DEFPOINTS
  6
CONTINUOUS
 62
    30
 10
50.000336
 20
1946.300049
 30
0.0
  0
POINT
  5
52A
  8
DEFPOINTS
  6
CONTINUOUS
 62
    30
 10
360.0
 20
40.0
 30
0.0
  0
POINT
  5
52B
  8
DEFPOINTS
  6
CONTINUOUS
 62
    30
 10
605.708093
 20
40.0
 30
0.0
  0
LINE
  5
52C
  8
SIZE
  6
CONTINUOUS
 62
    30
 10
126.5
 20
220.699997
 30
0.0
 11
126.5
 21
108.255957
 31
0.0
  0
LINE
  5
52D
  8
SIZE
  6
CONTINUOUS
 62
    30
 10
-126.5
 20
220.699997
 30
0.0
 11
-126.5
 21
108.255957
 31
0.0
  0
LINE
  5
52E
  8
SIZE
  6
CONTINUOUS
 62
    30
 10
116.5
 20
120.755957
 30
0.0
 11
-116.5
 21
120.755957
 31
0.0
  0
CIRCLE
  5
52F
  8
SIZE
  6
CONTINUOUS
 62
    30
 10
126.5
 20
120.755957
 30
0.0
 40
5.0
  0
LINE
  5
530
  8
SIZE
  6
CONTINUOUS
 62
    30
 10
126.5
 20
120.755957
 30
0.0
 11
116.5
 21
120.755957
 31
0.0
  0
CIRCLE
  5
531
  8
SIZE
  6
CONTINUOUS
 62
    30
 10
-126.5
 20
120.755957
 30
0.0
 40
5.0
  0
LINE
  5
532
  8
SIZE
  6
CONTINUOUS
 62
    30
 10
-126.5
 20
120.755957
 30
0.0
 11
-116.5
 21
120.755957
 31
0.0
  0
TEXT
  5
533
  8
SIZE
  6
CONTINUOUS
 62
    30
 10
-43.861773
 20
130.755957
 30
0.0
 40
30.0
  1
253
 72
     1
 11
-3.861773
 21
130.755957
 31
0.0
  0
POINT
  5
534
  8
DEFPOINTS
  6
CONTINUOUS
 62
    30
 10
126.5
 20
230.699997
 30
0.0
  0
POINT
  5
535
  8
DEFPOINTS
  6
CONTINUOUS
 62
    30
 10
-126.5
 20
230.699997
 30
0.0
  0
POINT
  5
536
  8
DEFPOINTS
  6
CONTINUOUS
 62
    30
 10
-126.5
 20
120.755957
 30
0.0
  0
LINE
  5
537
  8
SIZE
  6
CONTINUOUS
 62
    30
 10
22.112792
 20
1996.199951
 30
0.0
 11
617.320703
 21
1996.199951
 31
0.0
  0
LINE
  5
538
  8
SIZE
  6
CONTINUOUS
 62
    30
 10
60.000244
 20
1946.300049
 30
0.0
 11
617.320703
 21
1946.300049
 31
0.0
  0
LINE
  5
539
  8
SIZE
  6
CONTINUOUS
 62
    30
 10
604.820703
 20
1986.199951
 30
0.0
 11
604.820703
 21
1956.300049
 31
0.0
  0
CIRCLE
  5
53A
  8
SIZE
  6
CONTINUOUS
 62
    30
 10
604.820703
 20
1996.199951
 30
0.0
 40
5.0
  0
LINE
  5
53B
  8
SIZE
  6
CONTINUOUS
 62
    30
 10
604.820703
 20
1996.199951
 30
0.0
 11
604.820703
 21
1986.199951
 31
0.0
  0
CIRCLE
  5
53C
  8
SIZE
  6
CONTINUOUS
 62
    30
 10
604.820703
 20
1946.300049
 30
0.0
 40
5.0
  0
LINE
  5
53D
  8
SIZE
  6
CONTINUOUS
 62
    30
 10
604.820703
 20
1946.300049
 30
0.0
 11
604.820703
 21
1956.300049
 31
0.0
  0
TEXT
  5
53E
  8
SIZE
  6
CONTINUOUS
 62
    30
 10
594.820703
 20
1948.75
 30
0.0
 40
30.0
  1
50
 50
90.0
 72
     1
 11
594.820703
 21
1971.25
 31
0.0
  0
POINT
  5
53F
  8
DEFPOINTS
  6
CONTINUOUS
 62
    30
 10
12.112792
 20
1996.199951
 30
0.0
  0
POINT
  5
540
  8
DEFPOINTS
  6
CONTINUOUS
 62
    30
 10
50.000244
 20
1946.300049
 30
0.0
  0
POINT
  5
541
  8
DEFPOINTS
  6
CONTINUOUS
 62
    30
 10
604.820703
 20
1946.300049
 30
0.0
  0
LINE
  5
542
  8
SIZE
  6
CONTINUOUS
 62
    30
 10
-60.000244
 20
1946.300049
 30
0.0
 11
-475.173315
 21
1946.300049
 31
0.0
  0
LINE
  5
543
  8
SIZE
  6
CONTINUOUS
 62
    30
 10
-171.217041
 20
1981.300049
 30
0.0
 11
-475.173315
 21
1981.300049
 31
0.0
  0
LINE
  5
544
  8
SIZE
  6
CONTINUOUS
 62
    30
 10
-462.673315
 20
1991.300049
 30
0.0
 11
-462.673315
 21
2001.300049
 31
0.0
  0
LINE
  5
545
  8
SIZE
  6
CONTINUOUS
 62
    30
 10
-462.673315
 20
1936.300049
 30
0.0
 11
-462.673315
 21
1848.715454
 31
0.0
  0
LINE
  5
546
  8
SIZE
  6
CONTINUOUS
 62
    30
 10
-462.673315
 20
1981.300049
 30
0.0
 11
-462.673315
 21
1946.300049
 31
0.0
  0
CIRCLE
  5
547
  8
SIZE
  6
CONTINUOUS
 62
    30
 10
-462.673315
 20
1981.300049
 30
0.0
 40
5.0
  0
LINE
  5
548
  8
SIZE
  6
CONTINUOUS
 62
    30
 10
-462.673315
 20
1981.300049
 30
0.0
 11
-462.673315
 21
1991.300049
 31
0.0
  0
CIRCLE
  5
549
  8
SIZE
  6
CONTINUOUS
 62
    30
 10
-462.673315
 20
1946.300049
 30
0.0
 40
5.0
  0
LINE
  5
54A
  8
SIZE
  6
CONTINUOUS
 62
    30
 10
-462.673315
 20
1946.300049
 30
0.0
 11
-462.673315
 21
1936.300049
 31
0.0
  0
TEXT
  5
54B
  8
SIZE
  6
CONTINUOUS
 62
    30
 10
-472.673315
 20
1858.715454
 30
0.0
 40
30.0
  1
35
 50
90.0
 72
     1
 11
-472.673315
 21
1883.715454
 31
0.0
  0
POINT
  5
54C
  8
DEFPOINTS
  6
CONTINUOUS
 62
    30
 10
-50.000244
 20
1946.300049
 30
0.0
  0
POINT
  5
54D
  8
DEFPOINTS
  6
CONTINUOUS
 62
    30
 10
-161.217041
 20
1981.300049
 30
0.0
  0
POINT
  5
54E
  8
DEFPOINTS
  6
CONTINUOUS
 62
    30
 10
-462.673315
 20
1981.300049
 30
0.0
  0
TEXT
  5
54F
  8
NOTE
  6
CONTINUOUS
 10
-202.159698
 20
2490.066162
 30
0.0
 40
40.0
  1
メンテナンススペ－ス
 50
0.000003
 41
0.84375
  7
STANDARD1
  0
LINE
  5
550
  8
NOTE
  6
CONTINUOUS
 10
757.532898
 20
2159.795654
 30
0.0
 11
338.282898
 21
2159.795654
 31
0.0
  0
LINE
  5
551
  8
NOTE
  6
CONTINUOUS
 10
338.282898
 20
2159.795654
 30
0.0
 11
0.0
 21
1996.199951
 31
0.0
  0
LINE
  5
552
  8
NOTE
  6
CONTINUOUS
 10
0.0
 20
1996.199951
 30
0.0
 11
1.513792
 21
1997.507022
 31
0.0
  0
LINE
  5
553
  8
NOTE
  6
CONTINUOUS
 10
0.0
 20
1996.199951
 30
0.0
 11
1.964518
 21
1996.575012
 31
0.0
  0
TEXT
  5
554
  8
NOTE
  6
CONTINUOUS
 10
399.032898
 20
2160.795654
 30
0.0
 40
40.0
  1
HW R3/4(φ27.2)
 50
0.000003
 41
0.650362
  7
STANDARD1
  0
LINE
  5
555
  8
NOTE
  6
CONTINUOUS
 10
-848.46582
 20
-326.28656
 30
0.0
 11
-464.215759
 21
-326.28656
 31
0.0
  0
LINE
  5
556
  8
NOTE
  6
CONTINUOUS
 10
-464.215759
 20
-326.28656
 30
0.0
 11
-35.0
 21
23.0
 31
0.0
  0
LINE
  5
557
  8
NOTE
  6
CONTINUOUS
 10
-35.0
 20
23.0
 30
0.0
 11
-36.171671
 21
21.37914
 31
0.0
  0
LINE
  5
558
  8
NOTE
  6
CONTINUOUS
 10
-35.0
 20
23.0
 30
0.0
 11
-36.825127
 21
22.18213
 31
0.0
  0
TEXT
  5
559
  8
NOTE
  6
CONTINUOUS
 10
-848.465759
 20
-325.28656
 30
0.0
 40
40.0
  1
缶体保護弁排水口
 50
0.000003
 41
0.84375
  7
STANDARD1
  0
LINE
  5
55A
  8
NOTE
  6
CONTINUOUS
 10
-55.0
 20
23.0
 30
0.0
 11
-15.0
 21
23.0
 31
0.0
  0
LINE
  5
55B
  8
NOTE
  6
CONTINUOUS
 10
-35.0
 20
3.0
 30
0.0
 11
-35.0
 21
43.0
 31
0.0
  0
LINE
  5
55C
  8
NOTE
  6
CONTINUOUS
 10
739.696106
 20
-199.702042
 30
0.0
 11
467.446167
 21
-199.702042
 31
0.0
  0
LINE
  5
55D
  8
NOTE
  6
CONTINUOUS
 10
467.446167
 20
-199.702042
 30
0.0
 11
330.821716
 21
0.0
 31
0.0
  0
LINE
  5
55E
  8
NOTE
  6
CONTINUOUS
 10
330.821716
 20
0.0
 30
0.0
 11
332.339751
 21
-1.302141
 31
0.0
  0
LINE
  5
55F
  8
NOTE
  6
CONTINUOUS
 10
330.821716
 20
0.0
 30
0.0
 11
331.485303
 21
-1.886704
 31
0.0
  0
TEXT
  5
560
  8
NOTE
  6
CONTINUOUS
 10
528.196167
 20
-198.702042
 30
0.0
 40
40.0
  1
AH 3－M12
 50
0.000003
 41
0.679487
  7
STANDARD1
  0
LINE
  5
561
  8
NOTE
  6
CONTINUOUS
 10
-350.821704
 20
0.0
 30
0.0
 11
-310.821704
 21
0.0
 31
0.0
  0
LINE
  5
562
  8
NOTE
  6
CONTINUOUS
 10
-330.821704
 20
-20.0
 30
0.0
 11
-330.821704
 21
20.0
 31
0.0
  0
LINE
  5
563
  8
NOTE
  6
CONTINUOUS
 10
0.0
 20
-20.0
 30
0.0
 11
0.0
 21
20.0
 31
0.0
  0
LINE
  5
564
  8
NOTE
  6
CONTINUOUS
 10
-20.0
 20
0.0
 30
0.0
 11
20.0
 21
0.0
 31
0.0
  0
LINE
  5
565
  8
NOTE
  6
CONTINUOUS
 10
-262.950336
 20
100.0
 30
0.0
 11
-222.950336
 21
100.0
 31
0.0
  0
LINE
  5
566
  8
NOTE
  6
CONTINUOUS
 10
-242.950336
 20
80.0
 30
0.0
 11
-242.950336
 21
120.0
 31
0.0
  0
POINT
  5
567
  8
NOTE
  6
CONTINUOUS
 10
-242.950336
 20
100.0
 30
0.0
  0
LINE
  5
568
  8
NOTE
  6
CONTINUOUS
 10
262.950336
 20
100.0
 30
0.0
 11
222.950336
 21
100.0
 31
0.0
  0
LINE
  5
569
  8
NOTE
  6
CONTINUOUS
 10
242.950336
 20
80.0
 30
0.0
 11
242.950336
 21
120.0
 31
0.0
  0
POINT
  5
56A
  8
NOTE
  6
CONTINUOUS
 10
242.950336
 20
100.0
 30
0.0
  0
POINT
  5
56B
  8
NOTE
  6
CONTINUOUS
 10
242.950336
 20
100.0
 30
0.0
  0
POINT
  5
56C
  8
NOTE
  6
CONTINUOUS
 10
242.950336
 20
100.0
 30
0.0
  0
POINT
  5
56D
  8
NOTE
  6
CONTINUOUS
 10
242.950336
 20
100.0
 30
0.0
  0
POINT
  5
56E
  8
NOTE
  6
CONTINUOUS
 10
242.950336
 20
100.0
 30
0.0
  0
POINT
  5
56F
  8
NOTE
  6
CONTINUOUS
 10
242.950336
 20
100.0
 30
0.0
  0
POINT
  5
570
  8
NOTE
  6
CONTINUOUS
 10
242.950336
 20
100.0
 30
0.0
  0
LINE
  5
571
  8
NOTE
  6
CONTINUOUS
 10
-966.275696
 20
-144.004868
 30
0.0
 11
-449.025635
 21
-144.004868
 31
0.0
  0
LINE
  5
572
  8
NOTE
  6
CONTINUOUS
 10
-449.025635
 20
-144.004868
 30
0.0
 11
-242.950333
 21
100.0
 31
0.0
  0
LINE
  5
573
  8
NOTE
  6
CONTINUOUS
 10
-242.950333
 20
100.0
 30
0.0
 11
-243.801351
 21
98.190092
 31
0.0
  0
LINE
  5
574
  8
NOTE
  6
CONTINUOUS
 10
-242.950333
 20
100.0
 30
0.0
 11
-244.59229
 21
98.858083
 31
0.0
  0
TEXT
  5
575
  8
NOTE
  6
CONTINUOUS
 10
-966.275635
 20
-143.004837
 30
0.0
 40
40.0
  1
WD(CW) R3/4(φ27.2)
 50
359.999996
 41
0.641854
  7
STANDARD1
  0
LINE
  5
576
  8
NOTE
  6
CONTINUOUS
 10
964.442688
 20
-351.603455
 30
0.0
 11
447.192627
 21
-351.603455
 31
0.0
  0
LINE
  5
577
  8
NOTE
  6
CONTINUOUS
 10
447.192627
 20
-351.603455
 30
0.0
 11
242.950333
 21
100.0
 31
0.0
  0
LINE
  5
578
  8
NOTE
  6
CONTINUOUS
 10
242.950333
 20
100.0
 30
0.0
 11
244.218049
 21
98.453101
 31
0.0
  0
LINE
  5
579
  8
NOTE
  6
CONTINUOUS
 10
242.950333
 20
100.0
 30
0.0
 11
243.274758
 21
98.026488
 31
0.0
  0
TEXT
  5
57A
  8
NOTE
  6
CONTINUOUS
 10
507.942627
 20
-350.603455
 30
0.0
 40
40.0
  1
CW(WD) R3/4(φ27.2)
 50
0.000003
 41
0.641854
  7
STANDARD1
  0
LINE
  5
57B
  8
NOTE
  6
CONTINUOUS
 10
310.821704
 20
0.0
 30
0.0
 11
350.821704
 21
0.0
 31
0.0
  0
LINE
  5
57C
  8
NOTE
  6
CONTINUOUS
 10
330.821704
 20
-20.0
 30
0.0
 11
330.821704
 21
20.0
 31
0.0
  0
LINE
  5
57D
  8
NOTE
  6
CONTINUOUS
 10
20.0
 20
1996.2
 30
0.0
 11
-20.0
 21
1996.2
 31
0.0
  0
LINE
  5
57E
  8
NOTE
  6
CONTINUOUS
 10
0.0
 20
1976.2
 30
0.0
 11
0.0
 21
2016.2
 31
0.0
  0
TEXT
  5
57F
  8
NOTE
  6
CONTINUOUS
 10
-510.984039
 20
1983.937378
 30
0.0
 40
40.0
  1
メンテナンススペ－ス
 50
90.000005
 41
0.84375
  7
STANDARD1
  0
CIRCLE
  5
580
  8
ARRANGE
  6
CONTINUOUS
 10
0.0
 20
0.0
 30
0.0
 40
15.0
  0
CIRCLE
  5
581
  8
FIX
  6
CONTINUOUS
 10
0.0
 20
0.0
 30
0.0
 40
6.0
  0
CIRCLE
  5
582
  8
FIX
  6
CONTINUOUS
 10
-330.821704
 20
0.0
 30
0.0
 40
6.0
  0
CIRCLE
  5
583
  8
FIX
  6
CONTINUOUS
 10
330.821704
 20
0.0
 30
0.0
 40
6.0
  0
LINE
  5
584
  8
SERVICESPACE
  6
DASHDOT
 10
360.0
 20
2446.3
 30
0.0
 11
-360.0
 21
1946.3
 31
0.0
  0
LINE
  5
585
  8
SERVICESPACE
  6
DASHDOT
 10
-360.0
 20
2446.3
 30
0.0
 11
360.0
 21
1946.3
 31
0.0
  0
LINE
  5
586
  8
SERVICESPACE
  6
DASHDOT
 10
-360.0
 20
2446.3
 30
0.0
 11
-360.0
 21
1946.3
 31
0.0
  0
LINE
  5
587
  8
SERVICESPACE
  6
DASHDOT
 10
360.0
 20
1946.3
 30
0.0
 11
360.0
 21
2446.3
 31
0.0
  0
LINE
  5
588
  8
SERVICESPACE
  6
DASHDOT
 10
-360.0
 20
2446.3
 30
0.0
 11
360.0
 21
2446.3
 31
0.0
  0
LINE
  5
589
  8
SERVICESPACE
  6
DASHDOT
 10
-360.0
 20
1946.3
 30
0.0
 11
360.0
 21
1946.3
 31
0.0
  0
TEXT
  5
58A
  8
ETC
  6
CONTINUOUS
 10
544.165771
 20
2485.004639
 30
0.0
 40
40.0
  1
T55562
 50
0.000003
 41
0.6125
  7
STANDARD1
  0
TEXT
  5
58B
  8
ETC
  6
CONTINUOUS
 10
544.165771
 20
2415.004639
 30
0.0
 40
40.0
  1
電気温水器
 50
0.000003
 41
0.84375
  7
STANDARD1
  0
ENDSEC
  0
EOF
