  0
SECTION
  2
HEADER
  9
$ACADVER
  1
AC1009
  9
$DWGCODEPAGE
  3
dos932
  9
$INSBASE
 10
0.0
 20
0.0
 30
0.0
  9
$EXTMIN
 10
-1042.401648
 20
-999.300722
 30
0.0
  9
$EXTMAX
 10
1197.419999
 20
664.877697
 30
0.0
  9
$LIMMIN
 10
0.0
 20
0.0
  9
$LIMMAX
 10
12.0
 20
9.0
  9
$ORTHOMODE
 70
     0
  9
$REGENMODE
 70
     1
  9
$FILLMODE
 70
     1
  9
$QTEXTMODE
 70
     0
  9
$MIRRTEXT
 70
     1
  9
$DRAGMODE
 70
     2
  9
$LTSCALE
 40
1.0
  9
$OSMODE
 70
    37
  9
$ATTMODE
 70
     1
  9
$TEXTSIZE
 40
40.0
  9
$TRACEWID
 40
0.05
  9
$TEXTSTYLE
  7
STANDARD1
  9
$CLAYER
  8
0
  9
$CELTYPE
  6
CONTINUOUS
  9
$CECOLOR
 62
   256
  9
$DIMSCALE
 40
1.0
  9
$DIMASZ
 40
10.0
  9
$DIMEXO
 40
10.0
  9
$DIMDLI
 40
8.0
  9
$DIMRND
 40
0.0
  9
$DIMDLE
 40
0.0
  9
$DIMEXE
 40
12.5
  9
$DIMTP
 40
0.0
  9
$DIMTM
 40
0.0
  9
$DIMTXT
 40
30.0
  9
$DIMCEN
 40
2.5
  9
$DIMTSZ
 40
0.0
  9
$DIMTOL
 70
     0
  9
$DIMLIM
 70
     0
  9
$DIMTIH
 70
     0
  9
$DIMTOH
 70
     0
  9
$DIMSE1
 70
     0
  9
$DIMSE2
 70
     0
  9
$DIMTAD
 70
     3
  9
$DIMZIN
 70
    12
  9
$DIMBLK
  1

  9
$DIMASO
 70
     1
  9
$DIMSHO
 70
     1
  9
$DIMPOST
  1

  9
$DIMAPOST
  1

  9
$DIMALT
 70
     0
  9
$DIMALTD
 70
     4
  9
$DIMALTF
 40
25.4
  9
$DIMLFAC
 40
1.0
  9
$DIMTOFL
 70
     1
  9
$DIMTVP
 40
0.0
  9
$DIMTIX
 70
     0
  9
$DIMSOXD
 70
     0
  9
$DIMSAH
 70
     1
  9
$DIMBLK1
  1
ORIGIN
  9
$DIMBLK2
  1
ORIGIN
  9
$DIMSTYLE
  2
STANDARD
  9
$DIMCLRD
 70
     0
  9
$DIMCLRE
 70
     0
  9
$DIMCLRT
 70
     0
  9
$DIMTFAC
 40
0.714286
  9
$DIMGAP
 40
10.0
  9
$LUNITS
 70
     2
  9
$LUPREC
 70
     3
  9
$SKETCHINC
 40
0.1
  9
$FILLETRAD
 40
0.0
  9
$AUNITS
 70
     0
  9
$AUPREC
 70
     0
  9
$MENU
  1
acad
  9
$ELEVATION
 40
0.0
  9
$PELEVATION
 40
0.0
  9
$THICKNESS
 40
0.0
  9
$LIMCHECK
 70
     0
  9
$CHAMFERA
 40
0.0
  9
$CHAMFERB
 40
0.0
  9
$SKPOLY
 70
     0
  9
$TDCREATE
 40
2454826.702476852
  9
$TDUPDATE
 40
2457459.558025648
  9
$TDINDWG
 40
0.0
  9
$TDUSRTIMER
 40
0.0
  9
$USRTIMER
 70
     1
  9
$ANGBASE
 50
0.0
  9
$ANGDIR
 70
     0
  9
$PDMODE
 70
     0
  9
$PDSIZE
 40
0.0
  9
$PLINEWID
 40
0.0
  9
$COORDS
 70
     1
  9
$SPLFRAME
 70
     0
  9
$SPLINETYPE
 70
     6
  9
$SPLINESEGS
 70
     8
  9
$ATTDIA
 70
     0
  9
$ATTREQ
 70
     1
  9
$HANDLING
 70
     1
  9
$HANDSEED
  5
8CD
  9
$SURFTAB1
 70
     6
  9
$SURFTAB2
 70
     6
  9
$SURFTYPE
 70
     6
  9
$SURFU
 70
     6
  9
$SURFV
 70
     6
  9
$UCSNAME
  2

  9
$UCSORG
 10
0.0
 20
0.0
 30
0.0
  9
$UCSXDIR
 10
1.0
 20
0.0
 30
0.0
  9
$UCSYDIR
 10
0.0
 20
1.0
 30
0.0
  9
$PUCSNAME
  2

  9
$PUCSORG
 10
0.0
 20
0.0
 30
0.0
  9
$PUCSXDIR
 10
1.0
 20
0.0
 30
0.0
  9
$PUCSYDIR
 10
0.0
 20
1.0
 30
0.0
  9
$USERI1
 70
     0
  9
$USERI2
 70
     0
  9
$USERI3
 70
     0
  9
$USERI4
 70
     0
  9
$USERI5
 70
     0
  9
$USERR1
 40
0.0
  9
$USERR2
 40
0.0
  9
$USERR3
 40
0.0
  9
$USERR4
 40
0.0
  9
$USERR5
 40
0.0
  9
$WORLDVIEW
 70
     1
  9
$SHADEDGE
 70
     3
  9
$SHADEDIF
 70
    70
  9
$TILEMODE
 70
     1
  9
$MAXACTVP
 70
    48
  9
$PLIMCHECK
 70
     0
  9
$PEXTMIN
 10
1.000000000000000E+20
 20
1.000000000000000E+20
 30
1.000000000000000E+20
  9
$PEXTMAX
 10
-1.000000000000000E+20
 20
-1.000000000000000E+20
 30
-1.000000000000000E+20
  9
$PLIMMIN
 10
0.0
 20
0.0
  9
$PLIMMAX
 10
12.0
 20
9.0
  9
$UNITMODE
 70
     0
  9
$VISRETAIN
 70
     1
  9
$PLINEGEN
 70
     0
  9
$PSLTSCALE
 70
     1
  0
ENDSEC
  0
SECTION
  2
TABLES
  0
TABLE
  2
VPORT
 70
     1
  0
VPORT
  2
*ACTIVE
 70
     0
 10
0.0
 20
0.0
 11
1.0
 21
1.0
 12
95.257642
 22
-167.211513
 13
0.0
 23
0.0
 14
1.0
 24
1.0
 15
0.0
 25
0.0
 16
0.0
 26
0.0
 36
1.0
 17
0.0
 27
0.0
 37
0.0
 40
1681.073631
 41
1.413559
 42
50.0
 43
0.0
 44
0.0
 50
0.0
 51
0.0
 71
     0
 72
   100
 73
     1
 74
     1
 75
     0
 76
     0
 77
     0
 78
     0
  0
ENDTAB
  0
TABLE
  2
LTYPE
 70
     4
  0
LTYPE
  2
CONTINUOUS
 70
     0
  3
Solid line
 72
    65
 73
     0
 40
0.0
  0
LTYPE
  2
DASHED
 70
     0
  3
-- -- -- -- -- -- -- -- -- -- -- -- -- -- --
 72
    65
 73
     2
 40
0.75
 49
0.5
 49
-0.25
  0
LTYPE
  2
DASHDOT
 70
     0
  3
__ . __ . __ . __ . __ . __ . __ . __ . __ . __
 72
    65
 73
     4
 40
125.0
 49
80.0
 49
-20.0
 49
5.0
 49
-20.0
  0
LTYPE
  2
DIVIDE
 70
     0
  3
__ . . __ . . __ . . __ . . __ . . __ . . __
 72
    65
 73
     6
 40
1.25
 49
0.5
 49
-0.25
 49
0.0
 49
-0.25
 49
0.0
 49
-0.25
  0
ENDTAB
  0
TABLE
  2
LAYER
 70
    12
  0
LAYER
  2
0
 70
     0
 62
     3
  6
CONTINUOUS
  0
LAYER
  2
OUTLINE
 70
     0
 62
     3
  6
CONTINUOUS
  0
LAYER
  2
DETAIL
 70
     0
 62
     5
  6
CONTINUOUS
  0
LAYER
  2
BASIS
 70
     0
 62
     6
  6
CONTINUOUS
  0
LAYER
  2
SIZE
 70
     0
 62
    30
  6
CONTINUOUS
  0
LAYER
  2
NOTE
 70
     0
 62
     4
  6
CONTINUOUS
  0
LAYER
  2
ARRANGE
 70
     0
 62
     1
  6
CONTINUOUS
  0
LAYER
  2
FIX
 70
     0
 62
    11
  6
CONTINUOUS
  0
LAYER
  2
SERVICESPACE
 70
     0
 62
     2
  6
CONTINUOUS
  0
LAYER
  2
ETC
 70
     0
 62
    61
  6
CONTINUOUS
  0
LAYER
  2
SYMBOLLINE
 70
     0
 62
     7
  6
CONTINUOUS
  0
LAYER
  2
DEFPOINTS
 70
     0
 62
     7
  6
CONTINUOUS
  0
ENDTAB
  0
TABLE
  2
STYLE
 70
     5
  0
STYLE
  2
STANDARD
 70
     0
 40
0.0
 41
1.0
 50
0.0
 71
     0
 42
0.2
  3
txt
  4

  0
STYLE
  2
STANDARD1
 70
     0
 40
0.0
 41
1.0
 50
0.0
 71
     0
 42
40.0
  3
MONOTXT
  4
BIGFONT
  0
STYLE
  2
STANDARD2
 70
     4
 40
0.0
 41
1.0
 50
0.0
 71
     0
 42
40.0
  3
MONOTXT
  4
BIGFONT
  0
STYLE
  2
STANDARD3
 70
     0
 40
0.0
 41
1.0
 50
0.0
 71
     0
 42
40.0
  3
MONOTXT
  4

  0
STYLE
  2
STANDARD4
 70
     4
 40
0.0
 41
1.0
 50
0.0
 71
     0
 42
40.0
  3
MONOTXT
  4

  0
ENDTAB
  0
TABLE
  2
VIEW
 70
     0
  0
ENDTAB
  0
TABLE
  2
UCS
 70
     0
  0
ENDTAB
  0
TABLE
  2
APPID
 70
     1
  0
APPID
  2
ACAD
 70
     0
  0
ENDTAB
  0
TABLE
  2
DIMSTYLE
 70
     1
  0
DIMSTYLE
  2
STANDARD
 70
     0
  3

  4

  5

  6

  7

 40
1.0
 41
0.18
 42
0.0625
 43
0.38
 44
0.18
 45
0.0
 46
0.0
 47
0.0
 48
0.0
140
0.18
141
0.09
142
0.0
143
25.4
144
1.0
145
0.0
146
1.0
147
0.09
 71
     0
 72
     0
 73
     1
 74
     1
 75
     0
 76
     0
 77
     0
 78
     0
170
     0
171
     2
172
     0
173
     0
174
     0
175
     0
176
     0
177
     0
178
     0
  0
ENDTAB
  0
ENDSEC
  0
SECTION
  2
BLOCKS
  0
BLOCK
  8
0
  2
$MODEL_SPACE
 70
     0
 10
0.0
 20
0.0
 30
0.0
  3
$MODEL_SPACE
  1

  0
ENDBLK
  5
8A2
  8
0
  0
BLOCK
 67
     1
  8
0
  2
$PAPER_SPACE
 70
     0
 10
0.0
 20
0.0
 30
0.0
  3
$PAPER_SPACE
  1

  0
ENDBLK
  5
8A4
 67
     1
  8
0
  0
BLOCK
  8
SIZE
  2
*D0
 70
     1
 10
0.0
 20
0.0
 30
0.0
  3
*D0
  1

  0
TEXT
  5
3F0
  8
SIZE
  6
CONTINUOUS
 10
948.998328
 20
-230.448929
 30
0.0
 40
2.8
  1
179
 50
90.00000499999999
 41
0.7
  7
STANDARD1
  0
LINE
  5
3F1
  8
SIZE
  6
CONTINUOUS
 10
260.998322
 20
-317.008911
 30
0.0
 11
951.998352
 21
-317.008911
 31
0.0
  0
LINE
  5
3F2
  8
SIZE
  6
CONTINUOUS
 10
455.998322
 20
-138.008926
 30
0.0
 11
951.998352
 21
-138.008926
 31
0.0
  0
LINE
  5
3F3
  8
SIZE
  6
CONTINUOUS
 10
949.998352
 20
-317.008911
 30
0.0
 11
949.998352
 21
-138.008926
 31
0.0
  0
INSERT
  5
3F4
  8
SIZE
  2
DOT
 10
949.998352
 20
-317.008911
 30
0.0
 50
270.0
  0
INSERT
  5
3F5
  8
SIZE
  2
DOT
 10
949.998352
 20
-138.008926
 30
0.0
 50
90.0
  0
POINT
  5
3F6
  8
DEFPOINTS
  6
BYBLOCK
 10
454.998322
 20
-138.008926
 30
0.0
  0
POINT
  5
3F7
  8
DEFPOINTS
  6
BYBLOCK
 10
259.998322
 20
-317.008911
 30
0.0
  0
POINT
  5
3F8
  8
DEFPOINTS
  6
BYBLOCK
 10
949.998352
 20
-317.008911
 30
0.0
  0
ENDBLK
  5
3F9
  8
SIZE
  0
BLOCK
  8
SIZE
  2
DOT
 70
     0
 10
0.0
 20
0.0
 30
0.0
  3
DOT
  1

  0
POLYLINE
  5
3FC
  8
0
  6
BYBLOCK
 66
     1
 10
0.0
 20
0.0
 30
0.0
 70
     1
 40
0.5
 41
0.5
  0
VERTEX
  5
8CA
  8
0
  6
BYBLOCK
 10
-0.25
 20
0.0
 30
0.0
 42
1.0
  0
VERTEX
  5
8CB
  8
0
  6
BYBLOCK
 10
0.25
 20
0.0
 30
0.0
 42
1.0
  0
SEQEND
  5
8CC
  8
0
  6
BYBLOCK
  0
LINE
  5
400
  8
0
  6
BYBLOCK
 10
-0.5
 20
0.0
 30
0.0
 11
-1.0
 21
0.0
 31
0.0
  0
ENDBLK
  5
401
  8
SIZE
  0
BLOCK
  8
SIZE
  2
*D2
 70
     1
 10
0.0
 20
0.0
 30
0.0
  3
*D2
  1

  0
TEXT
  5
404
  8
SIZE
  6
CONTINUOUS
 10
848.998328
 20
-237.948929
 30
0.0
 40
2.8
  1
164
 50
90.00000499999999
 41
0.7
  7
STANDARD1
  0
LINE
  5
405
  8
SIZE
  6
CONTINUOUS
 10
260.998322
 20
-317.008911
 30
0.0
 11
851.998352
 21
-317.008911
 31
0.0
  0
LINE
  5
406
  8
SIZE
  6
CONTINUOUS
 10
455.998322
 20
-153.008926
 30
0.0
 11
851.998352
 21
-153.008926
 31
0.0
  0
LINE
  5
407
  8
SIZE
  6
CONTINUOUS
 10
849.998352
 20
-317.008911
 30
0.0
 11
849.998352
 21
-153.008926
 31
0.0
  0
INSERT
  5
408
  8
SIZE
  2
DOT
 10
849.998352
 20
-317.008911
 30
0.0
 50
270.0
  0
INSERT
  5
409
  8
SIZE
  2
DOT
 10
849.998352
 20
-153.008926
 30
0.0
 50
90.0
  0
POINT
  5
40A
  8
DEFPOINTS
  6
BYBLOCK
 10
454.998322
 20
-153.008926
 30
0.0
  0
POINT
  5
40B
  8
DEFPOINTS
  6
BYBLOCK
 10
259.998322
 20
-317.008911
 30
0.0
  0
POINT
  5
40C
  8
DEFPOINTS
  6
BYBLOCK
 10
849.998352
 20
-317.008911
 30
0.0
  0
ENDBLK
  5
40D
  8
SIZE
  0
BLOCK
  8
SIZE
  2
*D3
 70
     1
 10
0.0
 20
0.0
 30
0.0
  3
*D3
  1

  0
TEXT
  5
410
  8
SIZE
  6
CONTINUOUS
 10
309.874786
 20
300.991083
 30
0.0
 40
2.8
  1
35
 50
0.000003
 41
0.7
  7
STANDARD1
  0
LINE
  5
411
  8
SIZE
  6
CONTINUOUS
 10
434.998322
 20
-117.008919
 30
0.0
 11
434.998322
 21
301.991089
 31
0.0
  0
LINE
  5
412
  8
SIZE
  6
CONTINUOUS
 10
399.998322
 20
100.991081
 30
0.0
 11
399.998322
 21
301.991089
 31
0.0
  0
LINE
  5
413
  8
SIZE
  6
CONTINUOUS
 10
439.998322
 20
299.991089
 30
0.0
 11
308.474792
 21
299.991089
 31
0.0
  0
INSERT
  5
414
  8
SIZE
  2
DOT
 10
434.998322
 20
299.991089
 30
0.0
  0
INSERT
  5
415
  8
SIZE
  2
DOT
 10
399.998322
 20
299.991089
 30
0.0
 50
180.0
  0
POINT
  5
416
  8
DEFPOINTS
  6
BYBLOCK
 10
399.998322
 20
99.991081
 30
0.0
  0
POINT
  5
417
  8
DEFPOINTS
  6
BYBLOCK
 10
434.998322
 20
-118.008919
 30
0.0
  0
POINT
  5
418
  8
DEFPOINTS
  6
BYBLOCK
 10
434.998322
 20
299.991089
 30
0.0
  0
ENDBLK
  5
419
  8
SIZE
  0
BLOCK
  8
SIZE
  2
*D4
 70
     1
 10
0.0
 20
0.0
 30
0.0
  3
*D4
  1

  0
TEXT
  5
41C
  8
SIZE
  6
CONTINUOUS
 10
-77.941673
 20
-649.008887
 30
0.0
 40
2.8
  1
950
 50
0.000003
 41
0.7
  7
STANDARD1
  0
LINE
  5
41D
  8
SIZE
  6
CONTINUOUS
 10
399.998322
 20
-401.008911
 30
0.0
 11
399.998322
 21
-652.008911
 31
0.0
  0
LINE
  5
41E
  8
SIZE
  6
CONTINUOUS
 10
-550.001648
 20
-401.008911
 30
0.0
 11
-550.001648
 21
-652.008911
 31
0.0
  0
LINE
  5
41F
  8
SIZE
  6
CONTINUOUS
 10
399.998322
 20
-650.008911
 30
0.0
 11
-550.001648
 21
-650.008911
 31
0.0
  0
INSERT
  5
420
  8
SIZE
  2
DOT
 10
399.998322
 20
-650.008911
 30
0.0
  0
INSERT
  5
421
  8
SIZE
  2
DOT
 10
-550.001648
 20
-650.008911
 30
0.0
 50
180.0
  0
POINT
  5
422
  8
DEFPOINTS
  6
BYBLOCK
 10
-550.001648
 20
-400.008911
 30
0.0
  0
POINT
  5
423
  8
DEFPOINTS
  6
BYBLOCK
 10
399.998322
 20
-400.008911
 30
0.0
  0
POINT
  5
424
  8
DEFPOINTS
  6
BYBLOCK
 10
399.998322
 20
-650.008911
 30
0.0
  0
ENDBLK
  5
425
  8
SIZE
  0
BLOCK
  8
SIZE
  2
*D5
 70
     1
 10
0.0
 20
0.0
 30
0.0
  3
*D5
  1

  0
TEXT
  5
428
  8
SIZE
  6
CONTINUOUS
 10
547.05835
 20
-649.008887
 30
0.0
 40
2.8
  1
300
 50
0.000003
 41
0.7
  7
STANDARD1
  0
LINE
  5
429
  8
SIZE
  6
CONTINUOUS
 10
399.998322
 20
-401.008911
 30
0.0
 11
399.998322
 21
-652.008911
 31
0.0
  0
LINE
  5
42A
  8
SIZE
  6
CONTINUOUS
 10
699.998352
 20
-401.008911
 30
0.0
 11
699.998352
 21
-652.008911
 31
0.0
  0
LINE
  5
42B
  8
SIZE
  6
CONTINUOUS
 10
399.998322
 20
-650.008911
 30
0.0
 11
699.998352
 21
-650.008911
 31
0.0
  0
INSERT
  5
42C
  8
SIZE
  2
DOT
 10
399.998322
 20
-650.008911
 30
0.0
 50
180.0
  0
INSERT
  5
42D
  8
SIZE
  2
DOT
 10
699.998352
 20
-650.008911
 30
0.0
  0
POINT
  5
42E
  8
DEFPOINTS
  6
BYBLOCK
 10
699.998352
 20
-400.008911
 30
0.0
  0
POINT
  5
42F
  8
DEFPOINTS
  6
BYBLOCK
 10
399.998322
 20
-400.008911
 30
0.0
  0
POINT
  5
430
  8
DEFPOINTS
  6
BYBLOCK
 10
399.998322
 20
-650.008911
 30
0.0
  0
ENDBLK
  5
431
  8
SIZE
  0
BLOCK
  8
SIZE
  2
*D6
 70
     1
 10
0.0
 20
0.0
 30
0.0
  3
*D6
  1

  0
TEXT
  5
434
  8
SIZE
  6
CONTINUOUS
 10
-801.001672
 20
-390.470428
 30
0.0
 40
2.8
  1
115
 50
90.00000499999999
 41
0.7
  7
STANDARD1
  0
LINE
  5
435
  8
SIZE
  6
CONTINUOUS
 10
-551.001648
 20
-400.008911
 30
0.0
 11
-802.001648
 21
-400.008911
 31
0.0
  0
LINE
  5
436
  8
SIZE
  6
CONTINUOUS
 10
-551.001648
 20
-285.008911
 30
0.0
 11
-802.001648
 21
-285.008911
 31
0.0
  0
LINE
  5
437
  8
SIZE
  6
CONTINUOUS
 10
-800.001648
 20
-400.008911
 30
0.0
 11
-800.001648
 21
-285.008911
 31
0.0
  0
INSERT
  5
438
  8
SIZE
  2
DOT
 10
-800.001648
 20
-400.008911
 30
0.0
 50
270.0
  0
INSERT
  5
439
  8
SIZE
  2
DOT
 10
-800.001648
 20
-285.008911
 30
0.0
 50
90.0
  0
POINT
  5
43A
  8
DEFPOINTS
  6
BYBLOCK
 10
-550.001648
 20
-285.008911
 30
0.0
  0
POINT
  5
43B
  8
DEFPOINTS
  6
BYBLOCK
 10
-550.001648
 20
-400.008911
 30
0.0
  0
POINT
  5
43C
  8
DEFPOINTS
  6
BYBLOCK
 10
-800.001648
 20
-400.008911
 30
0.0
  0
ENDBLK
  5
43D
  8
SIZE
  0
BLOCK
  8
SIZE
  2
*D7
 70
     1
 10
0.0
 20
0.0
 30
0.0
  3
*D7
  1

  0
TEXT
  5
440
  8
SIZE
  6
CONTINUOUS
 10
1148.998267
 20
-152.948929
 30
0.0
 40
2.8
  1
500
 50
90.00000499999999
 41
0.7
  7
STANDARD1
  0
LINE
  5
441
  8
SIZE
  6
CONTINUOUS
 10
700.998352
 20
-400.008911
 30
0.0
 11
1151.998291
 21
-400.008911
 31
0.0
  0
LINE
  5
442
  8
SIZE
  6
CONTINUOUS
 10
700.998352
 20
99.991081
 30
0.0
 11
1151.998291
 21
99.991081
 31
0.0
  0
LINE
  5
443
  8
SIZE
  6
CONTINUOUS
 10
1149.998291
 20
-400.008911
 30
0.0
 11
1149.998291
 21
99.991081
 31
0.0
  0
INSERT
  5
444
  8
SIZE
  2
DOT
 10
1149.998291
 20
-400.008911
 30
0.0
 50
270.0
  0
INSERT
  5
445
  8
SIZE
  2
DOT
 10
1149.998291
 20
99.991081
 30
0.0
 50
90.0
  0
POINT
  5
446
  8
DEFPOINTS
  6
BYBLOCK
 10
699.998352
 20
99.991081
 30
0.0
  0
POINT
  5
447
  8
DEFPOINTS
  6
BYBLOCK
 10
699.998352
 20
-400.008911
 30
0.0
  0
POINT
  5
448
  8
DEFPOINTS
  6
BYBLOCK
 10
1149.998291
 20
-400.008911
 30
0.0
  0
ENDBLK
  5
449
  8
SIZE
  0
BLOCK
  8
SIZE
  2
*D8
 70
     1
 10
0.0
 20
0.0
 30
0.0
  3
*D8
  1

  0
TEXT
  5
44C
  8
SIZE
  6
CONTINUOUS
 10
-255.441666
 20
-549.008887
 30
0.0
 40
2.8
  1
295
 50
0.000003
 41
0.7
  7
STANDARD1
  0
LINE
  5
44D
  8
SIZE
  6
CONTINUOUS
 10
-105.001671
 20
-356.008911
 30
0.0
 11
-105.001671
 21
-552.008911
 31
0.0
  0
LINE
  5
44E
  8
SIZE
  6
CONTINUOUS
 10
-400.001678
 20
-280.008911
 30
0.0
 11
-400.001678
 21
-552.008911
 31
0.0
  0
LINE
  5
44F
  8
SIZE
  6
CONTINUOUS
 10
-105.001671
 20
-550.008911
 30
0.0
 11
-400.001678
 21
-550.008911
 31
0.0
  0
INSERT
  5
450
  8
SIZE
  2
DOT
 10
-105.001671
 20
-550.008911
 30
0.0
  0
INSERT
  5
451
  8
SIZE
  2
DOT
 10
-400.001678
 20
-550.008911
 30
0.0
 50
180.0
  0
POINT
  5
452
  8
DEFPOINTS
  6
BYBLOCK
 10
-400.001678
 20
-279.008911
 30
0.0
  0
POINT
  5
453
  8
DEFPOINTS
  6
BYBLOCK
 10
-105.001671
 20
-355.008911
 30
0.0
  0
POINT
  5
454
  8
DEFPOINTS
  6
BYBLOCK
 10
-105.001671
 20
-550.008911
 30
0.0
  0
ENDBLK
  5
455
  8
SIZE
  0
BLOCK
  8
SIZE
  2
*D9
 70
     1
 10
0.0
 20
0.0
 30
0.0
  3
*D9
  1

  0
TEXT
  5
458
  8
SIZE
  6
CONTINUOUS
 10
430.03833
 20
450.991083
 30
0.0
 40
2.8
  1
64
 50
0.000003
 41
0.7
  7
STANDARD1
  0
LINE
  5
459
  8
SIZE
  6
CONTINUOUS
 10
463.998322
 20
-83.6082
 30
0.0
 11
463.998322
 21
451.991089
 31
0.0
  0
LINE
  5
45A
  8
SIZE
  6
CONTINUOUS
 10
399.998322
 20
100.991081
 30
0.0
 11
399.998322
 21
451.991089
 31
0.0
  0
LINE
  5
45B
  8
SIZE
  6
CONTINUOUS
 10
463.998322
 20
449.991089
 30
0.0
 11
399.998322
 21
449.991089
 31
0.0
  0
INSERT
  5
45C
  8
SIZE
  2
DOT
 10
463.998322
 20
449.991089
 30
0.0
  0
INSERT
  5
45D
  8
SIZE
  2
DOT
 10
399.998322
 20
449.991089
 30
0.0
 50
180.0
  0
POINT
  5
45E
  8
DEFPOINTS
  6
BYBLOCK
 10
399.998322
 20
99.991081
 30
0.0
  0
POINT
  5
45F
  8
DEFPOINTS
  6
BYBLOCK
 10
463.998322
 20
-84.6082
 30
0.0
  0
POINT
  5
460
  8
DEFPOINTS
  6
BYBLOCK
 10
463.998322
 20
449.991089
 30
0.0
  0
ENDBLK
  5
461
  8
SIZE
  0
BLOCK
  8
SIZE
  2
*D10
 70
     1
 10
0.0
 20
0.0
 30
0.0
  3
*D10
  1

  0
TEXT
  5
464
  8
SIZE
  6
CONTINUOUS
 10
1048.998267
 20
-145.448929
 30
0.0
 40
2.8
  1
285
 50
90.00000499999999
 41
0.7
  7
STANDARD1
  0
LINE
  5
465
  8
SIZE
  6
CONTINUOUS
 10
380.998322
 20
-0.008923
 30
0.0
 11
1051.998291
 21
-0.008923
 31
0.0
  0
LINE
  5
466
  8
SIZE
  6
CONTINUOUS
 10
380.998322
 20
-285.008911
 30
0.0
 11
1051.998291
 21
-285.008911
 31
0.0
  0
LINE
  5
467
  8
SIZE
  6
CONTINUOUS
 10
1049.998291
 20
-0.008923
 30
0.0
 11
1049.998291
 21
-285.008911
 31
0.0
  0
INSERT
  5
468
  8
SIZE
  2
DOT
 10
1049.998291
 20
-0.008923
 30
0.0
 50
90.0
  0
INSERT
  5
469
  8
SIZE
  2
DOT
 10
1049.998291
 20
-285.008911
 30
0.0
 50
270.0
  0
POINT
  5
46A
  8
DEFPOINTS
  6
BYBLOCK
 10
379.998322
 20
-285.008911
 30
0.0
  0
POINT
  5
46B
  8
DEFPOINTS
  6
BYBLOCK
 10
379.998322
 20
-0.008923
 30
0.0
  0
POINT
  5
46C
  8
DEFPOINTS
  6
BYBLOCK
 10
1049.998291
 20
-0.008923
 30
0.0
  0
ENDBLK
  5
46D
  8
SIZE
  0
BLOCK
  8
SIZE
  2
*D11
 70
     1
 10
0.0
 20
0.0
 30
0.0
  3
*D11
  1

  0
TEXT
  5
470
  8
SIZE
  6
CONTINUOUS
 10
-901.001672
 20
-150.448929
 30
0.0
 40
2.8
  1
315
 50
90.00000499999999
 41
0.7
  7
STANDARD1
  0
LINE
  5
471
  8
SIZE
  6
CONTINUOUS
 10
-271.001678
 20
9.991077
 30
0.0
 11
-902.001648
 21
9.991077
 31
0.0
  0
LINE
  5
472
  8
SIZE
  6
CONTINUOUS
 10
-271.001678
 20
-305.008911
 30
0.0
 11
-902.001648
 21
-305.008911
 31
0.0
  0
LINE
  5
473
  8
SIZE
  6
CONTINUOUS
 10
-900.001648
 20
9.991077
 30
0.0
 11
-900.001648
 21
-305.008911
 31
0.0
  0
INSERT
  5
474
  8
SIZE
  2
DOT
 10
-900.001648
 20
9.991077
 30
0.0
 50
90.0
  0
INSERT
  5
475
  8
SIZE
  2
DOT
 10
-900.001648
 20
-305.008911
 30
0.0
 50
270.0
  0
POINT
  5
476
  8
DEFPOINTS
  6
BYBLOCK
 10
-270.001678
 20
-305.008911
 30
0.0
  0
POINT
  5
477
  8
DEFPOINTS
  6
BYBLOCK
 10
-270.001678
 20
9.991077
 30
0.0
  0
POINT
  5
478
  8
DEFPOINTS
  6
BYBLOCK
 10
-900.001648
 20
9.991077
 30
0.0
  0
ENDBLK
  5
479
  8
SIZE
  0
BLOCK
  8
SIZE
  2
*D12
 70
     1
 10
0.0
 20
0.0
 30
0.0
  3
*D12
  1

  0
TEXT
  5
47C
  8
SIZE
  6
CONTINUOUS
 10
248.03833
 20
-549.008887
 30
0.0
 40
2.8
  1
40
 50
0.000003
 41
0.7
  7
STANDARD1
  0
LINE
  5
47D
  8
SIZE
  6
CONTINUOUS
 10
269.998322
 20
-308.008911
 30
0.0
 11
269.998322
 21
-552.008911
 31
0.0
  0
LINE
  5
47E
  8
SIZE
  6
CONTINUOUS
 10
229.998337
 20
-308.008911
 30
0.0
 11
229.998337
 21
-552.008911
 31
0.0
  0
LINE
  5
47F
  8
SIZE
  6
CONTINUOUS
 10
269.998322
 20
-550.008911
 30
0.0
 11
229.998337
 21
-550.008911
 31
0.0
  0
INSERT
  5
480
  8
SIZE
  2
DOT
 10
269.998322
 20
-550.008911
 30
0.0
  0
INSERT
  5
481
  8
SIZE
  2
DOT
 10
229.998337
 20
-550.008911
 30
0.0
 50
180.0
  0
POINT
  5
482
  8
DEFPOINTS
  6
BYBLOCK
 10
229.998337
 20
-307.008911
 30
0.0
  0
POINT
  5
483
  8
DEFPOINTS
  6
BYBLOCK
 10
269.998322
 20
-307.008911
 30
0.0
  0
POINT
  5
484
  8
DEFPOINTS
  6
BYBLOCK
 10
269.998322
 20
-550.008911
 30
0.0
  0
ENDBLK
  5
485
  8
SIZE
  0
BLOCK
  8
SIZE
  2
*D13
 70
     1
 10
0.0
 20
0.0
 30
0.0
  3
*D13
  1

  0
TEXT
  5
488
  8
SIZE
  6
CONTINUOUS
 10
-456.830505
 20
300.991083
 30
0.0
 40
2.8
  1
16
 50
0.000003
 41
0.7
  7
STANDARD1
  0
LINE
  5
489
  8
SIZE
  6
CONTINUOUS
 10
-416.001678
 20
-73.085167
 30
0.0
 11
-416.001678
 21
301.991089
 31
0.0
  0
LINE
  5
48A
  8
SIZE
  6
CONTINUOUS
 10
-400.001678
 20
0.991078
 30
0.0
 11
-400.001678
 21
301.991089
 31
0.0
  0
LINE
  5
48B
  8
SIZE
  6
CONTINUOUS
 10
-458.230499
 20
299.991089
 30
0.0
 11
-395.001678
 21
299.991089
 31
0.0
  0
INSERT
  5
48C
  8
SIZE
  2
DOT
 10
-416.001678
 20
299.991089
 30
0.0
 50
180.0
  0
INSERT
  5
48D
  8
SIZE
  2
DOT
 10
-400.001678
 20
299.991089
 30
0.0
  0
POINT
  5
48E
  8
DEFPOINTS
  6
BYBLOCK
 10
-400.001678
 20
-0.008922
 30
0.0
  0
POINT
  5
48F
  8
DEFPOINTS
  6
BYBLOCK
 10
-416.001678
 20
-74.085167
 30
0.0
  0
POINT
  5
490
  8
DEFPOINTS
  6
BYBLOCK
 10
-416.001678
 20
299.991089
 30
0.0
  0
ENDBLK
  5
491
  8
SIZE
  0
BLOCK
  8
SIZE
  2
*D14
 70
     1
 10
0.0
 20
0.0
 30
0.0
  3
*D14
  1

  0
TEXT
  5
494
  8
SIZE
  6
CONTINUOUS
 10
-1001.001672
 20
-147.448929
 30
0.0
 40
2.8
  1
345
 50
90.00000499999999
 41
0.7
  7
STANDARD1
  0
LINE
  5
495
  8
SIZE
  6
CONTINUOUS
 10
-263.501678
 20
27.991077
 30
0.0
 11
-1002.001648
 21
27.991077
 31
0.0
  0
LINE
  5
496
  8
SIZE
  6
CONTINUOUS
 10
-261.001678
 20
-317.008911
 30
0.0
 11
-1002.001648
 21
-317.008911
 31
0.0
  0
LINE
  5
497
  8
SIZE
  6
CONTINUOUS
 10
-1000.001648
 20
27.991077
 30
0.0
 11
-1000.001648
 21
-317.008911
 31
0.0
  0
INSERT
  5
498
  8
SIZE
  2
DOT
 10
-1000.001648
 20
27.991077
 30
0.0
 50
90.0
  0
INSERT
  5
499
  8
SIZE
  2
DOT
 10
-1000.001648
 20
-317.008911
 30
0.0
 50
270.0
  0
POINT
  5
49A
  8
DEFPOINTS
  6
BYBLOCK
 10
-260.001678
 20
-317.008911
 30
0.0
  0
POINT
  5
49B
  8
DEFPOINTS
  6
BYBLOCK
 10
-262.501678
 20
27.991077
 30
0.0
  0
POINT
  5
49C
  8
DEFPOINTS
  6
BYBLOCK
 10
-1000.001648
 20
27.991077
 30
0.0
  0
ENDBLK
  5
49D
  8
SIZE
  0
BLOCK
  8
SIZE
  2
*D15
 70
     1
 10
0.0
 20
0.0
 30
0.0
  3
*D15
  1

  0
TEXT
  5
4A0
  8
SIZE
  6
CONTINUOUS
 10
148.998343
 20
-497.063141
 30
0.0
 40
2.8
  1
20
 50
90.00000499999999
 41
0.7
  7
STANDARD1
  0
LINE
  5
4A1
  8
SIZE
  6
CONTINUOUS
 10
398.998322
 20
-285.008911
 30
0.0
 11
147.998337
 21
-285.008911
 31
0.0
  0
LINE
  5
4A2
  8
SIZE
  6
CONTINUOUS
 10
-104.001671
 20
-305.008911
 30
0.0
 11
151.998337
 21
-305.008911
 31
0.0
  0
LINE
  5
4A3
  8
SIZE
  6
CONTINUOUS
 10
149.998337
 20
-280.008911
 30
0.0
 11
149.998337
 21
-498.463135
 31
0.0
  0
INSERT
  5
4A4
  8
SIZE
  2
DOT
 10
149.998337
 20
-285.008911
 30
0.0
 50
90.0
  0
INSERT
  5
4A5
  8
SIZE
  2
DOT
 10
149.998337
 20
-305.008911
 30
0.0
 50
270.0
  0
POINT
  5
4A6
  8
DEFPOINTS
  6
BYBLOCK
 10
-105.001671
 20
-305.008911
 30
0.0
  0
POINT
  5
4A7
  8
DEFPOINTS
  6
BYBLOCK
 10
399.998322
 20
-285.008911
 30
0.0
  0
POINT
  5
4A8
  8
DEFPOINTS
  6
BYBLOCK
 10
149.998337
 20
-285.008911
 30
0.0
  0
ENDBLK
  5
4A9
  8
SIZE
  0
BLOCK
  8
SIZE
  2
*D16
 70
     1
 10
0.0
 20
0.0
 30
0.0
  3
*D16
  1

  0
TEXT
  5
4AC
  8
SIZE
  6
CONTINUOUS
 10
-477.941681
 20
450.991083
 30
0.0
 40
2.8
  1
150
 50
0.000003
 41
0.7
  7
STANDARD1
  0
LINE
  5
4AD
  8
SIZE
  6
CONTINUOUS
 10
-550.001648
 20
100.991081
 30
0.0
 11
-550.001648
 21
451.991089
 31
0.0
  0
LINE
  5
4AE
  8
SIZE
  6
CONTINUOUS
 10
-400.001678
 20
-144.008926
 30
0.0
 11
-400.001678
 21
451.991089
 31
0.0
  0
LINE
  5
4AF
  8
SIZE
  6
CONTINUOUS
 10
-550.001648
 20
449.991089
 30
0.0
 11
-400.001678
 21
449.991089
 31
0.0
  0
INSERT
  5
4B0
  8
SIZE
  2
DOT
 10
-550.001648
 20
449.991089
 30
0.0
 50
180.0
  0
INSERT
  5
4B1
  8
SIZE
  2
DOT
 10
-400.001678
 20
449.991089
 30
0.0
  0
POINT
  5
4B2
  8
DEFPOINTS
  6
BYBLOCK
 10
-400.001678
 20
-145.008926
 30
0.0
  0
POINT
  5
4B3
  8
DEFPOINTS
  6
BYBLOCK
 10
-550.001648
 20
99.991081
 30
0.0
  0
POINT
  5
4B4
  8
DEFPOINTS
  6
BYBLOCK
 10
-550.001648
 20
449.991089
 30
0.0
  0
ENDBLK
  5
4B5
  8
SIZE
  0
BLOCK
  8
SIZE
  2
*D17
 70
     1
 10
0.0
 20
0.0
 30
0.0
  3
*D17
  1

  0
TEXT
  5
4B8
  8
SIZE
  6
CONTINUOUS
 10
-327.941681
 20
300.991083
 30
0.0
 40
2.8
  1
150
 50
0.000003
 41
0.7
  7
STANDARD1
  0
LINE
  5
4B9
  8
SIZE
  6
CONTINUOUS
 10
-400.001678
 20
0.991078
 30
0.0
 11
-400.001678
 21
301.991089
 31
0.0
  0
LINE
  5
4BA
  8
SIZE
  6
CONTINUOUS
 10
-250.001663
 20
30.991077
 30
0.0
 11
-250.001663
 21
301.991089
 31
0.0
  0
LINE
  5
4BB
  8
SIZE
  6
CONTINUOUS
 10
-400.001678
 20
299.991089
 30
0.0
 11
-250.001663
 21
299.991089
 31
0.0
  0
INSERT
  5
4BC
  8
SIZE
  2
DOT
 10
-400.001678
 20
299.991089
 30
0.0
 50
180.0
  0
INSERT
  5
4BD
  8
SIZE
  2
DOT
 10
-250.001663
 20
299.991089
 30
0.0
  0
POINT
  5
4BE
  8
DEFPOINTS
  6
BYBLOCK
 10
-250.001663
 20
29.991077
 30
0.0
  0
POINT
  5
4BF
  8
DEFPOINTS
  6
BYBLOCK
 10
-400.001678
 20
-0.008922
 30
0.0
  0
POINT
  5
4C0
  8
DEFPOINTS
  6
BYBLOCK
 10
-400.001678
 20
299.991089
 30
0.0
  0
ENDBLK
  5
4C1
  8
SIZE
  0
BLOCK
  8
SIZE
  2
*D18
 70
     1
 10
0.0
 20
0.0
 30
0.0
  3
*D18
  1

  0
TEXT
  5
4C4
  8
SIZE
  6
CONTINUOUS
 10
-2.941669
 20
300.991083
 30
0.0
 40
2.8
  1
500
 50
0.000003
 41
0.7
  7
STANDARD1
  0
LINE
  5
4C5
  8
SIZE
  6
CONTINUOUS
 10
-250.001663
 20
30.991077
 30
0.0
 11
-250.001663
 21
301.991089
 31
0.0
  0
LINE
  5
4C6
  8
SIZE
  6
CONTINUOUS
 10
249.998337
 20
30.991077
 30
0.0
 11
249.998337
 21
301.991089
 31
0.0
  0
LINE
  5
4C7
  8
SIZE
  6
CONTINUOUS
 10
-250.001663
 20
299.991089
 30
0.0
 11
249.998337
 21
299.991089
 31
0.0
  0
INSERT
  5
4C8
  8
SIZE
  2
DOT
 10
-250.001663
 20
299.991089
 30
0.0
 50
180.0
  0
INSERT
  5
4C9
  8
SIZE
  2
DOT
 10
249.998337
 20
299.991089
 30
0.0
  0
POINT
  5
4CA
  8
DEFPOINTS
  6
BYBLOCK
 10
249.998337
 20
29.991077
 30
0.0
  0
POINT
  5
4CB
  8
DEFPOINTS
  6
BYBLOCK
 10
-250.001663
 20
29.991077
 30
0.0
  0
POINT
  5
4CC
  8
DEFPOINTS
  6
BYBLOCK
 10
-250.001663
 20
299.991089
 30
0.0
  0
ENDBLK
  5
4CD
  8
SIZE
  0
BLOCK
  8
SIZE
  2
*D19
 70
     1
 10
0.0
 20
0.0
 30
0.0
  3
*D19
  1

  0
TEXT
  5
4D0
  8
SIZE
  6
CONTINUOUS
 10
-77.941673
 20
600.991113
 30
0.0
 40
2.8
  1
950
 50
0.000003
 41
0.7
  7
STANDARD1
  0
LINE
  5
4D1
  8
SIZE
  6
CONTINUOUS
 10
399.998322
 20
100.991081
 30
0.0
 11
399.998322
 21
601.991089
 31
0.0
  0
LINE
  5
4D2
  8
SIZE
  6
CONTINUOUS
 10
-550.001648
 20
100.991081
 30
0.0
 11
-550.001648
 21
601.991089
 31
0.0
  0
LINE
  5
4D3
  8
SIZE
  6
CONTINUOUS
 10
399.998322
 20
599.991089
 30
0.0
 11
-550.001648
 21
599.991089
 31
0.0
  0
INSERT
  5
4D4
  8
SIZE
  2
DOT
 10
399.998322
 20
599.991089
 30
0.0
  0
INSERT
  5
4D5
  8
SIZE
  2
DOT
 10
-550.001648
 20
599.991089
 30
0.0
 50
180.0
  0
POINT
  5
4D6
  8
DEFPOINTS
  6
BYBLOCK
 10
-550.001648
 20
99.991081
 30
0.0
  0
POINT
  5
4D7
  8
DEFPOINTS
  6
BYBLOCK
 10
399.998322
 20
99.991081
 30
0.0
  0
POINT
  5
4D8
  8
DEFPOINTS
  6
BYBLOCK
 10
399.998322
 20
599.991089
 30
0.0
  0
ENDBLK
  5
4D9
  8
SIZE
  0
BLOCK
  8
SIZE
  2
*D20
 70
     1
 10
0.0
 20
0.0
 30
0.0
  3
*D20
  1

  0
TEXT
  5
4DC
  8
SIZE
  6
CONTINUOUS
 10
-2.941669
 20
450.991083
 30
0.0
 40
2.8
  1
800
 50
0.000003
 41
0.7
  7
STANDARD1
  0
LINE
  5
4DD
  8
SIZE
  6
CONTINUOUS
 10
-400.001678
 20
0.991078
 30
0.0
 11
-400.001678
 21
451.991089
 31
0.0
  0
LINE
  5
4DE
  8
SIZE
  6
CONTINUOUS
 10
399.998322
 20
100.991081
 30
0.0
 11
399.998322
 21
451.991089
 31
0.0
  0
LINE
  5
4DF
  8
SIZE
  6
CONTINUOUS
 10
-400.001678
 20
449.991089
 30
0.0
 11
399.998322
 21
449.991089
 31
0.0
  0
INSERT
  5
4E0
  8
SIZE
  2
DOT
 10
-400.001678
 20
449.991089
 30
0.0
 50
180.0
  0
INSERT
  5
4E1
  8
SIZE
  2
DOT
 10
399.998322
 20
449.991089
 30
0.0
  0
POINT
  5
4E2
  8
DEFPOINTS
  6
BYBLOCK
 10
399.998322
 20
99.991081
 30
0.0
  0
POINT
  5
4E3
  8
DEFPOINTS
  6
BYBLOCK
 10
-400.001678
 20
-0.008922
 30
0.0
  0
POINT
  5
4E4
  8
DEFPOINTS
  6
BYBLOCK
 10
-400.001678
 20
449.991089
 30
0.0
  0
ENDBLK
  5
4E5
  8
SIZE
  0
BLOCK
  8
SIZE
  2
*D21
 70
     1
 10
0.0
 20
0.0
 30
0.0
  3
*D21
  1

  0
TEXT
  5
4E8
  8
SIZE
  6
CONTINUOUS
 10
848.998328
 20
-51.630207
 30
0.0
 40
2.8
  1
1
 50
90.00000499999999
 41
0.7
  7
STANDARD1
  0
LINE
  5
4E9
  8
SIZE
  6
CONTINUOUS
 10
400.998322
 20
-0.008922
 30
0.0
 11
851.998352
 21
-0.008922
 31
0.0
  0
LINE
  5
4EA
  8
SIZE
  6
CONTINUOUS
 10
20.998331
 20
-0.708922
 30
0.0
 11
851.998352
 21
-0.708922
 31
0.0
  0
LINE
  5
4EB
  8
SIZE
  6
CONTINUOUS
 10
849.998352
 20
4.991078
 30
0.0
 11
849.998352
 21
-53.030209
 31
0.0
  0
INSERT
  5
4EC
  8
SIZE
  2
DOT
 10
849.998352
 20
-0.008922
 30
0.0
 50
90.0
  0
INSERT
  5
4ED
  8
SIZE
  2
DOT
 10
849.998352
 20
-0.708922
 30
0.0
 50
270.0
  0
POINT
  5
4EE
  8
DEFPOINTS
  6
BYBLOCK
 10
19.998331
 20
-0.708922
 30
0.0
  0
POINT
  5
4EF
  8
DEFPOINTS
  6
BYBLOCK
 10
399.998322
 20
-0.008922
 30
0.0
  0
POINT
  5
4F0
  8
DEFPOINTS
  6
BYBLOCK
 10
849.998352
 20
-0.008922
 30
0.0
  0
ENDBLK
  5
4F1
  8
SIZE
  0
BLOCK
  8
SIZE
  2
*D22
 70
     1
 10
0.0
 20
0.0
 30
0.0
  3
*D22
  1

  0
TEXT
  5
4F4
  8
SIZE
  6
CONTINUOUS
 10
-801.001672
 20
60.876824
 30
0.0
 40
2.8
  1
100
 50
90.00000499999999
 41
0.7
  7
STANDARD1
  0
LINE
  5
4F5
  8
SIZE
  6
CONTINUOUS
 10
-551.001648
 20
99.991081
 30
0.0
 11
-802.001648
 21
99.991081
 31
0.0
  0
LINE
  5
4F6
  8
SIZE
  6
CONTINUOUS
 10
-551.001648
 20
-0.008922
 30
0.0
 11
-802.001648
 21
-0.008922
 31
0.0
  0
LINE
  5
4F7
  8
SIZE
  6
CONTINUOUS
 10
-800.001648
 20
99.991081
 30
0.0
 11
-800.001648
 21
-0.008922
 31
0.0
  0
INSERT
  5
4F8
  8
SIZE
  2
DOT
 10
-800.001648
 20
99.991081
 30
0.0
 50
90.0
  0
INSERT
  5
4F9
  8
SIZE
  2
DOT
 10
-800.001648
 20
-0.008922
 30
0.0
 50
270.0
  0
POINT
  5
4FA
  8
DEFPOINTS
  6
BYBLOCK
 10
-550.001648
 20
-0.008922
 30
0.0
  0
POINT
  5
4FB
  8
DEFPOINTS
  6
BYBLOCK
 10
-550.001648
 20
99.991081
 30
0.0
  0
POINT
  5
4FC
  8
DEFPOINTS
  6
BYBLOCK
 10
-800.001648
 20
99.991081
 30
0.0
  0
ENDBLK
  5
4FD
  8
SIZE
  0
BLOCK
  8
SIZE
  2
*D23
 70
     1
 10
0.0
 20
0.0
 30
0.0
  3
*D23
  1

  0
TEXT
  5
500
  8
SIZE
  6
CONTINUOUS
 10
-801.001672
 20
-145.448929
 30
0.0
 40
2.8
  1
285
 50
90.00000499999999
 41
0.7
  7
STANDARD1
  0
LINE
  5
501
  8
SIZE
  6
CONTINUOUS
 10
-551.001648
 20
-0.008922
 30
0.0
 11
-802.001648
 21
-0.008922
 31
0.0
  0
LINE
  5
502
  8
SIZE
  6
CONTINUOUS
 10
-551.001648
 20
-285.008911
 30
0.0
 11
-802.001648
 21
-285.008911
 31
0.0
  0
LINE
  5
503
  8
SIZE
  6
CONTINUOUS
 10
-800.001648
 20
-0.008922
 30
0.0
 11
-800.001648
 21
-285.008911
 31
0.0
  0
INSERT
  5
504
  8
SIZE
  2
DOT
 10
-800.001648
 20
-0.008922
 30
0.0
 50
90.0
  0
INSERT
  5
505
  8
SIZE
  2
DOT
 10
-800.001648
 20
-285.008911
 30
0.0
 50
270.0
  0
POINT
  5
506
  8
DEFPOINTS
  6
BYBLOCK
 10
-550.001648
 20
-285.008911
 30
0.0
  0
POINT
  5
507
  8
DEFPOINTS
  6
BYBLOCK
 10
-550.001648
 20
-0.008922
 30
0.0
  0
POINT
  5
508
  8
DEFPOINTS
  6
BYBLOCK
 10
-800.001648
 20
-0.008922
 30
0.0
  0
ENDBLK
  5
509
  8
SIZE
  0
BLOCK
  8
SIZE
  2
*D24
 70
     1
 10
0.0
 20
0.0
 30
0.0
  3
*D24
  1

  0
TEXT
  5
50C
  8
SIZE
  6
CONTINUOUS
 10
1048.998267
 20
54.478573
 30
0.0
 40
2.8
  1
16
 50
90.00000499999999
 41
0.7
  7
STANDARD1
  0
LINE
  5
50D
  8
SIZE
  6
CONTINUOUS
 10
310.998322
 20
15.991078
 30
0.0
 11
1051.998291
 21
15.991078
 31
0.0
  0
LINE
  5
50E
  8
SIZE
  6
CONTINUOUS
 10
400.998322
 20
-0.008922
 30
0.0
 11
1051.998291
 21
-0.008922
 31
0.0
  0
LINE
  5
50F
  8
SIZE
  6
CONTINUOUS
 10
1049.998291
 20
59.798573
 30
0.0
 11
1049.998291
 21
-5.008922
 31
0.0
  0
INSERT
  5
510
  8
SIZE
  2
DOT
 10
1049.998291
 20
15.991078
 30
0.0
 50
90.0
  0
INSERT
  5
511
  8
SIZE
  2
DOT
 10
1049.998291
 20
-0.008922
 30
0.0
 50
270.0
  0
POINT
  5
512
  8
DEFPOINTS
  6
BYBLOCK
 10
399.998322
 20
-0.008922
 30
0.0
  0
POINT
  5
513
  8
DEFPOINTS
  6
BYBLOCK
 10
309.998322
 20
15.991078
 30
0.0
  0
POINT
  5
514
  8
DEFPOINTS
  6
BYBLOCK
 10
1049.998291
 20
15.991078
 30
0.0
  0
ENDBLK
  5
515
  8
SIZE
  0
BLOCK
  8
SIZE
  2
*D25
 70
     1
 10
0.0
 20
0.0
 30
0.0
  3
*D25
  1

  0
TEXT
  5
518
  8
SIZE
  6
CONTINUOUS
 10
948.998328
 20
48.726711
 30
0.0
 40
2.8
  1
10
 50
90.00000499999999
 41
0.7
  7
STANDARD1
  0
LINE
  5
519
  8
SIZE
  6
CONTINUOUS
 10
270.998322
 20
9.991078
 30
0.0
 11
951.998352
 21
9.991078
 31
0.0
  0
LINE
  5
51A
  8
SIZE
  6
CONTINUOUS
 10
400.998322
 20
-0.008922
 30
0.0
 11
951.998352
 21
-0.008922
 31
0.0
  0
LINE
  5
51B
  8
SIZE
  6
CONTINUOUS
 10
949.998352
 20
54.046711
 30
0.0
 11
949.998352
 21
-5.008922
 31
0.0
  0
INSERT
  5
51C
  8
SIZE
  2
DOT
 10
949.998352
 20
9.991078
 30
0.0
 50
90.0
  0
INSERT
  5
51D
  8
SIZE
  2
DOT
 10
949.998352
 20
-0.008922
 30
0.0
 50
270.0
  0
POINT
  5
51E
  8
DEFPOINTS
  6
BYBLOCK
 10
399.998322
 20
-0.008922
 30
0.0
  0
POINT
  5
51F
  8
DEFPOINTS
  6
BYBLOCK
 10
269.998322
 20
9.991078
 30
0.0
  0
POINT
  5
520
  8
DEFPOINTS
  6
BYBLOCK
 10
949.998352
 20
9.991078
 30
0.0
  0
ENDBLK
  5
521
  8
SIZE
  0
BLOCK
  8
SIZE
  2
*D26
 70
     1
 10
0.0
 20
0.0
 30
0.0
  3
*D26
  1

  0
TEXT
  5
524
  8
SIZE
  6
CONTINUOUS
 10
-651.001672
 20
58.091099
 30
0.0
 40
2.8
  1
28
 50
90.00000499999999
 41
0.7
  7
STANDARD1
  0
LINE
  5
525
  8
SIZE
  6
CONTINUOUS
 10
-263.501678
 20
27.991077
 30
0.0
 11
-652.001648
 21
27.991077
 31
0.0
  0
LINE
  5
526
  8
SIZE
  6
CONTINUOUS
 10
-551.001648
 20
-0.008922
 30
0.0
 11
-652.001648
 21
-0.008922
 31
0.0
  0
LINE
  5
527
  8
SIZE
  6
CONTINUOUS
 10
-650.001648
 20
63.411098
 30
0.0
 11
-650.001648
 21
-5.008922
 31
0.0
  0
INSERT
  5
528
  8
SIZE
  2
DOT
 10
-650.001648
 20
27.991077
 30
0.0
 50
90.0
  0
INSERT
  5
529
  8
SIZE
  2
DOT
 10
-650.001648
 20
-0.008922
 30
0.0
 50
270.0
  0
POINT
  5
52A
  8
DEFPOINTS
  6
BYBLOCK
 10
-550.001648
 20
-0.008922
 30
0.0
  0
POINT
  5
52B
  8
DEFPOINTS
  6
BYBLOCK
 10
-262.501678
 20
27.991077
 30
0.0
  0
POINT
  5
52C
  8
DEFPOINTS
  6
BYBLOCK
 10
-650.001648
 20
27.991077
 30
0.0
  0
ENDBLK
  5
52D
  8
SIZE
  0
BLOCK
  8
0
  2
_ORIGIN
 70
     0
 10
0.0
 20
0.0
 30
0.0
  3
_ORIGIN
  1

  0
CIRCLE
  5
530
  8
0
  6
BYBLOCK
 62
     0
 10
0.0
 20
0.0
 30
0.0
 40
0.5
  0
LINE
  5
531
  8
0
  6
BYBLOCK
 62
     0
 10
0.0
 20
0.0
 30
0.0
 11
-1.0
 21
0.0
 31
0.0
  0
ENDBLK
  5
532
  8
0
  0
BLOCK
  8
0
  2
*D28
 70
     1
 10
0.0
 20
0.0
 30
0.0
  3
*D28
  1

  0
LINE
  5
535
  8
0
  6
BYBLOCK
 62
     0
 10
-560.001648
 20
-0.008922
 30
0.0
 11
-664.901648
 21
-0.008922
 31
0.0
  0
LINE
  5
536
  8
0
  6
BYBLOCK
 62
     0
 10
-272.501678
 20
27.991077
 30
0.0
 11
-664.901648
 21
27.991077
 31
0.0
  0
LINE
  5
537
  8
0
  6
BYBLOCK
 62
     0
 10
-652.401648
 20
-10.008922
 30
0.0
 11
-652.401648
 21
-20.008922
 31
0.0
  0
LINE
  5
538
  8
0
  6
BYBLOCK
 62
     0
 10
-652.401648
 20
37.991077
 30
0.0
 11
-652.401648
 21
117.991077
 31
0.0
  0
LINE
  5
539
  8
0
  6
BYBLOCK
 62
     0
 10
-652.401648
 20
-0.008922
 30
0.0
 11
-652.401648
 21
27.991077
 31
0.0
  0
INSERT
  5
53A
  8
0
  6
BYBLOCK
 62
     0
  2
_ORIGIN
 10
-652.401648
 20
-0.008922
 30
0.0
 41
10.0
 42
10.0
 43
10.0
 50
90.0
  0
INSERT
  5
53B
  8
0
  6
BYBLOCK
 62
     0
  2
_ORIGIN
 10
-652.401648
 20
27.991077
 30
0.0
 41
10.0
 42
10.0
 43
10.0
 50
270.0
  0
TEXT
  5
53C
  8
0
  6
BYBLOCK
 62
     0
 10
-662.401648
 20
52.991077
 30
0.0
 40
30.0
  1
28
 50
90.0
 72
     1
 11
-662.401648
 21
82.991077
 31
0.0
  0
POINT
  5
53D
  8
DEFPOINTS
  6
BYBLOCK
 62
     0
 10
-550.001648
 20
-0.008922
 30
0.0
  0
POINT
  5
53E
  8
DEFPOINTS
  6
BYBLOCK
 62
     0
 10
-262.501678
 20
27.991077
 30
0.0
  0
POINT
  5
53F
  8
DEFPOINTS
  6
BYBLOCK
 62
     0
 10
-652.401648
 20
27.991077
 30
0.0
  0
ENDBLK
  5
540
  8
0
  0
BLOCK
  8
0
  2
*D29
 70
     1
 10
0.0
 20
0.0
 30
0.0
  3
*D29
  1

  0
LINE
  5
543
  8
0
  6
BYBLOCK
 62
     0
 10
409.998322
 20
-0.008922
 30
0.0
 11
960.098352
 21
-0.008922
 31
0.0
  0
LINE
  5
544
  8
0
  6
BYBLOCK
 62
     0
 10
279.998322
 20
9.991078
 30
0.0
 11
960.098352
 21
9.991078
 31
0.0
  0
LINE
  5
545
  8
0
  6
BYBLOCK
 62
     0
 10
947.598352
 20
-10.008922
 30
0.0
 11
947.598352
 21
-20.008922
 31
0.0
  0
LINE
  5
546
  8
0
  6
BYBLOCK
 62
     0
 10
947.598352
 20
19.991078
 30
0.0
 11
947.598352
 21
84.991078
 31
0.0
  0
LINE
  5
547
  8
0
  6
BYBLOCK
 62
     0
 10
947.598352
 20
-0.008922
 30
0.0
 11
947.598352
 21
9.991078
 31
0.0
  0
INSERT
  5
548
  8
0
  6
BYBLOCK
 62
     0
  2
_ORIGIN
 10
947.598352
 20
-0.008922
 30
0.0
 41
10.0
 42
10.0
 43
10.0
 50
90.0
  0
INSERT
  5
549
  8
0
  6
BYBLOCK
 62
     0
  2
_ORIGIN
 10
947.598352
 20
9.991078
 30
0.0
 41
10.0
 42
10.0
 43
10.0
 50
270.0
  0
TEXT
  5
54A
  8
0
  6
BYBLOCK
 62
     0
 10
937.598352
 20
35.291078
 30
0.0
 40
30.0
  1
10
 50
90.0
 72
     1
 11
937.598352
 21
57.491078
 31
0.0
  0
POINT
  5
54B
  8
DEFPOINTS
  6
BYBLOCK
 62
     0
 10
399.998322
 20
-0.008922
 30
0.0
  0
POINT
  5
54C
  8
DEFPOINTS
  6
BYBLOCK
 62
     0
 10
269.998322
 20
9.991078
 30
0.0
  0
POINT
  5
54D
  8
DEFPOINTS
  6
BYBLOCK
 62
     0
 10
947.598352
 20
9.991078
 30
0.0
  0
ENDBLK
  5
54E
  8
0
  0
BLOCK
  8
0
  2
*D30
 70
     1
 10
0.0
 20
0.0
 30
0.0
  3
*D30
  1

  0
LINE
  5
551
  8
0
  6
BYBLOCK
 62
     0
 10
409.998322
 20
-0.008922
 30
0.0
 11
1060.098291
 21
-0.008922
 31
0.0
  0
LINE
  5
552
  8
0
  6
BYBLOCK
 62
     0
 10
319.998322
 20
15.991078
 30
0.0
 11
1060.098291
 21
15.991078
 31
0.0
  0
LINE
  5
553
  8
0
  6
BYBLOCK
 62
     0
 10
1047.598291
 20
-10.008922
 30
0.0
 11
1047.598291
 21
-20.008922
 31
0.0
  0
LINE
  5
554
  8
0
  6
BYBLOCK
 62
     0
 10
1047.598291
 20
25.991078
 30
0.0
 11
1047.598291
 21
95.991078
 31
0.0
  0
LINE
  5
555
  8
0
  6
BYBLOCK
 62
     0
 10
1047.598291
 20
-0.008922
 30
0.0
 11
1047.598291
 21
15.991078
 31
0.0
  0
INSERT
  5
556
  8
0
  6
BYBLOCK
 62
     0
  2
_ORIGIN
 10
1047.598291
 20
-0.008922
 30
0.0
 41
10.0
 42
10.0
 43
10.0
 50
90.0
  0
INSERT
  5
557
  8
0
  6
BYBLOCK
 62
     0
  2
_ORIGIN
 10
1047.598291
 20
15.991078
 30
0.0
 41
10.0
 42
10.0
 43
10.0
 50
270.0
  0
TEXT
  5
558
  8
0
  6
BYBLOCK
 62
     0
 10
1037.598291
 20
41.241078
 30
0.0
 40
30.0
  1
16
 50
90.0
 72
     1
 11
1037.598291
 21
65.991078
 31
0.0
  0
POINT
  5
559
  8
DEFPOINTS
  6
BYBLOCK
 62
     0
 10
399.998322
 20
-0.008922
 30
0.0
  0
POINT
  5
55A
  8
DEFPOINTS
  6
BYBLOCK
 62
     0
 10
309.998322
 20
15.991078
 30
0.0
  0
POINT
  5
55B
  8
DEFPOINTS
  6
BYBLOCK
 62
     0
 10
1047.598291
 20
15.991078
 30
0.0
  0
ENDBLK
  5
55C
  8
0
  0
BLOCK
  8
0
  2
*D31
 70
     1
 10
0.0
 20
0.0
 30
0.0
  3
*D31
  1

  0
LINE
  5
55F
  8
0
  6
BYBLOCK
 62
     0
 10
-560.001648
 20
-285.008911
 30
0.0
 11
-814.901648
 21
-285.008911
 31
0.0
  0
LINE
  5
560
  8
0
  6
BYBLOCK
 62
     0
 10
-560.001648
 20
-0.008922
 30
0.0
 11
-814.901648
 21
-0.008922
 31
0.0
  0
LINE
  5
561
  8
0
  6
BYBLOCK
 62
     0
 10
-802.401648
 20
-275.008911
 30
0.0
 11
-802.401648
 21
-10.008922
 31
0.0
  0
INSERT
  5
562
  8
0
  6
BYBLOCK
 62
     0
  2
_ORIGIN
 10
-802.401648
 20
-285.008911
 30
0.0
 41
10.0
 42
10.0
 43
10.0
 50
270.0
  0
INSERT
  5
563
  8
0
  6
BYBLOCK
 62
     0
  2
_ORIGIN
 10
-802.401648
 20
-0.008922
 30
0.0
 41
10.0
 42
10.0
 43
10.0
 50
90.0
  0
TEXT
  5
564
  8
0
  6
BYBLOCK
 62
     0
 10
-812.401648
 20
-187.508927
 30
0.0
 40
30.0
  1
285
 50
90.0
 72
     1
 11
-812.401648
 21
-142.508927
 31
0.0
  0
POINT
  5
565
  8
DEFPOINTS
  6
BYBLOCK
 62
     0
 10
-550.001648
 20
-285.008911
 30
0.0
  0
POINT
  5
566
  8
DEFPOINTS
  6
BYBLOCK
 62
     0
 10
-550.001648
 20
-0.008922
 30
0.0
  0
POINT
  5
567
  8
DEFPOINTS
  6
BYBLOCK
 62
     0
 10
-802.401648
 20
-0.008922
 30
0.0
  0
ENDBLK
  5
568
  8
0
  0
BLOCK
  8
0
  2
*D32
 70
     1
 10
0.0
 20
0.0
 30
0.0
  3
*D32
  1

  0
LINE
  5
56B
  8
0
  6
BYBLOCK
 62
     0
 10
-560.001648
 20
-0.008922
 30
0.0
 11
-814.901648
 21
-0.008922
 31
0.0
  0
LINE
  5
56C
  8
0
  6
BYBLOCK
 62
     0
 10
-560.001648
 20
99.991081
 30
0.0
 11
-814.901648
 21
99.991081
 31
0.0
  0
LINE
  5
56D
  8
0
  6
BYBLOCK
 62
     0
 10
-802.401648
 20
9.991078
 30
0.0
 11
-802.401648
 21
89.991081
 31
0.0
  0
INSERT
  5
56E
  8
0
  6
BYBLOCK
 62
     0
  2
_ORIGIN
 10
-802.401648
 20
-0.008922
 30
0.0
 41
10.0
 42
10.0
 43
10.0
 50
270.0
  0
INSERT
  5
56F
  8
0
  6
BYBLOCK
 62
     0
  2
_ORIGIN
 10
-802.401648
 20
99.991081
 30
0.0
 41
10.0
 42
10.0
 43
10.0
 50
90.0
  0
TEXT
  5
570
  8
0
  6
BYBLOCK
 62
     0
 10
-812.401648
 20
15.341081
 30
0.0
 40
30.0
  1
100
 50
90.0
 72
     1
 11
-812.401648
 21
49.991081
 31
0.0
  0
POINT
  5
571
  8
DEFPOINTS
  6
BYBLOCK
 62
     0
 10
-550.001648
 20
-0.008922
 30
0.0
  0
POINT
  5
572
  8
DEFPOINTS
  6
BYBLOCK
 62
     0
 10
-550.001648
 20
99.991081
 30
0.0
  0
POINT
  5
573
  8
DEFPOINTS
  6
BYBLOCK
 62
     0
 10
-802.401648
 20
99.991081
 30
0.0
  0
ENDBLK
  5
574
  8
0
  0
BLOCK
  8
0
  2
*D33
 70
     1
 10
0.0
 20
0.0
 30
0.0
  3
*D33
  1

  0
LINE
  5
577
  8
0
  6
BYBLOCK
 62
     0
 10
29.998331
 20
-0.708922
 30
0.0
 11
860.098352
 21
-0.708922
 31
0.0
  0
LINE
  5
578
  8
0
  6
BYBLOCK
 62
     0
 10
409.998322
 20
-0.008922
 30
0.0
 11
860.098352
 21
-0.008922
 31
0.0
  0
LINE
  5
579
  8
0
  6
BYBLOCK
 62
     0
 10
847.598352
 20
9.991078
 30
0.0
 11
847.598352
 21
19.991078
 31
0.0
  0
LINE
  5
57A
  8
0
  6
BYBLOCK
 62
     0
 10
847.598352
 20
-10.708922
 30
0.0
 11
847.598352
 21
-65.650208
 31
0.0
  0
LINE
  5
57B
  8
0
  6
BYBLOCK
 62
     0
 10
847.598352
 20
-0.008922
 30
0.0
 11
847.598352
 21
-0.708922
 31
0.0
  0
INSERT
  5
57C
  8
0
  6
BYBLOCK
 62
     0
  2
_ORIGIN
 10
847.598352
 20
-0.008922
 30
0.0
 41
10.0
 42
10.0
 43
10.0
 50
270.0
  0
INSERT
  5
57D
  8
0
  6
BYBLOCK
 62
     0
  2
_ORIGIN
 10
847.598352
 20
-0.708922
 30
0.0
 41
10.0
 42
10.0
 43
10.0
 50
90.0
  0
TEXT
  5
57E
  8
0
  6
BYBLOCK
 62
     0
 10
837.598352
 20
-60.400208
 30
0.0
 40
30.0
  1
1
 50
90.0
 72
     1
 11
837.598352
 21
-50.650208
 31
0.0
  0
POINT
  5
57F
  8
DEFPOINTS
  6
BYBLOCK
 62
     0
 10
19.998331
 20
-0.708922
 30
0.0
  0
POINT
  5
580
  8
DEFPOINTS
  6
BYBLOCK
 62
     0
 10
399.998322
 20
-0.008922
 30
0.0
  0
POINT
  5
581
  8
DEFPOINTS
  6
BYBLOCK
 62
     0
 10
847.598352
 20
-0.008922
 30
0.0
  0
ENDBLK
  5
582
  8
0
  0
BLOCK
  8
0
  2
*D34
 70
     1
 10
0.0
 20
0.0
 30
0.0
  3
*D34
  1

  0
LINE
  5
585
  8
0
  6
BYBLOCK
 62
     0
 10
399.998322
 20
109.991081
 30
0.0
 11
399.998322
 21
464.891089
 31
0.0
  0
LINE
  5
586
  8
0
  6
BYBLOCK
 62
     0
 10
-400.001678
 20
9.991078
 30
0.0
 11
-400.001678
 21
464.891089
 31
0.0
  0
LINE
  5
587
  8
0
  6
BYBLOCK
 62
     0
 10
389.998322
 20
452.391089
 30
0.0
 11
-390.001678
 21
452.391089
 31
0.0
  0
INSERT
  5
588
  8
0
  6
BYBLOCK
 62
     0
  2
_ORIGIN
 10
399.998322
 20
452.391089
 30
0.0
 41
10.0
 42
10.0
 43
10.0
  0
INSERT
  5
589
  8
0
  6
BYBLOCK
 62
     0
  2
_ORIGIN
 10
-400.001678
 20
452.391089
 30
0.0
 41
10.0
 42
10.0
 43
10.0
 50
180.0
  0
TEXT
  5
58A
  8
0
  6
BYBLOCK
 62
     0
 10
-39.90167
 20
462.391089
 30
0.0
 40
30.0
  1
800
 72
     1
 11
-0.00167
 21
462.391089
 31
0.0
  0
POINT
  5
58B
  8
DEFPOINTS
  6
BYBLOCK
 62
     0
 10
399.998322
 20
99.991081
 30
0.0
  0
POINT
  5
58C
  8
DEFPOINTS
  6
BYBLOCK
 62
     0
 10
-400.001678
 20
-0.008922
 30
0.0
  0
POINT
  5
58D
  8
DEFPOINTS
  6
BYBLOCK
 62
     0
 10
-400.001678
 20
452.391089
 30
0.0
  0
ENDBLK
  5
58E
  8
0
  0
BLOCK
  8
0
  2
*D35
 70
     1
 10
0.0
 20
0.0
 30
0.0
  3
*D35
  1

  0
LINE
  5
591
  8
0
  6
BYBLOCK
 62
     0
 10
-550.001648
 20
109.991081
 30
0.0
 11
-550.001648
 21
614.891089
 31
0.0
  0
LINE
  5
592
  8
0
  6
BYBLOCK
 62
     0
 10
399.998322
 20
109.991081
 30
0.0
 11
399.998322
 21
614.891089
 31
0.0
  0
LINE
  5
593
  8
0
  6
BYBLOCK
 62
     0
 10
-540.001648
 20
602.391089
 30
0.0
 11
389.998322
 21
602.391089
 31
0.0
  0
INSERT
  5
594
  8
0
  6
BYBLOCK
 62
     0
  2
_ORIGIN
 10
-550.001648
 20
602.391089
 30
0.0
 41
10.0
 42
10.0
 43
10.0
 50
180.0
  0
INSERT
  5
595
  8
0
  6
BYBLOCK
 62
     0
  2
_ORIGIN
 10
399.998322
 20
602.391089
 30
0.0
 41
10.0
 42
10.0
 43
10.0
  0
TEXT
  5
596
  8
0
  6
BYBLOCK
 62
     0
 10
-117.451671
 20
612.391089
 30
0.0
 40
30.0
  1
950
 72
     1
 11
-75.001671
 21
612.391089
 31
0.0
  0
POINT
  5
597
  8
DEFPOINTS
  6
BYBLOCK
 62
     0
 10
-550.001648
 20
99.991081
 30
0.0
  0
POINT
  5
598
  8
DEFPOINTS
  6
BYBLOCK
 62
     0
 10
399.998322
 20
99.991081
 30
0.0
  0
POINT
  5
599
  8
DEFPOINTS
  6
BYBLOCK
 62
     0
 10
399.998322
 20
602.391089
 30
0.0
  0
ENDBLK
  5
59A
  8
0
  0
BLOCK
  8
0
  2
*D36
 70
     1
 10
0.0
 20
0.0
 30
0.0
  3
*D36
  1

  0
LINE
  5
59D
  8
0
  6
BYBLOCK
 62
     0
 10
249.998337
 20
39.991077
 30
0.0
 11
249.998337
 21
314.891089
 31
0.0
  0
LINE
  5
59E
  8
0
  6
BYBLOCK
 62
     0
 10
-250.001663
 20
39.991077
 30
0.0
 11
-250.001663
 21
314.891089
 31
0.0
  0
LINE
  5
59F
  8
0
  6
BYBLOCK
 62
     0
 10
239.998337
 20
302.391089
 30
0.0
 11
-240.001663
 21
302.391089
 31
0.0
  0
INSERT
  5
5A0
  8
0
  6
BYBLOCK
 62
     0
  2
_ORIGIN
 10
249.998337
 20
302.391089
 30
0.0
 41
10.0
 42
10.0
 43
10.0
  0
INSERT
  5
5A1
  8
0
  6
BYBLOCK
 62
     0
  2
_ORIGIN
 10
-250.001663
 20
302.391089
 30
0.0
 41
10.0
 42
10.0
 43
10.0
 50
180.0
  0
TEXT
  5
5A2
  8
0
  6
BYBLOCK
 62
     0
 10
-39.90167
 20
312.391089
 30
0.0
 40
30.0
  1
500
 72
     1
 11
-0.00167
 21
312.391089
 31
0.0
  0
POINT
  5
5A3
  8
DEFPOINTS
  6
BYBLOCK
 62
     0
 10
249.998337
 20
29.991077
 30
0.0
  0
POINT
  5
5A4
  8
DEFPOINTS
  6
BYBLOCK
 62
     0
 10
-250.001663
 20
29.991077
 30
0.0
  0
POINT
  5
5A5
  8
DEFPOINTS
  6
BYBLOCK
 62
     0
 10
-250.001663
 20
302.391089
 30
0.0
  0
ENDBLK
  5
5A6
  8
0
  0
BLOCK
  8
0
  2
*D37
 70
     1
 10
0.0
 20
0.0
 30
0.0
  3
*D37
  1

  0
LINE
  5
5A9
  8
0
  6
BYBLOCK
 62
     0
 10
-250.001663
 20
39.991077
 30
0.0
 11
-250.001663
 21
314.891089
 31
0.0
  0
LINE
  5
5AA
  8
0
  6
BYBLOCK
 62
     0
 10
-400.001678
 20
9.991078
 30
0.0
 11
-400.001678
 21
314.891089
 31
0.0
  0
LINE
  5
5AB
  8
0
  6
BYBLOCK
 62
     0
 10
-260.001663
 20
302.391089
 30
0.0
 11
-390.001678
 21
302.391089
 31
0.0
  0
INSERT
  5
5AC
  8
0
  6
BYBLOCK
 62
     0
  2
_ORIGIN
 10
-250.001663
 20
302.391089
 30
0.0
 41
10.0
 42
10.0
 43
10.0
  0
INSERT
  5
5AD
  8
0
  6
BYBLOCK
 62
     0
  2
_ORIGIN
 10
-400.001678
 20
302.391089
 30
0.0
 41
10.0
 42
10.0
 43
10.0
 50
180.0
  0
TEXT
  5
5AE
  8
0
  6
BYBLOCK
 62
     0
 10
-362.201679
 20
312.391089
 30
0.0
 40
30.0
  1
150
 72
     1
 11
-325.001679
 21
312.391089
 31
0.0
  0
POINT
  5
5AF
  8
DEFPOINTS
  6
BYBLOCK
 62
     0
 10
-250.001663
 20
29.991077
 30
0.0
  0
POINT
  5
5B0
  8
DEFPOINTS
  6
BYBLOCK
 62
     0
 10
-400.001678
 20
-0.008922
 30
0.0
  0
POINT
  5
5B1
  8
DEFPOINTS
  6
BYBLOCK
 62
     0
 10
-400.001678
 20
302.391089
 30
0.0
  0
ENDBLK
  5
5B2
  8
0
  0
BLOCK
  8
0
  2
*D38
 70
     1
 10
0.0
 20
0.0
 30
0.0
  3
*D38
  1

  0
LINE
  5
5B5
  8
0
  6
BYBLOCK
 62
     0
 10
-400.001678
 20
-135.008926
 30
0.0
 11
-400.001678
 21
464.891089
 31
0.0
  0
LINE
  5
5B6
  8
0
  6
BYBLOCK
 62
     0
 10
-550.001648
 20
109.991081
 30
0.0
 11
-550.001648
 21
464.891089
 31
0.0
  0
LINE
  5
5B7
  8
0
  6
BYBLOCK
 62
     0
 10
-410.001678
 20
452.391089
 30
0.0
 11
-540.001648
 21
452.391089
 31
0.0
  0
INSERT
  5
5B8
  8
0
  6
BYBLOCK
 62
     0
  2
_ORIGIN
 10
-400.001678
 20
452.391089
 30
0.0
 41
10.0
 42
10.0
 43
10.0
  0
INSERT
  5
5B9
  8
0
  6
BYBLOCK
 62
     0
  2
_ORIGIN
 10
-550.001648
 20
452.391089
 30
0.0
 41
10.0
 42
10.0
 43
10.0
 50
180.0
  0
TEXT
  5
5BA
  8
0
  6
BYBLOCK
 62
     0
 10
-512.201679
 20
462.391089
 30
0.0
 40
30.0
  1
150
 72
     1
 11
-475.001679
 21
462.391089
 31
0.0
  0
POINT
  5
5BB
  8
DEFPOINTS
  6
BYBLOCK
 62
     0
 10
-400.001678
 20
-145.008926
 30
0.0
  0
POINT
  5
5BC
  8
DEFPOINTS
  6
BYBLOCK
 62
     0
 10
-550.001648
 20
99.991081
 30
0.0
  0
POINT
  5
5BD
  8
DEFPOINTS
  6
BYBLOCK
 62
     0
 10
-550.001648
 20
452.391089
 30
0.0
  0
ENDBLK
  5
5BE
  8
0
  0
BLOCK
  8
0
  2
*D39
 70
     1
 10
0.0
 20
0.0
 30
0.0
  3
*D39
  1

  0
LINE
  5
5C1
  8
0
  6
BYBLOCK
 62
     0
 10
-95.001671
 20
-305.008911
 30
0.0
 11
160.098337
 21
-305.008911
 31
0.0
  0
LINE
  5
5C2
  8
0
  6
BYBLOCK
 62
     0
 10
389.998322
 20
-285.008911
 30
0.0
 11
135.098337
 21
-285.008911
 31
0.0
  0
LINE
  5
5C3
  8
0
  6
BYBLOCK
 62
     0
 10
147.598337
 20
-275.008911
 30
0.0
 11
147.598337
 21
-265.008911
 31
0.0
  0
LINE
  5
5C4
  8
0
  6
BYBLOCK
 62
     0
 10
147.598337
 20
-315.008911
 30
0.0
 11
147.598337
 21
-527.60315
 31
0.0
  0
LINE
  5
5C5
  8
0
  6
BYBLOCK
 62
     0
 10
147.598337
 20
-285.008911
 30
0.0
 11
147.598337
 21
-305.008911
 31
0.0
  0
INSERT
  5
5C6
  8
0
  6
BYBLOCK
 62
     0
  2
_ORIGIN
 10
147.598337
 20
-285.008911
 30
0.0
 41
10.0
 42
10.0
 43
10.0
 50
270.0
  0
INSERT
  5
5C7
  8
0
  6
BYBLOCK
 62
     0
  2
_ORIGIN
 10
147.598337
 20
-305.008911
 30
0.0
 41
10.0
 42
10.0
 43
10.0
 50
90.0
  0
TEXT
  5
5C8
  8
0
  6
BYBLOCK
 62
     0
 10
137.598337
 20
-522.55315
 30
0.0
 40
30.0
  1
20
 50
90.0
 72
     1
 11
137.598337
 21
-495.10315
 31
0.0
  0
POINT
  5
5C9
  8
DEFPOINTS
  6
BYBLOCK
 62
     0
 10
-105.001671
 20
-305.008911
 30
0.0
  0
POINT
  5
5CA
  8
DEFPOINTS
  6
BYBLOCK
 62
     0
 10
399.998322
 20
-285.008911
 30
0.0
  0
POINT
  5
5CB
  8
DEFPOINTS
  6
BYBLOCK
 62
     0
 10
147.598337
 20
-285.008911
 30
0.0
  0
ENDBLK
  5
5CC
  8
0
  0
BLOCK
  8
0
  2
*D40
 70
     1
 10
0.0
 20
0.0
 30
0.0
  3
*D40
  1

  0
LINE
  5
5CF
  8
0
  6
BYBLOCK
 62
     0
 10
-270.001678
 20
-317.008911
 30
0.0
 11
-1014.901648
 21
-317.008911
 31
0.0
  0
LINE
  5
5D0
  8
0
  6
BYBLOCK
 62
     0
 10
-272.501678
 20
27.991077
 30
0.0
 11
-1014.901648
 21
27.991077
 31
0.0
  0
LINE
  5
5D1
  8
0
  6
BYBLOCK
 62
     0
 10
-1002.401648
 20
-307.008911
 30
0.0
 11
-1002.401648
 21
17.991077
 31
0.0
  0
INSERT
  5
5D2
  8
0
  6
BYBLOCK
 62
     0
  2
_ORIGIN
 10
-1002.401648
 20
-317.008911
 30
0.0
 41
10.0
 42
10.0
 43
10.0
 50
270.0
  0
INSERT
  5
5D3
  8
0
  6
BYBLOCK
 62
     0
  2
_ORIGIN
 10
-1002.401648
 20
27.991077
 30
0.0
 41
10.0
 42
10.0
 43
10.0
 50
90.0
  0
TEXT
  5
5D4
  8
0
  6
BYBLOCK
 62
     0
 10
-1012.401648
 20
-189.508927
 30
0.0
 40
30.0
  1
345
 50
90.0
 72
     1
 11
-1012.401648
 21
-144.508927
 31
0.0
  0
POINT
  5
5D5
  8
DEFPOINTS
  6
BYBLOCK
 62
     0
 10
-260.001678
 20
-317.008911
 30
0.0
  0
POINT
  5
5D6
  8
DEFPOINTS
  6
BYBLOCK
 62
     0
 10
-262.501678
 20
27.991077
 30
0.0
  0
POINT
  5
5D7
  8
DEFPOINTS
  6
BYBLOCK
 62
     0
 10
-1002.401648
 20
27.991077
 30
0.0
  0
ENDBLK
  5
5D8
  8
0
  0
BLOCK
  8
0
  2
*D41
 70
     1
 10
0.0
 20
0.0
 30
0.0
  3
*D41
  1

  0
LINE
  5
5DB
  8
0
  6
BYBLOCK
 62
     0
 10
-400.001678
 20
9.991078
 30
0.0
 11
-400.001678
 21
314.891089
 31
0.0
  0
LINE
  5
5DC
  8
0
  6
BYBLOCK
 62
     0
 10
-416.001678
 20
-64.085167
 30
0.0
 11
-416.001678
 21
314.891089
 31
0.0
  0
LINE
  5
5DD
  8
0
  6
BYBLOCK
 62
     0
 10
-390.001678
 20
302.391089
 30
0.0
 11
-380.001678
 21
302.391089
 31
0.0
  0
LINE
  5
5DE
  8
0
  6
BYBLOCK
 62
     0
 10
-426.001678
 20
302.391089
 30
0.0
 11
-496.001678
 21
302.391089
 31
0.0
  0
LINE
  5
5DF
  8
0
  6
BYBLOCK
 62
     0
 10
-400.001678
 20
302.391089
 30
0.0
 11
-416.001678
 21
302.391089
 31
0.0
  0
INSERT
  5
5E0
  8
0
  6
BYBLOCK
 62
     0
  2
_ORIGIN
 10
-400.001678
 20
302.391089
 30
0.0
 41
10.0
 42
10.0
 43
10.0
 50
180.0
  0
INSERT
  5
5E1
  8
0
  6
BYBLOCK
 62
     0
  2
_ORIGIN
 10
-416.001678
 20
302.391089
 30
0.0
 41
10.0
 42
10.0
 43
10.0
  0
TEXT
  5
5E2
  8
0
  6
BYBLOCK
 62
     0
 10
-490.751678
 20
312.391089
 30
0.0
 40
30.0
  1
16
 72
     1
 11
-466.001678
 21
312.391089
 31
0.0
  0
POINT
  5
5E3
  8
DEFPOINTS
  6
BYBLOCK
 62
     0
 10
-400.001678
 20
-0.008922
 30
0.0
  0
POINT
  5
5E4
  8
DEFPOINTS
  6
BYBLOCK
 62
     0
 10
-416.001678
 20
-74.085167
 30
0.0
  0
POINT
  5
5E5
  8
DEFPOINTS
  6
BYBLOCK
 62
     0
 10
-416.001678
 20
302.391089
 30
0.0
  0
ENDBLK
  5
5E6
  8
0
  0
BLOCK
  8
0
  2
*D42
 70
     1
 10
0.0
 20
0.0
 30
0.0
  3
*D42
  1

  0
LINE
  5
5E9
  8
0
  6
BYBLOCK
 62
     0
 10
229.998337
 20
-317.008911
 30
0.0
 11
229.998337
 21
-560.108911
 31
0.0
  0
LINE
  5
5EA
  8
0
  6
BYBLOCK
 62
     0
 10
269.998322
 20
-317.008911
 30
0.0
 11
269.998322
 21
-560.108911
 31
0.0
  0
LINE
  5
5EB
  8
0
  6
BYBLOCK
 62
     0
 10
219.998337
 20
-547.608911
 30
0.0
 11
209.998337
 21
-547.608911
 31
0.0
  0
LINE
  5
5EC
  8
0
  6
BYBLOCK
 62
     0
 10
279.998322
 20
-547.608911
 30
0.0
 11
289.998322
 21
-547.608911
 31
0.0
  0
LINE
  5
5ED
  8
0
  6
BYBLOCK
 62
     0
 10
229.998337
 20
-547.608911
 30
0.0
 11
269.998322
 21
-547.608911
 31
0.0
  0
INSERT
  5
5EE
  8
0
  6
BYBLOCK
 62
     0
  2
_ORIGIN
 10
229.998337
 20
-547.608911
 30
0.0
 41
10.0
 42
10.0
 43
10.0
  0
INSERT
  5
5EF
  8
0
  6
BYBLOCK
 62
     0
  2
_ORIGIN
 10
269.998322
 20
-547.608911
 30
0.0
 41
10.0
 42
10.0
 43
10.0
 50
180.0
  0
TEXT
  5
5F0
  8
0
  6
BYBLOCK
 62
     0
 10
222.548329
 20
-537.608911
 30
0.0
 40
30.0
  1
40
 72
     1
 11
249.998329
 21
-537.608911
 31
0.0
  0
POINT
  5
5F1
  8
DEFPOINTS
  6
BYBLOCK
 62
     0
 10
229.998337
 20
-307.008911
 30
0.0
  0
POINT
  5
5F2
  8
DEFPOINTS
  6
BYBLOCK
 62
     0
 10
269.998322
 20
-307.008911
 30
0.0
  0
POINT
  5
5F3
  8
DEFPOINTS
  6
BYBLOCK
 62
     0
 10
269.998322
 20
-547.608911
 30
0.0
  0
ENDBLK
  5
5F4
  8
0
  0
BLOCK
  8
0
  2
*D43
 70
     1
 10
0.0
 20
0.0
 30
0.0
  3
*D43
  1

  0
LINE
  5
5F7
  8
0
  6
BYBLOCK
 62
     0
 10
-280.001678
 20
-305.008911
 30
0.0
 11
-914.901648
 21
-305.008911
 31
0.0
  0
LINE
  5
5F8
  8
0
  6
BYBLOCK
 62
     0
 10
-280.001678
 20
9.991077
 30
0.0
 11
-914.901648
 21
9.991077
 31
0.0
  0
LINE
  5
5F9
  8
0
  6
BYBLOCK
 62
     0
 10
-902.401648
 20
-295.008911
 30
0.0
 11
-902.401648
 21
-0.008923
 31
0.0
  0
INSERT
  5
5FA
  8
0
  6
BYBLOCK
 62
     0
  2
_ORIGIN
 10
-902.401648
 20
-305.008911
 30
0.0
 41
10.0
 42
10.0
 43
10.0
 50
270.0
  0
INSERT
  5
5FB
  8
0
  6
BYBLOCK
 62
     0
  2
_ORIGIN
 10
-902.401648
 20
9.991077
 30
0.0
 41
10.0
 42
10.0
 43
10.0
 50
90.0
  0
TEXT
  5
5FC
  8
0
  6
BYBLOCK
 62
     0
 10
-912.401648
 20
-187.258927
 30
0.0
 40
30.0
  1
315
 50
90.0
 72
     1
 11
-912.401648
 21
-147.508927
 31
0.0
  0
POINT
  5
5FD
  8
DEFPOINTS
  6
BYBLOCK
 62
     0
 10
-270.001678
 20
-305.008911
 30
0.0
  0
POINT
  5
5FE
  8
DEFPOINTS
  6
BYBLOCK
 62
     0
 10
-270.001678
 20
9.991077
 30
0.0
  0
POINT
  5
5FF
  8
DEFPOINTS
  6
BYBLOCK
 62
     0
 10
-902.401648
 20
9.991077
 30
0.0
  0
ENDBLK
  5
600
  8
0
  0
BLOCK
  8
0
  2
*D44
 70
     1
 10
0.0
 20
0.0
 30
0.0
  3
*D44
  1

  0
LINE
  5
603
  8
0
  6
BYBLOCK
 62
     0
 10
389.998322
 20
-285.008911
 30
0.0
 11
1060.098291
 21
-285.008911
 31
0.0
  0
LINE
  5
604
  8
0
  6
BYBLOCK
 62
     0
 10
389.998322
 20
-0.008923
 30
0.0
 11
1060.098291
 21
-0.008923
 31
0.0
  0
LINE
  5
605
  8
0
  6
BYBLOCK
 62
     0
 10
1047.598291
 20
-275.008911
 30
0.0
 11
1047.598291
 21
-10.008923
 31
0.0
  0
INSERT
  5
606
  8
0
  6
BYBLOCK
 62
     0
  2
_ORIGIN
 10
1047.598291
 20
-285.008911
 30
0.0
 41
10.0
 42
10.0
 43
10.0
 50
270.0
  0
INSERT
  5
607
  8
0
  6
BYBLOCK
 62
     0
  2
_ORIGIN
 10
1047.598291
 20
-0.008923
 30
0.0
 41
10.0
 42
10.0
 43
10.0
 50
90.0
  0
TEXT
  5
608
  8
0
  6
BYBLOCK
 62
     0
 10
1037.598291
 20
-187.508927
 30
0.0
 40
30.0
  1
285
 50
90.0
 72
     1
 11
1037.598291
 21
-142.508927
 31
0.0
  0
POINT
  5
609
  8
DEFPOINTS
  6
BYBLOCK
 62
     0
 10
379.998322
 20
-285.008911
 30
0.0
  0
POINT
  5
60A
  8
DEFPOINTS
  6
BYBLOCK
 62
     0
 10
379.998322
 20
-0.008923
 30
0.0
  0
POINT
  5
60B
  8
DEFPOINTS
  6
BYBLOCK
 62
     0
 10
1047.598291
 20
-0.008923
 30
0.0
  0
ENDBLK
  5
60C
  8
0
  0
BLOCK
  8
0
  2
*D45
 70
     1
 10
0.0
 20
0.0
 30
0.0
  3
*D45
  1

  0
LINE
  5
60F
  8
0
  6
BYBLOCK
 62
     0
 10
399.998322
 20
109.991081
 30
0.0
 11
399.998322
 21
464.891089
 31
0.0
  0
LINE
  5
610
  8
0
  6
BYBLOCK
 62
     0
 10
463.998322
 20
-74.6082
 30
0.0
 11
463.998322
 21
464.891089
 31
0.0
  0
LINE
  5
611
  8
0
  6
BYBLOCK
 62
     0
 10
409.998322
 20
452.391089
 30
0.0
 11
453.998322
 21
452.391089
 31
0.0
  0
INSERT
  5
612
  8
0
  6
BYBLOCK
 62
     0
  2
_ORIGIN
 10
399.998322
 20
452.391089
 30
0.0
 41
10.0
 42
10.0
 43
10.0
 50
180.0
  0
INSERT
  5
613
  8
0
  6
BYBLOCK
 62
     0
  2
_ORIGIN
 10
463.998322
 20
452.391089
 30
0.0
 41
10.0
 42
10.0
 43
10.0
  0
TEXT
  5
614
  8
0
  6
BYBLOCK
 62
     0
 10
401.998322
 20
462.391089
 30
0.0
 40
30.0
  1
64
 72
     1
 11
431.998322
 21
462.391089
 31
0.0
  0
POINT
  5
615
  8
DEFPOINTS
  6
BYBLOCK
 62
     0
 10
399.998322
 20
99.991081
 30
0.0
  0
POINT
  5
616
  8
DEFPOINTS
  6
BYBLOCK
 62
     0
 10
463.998322
 20
-84.6082
 30
0.0
  0
POINT
  5
617
  8
DEFPOINTS
  6
BYBLOCK
 62
     0
 10
463.998322
 20
452.391089
 30
0.0
  0
ENDBLK
  5
618
  8
0
  0
BLOCK
  8
0
  2
*D46
 70
     1
 10
0.0
 20
0.0
 30
0.0
  3
*D46
  1

  0
LINE
  5
61B
  8
0
  6
BYBLOCK
 62
     0
 10
-400.001678
 20
-289.008911
 30
0.0
 11
-400.001678
 21
-560.108911
 31
0.0
  0
LINE
  5
61C
  8
0
  6
BYBLOCK
 62
     0
 10
-105.001671
 20
-365.008911
 30
0.0
 11
-105.001671
 21
-560.108911
 31
0.0
  0
LINE
  5
61D
  8
0
  6
BYBLOCK
 62
     0
 10
-390.001678
 20
-547.608911
 30
0.0
 11
-115.001671
 21
-547.608911
 31
0.0
  0
INSERT
  5
61E
  8
0
  6
BYBLOCK
 62
     0
  2
_ORIGIN
 10
-400.001678
 20
-547.608911
 30
0.0
 41
10.0
 42
10.0
 43
10.0
 50
180.0
  0
INSERT
  5
61F
  8
0
  6
BYBLOCK
 62
     0
  2
_ORIGIN
 10
-105.001671
 20
-547.608911
 30
0.0
 41
10.0
 42
10.0
 43
10.0
  0
TEXT
  5
620
  8
0
  6
BYBLOCK
 62
     0
 10
-297.501663
 20
-537.608911
 30
0.0
 40
30.0
  1
295
 72
     1
 11
-252.501663
 21
-537.608911
 31
0.0
  0
POINT
  5
621
  8
DEFPOINTS
  6
BYBLOCK
 62
     0
 10
-400.001678
 20
-279.008911
 30
0.0
  0
POINT
  5
622
  8
DEFPOINTS
  6
BYBLOCK
 62
     0
 10
-105.001671
 20
-355.008911
 30
0.0
  0
POINT
  5
623
  8
DEFPOINTS
  6
BYBLOCK
 62
     0
 10
-105.001671
 20
-547.608911
 30
0.0
  0
ENDBLK
  5
624
  8
0
  0
BLOCK
  8
0
  2
*D47
 70
     1
 10
0.0
 20
0.0
 30
0.0
  3
*D47
  1

  0
LINE
  5
627
  8
0
  6
BYBLOCK
 62
     0
 10
709.998352
 20
99.991081
 30
0.0
 11
1160.098291
 21
99.991081
 31
0.0
  0
LINE
  5
628
  8
0
  6
BYBLOCK
 62
     0
 10
709.998352
 20
-400.008911
 30
0.0
 11
1160.098291
 21
-400.008911
 31
0.0
  0
LINE
  5
629
  8
0
  6
BYBLOCK
 62
     0
 10
1147.598291
 20
89.991081
 30
0.0
 11
1147.598291
 21
-390.008911
 31
0.0
  0
INSERT
  5
62A
  8
0
  6
BYBLOCK
 62
     0
  2
_ORIGIN
 10
1147.598291
 20
99.991081
 30
0.0
 41
10.0
 42
10.0
 43
10.0
 50
90.0
  0
INSERT
  5
62B
  8
0
  6
BYBLOCK
 62
     0
  2
_ORIGIN
 10
1147.598291
 20
-400.008911
 30
0.0
 41
10.0
 42
10.0
 43
10.0
 50
270.0
  0
TEXT
  5
62C
  8
0
  6
BYBLOCK
 62
     0
 10
1137.598291
 20
-189.908927
 30
0.0
 40
30.0
  1
500
 50
90.0
 72
     1
 11
1137.598291
 21
-150.008927
 31
0.0
  0
POINT
  5
62D
  8
DEFPOINTS
  6
BYBLOCK
 62
     0
 10
699.998352
 20
99.991081
 30
0.0
  0
POINT
  5
62E
  8
DEFPOINTS
  6
BYBLOCK
 62
     0
 10
699.998352
 20
-400.008911
 30
0.0
  0
POINT
  5
62F
  8
DEFPOINTS
  6
BYBLOCK
 62
     0
 10
1147.598291
 20
-400.008911
 30
0.0
  0
ENDBLK
  5
630
  8
0
  0
BLOCK
  8
0
  2
*D48
 70
     1
 10
0.0
 20
0.0
 30
0.0
  3
*D48
  1

  0
LINE
  5
633
  8
0
  6
BYBLOCK
 62
     0
 10
-560.001648
 20
-285.008911
 30
0.0
 11
-814.901648
 21
-285.008911
 31
0.0
  0
LINE
  5
634
  8
0
  6
BYBLOCK
 62
     0
 10
-560.001648
 20
-400.008911
 30
0.0
 11
-814.901648
 21
-400.008911
 31
0.0
  0
LINE
  5
635
  8
0
  6
BYBLOCK
 62
     0
 10
-802.401648
 20
-295.008911
 30
0.0
 11
-802.401648
 21
-390.008911
 31
0.0
  0
INSERT
  5
636
  8
0
  6
BYBLOCK
 62
     0
  2
_ORIGIN
 10
-802.401648
 20
-285.008911
 30
0.0
 41
10.0
 42
10.0
 43
10.0
 50
90.0
  0
INSERT
  5
637
  8
0
  6
BYBLOCK
 62
     0
  2
_ORIGIN
 10
-802.401648
 20
-400.008911
 30
0.0
 41
10.0
 42
10.0
 43
10.0
 50
270.0
  0
TEXT
  5
638
  8
0
  6
BYBLOCK
 62
     0
 10
-812.401648
 20
-384.508911
 30
0.0
 40
30.0
  1
115
 50
90.0
 72
     1
 11
-812.401648
 21
-350.008911
 31
0.0
  0
POINT
  5
639
  8
DEFPOINTS
  6
BYBLOCK
 62
     0
 10
-550.001648
 20
-285.008911
 30
0.0
  0
POINT
  5
63A
  8
DEFPOINTS
  6
BYBLOCK
 62
     0
 10
-550.001648
 20
-400.008911
 30
0.0
  0
POINT
  5
63B
  8
DEFPOINTS
  6
BYBLOCK
 62
     0
 10
-802.401648
 20
-400.008911
 30
0.0
  0
ENDBLK
  5
63C
  8
0
  0
BLOCK
  8
0
  2
*D49
 70
     1
 10
0.0
 20
0.0
 30
0.0
  3
*D49
  1

  0
LINE
  5
63F
  8
0
  6
BYBLOCK
 62
     0
 10
699.998352
 20
-410.008911
 30
0.0
 11
699.998352
 21
-660.108911
 31
0.0
  0
LINE
  5
640
  8
0
  6
BYBLOCK
 62
     0
 10
399.998322
 20
-410.008911
 30
0.0
 11
399.998322
 21
-660.108911
 31
0.0
  0
LINE
  5
641
  8
0
  6
BYBLOCK
 62
     0
 10
689.998352
 20
-647.608911
 30
0.0
 11
409.998322
 21
-647.608911
 31
0.0
  0
INSERT
  5
642
  8
0
  6
BYBLOCK
 62
     0
  2
_ORIGIN
 10
699.998352
 20
-647.608911
 30
0.0
 41
10.0
 42
10.0
 43
10.0
  0
INSERT
  5
643
  8
0
  6
BYBLOCK
 62
     0
  2
_ORIGIN
 10
399.998322
 20
-647.608911
 30
0.0
 41
10.0
 42
10.0
 43
10.0
 50
180.0
  0
TEXT
  5
644
  8
0
  6
BYBLOCK
 62
     0
 10
510.098352
 20
-637.608911
 30
0.0
 40
30.0
  1
300
 72
     1
 11
549.998352
 21
-637.608911
 31
0.0
  0
POINT
  5
645
  8
DEFPOINTS
  6
BYBLOCK
 62
     0
 10
699.998352
 20
-400.008911
 30
0.0
  0
POINT
  5
646
  8
DEFPOINTS
  6
BYBLOCK
 62
     0
 10
399.998322
 20
-400.008911
 30
0.0
  0
POINT
  5
647
  8
DEFPOINTS
  6
BYBLOCK
 62
     0
 10
399.998322
 20
-647.608911
 30
0.0
  0
ENDBLK
  5
648
  8
0
  0
BLOCK
  8
0
  2
*D50
 70
     1
 10
0.0
 20
0.0
 30
0.0
  3
*D50
  1

  0
LINE
  5
64B
  8
0
  6
BYBLOCK
 62
     0
 10
-550.001648
 20
-410.008911
 30
0.0
 11
-550.001648
 21
-660.108911
 31
0.0
  0
LINE
  5
64C
  8
0
  6
BYBLOCK
 62
     0
 10
399.998322
 20
-410.008911
 30
0.0
 11
399.998322
 21
-660.108911
 31
0.0
  0
LINE
  5
64D
  8
0
  6
BYBLOCK
 62
     0
 10
-540.001648
 20
-647.608911
 30
0.0
 11
389.998322
 21
-647.608911
 31
0.0
  0
INSERT
  5
64E
  8
0
  6
BYBLOCK
 62
     0
  2
_ORIGIN
 10
-550.001648
 20
-647.608911
 30
0.0
 41
10.0
 42
10.0
 43
10.0
 50
180.0
  0
INSERT
  5
64F
  8
0
  6
BYBLOCK
 62
     0
  2
_ORIGIN
 10
399.998322
 20
-647.608911
 30
0.0
 41
10.0
 42
10.0
 43
10.0
  0
TEXT
  5
650
  8
0
  6
BYBLOCK
 62
     0
 10
-117.451671
 20
-637.608911
 30
0.0
 40
30.0
  1
950
 72
     1
 11
-75.001671
 21
-637.608911
 31
0.0
  0
POINT
  5
651
  8
DEFPOINTS
  6
BYBLOCK
 62
     0
 10
-550.001648
 20
-400.008911
 30
0.0
  0
POINT
  5
652
  8
DEFPOINTS
  6
BYBLOCK
 62
     0
 10
399.998322
 20
-400.008911
 30
0.0
  0
POINT
  5
653
  8
DEFPOINTS
  6
BYBLOCK
 62
     0
 10
399.998322
 20
-647.608911
 30
0.0
  0
ENDBLK
  5
654
  8
0
  0
BLOCK
  8
0
  2
*D51
 70
     1
 10
0.0
 20
0.0
 30
0.0
  3
*D51
  1

  0
LINE
  5
657
  8
0
  6
BYBLOCK
 62
     0
 10
399.998322
 20
109.991081
 30
0.0
 11
399.998322
 21
314.891089
 31
0.0
  0
LINE
  5
658
  8
0
  6
BYBLOCK
 62
     0
 10
434.998322
 20
-108.008919
 30
0.0
 11
434.998322
 21
314.891089
 31
0.0
  0
LINE
  5
659
  8
0
  6
BYBLOCK
 62
     0
 10
444.998322
 20
302.391089
 30
0.0
 11
454.998322
 21
302.391089
 31
0.0
  0
LINE
  5
65A
  8
0
  6
BYBLOCK
 62
     0
 10
389.998322
 20
302.391089
 30
0.0
 11
276.834786
 21
302.391089
 31
0.0
  0
LINE
  5
65B
  8
0
  6
BYBLOCK
 62
     0
 10
434.998322
 20
302.391089
 30
0.0
 11
399.998322
 21
302.391089
 31
0.0
  0
INSERT
  5
65C
  8
0
  6
BYBLOCK
 62
     0
  2
_ORIGIN
 10
434.998322
 20
302.391089
 30
0.0
 41
10.0
 42
10.0
 43
10.0
 50
180.0
  0
INSERT
  5
65D
  8
0
  6
BYBLOCK
 62
     0
  2
_ORIGIN
 10
399.998322
 20
302.391089
 30
0.0
 41
10.0
 42
10.0
 43
10.0
  0
TEXT
  5
65E
  8
0
  6
BYBLOCK
 62
     0
 10
281.834786
 20
312.391089
 30
0.0
 40
30.0
  1
35
 72
     1
 11
311.834786
 21
312.391089
 31
0.0
  0
POINT
  5
65F
  8
DEFPOINTS
  6
BYBLOCK
 62
     0
 10
399.998322
 20
99.991081
 30
0.0
  0
POINT
  5
660
  8
DEFPOINTS
  6
BYBLOCK
 62
     0
 10
434.998322
 20
-118.008919
 30
0.0
  0
POINT
  5
661
  8
DEFPOINTS
  6
BYBLOCK
 62
     0
 10
434.998322
 20
302.391089
 30
0.0
  0
ENDBLK
  5
662
  8
0
  0
BLOCK
  8
0
  2
*D52
 70
     1
 10
0.0
 20
0.0
 30
0.0
  3
*D52
  1

  0
LINE
  5
665
  8
0
  6
BYBLOCK
 62
     0
 10
464.998322
 20
-153.008926
 30
0.0
 11
860.098352
 21
-153.008926
 31
0.0
  0
LINE
  5
666
  8
0
  6
BYBLOCK
 62
     0
 10
269.998322
 20
-317.008911
 30
0.0
 11
860.098352
 21
-317.008911
 31
0.0
  0
LINE
  5
667
  8
0
  6
BYBLOCK
 62
     0
 10
847.598352
 20
-163.008926
 30
0.0
 11
847.598352
 21
-307.008911
 31
0.0
  0
INSERT
  5
668
  8
0
  6
BYBLOCK
 62
     0
  2
_ORIGIN
 10
847.598352
 20
-153.008926
 30
0.0
 41
10.0
 42
10.0
 43
10.0
 50
90.0
  0
INSERT
  5
669
  8
0
  6
BYBLOCK
 62
     0
  2
_ORIGIN
 10
847.598352
 20
-317.008911
 30
0.0
 41
10.0
 42
10.0
 43
10.0
 50
270.0
  0
TEXT
  5
66A
  8
0
  6
BYBLOCK
 62
     0
 10
837.598352
 20
-274.758927
 30
0.0
 40
30.0
  1
164
 50
90.0
 72
     1
 11
837.598352
 21
-235.008927
 31
0.0
  0
POINT
  5
66B
  8
DEFPOINTS
  6
BYBLOCK
 62
     0
 10
454.998322
 20
-153.008926
 30
0.0
  0
POINT
  5
66C
  8
DEFPOINTS
  6
BYBLOCK
 62
     0
 10
259.998322
 20
-317.008911
 30
0.0
  0
POINT
  5
66D
  8
DEFPOINTS
  6
BYBLOCK
 62
     0
 10
847.598352
 20
-317.008911
 30
0.0
  0
ENDBLK
  5
66E
  8
0
  0
BLOCK
  8
0
  2
*D53
 70
     1
 10
0.0
 20
0.0
 30
0.0
  3
*D53
  1

  0
LINE
  5
671
  8
0
  6
BYBLOCK
 62
     0
 10
464.998322
 20
-138.008926
 30
0.0
 11
960.098352
 21
-138.008926
 31
0.0
  0
LINE
  5
672
  8
0
  6
BYBLOCK
 62
     0
 10
269.998322
 20
-317.008911
 30
0.0
 11
960.098352
 21
-317.008911
 31
0.0
  0
LINE
  5
673
  8
0
  6
BYBLOCK
 62
     0
 10
947.598352
 20
-148.008926
 30
0.0
 11
947.598352
 21
-307.008911
 31
0.0
  0
INSERT
  5
674
  8
0
  6
BYBLOCK
 62
     0
  2
_ORIGIN
 10
947.598352
 20
-138.008926
 30
0.0
 41
10.0
 42
10.0
 43
10.0
 50
90.0
  0
INSERT
  5
675
  8
0
  6
BYBLOCK
 62
     0
  2
_ORIGIN
 10
947.598352
 20
-317.008911
 30
0.0
 41
10.0
 42
10.0
 43
10.0
 50
270.0
  0
TEXT
  5
676
  8
0
  6
BYBLOCK
 62
     0
 10
937.598352
 20
-267.258927
 30
0.0
 40
30.0
  1
179
 50
90.0
 72
     1
 11
937.598352
 21
-227.508927
 31
0.0
  0
POINT
  5
677
  8
DEFPOINTS
  6
BYBLOCK
 62
     0
 10
454.998322
 20
-138.008926
 30
0.0
  0
POINT
  5
678
  8
DEFPOINTS
  6
BYBLOCK
 62
     0
 10
259.998322
 20
-317.008911
 30
0.0
  0
POINT
  5
679
  8
DEFPOINTS
  6
BYBLOCK
 62
     0
 10
947.598352
 20
-317.008911
 30
0.0
  0
ENDBLK
  5
67A
  8
0
  0
ENDSEC
  0
SECTION
  2
ENTITIES
  0
LINE
  5
67B
  8
OUTLINE
  6
CONTINUOUS
 10
400.0
 20
-225.3
 30
0.0
 11
422.426869
 21
-221.465381
 31
0.0
  0
LINE
  5
67C
  8
OUTLINE
  6
CONTINUOUS
 10
400.0
 20
-71.3
 30
0.0
 11
464.0
 21
-76.899274
 31
0.0
  0
LINE
  5
67D
  8
OUTLINE
  6
CONTINUOUS
 10
464.0
 20
-76.899274
 30
0.0
 11
464.0
 21
-172.180618
 31
0.0
  0
ARC
  5
67E
  8
OUTLINE
  6
CONTINUOUS
 10
414.0
 20
-172.180618
 30
0.0
 40
50.0
 50
279.70279
 51
0.0
  0
LINE
  5
67F
  8
OUTLINE
  6
CONTINUOUS
 10
380.0
 20
-277.3
 30
0.0
 11
270.0
 21
-277.3
 31
0.0
  0
LINE
  5
680
  8
OUTLINE
  6
CONTINUOUS
 10
380.0
 20
7.7
 30
0.0
 11
270.0
 21
7.7
 31
0.0
  0
ARC
  5
681
  8
OUTLINE
  6
CONTINUOUS
 10
380.0
 20
-257.3
 30
0.0
 40
20.0
 50
270.0
 51
0.0
  0
LINE
  5
682
  8
OUTLINE
  6
CONTINUOUS
 10
400.0
 20
-12.3
 30
0.0
 11
400.0
 21
-257.3
 31
0.0
  0
LINE
  5
683
  8
OUTLINE
  6
CONTINUOUS
 10
400.0
 20
-12.3
 30
0.0
 11
400.0
 21
-257.3
 31
0.0
  0
LINE
  5
684
  8
OUTLINE
  6
CONTINUOUS
 10
400.0
 20
-12.3
 30
0.0
 11
400.0
 21
-257.3
 31
0.0
  0
ARC
  5
685
  8
OUTLINE
  6
CONTINUOUS
 10
380.0
 20
-12.3
 30
0.0
 40
20.0
 50
0.0
 51
90.0
  0
LINE
  5
686
  8
OUTLINE
  6
CONTINUOUS
 10
-416.0
 20
-123.223758
 30
0.0
 11
-400.0
 21
-137.3
 31
0.0
  0
LINE
  5
687
  8
OUTLINE
  6
CONTINUOUS
 10
-416.0
 20
-66.376242
 30
0.0
 11
-400.0
 21
-52.3
 31
0.0
  0
LINE
  5
688
  8
OUTLINE
  6
CONTINUOUS
 10
-416.0
 20
-66.376242
 30
0.0
 11
-416.0
 21
-123.223758
 31
0.0
  0
ARC
  5
689
  8
OUTLINE
  6
CONTINUOUS
 10
-380.0
 20
-12.3
 30
0.0
 40
20.0
 50
90.0
 51
180.0
  0
ARC
  5
68A
  8
OUTLINE
  6
CONTINUOUS
 10
-380.0
 20
-257.3
 30
0.0
 40
20.0
 50
180.0
 51
270.0
  0
LINE
  5
68B
  8
OUTLINE
  6
CONTINUOUS
 10
-400.0
 20
-12.3
 30
0.0
 11
-400.0
 21
-257.3
 31
0.0
  0
LINE
  5
68C
  8
OUTLINE
  6
CONTINUOUS
 10
-230.0
 20
28.2
 30
0.0
 11
-230.0
 21
-299.3
 31
0.0
  0
LINE
  5
68D
  8
OUTLINE
  6
CONTINUOUS
 10
-270.0
 20
28.2
 30
0.0
 11
-270.0
 21
-299.3
 31
0.0
  0
ARC
  5
68E
  8
OUTLINE
  6
CONTINUOUS
 10
-237.5
 20
28.2
 30
0.0
 40
7.5
 50
0.0
 51
180.0
  0
ARC
  5
68F
  8
OUTLINE
  6
CONTINUOUS
 10
-262.5
 20
28.2
 30
0.0
 40
7.5
 50
0.0
 51
180.0
  0
LINE
  5
690
  8
OUTLINE
  6
CONTINUOUS
 10
-255.0
 20
17.7
 30
0.0
 11
-255.0
 21
28.2
 31
0.0
  0
LINE
  5
691
  8
OUTLINE
  6
CONTINUOUS
 10
-245.0
 20
17.7
 30
0.0
 11
-245.0
 21
28.2
 31
0.0
  0
ARC
  5
692
  8
OUTLINE
  6
CONTINUOUS
 10
-250.0
 20
17.7
 30
0.0
 40
5.0
 50
180.0
 51
0.0
  0
LINE
  5
693
  8
OUTLINE
  6
CONTINUOUS
 10
-270.0
 20
28.2
 30
0.0
 11
-270.0
 21
-299.3
 31
0.0
  0
LINE
  5
694
  8
OUTLINE
  6
CONTINUOUS
 10
-230.0
 20
28.2
 30
0.0
 11
-230.0
 21
-299.3
 31
0.0
  0
LINE
  5
695
  8
OUTLINE
  6
CONTINUOUS
 10
-230.0
 20
28.2
 30
0.0
 11
-230.0
 21
-299.3
 31
0.0
  0
ARC
  5
696
  8
OUTLINE
  6
CONTINUOUS
 10
-240.0
 20
-299.3
 30
0.0
 40
10.0
 50
270.0
 51
0.0
  0
ARC
  5
697
  8
OUTLINE
  6
CONTINUOUS
 10
-260.0
 20
-299.3
 30
0.0
 40
10.0
 50
180.0
 51
270.0
  0
LINE
  5
698
  8
OUTLINE
  6
CONTINUOUS
 10
-240.0
 20
-309.3
 30
0.0
 11
-260.0
 21
-309.3
 31
0.0
  0
LINE
  5
699
  8
OUTLINE
  6
CONTINUOUS
 10
-270.0
 20
28.2
 30
0.0
 11
-270.0
 21
-299.3
 31
0.0
  0
LINE
  5
69A
  8
OUTLINE
  6
CONTINUOUS
 10
230.0
 20
28.2
 30
0.0
 11
230.0
 21
-299.3
 31
0.0
  0
LINE
  5
69B
  8
OUTLINE
  6
CONTINUOUS
 10
270.0
 20
28.2
 30
0.0
 11
270.0
 21
-299.3
 31
0.0
  0
ARC
  5
69C
  8
OUTLINE
  6
CONTINUOUS
 10
262.5
 20
28.2
 30
0.0
 40
7.5
 50
0.0
 51
180.0
  0
ARC
  5
69D
  8
OUTLINE
  6
CONTINUOUS
 10
237.5
 20
28.2
 30
0.0
 40
7.5
 50
0.0
 51
180.0
  0
LINE
  5
69E
  8
OUTLINE
  6
CONTINUOUS
 10
245.0
 20
17.7
 30
0.0
 11
245.0
 21
28.2
 31
0.0
  0
LINE
  5
69F
  8
OUTLINE
  6
CONTINUOUS
 10
255.0
 20
17.7
 30
0.0
 11
255.0
 21
28.2
 31
0.0
  0
ARC
  5
6A0
  8
OUTLINE
  6
CONTINUOUS
 10
250.0
 20
17.7
 30
0.0
 40
5.0
 50
180.0
 51
0.0
  0
LINE
  5
6A1
  8
OUTLINE
  6
CONTINUOUS
 10
270.0
 20
28.2
 30
0.0
 11
270.0
 21
-299.3
 31
0.0
  0
LINE
  5
6A2
  8
OUTLINE
  6
CONTINUOUS
 10
230.0
 20
28.2
 30
0.0
 11
230.0
 21
-299.3
 31
0.0
  0
LINE
  5
6A3
  8
OUTLINE
  6
CONTINUOUS
 10
270.0
 20
28.2
 30
0.0
 11
270.0
 21
-299.3
 31
0.0
  0
ARC
  5
6A4
  8
OUTLINE
  6
CONTINUOUS
 10
260.0
 20
-299.3
 30
0.0
 40
10.0
 50
270.0
 51
0.0
  0
ARC
  5
6A5
  8
OUTLINE
  6
CONTINUOUS
 10
240.0
 20
-299.3
 30
0.0
 40
10.0
 50
180.0
 51
270.0
  0
LINE
  5
6A6
  8
OUTLINE
  6
CONTINUOUS
 10
245.0
 20
-286.3
 30
0.0
 11
245.0
 21
-297.3
 31
0.0
  0
LINE
  5
6A7
  8
OUTLINE
  6
CONTINUOUS
 10
255.0
 20
-286.3
 30
0.0
 11
255.0
 21
-297.3
 31
0.0
  0
ARC
  5
6A8
  8
OUTLINE
  6
CONTINUOUS
 10
250.0
 20
-286.3
 30
0.0
 40
5.0
 50
0.0
 51
180.0
  0
ARC
  5
6A9
  8
OUTLINE
  6
CONTINUOUS
 10
250.0
 20
-297.3
 30
0.0
 40
5.0
 50
180.0
 51
0.0
  0
LINE
  5
6AA
  8
OUTLINE
  6
CONTINUOUS
 10
260.0
 20
-309.3
 30
0.0
 11
240.0
 21
-309.3
 31
0.0
  0
LINE
  5
6AB
  8
OUTLINE
  6
CONTINUOUS
 10
230.0
 20
7.7
 30
0.0
 11
-230.0
 21
7.7
 31
0.0
  0
LINE
  5
6AC
  8
OUTLINE
  6
CONTINUOUS
 10
230.0
 20
-277.3
 30
0.0
 11
-230.0
 21
-277.3
 31
0.0
  0
LINE
  5
6AD
  8
OUTLINE
  6
CONTINUOUS
 10
-270.0
 20
7.7
 30
0.0
 11
-380.0
 21
7.7
 31
0.0
  0
LINE
  5
6AE
  8
OUTLINE
  6
CONTINUOUS
 10
-270.0
 20
-277.3
 30
0.0
 11
-380.0
 21
-277.3
 31
0.0
  0
LINE
  5
6AF
  8
OUTLINE
  6
CONTINUOUS
 10
-255.0
 20
-286.3
 30
0.0
 11
-255.0
 21
-297.3
 31
0.0
  0
LINE
  5
6B0
  8
OUTLINE
  6
CONTINUOUS
 10
-245.0
 20
-286.3
 30
0.0
 11
-245.0
 21
-297.3
 31
0.0
  0
ARC
  5
6B1
  8
OUTLINE
  6
CONTINUOUS
 10
-250.0
 20
-286.3
 30
0.0
 40
5.0
 50
0.0
 51
180.0
  0
ARC
  5
6B2
  8
OUTLINE
  6
CONTINUOUS
 10
-250.0
 20
-297.3
 30
0.0
 40
5.0
 50
180.0
 51
0.0
  0
LINE
  5
6B3
  8
OUTLINE
  6
CONTINUOUS
 10
416.0
 20
-146.376242
 30
0.0
 11
416.0
 21
-203.223758
 31
0.0
  0
LINE
  5
6B4
  8
OUTLINE
  6
CONTINUOUS
 10
416.0
 20
-203.223758
 30
0.0
 11
400.0
 21
-217.3
 31
0.0
  0
LINE
  5
6B5
  8
OUTLINE
  6
CONTINUOUS
 10
416.0
 20
-146.376242
 30
0.0
 11
400.0
 21
-132.3
 31
0.0
  0
LINE
  5
6B6
  8
OUTLINE
  6
CONTINUOUS
 10
310.0
 20
23.7
 30
0.0
 11
310.0
 21
7.7
 31
0.0
  0
LINE
  5
6B7
  8
OUTLINE
  6
CONTINUOUS
 10
310.0
 20
23.7
 30
0.0
 11
270.0
 21
23.7
 31
0.0
  0
ARC
  5
6B8
  8
DETAIL
  6
CONTINUOUS
 10
414.0
 20
-172.180618
 30
0.0
 40
50.0
 50
279.70279
 51
0.0
  0
LINE
  5
6B9
  8
DETAIL
  6
CONTINUOUS
 10
464.0
 20
-76.899274
 30
0.0
 11
464.0
 21
-172.180618
 31
0.0
  0
LINE
  5
6BA
  8
DETAIL
  6
CONTINUOUS
 10
-7.75
 20
7.0
 30
0.0
 11
7.75
 21
7.0
 31
0.0
  0
ARC
  5
6BB
  8
DETAIL
  6
CONTINUOUS
 10
0.0
 20
-44.0
 30
0.0
 40
30.0
 50
104.477512
 51
75.52248800000001
  0
LINE
  5
6BC
  8
DETAIL
  6
CONTINUOUS
 10
-7.75
 20
7.0
 30
0.0
 11
-7.75
 21
-44.0
 31
0.0
  0
LINE
  5
6BD
  8
DETAIL
  6
CONTINUOUS
 10
7.75
 20
7.0
 30
0.0
 11
7.75
 21
-44.0
 31
0.0
  0
LINE
  5
6BE
  8
DETAIL
  6
CONTINUOUS
 10
400.0
 20
-71.3
 30
0.0
 11
464.0
 21
-76.899274
 31
0.0
  0
LINE
  5
6BF
  8
DETAIL
  6
DASHED
 10
435.85
 20
-184.8
 30
0.0
 11
400.0
 21
-184.8
 31
0.0
  0
ARC
  5
6C0
  8
DETAIL
  6
DASHED
 10
435.85
 20
-174.8
 30
0.0
 40
10.0
 50
270.0
 51
0.0
  0
LINE
  5
6C1
  8
DETAIL
  6
DASHED
 10
422.15
 20
-165.8
 30
0.0
 11
400.0
 21
-165.8
 31
0.0
  0
ARC
  5
6C2
  8
DETAIL
  6
DASHED
 10
422.15
 20
-163.8
 30
0.0
 40
2.0
 50
270.0
 51
0.0
  0
ARC
  5
6C3
  8
DETAIL
  6
DASHED
 10
422.15
 20
-148.8
 30
0.0
 40
2.0
 50
270.0
 51
0.0
  0
LINE
  5
6C4
  8
DETAIL
  6
DASHED
 10
422.15
 20
-150.8
 30
0.0
 11
400.0
 21
-150.8
 31
0.0
  0
LINE
  5
6C5
  8
DETAIL
  6
DASHED
 10
435.85
 20
-169.8
 30
0.0
 11
400.0
 21
-169.8
 31
0.0
  0
ARC
  5
6C6
  8
DETAIL
  6
DASHED
 10
435.85
 20
-159.8
 30
0.0
 40
10.0
 50
270.0
 51
0.0
  0
LINE
  5
6C7
  8
DETAIL
  6
DASHED
 10
424.15
 20
-145.3
 30
0.0
 11
424.15
 21
-148.8
 31
0.0
  0
LINE
  5
6C8
  8
DETAIL
  6
DASHED
 10
424.936116
 20
-130.3
 30
0.0
 11
424.15
 21
-145.3
 31
0.0
  0
LINE
  5
6C9
  8
DETAIL
  6
DASHED
 10
445.85
 20
-145.3
 30
0.0
 11
445.85
 21
-159.8
 31
0.0
  0
LINE
  5
6CA
  8
DETAIL
  6
DASHED
 10
424.15
 20
-145.3
 30
0.0
 11
445.85
 21
-145.3
 31
0.0
  0
LINE
  5
6CB
  8
DETAIL
  6
DASHED
 10
424.936116
 20
-130.3
 30
0.0
 11
445.063883
 21
-130.3
 31
0.0
  0
LINE
  5
6CC
  8
DETAIL
  6
DASHED
 10
445.063883
 20
-130.3
 30
0.0
 11
445.85
 21
-145.3
 31
0.0
  0
LINE
  5
6CD
  8
DETAIL
  6
DASHED
 10
424.936116
 20
-145.3
 30
0.0
 11
424.15
 21
-160.3
 31
0.0
  0
LINE
  5
6CE
  8
DETAIL
  6
DASHED
 10
424.15
 20
-160.3
 30
0.0
 11
445.85
 21
-160.3
 31
0.0
  0
LINE
  5
6CF
  8
DETAIL
  6
DASHED
 10
445.063883
 20
-145.3
 30
0.0
 11
445.85
 21
-160.3
 31
0.0
  0
LINE
  5
6D0
  8
DETAIL
  6
DASHED
 10
424.936116
 20
-145.3
 30
0.0
 11
445.063883
 21
-145.3
 31
0.0
  0
LINE
  5
6D1
  8
DETAIL
  6
DASHED
 10
445.85
 20
-160.3
 30
0.0
 11
445.85
 21
-174.8
 31
0.0
  0
LINE
  5
6D2
  8
DETAIL
  6
DASHED
 10
424.15
 20
-160.3
 30
0.0
 11
424.15
 21
-163.8
 31
0.0
  0
LINE
  5
6D3
  8
DETAIL
  6
CONTINUOUS
 10
153.0
 20
-277.3
 30
0.0
 11
153.0
 21
-283.94372
 31
0.0
  0
LINE
  5
6D4
  8
DETAIL
  6
CONTINUOUS
 10
-363.0
 20
-277.3
 30
0.0
 11
-363.0
 21
-283.94372
 31
0.0
  0
ARC
  5
6D5
  8
DETAIL
  6
CONTINUOUS
 10
-105.0
 20
1875.7
 30
0.0
 40
2175.0
 50
263.187495
 51
265.649244
  0
ARC
  5
6D6
  8
DETAIL
  6
CONTINUOUS
 10
262.5
 20
28.2
 30
0.0
 40
7.5
 50
0.0
 51
180.0
  0
ARC
  5
6D7
  8
DETAIL
  6
CONTINUOUS
 10
237.5
 20
28.2
 30
0.0
 40
7.5
 50
0.0
 51
180.0
  0
ARC
  5
6D8
  8
DETAIL
  6
CONTINUOUS
 10
260.0
 20
-299.3
 30
0.0
 40
10.0
 50
270.0
 51
0.0
  0
ARC
  5
6D9
  8
DETAIL
  6
CONTINUOUS
 10
240.0
 20
-299.3
 30
0.0
 40
10.0
 50
180.0
 51
270.0
  0
LINE
  5
6DA
  8
DETAIL
  6
CONTINUOUS
 10
260.0
 20
-309.3
 30
0.0
 11
240.0
 21
-309.3
 31
0.0
  0
LINE
  5
6DB
  8
DETAIL
  6
CONTINUOUS
 10
245.0
 20
17.7
 30
0.0
 11
245.0
 21
28.2
 31
0.0
  0
LINE
  5
6DC
  8
DETAIL
  6
CONTINUOUS
 10
245.0
 20
-286.3
 30
0.0
 11
245.0
 21
-297.3
 31
0.0
  0
LINE
  5
6DD
  8
DETAIL
  6
CONTINUOUS
 10
255.0
 20
17.7
 30
0.0
 11
255.0
 21
28.2
 31
0.0
  0
LINE
  5
6DE
  8
DETAIL
  6
CONTINUOUS
 10
255.0
 20
-286.3
 30
0.0
 11
255.0
 21
-297.3
 31
0.0
  0
ARC
  5
6DF
  8
DETAIL
  6
CONTINUOUS
 10
250.0
 20
17.7
 30
0.0
 40
5.0
 50
180.0
 51
0.0
  0
ARC
  5
6E0
  8
DETAIL
  6
CONTINUOUS
 10
250.0
 20
-286.3
 30
0.0
 40
5.0
 50
0.0
 51
180.0
  0
ARC
  5
6E1
  8
DETAIL
  6
CONTINUOUS
 10
250.0
 20
-297.3
 30
0.0
 40
5.0
 50
180.0
 51
0.0
  0
LINE
  5
6E2
  8
DETAIL
  6
CONTINUOUS
 10
380.0
 20
-277.3
 30
0.0
 11
270.0
 21
-277.3
 31
0.0
  0
LINE
  5
6E3
  8
DETAIL
  6
CONTINUOUS
 10
380.0
 20
7.7
 30
0.0
 11
270.0
 21
7.7
 31
0.0
  0
LINE
  5
6E4
  8
DETAIL
  6
CONTINUOUS
 10
-400.0
 20
-12.3
 30
0.0
 11
-400.0
 21
-257.3
 31
0.0
  0
LINE
  5
6E5
  8
DETAIL
  6
CONTINUOUS
 10
400.0
 20
-12.3
 30
0.0
 11
400.0
 21
-257.3
 31
0.0
  0
LINE
  5
6E6
  8
DETAIL
  6
CONTINUOUS
 10
230.0
 20
28.2
 30
0.0
 11
230.0
 21
-299.3
 31
0.0
  0
LINE
  5
6E7
  8
DETAIL
  6
CONTINUOUS
 10
270.0
 20
28.2
 30
0.0
 11
270.0
 21
-299.3
 31
0.0
  0
ARC
  5
6E8
  8
DETAIL
  6
CONTINUOUS
 10
380.0
 20
-12.3
 30
0.0
 40
20.0
 50
0.0
 51
90.0
  0
ARC
  5
6E9
  8
DETAIL
  6
CONTINUOUS
 10
380.0
 20
-257.3
 30
0.0
 40
20.0
 50
270.0
 51
0.0
  0
ARC
  5
6EA
  8
DETAIL
  6
CONTINUOUS
 10
-380.0
 20
-257.3
 30
0.0
 40
20.0
 50
180.0
 51
270.0
  0
ARC
  5
6EB
  8
DETAIL
  6
CONTINUOUS
 10
-380.0
 20
-12.3
 30
0.0
 40
20.0
 50
90.0
 51
180.0
  0
LINE
  5
6EC
  8
DETAIL
  6
CONTINUOUS
 10
-416.0
 20
-66.376242
 30
0.0
 11
-416.0
 21
-123.223758
 31
0.0
  0
LINE
  5
6ED
  8
DETAIL
  6
CONTINUOUS
 10
-416.0
 20
-66.376242
 30
0.0
 11
-400.0
 21
-52.3
 31
0.0
  0
LINE
  5
6EE
  8
DETAIL
  6
CONTINUOUS
 10
-416.0
 20
-123.223758
 30
0.0
 11
-400.0
 21
-137.3
 31
0.0
  0
LINE
  5
6EF
  8
DETAIL
  6
CONTINUOUS
 10
230.0
 20
7.7
 30
0.0
 11
-230.0
 21
7.7
 31
0.0
  0
LINE
  5
6F0
  8
DETAIL
  6
CONTINUOUS
 10
230.0
 20
-277.3
 30
0.0
 11
-230.0
 21
-277.3
 31
0.0
  0
LINE
  5
6F1
  8
DETAIL
  6
CONTINUOUS
 10
-230.0
 20
28.2
 30
0.0
 11
-230.0
 21
-299.3
 31
0.0
  0
ARC
  5
6F2
  8
DETAIL
  6
CONTINUOUS
 10
-240.0
 20
-299.3
 30
0.0
 40
10.0
 50
270.0
 51
0.0
  0
ARC
  5
6F3
  8
DETAIL
  6
CONTINUOUS
 10
-260.0
 20
-299.3
 30
0.0
 40
10.0
 50
180.0
 51
270.0
  0
LINE
  5
6F4
  8
DETAIL
  6
CONTINUOUS
 10
-240.0
 20
-309.3
 30
0.0
 11
-260.0
 21
-309.3
 31
0.0
  0
LINE
  5
6F5
  8
DETAIL
  6
CONTINUOUS
 10
-255.0
 20
-286.3
 30
0.0
 11
-255.0
 21
-297.3
 31
0.0
  0
LINE
  5
6F6
  8
DETAIL
  6
CONTINUOUS
 10
-245.0
 20
-286.3
 30
0.0
 11
-245.0
 21
-297.3
 31
0.0
  0
ARC
  5
6F7
  8
DETAIL
  6
CONTINUOUS
 10
-250.0
 20
-286.3
 30
0.0
 40
5.0
 50
0.0
 51
180.0
  0
ARC
  5
6F8
  8
DETAIL
  6
CONTINUOUS
 10
-250.0
 20
-297.3
 30
0.0
 40
5.0
 50
180.0
 51
0.0
  0
LINE
  5
6F9
  8
DETAIL
  6
CONTINUOUS
 10
-270.0
 20
28.2
 30
0.0
 11
-270.0
 21
-299.3
 31
0.0
  0
ARC
  5
6FA
  8
DETAIL
  6
CONTINUOUS
 10
-237.5
 20
28.2
 30
0.0
 40
7.5
 50
0.0
 51
180.0
  0
ARC
  5
6FB
  8
DETAIL
  6
CONTINUOUS
 10
-262.5
 20
28.2
 30
0.0
 40
7.5
 50
0.0
 51
180.0
  0
LINE
  5
6FC
  8
DETAIL
  6
CONTINUOUS
 10
-255.0
 20
17.7
 30
0.0
 11
-255.0
 21
28.2
 31
0.0
  0
LINE
  5
6FD
  8
DETAIL
  6
CONTINUOUS
 10
-245.0
 20
17.7
 30
0.0
 11
-245.0
 21
28.2
 31
0.0
  0
ARC
  5
6FE
  8
DETAIL
  6
CONTINUOUS
 10
-250.0
 20
17.7
 30
0.0
 40
5.0
 50
180.0
 51
0.0
  0
LINE
  5
6FF
  8
DETAIL
  6
CONTINUOUS
 10
-270.0
 20
7.7
 30
0.0
 11
-380.0
 21
7.7
 31
0.0
  0
LINE
  5
700
  8
DETAIL
  6
CONTINUOUS
 10
-270.0
 20
-277.3
 30
0.0
 11
-380.0
 21
-277.3
 31
0.0
  0
ARC
  5
701
  8
DETAIL
  6
CONTINUOUS
 10
-105.0
 20
1877.7
 30
0.0
 40
2175.0
 50
266.705324
 51
276.812505
  0
LINE
  5
702
  8
DETAIL
  6
CONTINUOUS
 10
400.0
 20
-225.3
 30
0.0
 11
422.426869
 21
-221.465381
 31
0.0
  0
LINE
  5
703
  8
DETAIL
  6
CONTINUOUS
 10
416.0
 20
-146.376242
 30
0.0
 11
416.0
 21
-203.223758
 31
0.0
  0
LINE
  5
704
  8
DETAIL
  6
CONTINUOUS
 10
416.0
 20
-203.223758
 30
0.0
 11
400.0
 21
-217.3
 31
0.0
  0
LINE
  5
705
  8
DETAIL
  6
CONTINUOUS
 10
416.0
 20
-146.376242
 30
0.0
 11
400.0
 21
-132.3
 31
0.0
  0
LINE
  5
706
  8
DETAIL
  6
CONTINUOUS
 10
310.0
 20
23.7
 30
0.0
 11
310.0
 21
7.7
 31
0.0
  0
LINE
  5
707
  8
DETAIL
  6
CONTINUOUS
 10
270.0
 20
23.7
 30
0.0
 11
310.0
 21
23.7
 31
0.0
  0
ARC
  5
708
  8
DETAIL
  6
CONTINUOUS
 10
0.0
 20
-44.0
 30
0.0
 40
7.75
 50
180.0
 51
0.0
  0
LINE
  5
709
  8
BASIS
  6
DASHDOT
 10
-105.0
 20
-235.3
 30
0.0
 11
-105.0
 21
-347.3
 31
0.0
  0
LINE
  5
70A
  8
BASIS
  6
DASHDOT
 10
0.0
 20
57.7
 30
0.0
 11
0.0
 21
-347.3
 31
0.0
  0
LINE
  5
70B
  8
SIZE
  6
CONTINUOUS
 62
    30
 10
464.999991
 20
-130.300004
 30
0.0
 11
960.100021
 21
-130.300004
 31
0.0
  0
LINE
  5
70C
  8
SIZE
  6
CONTINUOUS
 62
    30
 10
269.999991
 20
-309.299989
 30
0.0
 11
960.100021
 21
-309.299989
 31
0.0
  0
LINE
  5
70D
  8
SIZE
  6
CONTINUOUS
 62
    30
 10
947.600021
 20
-140.300004
 30
0.0
 11
947.600021
 21
-299.299989
 31
0.0
  0
CIRCLE
  5
70E
  8
SIZE
  6
CONTINUOUS
 62
    30
 10
947.600021
 20
-130.300004
 30
0.0
 40
5.0
  0
LINE
  5
70F
  8
SIZE
  6
CONTINUOUS
 62
    30
 10
947.600021
 20
-130.300004
 30
0.0
 11
947.600021
 21
-140.300004
 31
0.0
  0
CIRCLE
  5
710
  8
SIZE
  6
CONTINUOUS
 62
    30
 10
947.600021
 20
-309.299989
 30
0.0
 40
5.0
  0
LINE
  5
711
  8
SIZE
  6
CONTINUOUS
 62
    30
 10
947.600021
 20
-309.299989
 30
0.0
 11
947.600021
 21
-299.299989
 31
0.0
  0
TEXT
  5
712
  8
SIZE
  6
CONTINUOUS
 62
    30
 10
937.600021
 20
-264.0857192857143
 30
0.0
 40
30.0
  1
179
 50
90.0
 72
     1
 11
937.600021
 21
-219.800005
 31
0.0
  0
POINT
  5
713
  8
DEFPOINTS
  6
CONTINUOUS
 62
    30
 10
454.999991
 20
-130.300004
 30
0.0
  0
POINT
  5
714
  8
DEFPOINTS
  6
CONTINUOUS
 62
    30
 10
259.999991
 20
-309.299989
 30
0.0
  0
POINT
  5
715
  8
DEFPOINTS
  6
CONTINUOUS
 62
    30
 10
947.600021
 20
-309.299989
 30
0.0
  0
LINE
  5
716
  8
SIZE
  6
CONTINUOUS
 62
    30
 10
464.999991
 20
-145.300004
 30
0.0
 11
860.100021
 21
-145.300004
 31
0.0
  0
LINE
  5
717
  8
SIZE
  6
CONTINUOUS
 62
    30
 10
269.999991
 20
-309.299989
 30
0.0
 11
860.100021
 21
-309.299989
 31
0.0
  0
LINE
  5
718
  8
SIZE
  6
CONTINUOUS
 62
    30
 10
847.600021
 20
-155.300004
 30
0.0
 11
847.600021
 21
-299.299989
 31
0.0
  0
CIRCLE
  5
719
  8
SIZE
  6
CONTINUOUS
 62
    30
 10
847.600021
 20
-145.300004
 30
0.0
 40
5.0
  0
LINE
  5
71A
  8
SIZE
  6
CONTINUOUS
 62
    30
 10
847.600021
 20
-145.300004
 30
0.0
 11
847.600021
 21
-155.300004
 31
0.0
  0
CIRCLE
  5
71B
  8
SIZE
  6
CONTINUOUS
 62
    30
 10
847.600021
 20
-309.299989
 30
0.0
 40
5.0
  0
LINE
  5
71C
  8
SIZE
  6
CONTINUOUS
 62
    30
 10
847.600021
 20
-309.299989
 30
0.0
 11
847.600021
 21
-299.299989
 31
0.0
  0
TEXT
  5
71D
  8
SIZE
  6
CONTINUOUS
 62
    30
 10
837.600021
 20
-273.0142907142857
 30
0.0
 40
30.0
  1
164
 50
90.0
 72
     1
 11
837.600021
 21
-227.300005
 31
0.0
  0
POINT
  5
71E
  8
DEFPOINTS
  6
CONTINUOUS
 62
    30
 10
454.999991
 20
-145.300004
 30
0.0
  0
POINT
  5
71F
  8
DEFPOINTS
  6
CONTINUOUS
 62
    30
 10
259.999991
 20
-309.299989
 30
0.0
  0
POINT
  5
720
  8
DEFPOINTS
  6
CONTINUOUS
 62
    30
 10
847.600021
 20
-309.299989
 30
0.0
  0
LINE
  5
721
  8
SIZE
  6
CONTINUOUS
 62
    30
 10
399.999991
 20
117.700003
 30
0.0
 11
399.999991
 21
322.600011
 31
0.0
  0
LINE
  5
722
  8
SIZE
  6
CONTINUOUS
 62
    30
 10
434.999991
 20
-100.299997
 30
0.0
 11
434.999991
 21
322.600011
 31
0.0
  0
LINE
  5
723
  8
SIZE
  6
CONTINUOUS
 62
    30
 10
444.999991
 20
310.100011
 30
0.0
 11
454.999991
 21
310.100011
 31
0.0
  0
LINE
  5
724
  8
SIZE
  6
CONTINUOUS
 62
    30
 10
389.999991
 20
310.100011
 30
0.0
 11
276.836455
 21
310.100011
 31
0.0
  0
LINE
  5
725
  8
SIZE
  6
CONTINUOUS
 62
    30
 10
434.999991
 20
310.100011
 30
0.0
 11
399.999991
 21
310.100011
 31
0.0
  0
CIRCLE
  5
726
  8
SIZE
  6
CONTINUOUS
 62
    30
 10
434.999991
 20
310.100011
 30
0.0
 40
5.0
  0
LINE
  5
727
  8
SIZE
  6
CONTINUOUS
 62
    30
 10
434.999991
 20
310.100011
 30
0.0
 11
444.999991
 21
310.100011
 31
0.0
  0
CIRCLE
  5
728
  8
SIZE
  6
CONTINUOUS
 62
    30
 10
399.999991
 20
310.100011
 30
0.0
 40
5.0
  0
LINE
  5
729
  8
SIZE
  6
CONTINUOUS
 62
    30
 10
399.999991
 20
310.100011
 30
0.0
 11
389.999991
 21
310.100011
 31
0.0
  0
TEXT
  5
72A
  8
SIZE
  6
CONTINUOUS
 62
    30
 10
283.2650264285714
 20
320.100011
 30
0.0
 40
30.0
  1
35
 72
     1
 11
311.836455
 21
320.100011
 31
0.0
  0
POINT
  5
72B
  8
DEFPOINTS
  6
CONTINUOUS
 62
    30
 10
399.999991
 20
107.700003
 30
0.0
  0
POINT
  5
72C
  8
DEFPOINTS
  6
CONTINUOUS
 62
    30
 10
434.999991
 20
-110.299997
 30
0.0
  0
POINT
  5
72D
  8
DEFPOINTS
  6
CONTINUOUS
 62
    30
 10
434.999991
 20
310.100011
 30
0.0
  0
LINE
  5
72E
  8
SIZE
  6
CONTINUOUS
 62
    30
 10
-549.999979
 20
-402.299989
 30
0.0
 11
-549.999979
 21
-652.399989
 31
0.0
  0
LINE
  5
72F
  8
SIZE
  6
CONTINUOUS
 62
    30
 10
399.999991
 20
-402.299989
 30
0.0
 11
399.999991
 21
-652.399989
 31
0.0
  0
LINE
  5
730
  8
SIZE
  6
CONTINUOUS
 62
    30
 10
-539.999979
 20
-639.899989
 30
0.0
 11
389.999991
 21
-639.899989
 31
0.0
  0
CIRCLE
  5
731
  8
SIZE
  6
CONTINUOUS
 62
    30
 10
-549.999979
 20
-639.899989
 30
0.0
 40
5.0
  0
LINE
  5
732
  8
SIZE
  6
CONTINUOUS
 62
    30
 10
-549.999979
 20
-639.899989
 30
0.0
 11
-539.999979
 21
-639.899989
 31
0.0
  0
CIRCLE
  5
733
  8
SIZE
  6
CONTINUOUS
 62
    30
 10
399.999991
 20
-639.899989
 30
0.0
 40
5.0
  0
LINE
  5
734
  8
SIZE
  6
CONTINUOUS
 62
    30
 10
399.999991
 20
-639.899989
 30
0.0
 11
389.999991
 21
-639.899989
 31
0.0
  0
TEXT
  5
735
  8
SIZE
  6
CONTINUOUS
 62
    30
 10
-117.8571448571429
 20
-629.899989
 30
0.0
 40
30.0
  1
950
 72
     1
 11
-75.000002
 21
-629.899989
 31
0.0
  0
POINT
  5
736
  8
DEFPOINTS
  6
CONTINUOUS
 62
    30
 10
-549.999979
 20
-392.299989
 30
0.0
  0
POINT
  5
737
  8
DEFPOINTS
  6
CONTINUOUS
 62
    30
 10
399.999991
 20
-392.299989
 30
0.0
  0
POINT
  5
738
  8
DEFPOINTS
  6
CONTINUOUS
 62
    30
 10
399.999991
 20
-639.899989
 30
0.0
  0
LINE
  5
739
  8
SIZE
  6
CONTINUOUS
 62
    30
 10
700.000021
 20
-402.299989
 30
0.0
 11
700.000021
 21
-652.399989
 31
0.0
  0
LINE
  5
73A
  8
SIZE
  6
CONTINUOUS
 62
    30
 10
399.999991
 20
-402.299989
 30
0.0
 11
399.999991
 21
-652.399989
 31
0.0
  0
LINE
  5
73B
  8
SIZE
  6
CONTINUOUS
 62
    30
 10
690.000021
 20
-639.899989
 30
0.0
 11
409.999991
 21
-639.899989
 31
0.0
  0
CIRCLE
  5
73C
  8
SIZE
  6
CONTINUOUS
 62
    30
 10
700.000021
 20
-639.899989
 30
0.0
 40
5.0
  0
LINE
  5
73D
  8
SIZE
  6
CONTINUOUS
 62
    30
 10
700.000021
 20
-639.899989
 30
0.0
 11
690.000021
 21
-639.899989
 31
0.0
  0
CIRCLE
  5
73E
  8
SIZE
  6
CONTINUOUS
 62
    30
 10
399.999991
 20
-639.899989
 30
0.0
 40
5.0
  0
LINE
  5
73F
  8
SIZE
  6
CONTINUOUS
 62
    30
 10
399.999991
 20
-639.899989
 30
0.0
 11
409.999991
 21
-639.899989
 31
0.0
  0
TEXT
  5
740
  8
SIZE
  6
CONTINUOUS
 62
    30
 10
507.1428781428571
 20
-629.899989
 30
0.0
 40
30.0
  1
300
 72
     1
 11
550.000021
 21
-629.899989
 31
0.0
  0
POINT
  5
741
  8
DEFPOINTS
  6
CONTINUOUS
 62
    30
 10
700.000021
 20
-392.299989
 30
0.0
  0
POINT
  5
742
  8
DEFPOINTS
  6
CONTINUOUS
 62
    30
 10
399.999991
 20
-392.299989
 30
0.0
  0
POINT
  5
743
  8
DEFPOINTS
  6
CONTINUOUS
 62
    30
 10
399.999991
 20
-639.899989
 30
0.0
  0
LINE
  5
744
  8
SIZE
  6
CONTINUOUS
 62
    30
 10
-559.999979
 20
-277.299989
 30
0.0
 11
-814.899979
 21
-277.299989
 31
0.0
  0
LINE
  5
745
  8
SIZE
  6
CONTINUOUS
 62
    30
 10
-559.999979
 20
-392.299989
 30
0.0
 11
-814.899979
 21
-392.299989
 31
0.0
  0
LINE
  5
746
  8
SIZE
  6
CONTINUOUS
 62
    30
 10
-802.399979
 20
-287.299989
 30
0.0
 11
-802.399979
 21
-382.299989
 31
0.0
  0
CIRCLE
  5
747
  8
SIZE
  6
CONTINUOUS
 62
    30
 10
-802.399979
 20
-277.299989
 30
0.0
 40
5.0
  0
LINE
  5
748
  8
SIZE
  6
CONTINUOUS
 62
    30
 10
-802.399979
 20
-277.299989
 30
0.0
 11
-802.399979
 21
-287.299989
 31
0.0
  0
CIRCLE
  5
749
  8
SIZE
  6
CONTINUOUS
 62
    30
 10
-802.399979
 20
-392.299989
 30
0.0
 40
5.0
  0
LINE
  5
74A
  8
SIZE
  6
CONTINUOUS
 62
    30
 10
-802.399979
 20
-392.299989
 30
0.0
 11
-802.399979
 21
-382.299989
 31
0.0
  0
TEXT
  5
74B
  8
SIZE
  6
CONTINUOUS
 62
    30
 10
-812.399979
 20
-387.299989
 30
0.0
 40
30.0
  1
115
 50
90.0
 72
     1
 11
-812.399979
 21
-342.299989
 31
0.0
  0
POINT
  5
74C
  8
DEFPOINTS
  6
CONTINUOUS
 62
    30
 10
-549.999979
 20
-277.299989
 30
0.0
  0
POINT
  5
74D
  8
DEFPOINTS
  6
CONTINUOUS
 62
    30
 10
-549.999979
 20
-392.299989
 30
0.0
  0
POINT
  5
74E
  8
DEFPOINTS
  6
CONTINUOUS
 62
    30
 10
-802.399979
 20
-392.299989
 30
0.0
  0
LINE
  5
74F
  8
SIZE
  6
CONTINUOUS
 62
    30
 10
710.000021
 20
107.700003
 30
0.0
 11
1160.09996
 21
107.700003
 31
0.0
  0
LINE
  5
750
  8
SIZE
  6
CONTINUOUS
 62
    30
 10
710.000021
 20
-392.299989
 30
0.0
 11
1160.09996
 21
-392.299989
 31
0.0
  0
LINE
  5
751
  8
SIZE
  6
CONTINUOUS
 62
    30
 10
1147.59996
 20
97.700003
 30
0.0
 11
1147.59996
 21
-382.299989
 31
0.0
  0
CIRCLE
  5
752
  8
SIZE
  6
CONTINUOUS
 62
    30
 10
1147.59996
 20
107.700003
 30
0.0
 40
5.0
  0
LINE
  5
753
  8
SIZE
  6
CONTINUOUS
 62
    30
 10
1147.59996
 20
107.700003
 30
0.0
 11
1147.59996
 21
97.700003
 31
0.0
  0
CIRCLE
  5
754
  8
SIZE
  6
CONTINUOUS
 62
    30
 10
1147.59996
 20
-392.299989
 30
0.0
 40
5.0
  0
LINE
  5
755
  8
SIZE
  6
CONTINUOUS
 62
    30
 10
1147.59996
 20
-392.299989
 30
0.0
 11
1147.59996
 21
-382.299989
 31
0.0
  0
TEXT
  5
756
  8
SIZE
  6
CONTINUOUS
 62
    30
 10
1137.59996
 20
-185.1571478571429
 30
0.0
 40
30.0
  1
500
 50
90.0
 72
     1
 11
1137.59996
 21
-142.300005
 31
0.0
  0
POINT
  5
757
  8
DEFPOINTS
  6
CONTINUOUS
 62
    30
 10
700.000021
 20
107.700003
 30
0.0
  0
POINT
  5
758
  8
DEFPOINTS
  6
CONTINUOUS
 62
    30
 10
700.000021
 20
-392.299989
 30
0.0
  0
POINT
  5
759
  8
DEFPOINTS
  6
CONTINUOUS
 62
    30
 10
1147.59996
 20
-392.299989
 30
0.0
  0
LINE
  5
75A
  8
SIZE
  6
CONTINUOUS
 62
    30
 10
-400.000009
 20
-281.299989
 30
0.0
 11
-400.000009
 21
-552.399989
 31
0.0
  0
LINE
  5
75B
  8
SIZE
  6
CONTINUOUS
 62
    30
 10
-105.000002
 20
-357.299989
 30
0.0
 11
-105.000002
 21
-552.399989
 31
0.0
  0
LINE
  5
75C
  8
SIZE
  6
CONTINUOUS
 62
    30
 10
-390.000009
 20
-539.899989
 30
0.0
 11
-115.000002
 21
-539.899989
 31
0.0
  0
CIRCLE
  5
75D
  8
SIZE
  6
CONTINUOUS
 62
    30
 10
-400.000009
 20
-539.899989
 30
0.0
 40
5.0
  0
LINE
  5
75E
  8
SIZE
  6
CONTINUOUS
 62
    30
 10
-400.000009
 20
-539.899989
 30
0.0
 11
-390.000009
 21
-539.899989
 31
0.0
  0
CIRCLE
  5
75F
  8
SIZE
  6
CONTINUOUS
 62
    30
 10
-105.000002
 20
-539.899989
 30
0.0
 40
5.0
  0
LINE
  5
760
  8
SIZE
  6
CONTINUOUS
 62
    30
 10
-105.000002
 20
-539.899989
 30
0.0
 11
-115.000002
 21
-539.899989
 31
0.0
  0
TEXT
  5
761
  8
SIZE
  6
CONTINUOUS
 62
    30
 10
-295.3571368571429
 20
-529.899989
 30
0.0
 40
30.0
  1
295
 72
     1
 11
-252.499994
 21
-529.899989
 31
0.0
  0
POINT
  5
762
  8
DEFPOINTS
  6
CONTINUOUS
 62
    30
 10
-400.000009
 20
-271.299989
 30
0.0
  0
POINT
  5
763
  8
DEFPOINTS
  6
CONTINUOUS
 62
    30
 10
-105.000002
 20
-347.299989
 30
0.0
  0
POINT
  5
764
  8
DEFPOINTS
  6
CONTINUOUS
 62
    30
 10
-105.000002
 20
-539.899989
 30
0.0
  0
LINE
  5
765
  8
SIZE
  6
CONTINUOUS
 62
    30
 10
399.999991
 20
117.700003
 30
0.0
 11
399.999991
 21
472.600011
 31
0.0
  0
LINE
  5
766
  8
SIZE
  6
CONTINUOUS
 62
    30
 10
463.999991
 20
-66.899278
 30
0.0
 11
463.999991
 21
472.600011
 31
0.0
  0
LINE
  5
767
  8
SIZE
  6
CONTINUOUS
 62
    30
 10
409.999991
 20
460.100011
 30
0.0
 11
453.999991
 21
460.100011
 31
0.0
  0
CIRCLE
  5
768
  8
SIZE
  6
CONTINUOUS
 62
    30
 10
399.999991
 20
460.100011
 30
0.0
 40
5.0
  0
LINE
  5
769
  8
SIZE
  6
CONTINUOUS
 62
    30
 10
399.999991
 20
460.100011
 30
0.0
 11
409.999991
 21
460.100011
 31
0.0
  0
CIRCLE
  5
76A
  8
SIZE
  6
CONTINUOUS
 62
    30
 10
463.999991
 20
460.100011
 30
0.0
 40
5.0
  0
LINE
  5
76B
  8
SIZE
  6
CONTINUOUS
 62
    30
 10
463.999991
 20
460.100011
 30
0.0
 11
453.999991
 21
460.100011
 31
0.0
  0
TEXT
  5
76C
  8
SIZE
  6
CONTINUOUS
 62
    30
 10
401.999991
 20
470.100011
 30
0.0
 40
30.0
  1
64
 72
     1
 11
431.999991
 21
470.100011
 31
0.0
  0
POINT
  5
76D
  8
DEFPOINTS
  6
CONTINUOUS
 62
    30
 10
399.999991
 20
107.700003
 30
0.0
  0
POINT
  5
76E
  8
DEFPOINTS
  6
CONTINUOUS
 62
    30
 10
463.999991
 20
-76.899278
 30
0.0
  0
POINT
  5
76F
  8
DEFPOINTS
  6
CONTINUOUS
 62
    30
 10
463.999991
 20
460.100011
 30
0.0
  0
LINE
  5
770
  8
SIZE
  6
CONTINUOUS
 62
    30
 10
389.999991
 20
-277.299989
 30
0.0
 11
1060.09996
 21
-277.299989
 31
0.0
  0
LINE
  5
771
  8
SIZE
  6
CONTINUOUS
 62
    30
 10
389.999991
 20
7.699999
 30
0.0
 11
1060.09996
 21
7.699999
 31
0.0
  0
LINE
  5
772
  8
SIZE
  6
CONTINUOUS
 62
    30
 10
1047.59996
 20
-267.299989
 30
0.0
 11
1047.59996
 21
-2.300000999999999
 31
0.0
  0
CIRCLE
  5
773
  8
SIZE
  6
CONTINUOUS
 62
    30
 10
1047.59996
 20
-277.299989
 30
0.0
 40
5.0
  0
LINE
  5
774
  8
SIZE
  6
CONTINUOUS
 62
    30
 10
1047.59996
 20
-277.299989
 30
0.0
 11
1047.59996
 21
-267.299989
 31
0.0
  0
CIRCLE
  5
775
  8
SIZE
  6
CONTINUOUS
 62
    30
 10
1047.59996
 20
7.699999
 30
0.0
 40
5.0
  0
LINE
  5
776
  8
SIZE
  6
CONTINUOUS
 62
    30
 10
1047.59996
 20
7.699999
 30
0.0
 11
1047.59996
 21
-2.300000999999999
 31
0.0
  0
TEXT
  5
777
  8
SIZE
  6
CONTINUOUS
 62
    30
 10
1037.59996
 20
-177.6571478571429
 30
0.0
 40
30.0
  1
285
 50
90.0
 72
     1
 11
1037.59996
 21
-134.800005
 31
0.0
  0
POINT
  5
778
  8
DEFPOINTS
  6
CONTINUOUS
 62
    30
 10
379.999991
 20
-277.299989
 30
0.0
  0
POINT
  5
779
  8
DEFPOINTS
  6
CONTINUOUS
 62
    30
 10
379.999991
 20
7.699999
 30
0.0
  0
POINT
  5
77A
  8
DEFPOINTS
  6
CONTINUOUS
 62
    30
 10
1047.59996
 20
7.699999
 30
0.0
  0
LINE
  5
77B
  8
SIZE
  6
CONTINUOUS
 62
    30
 10
-280.000009
 20
-297.299989
 30
0.0
 11
-914.899979
 21
-297.299989
 31
0.0
  0
LINE
  5
77C
  8
SIZE
  6
CONTINUOUS
 62
    30
 10
-280.000009
 20
17.699999
 30
0.0
 11
-914.899979
 21
17.699999
 31
0.0
  0
LINE
  5
77D
  8
SIZE
  6
CONTINUOUS
 62
    30
 10
-902.399979
 20
-287.299989
 30
0.0
 11
-902.399979
 21
7.699999
 31
0.0
  0
CIRCLE
  5
77E
  8
SIZE
  6
CONTINUOUS
 62
    30
 10
-902.399979
 20
-297.299989
 30
0.0
 40
5.0
  0
LINE
  5
77F
  8
SIZE
  6
CONTINUOUS
 62
    30
 10
-902.399979
 20
-297.299989
 30
0.0
 11
-902.399979
 21
-287.299989
 31
0.0
  0
CIRCLE
  5
780
  8
SIZE
  6
CONTINUOUS
 62
    30
 10
-902.399979
 20
17.699999
 30
0.0
 40
5.0
  0
LINE
  5
781
  8
SIZE
  6
CONTINUOUS
 62
    30
 10
-902.399979
 20
17.699999
 30
0.0
 11
-902.399979
 21
7.699999
 31
0.0
  0
TEXT
  5
782
  8
SIZE
  6
CONTINUOUS
 62
    30
 10
-912.399979
 20
-182.6571478571429
 30
0.0
 40
30.0
  1
315
 50
90.0
 72
     1
 11
-912.399979
 21
-139.800005
 31
0.0
  0
POINT
  5
783
  8
DEFPOINTS
  6
CONTINUOUS
 62
    30
 10
-270.000009
 20
-297.299989
 30
0.0
  0
POINT
  5
784
  8
DEFPOINTS
  6
CONTINUOUS
 62
    30
 10
-270.000009
 20
17.699999
 30
0.0
  0
POINT
  5
785
  8
DEFPOINTS
  6
CONTINUOUS
 62
    30
 10
-902.399979
 20
17.699999
 30
0.0
  0
LINE
  5
786
  8
SIZE
  6
CONTINUOUS
 62
    30
 10
230.000006
 20
-309.299989
 30
0.0
 11
230.000006
 21
-552.399989
 31
0.0
  0
LINE
  5
787
  8
SIZE
  6
CONTINUOUS
 62
    30
 10
269.999991
 20
-309.299989
 30
0.0
 11
269.999991
 21
-552.399989
 31
0.0
  0
LINE
  5
788
  8
SIZE
  6
CONTINUOUS
 62
    30
 10
220.000006
 20
-539.899989
 30
0.0
 11
210.000006
 21
-539.899989
 31
0.0
  0
LINE
  5
789
  8
SIZE
  6
CONTINUOUS
 62
    30
 10
279.999991
 20
-539.899989
 30
0.0
 11
289.999991
 21
-539.899989
 31
0.0
  0
LINE
  5
78A
  8
SIZE
  6
CONTINUOUS
 62
    30
 10
230.000006
 20
-539.899989
 30
0.0
 11
269.999991
 21
-539.899989
 31
0.0
  0
CIRCLE
  5
78B
  8
SIZE
  6
CONTINUOUS
 62
    30
 10
230.000006
 20
-539.899989
 30
0.0
 40
5.0
  0
LINE
  5
78C
  8
SIZE
  6
CONTINUOUS
 62
    30
 10
230.000006
 20
-539.899989
 30
0.0
 11
220.000006
 21
-539.899989
 31
0.0
  0
CIRCLE
  5
78D
  8
SIZE
  6
CONTINUOUS
 62
    30
 10
269.999991
 20
-539.899989
 30
0.0
 40
5.0
  0
LINE
  5
78E
  8
SIZE
  6
CONTINUOUS
 62
    30
 10
269.999991
 20
-539.899989
 30
0.0
 11
279.999991
 21
-539.899989
 31
0.0
  0
TEXT
  5
78F
  8
SIZE
  6
CONTINUOUS
 62
    30
 10
221.4285694285714
 20
-529.899989
 30
0.0
 40
30.0
  1
40
 72
     1
 11
249.999998
 21
-529.899989
 31
0.0
  0
POINT
  5
790
  8
DEFPOINTS
  6
CONTINUOUS
 62
    30
 10
230.000006
 20
-299.299989
 30
0.0
  0
POINT
  5
791
  8
DEFPOINTS
  6
CONTINUOUS
 62
    30
 10
269.999991
 20
-299.299989
 30
0.0
  0
POINT
  5
792
  8
DEFPOINTS
  6
CONTINUOUS
 62
    30
 10
269.999991
 20
-539.899989
 30
0.0
  0
LINE
  5
793
  8
SIZE
  6
CONTINUOUS
 62
    30
 10
-400.000009
 20
17.7
 30
0.0
 11
-400.000009
 21
322.600011
 31
0.0
  0
LINE
  5
794
  8
SIZE
  6
CONTINUOUS
 62
    30
 10
-416.000009
 20
-56.376245
 30
0.0
 11
-416.000009
 21
322.600011
 31
0.0
  0
LINE
  5
795
  8
SIZE
  6
CONTINUOUS
 62
    30
 10
-390.000009
 20
310.100011
 30
0.0
 11
-380.000009
 21
310.100011
 31
0.0
  0
LINE
  5
796
  8
SIZE
  6
CONTINUOUS
 62
    30
 10
-426.000009
 20
310.100011
 30
0.0
 11
-496.000009
 21
310.100011
 31
0.0
  0
LINE
  5
797
  8
SIZE
  6
CONTINUOUS
 62
    30
 10
-400.000009
 20
310.100011
 30
0.0
 11
-416.000009
 21
310.100011
 31
0.0
  0
CIRCLE
  5
798
  8
SIZE
  6
CONTINUOUS
 62
    30
 10
-400.000009
 20
310.100011
 30
0.0
 40
5.0
  0
LINE
  5
799
  8
SIZE
  6
CONTINUOUS
 62
    30
 10
-400.000009
 20
310.100011
 30
0.0
 11
-390.000009
 21
310.100011
 31
0.0
  0
CIRCLE
  5
79A
  8
SIZE
  6
CONTINUOUS
 62
    30
 10
-416.000009
 20
310.100011
 30
0.0
 40
5.0
  0
LINE
  5
79B
  8
SIZE
  6
CONTINUOUS
 62
    30
 10
-416.000009
 20
310.100011
 30
0.0
 11
-426.000009
 21
310.100011
 31
0.0
  0
TEXT
  5
79C
  8
SIZE
  6
CONTINUOUS
 62
    30
 10
-496.7142947142858
 20
320.100011
 30
0.0
 40
30.0
  1
16
 72
     1
 11
-466.000009
 21
320.100011
 31
0.0
  0
POINT
  5
79D
  8
DEFPOINTS
  6
CONTINUOUS
 62
    30
 10
-400.000009
 20
7.7
 30
0.0
  0
POINT
  5
79E
  8
DEFPOINTS
  6
CONTINUOUS
 62
    30
 10
-416.000009
 20
-66.376245
 30
0.0
  0
POINT
  5
79F
  8
DEFPOINTS
  6
CONTINUOUS
 62
    30
 10
-416.000009
 20
310.100011
 30
0.0
  0
LINE
  5
7A0
  8
SIZE
  6
CONTINUOUS
 62
    30
 10
-270.000009
 20
-309.299989
 30
0.0
 11
-1014.899979
 21
-309.299989
 31
0.0
  0
LINE
  5
7A1
  8
SIZE
  6
CONTINUOUS
 62
    30
 10
-272.500009
 20
35.699999
 30
0.0
 11
-1014.899979
 21
35.699999
 31
0.0
  0
LINE
  5
7A2
  8
SIZE
  6
CONTINUOUS
 62
    30
 10
-1002.399979
 20
-299.299989
 30
0.0
 11
-1002.399979
 21
25.699999
 31
0.0
  0
CIRCLE
  5
7A3
  8
SIZE
  6
CONTINUOUS
 62
    30
 10
-1002.399979
 20
-309.299989
 30
0.0
 40
5.0
  0
LINE
  5
7A4
  8
SIZE
  6
CONTINUOUS
 62
    30
 10
-1002.399979
 20
-309.299989
 30
0.0
 11
-1002.399979
 21
-299.299989
 31
0.0
  0
CIRCLE
  5
7A5
  8
SIZE
  6
CONTINUOUS
 62
    30
 10
-1002.399979
 20
35.699999
 30
0.0
 40
5.0
  0
LINE
  5
7A6
  8
SIZE
  6
CONTINUOUS
 62
    30
 10
-1002.399979
 20
35.699999
 30
0.0
 11
-1002.399979
 21
25.699999
 31
0.0
  0
TEXT
  5
7A7
  8
SIZE
  6
CONTINUOUS
 62
    30
 10
-1012.399979
 20
-179.6571478571429
 30
0.0
 40
30.0
  1
345
 50
90.0
 72
     1
 11
-1012.399979
 21
-136.800005
 31
0.0
  0
POINT
  5
7A8
  8
DEFPOINTS
  6
CONTINUOUS
 62
    30
 10
-260.000009
 20
-309.299989
 30
0.0
  0
POINT
  5
7A9
  8
DEFPOINTS
  6
CONTINUOUS
 62
    30
 10
-262.500009
 20
35.699999
 30
0.0
  0
POINT
  5
7AA
  8
DEFPOINTS
  6
CONTINUOUS
 62
    30
 10
-1002.399979
 20
35.699999
 30
0.0
  0
LINE
  5
7AB
  8
SIZE
  6
CONTINUOUS
 62
    30
 10
-95.000002
 20
-297.299989
 30
0.0
 11
160.100006
 21
-297.299989
 31
0.0
  0
LINE
  5
7AC
  8
SIZE
  6
CONTINUOUS
 62
    30
 10
389.999991
 20
-277.299989
 30
0.0
 11
135.100006
 21
-277.299989
 31
0.0
  0
LINE
  5
7AD
  8
SIZE
  6
CONTINUOUS
 62
    30
 10
147.600006
 20
-267.299989
 30
0.0
 11
147.600006
 21
-257.299989
 31
0.0
  0
LINE
  5
7AE
  8
SIZE
  6
CONTINUOUS
 62
    30
 10
147.600006
 20
-307.299989
 30
0.0
 11
147.600006
 21
-519.894228
 31
0.0
  0
LINE
  5
7AF
  8
SIZE
  6
CONTINUOUS
 62
    30
 10
147.600006
 20
-277.299989
 30
0.0
 11
147.600006
 21
-297.299989
 31
0.0
  0
CIRCLE
  5
7B0
  8
SIZE
  6
CONTINUOUS
 62
    30
 10
147.600006
 20
-277.299989
 30
0.0
 40
5.0
  0
LINE
  5
7B1
  8
SIZE
  6
CONTINUOUS
 62
    30
 10
147.600006
 20
-277.299989
 30
0.0
 11
147.600006
 21
-267.299989
 31
0.0
  0
CIRCLE
  5
7B2
  8
SIZE
  6
CONTINUOUS
 62
    30
 10
147.600006
 20
-297.299989
 30
0.0
 40
5.0
  0
LINE
  5
7B3
  8
SIZE
  6
CONTINUOUS
 62
    30
 10
147.600006
 20
-297.299989
 30
0.0
 11
147.600006
 21
-307.299989
 31
0.0
  0
TEXT
  5
7B4
  8
SIZE
  6
CONTINUOUS
 62
    30
 10
137.600006
 20
-515.9656565714287
 30
0.0
 40
30.0
  1
20
 50
90.0
 72
     1
 11
137.600006
 21
-487.3942280000001
 31
0.0
  0
POINT
  5
7B5
  8
DEFPOINTS
  6
CONTINUOUS
 62
    30
 10
-105.000002
 20
-297.299989
 30
0.0
  0
POINT
  5
7B6
  8
DEFPOINTS
  6
CONTINUOUS
 62
    30
 10
399.999991
 20
-277.299989
 30
0.0
  0
POINT
  5
7B7
  8
DEFPOINTS
  6
CONTINUOUS
 62
    30
 10
147.600006
 20
-277.299989
 30
0.0
  0
LINE
  5
7B8
  8
SIZE
  6
CONTINUOUS
 62
    30
 10
-400.000009
 20
-127.300004
 30
0.0
 11
-400.000009
 21
472.600011
 31
0.0
  0
LINE
  5
7B9
  8
SIZE
  6
CONTINUOUS
 62
    30
 10
-549.999979
 20
117.700003
 30
0.0
 11
-549.999979
 21
472.600011
 31
0.0
  0
LINE
  5
7BA
  8
SIZE
  6
CONTINUOUS
 62
    30
 10
-410.000009
 20
460.100011
 30
0.0
 11
-539.999979
 21
460.100011
 31
0.0
  0
CIRCLE
  5
7BB
  8
SIZE
  6
CONTINUOUS
 62
    30
 10
-400.000009
 20
460.100011
 30
0.0
 40
5.0
  0
LINE
  5
7BC
  8
SIZE
  6
CONTINUOUS
 62
    30
 10
-400.000009
 20
460.100011
 30
0.0
 11
-410.000009
 21
460.100011
 31
0.0
  0
CIRCLE
  5
7BD
  8
SIZE
  6
CONTINUOUS
 62
    30
 10
-549.999979
 20
460.100011
 30
0.0
 40
5.0
  0
LINE
  5
7BE
  8
SIZE
  6
CONTINUOUS
 62
    30
 10
-549.999979
 20
460.100011
 30
0.0
 11
-539.999979
 21
460.100011
 31
0.0
  0
TEXT
  5
7BF
  8
SIZE
  6
CONTINUOUS
 62
    30
 10
-520.00001
 20
470.100011
 30
0.0
 40
30.0
  1
150
 72
     1
 11
-475.00001
 21
470.100011
 31
0.0
  0
POINT
  5
7C0
  8
DEFPOINTS
  6
CONTINUOUS
 62
    30
 10
-400.000009
 20
-137.300004
 30
0.0
  0
POINT
  5
7C1
  8
DEFPOINTS
  6
CONTINUOUS
 62
    30
 10
-549.999979
 20
107.700003
 30
0.0
  0
POINT
  5
7C2
  8
DEFPOINTS
  6
CONTINUOUS
 62
    30
 10
-549.999979
 20
460.100011
 30
0.0
  0
LINE
  5
7C3
  8
SIZE
  6
CONTINUOUS
 62
    30
 10
-249.999994
 20
47.699999
 30
0.0
 11
-249.999994
 21
322.600011
 31
0.0
  0
LINE
  5
7C4
  8
SIZE
  6
CONTINUOUS
 62
    30
 10
-400.000009
 20
17.7
 30
0.0
 11
-400.000009
 21
322.600011
 31
0.0
  0
LINE
  5
7C5
  8
SIZE
  6
CONTINUOUS
 62
    30
 10
-259.999994
 20
310.100011
 30
0.0
 11
-390.000009
 21
310.100011
 31
0.0
  0
CIRCLE
  5
7C6
  8
SIZE
  6
CONTINUOUS
 62
    30
 10
-249.999994
 20
310.100011
 30
0.0
 40
5.0
  0
LINE
  5
7C7
  8
SIZE
  6
CONTINUOUS
 62
    30
 10
-249.999994
 20
310.100011
 30
0.0
 11
-259.999994
 21
310.100011
 31
0.0
  0
CIRCLE
  5
7C8
  8
SIZE
  6
CONTINUOUS
 62
    30
 10
-400.000009
 20
310.100011
 30
0.0
 40
5.0
  0
LINE
  5
7C9
  8
SIZE
  6
CONTINUOUS
 62
    30
 10
-400.000009
 20
310.100011
 30
0.0
 11
-390.000009
 21
310.100011
 31
0.0
  0
TEXT
  5
7CA
  8
SIZE
  6
CONTINUOUS
 62
    30
 10
-370.00001
 20
320.100011
 30
0.0
 40
30.0
  1
150
 72
     1
 11
-325.00001
 21
320.100011
 31
0.0
  0
POINT
  5
7CB
  8
DEFPOINTS
  6
CONTINUOUS
 62
    30
 10
-249.999994
 20
37.699999
 30
0.0
  0
POINT
  5
7CC
  8
DEFPOINTS
  6
CONTINUOUS
 62
    30
 10
-400.000009
 20
7.7
 30
0.0
  0
POINT
  5
7CD
  8
DEFPOINTS
  6
CONTINUOUS
 62
    30
 10
-400.000009
 20
310.100011
 30
0.0
  0
LINE
  5
7CE
  8
SIZE
  6
CONTINUOUS
 62
    30
 10
250.000006
 20
47.699999
 30
0.0
 11
250.000006
 21
322.600011
 31
0.0
  0
LINE
  5
7CF
  8
SIZE
  6
CONTINUOUS
 62
    30
 10
-249.999994
 20
47.699999
 30
0.0
 11
-249.999994
 21
322.600011
 31
0.0
  0
LINE
  5
7D0
  8
SIZE
  6
CONTINUOUS
 62
    30
 10
240.000006
 20
310.100011
 30
0.0
 11
-239.999994
 21
310.100011
 31
0.0
  0
CIRCLE
  5
7D1
  8
SIZE
  6
CONTINUOUS
 62
    30
 10
250.000006
 20
310.100011
 30
0.0
 40
5.0
  0
LINE
  5
7D2
  8
SIZE
  6
CONTINUOUS
 62
    30
 10
250.000006
 20
310.100011
 30
0.0
 11
240.000006
 21
310.100011
 31
0.0
  0
CIRCLE
  5
7D3
  8
SIZE
  6
CONTINUOUS
 62
    30
 10
-249.999994
 20
310.100011
 30
0.0
 40
5.0
  0
LINE
  5
7D4
  8
SIZE
  6
CONTINUOUS
 62
    30
 10
-249.999994
 20
310.100011
 30
0.0
 11
-239.999994
 21
310.100011
 31
0.0
  0
TEXT
  5
7D5
  8
SIZE
  6
CONTINUOUS
 62
    30
 10
-42.85714385714286
 20
320.100011
 30
0.0
 40
30.0
  1
500
 72
     1
 11
-0.000001
 21
320.100011
 31
0.0
  0
POINT
  5
7D6
  8
DEFPOINTS
  6
CONTINUOUS
 62
    30
 10
250.000006
 20
37.699999
 30
0.0
  0
POINT
  5
7D7
  8
DEFPOINTS
  6
CONTINUOUS
 62
    30
 10
-249.999994
 20
37.699999
 30
0.0
  0
POINT
  5
7D8
  8
DEFPOINTS
  6
CONTINUOUS
 62
    30
 10
-249.999994
 20
310.100011
 30
0.0
  0
LINE
  5
7D9
  8
SIZE
  6
CONTINUOUS
 62
    30
 10
-549.999979
 20
117.700003
 30
0.0
 11
-549.999979
 21
622.600011
 31
0.0
  0
LINE
  5
7DA
  8
SIZE
  6
CONTINUOUS
 62
    30
 10
399.999991
 20
117.700003
 30
0.0
 11
399.999991
 21
622.600011
 31
0.0
  0
LINE
  5
7DB
  8
SIZE
  6
CONTINUOUS
 62
    30
 10
-539.999979
 20
610.100011
 30
0.0
 11
389.999991
 21
610.100011
 31
0.0
  0
CIRCLE
  5
7DC
  8
SIZE
  6
CONTINUOUS
 62
    30
 10
-549.999979
 20
610.100011
 30
0.0
 40
5.0
  0
LINE
  5
7DD
  8
SIZE
  6
CONTINUOUS
 62
    30
 10
-549.999979
 20
610.100011
 30
0.0
 11
-539.999979
 21
610.100011
 31
0.0
  0
CIRCLE
  5
7DE
  8
SIZE
  6
CONTINUOUS
 62
    30
 10
399.999991
 20
610.100011
 30
0.0
 40
5.0
  0
LINE
  5
7DF
  8
SIZE
  6
CONTINUOUS
 62
    30
 10
399.999991
 20
610.100011
 30
0.0
 11
389.999991
 21
610.100011
 31
0.0
  0
TEXT
  5
7E0
  8
SIZE
  6
CONTINUOUS
 62
    30
 10
-117.8571448571429
 20
620.100011
 30
0.0
 40
30.0
  1
950
 72
     1
 11
-75.000002
 21
620.100011
 31
0.0
  0
POINT
  5
7E1
  8
DEFPOINTS
  6
CONTINUOUS
 62
    30
 10
-549.999979
 20
107.700003
 30
0.0
  0
POINT
  5
7E2
  8
DEFPOINTS
  6
CONTINUOUS
 62
    30
 10
399.999991
 20
107.700003
 30
0.0
  0
POINT
  5
7E3
  8
DEFPOINTS
  6
CONTINUOUS
 62
    30
 10
399.999991
 20
610.100011
 30
0.0
  0
LINE
  5
7E4
  8
SIZE
  6
CONTINUOUS
 62
    30
 10
399.999991
 20
117.700003
 30
0.0
 11
399.999991
 21
472.600011
 31
0.0
  0
LINE
  5
7E5
  8
SIZE
  6
CONTINUOUS
 62
    30
 10
-400.000009
 20
17.7
 30
0.0
 11
-400.000009
 21
472.600011
 31
0.0
  0
LINE
  5
7E6
  8
SIZE
  6
CONTINUOUS
 62
    30
 10
389.999991
 20
460.100011
 30
0.0
 11
-390.000009
 21
460.100011
 31
0.0
  0
CIRCLE
  5
7E7
  8
SIZE
  6
CONTINUOUS
 62
    30
 10
399.999991
 20
460.100011
 30
0.0
 40
5.0
  0
LINE
  5
7E8
  8
SIZE
  6
CONTINUOUS
 62
    30
 10
399.999991
 20
460.100011
 30
0.0
 11
389.999991
 21
460.100011
 31
0.0
  0
CIRCLE
  5
7E9
  8
SIZE
  6
CONTINUOUS
 62
    30
 10
-400.000009
 20
460.100011
 30
0.0
 40
5.0
  0
LINE
  5
7EA
  8
SIZE
  6
CONTINUOUS
 62
    30
 10
-400.000009
 20
460.100011
 30
0.0
 11
-390.000009
 21
460.100011
 31
0.0
  0
TEXT
  5
7EB
  8
SIZE
  6
CONTINUOUS
 62
    30
 10
-42.85714385714286
 20
470.100011
 30
0.0
 40
30.0
  1
800
 72
     1
 11
-0.000001
 21
470.100011
 31
0.0
  0
POINT
  5
7EC
  8
DEFPOINTS
  6
CONTINUOUS
 62
    30
 10
399.999991
 20
107.700003
 30
0.0
  0
POINT
  5
7ED
  8
DEFPOINTS
  6
CONTINUOUS
 62
    30
 10
-400.000009
 20
7.7
 30
0.0
  0
POINT
  5
7EE
  8
DEFPOINTS
  6
CONTINUOUS
 62
    30
 10
-400.000009
 20
460.100011
 30
0.0
  0
LINE
  5
7EF
  8
SIZE
  6
CONTINUOUS
 62
    30
 10
30.0
 20
7.0
 30
0.0
 11
860.100021
 21
7.0
 31
0.0
  0
LINE
  5
7F0
  8
SIZE
  6
CONTINUOUS
 62
    30
 10
409.999991
 20
7.7
 30
0.0
 11
860.100021
 21
7.7
 31
0.0
  0
LINE
  5
7F1
  8
SIZE
  6
CONTINUOUS
 62
    30
 10
847.600021
 20
17.7
 30
0.0
 11
847.600021
 21
27.7
 31
0.0
  0
LINE
  5
7F2
  8
SIZE
  6
CONTINUOUS
 62
    30
 10
847.600021
 20
-2.999999999999999
 30
0.0
 11
847.600021
 21
-57.94128600000001
 31
0.0
  0
LINE
  5
7F3
  8
SIZE
  6
CONTINUOUS
 62
    30
 10
847.600021
 20
7.7
 30
0.0
 11
847.600021
 21
7.0
 31
0.0
  0
CIRCLE
  5
7F4
  8
SIZE
  6
CONTINUOUS
 62
    30
 10
847.600021
 20
7.7
 30
0.0
 40
5.0
  0
LINE
  5
7F5
  8
SIZE
  6
CONTINUOUS
 62
    30
 10
847.600021
 20
7.7
 30
0.0
 11
847.600021
 21
17.7
 31
0.0
  0
CIRCLE
  5
7F6
  8
SIZE
  6
CONTINUOUS
 62
    30
 10
847.600021
 20
7.0
 30
0.0
 40
5.0
  0
LINE
  5
7F7
  8
SIZE
  6
CONTINUOUS
 62
    30
 10
847.600021
 20
7.0
 30
0.0
 11
847.600021
 21
-2.999999999999999
 31
0.0
  0
TEXT
  5
7F8
  8
SIZE
  6
CONTINUOUS
 62
    30
 10
837.600021
 20
-55.08414314285714
 30
0.0
 40
30.0
  1
1
 50
90.0
 72
     1
 11
837.600021
 21
-42.941286
 31
0.0
  0
POINT
  5
7F9
  8
DEFPOINTS
  6
CONTINUOUS
 62
    30
 10
20.0
 20
7.0
 30
0.0
  0
POINT
  5
7FA
  8
DEFPOINTS
  6
CONTINUOUS
 62
    30
 10
399.999991
 20
7.7
 30
0.0
  0
POINT
  5
7FB
  8
DEFPOINTS
  6
CONTINUOUS
 62
    30
 10
847.600021
 20
7.7
 30
0.0
  0
LINE
  5
7FC
  8
SIZE
  6
CONTINUOUS
 62
    30
 10
-559.999979
 20
7.7
 30
0.0
 11
-814.899979
 21
7.7
 31
0.0
  0
LINE
  5
7FD
  8
SIZE
  6
CONTINUOUS
 62
    30
 10
-559.999979
 20
107.700003
 30
0.0
 11
-814.899979
 21
107.700003
 31
0.0
  0
LINE
  5
7FE
  8
SIZE
  6
CONTINUOUS
 62
    30
 10
-802.399979
 20
17.7
 30
0.0
 11
-802.399979
 21
97.700003
 31
0.0
  0
CIRCLE
  5
7FF
  8
SIZE
  6
CONTINUOUS
 62
    30
 10
-802.399979
 20
7.7
 30
0.0
 40
5.0
  0
LINE
  5
800
  8
SIZE
  6
CONTINUOUS
 62
    30
 10
-802.399979
 20
7.7
 30
0.0
 11
-802.399979
 21
17.7
 31
0.0
  0
CIRCLE
  5
801
  8
SIZE
  6
CONTINUOUS
 62
    30
 10
-802.399979
 20
107.700003
 30
0.0
 40
5.0
  0
LINE
  5
802
  8
SIZE
  6
CONTINUOUS
 62
    30
 10
-802.399979
 20
107.700003
 30
0.0
 11
-802.399979
 21
97.700003
 31
0.0
  0
TEXT
  5
803
  8
SIZE
  6
CONTINUOUS
 62
    30
 10
-812.399979
 20
12.700003
 30
0.0
 40
30.0
  1
100
 50
90.0
 72
     1
 11
-812.399979
 21
57.700003
 31
0.0
  0
POINT
  5
804
  8
DEFPOINTS
  6
CONTINUOUS
 62
    30
 10
-549.999979
 20
7.7
 30
0.0
  0
POINT
  5
805
  8
DEFPOINTS
  6
CONTINUOUS
 62
    30
 10
-549.999979
 20
107.700003
 30
0.0
  0
POINT
  5
806
  8
DEFPOINTS
  6
CONTINUOUS
 62
    30
 10
-802.399979
 20
107.700003
 30
0.0
  0
LINE
  5
807
  8
SIZE
  6
CONTINUOUS
 62
    30
 10
-559.999979
 20
-277.299989
 30
0.0
 11
-814.899979
 21
-277.299989
 31
0.0
  0
LINE
  5
808
  8
SIZE
  6
CONTINUOUS
 62
    30
 10
-559.999979
 20
7.7
 30
0.0
 11
-814.899979
 21
7.7
 31
0.0
  0
LINE
  5
809
  8
SIZE
  6
CONTINUOUS
 62
    30
 10
-802.399979
 20
-267.299989
 30
0.0
 11
-802.399979
 21
-2.3
 31
0.0
  0
CIRCLE
  5
80A
  8
SIZE
  6
CONTINUOUS
 62
    30
 10
-802.399979
 20
-277.299989
 30
0.0
 40
5.0
  0
LINE
  5
80B
  8
SIZE
  6
CONTINUOUS
 62
    30
 10
-802.399979
 20
-277.299989
 30
0.0
 11
-802.399979
 21
-267.299989
 31
0.0
  0
CIRCLE
  5
80C
  8
SIZE
  6
CONTINUOUS
 62
    30
 10
-802.399979
 20
7.7
 30
0.0
 40
5.0
  0
LINE
  5
80D
  8
SIZE
  6
CONTINUOUS
 62
    30
 10
-802.399979
 20
7.7
 30
0.0
 11
-802.399979
 21
-2.3
 31
0.0
  0
TEXT
  5
80E
  8
SIZE
  6
CONTINUOUS
 62
    30
 10
-812.399979
 20
-177.6571478571429
 30
0.0
 40
30.0
  1
285
 50
90.0
 72
     1
 11
-812.399979
 21
-134.800005
 31
0.0
  0
POINT
  5
80F
  8
DEFPOINTS
  6
CONTINUOUS
 62
    30
 10
-549.999979
 20
-277.299989
 30
0.0
  0
POINT
  5
810
  8
DEFPOINTS
  6
CONTINUOUS
 62
    30
 10
-549.999979
 20
7.7
 30
0.0
  0
POINT
  5
811
  8
DEFPOINTS
  6
CONTINUOUS
 62
    30
 10
-802.399979
 20
7.7
 30
0.0
  0
LINE
  5
812
  8
SIZE
  6
CONTINUOUS
 62
    30
 10
409.999991
 20
7.7
 30
0.0
 11
1060.09996
 21
7.7
 31
0.0
  0
LINE
  5
813
  8
SIZE
  6
CONTINUOUS
 62
    30
 10
319.999991
 20
23.7
 30
0.0
 11
1060.09996
 21
23.7
 31
0.0
  0
LINE
  5
814
  8
SIZE
  6
CONTINUOUS
 62
    30
 10
1047.59996
 20
-2.3
 30
0.0
 11
1047.59996
 21
-12.3
 31
0.0
  0
LINE
  5
815
  8
SIZE
  6
CONTINUOUS
 62
    30
 10
1047.59996
 20
33.7
 30
0.0
 11
1047.59996
 21
103.7
 31
0.0
  0
LINE
  5
816
  8
SIZE
  6
CONTINUOUS
 62
    30
 10
1047.59996
 20
7.7
 30
0.0
 11
1047.59996
 21
23.7
 31
0.0
  0
CIRCLE
  5
817
  8
SIZE
  6
CONTINUOUS
 62
    30
 10
1047.59996
 20
7.7
 30
0.0
 40
5.0
  0
LINE
  5
818
  8
SIZE
  6
CONTINUOUS
 62
    30
 10
1047.59996
 20
7.7
 30
0.0
 11
1047.59996
 21
-2.3
 31
0.0
  0
CIRCLE
  5
819
  8
SIZE
  6
CONTINUOUS
 62
    30
 10
1047.59996
 20
23.7
 30
0.0
 40
5.0
  0
LINE
  5
81A
  8
SIZE
  6
CONTINUOUS
 62
    30
 10
1047.59996
 20
23.7
 30
0.0
 11
1047.59996
 21
33.7
 31
0.0
  0
TEXT
  5
81B
  8
SIZE
  6
CONTINUOUS
 62
    30
 10
1037.59996
 20
42.98571428571429
 30
0.0
 40
30.0
  1
16
 50
90.0
 72
     1
 11
1037.59996
 21
73.7
 31
0.0
  0
POINT
  5
81C
  8
DEFPOINTS
  6
CONTINUOUS
 62
    30
 10
399.999991
 20
7.7
 30
0.0
  0
POINT
  5
81D
  8
DEFPOINTS
  6
CONTINUOUS
 62
    30
 10
309.999991
 20
23.7
 30
0.0
  0
POINT
  5
81E
  8
DEFPOINTS
  6
CONTINUOUS
 62
    30
 10
1047.59996
 20
23.7
 30
0.0
  0
LINE
  5
81F
  8
SIZE
  6
CONTINUOUS
 62
    30
 10
409.999991
 20
7.7
 30
0.0
 11
960.100021
 21
7.7
 31
0.0
  0
LINE
  5
820
  8
SIZE
  6
CONTINUOUS
 62
    30
 10
279.999991
 20
17.7
 30
0.0
 11
960.100021
 21
17.7
 31
0.0
  0
LINE
  5
821
  8
SIZE
  6
CONTINUOUS
 62
    30
 10
947.600021
 20
-2.3
 30
0.0
 11
947.600021
 21
-12.3
 31
0.0
  0
LINE
  5
822
  8
SIZE
  6
CONTINUOUS
 62
    30
 10
947.600021
 20
27.7
 30
0.0
 11
947.600021
 21
92.7
 31
0.0
  0
LINE
  5
823
  8
SIZE
  6
CONTINUOUS
 62
    30
 10
947.600021
 20
7.7
 30
0.0
 11
947.600021
 21
17.7
 31
0.0
  0
CIRCLE
  5
824
  8
SIZE
  6
CONTINUOUS
 62
    30
 10
947.600021
 20
7.7
 30
0.0
 40
5.0
  0
LINE
  5
825
  8
SIZE
  6
CONTINUOUS
 62
    30
 10
947.600021
 20
7.7
 30
0.0
 11
947.600021
 21
-2.3
 31
0.0
  0
CIRCLE
  5
826
  8
SIZE
  6
CONTINUOUS
 62
    30
 10
947.600021
 20
17.7
 30
0.0
 40
5.0
  0
LINE
  5
827
  8
SIZE
  6
CONTINUOUS
 62
    30
 10
947.600021
 20
17.7
 30
0.0
 11
947.600021
 21
27.7
 31
0.0
  0
TEXT
  5
828
  8
SIZE
  6
CONTINUOUS
 62
    30
 10
937.600021
 20
34.48571428571429
 30
0.0
 40
30.0
  1
10
 50
90.0
 72
     1
 11
937.600021
 21
65.2
 31
0.0
  0
POINT
  5
829
  8
DEFPOINTS
  6
CONTINUOUS
 62
    30
 10
399.999991
 20
7.7
 30
0.0
  0
POINT
  5
82A
  8
DEFPOINTS
  6
CONTINUOUS
 62
    30
 10
269.999991
 20
17.7
 30
0.0
  0
POINT
  5
82B
  8
DEFPOINTS
  6
CONTINUOUS
 62
    30
 10
947.600021
 20
17.7
 30
0.0
  0
LINE
  5
82C
  8
SIZE
  6
CONTINUOUS
 62
    30
 10
-559.999979
 20
7.7
 30
0.0
 11
-664.899979
 21
7.7
 31
0.0
  0
LINE
  5
82D
  8
SIZE
  6
CONTINUOUS
 62
    30
 10
-272.500009
 20
35.699999
 30
0.0
 11
-664.899979
 21
35.699999
 31
0.0
  0
LINE
  5
82E
  8
SIZE
  6
CONTINUOUS
 62
    30
 10
-652.399979
 20
-2.3
 30
0.0
 11
-652.399979
 21
-12.3
 31
0.0
  0
LINE
  5
82F
  8
SIZE
  6
CONTINUOUS
 62
    30
 10
-652.399979
 20
45.699999
 30
0.0
 11
-652.399979
 21
125.699999
 31
0.0
  0
LINE
  5
830
  8
SIZE
  6
CONTINUOUS
 62
    30
 10
-652.399979
 20
7.7
 30
0.0
 11
-652.399979
 21
35.699999
 31
0.0
  0
CIRCLE
  5
831
  8
SIZE
  6
CONTINUOUS
 62
    30
 10
-652.399979
 20
7.7
 30
0.0
 40
5.0
  0
LINE
  5
832
  8
SIZE
  6
CONTINUOUS
 62
    30
 10
-652.399979
 20
7.7
 30
0.0
 11
-652.399979
 21
-2.3
 31
0.0
  0
CIRCLE
  5
833
  8
SIZE
  6
CONTINUOUS
 62
    30
 10
-652.399979
 20
35.699999
 30
0.0
 40
5.0
  0
LINE
  5
834
  8
SIZE
  6
CONTINUOUS
 62
    30
 10
-652.399979
 20
35.699999
 30
0.0
 11
-652.399979
 21
45.699999
 31
0.0
  0
TEXT
  5
835
  8
SIZE
  6
CONTINUOUS
 62
    30
 10
-662.399979
 20
62.12857042857144
 30
0.0
 40
30.0
  1
28
 50
90.0
 72
     1
 11
-662.399979
 21
90.699999
 31
0.0
  0
POINT
  5
836
  8
DEFPOINTS
  6
CONTINUOUS
 62
    30
 10
-549.999979
 20
7.7
 30
0.0
  0
POINT
  5
837
  8
DEFPOINTS
  6
CONTINUOUS
 62
    30
 10
-262.500009
 20
35.699999
 30
0.0
  0
POINT
  5
838
  8
DEFPOINTS
  6
CONTINUOUS
 62
    30
 10
-652.399979
 20
35.699999
 30
0.0
  0
TEXT
  5
839
  8
NOTE
  6
CONTINUOUS
 10
-642.079996
 20
408.570433
 30
0.0
 40
39.99999999999999
  1
メンテナンススペース
 50
0.0000030783246592
 41
0.8395830000000002
  7
STANDARD1
  0
TEXT
  5
83A
  8
NOTE
  6
CONTINUOUS
 10
-845.627298
 20
-372.321565
 30
0.0
 40
40.0
  1
※
 50
90.00000499999999
 41
0.84375
  7
STANDARD1
  0
TEXT
  5
83B
  8
NOTE
  6
CONTINUOUS
 10
-966.902994
 20
-993.723207
 30
0.0
 40
40.0
  1
※注）前方に高さ1200ｍｍを超える
 50
90.00000499999999
 41
0.799279
  7
STANDARD1
  0
TEXT
  5
83C
  8
NOTE
  6
CONTINUOUS
 10
-896.902994
 20
-993.723207
 30
0.0
 40
40.0
  1
　　　障害物がある場合は、300
 50
90.00000499999999
 41
0.806452
  7
STANDARD1
  0
LINE
  5
83D
  8
NOTE
  6
CONTINUOUS
 10
1116.157675
 20
357.700011
 30
0.0
 11
611.507711
 21
357.700011
 31
0.0
  0
LINE
  5
83E
  8
NOTE
  6
CONTINUOUS
 10
611.507711
 20
357.700011
 30
0.0
 11
434.999991
 21
-130.300004
 31
0.0
  0
LINE
  5
83F
  8
NOTE
  6
CONTINUOUS
 10
434.999991
 20
-130.300004
 30
0.0
 11
435.170298
 21
-128.307269
 31
0.0
  0
LINE
  5
840
  8
NOTE
  6
CONTINUOUS
 10
434.999991
 20
-130.300004
 30
0.0
 11
436.143849
 21
-128.659398
 31
0.0
  0
TEXT
  5
841
  8
NOTE
  6
CONTINUOUS
 10
671.957724
 20
413.700011
 30
0.0
 40
40.0
  1
貯湯ﾀﾝｸﾕﾆｯﾄ接続口(A)
 50
359.9999960875177
 41
0.8418560000000002
  7
STANDARD1
  0
TEXT
  5
842
  8
NOTE
  6
CONTINUOUS
 10
671.957724
 20
358.700011
 30
0.0
 40
40.0
  1
R1/2(φ21.7)
 50
359.9999959954467
 41
0.632366
  7
STANDARD1
  0
LINE
  5
843
  8
NOTE
  6
CONTINUOUS
 10
1116.157675
 20
207.699996
 30
0.0
 11
611.507711
 21
207.699996
 31
0.0
  0
LINE
  5
844
  8
NOTE
  6
CONTINUOUS
 10
611.507711
 20
207.699996
 30
0.0
 11
434.999991
 21
-145.300004
 31
0.0
  0
LINE
  5
845
  8
NOTE
  6
CONTINUOUS
 10
434.999991
 20
-145.300004
 30
0.0
 11
435.400986
 21
-143.340616
 31
0.0
  0
LINE
  5
846
  8
NOTE
  6
CONTINUOUS
 10
434.999991
 20
-145.300004
 30
0.0
 11
436.326957
 21
-143.803622
 31
0.0
  0
TEXT
  5
847
  8
NOTE
  6
CONTINUOUS
 10
671.957724
 20
263.699996
 30
0.0
 40
40.0
  1
貯湯ﾀﾝｸﾕﾆｯﾄ接続口(B)
 50
359.9999960875177
 41
0.8418560000000002
  7
STANDARD1
  0
TEXT
  5
848
  8
NOTE
  6
CONTINUOUS
 10
671.957724
 20
208.699996
 30
0.0
 40
40.0
  1
R1/2(φ21.7)
 50
359.9999959954467
 41
0.632366
  7
STANDARD1
  0
TEXT
  5
849
  8
NOTE
  6
CONTINUOUS
 10
1200.088339
 20
-350.807252
 30
0.0
 40
40.0
  1
メンテナンススペース
 50
90.00000499999999
 41
0.84375
  7
STANDARD1
  0
TEXT
  5
84A
  8
NOTE
  6
CONTINUOUS
 10
369.592276
 20
-696.3084729999999
 30
0.0
 40
39.99999999999999
  1
メンテナンススペース
 50
0.0000030783246592
 41
0.8395830000000002
  7
STANDARD1
  0
TEXT
  5
84B
  8
NOTE
  6
CONTINUOUS
 10
-273.491831
 20
-695.075563
 30
0.0
 40
39.99999999999999
  1
メンテナンススペース
 50
0.0000030783246592
 41
0.8395830000000002
  7
STANDARD1
  0
TEXT
  5
84C
  8
NOTE
  6
CONTINUOUS
 10
-752.305826
 20
-715.008974
 30
0.0
 40
40.0
  1
メンテナンススペース
 50
90.00000499999999
 41
0.84375
  7
STANDARD1
  0
TEXT
  5
84D
  8
NOTE
  6
CONTINUOUS
 10
-763.7333160000001
 20
-274.707338
 30
0.0
 40
28.0
  1
メンテナンススペース
 50
90.00000499999999
 41
0.84375
  7
STANDARD1
  0
TEXT
  5
84E
  8
NOTE
  6
CONTINUOUS
 10
-272.837473
 20
559.002562
 30
0.0
 40
39.99999999999999
  1
メンテナンススペース
 50
0.0000030783246592
 41
0.8395830000000002
  7
STANDARD1
  0
TEXT
  5
84F
  8
NOTE
  6
CONTINUOUS
 10
-754.673807
 20
40.977168
 30
0.0
 40
40.0
  1
メンテナンススペース
 50
90.00000499999999
 41
0.84375
  7
STANDARD1
  0
LINE
  5
850
  8
NOTE
  6
CONTINUOUS
 10
-684.632975
 20
207.699996
 30
0.0
 11
-527.282999
 21
207.699996
 31
0.0
  0
LINE
  5
851
  8
NOTE
  6
CONTINUOUS
 10
-527.282999
 20
207.699996
 30
0.0
 11
-249.999994
 21
17.699999
 31
0.0
  0
LINE
  5
852
  8
NOTE
  6
CONTINUOUS
 10
-249.999994
 20
17.699999
 30
0.0
 11
-251.886211
 21
18.364972
 31
0.0
  0
LINE
  5
853
  8
NOTE
  6
CONTINUOUS
 10
-249.999994
 20
17.699999
 30
0.0
 11
-251.301019
 21
19.21899
 31
0.0
  0
TEXT
  5
854
  8
NOTE
  6
CONTINUOUS
 10
-684.6330360000001
 20
208.699996
 30
0.0
 40
40.0
  1
4-AH
 50
359.9999960875177
 41
0.6075
  7
STANDARD1
  0
LINE
  5
855
  8
NOTE
  6
CONTINUOUS
 10
455.0
 20
-145.3
 30
0.0
 11
415.0
 21
-145.3
 31
0.0
  0
LINE
  5
856
  8
NOTE
  6
CONTINUOUS
 10
435.0
 20
-165.3
 30
0.0
 11
435.0
 21
-125.3
 31
0.0
  0
LINE
  5
857
  8
NOTE
  6
CONTINUOUS
 10
455.0
 20
-130.3
 30
0.0
 11
415.0
 21
-130.3
 31
0.0
  0
LINE
  5
858
  8
NOTE
  6
CONTINUOUS
 10
435.0
 20
-150.3
 30
0.0
 11
435.0
 21
-110.3
 31
0.0
  0
LINE
  5
859
  8
NOTE
  6
CONTINUOUS
 10
181.010092
 20
207.699996
 30
0.0
 11
-65.239908
 21
207.699996
 31
0.0
  0
LINE
  5
85A
  8
NOTE
  6
CONTINUOUS
 10
-65.239908
 20
207.699996
 30
0.0
 11
0.0
 21
6.999999000000001
 31
0.0
  0
LINE
  5
85B
  8
NOTE
  6
CONTINUOUS
 10
0.0
 20
6.999999000000001
 30
0.0
 11
-1.089494
 21
8.677201
 31
0.0
  0
LINE
  5
85C
  8
NOTE
  6
CONTINUOUS
 10
0.0
 20
6.999999000000001
 30
0.0
 11
-0.104929
 21
8.997245
 31
0.0
  0
TEXT
  5
85D
  8
NOTE
  6
CONTINUOUS
 10
-4.789909000000001
 20
208.699996
 30
0.0
 40
40.0
  1
D φ15.5
 50
359.9999959954467
 41
0.684191
  7
STANDARD1
  0
LINE
  5
85E
  8
NOTE
  6
CONTINUOUS
 10
270.0
 20
-297.3
 30
0.0
 11
230.0
 21
-297.3
 31
0.0
  0
LINE
  5
85F
  8
NOTE
  6
CONTINUOUS
 10
250.0
 20
-317.3
 30
0.0
 11
250.0
 21
-277.3
 31
0.0
  0
LINE
  5
860
  8
NOTE
  6
CONTINUOUS
 10
270.0
 20
17.7
 30
0.0
 11
230.0
 21
17.7
 31
0.0
  0
LINE
  5
861
  8
NOTE
  6
CONTINUOUS
 10
20.0
 20
7.0
 30
0.0
 11
-20.0
 21
7.0
 31
0.0
  0
LINE
  5
862
  8
NOTE
  6
CONTINUOUS
 10
250.0
 20
37.7
 30
0.0
 11
250.0
 21
-2.3
 31
0.0
  0
LINE
  5
863
  8
NOTE
  6
CONTINUOUS
 10
0.0
 20
27.0
 30
0.0
 11
0.0
 21
-13.0
 31
0.0
  0
LINE
  5
864
  8
NOTE
  6
CONTINUOUS
 10
-230.0
 20
17.7
 30
0.0
 11
-270.0
 21
17.7
 31
0.0
  0
LINE
  5
865
  8
NOTE
  6
CONTINUOUS
 10
-250.0
 20
37.7
 30
0.0
 11
-250.0
 21
-2.3
 31
0.0
  0
LINE
  5
866
  8
NOTE
  6
CONTINUOUS
 10
-230.0
 20
-297.3
 30
0.0
 11
-270.0
 21
-297.3
 31
0.0
  0
LINE
  5
867
  8
NOTE
  6
CONTINUOUS
 10
-250.0
 20
-317.3
 30
0.0
 11
-250.0
 21
-277.3
 31
0.0
  0
CIRCLE
  5
868
  8
ARRANGE
  6
CONTINUOUS
 10
0.0
 20
0.0
 30
0.0
 40
15.0
  0
CIRCLE
  5
869
  8
FIX
  6
CONTINUOUS
 10
-250.0
 20
-297.3
 30
0.0
 40
4.0
  0
CIRCLE
  5
86A
  8
FIX
  6
CONTINUOUS
 10
-250.0
 20
17.7
 30
0.0
 40
4.0
  0
CIRCLE
  5
86B
  8
FIX
  6
CONTINUOUS
 10
250.0
 20
17.7
 30
0.0
 40
4.0
  0
CIRCLE
  5
86C
  8
FIX
  6
CONTINUOUS
 10
250.0
 20
-297.3
 30
0.0
 40
4.0
  0
LINE
  5
86D
  8
SERVICESPACE
  6
DASHDOT
 10
-550.0
 20
-277.3
 30
0.0
 11
400.0
 21
-392.3
 31
0.0
  0
LINE
  5
86E
  8
SERVICESPACE
  6
DASHDOT
 10
400.0
 20
-277.3
 30
0.0
 11
-550.0
 21
-392.3
 31
0.0
  0
LINE
  5
86F
  8
SERVICESPACE
  6
DASHDOT
 10
400.0
 20
107.7
 30
0.0
 11
700.0
 21
-392.3
 31
0.0
  0
LINE
  5
870
  8
SERVICESPACE
  6
DASHDOT
 10
700.0
 20
107.7
 30
0.0
 11
400.0
 21
-392.3
 31
0.0
  0
LINE
  5
871
  8
SERVICESPACE
  6
DASHDOT
 10
-550.0
 20
107.7
 30
0.0
 11
400.0
 21
7.7
 31
0.0
  0
LINE
  5
872
  8
SERVICESPACE
  6
DASHDOT
 10
400.0
 20
107.7
 30
0.0
 11
-550.0
 21
7.7
 31
0.0
  0
LINE
  5
873
  8
SERVICESPACE
  6
DASHDOT
 10
-550.0
 20
7.7
 30
0.0
 11
400.0
 21
7.7
 31
0.0
  0
LINE
  5
874
  8
SERVICESPACE
  6
DASHDOT
 10
-550.0
 20
-277.3
 30
0.0
 11
400.0
 21
-277.3
 31
0.0
  0
LINE
  5
875
  8
SERVICESPACE
  6
DASHDOT
 10
-550.0
 20
-392.3
 30
0.0
 11
-550.0
 21
107.7
 31
0.0
  0
LINE
  5
876
  8
SERVICESPACE
  6
DASHDOT
 10
-550.0
 20
107.7
 30
0.0
 11
700.0
 21
107.7
 31
0.0
  0
LINE
  5
877
  8
SERVICESPACE
  6
DASHDOT
 10
400.0
 20
-392.3
 30
0.0
 11
400.0
 21
107.7
 31
0.0
  0
LINE
  5
878
  8
SERVICESPACE
  6
DASHDOT
 10
-400.0
 20
-271.3
 30
0.0
 11
-400.0
 21
7.7
 31
0.0
  0
LINE
  5
879
  8
SERVICESPACE
  6
DASHDOT
 10
700.0
 20
-392.3
 30
0.0
 11
700.0
 21
107.7
 31
0.0
  0
LINE
  5
87A
  8
SERVICESPACE
  6
DASHDOT
 10
-550.0
 20
-392.3
 30
0.0
 11
700.0
 21
-392.3
 31
0.0
  0
LINE
  5
87B
  8
SERVICESPACE
  6
DASHDOT
 10
-550.0
 20
7.7
 30
0.0
 11
-400.0
 21
-271.3
 31
0.0
  0
LINE
  5
87C
  8
SERVICESPACE
  6
DASHDOT
 10
-400.0
 20
7.7
 30
0.0
 11
-550.0
 21
-277.3
 31
0.0
  0
TEXT
  5
87D
  8
ETC
  6
CONTINUOUS
 10
773.9662079999999
 20
632.5866080000001
 30
0.0
 40
39.99999999999999
  1
TESU4580A46
 50
0.0000030783246592
 41
0.6075000000000002
  7
STANDARD1
  0
TEXT
  5
87E
  8
ETC
  6
CONTINUOUS
 10
773.9662079999999
 20
577.5866080000001
 30
0.0
 40
39.99999999999999
  1
ヒートポンプユニット
 50
0.0000030783246592
 41
0.8395830000000002
  7
STANDARD1
  0
ENDSEC
  0
EOF
