  0
SECTION
  2
HEADER
  9
$ACADVER
  1
AC1021
  9
$ACADMAINTVER
 70
    50
  9
$DWGCODEPAGE
  3
ANSI_932
  9
$LASTSAVEDBY
  1
mee
  9
$INSBASE
 10
0.0
 20
0.0
 30
0.0
  9
$EXTMIN
 10
-857.1790866129854
 20
-450.0
 30
0.0
  9
$EXTMAX
 10
790.4732051001515
 20
2561.118660375719
 30
0.0
  9
$LIMMIN
 10
0.0
 20
0.0
  9
$LIMMAX
 10
12.0
 20
9.0
  9
$ORTHOMODE
 70
     0
  9
$REGENMODE
 70
     1
  9
$FILLMODE
 70
     1
  9
$QTEXTMODE
 70
     0
  9
$MIRRTEXT
 70
     0
  9
$LTSCALE
 40
1.0
  9
$ATTMODE
 70
     1
  9
$TEXTSIZE
 40
2.799999952316284
  9
$TRACEWID
 40
0.05
  9
$TEXTSTYLE
  7
STANDARD1
  9
$CLAYER
  8
0
  9
$CELTYPE
  6
CONTINUOUS
  9
$CECOLOR
 62
   256
  9
$CELTSCALE
 40
1.0
  9
$DISPSILH
 70
     0
  9
$DIMSCALE
 40
1.0
  9
$DIMASZ
 40
10.0
  9
$DIMEXO
 40
10.0
  9
$DIMDLI
 40
8.0
  9
$DIMRND
 40
0.0
  9
$DIMDLE
 40
0.0
  9
$DIMEXE
 40
12.5
  9
$DIMTP
 40
0.0
  9
$DIMTM
 40
0.0
  9
$DIMTXT
 40
30.0
  9
$DIMCEN
 40
2.5
  9
$DIMTSZ
 40
0.0
  9
$DIMTOL
 70
     0
  9
$DIMLIM
 70
     0
  9
$DIMTIH
 70
     0
  9
$DIMTOH
 70
     0
  9
$DIMSE1
 70
     0
  9
$DIMSE2
 70
     0
  9
$DIMTAD
 70
     3
  9
$DIMZIN
 70
    12
  9
$DIMBLK
  1

  9
$DIMASO
 70
     1
  9
$DIMSHO
 70
     1
  9
$DIMPOST
  1

  9
$DIMAPOST
  1

  9
$DIMALT
 70
     0
  9
$DIMALTD
 70
     4
  9
$DIMALTF
 40
25.4
  9
$DIMLFAC
 40
1.0
  9
$DIMTOFL
 70
     1
  9
$DIMTVP
 40
0.0
  9
$DIMTIX
 70
     0
  9
$DIMSOXD
 70
     0
  9
$DIMSAH
 70
     1
  9
$DIMBLK1
  1
ORIGIN
  9
$DIMBLK2
  1
ORIGIN
  9
$DIMSTYLE
  2
STANDARD
  9
$DIMCLRD
 70
     0
  9
$DIMCLRE
 70
     0
  9
$DIMCLRT
 70
     0
  9
$DIMTFAC
 40
0.7142857313156129
  9
$DIMGAP
 40
10.0
  9
$DIMJUST
 70
     0
  9
$DIMSD1
 70
     0
  9
$DIMSD2
 70
     0
  9
$DIMTOLJ
 70
     1
  9
$DIMTZIN
 70
     0
  9
$DIMALTZ
 70
     0
  9
$DIMALTTZ
 70
     0
  9
$DIMUPT
 70
     0
  9
$DIMDEC
 70
     4
  9
$DIMTDEC
 70
     4
  9
$DIMALTU
 70
     2
  9
$DIMALTTD
 70
     2
  9
$DIMTXSTY
  7
STANDARD
  9
$DIMAUNIT
 70
     0
  9
$DIMADEC
 70
     0
  9
$DIMALTRND
 40
0.0
  9
$DIMAZIN
 70
     0
  9
$DIMDSEP
 70
    46
  9
$DIMATFIT
 70
     3
  9
$DIMFRAC
 70
     0
  9
$DIMLDRBLK
  1
ORIGIN
  9
$DIMLUNIT
 70
     2
  9
$DIMLWD
 70
    -2
  9
$DIMLWE
 70
    -2
  9
$DIMTMOVE
 70
     0
  9
$DIMFXL
 40
1.0
  9
$DIMFXLON
 70
     0
  9
$DIMJOGANG
 40
0.7853981633974483
  9
$DIMTFILL
 70
     0
  9
$DIMTFILLCLR
 70
     0
  9
$DIMARCSYM
 70
     0
  9
$DIMLTYPE
  6

  9
$DIMLTEX1
  6

  9
$DIMLTEX2
  6

  9
$LUNITS
 70
     2
  9
$LUPREC
 70
     3
  9
$SKETCHINC
 40
0.1
  9
$FILLETRAD
 40
0.0
  9
$AUNITS
 70
     0
  9
$AUPREC
 70
     0
  9
$MENU
  1
.
  9
$ELEVATION
 40
0.0
  9
$PELEVATION
 40
0.0
  9
$THICKNESS
 40
0.0
  9
$LIMCHECK
 70
     0
  9
$CHAMFERA
 40
0.0
  9
$CHAMFERB
 40
0.0
  9
$CHAMFERC
 40
0.0
  9
$CHAMFERD
 40
0.0
  9
$SKPOLY
 70
     0
  9
$TDCREATE
 40
2457836.426273924
  9
$TDUCREATE
 40
2457836.051273924
  9
$TDUPDATE
 40
2457842.482116828
  9
$TDUUPDATE
 40
2457842.107116829
  9
$TDINDWG
 40
0.0253201157
  9
$TDUSRTIMER
 40
0.0253199306
  9
$USRTIMER
 70
     1
  9
$ANGBASE
 50
0.0
  9
$ANGDIR
 70
     0
  9
$PDMODE
 70
     0
  9
$PDSIZE
 40
0.0
  9
$PLINEWID
 40
0.0
  9
$SPLFRAME
 70
     0
  9
$SPLINETYPE
 70
     6
  9
$SPLINESEGS
 70
     8
  9
$HANDSEED
  5
552
  9
$SURFTAB1
 70
     6
  9
$SURFTAB2
 70
     6
  9
$SURFTYPE
 70
     6
  9
$SURFU
 70
     6
  9
$SURFV
 70
     6
  9
$UCSBASE
  2

  9
$UCSNAME
  2

  9
$UCSORG
 10
0.0
 20
0.0
 30
0.0
  9
$UCSXDIR
 10
1.0
 20
0.0
 30
0.0
  9
$UCSYDIR
 10
0.0
 20
1.0
 30
0.0
  9
$UCSORTHOREF
  2

  9
$UCSORTHOVIEW
 70
     0
  9
$UCSORGTOP
 10
0.0
 20
0.0
 30
0.0
  9
$UCSORGBOTTOM
 10
0.0
 20
0.0
 30
0.0
  9
$UCSORGLEFT
 10
0.0
 20
0.0
 30
0.0
  9
$UCSORGRIGHT
 10
0.0
 20
0.0
 30
0.0
  9
$UCSORGFRONT
 10
0.0
 20
0.0
 30
0.0
  9
$UCSORGBACK
 10
0.0
 20
0.0
 30
0.0
  9
$PUCSBASE
  2

  9
$PUCSNAME
  2

  9
$PUCSORG
 10
0.0
 20
0.0
 30
0.0
  9
$PUCSXDIR
 10
1.0
 20
0.0
 30
0.0
  9
$PUCSYDIR
 10
0.0
 20
1.0
 30
0.0
  9
$PUCSORTHOREF
  2

  9
$PUCSORTHOVIEW
 70
     0
  9
$PUCSORGTOP
 10
0.0
 20
0.0
 30
0.0
  9
$PUCSORGBOTTOM
 10
0.0
 20
0.0
 30
0.0
  9
$PUCSORGLEFT
 10
0.0
 20
0.0
 30
0.0
  9
$PUCSORGRIGHT
 10
0.0
 20
0.0
 30
0.0
  9
$PUCSORGFRONT
 10
0.0
 20
0.0
 30
0.0
  9
$PUCSORGBACK
 10
0.0
 20
0.0
 30
0.0
  9
$USERI1
 70
     0
  9
$USERI2
 70
     0
  9
$USERI3
 70
     0
  9
$USERI4
 70
     0
  9
$USERI5
 70
     0
  9
$USERR1
 40
0.0
  9
$USERR2
 40
0.0
  9
$USERR3
 40
0.0
  9
$USERR4
 40
0.0
  9
$USERR5
 40
0.0
  9
$WORLDVIEW
 70
     1
  9
$SHADEDGE
 70
     3
  9
$SHADEDIF
 70
    70
  9
$TILEMODE
 70
     1
  9
$MAXACTVP
 70
    64
  9
$PINSBASE
 10
0.0
 20
0.0
 30
0.0
  9
$PLIMCHECK
 70
     0
  9
$PEXTMIN
 10
1.000000000000000E+20
 20
1.000000000000000E+20
 30
1.000000000000000E+20
  9
$PEXTMAX
 10
-1.000000000000000E+20
 20
-1.000000000000000E+20
 30
-1.000000000000000E+20
  9
$PLIMMIN
 10
0.0
 20
0.0
  9
$PLIMMAX
 10
12.0
 20
9.0
  9
$UNITMODE
 70
     0
  9
$VISRETAIN
 70
     1
  9
$PLINEGEN
 70
     0
  9
$PSLTSCALE
 70
     1
  9
$TREEDEPTH
 70
  3020
  9
$CMLSTYLE
  2
Standard
  9
$CMLJUST
 70
     0
  9
$CMLSCALE
 40
1.0
  9
$PROXYGRAPHICS
 70
     1
  9
$MEASUREMENT
 70
     0
  9
$CELWEIGHT
370
    -1
  9
$ENDCAPS
280
     0
  9
$JOINSTYLE
280
     0
  9
$LWDISPLAY
290
     0
  9
$INSUNITS
 70
     0
  9
$HYPERLINKBASE
  1

  9
$STYLESHEET
  1

  9
$XEDIT
290
     1
  9
$CEPSNTYPE
380
     0
  9
$PSTYLEMODE
290
     1
  9
$FINGERPRINTGUID
  2
{497EE361-095D-4135-BCC8-FC08A4E1FF76}
  9
$VERSIONGUID
  2
{6EBD887E-08F0-433A-B9E7-6110B1E4C784}
  9
$EXTNAMES
290
     1
  9
$PSVPSCALE
 40
0.0
  9
$OLESTARTUP
290
     0
  9
$SORTENTS
280
   127
  9
$INDEXCTL
280
     0
  9
$HIDETEXT
280
     0
  9
$XCLIPFRAME
290
     0
  9
$HALOGAP
280
     0
  9
$OBSCOLOR
 70
   257
  9
$OBSLTYPE
280
     0
  9
$INTERSECTIONDISPLAY
280
     0
  9
$INTERSECTIONCOLOR
 70
   257
  9
$DIMASSOC
280
     1
  9
$PROJECTNAME
  1

  9
$CAMERADISPLAY
290
     0
  9
$LENSLENGTH
 40
50.0
  9
$CAMERAHEIGHT
 40
0.0
  9
$STEPSPERSEC
 40
2.0
  9
$STEPSIZE
 40
6.0
  9
$3DDWFPREC
 40
2.0
  9
$PSOLWIDTH
 40
0.25
  9
$PSOLHEIGHT
 40
4.0
  9
$LOFTANG1
 40
1.570796326794896
  9
$LOFTANG2
 40
1.570796326794896
  9
$LOFTMAG1
 40
0.0
  9
$LOFTMAG2
 40
0.0
  9
$LOFTPARAM
 70
     7
  9
$LOFTNORMALS
280
     1
  9
$LATITUDE
 40
37.795
  9
$LONGITUDE
 40
-122.394
  9
$NORTHDIRECTION
 40
0.0
  9
$TIMEZONE
 70
 -8000
  9
$LIGHTGLYPHDISPLAY
280
     1
  9
$TILEMODELIGHTSYNCH
280
     1
  9
$CMATERIAL
347
11
  9
$SOLIDHIST
280
     0
  9
$SHOWHIST
280
     1
  9
$DWFFRAME
280
     2
  9
$DGNFRAME
280
     0
  9
$REALWORLDSCALE
290
     1
  9
$INTERFERECOLOR
 62
     1
  9
$INTERFEREOBJVS
345
33
  9
$INTERFEREVPVS
346
30
  9
$CSHADOW
280
     0
  9
$SHADOWPLANELOCATION
 40
0.0
  0
ENDSEC
  0
SECTION
  2
CLASSES
  0
CLASS
  1
ACDBDICTIONARYWDFLT
  2
AcDbDictionaryWithDefault
  3
ObjectDBX Classes
 90
        0
 91
        1
280
     0
281
     0
  0
CLASS
  1
MATERIAL
  2
AcDbMaterial
  3
ObjectDBX Classes
 90
     1153
 91
        3
280
     0
281
     0
  0
CLASS
  1
VISUALSTYLE
  2
AcDbVisualStyle
  3
ObjectDBX Classes
 90
     4095
 91
       24
280
     0
281
     0
  0
CLASS
  1
SCALE
  2
AcDbScale
  3
ObjectDBX Classes
 90
     1153
 91
       17
280
     0
281
     0
  0
CLASS
  1
TABLESTYLE
  2
AcDbTableStyle
  3
ObjectDBX Classes
 90
     4095
 91
        1
280
     0
281
     0
  0
CLASS
  1
MLEADERSTYLE
  2
AcDbMLeaderStyle
  3
ACDB_MLEADERSTYLE_CLASS
 90
     4095
 91
        1
280
     0
281
     0
  0
CLASS
  1
ACDBSECTIONVIEWSTYLE
  2
AcDbSectionViewStyle
  3
ObjectDBX Classes
 90
     1025
 91
        1
280
     0
281
     0
  0
CLASS
  1
ACDBDETAILVIEWSTYLE
  2
AcDbDetailViewStyle
  3
ObjectDBX Classes
 90
     1025
 91
        1
280
     0
281
     0
  0
CLASS
  1
DICTIONARYVAR
  2
AcDbDictionaryVar
  3
ObjectDBX Classes
 90
        0
 91
       10
280
     0
281
     0
  0
CLASS
  1
CELLSTYLEMAP
  2
AcDbCellStyleMap
  3
ObjectDBX Classes
 90
     1152
 91
        1
280
     0
281
     0
  0
ENDSEC
  0
SECTION
  2
TABLES
  0
TABLE
  2
VPORT
  5
8
330
0
100
AcDbSymbolTable
 70
     1
  0
VPORT
  5
88
330
8
100
AcDbSymbolTableRecord
100
AcDbViewportTableRecord
  2
*ACTIVE
 70
     0
 10
0.0
 20
0.0
 11
1.0
 21
1.0
 12
182.7024258698311
 22
1060.263092249034
 13
0.0
 23
0.0
 14
1.0
 24
1.0
 15
0.0
 25
0.0
 16
0.0
 26
0.0
 36
1.0
 17
0.0
 27
0.0
 37
0.0
 40
3040.568982432654
 41
1.696009389671361
 42
50.0
 43
0.0
 44
0.0
 50
0.0
 51
0.0
 71
     0
 72
   100
 73
     1
 74
     1
 75
     0
 76
     0
 77
     0
 78
     0
281
     0
 65
     1
110
0.0
120
0.0
130
0.0
111
1.0
121
0.0
131
0.0
112
0.0
122
1.0
132
0.0
 79
     0
146
0.0
348
2F
 60
     3
 61
     5
292
     1
282
     0
141
0.0
142
0.0
 63
   250
421
  3355443
1001
ACAD_NAV_VCDISPLAY
1070
     3
  0
ENDTAB
  0
TABLE
  2
LTYPE
  5
5
330
0
100
AcDbSymbolTable
 70
     5
  0
LTYPE
  5
5A
330
5
100
AcDbSymbolTableRecord
100
AcDbLinetypeTableRecord
  2
ByBlock
 70
     0
  3

 72
    65
 73
     0
 40
0.0
  0
LTYPE
  5
5B
330
5
100
AcDbSymbolTableRecord
100
AcDbLinetypeTableRecord
  2
ByLayer
 70
     0
  3

 72
    65
 73
     0
 40
0.0
  0
LTYPE
  5
5C
330
5
100
AcDbSymbolTableRecord
100
AcDbLinetypeTableRecord
  2
CONTINUOUS
 70
     0
  3
Solid line
 72
    65
 73
     0
 40
0.0
  0
LTYPE
  5
68
330
5
100
AcDbSymbolTableRecord
100
AcDbLinetypeTableRecord
  2
PHANTOM2
 70
     0
  3
___ _ _ ___ _ _ ___ _ _ ___ _ _
 72
    65
 73
     6
 40
1.25
 49
0.625
 74
     0
 49
-0.125
 74
     0
 49
0.125
 74
     0
 49
-0.125
 74
     0
 49
0.125
 74
     0
 49
-0.125
 74
     0
  0
LTYPE
  5
75
330
5
100
AcDbSymbolTableRecord
100
AcDbLinetypeTableRecord
  2
DASHED
 70
     0
  3
-- -- -- -- -- -- -- -- -- -- -- -- -- -- --
 72
    65
 73
     2
 40
0.75
 49
0.5
 74
     0
 49
-0.25
 74
     0
  0
LTYPE
  5
76
330
5
100
AcDbSymbolTableRecord
100
AcDbLinetypeTableRecord
  2
DASHDOT
 70
     0
  3
__ . __ . __ . __ . __ . __ . __ . __ . __ . __
 72
    65
 73
     4
 40
125.0
 49
80.0
 74
     0
 49
-20.0
 74
     0
 49
5.0
 74
     0
 49
-20.0
 74
     0
  0
LTYPE
  5
77
330
5
100
AcDbSymbolTableRecord
100
AcDbLinetypeTableRecord
  2
DIVIDE
 70
     0
  3
__ . . __ . . __ . . __ . . __ . . __ . . __
 72
    65
 73
     6
 40
1.25
 49
0.5
 74
     0
 49
-0.25
 74
     0
 49
0.0
 74
     0
 49
-0.25
 74
     0
 49
0.0
 74
     0
 49
-0.25
 74
     0
  0
ENDTAB
  0
TABLE
  2
LAYER
  5
2
102
{ACAD_XDICTIONARY
360
506
102
}
330
0
100
AcDbSymbolTable
 70
    12
  0
LAYER
  5
54
102
{ACAD_XDICTIONARY
360
4ED
102
}
330
2
100
AcDbSymbolTableRecord
100
AcDbLayerTableRecord
  2
0
 70
     0
 62
     3
  6
CONTINUOUS
370
    -3
390
F
347
21
  0
LAYER
  5
78
102
{ACAD_XDICTIONARY
360
4EF
102
}
330
2
100
AcDbSymbolTableRecord
100
AcDbLayerTableRecord
  2
OUTLINE
 70
     0
 62
     3
  6
CONTINUOUS
370
    -3
390
F
347
21
  0
LAYER
  5
79
102
{ACAD_XDICTIONARY
360
4F1
102
}
330
2
100
AcDbSymbolTableRecord
100
AcDbLayerTableRecord
  2
DETAIL
 70
     0
 62
     5
  6
CONTINUOUS
370
    -3
390
F
347
21
  0
LAYER
  5
7A
102
{ACAD_XDICTIONARY
360
4F3
102
}
330
2
100
AcDbSymbolTableRecord
100
AcDbLayerTableRecord
  2
BASIS
 70
     0
 62
     6
  6
CONTINUOUS
370
    -3
390
F
347
21
  0
LAYER
  5
7B
102
{ACAD_XDICTIONARY
360
4F5
102
}
330
2
100
AcDbSymbolTableRecord
100
AcDbLayerTableRecord
  2
SIZE
 70
     0
 62
    30
  6
CONTINUOUS
370
    -3
390
F
347
21
  0
LAYER
  5
7C
102
{ACAD_XDICTIONARY
360
4F7
102
}
330
2
100
AcDbSymbolTableRecord
100
AcDbLayerTableRecord
  2
NOTE
 70
     0
 62
     4
  6
CONTINUOUS
370
    -3
390
F
347
21
  0
LAYER
  5
7D
102
{ACAD_XDICTIONARY
360
4F9
102
}
330
2
100
AcDbSymbolTableRecord
100
AcDbLayerTableRecord
  2
ARRANGE
 70
     0
 62
     1
  6
CONTINUOUS
370
    -3
390
F
347
21
  0
LAYER
  5
7E
102
{ACAD_XDICTIONARY
360
4FB
102
}
330
2
100
AcDbSymbolTableRecord
100
AcDbLayerTableRecord
  2
FIX
 70
     0
 62
    11
  6
CONTINUOUS
370
    -3
390
F
347
21
  0
LAYER
  5
7F
102
{ACAD_XDICTIONARY
360
4FD
102
}
330
2
100
AcDbSymbolTableRecord
100
AcDbLayerTableRecord
  2
SERVICESPACE
 70
     0
 62
     2
  6
CONTINUOUS
370
    -3
390
F
347
21
  0
LAYER
  5
80
102
{ACAD_XDICTIONARY
360
4FF
102
}
330
2
100
AcDbSymbolTableRecord
100
AcDbLayerTableRecord
  2
ETC
 70
     0
 62
    61
  6
CONTINUOUS
370
    -3
390
F
347
21
  0
LAYER
  5
81
102
{ACAD_XDICTIONARY
360
501
102
}
330
2
100
AcDbSymbolTableRecord
100
AcDbLayerTableRecord
  2
SYMBOLLINE
 70
     0
 62
     7
  6
CONTINUOUS
370
    -3
390
F
347
21
  0
LAYER
  5
82
330
2
100
AcDbSymbolTableRecord
100
AcDbLayerTableRecord
  2
DEFPOINTS
 70
     0
 62
     7
  6
CONTINUOUS
290
     0
370
    -3
390
F
347
21
  0
ENDTAB
  0
TABLE
  2
STYLE
  5
3
330
0
100
AcDbSymbolTable
 70
     6
  0
STYLE
  5
55
330
3
100
AcDbSymbolTableRecord
100
AcDbTextStyleTableRecord
  2
STANDARD
 70
     0
 40
0.0
 41
1.0
 50
0.0
 71
     0
 42
0.2
  3
txt
  4

  0
STYLE
  5
59
330
3
100
AcDbSymbolTableRecord
100
AcDbTextStyleTableRecord
  2
ANNOTATIVE
 70
     0
 40
0.0
 41
1.0
 50
0.0
 71
     0
 42
0.2
  3
txt
  4

1001
ACADANNOTATIVE
1000
AnnotativeData
1002
{
1070
     1
1070
     1
1002
}
  0
STYLE
  5
74
330
3
100
AcDbSymbolTableRecord
100
AcDbTextStyleTableRecord
  2
STANDARD1
 70
     0
 40
0.0
 41
1.0
 50
0.0
 71
     0
 42
2.799999952316284
  3
MONOTXT
  4
BIGFONT
  0
STYLE
  5
83
330
3
100
AcDbSymbolTableRecord
100
AcDbTextStyleTableRecord
  2
STANDARD2
 70
     4
 40
0.0
 41
1.0
 50
0.0
 71
     0
 42
2.799999952316284
  3
MONOTXT
  4
BIGFONT
  0
STYLE
  5
84
330
3
100
AcDbSymbolTableRecord
100
AcDbTextStyleTableRecord
  2
STANDARD3
 70
     0
 40
0.0
 41
1.0
 50
0.0
 71
     0
 42
2.799999952316284
  3
MONOTXT
  4

  0
STYLE
  5
85
330
3
100
AcDbSymbolTableRecord
100
AcDbTextStyleTableRecord
  2
STANDARD4
 70
     4
 40
0.0
 41
1.0
 50
0.0
 71
     0
 42
2.799999952316284
  3
MONOTXT
  4

  0
ENDTAB
  0
TABLE
  2
VIEW
  5
6
330
0
100
AcDbSymbolTable
 70
     1
  0
ENDTAB
  0
TABLE
  2
UCS
  5
7
330
0
100
AcDbSymbolTable
 70
     0
  0
ENDTAB
  0
TABLE
  2
APPID
  5
9
330
0
100
AcDbSymbolTable
 70
     4
  0
APPID
  5
56
330
9
100
AcDbSymbolTableRecord
100
AcDbRegAppTableRecord
  2
ACAD
 70
     0
  0
APPID
  5
5D
330
9
100
AcDbSymbolTableRecord
100
AcDbRegAppTableRecord
  2
ACADANNOTATIVE
 70
     0
  0
APPID
  5
86
330
9
100
AcDbSymbolTableRecord
100
AcDbRegAppTableRecord
  2
ACAD_NAV_VCDISPLAY
 70
     0
  0
APPID
  5
87
330
9
100
AcDbSymbolTableRecord
100
AcDbRegAppTableRecord
  2
ACAD_MLEADERVER
 70
     0
  0
ENDTAB
  0
TABLE
  2
DIMSTYLE
  5
A
330
0
100
AcDbSymbolTable
 70
     2
100
AcDbDimStyleTable
 71
     0
  0
DIMSTYLE
105
57
330
A
100
AcDbSymbolTableRecord
100
AcDbDimStyleTableRecord
  2
STANDARD
 70
     0
271
     3
272
     3
274
     4
279
     2
284
    12
285
    12
286
    12
340
74
  0
DIMSTYLE
105
58
330
A
100
AcDbSymbolTableRecord
100
AcDbDimStyleTableRecord
  2
ANNOTATIVE
 70
     0
271
     3
272
     3
274
     4
279
     2
284
    12
285
    12
286
    12
340
74
1001
ACADANNOTATIVE
1000
AnnotativeData
1002
{
1070
     1
1070
     1
1002
}
  0
ENDTAB
  0
TABLE
  2
BLOCK_RECORD
  5
1
330
0
100
AcDbSymbolTable
 70
    45
  0
BLOCK_RECORD
  5
70
330
1
100
AcDbSymbolTableRecord
100
AcDbBlockTableRecord
  2
*Model_Space
340
73
 70
     0
280
     1
281
     0
  0
BLOCK_RECORD
  5
6C
330
1
100
AcDbSymbolTableRecord
100
AcDbBlockTableRecord
  2
*Paper_Space
340
6F
 70
     0
280
     1
281
     0
  0
BLOCK_RECORD
  5
8C
330
1
100
AcDbSymbolTableRecord
100
AcDbBlockTableRecord
  2
*D0
340
0
 70
     0
280
     1
281
     0
  0
BLOCK_RECORD
  5
9F
330
1
100
AcDbSymbolTableRecord
100
AcDbBlockTableRecord
  2
*D1
340
0
 70
     0
280
     1
281
     0
  0
BLOCK_RECORD
  5
B2
330
1
100
AcDbSymbolTableRecord
100
AcDbBlockTableRecord
  2
*D2
340
0
 70
     0
280
     1
281
     0
  0
BLOCK_RECORD
  5
C5
330
1
100
AcDbSymbolTableRecord
100
AcDbBlockTableRecord
  2
*D3
340
0
 70
     0
280
     1
281
     0
  0
BLOCK_RECORD
  5
D8
330
1
100
AcDbSymbolTableRecord
100
AcDbBlockTableRecord
  2
*D4
340
0
 70
     0
280
     1
281
     0
  0
BLOCK_RECORD
  5
EB
330
1
100
AcDbSymbolTableRecord
100
AcDbBlockTableRecord
  2
*D5
340
0
 70
     0
280
     1
281
     0
  0
BLOCK_RECORD
  5
FF
330
1
100
AcDbSymbolTableRecord
100
AcDbBlockTableRecord
  2
*D6
340
0
 70
     0
280
     1
281
     0
  0
BLOCK_RECORD
  5
113
330
1
100
AcDbSymbolTableRecord
100
AcDbBlockTableRecord
  2
*D7
340
0
 70
     0
280
     1
281
     0
  0
BLOCK_RECORD
  5
127
330
1
100
AcDbSymbolTableRecord
100
AcDbBlockTableRecord
  2
*D8
340
0
 70
     0
280
     1
281
     0
  0
BLOCK_RECORD
  5
13B
330
1
100
AcDbSymbolTableRecord
100
AcDbBlockTableRecord
  2
*D9
340
0
 70
     0
280
     1
281
     0
  0
BLOCK_RECORD
  5
14D
330
1
100
AcDbSymbolTableRecord
100
AcDbBlockTableRecord
  2
*D10
340
0
 70
     0
280
     1
281
     0
  0
BLOCK_RECORD
  5
160
330
1
100
AcDbSymbolTableRecord
100
AcDbBlockTableRecord
  2
*D11
340
0
 70
     0
280
     1
281
     0
  0
BLOCK_RECORD
  5
174
330
1
100
AcDbSymbolTableRecord
100
AcDbBlockTableRecord
  2
*D12
340
0
 70
     0
280
     1
281
     0
  0
BLOCK_RECORD
  5
187
330
1
100
AcDbSymbolTableRecord
100
AcDbBlockTableRecord
  2
*D13
340
0
 70
     0
280
     1
281
     0
  0
BLOCK_RECORD
  5
19A
330
1
100
AcDbSymbolTableRecord
100
AcDbBlockTableRecord
  2
*D14
340
0
 70
     0
280
     1
281
     0
  0
BLOCK_RECORD
  5
1AE
330
1
100
AcDbSymbolTableRecord
100
AcDbBlockTableRecord
  2
*D15
340
0
 70
     0
280
     1
281
     0
  0
BLOCK_RECORD
  5
1C2
330
1
100
AcDbSymbolTableRecord
100
AcDbBlockTableRecord
  2
*D16
340
0
 70
     0
280
     1
281
     0
  0
BLOCK_RECORD
  5
1D5
330
1
100
AcDbSymbolTableRecord
100
AcDbBlockTableRecord
  2
*D17
340
0
 70
     0
280
     1
281
     0
  0
BLOCK_RECORD
  5
1E8
330
1
100
AcDbSymbolTableRecord
100
AcDbBlockTableRecord
  2
*D18
340
0
 70
     0
280
     1
281
     0
  0
BLOCK_RECORD
  5
1FB
330
1
100
AcDbSymbolTableRecord
100
AcDbBlockTableRecord
  2
*D19
340
0
 70
     0
280
     1
281
     0
  0
BLOCK_RECORD
  5
20E
330
1
100
AcDbSymbolTableRecord
100
AcDbBlockTableRecord
  2
*D20
340
0
 70
     0
280
     1
281
     0
  0
BLOCK_RECORD
  5
222
330
1
100
AcDbSymbolTableRecord
100
AcDbBlockTableRecord
  2
*D21
340
0
 70
     0
280
     1
281
     0
  0
BLOCK_RECORD
  5
235
330
1
100
AcDbSymbolTableRecord
100
AcDbBlockTableRecord
  2
_ORIGIN
340
0
102
{BLKREFS
331
23F
331
240
331
24B
331
24C
331
257
331
258
331
263
331
264
331
26F
331
270
331
27B
331
27C
331
287
331
288
331
293
331
294
331
29F
331
2A0
331
2AB
331
2AC
331
2B7
331
2B8
331
2C3
331
2C4
331
2CF
331
2D0
331
2DB
331
2DC
331
2E7
331
2E8
331
2F3
331
2F4
331
2FF
331
300
331
30B
331
30C
331
317
331
318
331
323
331
324
331
32F
331
330
331
33B
331
33C
102
}
 70
     0
280
     1
281
     0
  0
BLOCK_RECORD
  5
23A
330
1
100
AcDbSymbolTableRecord
100
AcDbBlockTableRecord
  2
*D23
340
0
 70
     0
280
     1
281
     0
  0
BLOCK_RECORD
  5
246
330
1
100
AcDbSymbolTableRecord
100
AcDbBlockTableRecord
  2
*D24
340
0
 70
     0
280
     1
281
     0
  0
BLOCK_RECORD
  5
252
330
1
100
AcDbSymbolTableRecord
100
AcDbBlockTableRecord
  2
*D25
340
0
 70
     0
280
     1
281
     0
  0
BLOCK_RECORD
  5
25E
330
1
100
AcDbSymbolTableRecord
100
AcDbBlockTableRecord
  2
*D26
340
0
 70
     0
280
     1
281
     0
  0
BLOCK_RECORD
  5
26A
330
1
100
AcDbSymbolTableRecord
100
AcDbBlockTableRecord
  2
*D27
340
0
 70
     0
280
     1
281
     0
  0
BLOCK_RECORD
  5
276
330
1
100
AcDbSymbolTableRecord
100
AcDbBlockTableRecord
  2
*D28
340
0
 70
     0
280
     1
281
     0
  0
BLOCK_RECORD
  5
282
330
1
100
AcDbSymbolTableRecord
100
AcDbBlockTableRecord
  2
*D29
340
0
 70
     0
280
     1
281
     0
  0
BLOCK_RECORD
  5
28E
330
1
100
AcDbSymbolTableRecord
100
AcDbBlockTableRecord
  2
*D30
340
0
 70
     0
280
     1
281
     0
  0
BLOCK_RECORD
  5
29A
330
1
100
AcDbSymbolTableRecord
100
AcDbBlockTableRecord
  2
*D31
340
0
 70
     0
280
     1
281
     0
  0
BLOCK_RECORD
  5
2A6
330
1
100
AcDbSymbolTableRecord
100
AcDbBlockTableRecord
  2
*D32
340
0
 70
     0
280
     1
281
     0
  0
BLOCK_RECORD
  5
2B2
330
1
100
AcDbSymbolTableRecord
100
AcDbBlockTableRecord
  2
*D33
340
0
 70
     0
280
     1
281
     0
  0
BLOCK_RECORD
  5
2BE
330
1
100
AcDbSymbolTableRecord
100
AcDbBlockTableRecord
  2
*D34
340
0
 70
     0
280
     1
281
     0
  0
BLOCK_RECORD
  5
2CA
330
1
100
AcDbSymbolTableRecord
100
AcDbBlockTableRecord
  2
*D35
340
0
 70
     0
280
     1
281
     0
  0
BLOCK_RECORD
  5
2D6
330
1
100
AcDbSymbolTableRecord
100
AcDbBlockTableRecord
  2
*D36
340
0
 70
     0
280
     1
281
     0
  0
BLOCK_RECORD
  5
2E2
330
1
100
AcDbSymbolTableRecord
100
AcDbBlockTableRecord
  2
*D37
340
0
 70
     0
280
     1
281
     0
  0
BLOCK_RECORD
  5
2EE
330
1
100
AcDbSymbolTableRecord
100
AcDbBlockTableRecord
  2
*D38
340
0
 70
     0
280
     1
281
     0
  0
BLOCK_RECORD
  5
2FA
330
1
100
AcDbSymbolTableRecord
100
AcDbBlockTableRecord
  2
*D39
340
0
 70
     0
280
     1
281
     0
  0
BLOCK_RECORD
  5
306
330
1
100
AcDbSymbolTableRecord
100
AcDbBlockTableRecord
  2
*D40
340
0
 70
     0
280
     1
281
     0
  0
BLOCK_RECORD
  5
312
330
1
100
AcDbSymbolTableRecord
100
AcDbBlockTableRecord
  2
*D41
340
0
 70
     0
280
     1
281
     0
  0
BLOCK_RECORD
  5
31E
330
1
100
AcDbSymbolTableRecord
100
AcDbBlockTableRecord
  2
*D42
340
0
 70
     0
280
     1
281
     0
  0
BLOCK_RECORD
  5
32A
330
1
100
AcDbSymbolTableRecord
100
AcDbBlockTableRecord
  2
*D43
340
0
 70
     0
280
     1
281
     0
  0
BLOCK_RECORD
  5
336
330
1
100
AcDbSymbolTableRecord
100
AcDbBlockTableRecord
  2
*D44
340
0
 70
     0
280
     1
281
     0
  0
ENDTAB
  0
ENDSEC
  0
SECTION
  2
BLOCKS
  0
BLOCK
  5
71
330
70
100
AcDbEntity
  8
0
100
AcDbBlockBegin
  2
*Model_Space
 70
     0
 10
0.0
 20
0.0
 30
0.0
  3
*Model_Space
  1

  0
ENDBLK
  5
72
330
70
100
AcDbEntity
  8
0
100
AcDbBlockEnd
  0
BLOCK
  5
6D
330
6C
100
AcDbEntity
 67
     1
  8
0
100
AcDbBlockBegin
  2
*Paper_Space
 70
     0
 10
0.0
 20
0.0
 30
0.0
  3
*Paper_Space
  1

  0
ENDBLK
  5
6E
330
6C
100
AcDbEntity
 67
     1
  8
0
100
AcDbBlockEnd
  0
BLOCK
  5
8D
330
8C
100
AcDbEntity
  8
SIZE
100
AcDbBlockBegin
  2
*D0
 70
     1
 10
0.0
 20
0.0
 30
0.0
  3
*D0
  1

  0
TEXT
  5
8E
330
8C
100
AcDbEntity
  8
SIZE
  6
Continuous
100
AcDbText
 10
474.0000060796737
 20
462.0599976809857
 30
0.0
 40
2.799999952316284
  1
930
 50
90.00000500895634
 41
0.6999999829701011
  7
STANDARD1
100
AcDbText
  0
LINE
  5
8F
330
8C
100
AcDbEntity
  8
SIZE
  6
Continuous
100
AcDbLine
 10
-109.0
 20
930.0
 30
0.0
 11
477.0
 21
930.0
 31
0.0
  0
LINE
  5
90
330
8C
100
AcDbEntity
  8
SIZE
  6
Continuous
100
AcDbLine
 10
475.0
 20
930.0
 30
0.0
 11
475.0
 21
0.0
 31
0.0
  0
CIRCLE
  5
91
330
8C
100
AcDbEntity
  8
SIZE
  6
Continuous
100
AcDbCircle
 10
475.0
 20
930.0
 30
0.0
 40
0.5
  0
CIRCLE
  5
92
330
8C
100
AcDbEntity
  8
SIZE
  6
Continuous
100
AcDbCircle
 10
475.0
 20
930.0
 30
0.0
 40
0.4
  0
CIRCLE
  5
93
330
8C
100
AcDbEntity
  8
SIZE
  6
Continuous
100
AcDbCircle
 10
475.0
 20
930.0
 30
0.0
 40
0.3
  0
CIRCLE
  5
94
330
8C
100
AcDbEntity
  8
SIZE
  6
Continuous
100
AcDbCircle
 10
475.0
 20
930.0
 30
0.0
 40
0.2
  0
CIRCLE
  5
95
330
8C
100
AcDbEntity
  8
SIZE
  6
Continuous
100
AcDbCircle
 10
475.0
 20
930.0
 30
0.0
 40
0.1
  0
CIRCLE
  5
96
330
8C
100
AcDbEntity
  8
SIZE
  6
Continuous
100
AcDbCircle
 10
475.0
 20
0.0
 30
0.0
 40
0.5
  0
CIRCLE
  5
97
330
8C
100
AcDbEntity
  8
SIZE
  6
Continuous
100
AcDbCircle
 10
475.0
 20
0.0
 30
0.0
 40
0.4
  0
CIRCLE
  5
98
330
8C
100
AcDbEntity
  8
SIZE
  6
Continuous
100
AcDbCircle
 10
475.0
 20
0.0
 30
0.0
 40
0.3
  0
CIRCLE
  5
99
330
8C
100
AcDbEntity
  8
SIZE
  6
Continuous
100
AcDbCircle
 10
475.0
 20
0.0
 30
0.0
 40
0.2
  0
CIRCLE
  5
9A
330
8C
100
AcDbEntity
  8
SIZE
  6
Continuous
100
AcDbCircle
 10
475.0
 20
0.0
 30
0.0
 40
0.1
  0
POINT
  5
9B
330
8C
100
AcDbEntity
  8
DEFPOINTS
  6
ByBlock
100
AcDbPoint
 10
170.0
 20
0.0
 30
0.0
  0
POINT
  5
9C
330
8C
100
AcDbEntity
  8
DEFPOINTS
  6
ByBlock
100
AcDbPoint
 10
-110.0
 20
930.0
 30
0.0
  0
POINT
  5
9D
330
8C
100
AcDbEntity
  8
DEFPOINTS
  6
ByBlock
100
AcDbPoint
 10
475.0
 20
930.0
 30
0.0
  0
ENDBLK
  5
9E
330
8C
100
AcDbEntity
  8
SIZE
100
AcDbBlockEnd
  0
BLOCK
  5
A0
330
9F
100
AcDbEntity
  8
SIZE
100
AcDbBlockBegin
  2
*D1
 70
     1
 10
0.0
 20
0.0
 30
0.0
  3
*D1
  1

  0
TEXT
  5
A1
330
9F
100
AcDbEntity
  8
SIZE
  6
Continuous
100
AcDbText
 10
-67.94000238021029
 20
761.8099609613417
 30
0.0
 40
2.799999952316284
  1
130
 50
0.000002504478167
 41
0.6999999829701011
  7
STANDARD1
100
AcDbText
  0
LINE
  5
A2
330
9F
100
AcDbEntity
  8
SIZE
  6
Continuous
100
AcDbLine
 10
-130.0
 20
909.0
 30
0.0
 11
-130.0
 21
758.8099365234374
 31
0.0
  0
LINE
  5
A3
330
9F
100
AcDbEntity
  8
SIZE
  6
Continuous
100
AcDbLine
 10
-130.0
 20
760.8099365234375
 30
0.0
 11
0.0
 21
760.8099365234375
 31
0.0
  0
CIRCLE
  5
A4
330
9F
100
AcDbEntity
  8
SIZE
  6
Continuous
100
AcDbCircle
 10
-130.0
 20
760.8099365234375
 30
0.0
 40
0.5
  0
CIRCLE
  5
A5
330
9F
100
AcDbEntity
  8
SIZE
  6
Continuous
100
AcDbCircle
 10
-130.0
 20
760.8099365234375
 30
0.0
 40
0.4
  0
CIRCLE
  5
A6
330
9F
100
AcDbEntity
  8
SIZE
  6
Continuous
100
AcDbCircle
 10
-130.0
 20
760.8099365234375
 30
0.0
 40
0.3
  0
CIRCLE
  5
A7
330
9F
100
AcDbEntity
  8
SIZE
  6
Continuous
100
AcDbCircle
 10
-130.0
 20
760.8099365234375
 30
0.0
 40
0.2
  0
CIRCLE
  5
A8
330
9F
100
AcDbEntity
  8
SIZE
  6
Continuous
100
AcDbCircle
 10
-130.0
 20
760.8099365234375
 30
0.0
 40
0.1
  0
CIRCLE
  5
A9
330
9F
100
AcDbEntity
  8
SIZE
  6
Continuous
100
AcDbCircle
 10
0.0
 20
760.8099365234375
 30
0.0
 40
0.5
  0
CIRCLE
  5
AA
330
9F
100
AcDbEntity
  8
SIZE
  6
Continuous
100
AcDbCircle
 10
0.0
 20
760.8099365234375
 30
0.0
 40
0.4
  0
CIRCLE
  5
AB
330
9F
100
AcDbEntity
  8
SIZE
  6
Continuous
100
AcDbCircle
 10
0.0
 20
760.8099365234375
 30
0.0
 40
0.3
  0
CIRCLE
  5
AC
330
9F
100
AcDbEntity
  8
SIZE
  6
Continuous
100
AcDbCircle
 10
0.0
 20
760.8099365234375
 30
0.0
 40
0.2
  0
CIRCLE
  5
AD
330
9F
100
AcDbEntity
  8
SIZE
  6
Continuous
100
AcDbCircle
 10
0.0
 20
760.8099365234375
 30
0.0
 40
0.1
  0
POINT
  5
AE
330
9F
100
AcDbEntity
  8
DEFPOINTS
  6
ByBlock
100
AcDbPoint
 10
0.0
 20
-38.68780899047852
 30
0.0
  0
POINT
  5
AF
330
9F
100
AcDbEntity
  8
DEFPOINTS
  6
ByBlock
100
AcDbPoint
 10
-130.0
 20
910.0
 30
0.0
  0
POINT
  5
B0
330
9F
100
AcDbEntity
  8
DEFPOINTS
  6
ByBlock
100
AcDbPoint
 10
-130.0
 20
760.8099365234375
 30
0.0
  0
ENDBLK
  5
B1
330
9F
100
AcDbEntity
  8
SIZE
100
AcDbBlockEnd
  0
BLOCK
  5
B3
330
B2
100
AcDbEntity
  8
SIZE
100
AcDbBlockBegin
  2
*D2
 70
     1
 10
0.0
 20
0.0
 30
0.0
  3
*D2
  1

  0
TEXT
  5
B4
330
B2
100
AcDbEntity
  8
SIZE
  6
Continuous
100
AcDbText
 10
-576.0000244379041
 20
1048.579956177079
 30
0.0
 40
2.799999952316284
  1
1705
 50
90.00000500895634
 41
0.6999999829701011
  7
STANDARD1
100
AcDbText
  0
LINE
  5
B5
330
B2
100
AcDbEntity
  8
SIZE
  6
Continuous
100
AcDbLine
 10
-226.0
 20
200.0
 30
0.0
 11
-577.0
 21
200.0
 31
0.0
  0
LINE
  5
B6
330
B2
100
AcDbEntity
  8
SIZE
  6
Continuous
100
AcDbLine
 10
-575.0
 20
1905.0
 30
0.0
 11
-575.0
 21
200.0
 31
0.0
  0
CIRCLE
  5
B7
330
B2
100
AcDbEntity
  8
SIZE
  6
Continuous
100
AcDbCircle
 10
-575.0
 20
1905.0
 30
0.0
 40
0.5
  0
CIRCLE
  5
B8
330
B2
100
AcDbEntity
  8
SIZE
  6
Continuous
100
AcDbCircle
 10
-575.0
 20
1905.0
 30
0.0
 40
0.4
  0
CIRCLE
  5
B9
330
B2
100
AcDbEntity
  8
SIZE
  6
Continuous
100
AcDbCircle
 10
-575.0
 20
1905.0
 30
0.0
 40
0.3
  0
CIRCLE
  5
BA
330
B2
100
AcDbEntity
  8
SIZE
  6
Continuous
100
AcDbCircle
 10
-575.0
 20
1905.0
 30
0.0
 40
0.2
  0
CIRCLE
  5
BB
330
B2
100
AcDbEntity
  8
SIZE
  6
Continuous
100
AcDbCircle
 10
-575.0
 20
1905.0
 30
0.0
 40
0.1
  0
CIRCLE
  5
BC
330
B2
100
AcDbEntity
  8
SIZE
  6
Continuous
100
AcDbCircle
 10
-575.0
 20
200.0
 30
0.0
 40
0.5
  0
CIRCLE
  5
BD
330
B2
100
AcDbEntity
  8
SIZE
  6
Continuous
100
AcDbCircle
 10
-575.0
 20
200.0
 30
0.0
 40
0.4
  0
CIRCLE
  5
BE
330
B2
100
AcDbEntity
  8
SIZE
  6
Continuous
100
AcDbCircle
 10
-575.0
 20
200.0
 30
0.0
 40
0.3
  0
CIRCLE
  5
BF
330
B2
100
AcDbEntity
  8
SIZE
  6
Continuous
100
AcDbCircle
 10
-575.0
 20
200.0
 30
0.0
 40
0.2
  0
CIRCLE
  5
C0
330
B2
100
AcDbEntity
  8
SIZE
  6
Continuous
100
AcDbCircle
 10
-575.0
 20
200.0
 30
0.0
 40
0.1
  0
POINT
  5
C1
330
B2
100
AcDbEntity
  8
DEFPOINTS
  6
ByBlock
100
AcDbPoint
 10
-225.0
 20
200.0
 30
0.0
  0
POINT
  5
C2
330
B2
100
AcDbEntity
  8
DEFPOINTS
  6
ByBlock
100
AcDbPoint
 10
-225.0
 20
1905.0
 30
0.0
  0
POINT
  5
C3
330
B2
100
AcDbEntity
  8
DEFPOINTS
  6
ByBlock
100
AcDbPoint
 10
-575.0
 20
1905.0
 30
0.0
  0
ENDBLK
  5
C4
330
B2
100
AcDbEntity
  8
SIZE
100
AcDbBlockEnd
  0
BLOCK
  5
C6
330
C5
100
AcDbEntity
  8
SIZE
100
AcDbBlockBegin
  2
*D3
 70
     1
 10
0.0
 20
0.0
 30
0.0
  3
*D3
  1

  0
TEXT
  5
C7
330
C5
100
AcDbEntity
  8
SIZE
  6
Continuous
100
AcDbText
 10
673.9999755620956
 20
960.0800172122356
 30
0.0
 40
2.799999952316284
  1
1928
 50
90.00000500895634
 41
0.6999999829701011
  7
STANDARD1
100
AcDbText
  0
LINE
  5
C8
330
C5
100
AcDbEntity
  8
SIZE
  6
Continuous
100
AcDbLine
 10
51.0
 20
1928.0
 30
0.0
 11
677.0
 21
1928.0
 31
0.0
  0
LINE
  5
C9
330
C5
100
AcDbEntity
  8
SIZE
  6
Continuous
100
AcDbLine
 10
675.0
 20
0.0
 30
0.0
 11
675.0
 21
1928.0
 31
0.0
  0
CIRCLE
  5
CA
330
C5
100
AcDbEntity
  8
SIZE
  6
Continuous
100
AcDbCircle
 10
675.0
 20
0.0
 30
0.0
 40
0.5
  0
CIRCLE
  5
CB
330
C5
100
AcDbEntity
  8
SIZE
  6
Continuous
100
AcDbCircle
 10
675.0
 20
0.0
 30
0.0
 40
0.4
  0
CIRCLE
  5
CC
330
C5
100
AcDbEntity
  8
SIZE
  6
Continuous
100
AcDbCircle
 10
675.0
 20
0.0
 30
0.0
 40
0.3
  0
CIRCLE
  5
CD
330
C5
100
AcDbEntity
  8
SIZE
  6
Continuous
100
AcDbCircle
 10
675.0
 20
0.0
 30
0.0
 40
0.2
  0
CIRCLE
  5
CE
330
C5
100
AcDbEntity
  8
SIZE
  6
Continuous
100
AcDbCircle
 10
675.0
 20
0.0
 30
0.0
 40
0.1
  0
CIRCLE
  5
CF
330
C5
100
AcDbEntity
  8
SIZE
  6
Continuous
100
AcDbCircle
 10
675.0
 20
1928.0
 30
0.0
 40
0.5
  0
CIRCLE
  5
D0
330
C5
100
AcDbEntity
  8
SIZE
  6
Continuous
100
AcDbCircle
 10
675.0
 20
1928.0
 30
0.0
 40
0.4
  0
CIRCLE
  5
D1
330
C5
100
AcDbEntity
  8
SIZE
  6
Continuous
100
AcDbCircle
 10
675.0
 20
1928.0
 30
0.0
 40
0.3
  0
CIRCLE
  5
D2
330
C5
100
AcDbEntity
  8
SIZE
  6
Continuous
100
AcDbCircle
 10
675.0
 20
1928.0
 30
0.0
 40
0.2
  0
CIRCLE
  5
D3
330
C5
100
AcDbEntity
  8
SIZE
  6
Continuous
100
AcDbCircle
 10
675.0
 20
1928.0
 30
0.0
 40
0.1
  0
POINT
  5
D4
330
C5
100
AcDbEntity
  8
DEFPOINTS
  6
ByBlock
100
AcDbPoint
 10
50.0
 20
1928.0
 30
0.0
  0
POINT
  5
D5
330
C5
100
AcDbEntity
  8
DEFPOINTS
  6
ByBlock
100
AcDbPoint
 10
205.0
 20
0.0
 30
0.0
  0
POINT
  5
D6
330
C5
100
AcDbEntity
  8
DEFPOINTS
  6
ByBlock
100
AcDbPoint
 10
675.0
 20
0.0
 30
0.0
  0
ENDBLK
  5
D7
330
C5
100
AcDbEntity
  8
SIZE
100
AcDbBlockEnd
  0
BLOCK
  5
D9
330
D8
100
AcDbEntity
  8
SIZE
100
AcDbBlockBegin
  2
*D4
 70
     1
 10
0.0
 20
0.0
 30
0.0
  3
*D4
  1

  0
TEXT
  5
DA
330
D8
100
AcDbEntity
  8
SIZE
  6
Continuous
100
AcDbText
 10
-676.0000244379041
 20
2002.060058716141
 30
0.0
 40
2.799999952316284
  1
200
 50
90.00000500895634
 41
0.6999999829701011
  7
STANDARD1
100
AcDbText
  0
LINE
  5
DB
330
D8
100
AcDbEntity
  8
SIZE
  6
Continuous
100
AcDbLine
 10
-226.0
 20
2105.0
 30
0.0
 11
-677.0
 21
2105.0
 31
0.0
  0
LINE
  5
DC
330
D8
100
AcDbEntity
  8
SIZE
  6
Continuous
100
AcDbLine
 10
-675.0
 20
2105.0
 30
0.0
 11
-675.0
 21
1905.0
 31
0.0
  0
CIRCLE
  5
DD
330
D8
100
AcDbEntity
  8
SIZE
  6
Continuous
100
AcDbCircle
 10
-675.0
 20
2105.0
 30
0.0
 40
0.5
  0
CIRCLE
  5
DE
330
D8
100
AcDbEntity
  8
SIZE
  6
Continuous
100
AcDbCircle
 10
-675.0
 20
2105.0
 30
0.0
 40
0.4
  0
CIRCLE
  5
DF
330
D8
100
AcDbEntity
  8
SIZE
  6
Continuous
100
AcDbCircle
 10
-675.0
 20
2105.0
 30
0.0
 40
0.3
  0
CIRCLE
  5
E0
330
D8
100
AcDbEntity
  8
SIZE
  6
Continuous
100
AcDbCircle
 10
-675.0
 20
2105.0
 30
0.0
 40
0.2
  0
CIRCLE
  5
E1
330
D8
100
AcDbEntity
  8
SIZE
  6
Continuous
100
AcDbCircle
 10
-675.0
 20
2105.0
 30
0.0
 40
0.1
  0
CIRCLE
  5
E2
330
D8
100
AcDbEntity
  8
SIZE
  6
Continuous
100
AcDbCircle
 10
-675.0
 20
1905.0
 30
0.0
 40
0.5
  0
CIRCLE
  5
E3
330
D8
100
AcDbEntity
  8
SIZE
  6
Continuous
100
AcDbCircle
 10
-675.0
 20
1905.0
 30
0.0
 40
0.4
  0
CIRCLE
  5
E4
330
D8
100
AcDbEntity
  8
SIZE
  6
Continuous
100
AcDbCircle
 10
-675.0
 20
1905.0
 30
0.0
 40
0.3
  0
CIRCLE
  5
E5
330
D8
100
AcDbEntity
  8
SIZE
  6
Continuous
100
AcDbCircle
 10
-675.0
 20
1905.0
 30
0.0
 40
0.2
  0
CIRCLE
  5
E6
330
D8
100
AcDbEntity
  8
SIZE
  6
Continuous
100
AcDbCircle
 10
-675.0
 20
1905.0
 30
0.0
 40
0.1
  0
POINT
  5
E7
330
D8
100
AcDbEntity
  8
DEFPOINTS
  6
ByBlock
100
AcDbPoint
 10
-225.0
 20
1905.0
 30
0.0
  0
POINT
  5
E8
330
D8
100
AcDbEntity
  8
DEFPOINTS
  6
ByBlock
100
AcDbPoint
 10
-225.0
 20
2105.0
 30
0.0
  0
POINT
  5
E9
330
D8
100
AcDbEntity
  8
DEFPOINTS
  6
ByBlock
100
AcDbPoint
 10
-675.0
 20
2105.0
 30
0.0
  0
ENDBLK
  5
EA
330
D8
100
AcDbEntity
  8
SIZE
100
AcDbBlockEnd
  0
BLOCK
  5
EC
330
EB
100
AcDbEntity
  8
SIZE
100
AcDbBlockBegin
  2
*D5
 70
     1
 10
0.0
 20
0.0
 30
0.0
  3
*D5
  1

  0
TEXT
  5
ED
330
EB
100
AcDbEntity
  8
SIZE
  6
Continuous
100
AcDbText
 10
-2.939999996024512
 20
2455.999902367592
 30
0.0
 40
2.799999952316284
  1
450
 50
0.000002504478167
 41
0.6999999829701011
  7
STANDARD1
100
AcDbText
  0
LINE
  5
EE
330
EB
100
AcDbEntity
  8
SIZE
  6
Continuous
100
AcDbLine
 10
225.0
 20
2106.0
 30
0.0
 11
225.0
 21
2457.0
 31
0.0
  0
LINE
  5
EF
330
EB
100
AcDbEntity
  8
SIZE
  6
Continuous
100
AcDbLine
 10
-225.0
 20
2106.0
 30
0.0
 11
-225.0
 21
2457.0
 31
0.0
  0
LINE
  5
F0
330
EB
100
AcDbEntity
  8
SIZE
  6
Continuous
100
AcDbLine
 10
225.0
 20
2455.0
 30
0.0
 11
-225.0
 21
2455.0
 31
0.0
  0
CIRCLE
  5
F1
330
EB
100
AcDbEntity
  8
SIZE
  6
Continuous
100
AcDbCircle
 10
225.0
 20
2455.0
 30
0.0
 40
0.5
  0
CIRCLE
  5
F2
330
EB
100
AcDbEntity
  8
SIZE
  6
Continuous
100
AcDbCircle
 10
225.0
 20
2455.0
 30
0.0
 40
0.4
  0
CIRCLE
  5
F3
330
EB
100
AcDbEntity
  8
SIZE
  6
Continuous
100
AcDbCircle
 10
225.0
 20
2455.0
 30
0.0
 40
0.3
  0
CIRCLE
  5
F4
330
EB
100
AcDbEntity
  8
SIZE
  6
Continuous
100
AcDbCircle
 10
225.0
 20
2455.0
 30
0.0
 40
0.2
  0
CIRCLE
  5
F5
330
EB
100
AcDbEntity
  8
SIZE
  6
Continuous
100
AcDbCircle
 10
225.0
 20
2455.0
 30
0.0
 40
0.1
  0
CIRCLE
  5
F6
330
EB
100
AcDbEntity
  8
SIZE
  6
Continuous
100
AcDbCircle
 10
-225.0
 20
2455.0
 30
0.0
 40
0.5
  0
CIRCLE
  5
F7
330
EB
100
AcDbEntity
  8
SIZE
  6
Continuous
100
AcDbCircle
 10
-225.0
 20
2455.0
 30
0.0
 40
0.4
  0
CIRCLE
  5
F8
330
EB
100
AcDbEntity
  8
SIZE
  6
Continuous
100
AcDbCircle
 10
-225.0
 20
2455.0
 30
0.0
 40
0.3
  0
CIRCLE
  5
F9
330
EB
100
AcDbEntity
  8
SIZE
  6
Continuous
100
AcDbCircle
 10
-225.0
 20
2455.0
 30
0.0
 40
0.2
  0
CIRCLE
  5
FA
330
EB
100
AcDbEntity
  8
SIZE
  6
Continuous
100
AcDbCircle
 10
-225.0
 20
2455.0
 30
0.0
 40
0.1
  0
POINT
  5
FB
330
EB
100
AcDbEntity
  8
DEFPOINTS
  6
ByBlock
100
AcDbPoint
 10
-225.0
 20
2105.0
 30
0.0
  0
POINT
  5
FC
330
EB
100
AcDbEntity
  8
DEFPOINTS
  6
ByBlock
100
AcDbPoint
 10
225.0
 20
2105.0
 30
0.0
  0
POINT
  5
FD
330
EB
100
AcDbEntity
  8
DEFPOINTS
  6
ByBlock
100
AcDbPoint
 10
225.0
 20
2455.0
 30
0.0
  0
ENDBLK
  5
FE
330
EB
100
AcDbEntity
  8
SIZE
100
AcDbBlockEnd
  0
BLOCK
  5
100
330
FF
100
AcDbEntity
  8
SIZE
100
AcDbBlockBegin
  2
*D6
 70
     1
 10
0.0
 20
0.0
 30
0.0
  3
*D6
  1

  0
TEXT
  5
101
330
FF
100
AcDbEntity
  8
SIZE
  6
Continuous
100
AcDbText
 10
-1.959999976951027
 20
2305.999902367592
 30
0.0
 40
2.799999952316284
  1
90
 50
0.000002504478167
 41
0.6999999829701011
  7
STANDARD1
100
AcDbText
  0
LINE
  5
102
330
FF
100
AcDbEntity
  8
SIZE
  6
Continuous
100
AcDbLine
 10
-45.0
 20
1946.0
 30
0.0
 11
-45.0
 21
2307.0
 31
0.0
  0
LINE
  5
103
330
FF
100
AcDbEntity
  8
SIZE
  6
Continuous
100
AcDbLine
 10
45.0
 20
1946.0
 30
0.0
 11
45.0
 21
2307.0
 31
0.0
  0
LINE
  5
104
330
FF
100
AcDbEntity
  8
SIZE
  6
Continuous
100
AcDbLine
 10
-45.0
 20
2305.0
 30
0.0
 11
45.0
 21
2305.0
 31
0.0
  0
CIRCLE
  5
105
330
FF
100
AcDbEntity
  8
SIZE
  6
Continuous
100
AcDbCircle
 10
-45.0
 20
2305.0
 30
0.0
 40
0.5
  0
CIRCLE
  5
106
330
FF
100
AcDbEntity
  8
SIZE
  6
Continuous
100
AcDbCircle
 10
-45.0
 20
2305.0
 30
0.0
 40
0.4
  0
CIRCLE
  5
107
330
FF
100
AcDbEntity
  8
SIZE
  6
Continuous
100
AcDbCircle
 10
-45.0
 20
2305.0
 30
0.0
 40
0.3
  0
CIRCLE
  5
108
330
FF
100
AcDbEntity
  8
SIZE
  6
Continuous
100
AcDbCircle
 10
-45.0
 20
2305.0
 30
0.0
 40
0.2
  0
CIRCLE
  5
109
330
FF
100
AcDbEntity
  8
SIZE
  6
Continuous
100
AcDbCircle
 10
-45.0
 20
2305.0
 30
0.0
 40
0.1
  0
CIRCLE
  5
10A
330
FF
100
AcDbEntity
  8
SIZE
  6
Continuous
100
AcDbCircle
 10
45.0
 20
2305.0
 30
0.0
 40
0.5
  0
CIRCLE
  5
10B
330
FF
100
AcDbEntity
  8
SIZE
  6
Continuous
100
AcDbCircle
 10
45.0
 20
2305.0
 30
0.0
 40
0.4
  0
CIRCLE
  5
10C
330
FF
100
AcDbEntity
  8
SIZE
  6
Continuous
100
AcDbCircle
 10
45.0
 20
2305.0
 30
0.0
 40
0.3
  0
CIRCLE
  5
10D
330
FF
100
AcDbEntity
  8
SIZE
  6
Continuous
100
AcDbCircle
 10
45.0
 20
2305.0
 30
0.0
 40
0.2
  0
CIRCLE
  5
10E
330
FF
100
AcDbEntity
  8
SIZE
  6
Continuous
100
AcDbCircle
 10
45.0
 20
2305.0
 30
0.0
 40
0.1
  0
POINT
  5
10F
330
FF
100
AcDbEntity
  8
DEFPOINTS
  6
ByBlock
100
AcDbPoint
 10
45.0
 20
1945.0
 30
0.0
  0
POINT
  5
110
330
FF
100
AcDbEntity
  8
DEFPOINTS
  6
ByBlock
100
AcDbPoint
 10
-45.0
 20
1945.0
 30
0.0
  0
POINT
  5
111
330
FF
100
AcDbEntity
  8
DEFPOINTS
  6
ByBlock
100
AcDbPoint
 10
-45.0
 20
2305.0
 30
0.0
  0
ENDBLK
  5
112
330
FF
100
AcDbEntity
  8
SIZE
100
AcDbBlockEnd
  0
BLOCK
  5
114
330
113
100
AcDbEntity
  8
SIZE
100
AcDbBlockBegin
  2
*D7
 70
     1
 10
0.0
 20
0.0
 30
0.0
  3
*D7
  1

  0
TEXT
  5
115
330
113
100
AcDbEntity
  8
SIZE
  6
Continuous
100
AcDbText
 10
-1.959999976951027
 20
2205.999902367592
 30
0.0
 40
2.799999952316284
  1
60
 50
0.000002504478167
 41
0.6999999829701011
  7
STANDARD1
100
AcDbText
  0
LINE
  5
116
330
113
100
AcDbEntity
  8
SIZE
  6
Continuous
100
AcDbLine
 10
-30.0
 20
1949.0
 30
0.0
 11
-30.0
 21
2207.0
 31
0.0
  0
LINE
  5
117
330
113
100
AcDbEntity
  8
SIZE
  6
Continuous
100
AcDbLine
 10
30.0
 20
1949.0
 30
0.0
 11
30.0
 21
2207.0
 31
0.0
  0
LINE
  5
118
330
113
100
AcDbEntity
  8
SIZE
  6
Continuous
100
AcDbLine
 10
-30.0
 20
2205.0
 30
0.0
 11
30.0
 21
2205.0
 31
0.0
  0
CIRCLE
  5
119
330
113
100
AcDbEntity
  8
SIZE
  6
Continuous
100
AcDbCircle
 10
-30.0
 20
2205.0
 30
0.0
 40
0.5
  0
CIRCLE
  5
11A
330
113
100
AcDbEntity
  8
SIZE
  6
Continuous
100
AcDbCircle
 10
-30.0
 20
2205.0
 30
0.0
 40
0.4
  0
CIRCLE
  5
11B
330
113
100
AcDbEntity
  8
SIZE
  6
Continuous
100
AcDbCircle
 10
-30.0
 20
2205.0
 30
0.0
 40
0.3
  0
CIRCLE
  5
11C
330
113
100
AcDbEntity
  8
SIZE
  6
Continuous
100
AcDbCircle
 10
-30.0
 20
2205.0
 30
0.0
 40
0.2
  0
CIRCLE
  5
11D
330
113
100
AcDbEntity
  8
SIZE
  6
Continuous
100
AcDbCircle
 10
-30.0
 20
2205.0
 30
0.0
 40
0.1
  0
CIRCLE
  5
11E
330
113
100
AcDbEntity
  8
SIZE
  6
Continuous
100
AcDbCircle
 10
30.0
 20
2205.0
 30
0.0
 40
0.5
  0
CIRCLE
  5
11F
330
113
100
AcDbEntity
  8
SIZE
  6
Continuous
100
AcDbCircle
 10
30.0
 20
2205.0
 30
0.0
 40
0.4
  0
CIRCLE
  5
120
330
113
100
AcDbEntity
  8
SIZE
  6
Continuous
100
AcDbCircle
 10
30.0
 20
2205.0
 30
0.0
 40
0.3
  0
CIRCLE
  5
121
330
113
100
AcDbEntity
  8
SIZE
  6
Continuous
100
AcDbCircle
 10
30.0
 20
2205.0
 30
0.0
 40
0.2
  0
CIRCLE
  5
122
330
113
100
AcDbEntity
  8
SIZE
  6
Continuous
100
AcDbCircle
 10
30.0
 20
2205.0
 30
0.0
 40
0.1
  0
POINT
  5
123
330
113
100
AcDbEntity
  8
DEFPOINTS
  6
ByBlock
100
AcDbPoint
 10
30.0
 20
1948.0
 30
0.0
  0
POINT
  5
124
330
113
100
AcDbEntity
  8
DEFPOINTS
  6
ByBlock
100
AcDbPoint
 10
-30.0
 20
1948.0
 30
0.0
  0
POINT
  5
125
330
113
100
AcDbEntity
  8
DEFPOINTS
  6
ByBlock
100
AcDbPoint
 10
-30.0
 20
2205.0
 30
0.0
  0
ENDBLK
  5
126
330
113
100
AcDbEntity
  8
SIZE
100
AcDbBlockEnd
  0
BLOCK
  5
128
330
127
100
AcDbEntity
  8
SIZE
100
AcDbBlockBegin
  2
*D8
 70
     1
 10
0.0
 20
0.0
 30
0.0
  3
*D8
  1

  0
TEXT
  5
129
330
127
100
AcDbEntity
  8
SIZE
  6
Continuous
100
AcDbText
 10
-2.939999996024512
 20
-349.0000060796738
 30
0.0
 40
2.799999952316284
  1
450
 50
0.000002504478167
 41
0.6999999829701011
  7
STANDARD1
100
AcDbText
  0
LINE
  5
12A
330
127
100
AcDbEntity
  8
SIZE
  6
Continuous
100
AcDbLine
 10
225.0
 20
199.0
 30
0.0
 11
225.0
 21
-352.0
 31
0.0
  0
LINE
  5
12B
330
127
100
AcDbEntity
  8
SIZE
  6
Continuous
100
AcDbLine
 10
-225.0
 20
199.0
 30
0.0
 11
-225.0
 21
-352.0
 31
0.0
  0
LINE
  5
12C
330
127
100
AcDbEntity
  8
SIZE
  6
Continuous
100
AcDbLine
 10
225.0
 20
-350.0
 30
0.0
 11
-225.0
 21
-350.0
 31
0.0
  0
CIRCLE
  5
12D
330
127
100
AcDbEntity
  8
SIZE
  6
Continuous
100
AcDbCircle
 10
225.0
 20
-350.0
 30
0.0
 40
0.5
  0
CIRCLE
  5
12E
330
127
100
AcDbEntity
  8
SIZE
  6
Continuous
100
AcDbCircle
 10
225.0
 20
-350.0
 30
0.0
 40
0.4
  0
CIRCLE
  5
12F
330
127
100
AcDbEntity
  8
SIZE
  6
Continuous
100
AcDbCircle
 10
225.0
 20
-350.0
 30
0.0
 40
0.3
  0
CIRCLE
  5
130
330
127
100
AcDbEntity
  8
SIZE
  6
Continuous
100
AcDbCircle
 10
225.0
 20
-350.0
 30
0.0
 40
0.2
  0
CIRCLE
  5
131
330
127
100
AcDbEntity
  8
SIZE
  6
Continuous
100
AcDbCircle
 10
225.0
 20
-350.0
 30
0.0
 40
0.1
  0
CIRCLE
  5
132
330
127
100
AcDbEntity
  8
SIZE
  6
Continuous
100
AcDbCircle
 10
-225.0
 20
-350.0
 30
0.0
 40
0.5
  0
CIRCLE
  5
133
330
127
100
AcDbEntity
  8
SIZE
  6
Continuous
100
AcDbCircle
 10
-225.0
 20
-350.0
 30
0.0
 40
0.4
  0
CIRCLE
  5
134
330
127
100
AcDbEntity
  8
SIZE
  6
Continuous
100
AcDbCircle
 10
-225.0
 20
-350.0
 30
0.0
 40
0.3
  0
CIRCLE
  5
135
330
127
100
AcDbEntity
  8
SIZE
  6
Continuous
100
AcDbCircle
 10
-225.0
 20
-350.0
 30
0.0
 40
0.2
  0
CIRCLE
  5
136
330
127
100
AcDbEntity
  8
SIZE
  6
Continuous
100
AcDbCircle
 10
-225.0
 20
-350.0
 30
0.0
 40
0.1
  0
POINT
  5
137
330
127
100
AcDbEntity
  8
DEFPOINTS
  6
ByBlock
100
AcDbPoint
 10
-225.0
 20
200.0
 30
0.0
  0
POINT
  5
138
330
127
100
AcDbEntity
  8
DEFPOINTS
  6
ByBlock
100
AcDbPoint
 10
225.0
 20
200.0
 30
0.0
  0
POINT
  5
139
330
127
100
AcDbEntity
  8
DEFPOINTS
  6
ByBlock
100
AcDbPoint
 10
225.0
 20
-350.0
 30
0.0
  0
ENDBLK
  5
13A
330
127
100
AcDbEntity
  8
SIZE
100
AcDbBlockEnd
  0
BLOCK
  5
13C
330
13B
100
AcDbEntity
  8
SIZE
100
AcDbBlockBegin
  2
*D9
 70
     1
 10
0.0
 20
0.0
 30
0.0
  3
*D9
  1

  0
TEXT
  5
13D
330
13B
100
AcDbEntity
  8
SIZE
  6
Continuous
100
AcDbText
 10
-576.0000244379041
 20
97.05999768098564
 30
0.0
 40
2.799999952316284
  1
200
 50
90.00000500895634
 41
0.6999999829701011
  7
STANDARD1
100
AcDbText
  0
LINE
  5
13E
330
13B
100
AcDbEntity
  8
SIZE
  6
Continuous
100
AcDbLine
 10
-575.0
 20
200.0
 30
0.0
 11
-575.0
 21
0.000000000000045
 31
0.0
  0
CIRCLE
  5
13F
330
13B
100
AcDbEntity
  8
SIZE
  6
Continuous
100
AcDbCircle
 10
-575.0
 20
200.0
 30
0.0
 40
0.5
  0
CIRCLE
  5
140
330
13B
100
AcDbEntity
  8
SIZE
  6
Continuous
100
AcDbCircle
 10
-575.0
 20
200.0
 30
0.0
 40
0.4
  0
CIRCLE
  5
141
330
13B
100
AcDbEntity
  8
SIZE
  6
Continuous
100
AcDbCircle
 10
-575.0
 20
200.0
 30
0.0
 40
0.3
  0
CIRCLE
  5
142
330
13B
100
AcDbEntity
  8
SIZE
  6
Continuous
100
AcDbCircle
 10
-575.0
 20
200.0
 30
0.0
 40
0.2
  0
CIRCLE
  5
143
330
13B
100
AcDbEntity
  8
SIZE
  6
Continuous
100
AcDbCircle
 10
-575.0
 20
200.0
 30
0.0
 40
0.1
  0
CIRCLE
  5
144
330
13B
100
AcDbEntity
  8
SIZE
  6
Continuous
100
AcDbCircle
 10
-575.0
 20
0.000000000000045
 30
0.0
 40
0.5
  0
CIRCLE
  5
145
330
13B
100
AcDbEntity
  8
SIZE
  6
Continuous
100
AcDbCircle
 10
-575.0
 20
0.000000000000045
 30
0.0
 40
0.4
  0
CIRCLE
  5
146
330
13B
100
AcDbEntity
  8
SIZE
  6
Continuous
100
AcDbCircle
 10
-575.0
 20
0.000000000000045
 30
0.0
 40
0.3
  0
CIRCLE
  5
147
330
13B
100
AcDbEntity
  8
SIZE
  6
Continuous
100
AcDbCircle
 10
-575.0
 20
0.000000000000045
 30
0.0
 40
0.2
  0
CIRCLE
  5
148
330
13B
100
AcDbEntity
  8
SIZE
  6
Continuous
100
AcDbCircle
 10
-575.0
 20
0.000000000000045
 30
0.0
 40
0.1
  0
POINT
  5
149
330
13B
100
AcDbEntity
  8
DEFPOINTS
  6
ByBlock
100
AcDbPoint
 10
-205.0
 20
0.0
 30
0.0
  0
POINT
  5
14A
330
13B
100
AcDbEntity
  8
DEFPOINTS
  6
ByBlock
100
AcDbPoint
 10
-225.0
 20
200.0
 30
0.0
  0
POINT
  5
14B
330
13B
100
AcDbEntity
  8
DEFPOINTS
  6
ByBlock
100
AcDbPoint
 10
-575.0
 20
200.0
 30
0.0
  0
ENDBLK
  5
14C
330
13B
100
AcDbEntity
  8
SIZE
100
AcDbBlockEnd
  0
BLOCK
  5
14E
330
14D
100
AcDbEntity
  8
SIZE
100
AcDbBlockBegin
  2
*D10
 70
     1
 10
0.0
 20
0.0
 30
0.0
  3
*D10
  1

  0
TEXT
  5
14F
330
14D
100
AcDbEntity
  8
SIZE
  6
Continuous
100
AcDbText
 10
23.04000097672329
 20
-149.0000060796736
 30
0.0
 40
2.799999952316284
  1
50
 50
0.000002504478167
 41
0.6999999829701011
  7
STANDARD1
100
AcDbText
  0
LINE
  5
150
330
14D
100
AcDbEntity
  8
SIZE
  6
Continuous
100
AcDbLine
 10
50.0
 20
179.0
 30
0.0
 11
50.0
 21
-152.0
 31
0.0
  0
LINE
  5
151
330
14D
100
AcDbEntity
  8
SIZE
  6
Continuous
100
AcDbLine
 10
-0.00000000000002
 20
-150.0
 30
0.0
 11
50.0
 21
-150.0
 31
0.0
  0
CIRCLE
  5
152
330
14D
100
AcDbEntity
  8
SIZE
  6
Continuous
100
AcDbCircle
 10
-0.00000000000002
 20
-150.0
 30
0.0
 40
0.5
  0
CIRCLE
  5
153
330
14D
100
AcDbEntity
  8
SIZE
  6
Continuous
100
AcDbCircle
 10
-0.00000000000002
 20
-150.0
 30
0.0
 40
0.4
  0
CIRCLE
  5
154
330
14D
100
AcDbEntity
  8
SIZE
  6
Continuous
100
AcDbCircle
 10
-0.00000000000002
 20
-150.0
 30
0.0
 40
0.3
  0
CIRCLE
  5
155
330
14D
100
AcDbEntity
  8
SIZE
  6
Continuous
100
AcDbCircle
 10
-0.00000000000002
 20
-150.0
 30
0.0
 40
0.2
  0
CIRCLE
  5
156
330
14D
100
AcDbEntity
  8
SIZE
  6
Continuous
100
AcDbCircle
 10
-0.00000000000002
 20
-150.0
 30
0.0
 40
0.1
  0
CIRCLE
  5
157
330
14D
100
AcDbEntity
  8
SIZE
  6
Continuous
100
AcDbCircle
 10
50.0
 20
-150.0
 30
0.0
 40
0.5
  0
CIRCLE
  5
158
330
14D
100
AcDbEntity
  8
SIZE
  6
Continuous
100
AcDbCircle
 10
50.0
 20
-150.0
 30
0.0
 40
0.4
  0
CIRCLE
  5
159
330
14D
100
AcDbEntity
  8
SIZE
  6
Continuous
100
AcDbCircle
 10
50.0
 20
-150.0
 30
0.0
 40
0.3
  0
CIRCLE
  5
15A
330
14D
100
AcDbEntity
  8
SIZE
  6
Continuous
100
AcDbCircle
 10
50.0
 20
-150.0
 30
0.0
 40
0.2
  0
CIRCLE
  5
15B
330
14D
100
AcDbEntity
  8
SIZE
  6
Continuous
100
AcDbCircle
 10
50.0
 20
-150.0
 30
0.0
 40
0.1
  0
POINT
  5
15C
330
14D
100
AcDbEntity
  8
DEFPOINTS
  6
ByBlock
100
AcDbPoint
 10
50.0
 20
180.0
 30
0.0
  0
POINT
  5
15D
330
14D
100
AcDbEntity
  8
DEFPOINTS
  6
ByBlock
100
AcDbPoint
 10
0.0
 20
-38.68780899047852
 30
0.0
  0
POINT
  5
15E
330
14D
100
AcDbEntity
  8
DEFPOINTS
  6
ByBlock
100
AcDbPoint
 10
-0.00000000000002
 20
-150.0
 30
0.0
  0
ENDBLK
  5
15F
330
14D
100
AcDbEntity
  8
SIZE
100
AcDbBlockEnd
  0
BLOCK
  5
161
330
160
100
AcDbEntity
  8
SIZE
100
AcDbBlockBegin
  2
*D11
 70
     1
 10
0.0
 20
0.0
 30
0.0
  3
*D11
  1

  0
TEXT
  5
162
330
160
100
AcDbEntity
  8
SIZE
  6
Continuous
100
AcDbText
 10
-2.939999996024512
 20
-249.0000060796738
 30
0.0
 40
2.799999952316284
  1
276
 50
0.000002504478167
 41
0.6999999829701011
  7
STANDARD1
100
AcDbText
  0
LINE
  5
163
330
160
100
AcDbEntity
  8
SIZE
  6
Continuous
100
AcDbLine
 10
138.0
 20
-21.0
 30
0.0
 11
138.0
 21
-252.0
 31
0.0
  0
LINE
  5
164
330
160
100
AcDbEntity
  8
SIZE
  6
Continuous
100
AcDbLine
 10
-138.0
 20
-21.0
 30
0.0
 11
-138.0
 21
-252.0
 31
0.0
  0
LINE
  5
165
330
160
100
AcDbEntity
  8
SIZE
  6
Continuous
100
AcDbLine
 10
138.0
 20
-250.0
 30
0.0
 11
-138.0
 21
-250.0
 31
0.0
  0
CIRCLE
  5
166
330
160
100
AcDbEntity
  8
SIZE
  6
Continuous
100
AcDbCircle
 10
138.0
 20
-250.0
 30
0.0
 40
0.5
  0
CIRCLE
  5
167
330
160
100
AcDbEntity
  8
SIZE
  6
Continuous
100
AcDbCircle
 10
138.0
 20
-250.0
 30
0.0
 40
0.4
  0
CIRCLE
  5
168
330
160
100
AcDbEntity
  8
SIZE
  6
Continuous
100
AcDbCircle
 10
138.0
 20
-250.0
 30
0.0
 40
0.3
  0
CIRCLE
  5
169
330
160
100
AcDbEntity
  8
SIZE
  6
Continuous
100
AcDbCircle
 10
138.0
 20
-250.0
 30
0.0
 40
0.2
  0
CIRCLE
  5
16A
330
160
100
AcDbEntity
  8
SIZE
  6
Continuous
100
AcDbCircle
 10
138.0
 20
-250.0
 30
0.0
 40
0.1
  0
CIRCLE
  5
16B
330
160
100
AcDbEntity
  8
SIZE
  6
Continuous
100
AcDbCircle
 10
-138.0
 20
-250.0
 30
0.0
 40
0.5
  0
CIRCLE
  5
16C
330
160
100
AcDbEntity
  8
SIZE
  6
Continuous
100
AcDbCircle
 10
-138.0
 20
-250.0
 30
0.0
 40
0.4
  0
CIRCLE
  5
16D
330
160
100
AcDbEntity
  8
SIZE
  6
Continuous
100
AcDbCircle
 10
-138.0
 20
-250.0
 30
0.0
 40
0.3
  0
CIRCLE
  5
16E
330
160
100
AcDbEntity
  8
SIZE
  6
Continuous
100
AcDbCircle
 10
-138.0
 20
-250.0
 30
0.0
 40
0.2
  0
CIRCLE
  5
16F
330
160
100
AcDbEntity
  8
SIZE
  6
Continuous
100
AcDbCircle
 10
-138.0
 20
-250.0
 30
0.0
 40
0.1
  0
POINT
  5
170
330
160
100
AcDbEntity
  8
DEFPOINTS
  6
ByBlock
100
AcDbPoint
 10
-138.0
 20
-20.0
 30
0.0
  0
POINT
  5
171
330
160
100
AcDbEntity
  8
DEFPOINTS
  6
ByBlock
100
AcDbPoint
 10
138.0
 20
-20.0
 30
0.0
  0
POINT
  5
172
330
160
100
AcDbEntity
  8
DEFPOINTS
  6
ByBlock
100
AcDbPoint
 10
138.0
 20
-250.0
 30
0.0
  0
ENDBLK
  5
173
330
160
100
AcDbEntity
  8
SIZE
100
AcDbBlockEnd
  0
BLOCK
  5
175
330
174
100
AcDbEntity
  8
SIZE
100
AcDbBlockBegin
  2
*D12
 70
     1
 10
0.0
 20
0.0
 30
0.0
  3
*D12
  1

  0
TEXT
  5
176
330
174
100
AcDbEntity
  8
SIZE
  6
Continuous
100
AcDbText
 10
113.1603623048483
 20
-149.0000060796736
 30
0.0
 40
2.799999952316284
  1
92
 50
0.000002504478167
 41
0.6999999829701011
  7
STANDARD1
100
AcDbText
  0
LINE
  5
177
330
174
100
AcDbEntity
  8
SIZE
  6
Continuous
100
AcDbLine
 10
142.0
 20
139.0
 30
0.0
 11
142.0
 21
-152.0
 31
0.0
  0
LINE
  5
178
330
174
100
AcDbEntity
  8
SIZE
  6
Continuous
100
AcDbLine
 10
50.0
 20
-150.0
 30
0.0
 11
142.0
 21
-150.0
 31
0.0
  0
CIRCLE
  5
179
330
174
100
AcDbEntity
  8
SIZE
  6
Continuous
100
AcDbCircle
 10
50.0
 20
-150.0
 30
0.0
 40
0.5
  0
CIRCLE
  5
17A
330
174
100
AcDbEntity
  8
SIZE
  6
Continuous
100
AcDbCircle
 10
50.0
 20
-150.0
 30
0.0
 40
0.4
  0
CIRCLE
  5
17B
330
174
100
AcDbEntity
  8
SIZE
  6
Continuous
100
AcDbCircle
 10
50.0
 20
-150.0
 30
0.0
 40
0.3
  0
CIRCLE
  5
17C
330
174
100
AcDbEntity
  8
SIZE
  6
Continuous
100
AcDbCircle
 10
50.0
 20
-150.0
 30
0.0
 40
0.2
  0
CIRCLE
  5
17D
330
174
100
AcDbEntity
  8
SIZE
  6
Continuous
100
AcDbCircle
 10
50.0
 20
-150.0
 30
0.0
 40
0.1
  0
CIRCLE
  5
17E
330
174
100
AcDbEntity
  8
SIZE
  6
Continuous
100
AcDbCircle
 10
142.0
 20
-150.0
 30
0.0
 40
0.5
  0
CIRCLE
  5
17F
330
174
100
AcDbEntity
  8
SIZE
  6
Continuous
100
AcDbCircle
 10
142.0
 20
-150.0
 30
0.0
 40
0.4
  0
CIRCLE
  5
180
330
174
100
AcDbEntity
  8
SIZE
  6
Continuous
100
AcDbCircle
 10
142.0
 20
-150.0
 30
0.0
 40
0.3
  0
CIRCLE
  5
181
330
174
100
AcDbEntity
  8
SIZE
  6
Continuous
100
AcDbCircle
 10
142.0
 20
-150.0
 30
0.0
 40
0.2
  0
CIRCLE
  5
182
330
174
100
AcDbEntity
  8
SIZE
  6
Continuous
100
AcDbCircle
 10
142.0
 20
-150.0
 30
0.0
 40
0.1
  0
POINT
  5
183
330
174
100
AcDbEntity
  8
DEFPOINTS
  6
ByBlock
100
AcDbPoint
 10
142.0
 20
140.0
 30
0.0
  0
POINT
  5
184
330
174
100
AcDbEntity
  8
DEFPOINTS
  6
ByBlock
100
AcDbPoint
 10
50.0
 20
180.0
 30
0.0
  0
POINT
  5
185
330
174
100
AcDbEntity
  8
DEFPOINTS
  6
ByBlock
100
AcDbPoint
 10
50.0
 20
-150.0
 30
0.0
  0
ENDBLK
  5
186
330
174
100
AcDbEntity
  8
SIZE
100
AcDbBlockEnd
  0
BLOCK
  5
188
330
187
100
AcDbEntity
  8
SIZE
100
AcDbBlockBegin
  2
*D13
 70
     1
 10
0.0
 20
0.0
 30
0.0
  3
*D13
  1

  0
TEXT
  5
189
330
187
100
AcDbEntity
  8
SIZE
  6
Continuous
100
AcDbText
 10
68.05999761978971
 20
300.9999939203262
 30
0.0
 40
2.799999952316284
  1
142
 50
0.000002504478167
 41
0.6999999829701011
  7
STANDARD1
100
AcDbText
  0
LINE
  5
18A
330
187
100
AcDbEntity
  8
SIZE
  6
Continuous
100
AcDbLine
 10
142.0
 20
193.0
 30
0.0
 11
142.0
 21
302.0
 31
0.0
  0
LINE
  5
18B
330
187
100
AcDbEntity
  8
SIZE
  6
Continuous
100
AcDbLine
 10
142.0
 20
300.0
 30
0.0
 11
0.000000000000021
 21
300.0
 31
0.0
  0
CIRCLE
  5
18C
330
187
100
AcDbEntity
  8
SIZE
  6
Continuous
100
AcDbCircle
 10
142.0
 20
300.0
 30
0.0
 40
0.5
  0
CIRCLE
  5
18D
330
187
100
AcDbEntity
  8
SIZE
  6
Continuous
100
AcDbCircle
 10
142.0
 20
300.0
 30
0.0
 40
0.4
  0
CIRCLE
  5
18E
330
187
100
AcDbEntity
  8
SIZE
  6
Continuous
100
AcDbCircle
 10
142.0
 20
300.0
 30
0.0
 40
0.3
  0
CIRCLE
  5
18F
330
187
100
AcDbEntity
  8
SIZE
  6
Continuous
100
AcDbCircle
 10
142.0
 20
300.0
 30
0.0
 40
0.2
  0
CIRCLE
  5
190
330
187
100
AcDbEntity
  8
SIZE
  6
Continuous
100
AcDbCircle
 10
142.0
 20
300.0
 30
0.0
 40
0.1
  0
CIRCLE
  5
191
330
187
100
AcDbEntity
  8
SIZE
  6
Continuous
100
AcDbCircle
 10
0.000000000000021
 20
300.0
 30
0.0
 40
0.5
  0
CIRCLE
  5
192
330
187
100
AcDbEntity
  8
SIZE
  6
Continuous
100
AcDbCircle
 10
0.000000000000021
 20
300.0
 30
0.0
 40
0.4
  0
CIRCLE
  5
193
330
187
100
AcDbEntity
  8
SIZE
  6
Continuous
100
AcDbCircle
 10
0.000000000000021
 20
300.0
 30
0.0
 40
0.3
  0
CIRCLE
  5
194
330
187
100
AcDbEntity
  8
SIZE
  6
Continuous
100
AcDbCircle
 10
0.000000000000021
 20
300.0
 30
0.0
 40
0.2
  0
CIRCLE
  5
195
330
187
100
AcDbEntity
  8
SIZE
  6
Continuous
100
AcDbCircle
 10
0.000000000000021
 20
300.0
 30
0.0
 40
0.1
  0
POINT
  5
196
330
187
100
AcDbEntity
  8
DEFPOINTS
  6
ByBlock
100
AcDbPoint
 10
0.0
 20
-38.68780899047852
 30
0.0
  0
POINT
  5
197
330
187
100
AcDbEntity
  8
DEFPOINTS
  6
ByBlock
100
AcDbPoint
 10
142.0
 20
192.0
 30
0.0
  0
POINT
  5
198
330
187
100
AcDbEntity
  8
DEFPOINTS
  6
ByBlock
100
AcDbPoint
 10
142.0
 20
300.0
 30
0.0
  0
ENDBLK
  5
199
330
187
100
AcDbEntity
  8
SIZE
100
AcDbBlockEnd
  0
BLOCK
  5
19B
330
19A
100
AcDbEntity
  8
SIZE
100
AcDbBlockBegin
  2
*D14
 70
     1
 10
0.0
 20
0.0
 30
0.0
  3
*D14
  1

  0
TEXT
  5
19C
330
19A
100
AcDbEntity
  8
SIZE
  6
Continuous
100
AcDbText
 10
773.9999755620956
 20
971.0800172122356
 30
0.0
 40
2.799999952316284
  1
1950
 50
90.00000500895634
 41
0.6999999829701011
  7
STANDARD1
100
AcDbText
  0
LINE
  5
19D
330
19A
100
AcDbEntity
  8
SIZE
  6
Continuous
100
AcDbLine
 10
171.0
 20
0.0
 30
0.0
 11
777.0
 21
0.0
 31
0.0
  0
LINE
  5
19E
330
19A
100
AcDbEntity
  8
SIZE
  6
Continuous
100
AcDbLine
 10
41.0
 20
1950.0
 30
0.0
 11
777.0
 21
1950.0
 31
0.0
  0
LINE
  5
19F
330
19A
100
AcDbEntity
  8
SIZE
  6
Continuous
100
AcDbLine
 10
775.0
 20
0.0
 30
0.0
 11
775.0
 21
1950.0
 31
0.0
  0
CIRCLE
  5
1A0
330
19A
100
AcDbEntity
  8
SIZE
  6
Continuous
100
AcDbCircle
 10
775.0
 20
0.0
 30
0.0
 40
0.5
  0
CIRCLE
  5
1A1
330
19A
100
AcDbEntity
  8
SIZE
  6
Continuous
100
AcDbCircle
 10
775.0
 20
0.0
 30
0.0
 40
0.4
  0
CIRCLE
  5
1A2
330
19A
100
AcDbEntity
  8
SIZE
  6
Continuous
100
AcDbCircle
 10
775.0
 20
0.0
 30
0.0
 40
0.3
  0
CIRCLE
  5
1A3
330
19A
100
AcDbEntity
  8
SIZE
  6
Continuous
100
AcDbCircle
 10
775.0
 20
0.0
 30
0.0
 40
0.2
  0
CIRCLE
  5
1A4
330
19A
100
AcDbEntity
  8
SIZE
  6
Continuous
100
AcDbCircle
 10
775.0
 20
0.0
 30
0.0
 40
0.1
  0
CIRCLE
  5
1A5
330
19A
100
AcDbEntity
  8
SIZE
  6
Continuous
100
AcDbCircle
 10
775.0
 20
1950.0
 30
0.0
 40
0.5
  0
CIRCLE
  5
1A6
330
19A
100
AcDbEntity
  8
SIZE
  6
Continuous
100
AcDbCircle
 10
775.0
 20
1950.0
 30
0.0
 40
0.4
  0
CIRCLE
  5
1A7
330
19A
100
AcDbEntity
  8
SIZE
  6
Continuous
100
AcDbCircle
 10
775.0
 20
1950.0
 30
0.0
 40
0.3
  0
CIRCLE
  5
1A8
330
19A
100
AcDbEntity
  8
SIZE
  6
Continuous
100
AcDbCircle
 10
775.0
 20
1950.0
 30
0.0
 40
0.2
  0
CIRCLE
  5
1A9
330
19A
100
AcDbEntity
  8
SIZE
  6
Continuous
100
AcDbCircle
 10
775.0
 20
1950.0
 30
0.0
 40
0.1
  0
POINT
  5
1AA
330
19A
100
AcDbEntity
  8
DEFPOINTS
  6
ByBlock
100
AcDbPoint
 10
40.0
 20
1950.0
 30
0.0
  0
POINT
  5
1AB
330
19A
100
AcDbEntity
  8
DEFPOINTS
  6
ByBlock
100
AcDbPoint
 10
170.0
 20
0.0
 30
0.0
  0
POINT
  5
1AC
330
19A
100
AcDbEntity
  8
DEFPOINTS
  6
ByBlock
100
AcDbPoint
 10
775.0
 20
0.0
 30
0.0
  0
ENDBLK
  5
1AD
330
19A
100
AcDbEntity
  8
SIZE
100
AcDbBlockEnd
  0
BLOCK
  5
1AF
330
1AE
100
AcDbEntity
  8
SIZE
100
AcDbBlockBegin
  2
*D15
 70
     1
 10
0.0
 20
0.0
 30
0.0
  3
*D15
  1

  0
TEXT
  5
1B0
330
1AE
100
AcDbEntity
  8
SIZE
  6
Continuous
100
AcDbText
 10
-676.0000244379041
 20
948.5800172122356
 30
0.0
 40
2.799999952316284
  1
1905
 50
90.00000500895634
 41
0.6999999829701011
  7
STANDARD1
100
AcDbText
  0
LINE
  5
1B1
330
1AE
100
AcDbEntity
  8
SIZE
  6
Continuous
100
AcDbLine
 10
-226.0
 20
1905.0
 30
0.0
 11
-677.0
 21
1905.0
 31
0.0
  0
LINE
  5
1B2
330
1AE
100
AcDbEntity
  8
SIZE
  6
Continuous
100
AcDbLine
 10
-171.0
 20
0.0
 30
0.0
 11
-677.0
 21
0.000000000000062
 31
0.0
  0
LINE
  5
1B3
330
1AE
100
AcDbEntity
  8
SIZE
  6
Continuous
100
AcDbLine
 10
-675.0
 20
1905.0
 30
0.0
 11
-675.0
 21
0.000000000000062
 31
0.0
  0
CIRCLE
  5
1B4
330
1AE
100
AcDbEntity
  8
SIZE
  6
Continuous
100
AcDbCircle
 10
-675.0
 20
1905.0
 30
0.0
 40
0.5
  0
CIRCLE
  5
1B5
330
1AE
100
AcDbEntity
  8
SIZE
  6
Continuous
100
AcDbCircle
 10
-675.0
 20
1905.0
 30
0.0
 40
0.4
  0
CIRCLE
  5
1B6
330
1AE
100
AcDbEntity
  8
SIZE
  6
Continuous
100
AcDbCircle
 10
-675.0
 20
1905.0
 30
0.0
 40
0.3
  0
CIRCLE
  5
1B7
330
1AE
100
AcDbEntity
  8
SIZE
  6
Continuous
100
AcDbCircle
 10
-675.0
 20
1905.0
 30
0.0
 40
0.2
  0
CIRCLE
  5
1B8
330
1AE
100
AcDbEntity
  8
SIZE
  6
Continuous
100
AcDbCircle
 10
-675.0
 20
1905.0
 30
0.0
 40
0.1
  0
CIRCLE
  5
1B9
330
1AE
100
AcDbEntity
  8
SIZE
  6
Continuous
100
AcDbCircle
 10
-675.0
 20
0.000000000000062
 30
0.0
 40
0.5
  0
CIRCLE
  5
1BA
330
1AE
100
AcDbEntity
  8
SIZE
  6
Continuous
100
AcDbCircle
 10
-675.0
 20
0.000000000000062
 30
0.0
 40
0.4
  0
CIRCLE
  5
1BB
330
1AE
100
AcDbEntity
  8
SIZE
  6
Continuous
100
AcDbCircle
 10
-675.0
 20
0.000000000000062
 30
0.0
 40
0.3
  0
CIRCLE
  5
1BC
330
1AE
100
AcDbEntity
  8
SIZE
  6
Continuous
100
AcDbCircle
 10
-675.0
 20
0.000000000000062
 30
0.0
 40
0.2
  0
CIRCLE
  5
1BD
330
1AE
100
AcDbEntity
  8
SIZE
  6
Continuous
100
AcDbCircle
 10
-675.0
 20
0.000000000000062
 30
0.0
 40
0.1
  0
POINT
  5
1BE
330
1AE
100
AcDbEntity
  8
DEFPOINTS
  6
ByBlock
100
AcDbPoint
 10
-170.0
 20
0.0
 30
0.0
  0
POINT
  5
1BF
330
1AE
100
AcDbEntity
  8
DEFPOINTS
  6
ByBlock
100
AcDbPoint
 10
-225.0
 20
1905.0
 30
0.0
  0
POINT
  5
1C0
330
1AE
100
AcDbEntity
  8
DEFPOINTS
  6
ByBlock
100
AcDbPoint
 10
-675.0
 20
1905.0
 30
0.0
  0
ENDBLK
  5
1C1
330
1AE
100
AcDbEntity
  8
SIZE
100
AcDbBlockEnd
  0
BLOCK
  5
1C3
330
1C2
100
AcDbEntity
  8
SIZE
100
AcDbBlockBegin
  2
*D16
 70
     1
 10
0.0
 20
0.0
 30
0.0
  3
*D16
  1

  0
TEXT
  5
1C4
330
1C2
100
AcDbEntity
  8
SIZE
  6
Continuous
100
AcDbText
 10
-375.9999939203262
 20
77.05999768098559
 30
0.0
 40
2.799999952316284
  1
160
 50
90.00000500895634
 41
0.6999999829701011
  7
STANDARD1
100
AcDbText
  0
LINE
  5
1C5
330
1C2
100
AcDbEntity
  8
SIZE
  6
Continuous
100
AcDbLine
 10
121.0
 20
160.0
 30
0.0
 11
-377.0
 21
160.0
 31
0.0
  0
LINE
  5
1C6
330
1C2
100
AcDbEntity
  8
SIZE
  6
Continuous
100
AcDbLine
 10
-375.0
 20
0.000000000000025
 30
0.0
 11
-375.0
 21
160.0
 31
0.0
  0
CIRCLE
  5
1C7
330
1C2
100
AcDbEntity
  8
SIZE
  6
Continuous
100
AcDbCircle
 10
-375.0
 20
0.000000000000025
 30
0.0
 40
0.5
  0
CIRCLE
  5
1C8
330
1C2
100
AcDbEntity
  8
SIZE
  6
Continuous
100
AcDbCircle
 10
-375.0
 20
0.000000000000025
 30
0.0
 40
0.4
  0
CIRCLE
  5
1C9
330
1C2
100
AcDbEntity
  8
SIZE
  6
Continuous
100
AcDbCircle
 10
-375.0
 20
0.000000000000025
 30
0.0
 40
0.3
  0
CIRCLE
  5
1CA
330
1C2
100
AcDbEntity
  8
SIZE
  6
Continuous
100
AcDbCircle
 10
-375.0
 20
0.000000000000025
 30
0.0
 40
0.2
  0
CIRCLE
  5
1CB
330
1C2
100
AcDbEntity
  8
SIZE
  6
Continuous
100
AcDbCircle
 10
-375.0
 20
0.000000000000025
 30
0.0
 40
0.1
  0
CIRCLE
  5
1CC
330
1C2
100
AcDbEntity
  8
SIZE
  6
Continuous
100
AcDbCircle
 10
-375.0
 20
160.0
 30
0.0
 40
0.5
  0
CIRCLE
  5
1CD
330
1C2
100
AcDbEntity
  8
SIZE
  6
Continuous
100
AcDbCircle
 10
-375.0
 20
160.0
 30
0.0
 40
0.4
  0
CIRCLE
  5
1CE
330
1C2
100
AcDbEntity
  8
SIZE
  6
Continuous
100
AcDbCircle
 10
-375.0
 20
160.0
 30
0.0
 40
0.3
  0
CIRCLE
  5
1CF
330
1C2
100
AcDbEntity
  8
SIZE
  6
Continuous
100
AcDbCircle
 10
-375.0
 20
160.0
 30
0.0
 40
0.2
  0
CIRCLE
  5
1D0
330
1C2
100
AcDbEntity
  8
SIZE
  6
Continuous
100
AcDbCircle
 10
-375.0
 20
160.0
 30
0.0
 40
0.1
  0
POINT
  5
1D1
330
1C2
100
AcDbEntity
  8
DEFPOINTS
  6
ByBlock
100
AcDbPoint
 10
122.0
 20
160.0
 30
0.0
  0
POINT
  5
1D2
330
1C2
100
AcDbEntity
  8
DEFPOINTS
  6
ByBlock
100
AcDbPoint
 10
-170.0
 20
0.0
 30
0.0
  0
POINT
  5
1D3
330
1C2
100
AcDbEntity
  8
DEFPOINTS
  6
ByBlock
100
AcDbPoint
 10
-375.0
 20
0.000000000000025
 30
0.0
  0
ENDBLK
  5
1D4
330
1C2
100
AcDbEntity
  8
SIZE
100
AcDbBlockEnd
  0
BLOCK
  5
1D6
330
1D5
100
AcDbEntity
  8
SIZE
100
AcDbBlockBegin
  2
*D17
 70
     1
 10
0.0
 20
0.0
 30
0.0
  3
*D17
  1

  0
TEXT
  5
1D7
330
1D5
100
AcDbEntity
  8
SIZE
  6
Continuous
100
AcDbText
 10
-475.999993920326
 20
83.05999768098562
 30
0.0
 40
2.799999952316284
  1
172
 50
90.00000500895634
 41
0.6999999829701011
  7
STANDARD1
100
AcDbText
  0
LINE
  5
1D8
330
1D5
100
AcDbEntity
  8
SIZE
  6
Continuous
100
AcDbLine
 10
121.0
 20
172.0
 30
0.0
 11
-477.0
 21
172.0
 31
0.0
  0
LINE
  5
1D9
330
1D5
100
AcDbEntity
  8
SIZE
  6
Continuous
100
AcDbLine
 10
-475.0
 20
172.0
 30
0.0
 11
-475.0
 21
0.000000000000037
 31
0.0
  0
CIRCLE
  5
1DA
330
1D5
100
AcDbEntity
  8
SIZE
  6
Continuous
100
AcDbCircle
 10
-475.0
 20
172.0
 30
0.0
 40
0.5
  0
CIRCLE
  5
1DB
330
1D5
100
AcDbEntity
  8
SIZE
  6
Continuous
100
AcDbCircle
 10
-475.0
 20
172.0
 30
0.0
 40
0.4
  0
CIRCLE
  5
1DC
330
1D5
100
AcDbEntity
  8
SIZE
  6
Continuous
100
AcDbCircle
 10
-475.0
 20
172.0
 30
0.0
 40
0.3
  0
CIRCLE
  5
1DD
330
1D5
100
AcDbEntity
  8
SIZE
  6
Continuous
100
AcDbCircle
 10
-475.0
 20
172.0
 30
0.0
 40
0.2
  0
CIRCLE
  5
1DE
330
1D5
100
AcDbEntity
  8
SIZE
  6
Continuous
100
AcDbCircle
 10
-475.0
 20
172.0
 30
0.0
 40
0.1
  0
CIRCLE
  5
1DF
330
1D5
100
AcDbEntity
  8
SIZE
  6
Continuous
100
AcDbCircle
 10
-475.0
 20
0.000000000000037
 30
0.0
 40
0.5
  0
CIRCLE
  5
1E0
330
1D5
100
AcDbEntity
  8
SIZE
  6
Continuous
100
AcDbCircle
 10
-475.0
 20
0.000000000000037
 30
0.0
 40
0.4
  0
CIRCLE
  5
1E1
330
1D5
100
AcDbEntity
  8
SIZE
  6
Continuous
100
AcDbCircle
 10
-475.0
 20
0.000000000000037
 30
0.0
 40
0.3
  0
CIRCLE
  5
1E2
330
1D5
100
AcDbEntity
  8
SIZE
  6
Continuous
100
AcDbCircle
 10
-475.0
 20
0.000000000000037
 30
0.0
 40
0.2
  0
CIRCLE
  5
1E3
330
1D5
100
AcDbEntity
  8
SIZE
  6
Continuous
100
AcDbCircle
 10
-475.0
 20
0.000000000000037
 30
0.0
 40
0.1
  0
POINT
  5
1E4
330
1D5
100
AcDbEntity
  8
DEFPOINTS
  6
ByBlock
100
AcDbPoint
 10
-170.0
 20
0.0
 30
0.0
  0
POINT
  5
1E5
330
1D5
100
AcDbEntity
  8
DEFPOINTS
  6
ByBlock
100
AcDbPoint
 10
122.0
 20
172.0
 30
0.0
  0
POINT
  5
1E6
330
1D5
100
AcDbEntity
  8
DEFPOINTS
  6
ByBlock
100
AcDbPoint
 10
-475.0
 20
172.0
 30
0.0
  0
ENDBLK
  5
1E7
330
1D5
100
AcDbEntity
  8
SIZE
100
AcDbBlockEnd
  0
BLOCK
  5
1E9
330
1E8
100
AcDbEntity
  8
SIZE
100
AcDbBlockBegin
  2
*D18
 70
     1
 10
0.0
 20
0.0
 30
0.0
  3
*D18
  1

  0
TEXT
  5
1EA
330
1E8
100
AcDbEntity
  8
SIZE
  6
Continuous
100
AcDbText
 10
573.9999755620956
 20
525.5800172122356
 30
0.0
 40
2.799999952316284
  1
1059
 50
90.00000500895634
 41
0.6999999829701011
  7
STANDARD1
100
AcDbText
  0
LINE
  5
1EB
330
1E8
100
AcDbEntity
  8
SIZE
  6
Continuous
100
AcDbLine
 10
125.0
 20
1059.0
 30
0.0
 11
577.0
 21
1059.0
 31
0.0
  0
LINE
  5
1EC
330
1E8
100
AcDbEntity
  8
SIZE
  6
Continuous
100
AcDbLine
 10
575.0
 20
1059.0
 30
0.0
 11
575.0
 21
0.0
 31
0.0
  0
CIRCLE
  5
1ED
330
1E8
100
AcDbEntity
  8
SIZE
  6
Continuous
100
AcDbCircle
 10
575.0
 20
1059.0
 30
0.0
 40
0.5
  0
CIRCLE
  5
1EE
330
1E8
100
AcDbEntity
  8
SIZE
  6
Continuous
100
AcDbCircle
 10
575.0
 20
1059.0
 30
0.0
 40
0.4
  0
CIRCLE
  5
1EF
330
1E8
100
AcDbEntity
  8
SIZE
  6
Continuous
100
AcDbCircle
 10
575.0
 20
1059.0
 30
0.0
 40
0.3
  0
CIRCLE
  5
1F0
330
1E8
100
AcDbEntity
  8
SIZE
  6
Continuous
100
AcDbCircle
 10
575.0
 20
1059.0
 30
0.0
 40
0.2
  0
CIRCLE
  5
1F1
330
1E8
100
AcDbEntity
  8
SIZE
  6
Continuous
100
AcDbCircle
 10
575.0
 20
1059.0
 30
0.0
 40
0.1
  0
CIRCLE
  5
1F2
330
1E8
100
AcDbEntity
  8
SIZE
  6
Continuous
100
AcDbCircle
 10
575.0
 20
0.0
 30
0.0
 40
0.5
  0
CIRCLE
  5
1F3
330
1E8
100
AcDbEntity
  8
SIZE
  6
Continuous
100
AcDbCircle
 10
575.0
 20
0.0
 30
0.0
 40
0.4
  0
CIRCLE
  5
1F4
330
1E8
100
AcDbEntity
  8
SIZE
  6
Continuous
100
AcDbCircle
 10
575.0
 20
0.0
 30
0.0
 40
0.3
  0
CIRCLE
  5
1F5
330
1E8
100
AcDbEntity
  8
SIZE
  6
Continuous
100
AcDbCircle
 10
575.0
 20
0.0
 30
0.0
 40
0.2
  0
CIRCLE
  5
1F6
330
1E8
100
AcDbEntity
  8
SIZE
  6
Continuous
100
AcDbCircle
 10
575.0
 20
0.0
 30
0.0
 40
0.1
  0
POINT
  5
1F7
330
1E8
100
AcDbEntity
  8
DEFPOINTS
  6
ByBlock
100
AcDbPoint
 10
170.0
 20
0.0
 30
0.0
  0
POINT
  5
1F8
330
1E8
100
AcDbEntity
  8
DEFPOINTS
  6
ByBlock
100
AcDbPoint
 10
124.0
 20
1059.0
 30
0.0
  0
POINT
  5
1F9
330
1E8
100
AcDbEntity
  8
DEFPOINTS
  6
ByBlock
100
AcDbPoint
 10
575.0
 20
1059.0
 30
0.0
  0
ENDBLK
  5
1FA
330
1E8
100
AcDbEntity
  8
SIZE
100
AcDbBlockEnd
  0
BLOCK
  5
1FC
330
1FB
100
AcDbEntity
  8
SIZE
100
AcDbBlockBegin
  2
*D19
 70
     1
 10
0.0
 20
0.0
 30
0.0
  3
*D19
  1

  0
TEXT
  5
1FD
330
1FB
100
AcDbEntity
  8
SIZE
  6
Continuous
100
AcDbText
 10
49.06000143448697
 20
761.8099609613417
 30
0.0
 40
2.799999952316284
  1
104
 50
0.000002504478167
 41
0.6999999829701011
  7
STANDARD1
100
AcDbText
  0
LINE
  5
1FE
330
1FB
100
AcDbEntity
  8
SIZE
  6
Continuous
100
AcDbLine
 10
104.0
 20
1038.0
 30
0.0
 11
104.0
 21
758.8099365234374
 31
0.0
  0
LINE
  5
1FF
330
1FB
100
AcDbEntity
  8
SIZE
  6
Continuous
100
AcDbLine
 10
0.000000000000049
 20
760.8099365234375
 30
0.0
 11
104.0
 21
760.8099365234375
 31
0.0
  0
CIRCLE
  5
200
330
1FB
100
AcDbEntity
  8
SIZE
  6
Continuous
100
AcDbCircle
 10
0.000000000000049
 20
760.8099365234375
 30
0.0
 40
0.5
  0
CIRCLE
  5
201
330
1FB
100
AcDbEntity
  8
SIZE
  6
Continuous
100
AcDbCircle
 10
0.000000000000049
 20
760.8099365234375
 30
0.0
 40
0.4
  0
CIRCLE
  5
202
330
1FB
100
AcDbEntity
  8
SIZE
  6
Continuous
100
AcDbCircle
 10
0.000000000000049
 20
760.8099365234375
 30
0.0
 40
0.3
  0
CIRCLE
  5
203
330
1FB
100
AcDbEntity
  8
SIZE
  6
Continuous
100
AcDbCircle
 10
0.000000000000049
 20
760.8099365234375
 30
0.0
 40
0.2
  0
CIRCLE
  5
204
330
1FB
100
AcDbEntity
  8
SIZE
  6
Continuous
100
AcDbCircle
 10
0.000000000000049
 20
760.8099365234375
 30
0.0
 40
0.1
  0
CIRCLE
  5
205
330
1FB
100
AcDbEntity
  8
SIZE
  6
Continuous
100
AcDbCircle
 10
104.0
 20
760.8099365234375
 30
0.0
 40
0.5
  0
CIRCLE
  5
206
330
1FB
100
AcDbEntity
  8
SIZE
  6
Continuous
100
AcDbCircle
 10
104.0
 20
760.8099365234375
 30
0.0
 40
0.4
  0
CIRCLE
  5
207
330
1FB
100
AcDbEntity
  8
SIZE
  6
Continuous
100
AcDbCircle
 10
104.0
 20
760.8099365234375
 30
0.0
 40
0.3
  0
CIRCLE
  5
208
330
1FB
100
AcDbEntity
  8
SIZE
  6
Continuous
100
AcDbCircle
 10
104.0
 20
760.8099365234375
 30
0.0
 40
0.2
  0
CIRCLE
  5
209
330
1FB
100
AcDbEntity
  8
SIZE
  6
Continuous
100
AcDbCircle
 10
104.0
 20
760.8099365234375
 30
0.0
 40
0.1
  0
POINT
  5
20A
330
1FB
100
AcDbEntity
  8
DEFPOINTS
  6
ByBlock
100
AcDbPoint
 10
104.0
 20
1039.0
 30
0.0
  0
POINT
  5
20B
330
1FB
100
AcDbEntity
  8
DEFPOINTS
  6
ByBlock
100
AcDbPoint
 10
0.0
 20
-38.68780899047852
 30
0.0
  0
POINT
  5
20C
330
1FB
100
AcDbEntity
  8
DEFPOINTS
  6
ByBlock
100
AcDbPoint
 10
0.000000000000049
 20
760.8099365234375
 30
0.0
  0
ENDBLK
  5
20D
330
1FB
100
AcDbEntity
  8
SIZE
100
AcDbBlockEnd
  0
BLOCK
  5
20F
330
20E
100
AcDbEntity
  8
SIZE
100
AcDbBlockBegin
  2
*D20
 70
     1
 10
0.0
 20
0.0
 30
0.0
  3
*D20
  1

  0
TEXT
  5
210
330
20E
100
AcDbEntity
  8
SIZE
  6
Continuous
100
AcDbText
 10
-66.94000238021029
 20
-149.0000060796736
 30
0.0
 40
2.799999952316284
  1
128
 50
0.000002504478167
 41
0.6999999829701011
  7
STANDARD1
100
AcDbText
  0
LINE
  5
211
330
20E
100
AcDbEntity
  8
SIZE
  6
Continuous
100
AcDbLine
 10
-128.0
 20
179.0
 30
0.0
 11
-128.0
 21
-152.0
 31
0.0
  0
LINE
  5
212
330
20E
100
AcDbEntity
  8
SIZE
  6
Continuous
100
AcDbLine
 10
0.0
 20
-39.68780899047852
 30
0.0
 11
-0.00000000000002
 21
-152.0
 31
0.0
  0
LINE
  5
213
330
20E
100
AcDbEntity
  8
SIZE
  6
Continuous
100
AcDbLine
 10
-128.0
 20
-150.0
 30
0.0
 11
-0.00000000000002
 21
-150.0
 31
0.0
  0
CIRCLE
  5
214
330
20E
100
AcDbEntity
  8
SIZE
  6
Continuous
100
AcDbCircle
 10
-128.0
 20
-150.0
 30
0.0
 40
0.5
  0
CIRCLE
  5
215
330
20E
100
AcDbEntity
  8
SIZE
  6
Continuous
100
AcDbCircle
 10
-128.0
 20
-150.0
 30
0.0
 40
0.4
  0
CIRCLE
  5
216
330
20E
100
AcDbEntity
  8
SIZE
  6
Continuous
100
AcDbCircle
 10
-128.0
 20
-150.0
 30
0.0
 40
0.3
  0
CIRCLE
  5
217
330
20E
100
AcDbEntity
  8
SIZE
  6
Continuous
100
AcDbCircle
 10
-128.0
 20
-150.0
 30
0.0
 40
0.2
  0
CIRCLE
  5
218
330
20E
100
AcDbEntity
  8
SIZE
  6
Continuous
100
AcDbCircle
 10
-128.0
 20
-150.0
 30
0.0
 40
0.1
  0
CIRCLE
  5
219
330
20E
100
AcDbEntity
  8
SIZE
  6
Continuous
100
AcDbCircle
 10
-0.00000000000002
 20
-150.0
 30
0.0
 40
0.5
  0
CIRCLE
  5
21A
330
20E
100
AcDbEntity
  8
SIZE
  6
Continuous
100
AcDbCircle
 10
-0.00000000000002
 20
-150.0
 30
0.0
 40
0.4
  0
CIRCLE
  5
21B
330
20E
100
AcDbEntity
  8
SIZE
  6
Continuous
100
AcDbCircle
 10
-0.00000000000002
 20
-150.0
 30
0.0
 40
0.3
  0
CIRCLE
  5
21C
330
20E
100
AcDbEntity
  8
SIZE
  6
Continuous
100
AcDbCircle
 10
-0.00000000000002
 20
-150.0
 30
0.0
 40
0.2
  0
CIRCLE
  5
21D
330
20E
100
AcDbEntity
  8
SIZE
  6
Continuous
100
AcDbCircle
 10
-0.00000000000002
 20
-150.0
 30
0.0
 40
0.1
  0
POINT
  5
21E
330
20E
100
AcDbEntity
  8
DEFPOINTS
  6
ByBlock
100
AcDbPoint
 10
0.0
 20
-38.68780899047852
 30
0.0
  0
POINT
  5
21F
330
20E
100
AcDbEntity
  8
DEFPOINTS
  6
ByBlock
100
AcDbPoint
 10
-128.0
 20
180.0
 30
0.0
  0
POINT
  5
220
330
20E
100
AcDbEntity
  8
DEFPOINTS
  6
ByBlock
100
AcDbPoint
 10
-128.0
 20
-150.0
 30
0.0
  0
ENDBLK
  5
221
330
20E
100
AcDbEntity
  8
SIZE
100
AcDbBlockEnd
  0
BLOCK
  5
223
330
222
100
AcDbEntity
  8
SIZE
100
AcDbBlockBegin
  2
*D21
 70
     1
 10
0.0
 20
0.0
 30
0.0
  3
*D21
  1

  0
TEXT
  5
224
330
222
100
AcDbEntity
  8
SIZE
  6
Continuous
100
AcDbText
 10
-155.7100066526712
 20
-149.0000060796736
 30
0.0
 40
2.799999952316284
  1
52
 50
0.000002504478167
 41
0.6999999829701011
  7
STANDARD1
100
AcDbText
  0
LINE
  5
225
330
222
100
AcDbEntity
  8
SIZE
  6
Continuous
100
AcDbLine
 10
-179.5
 20
179.0
 30
0.0
 11
-179.5
 21
-152.0
 31
0.0
  0
LINE
  5
226
330
222
100
AcDbEntity
  8
SIZE
  6
Continuous
100
AcDbLine
 10
-128.0
 20
-150.0
 30
0.0
 11
-179.5
 21
-150.0
 31
0.0
  0
CIRCLE
  5
227
330
222
100
AcDbEntity
  8
SIZE
  6
Continuous
100
AcDbCircle
 10
-128.0
 20
-150.0
 30
0.0
 40
0.5
  0
CIRCLE
  5
228
330
222
100
AcDbEntity
  8
SIZE
  6
Continuous
100
AcDbCircle
 10
-128.0
 20
-150.0
 30
0.0
 40
0.4
  0
CIRCLE
  5
229
330
222
100
AcDbEntity
  8
SIZE
  6
Continuous
100
AcDbCircle
 10
-128.0
 20
-150.0
 30
0.0
 40
0.3
  0
CIRCLE
  5
22A
330
222
100
AcDbEntity
  8
SIZE
  6
Continuous
100
AcDbCircle
 10
-128.0
 20
-150.0
 30
0.0
 40
0.2
  0
CIRCLE
  5
22B
330
222
100
AcDbEntity
  8
SIZE
  6
Continuous
100
AcDbCircle
 10
-128.0
 20
-150.0
 30
0.0
 40
0.1
  0
CIRCLE
  5
22C
330
222
100
AcDbEntity
  8
SIZE
  6
Continuous
100
AcDbCircle
 10
-179.5
 20
-150.0
 30
0.0
 40
0.5
  0
CIRCLE
  5
22D
330
222
100
AcDbEntity
  8
SIZE
  6
Continuous
100
AcDbCircle
 10
-179.5
 20
-150.0
 30
0.0
 40
0.4
  0
CIRCLE
  5
22E
330
222
100
AcDbEntity
  8
SIZE
  6
Continuous
100
AcDbCircle
 10
-179.5
 20
-150.0
 30
0.0
 40
0.3
  0
CIRCLE
  5
22F
330
222
100
AcDbEntity
  8
SIZE
  6
Continuous
100
AcDbCircle
 10
-179.5
 20
-150.0
 30
0.0
 40
0.2
  0
CIRCLE
  5
230
330
222
100
AcDbEntity
  8
SIZE
  6
Continuous
100
AcDbCircle
 10
-179.5
 20
-150.0
 30
0.0
 40
0.1
  0
POINT
  5
231
330
222
100
AcDbEntity
  8
DEFPOINTS
  6
ByBlock
100
AcDbPoint
 10
-179.5
 20
180.0
 30
0.0
  0
POINT
  5
232
330
222
100
AcDbEntity
  8
DEFPOINTS
  6
ByBlock
100
AcDbPoint
 10
-128.0
 20
180.0
 30
0.0
  0
POINT
  5
233
330
222
100
AcDbEntity
  8
DEFPOINTS
  6
ByBlock
100
AcDbPoint
 10
-128.0
 20
-150.0
 30
0.0
  0
ENDBLK
  5
234
330
222
100
AcDbEntity
  8
SIZE
100
AcDbBlockEnd
  0
BLOCK
  5
236
330
235
100
AcDbEntity
  8
0
100
AcDbBlockBegin
  2
_ORIGIN
 70
     0
 10
0.0
 20
0.0
 30
0.0
  3
_ORIGIN
  1

  0
CIRCLE
  5
237
330
235
100
AcDbEntity
  8
0
  6
ByBlock
 62
     0
100
AcDbCircle
 10
0.0
 20
0.0
 30
0.0
 40
0.5
  0
LINE
  5
238
330
235
100
AcDbEntity
  8
0
  6
ByBlock
 62
     0
100
AcDbLine
 10
0.0
 20
0.0
 30
0.0
 11
-1.0
 21
0.0
 31
0.0
  0
ENDBLK
  5
239
330
235
100
AcDbEntity
  8
0
100
AcDbBlockEnd
  0
BLOCK
  5
23B
330
23A
100
AcDbEntity
  8
0
100
AcDbBlockBegin
  2
*D23
 70
     1
 10
0.0
 20
0.0
 30
0.0
  3
*D23
  1

  0
LINE
  5
23C
330
23A
100
AcDbEntity
  8
SIZE
 62
     0
100
AcDbLine
 10
-179.5
 20
170.0
 30
0.0
 11
-179.5
 21
-160.1000000238419
 31
0.0
  0
LINE
  5
23D
330
23A
100
AcDbEntity
  8
SIZE
 62
     0
100
AcDbLine
 10
-128.0
 20
170.0
 30
0.0
 11
-128.0
 21
-160.1000000238419
 31
0.0
  0
LINE
  5
23E
330
23A
100
AcDbEntity
  8
SIZE
 62
     0
100
AcDbLine
 10
-169.5
 20
-147.6000000238419
 30
0.0
 11
-138.0
 21
-147.6000000238419
 31
0.0
  0
INSERT
  5
23F
330
23A
100
AcDbEntity
  8
SIZE
 62
     0
100
AcDbBlockReference
  2
_ORIGIN
 10
-179.5
 20
-147.6000000238419
 30
0.0
 41
10.0
 42
10.0
 43
10.0
 50
180.0
  0
INSERT
  5
240
330
23A
100
AcDbEntity
  8
SIZE
 62
     0
100
AcDbBlockReference
  2
_ORIGIN
 10
-128.0
 20
-147.6000000238419
 30
0.0
 41
10.0
 42
10.0
 43
10.0
  0
TEXT
  5
241
330
23A
100
AcDbEntity
  8
SIZE
 62
     0
100
AcDbText
 10
-178.75
 20
-137.6000000238419
 30
0.0
 40
30.0
  1
52
 72
     1
 11
-153.75
 21
-137.6000000238419
 31
0.0
100
AcDbText
  0
POINT
  5
242
330
23A
100
AcDbEntity
  8
DEFPOINTS
 62
     0
100
AcDbPoint
 10
-179.5
 20
180.0
 30
0.0
  0
POINT
  5
243
330
23A
100
AcDbEntity
  8
DEFPOINTS
 62
     0
100
AcDbPoint
 10
-128.0
 20
180.0
 30
0.0
  0
POINT
  5
244
330
23A
100
AcDbEntity
  8
DEFPOINTS
 62
     0
100
AcDbPoint
 10
-128.0
 20
-147.6000000238419
 30
0.0
  0
ENDBLK
  5
245
330
23A
100
AcDbEntity
  8
0
100
AcDbBlockEnd
  0
BLOCK
  5
247
330
246
100
AcDbEntity
  8
0
100
AcDbBlockBegin
  2
*D24
 70
     1
 10
0.0
 20
0.0
 30
0.0
  3
*D24
  1

  0
LINE
  5
248
330
246
100
AcDbEntity
  8
SIZE
 62
     0
100
AcDbLine
 10
-0.0000000000000006
 20
-48.68780899047852
 30
0.0
 11
-0.0000000000000074
 21
-160.1000000238419
 31
0.0
  0
LINE
  5
249
330
246
100
AcDbEntity
  8
SIZE
 62
     0
100
AcDbLine
 10
-128.0
 20
170.0
 30
0.0
 11
-128.0
 21
-160.1000000238419
 31
0.0
  0
LINE
  5
24A
330
246
100
AcDbEntity
  8
SIZE
 62
     0
100
AcDbLine
 10
-10.0
 20
-147.6000000238419
 30
0.0
 11
-118.0
 21
-147.6000000238419
 31
0.0
  0
INSERT
  5
24B
330
246
100
AcDbEntity
  8
SIZE
 62
     0
100
AcDbBlockReference
  2
_ORIGIN
 10
-0.0000000000000067
 20
-147.6000000238419
 30
0.0
 41
10.0
 42
10.0
 43
10.0
  0
INSERT
  5
24C
330
246
100
AcDbEntity
  8
SIZE
 62
     0
100
AcDbBlockReference
  2
_ORIGIN
 10
-128.0
 20
-147.6000000238419
 30
0.0
 41
10.0
 42
10.0
 43
10.0
 50
180.0
  0
TEXT
  5
24D
330
246
100
AcDbEntity
  8
SIZE
 62
     0
100
AcDbText
 10
-99.00000006119594
 20
-137.6000000238419
 30
0.0
 40
30.0
  1
128
 72
     1
 11
-64.00000006119594
 21
-137.6000000238419
 31
0.0
100
AcDbText
  0
POINT
  5
24E
330
246
100
AcDbEntity
  8
DEFPOINTS
 62
     0
100
AcDbPoint
 10
0.0
 20
-38.68780899047852
 30
0.0
  0
POINT
  5
24F
330
246
100
AcDbEntity
  8
DEFPOINTS
 62
     0
100
AcDbPoint
 10
-128.0
 20
180.0
 30
0.0
  0
POINT
  5
250
330
246
100
AcDbEntity
  8
DEFPOINTS
 62
     0
100
AcDbPoint
 10
-128.0
 20
-147.6000000238419
 30
0.0
  0
ENDBLK
  5
251
330
246
100
AcDbEntity
  8
0
100
AcDbBlockEnd
  0
BLOCK
  5
253
330
252
100
AcDbEntity
  8
0
100
AcDbBlockBegin
  2
*D25
 70
     1
 10
0.0
 20
0.0
 30
0.0
  3
*D25
  1

  0
LINE
  5
254
330
252
100
AcDbEntity
  8
SIZE
 62
     0
100
AcDbLine
 10
104.0
 20
1029.0
 30
0.0
 11
104.0
 21
750.7099364995955
 31
0.0
  0
LINE
  5
255
330
252
100
AcDbEntity
  8
SIZE
 62
     0
100
AcDbLine
 10
0.0000000000000006
 20
-28.68780899047852
 30
0.0
 11
0.0000000000000499
 21
775.7099364995955
 31
0.0
  0
LINE
  5
256
330
252
100
AcDbEntity
  8
SIZE
 62
     0
100
AcDbLine
 10
93.99999999999998
 20
763.2099364995955
 30
0.0
 11
10.00000000000005
 21
763.2099364995955
 31
0.0
  0
INSERT
  5
257
330
252
100
AcDbEntity
  8
SIZE
 62
     0
100
AcDbBlockReference
  2
_ORIGIN
 10
104.0
 20
763.2099364995955
 30
0.0
 41
10.0
 42
10.0
 43
10.0
  0
INSERT
  5
258
330
252
100
AcDbEntity
  8
SIZE
 62
     0
100
AcDbBlockReference
  2
_ORIGIN
 10
0.0000000000000491
 20
763.2099364995955
 30
0.0
 41
10.0
 42
10.0
 43
10.0
 50
180.0
  0
TEXT
  5
259
330
252
100
AcDbEntity
  8
SIZE
 62
     0
100
AcDbText
 10
19.49999993880403
 20
773.2099364995955
 30
0.0
 40
30.0
  1
104
 72
     1
 11
51.99999993880403
 21
773.2099364995955
 31
0.0
100
AcDbText
  0
POINT
  5
25A
330
252
100
AcDbEntity
  8
DEFPOINTS
 62
     0
100
AcDbPoint
 10
104.0
 20
1039.0
 30
0.0
  0
POINT
  5
25B
330
252
100
AcDbEntity
  8
DEFPOINTS
 62
     0
100
AcDbPoint
 10
0.0
 20
-38.68780899047852
 30
0.0
  0
POINT
  5
25C
330
252
100
AcDbEntity
  8
DEFPOINTS
 62
     0
100
AcDbPoint
 10
0.0000000000000491
 20
763.2099364995955
 30
0.0
  0
ENDBLK
  5
25D
330
252
100
AcDbEntity
  8
0
100
AcDbBlockEnd
  0
BLOCK
  5
25F
330
25E
100
AcDbEntity
  8
0
100
AcDbBlockBegin
  2
*D26
 70
     1
 10
0.0
 20
0.0
 30
0.0
  3
*D26
  1

  0
LINE
  5
260
330
25E
100
AcDbEntity
  8
SIZE
 62
     0
100
AcDbLine
 10
180.0
 20
-0.0000000000000028
 30
0.0
 11
585.1000000238419
 21
-0.0000000000001176
 31
0.0
  0
LINE
  5
261
330
25E
100
AcDbEntity
  8
SIZE
 62
     0
100
AcDbLine
 10
134.0
 20
1059.0
 30
0.0
 11
585.1000000238419
 21
1059.0
 31
0.0
  0
LINE
  5
262
330
25E
100
AcDbEntity
  8
SIZE
 62
     0
100
AcDbLine
 10
572.6000000238419
 20
9.999999999999884
 30
0.0
 11
572.6000000238419
 21
1049.0
 31
0.0
  0
INSERT
  5
263
330
25E
100
AcDbEntity
  8
SIZE
 62
     0
100
AcDbBlockReference
  2
_ORIGIN
 10
572.6000000238419
 20
-0.000000000000114
 30
0.0
 41
10.0
 42
10.0
 43
10.0
 50
270.0
  0
INSERT
  5
264
330
25E
100
AcDbEntity
  8
SIZE
 62
     0
100
AcDbBlockReference
  2
_ORIGIN
 10
572.6000000238419
 20
1059.0
 30
0.0
 41
10.0
 42
10.0
 43
10.0
 50
90.0
  0
TEXT
  5
265
330
25E
100
AcDbEntity
  8
SIZE
 62
     0
100
AcDbText
 10
562.6000000238417
 20
481.9999998776081
 30
0.0
 40
30.0
  1
1059
 50
90.0
 72
     1
 11
562.6000000238417
 21
529.4999998776082
 31
0.0
100
AcDbText
  0
POINT
  5
266
330
25E
100
AcDbEntity
  8
DEFPOINTS
 62
     0
100
AcDbPoint
 10
170.0
 20
0.0
 30
0.0
  0
POINT
  5
267
330
25E
100
AcDbEntity
  8
DEFPOINTS
 62
     0
100
AcDbPoint
 10
124.0
 20
1059.0
 30
0.0
  0
POINT
  5
268
330
25E
100
AcDbEntity
  8
DEFPOINTS
 62
     0
100
AcDbPoint
 10
572.6000000238419
 20
1059.0
 30
0.0
  0
ENDBLK
  5
269
330
25E
100
AcDbEntity
  8
0
100
AcDbBlockEnd
  0
BLOCK
  5
26B
330
26A
100
AcDbEntity
  8
0
100
AcDbBlockBegin
  2
*D27
 70
     1
 10
0.0
 20
0.0
 30
0.0
  3
*D27
  1

  0
LINE
  5
26C
330
26A
100
AcDbEntity
  8
SIZE
 62
     0
100
AcDbLine
 10
-180.0
 20
0.0000000000000028
 30
0.0
 11
-489.899999976158
 21
0.0000000000000906
 31
0.0
  0
LINE
  5
26D
330
26A
100
AcDbEntity
  8
SIZE
 62
     0
100
AcDbLine
 10
112.0
 20
172.0
 30
0.0
 11
-489.8999999761579
 21
172.0000000000001
 31
0.0
  0
LINE
  5
26E
330
26A
100
AcDbEntity
  8
SIZE
 62
     0
100
AcDbLine
 10
-477.399999976158
 20
10.00000000000008
 30
0.0
 11
-477.3999999761579
 21
162.0000000000001
 31
0.0
  0
INSERT
  5
26F
330
26A
100
AcDbEntity
  8
SIZE
 62
     0
100
AcDbBlockReference
  2
_ORIGIN
 10
-477.399999976158
 20
0.0000000000000871
 30
0.0
 41
10.0
 42
10.0
 43
10.0
 50
270.0
  0
INSERT
  5
270
330
26A
100
AcDbEntity
  8
SIZE
 62
     0
100
AcDbBlockReference
  2
_ORIGIN
 10
-477.3999999761579
 20
172.0000000000001
 30
0.0
 41
10.0
 42
10.0
 43
10.0
 50
90.0
  0
TEXT
  5
271
330
26A
100
AcDbEntity
  8
SIZE
 62
     0
100
AcDbText
 10
-487.3999999761579
 20
50.99999987760807
 30
0.0
 40
30.0
  1
172
 50
90.0
 72
     1
 11
-487.3999999761579
 21
85.99999987760808
 31
0.0
100
AcDbText
  0
POINT
  5
272
330
26A
100
AcDbEntity
  8
DEFPOINTS
 62
     0
100
AcDbPoint
 10
-170.0
 20
0.0
 30
0.0
  0
POINT
  5
273
330
26A
100
AcDbEntity
  8
DEFPOINTS
 62
     0
100
AcDbPoint
 10
122.0
 20
172.0
 30
0.0
  0
POINT
  5
274
330
26A
100
AcDbEntity
  8
DEFPOINTS
 62
     0
100
AcDbPoint
 10
-477.3999999761579
 20
172.0000000000001
 30
0.0
  0
ENDBLK
  5
275
330
26A
100
AcDbEntity
  8
0
100
AcDbBlockEnd
  0
BLOCK
  5
277
330
276
100
AcDbEntity
  8
0
100
AcDbBlockBegin
  2
*D28
 70
     1
 10
0.0
 20
0.0
 30
0.0
  3
*D28
  1

  0
LINE
  5
278
330
276
100
AcDbEntity
  8
SIZE
 62
     0
100
AcDbLine
 10
112.0
 20
160.0
 30
0.0
 11
-389.8999999761581
 21
160.0000000000001
 31
0.0
  0
LINE
  5
279
330
276
100
AcDbEntity
  8
SIZE
 62
     0
100
AcDbLine
 10
-180.0
 20
0.0000000000000028
 30
0.0
 11
-389.8999999761581
 21
0.0000000000000623
 31
0.0
  0
LINE
  5
27A
330
276
100
AcDbEntity
  8
SIZE
 62
     0
100
AcDbLine
 10
-377.3999999761581
 20
150.0000000000001
 30
0.0
 11
-377.3999999761581
 21
10.00000000000006
 31
0.0
  0
INSERT
  5
27B
330
276
100
AcDbEntity
  8
SIZE
 62
     0
100
AcDbBlockReference
  2
_ORIGIN
 10
-377.3999999761581
 20
160.0000000000001
 30
0.0
 41
10.0
 42
10.0
 43
10.0
 50
90.0
  0
INSERT
  5
27C
330
276
100
AcDbEntity
  8
SIZE
 62
     0
100
AcDbBlockReference
  2
_ORIGIN
 10
-377.3999999761581
 20
0.0000000000000588
 30
0.0
 41
10.0
 42
10.0
 43
10.0
 50
270.0
  0
TEXT
  5
27D
330
276
100
AcDbEntity
  8
SIZE
 62
     0
100
AcDbText
 10
-387.3999999761581
 20
47.49999987760809
 30
0.0
 40
30.0
  1
160
 50
90.0
 72
     1
 11
-387.3999999761581
 21
79.99999987760809
 31
0.0
100
AcDbText
  0
POINT
  5
27E
330
276
100
AcDbEntity
  8
DEFPOINTS
 62
     0
100
AcDbPoint
 10
122.0
 20
160.0
 30
0.0
  0
POINT
  5
27F
330
276
100
AcDbEntity
  8
DEFPOINTS
 62
     0
100
AcDbPoint
 10
-170.0
 20
0.0
 30
0.0
  0
POINT
  5
280
330
276
100
AcDbEntity
  8
DEFPOINTS
 62
     0
100
AcDbPoint
 10
-377.3999999761581
 20
0.0000000000000588
 30
0.0
  0
ENDBLK
  5
281
330
276
100
AcDbEntity
  8
0
100
AcDbBlockEnd
  0
BLOCK
  5
283
330
282
100
AcDbEntity
  8
0
100
AcDbBlockBegin
  2
*D29
 70
     1
 10
0.0
 20
0.0
 30
0.0
  3
*D29
  1

  0
LINE
  5
284
330
282
100
AcDbEntity
  8
SIZE
 62
     0
100
AcDbLine
 10
-180.0
 20
0.0000000000000028
 30
0.0
 11
-689.8999999761585
 21
0.0000000000001473
 31
0.0
  0
LINE
  5
285
330
282
100
AcDbEntity
  8
SIZE
 62
     0
100
AcDbLine
 10
-235.0
 20
1905.0
 30
0.0
 11
-689.8999999761577
 21
1905.0
 31
0.0
  0
LINE
  5
286
330
282
100
AcDbEntity
  8
SIZE
 62
     0
100
AcDbLine
 10
-677.3999999761583
 20
10.00000000000014
 30
0.0
 11
-677.3999999761578
 21
1895.0
 31
0.0
  0
INSERT
  5
287
330
282
100
AcDbEntity
  8
SIZE
 62
     0
100
AcDbBlockReference
  2
_ORIGIN
 10
-677.3999999761583
 20
0.0000000000001437
 30
0.0
 41
10.0
 42
10.0
 43
10.0
 50
270.0
  0
INSERT
  5
288
330
282
100
AcDbEntity
  8
SIZE
 62
     0
100
AcDbBlockReference
  2
_ORIGIN
 10
-677.3999999761578
 20
1905.0
 30
0.0
 41
10.0
 42
10.0
 43
10.0
 50
90.0
  0
TEXT
  5
289
330
282
100
AcDbEntity
  8
SIZE
 62
     0
100
AcDbText
 10
-687.3999999761581
 20
904.999999877608
 30
0.0
 40
30.0
  1
1905
 50
90.0
 72
     1
 11
-687.3999999761581
 21
952.4999998776079
 31
0.0
100
AcDbText
  0
POINT
  5
28A
330
282
100
AcDbEntity
  8
DEFPOINTS
 62
     0
100
AcDbPoint
 10
-170.0
 20
0.0
 30
0.0
  0
POINT
  5
28B
330
282
100
AcDbEntity
  8
DEFPOINTS
 62
     0
100
AcDbPoint
 10
-225.0
 20
1905.0
 30
0.0
  0
POINT
  5
28C
330
282
100
AcDbEntity
  8
DEFPOINTS
 62
     0
100
AcDbPoint
 10
-677.3999999761578
 20
1905.0
 30
0.0
  0
ENDBLK
  5
28D
330
282
100
AcDbEntity
  8
0
100
AcDbBlockEnd
  0
BLOCK
  5
28F
330
28E
100
AcDbEntity
  8
0
100
AcDbBlockBegin
  2
*D30
 70
     1
 10
0.0
 20
0.0
 30
0.0
  3
*D30
  1

  0
LINE
  5
290
330
28E
100
AcDbEntity
  8
SIZE
 62
     0
100
AcDbLine
 10
50.0
 20
1950.0
 30
0.0
 11
785.1000000238419
 21
1950.0
 31
0.0
  0
LINE
  5
291
330
28E
100
AcDbEntity
  8
SIZE
 62
     0
100
AcDbLine
 10
180.0
 20
-0.0000000000000028
 30
0.0
 11
785.1000000238415
 21
-0.0000000000001742
 31
0.0
  0
LINE
  5
292
330
28E
100
AcDbEntity
  8
SIZE
 62
     0
100
AcDbLine
 10
772.6000000238419
 20
1940.0
 30
0.0
 11
772.6000000238415
 21
9.999999999999827
 31
0.0
  0
INSERT
  5
293
330
28E
100
AcDbEntity
  8
SIZE
 62
     0
100
AcDbBlockReference
  2
_ORIGIN
 10
772.6000000238419
 20
1950.0
 30
0.0
 41
10.0
 42
10.0
 43
10.0
 50
90.0
  0
INSERT
  5
294
330
28E
100
AcDbEntity
  8
SIZE
 62
     0
100
AcDbBlockReference
  2
_ORIGIN
 10
772.6000000238415
 20
-0.0000000000001707
 30
0.0
 41
10.0
 42
10.0
 43
10.0
 50
270.0
  0
TEXT
  5
295
330
28E
100
AcDbEntity
  8
SIZE
 62
     0
100
AcDbText
 10
762.6000000238417
 20
927.4999998776079
 30
0.0
 40
30.0
  1
1950
 50
90.0
 72
     1
 11
762.6000000238417
 21
974.9999998776081
 31
0.0
100
AcDbText
  0
POINT
  5
296
330
28E
100
AcDbEntity
  8
DEFPOINTS
 62
     0
100
AcDbPoint
 10
40.0
 20
1950.0
 30
0.0
  0
POINT
  5
297
330
28E
100
AcDbEntity
  8
DEFPOINTS
 62
     0
100
AcDbPoint
 10
170.0
 20
0.0
 30
0.0
  0
POINT
  5
298
330
28E
100
AcDbEntity
  8
DEFPOINTS
 62
     0
100
AcDbPoint
 10
772.6000000238415
 20
-0.0000000000001707
 30
0.0
  0
ENDBLK
  5
299
330
28E
100
AcDbEntity
  8
0
100
AcDbBlockEnd
  0
BLOCK
  5
29B
330
29A
100
AcDbEntity
  8
0
100
AcDbBlockBegin
  2
*D31
 70
     1
 10
0.0
 20
0.0
 30
0.0
  3
*D31
  1

  0
LINE
  5
29C
330
29A
100
AcDbEntity
  8
SIZE
 62
     0
100
AcDbLine
 10
0.0000000000000006
 20
-28.68780899047852
 30
0.0
 11
0.0000000000000217
 21
314.8999999761582
 31
0.0
  0
LINE
  5
29D
330
29A
100
AcDbEntity
  8
SIZE
 62
     0
100
AcDbLine
 10
142.0
 20
202.0
 30
0.0
 11
142.0
 21
314.8999999761582
 31
0.0
  0
LINE
  5
29E
330
29A
100
AcDbEntity
  8
SIZE
 62
     0
100
AcDbLine
 10
10.00000000000002
 20
302.3999999761582
 30
0.0
 11
132.0
 21
302.3999999761582
 31
0.0
  0
INSERT
  5
29F
330
29A
100
AcDbEntity
  8
SIZE
 62
     0
100
AcDbBlockReference
  2
_ORIGIN
 10
0.0000000000000209
 20
302.3999999761582
 30
0.0
 41
10.0
 42
10.0
 43
10.0
 50
180.0
  0
INSERT
  5
2A0
330
29A
100
AcDbEntity
  8
SIZE
 62
     0
100
AcDbBlockReference
  2
_ORIGIN
 10
142.0
 20
302.3999999761582
 30
0.0
 41
10.0
 42
10.0
 43
10.0
  0
TEXT
  5
2A1
330
29A
100
AcDbEntity
  8
SIZE
 62
     0
100
AcDbText
 10
35.99999993880404
 20
312.3999999761582
 30
0.0
 40
30.0
  1
142
 72
     1
 11
70.99999993880404
 21
312.3999999761582
 31
0.0
100
AcDbText
  0
POINT
  5
2A2
330
29A
100
AcDbEntity
  8
DEFPOINTS
 62
     0
100
AcDbPoint
 10
0.0
 20
-38.68780899047852
 30
0.0
  0
POINT
  5
2A3
330
29A
100
AcDbEntity
  8
DEFPOINTS
 62
     0
100
AcDbPoint
 10
142.0
 20
192.0
 30
0.0
  0
POINT
  5
2A4
330
29A
100
AcDbEntity
  8
DEFPOINTS
 62
     0
100
AcDbPoint
 10
142.0
 20
302.3999999761582
 30
0.0
  0
ENDBLK
  5
2A5
330
29A
100
AcDbEntity
  8
0
100
AcDbBlockEnd
  0
BLOCK
  5
2A7
330
2A6
100
AcDbEntity
  8
0
100
AcDbBlockBegin
  2
*D32
 70
     1
 10
0.0
 20
0.0
 30
0.0
  3
*D32
  1

  0
LINE
  5
2A8
330
2A6
100
AcDbEntity
  8
SIZE
 62
     0
100
AcDbLine
 10
142.0
 20
130.0
 30
0.0
 11
141.9999999999998
 21
-160.1000000238419
 31
0.0
  0
LINE
  5
2A9
330
2A6
100
AcDbEntity
  8
SIZE
 62
     0
100
AcDbLine
 10
50.0
 20
170.0
 30
0.0
 11
49.99999999999998
 21
-160.1000000238419
 31
0.0
  0
LINE
  5
2AA
330
2A6
100
AcDbEntity
  8
SIZE
 62
     0
100
AcDbLine
 10
132.0
 20
-147.6000000238419
 30
0.0
 11
59.99999999999998
 21
-147.6000000238419
 31
0.0
  0
INSERT
  5
2AB
330
2A6
100
AcDbEntity
  8
SIZE
 62
     0
100
AcDbBlockReference
  2
_ORIGIN
 10
141.9999999999998
 20
-147.6000000238419
 30
0.0
 41
10.0
 42
10.0
 43
10.0
  0
INSERT
  5
2AC
330
2A6
100
AcDbEntity
  8
SIZE
 62
     0
100
AcDbBlockReference
  2
_ORIGIN
 10
49.99999999999998
 20
-147.6000000238419
 30
0.0
 41
10.0
 42
10.0
 43
10.0
 50
180.0
  0
TEXT
  5
2AD
330
2A6
100
AcDbEntity
  8
SIZE
 62
     0
100
AcDbText
 10
90.12036126692899
 20
-137.6000000238419
 30
0.0
 40
30.0
  1
92
 72
     1
 11
115.120361266929
 21
-137.6000000238419
 31
0.0
100
AcDbText
  0
POINT
  5
2AE
330
2A6
100
AcDbEntity
  8
DEFPOINTS
 62
     0
100
AcDbPoint
 10
142.0
 20
140.0
 30
0.0
  0
POINT
  5
2AF
330
2A6
100
AcDbEntity
  8
DEFPOINTS
 62
     0
100
AcDbPoint
 10
50.0
 20
180.0
 30
0.0
  0
POINT
  5
2B0
330
2A6
100
AcDbEntity
  8
DEFPOINTS
 62
     0
100
AcDbPoint
 10
49.99999999999998
 20
-147.6000000238419
 30
0.0
  0
ENDBLK
  5
2B1
330
2A6
100
AcDbEntity
  8
0
100
AcDbBlockEnd
  0
BLOCK
  5
2B3
330
2B2
100
AcDbEntity
  8
0
100
AcDbBlockBegin
  2
*D33
 70
     1
 10
0.0
 20
0.0
 30
0.0
  3
*D33
  1

  0
LINE
  5
2B4
330
2B2
100
AcDbEntity
  8
SIZE
 62
     0
100
AcDbLine
 10
-138.0
 20
-30.0
 30
0.0
 11
-138.0
 21
-260.1000000238419
 31
0.0
  0
LINE
  5
2B5
330
2B2
100
AcDbEntity
  8
SIZE
 62
     0
100
AcDbLine
 10
138.0
 20
-30.0
 30
0.0
 11
137.9999999999998
 21
-260.1000000238419
 31
0.0
  0
LINE
  5
2B6
330
2B2
100
AcDbEntity
  8
SIZE
 62
     0
100
AcDbLine
 10
-128.0
 20
-247.6000000238419
 30
0.0
 11
128.0
 21
-247.6000000238419
 31
0.0
  0
INSERT
  5
2B7
330
2B2
100
AcDbEntity
  8
SIZE
 62
     0
100
AcDbBlockReference
  2
_ORIGIN
 10
-138.0
 20
-247.6000000238419
 30
0.0
 41
10.0
 42
10.0
 43
10.0
 50
180.0
  0
INSERT
  5
2B8
330
2B2
100
AcDbEntity
  8
SIZE
 62
     0
100
AcDbBlockReference
  2
_ORIGIN
 10
138.0
 20
-247.6000000238419
 30
0.0
 41
10.0
 42
10.0
 43
10.0
  0
TEXT
  5
2B9
330
2B2
100
AcDbEntity
  8
SIZE
 62
     0
100
AcDbText
 10
-40.00000006119593
 20
-237.6000000238418
 30
0.0
 40
30.0
  1
276
 72
     1
 11
-0.0000000611959337
 21
-237.6000000238418
 31
0.0
100
AcDbText
  0
POINT
  5
2BA
330
2B2
100
AcDbEntity
  8
DEFPOINTS
 62
     0
100
AcDbPoint
 10
-138.0
 20
-20.0
 30
0.0
  0
POINT
  5
2BB
330
2B2
100
AcDbEntity
  8
DEFPOINTS
 62
     0
100
AcDbPoint
 10
138.0
 20
-20.0
 30
0.0
  0
POINT
  5
2BC
330
2B2
100
AcDbEntity
  8
DEFPOINTS
 62
     0
100
AcDbPoint
 10
138.0
 20
-247.6000000238419
 30
0.0
  0
ENDBLK
  5
2BD
330
2B2
100
AcDbEntity
  8
0
100
AcDbBlockEnd
  0
BLOCK
  5
2BF
330
2BE
100
AcDbEntity
  8
0
100
AcDbBlockBegin
  2
*D34
 70
     1
 10
0.0
 20
0.0
 30
0.0
  3
*D34
  1

  0
LINE
  5
2C0
330
2BE
100
AcDbEntity
  8
SIZE
 62
     0
100
AcDbLine
 10
50.0
 20
170.0
 30
0.0
 11
49.99999999999998
 21
-160.1000000238419
 31
0.0
  0
LINE
  5
2C1
330
2BE
100
AcDbEntity
  8
SIZE
 62
     0
100
AcDbLine
 10
-0.0000000000000006
 20
-48.68780899047852
 30
0.0
 11
-0.0000000000000074
 21
-160.1000000238419
 31
0.0
  0
LINE
  5
2C2
330
2BE
100
AcDbEntity
  8
SIZE
 62
     0
100
AcDbLine
 10
39.99999999999998
 20
-147.6000000238419
 30
0.0
 11
9.999999999999991
 21
-147.6000000238419
 31
0.0
  0
INSERT
  5
2C3
330
2BE
100
AcDbEntity
  8
SIZE
 62
     0
100
AcDbBlockReference
  2
_ORIGIN
 10
49.99999999999998
 20
-147.6000000238419
 30
0.0
 41
10.0
 42
10.0
 43
10.0
  0
INSERT
  5
2C4
330
2BE
100
AcDbEntity
  8
SIZE
 62
     0
100
AcDbBlockReference
  2
_ORIGIN
 10
-0.0000000000000067
 20
-147.6000000238419
 30
0.0
 41
10.0
 42
10.0
 43
10.0
 50
180.0
  0
TEXT
  5
2C5
330
2BE
100
AcDbEntity
  8
SIZE
 62
     0
100
AcDbText
 10
2.499999999999989
 20
-137.6000000238419
 30
0.0
 40
30.0
  1
50
 72
     1
 11
24.99999999999999
 21
-137.6000000238419
 31
0.0
100
AcDbText
  0
POINT
  5
2C6
330
2BE
100
AcDbEntity
  8
DEFPOINTS
 62
     0
100
AcDbPoint
 10
50.0
 20
180.0
 30
0.0
  0
POINT
  5
2C7
330
2BE
100
AcDbEntity
  8
DEFPOINTS
 62
     0
100
AcDbPoint
 10
0.0
 20
-38.68780899047852
 30
0.0
  0
POINT
  5
2C8
330
2BE
100
AcDbEntity
  8
DEFPOINTS
 62
     0
100
AcDbPoint
 10
-0.0000000000000067
 20
-147.6000000238419
 30
0.0
  0
ENDBLK
  5
2C9
330
2BE
100
AcDbEntity
  8
0
100
AcDbBlockEnd
  0
BLOCK
  5
2CB
330
2CA
100
AcDbEntity
  8
0
100
AcDbBlockBegin
  2
*D35
 70
     1
 10
0.0
 20
0.0
 30
0.0
  3
*D35
  1

  0
LINE
  5
2CC
330
2CA
100
AcDbEntity
  8
SIZE
 62
     0
100
AcDbLine
 10
-215.0
 20
0.0000000000000028
 30
0.0
 11
-589.8999999761581
 21
0.000000000000109
 31
0.0
  0
LINE
  5
2CD
330
2CA
100
AcDbEntity
  8
SIZE
 62
     0
100
AcDbLine
 10
-235.0
 20
200.0
 30
0.0
 11
-589.8999999761581
 21
200.0000000000001
 31
0.0
  0
LINE
  5
2CE
330
2CA
100
AcDbEntity
  8
SIZE
 62
     0
100
AcDbLine
 10
-577.3999999761581
 20
10.0000000000001
 30
0.0
 11
-577.3999999761581
 21
190.0000000000001
 31
0.0
  0
INSERT
  5
2CF
330
2CA
100
AcDbEntity
  8
SIZE
 62
     0
100
AcDbBlockReference
  2
_ORIGIN
 10
-577.3999999761581
 20
0.0000000000001055
 30
0.0
 41
10.0
 42
10.0
 43
10.0
 50
270.0
  0
INSERT
  5
2D0
330
2CA
100
AcDbEntity
  8
SIZE
 62
     0
100
AcDbBlockReference
  2
_ORIGIN
 10
-577.3999999761581
 20
200.0000000000001
 30
0.0
 41
10.0
 42
10.0
 43
10.0
 50
90.0
  0
TEXT
  5
2D1
330
2CA
100
AcDbEntity
  8
SIZE
 62
     0
100
AcDbText
 10
-587.3999999761581
 20
64.99999987760808
 30
0.0
 40
30.0
  1
200
 50
90.0
 72
     1
 11
-587.3999999761581
 21
99.99999987760809
 31
0.0
100
AcDbText
  0
POINT
  5
2D2
330
2CA
100
AcDbEntity
  8
DEFPOINTS
 62
     0
100
AcDbPoint
 10
-205.0
 20
0.0
 30
0.0
  0
POINT
  5
2D3
330
2CA
100
AcDbEntity
  8
DEFPOINTS
 62
     0
100
AcDbPoint
 10
-225.0
 20
200.0
 30
0.0
  0
POINT
  5
2D4
330
2CA
100
AcDbEntity
  8
DEFPOINTS
 62
     0
100
AcDbPoint
 10
-577.3999999761581
 20
200.0000000000001
 30
0.0
  0
ENDBLK
  5
2D5
330
2CA
100
AcDbEntity
  8
0
100
AcDbBlockEnd
  0
BLOCK
  5
2D7
330
2D6
100
AcDbEntity
  8
0
100
AcDbBlockBegin
  2
*D36
 70
     1
 10
0.0
 20
0.0
 30
0.0
  3
*D36
  1

  0
LINE
  5
2D8
330
2D6
100
AcDbEntity
  8
SIZE
 62
     0
100
AcDbLine
 10
-225.0
 20
190.0
 30
0.0
 11
-225.0
 21
-360.1000000238419
 31
0.0
  0
LINE
  5
2D9
330
2D6
100
AcDbEntity
  8
SIZE
 62
     0
100
AcDbLine
 10
225.0
 20
190.0
 30
0.0
 11
225.0
 21
-360.1000000238419
 31
0.0
  0
LINE
  5
2DA
330
2D6
100
AcDbEntity
  8
SIZE
 62
     0
100
AcDbLine
 10
-215.0
 20
-347.6000000238418
 30
0.0
 11
215.0
 21
-347.6000000238418
 31
0.0
  0
INSERT
  5
2DB
330
2D6
100
AcDbEntity
  8
SIZE
 62
     0
100
AcDbBlockReference
  2
_ORIGIN
 10
-225.0
 20
-347.6000000238418
 30
0.0
 41
10.0
 42
10.0
 43
10.0
 50
180.0
  0
INSERT
  5
2DC
330
2D6
100
AcDbEntity
  8
SIZE
 62
     0
100
AcDbBlockReference
  2
_ORIGIN
 10
225.0
 20
-347.6000000238418
 30
0.0
 41
10.0
 42
10.0
 43
10.0
  0
TEXT
  5
2DD
330
2D6
100
AcDbEntity
  8
SIZE
 62
     0
100
AcDbText
 10
-37.50000006119594
 20
-337.6000000238418
 30
0.0
 40
30.0
  1
450
 72
     1
 11
-0.0000000611959337
 21
-337.6000000238418
 31
0.0
100
AcDbText
  0
POINT
  5
2DE
330
2D6
100
AcDbEntity
  8
DEFPOINTS
 62
     0
100
AcDbPoint
 10
-225.0
 20
200.0
 30
0.0
  0
POINT
  5
2DF
330
2D6
100
AcDbEntity
  8
DEFPOINTS
 62
     0
100
AcDbPoint
 10
225.0
 20
200.0
 30
0.0
  0
POINT
  5
2E0
330
2D6
100
AcDbEntity
  8
DEFPOINTS
 62
     0
100
AcDbPoint
 10
225.0
 20
-347.6000000238418
 30
0.0
  0
ENDBLK
  5
2E1
330
2D6
100
AcDbEntity
  8
0
100
AcDbBlockEnd
  0
BLOCK
  5
2E3
330
2E2
100
AcDbEntity
  8
0
100
AcDbBlockBegin
  2
*D37
 70
     1
 10
0.0
 20
0.0
 30
0.0
  3
*D37
  1

  0
LINE
  5
2E4
330
2E2
100
AcDbEntity
  8
SIZE
 62
     0
100
AcDbLine
 10
30.0
 20
1958.0
 30
0.0
 11
30.00000000000002
 21
2219.899999976158
 31
0.0
  0
LINE
  5
2E5
330
2E2
100
AcDbEntity
  8
SIZE
 62
     0
100
AcDbLine
 10
-30.0
 20
1958.0
 30
0.0
 11
-29.99999999999998
 21
2219.899999976158
 31
0.0
  0
LINE
  5
2E6
330
2E2
100
AcDbEntity
  8
SIZE
 62
     0
100
AcDbLine
 10
20.00000000000001
 20
2207.399999976158
 30
0.0
 11
-19.99999999999997
 21
2207.399999976158
 31
0.0
  0
INSERT
  5
2E7
330
2E2
100
AcDbEntity
  8
SIZE
 62
     0
100
AcDbBlockReference
  2
_ORIGIN
 10
30.00000000000002
 20
2207.399999976158
 30
0.0
 41
10.0
 42
10.0
 43
10.0
  0
INSERT
  5
2E8
330
2E2
100
AcDbEntity
  8
SIZE
 62
     0
100
AcDbBlockReference
  2
_ORIGIN
 10
-29.99999999999999
 20
2207.399999976158
 30
0.0
 41
10.0
 42
10.0
 43
10.0
 50
180.0
  0
TEXT
  5
2E9
330
2E2
100
AcDbEntity
  8
SIZE
 62
     0
100
AcDbText
 10
-22.49999999999999
 20
2217.399999976158
 30
0.0
 40
30.0
  1
60
 72
     1
 11
0.0000000000000142
 21
2217.399999976158
 31
0.0
100
AcDbText
  0
POINT
  5
2EA
330
2E2
100
AcDbEntity
  8
DEFPOINTS
 62
     0
100
AcDbPoint
 10
30.0
 20
1948.0
 30
0.0
  0
POINT
  5
2EB
330
2E2
100
AcDbEntity
  8
DEFPOINTS
 62
     0
100
AcDbPoint
 10
-30.0
 20
1948.0
 30
0.0
  0
POINT
  5
2EC
330
2E2
100
AcDbEntity
  8
DEFPOINTS
 62
     0
100
AcDbPoint
 10
-29.99999999999999
 20
2207.399999976158
 30
0.0
  0
ENDBLK
  5
2ED
330
2E2
100
AcDbEntity
  8
0
100
AcDbBlockEnd
  0
BLOCK
  5
2EF
330
2EE
100
AcDbEntity
  8
0
100
AcDbBlockBegin
  2
*D38
 70
     1
 10
0.0
 20
0.0
 30
0.0
  3
*D38
  1

  0
LINE
  5
2F0
330
2EE
100
AcDbEntity
  8
SIZE
 62
     0
100
AcDbLine
 10
45.0
 20
1955.0
 30
0.0
 11
45.00000000000002
 21
2319.899999976158
 31
0.0
  0
LINE
  5
2F1
330
2EE
100
AcDbEntity
  8
SIZE
 62
     0
100
AcDbLine
 10
-45.0
 20
1955.0
 30
0.0
 11
-44.99999999999998
 21
2319.899999976158
 31
0.0
  0
LINE
  5
2F2
330
2EE
100
AcDbEntity
  8
SIZE
 62
     0
100
AcDbLine
 10
35.00000000000002
 20
2307.399999976158
 30
0.0
 11
-34.99999999999998
 21
2307.399999976158
 31
0.0
  0
INSERT
  5
2F3
330
2EE
100
AcDbEntity
  8
SIZE
 62
     0
100
AcDbBlockReference
  2
_ORIGIN
 10
45.00000000000002
 20
2307.399999976158
 30
0.0
 41
10.0
 42
10.0
 43
10.0
  0
INSERT
  5
2F4
330
2EE
100
AcDbEntity
  8
SIZE
 62
     0
100
AcDbBlockReference
  2
_ORIGIN
 10
-44.99999999999998
 20
2307.399999976158
 30
0.0
 41
10.0
 42
10.0
 43
10.0
 50
180.0
  0
TEXT
  5
2F5
330
2EE
100
AcDbEntity
  8
SIZE
 62
     0
100
AcDbText
 10
-22.50000006119594
 20
2317.399999976158
 30
0.0
 40
30.0
  1
90
 72
     1
 11
-0.0000000611959372
 21
2317.399999976158
 31
0.0
100
AcDbText
  0
POINT
  5
2F6
330
2EE
100
AcDbEntity
  8
DEFPOINTS
 62
     0
100
AcDbPoint
 10
45.0
 20
1945.0
 30
0.0
  0
POINT
  5
2F7
330
2EE
100
AcDbEntity
  8
DEFPOINTS
 62
     0
100
AcDbPoint
 10
-45.0
 20
1945.0
 30
0.0
  0
POINT
  5
2F8
330
2EE
100
AcDbEntity
  8
DEFPOINTS
 62
     0
100
AcDbPoint
 10
-44.99999999999998
 20
2307.399999976158
 30
0.0
  0
ENDBLK
  5
2F9
330
2EE
100
AcDbEntity
  8
0
100
AcDbBlockEnd
  0
BLOCK
  5
2FB
330
2FA
100
AcDbEntity
  8
0
100
AcDbBlockBegin
  2
*D39
 70
     1
 10
0.0
 20
0.0
 30
0.0
  3
*D39
  1

  0
LINE
  5
2FC
330
2FA
100
AcDbEntity
  8
SIZE
 62
     0
100
AcDbLine
 10
-225.0
 20
2115.0
 30
0.0
 11
-225.0
 21
2469.899999976159
 31
0.0
  0
LINE
  5
2FD
330
2FA
100
AcDbEntity
  8
SIZE
 62
     0
100
AcDbLine
 10
225.0
 20
2115.0
 30
0.0
 11
225.0
 21
2469.899999976159
 31
0.0
  0
LINE
  5
2FE
330
2FA
100
AcDbEntity
  8
SIZE
 62
     0
100
AcDbLine
 10
-215.0
 20
2457.399999976158
 30
0.0
 11
215.0
 21
2457.399999976158
 31
0.0
  0
INSERT
  5
2FF
330
2FA
100
AcDbEntity
  8
SIZE
 62
     0
100
AcDbBlockReference
  2
_ORIGIN
 10
-225.0
 20
2457.399999976158
 30
0.0
 41
10.0
 42
10.0
 43
10.0
 50
180.0
  0
INSERT
  5
300
330
2FA
100
AcDbEntity
  8
SIZE
 62
     0
100
AcDbBlockReference
  2
_ORIGIN
 10
225.0
 20
2457.399999976158
 30
0.0
 41
10.0
 42
10.0
 43
10.0
  0
TEXT
  5
301
330
2FA
100
AcDbEntity
  8
SIZE
 62
     0
100
AcDbText
 10
-37.50000006119594
 20
2467.399999976158
 30
0.0
 40
30.0
  1
450
 72
     1
 11
-0.0000000611959337
 21
2467.399999976158
 31
0.0
100
AcDbText
  0
POINT
  5
302
330
2FA
100
AcDbEntity
  8
DEFPOINTS
 62
     0
100
AcDbPoint
 10
-225.0
 20
2105.0
 30
0.0
  0
POINT
  5
303
330
2FA
100
AcDbEntity
  8
DEFPOINTS
 62
     0
100
AcDbPoint
 10
225.0
 20
2105.0
 30
0.0
  0
POINT
  5
304
330
2FA
100
AcDbEntity
  8
DEFPOINTS
 62
     0
100
AcDbPoint
 10
225.0
 20
2457.399999976158
 30
0.0
  0
ENDBLK
  5
305
330
2FA
100
AcDbEntity
  8
0
100
AcDbBlockEnd
  0
BLOCK
  5
307
330
306
100
AcDbEntity
  8
0
100
AcDbBlockBegin
  2
*D40
 70
     1
 10
0.0
 20
0.0
 30
0.0
  3
*D40
  1

  0
LINE
  5
308
330
306
100
AcDbEntity
  8
SIZE
 62
     0
100
AcDbLine
 10
-235.0
 20
1905.0
 30
0.0
 11
-689.8999999761577
 21
1905.0
 31
0.0
  0
LINE
  5
309
330
306
100
AcDbEntity
  8
SIZE
 62
     0
100
AcDbLine
 10
-235.0
 20
2105.0
 30
0.0
 11
-689.8999999761577
 21
2105.0
 31
0.0
  0
LINE
  5
30A
330
306
100
AcDbEntity
  8
SIZE
 62
     0
100
AcDbLine
 10
-677.3999999761578
 20
1915.0
 30
0.0
 11
-677.3999999761578
 21
2095.0
 31
0.0
  0
INSERT
  5
30B
330
306
100
AcDbEntity
  8
SIZE
 62
     0
100
AcDbBlockReference
  2
_ORIGIN
 10
-677.3999999761578
 20
1905.0
 30
0.0
 41
10.0
 42
10.0
 43
10.0
 50
270.0
  0
INSERT
  5
30C
330
306
100
AcDbEntity
  8
SIZE
 62
     0
100
AcDbBlockReference
  2
_ORIGIN
 10
-677.3999999761578
 20
2105.0
 30
0.0
 41
10.0
 42
10.0
 43
10.0
 50
90.0
  0
TEXT
  5
30D
330
306
100
AcDbEntity
  8
SIZE
 62
     0
100
AcDbText
 10
-687.3999999761581
 20
1969.999999877608
 30
0.0
 40
30.0
  1
200
 50
90.0
 72
     1
 11
-687.3999999761581
 21
2004.999999877608
 31
0.0
100
AcDbText
  0
POINT
  5
30E
330
306
100
AcDbEntity
  8
DEFPOINTS
 62
     0
100
AcDbPoint
 10
-225.0
 20
1905.0
 30
0.0
  0
POINT
  5
30F
330
306
100
AcDbEntity
  8
DEFPOINTS
 62
     0
100
AcDbPoint
 10
-225.0
 20
2105.0
 30
0.0
  0
POINT
  5
310
330
306
100
AcDbEntity
  8
DEFPOINTS
 62
     0
100
AcDbPoint
 10
-677.3999999761578
 20
2105.0
 30
0.0
  0
ENDBLK
  5
311
330
306
100
AcDbEntity
  8
0
100
AcDbBlockEnd
  0
BLOCK
  5
313
330
312
100
AcDbEntity
  8
0
100
AcDbBlockBegin
  2
*D41
 70
     1
 10
0.0
 20
0.0
 30
0.0
  3
*D41
  1

  0
LINE
  5
314
330
312
100
AcDbEntity
  8
SIZE
 62
     0
100
AcDbLine
 10
60.0
 20
1928.0
 30
0.0
 11
685.1000000238419
 21
1928.0
 31
0.0
  0
LINE
  5
315
330
312
100
AcDbEntity
  8
SIZE
 62
     0
100
AcDbLine
 10
215.0
 20
-0.0000000000000028
 30
0.0
 11
685.1000000238416
 21
-0.000000000000136
 31
0.0
  0
LINE
  5
316
330
312
100
AcDbEntity
  8
SIZE
 62
     0
100
AcDbLine
 10
672.6000000238419
 20
1918.0
 30
0.0
 11
672.6000000238416
 21
9.999999999999868
 31
0.0
  0
INSERT
  5
317
330
312
100
AcDbEntity
  8
SIZE
 62
     0
100
AcDbBlockReference
  2
_ORIGIN
 10
672.6000000238419
 20
1928.0
 30
0.0
 41
10.0
 42
10.0
 43
10.0
 50
90.0
  0
INSERT
  5
318
330
312
100
AcDbEntity
  8
SIZE
 62
     0
100
AcDbBlockReference
  2
_ORIGIN
 10
672.6000000238416
 20
-0.0000000000001325
 30
0.0
 41
10.0
 42
10.0
 43
10.0
 50
270.0
  0
TEXT
  5
319
330
312
100
AcDbEntity
  8
SIZE
 62
     0
100
AcDbText
 10
662.6000000238417
 20
913.999999877608
 30
0.0
 40
30.0
  1
1928
 50
90.0
 72
     1
 11
662.6000000238417
 21
963.999999877608
 31
0.0
100
AcDbText
  0
POINT
  5
31A
330
312
100
AcDbEntity
  8
DEFPOINTS
 62
     0
100
AcDbPoint
 10
50.0
 20
1928.0
 30
0.0
  0
POINT
  5
31B
330
312
100
AcDbEntity
  8
DEFPOINTS
 62
     0
100
AcDbPoint
 10
205.0
 20
0.0
 30
0.0
  0
POINT
  5
31C
330
312
100
AcDbEntity
  8
DEFPOINTS
 62
     0
100
AcDbPoint
 10
672.6000000238416
 20
-0.0000000000001325
 30
0.0
  0
ENDBLK
  5
31D
330
312
100
AcDbEntity
  8
0
100
AcDbBlockEnd
  0
BLOCK
  5
31F
330
31E
100
AcDbEntity
  8
0
100
AcDbBlockBegin
  2
*D42
 70
     1
 10
0.0
 20
0.0
 30
0.0
  3
*D42
  1

  0
LINE
  5
320
330
31E
100
AcDbEntity
  8
SIZE
 62
     0
100
AcDbLine
 10
-235.0
 20
200.0
 30
0.0
 11
-589.8999999761583
 21
200.0000000000001
 31
0.0
  0
LINE
  5
321
330
31E
100
AcDbEntity
  8
SIZE
 62
     0
100
AcDbLine
 10
-235.0
 20
1905.0
 30
0.0
 11
-589.8999999761578
 21
1905.0
 31
0.0
  0
LINE
  5
322
330
31E
100
AcDbEntity
  8
SIZE
 62
     0
100
AcDbLine
 10
-577.3999999761583
 20
210.0000000000001
 30
0.0
 11
-577.3999999761578
 21
1895.0
 31
0.0
  0
INSERT
  5
323
330
31E
100
AcDbEntity
  8
SIZE
 62
     0
100
AcDbBlockReference
  2
_ORIGIN
 10
-577.3999999761583
 20
200.0000000000001
 30
0.0
 41
10.0
 42
10.0
 43
10.0
 50
270.0
  0
INSERT
  5
324
330
31E
100
AcDbEntity
  8
SIZE
 62
     0
100
AcDbBlockReference
  2
_ORIGIN
 10
-577.3999999761578
 20
1905.0
 30
0.0
 41
10.0
 42
10.0
 43
10.0
 50
90.0
  0
TEXT
  5
325
330
31E
100
AcDbEntity
  8
SIZE
 62
     0
100
AcDbText
 10
-587.3999999761581
 20
1004.999999877608
 30
0.0
 40
30.0
  1
1705
 50
90.0
 72
     1
 11
-587.3999999761581
 21
1052.499999877608
 31
0.0
100
AcDbText
  0
POINT
  5
326
330
31E
100
AcDbEntity
  8
DEFPOINTS
 62
     0
100
AcDbPoint
 10
-225.0
 20
200.0
 30
0.0
  0
POINT
  5
327
330
31E
100
AcDbEntity
  8
DEFPOINTS
 62
     0
100
AcDbPoint
 10
-225.0
 20
1905.0
 30
0.0
  0
POINT
  5
328
330
31E
100
AcDbEntity
  8
DEFPOINTS
 62
     0
100
AcDbPoint
 10
-577.3999999761578
 20
1905.0
 30
0.0
  0
ENDBLK
  5
329
330
31E
100
AcDbEntity
  8
0
100
AcDbBlockEnd
  0
BLOCK
  5
32B
330
32A
100
AcDbEntity
  8
0
100
AcDbBlockBegin
  2
*D43
 70
     1
 10
0.0
 20
0.0
 30
0.0
  3
*D43
  1

  0
LINE
  5
32C
330
32A
100
AcDbEntity
  8
SIZE
 62
     0
100
AcDbLine
 10
0.0000000000000006
 20
-28.68780899047852
 30
0.0
 11
0.0000000000000499
 21
775.7099364995955
 31
0.0
  0
LINE
  5
32D
330
32A
100
AcDbEntity
  8
SIZE
 62
     0
100
AcDbLine
 10
-130.0
 20
900.0
 30
0.0
 11
-130.0
 21
750.7099364995955
 31
0.0
  0
LINE
  5
32E
330
32A
100
AcDbEntity
  8
SIZE
 62
     0
100
AcDbLine
 10
-9.99999999999995
 20
763.2099364995955
 30
0.0
 11
-120.0
 21
763.2099364995955
 31
0.0
  0
INSERT
  5
32F
330
32A
100
AcDbEntity
  8
SIZE
 62
     0
100
AcDbBlockReference
  2
_ORIGIN
 10
0.0000000000000491
 20
763.2099364995955
 30
0.0
 41
10.0
 42
10.0
 43
10.0
  0
INSERT
  5
330
330
32A
100
AcDbEntity
  8
SIZE
 62
     0
100
AcDbBlockReference
  2
_ORIGIN
 10
-130.0
 20
763.2099364995955
 30
0.0
 41
10.0
 42
10.0
 43
10.0
 50
180.0
  0
TEXT
  5
331
330
32A
100
AcDbEntity
  8
SIZE
 62
     0
100
AcDbText
 10
-97.50000006119593
 20
773.2099364995955
 30
0.0
 40
30.0
  1
130
 72
     1
 11
-65.00000006119593
 21
773.2099364995955
 31
0.0
100
AcDbText
  0
POINT
  5
332
330
32A
100
AcDbEntity
  8
DEFPOINTS
 62
     0
100
AcDbPoint
 10
0.0
 20
-38.68780899047852
 30
0.0
  0
POINT
  5
333
330
32A
100
AcDbEntity
  8
DEFPOINTS
 62
     0
100
AcDbPoint
 10
-130.0
 20
910.0
 30
0.0
  0
POINT
  5
334
330
32A
100
AcDbEntity
  8
DEFPOINTS
 62
     0
100
AcDbPoint
 10
-130.0
 20
763.2099364995955
 30
0.0
  0
ENDBLK
  5
335
330
32A
100
AcDbEntity
  8
0
100
AcDbBlockEnd
  0
BLOCK
  5
337
330
336
100
AcDbEntity
  8
0
100
AcDbBlockBegin
  2
*D44
 70
     1
 10
0.0
 20
0.0
 30
0.0
  3
*D44
  1

  0
LINE
  5
338
330
336
100
AcDbEntity
  8
SIZE
 62
     0
100
AcDbLine
 10
180.0
 20
-0.0000000000000028
 30
0.0
 11
485.1000000238417
 21
-0.0000000000000893
 31
0.0
  0
LINE
  5
339
330
336
100
AcDbEntity
  8
SIZE
 62
     0
100
AcDbLine
 10
-100.0
 20
930.0
 30
0.0
 11
485.1000000238419
 21
929.9999999999997
 31
0.0
  0
LINE
  5
33A
330
336
100
AcDbEntity
  8
SIZE
 62
     0
100
AcDbLine
 10
472.6000000238417
 20
9.999999999999912
 30
0.0
 11
472.6000000238419
 21
920.0
 31
0.0
  0
INSERT
  5
33B
330
336
100
AcDbEntity
  8
SIZE
 62
     0
100
AcDbBlockReference
  2
_ORIGIN
 10
472.6000000238417
 20
-0.0000000000000857
 30
0.0
 41
10.0
 42
10.0
 43
10.0
 50
270.0
  0
INSERT
  5
33C
330
336
100
AcDbEntity
  8
SIZE
 62
     0
100
AcDbBlockReference
  2
_ORIGIN
 10
472.6000000238419
 20
929.9999999999997
 30
0.0
 41
10.0
 42
10.0
 43
10.0
 50
90.0
  0
TEXT
  5
33D
330
336
100
AcDbEntity
  8
SIZE
 62
     0
100
AcDbText
 10
462.6000000238418
 20
427.499999877608
 30
0.0
 40
30.0
  1
930
 50
90.0
 72
     1
 11
462.6000000238418
 21
464.999999877608
 31
0.0
100
AcDbText
  0
POINT
  5
33E
330
336
100
AcDbEntity
  8
DEFPOINTS
 62
     0
100
AcDbPoint
 10
170.0
 20
0.0
 30
0.0
  0
POINT
  5
33F
330
336
100
AcDbEntity
  8
DEFPOINTS
 62
     0
100
AcDbPoint
 10
-110.0
 20
930.0
 30
0.0
  0
POINT
  5
340
330
336
100
AcDbEntity
  8
DEFPOINTS
 62
     0
100
AcDbPoint
 10
472.6000000238419
 20
929.9999999999997
 30
0.0
  0
ENDBLK
  5
341
330
336
100
AcDbEntity
  8
0
100
AcDbBlockEnd
  0
ENDSEC
  0
SECTION
  2
ENTITIES
  0
LINE
  5
342
330
70
100
AcDbEntity
  8
OUTLINE
  6
Continuous
100
AcDbLine
 10
225.0
 20
200.0
 30
0.0
 11
-225.0
 21
200.0
 31
0.0
  0
LINE
  5
343
330
70
100
AcDbEntity
  8
OUTLINE
  6
Continuous
100
AcDbLine
 10
225.0
 20
1905.0
 30
0.0
 11
-225.0
 21
1905.0
 31
0.0
  0
LINE
  5
344
330
70
100
AcDbEntity
  8
OUTLINE
  6
Continuous
100
AcDbLine
 10
32.0
 20
200.0
 30
0.0
 11
32.0
 21
0.0
 31
0.0
  0
LINE
  5
345
330
70
100
AcDbEntity
  8
OUTLINE
  6
Continuous
100
AcDbLine
 10
32.0
 20
0.0
 30
0.0
 11
-32.0
 21
0.0
 31
0.0
  0
LINE
  5
346
330
70
100
AcDbEntity
  8
OUTLINE
  6
Continuous
100
AcDbLine
 10
-32.0
 20
200.0
 30
0.0
 11
-32.0
 21
0.0
 31
0.0
  0
LINE
  5
347
330
70
100
AcDbEntity
  8
OUTLINE
  6
Continuous
100
AcDbLine
 10
225.0
 20
200.0
 30
0.0
 11
225.0
 21
1905.0
 31
0.0
  0
LINE
  5
348
330
70
100
AcDbEntity
  8
OUTLINE
  6
Continuous
100
AcDbLine
 10
-225.0
 20
200.0
 30
0.0
 11
-225.0
 21
1905.0
 31
0.0
  0
LINE
  5
349
330
70
100
AcDbEntity
  8
OUTLINE
  6
Continuous
100
AcDbLine
 10
170.0
 20
200.0
 30
0.0
 11
170.0
 21
0.0
 31
0.0
  0
LINE
  5
34A
330
70
100
AcDbEntity
  8
OUTLINE
  6
Continuous
100
AcDbLine
 10
170.0
 20
0.0
 30
0.0
 11
106.0
 21
0.0
 31
0.0
  0
LINE
  5
34B
330
70
100
AcDbEntity
  8
OUTLINE
  6
Continuous
100
AcDbLine
 10
106.0
 20
200.0
 30
0.0
 11
106.0
 21
0.0
 31
0.0
  0
LINE
  5
34C
330
70
100
AcDbEntity
  8
OUTLINE
  6
Continuous
100
AcDbLine
 10
-170.0
 20
200.0
 30
0.0
 11
-170.0
 21
0.0
 31
0.0
  0
LINE
  5
34D
330
70
100
AcDbEntity
  8
OUTLINE
  6
Continuous
100
AcDbLine
 10
-170.0
 20
0.0
 30
0.0
 11
-106.0
 21
0.0
 31
0.0
  0
LINE
  5
34E
330
70
100
AcDbEntity
  8
OUTLINE
  6
Continuous
100
AcDbLine
 10
-106.0
 20
200.0
 30
0.0
 11
-106.0
 21
0.0
 31
0.0
  0
ARC
  5
34F
330
70
100
AcDbEntity
  8
DETAIL
  6
DASHED
100
AcDbCircle
 10
125.0003844045891
 20
179.0000000000002
 30
0.0
 40
0.5
100
AcDbArc
 50
180.0
 51
270.0
  0
ARC
  5
350
330
70
100
AcDbEntity
  8
DETAIL
  6
DASHED
100
AcDbCircle
 10
126.2460975572647
 20
176.5000000000002
 30
0.0
 40
1.999999999999978
100
AcDbArc
 50
3.576334374991663
 51
90.0
  0
LINE
  5
351
330
70
100
AcDbEntity
  8
DETAIL
  6
DASHED
100
AcDbLine
 10
125.0003844045891
 20
178.5000000000002
 30
0.0
 11
133.0000000000002
 21
178.5000000000002
 31
0.0
  0
ARC
  5
352
330
70
100
AcDbEntity
  8
DETAIL
  6
DASHED
100
AcDbCircle
 10
157.7539024427354
 20
176.5000000000002
 30
0.0
 40
2.0
100
AcDbArc
 50
90.0
 51
176.4236656250084
  0
ARC
  5
353
330
70
100
AcDbEntity
  8
DETAIL
  6
DASHED
100
AcDbCircle
 10
158.9996162675007
 20
179.0000000000002
 30
0.0
 40
0.5
100
AcDbArc
 50
270.0
 51
0.0
  0
LINE
  5
354
330
70
100
AcDbEntity
  8
DETAIL
  6
DASHED
100
AcDbLine
 10
151.0000000000004
 20
178.5000000000002
 30
0.0
 11
158.9996162675007
 21
178.5000000000002
 31
0.0
  0
LINE
  5
355
330
70
100
AcDbEntity
  8
DETAIL
  6
DASHED
100
AcDbLine
 10
159.4996162675007
 20
179.0000000000002
 30
0.0
 11
159.4996162675007
 21
187.9999999999994
 31
0.0
  0
LINE
  5
356
330
70
100
AcDbEntity
  8
DETAIL
  6
DASHED
100
AcDbLine
 10
124.5003844045891
 20
179.0000000000002
 30
0.0
 11
124.5003844045891
 21
187.9999999999992
 31
0.0
  0
LINE
  5
357
330
70
100
AcDbEntity
  8
DETAIL
  6
DASHED
100
AcDbLine
 10
154.6875000000002
 20
159.4999999999998
 30
0.0
 11
155.7577972857695
 21
176.6247565723104
 31
0.0
  0
LINE
  5
358
330
70
100
AcDbEntity
  8
DETAIL
  6
DASHED
100
AcDbLine
 10
129.3125000000002
 20
159.4999999999998
 30
0.0
 11
154.6875000000002
 21
159.4999999999998
 31
0.0
  0
LINE
  5
359
330
70
100
AcDbEntity
  8
DETAIL
  6
DASHED
100
AcDbLine
 10
129.3124999999998
 20
159.4999999999998
 30
0.0
 11
128.2422027142304
 21
176.6247565723104
 31
0.0
  0
LINE
  5
35A
330
70
100
AcDbEntity
  8
DETAIL
  6
DASHED
100
AcDbLine
 10
133.0000000000002
 20
181.4715728752529
 30
0.0
 11
133.0000000000002
 21
171.9999999999998
 31
0.0
  0
CIRCLE
  5
35B
330
70
100
AcDbEntity
  8
DETAIL
  6
DASHED
100
AcDbCircle
 10
142.0000000000002
 20
171.9999999999998
 30
0.0
 40
9.0
  0
LINE
  5
35C
330
70
100
AcDbEntity
  8
DETAIL
  6
DASHED
100
AcDbLine
 10
130.0000000000002
 20
187.9999999999992
 30
0.0
 11
130.0000000000002
 21
184.4715728752529
 31
0.0
  0
LINE
  5
35D
330
70
100
AcDbEntity
  8
DETAIL
  6
DASHED
100
AcDbLine
 10
133.0000000000002
 20
181.4715728752529
 30
0.0
 11
130.0000000000002
 21
184.4715728752529
 31
0.0
  0
LINE
  5
35E
330
70
100
AcDbEntity
  8
DETAIL
  6
DASHED
100
AcDbLine
 10
151.0000000000002
 20
181.4715728752529
 30
0.0
 11
151.0000000000002
 21
171.9999999999998
 31
0.0
  0
LINE
  5
35F
330
70
100
AcDbEntity
  8
DETAIL
  6
DASHED
100
AcDbLine
 10
154.0000000000002
 20
187.9999999999992
 30
0.0
 11
154.0000000000002
 21
184.4715728752529
 31
0.0
  0
LINE
  5
360
330
70
100
AcDbEntity
  8
DETAIL
  6
DASHED
100
AcDbLine
 10
130.0000000000002
 20
184.4715728752529
 30
0.0
 11
154.0000000000002
 21
184.4715728752529
 31
0.0
  0
LINE
  5
361
330
70
100
AcDbEntity
  8
DETAIL
  6
DASHED
100
AcDbLine
 10
151.0000000000002
 20
181.4715728752529
 30
0.0
 11
154.0000000000002
 21
184.4715728752529
 31
0.0
  0
LINE
  5
362
330
70
100
AcDbEntity
  8
DETAIL
  6
Continuous
100
AcDbLine
 10
173.5000000000002
 20
187.9999999999994
 30
0.0
 11
173.5000000000002
 21
191.9999999999998
 31
0.0
  0
LINE
  5
363
330
70
100
AcDbEntity
  8
DETAIL
  6
Continuous
100
AcDbLine
 10
178.0000000000007
 20
191.9999999999998
 30
0.0
 11
170.0
 21
191.9999999999998
 31
0.0
  0
LINE
  5
364
330
70
100
AcDbEntity
  8
DETAIL
  6
Continuous
100
AcDbLine
 10
178.0000000000007
 20
191.9999999999998
 30
0.0
 11
185.9999999989187
 21
200.0
 31
0.0
  0
LINE
  5
365
330
70
100
AcDbEntity
  8
DETAIL
  6
Continuous
100
AcDbLine
 10
170.0
 20
187.9999999999994
 30
0.0
 11
173.5000000000002
 21
187.9999999999994
 31
0.0
  0
LINE
  5
366
330
70
100
AcDbEntity
  8
DETAIL
  6
Continuous
100
AcDbLine
 10
105.9999999999998
 20
191.9999999999998
 30
0.0
 11
98.0000000010817
 21
200.0
 31
0.0
  0
LINE
  5
367
330
70
100
AcDbEntity
  8
DETAIL
  6
DASHED
100
AcDbLine
 10
110.5000000000001
 20
187.9999999999992
 30
0.0
 11
110.5000000000001
 21
191.9999999999998
 31
0.0
  0
LINE
  5
368
330
70
100
AcDbEntity
  8
DETAIL
  6
DASHED
100
AcDbLine
 10
110.5000000000001
 20
187.9999999999992
 30
0.0
 11
170.0
 21
187.9999999999994
 31
0.0
  0
LINE
  5
369
330
70
100
AcDbEntity
  8
DETAIL
  6
DASHED
100
AcDbLine
 10
170.0
 20
191.9999999999998
 30
0.0
 11
105.9999999999998
 21
191.9999999999998
 31
0.0
  0
LINE
  5
36A
330
70
100
AcDbEntity
  8
DETAIL
  6
Continuous
100
AcDbLine
 10
45.0
 20
1905.0
 30
0.0
 11
45.0
 21
1945.0
 31
0.0
  0
LINE
  5
36B
330
70
100
AcDbEntity
  8
DETAIL
  6
Continuous
100
AcDbLine
 10
-45.0
 20
1905.0
 30
0.0
 11
-45.0
 21
1945.0
 31
0.0
  0
LINE
  5
36C
330
70
100
AcDbEntity
  8
DETAIL
  6
Continuous
100
AcDbLine
 10
40.0
 20
1950.0
 30
0.0
 11
-40.0
 21
1950.0
 31
0.0
  0
ARC
  5
36D
330
70
100
AcDbEntity
  8
DETAIL
  6
Continuous
100
AcDbCircle
 10
40.0
 20
1945.0
 30
0.0
 40
5.0
100
AcDbArc
 50
0.0
 51
90.0
  0
ARC
  5
36E
330
70
100
AcDbEntity
  8
DETAIL
  6
Continuous
100
AcDbCircle
 10
-40.0
 20
1945.0
 30
0.0
 40
5.0
100
AcDbArc
 50
90.0
 51
180.0
  0
LINE
  5
36F
330
70
100
AcDbEntity
  8
DETAIL
  6
Continuous
100
AcDbLine
 10
170.0
 20
0.0
 30
0.0
 11
106.0
 21
0.0
 31
0.0
  0
LINE
  5
370
330
70
100
AcDbEntity
  8
DETAIL
  6
Continuous
100
AcDbLine
 10
-32.0
 20
200.0
 30
0.0
 11
-32.0
 21
0.0
 31
0.0
  0
LINE
  5
371
330
70
100
AcDbEntity
  8
DETAIL
  6
Continuous
100
AcDbLine
 10
32.0
 20
0.0
 30
0.0
 11
-32.0
 21
0.0
 31
0.0
  0
LINE
  5
372
330
70
100
AcDbEntity
  8
DETAIL
  6
Continuous
100
AcDbLine
 10
32.0
 20
200.0
 30
0.0
 11
32.0
 21
0.0
 31
0.0
  0
LINE
  5
373
330
70
100
AcDbEntity
  8
DETAIL
  6
Continuous
100
AcDbLine
 10
-170.0
 20
0.0
 30
0.0
 11
-106.0
 21
0.0
 31
0.0
  0
LINE
  5
374
330
70
100
AcDbEntity
  8
DETAIL
  6
Continuous
100
AcDbLine
 10
-106.0
 20
200.0
 30
0.0
 11
-106.0
 21
0.0
 31
0.0
  0
LINE
  5
375
330
70
100
AcDbEntity
  8
DETAIL
  6
Continuous
100
AcDbLine
 10
-170.0
 20
200.0
 30
0.0
 11
-170.0
 21
0.0
 31
0.0
  0
LINE
  5
376
330
70
100
AcDbEntity
  8
DETAIL
  6
Continuous
100
AcDbLine
 10
106.0
 20
200.0
 30
0.0
 11
106.0
 21
0.0
 31
0.0
  0
LINE
  5
377
330
70
100
AcDbEntity
  8
DETAIL
  6
Continuous
100
AcDbLine
 10
170.0
 20
200.0
 30
0.0
 11
170.0
 21
0.0
 31
0.0
  0
LINE
  5
378
330
70
100
AcDbEntity
  8
DETAIL
  6
Continuous
100
AcDbLine
 10
-225.0
 20
200.0
 30
0.0
 11
-225.0
 21
1905.0
 31
0.0
  0
LINE
  5
379
330
70
100
AcDbEntity
  8
DETAIL
  6
Continuous
100
AcDbLine
 10
225.0
 20
200.0
 30
0.0
 11
225.0
 21
1905.0
 31
0.0
  0
LINE
  5
37A
330
70
100
AcDbEntity
  8
DETAIL
  6
Continuous
100
AcDbLine
 10
225.0
 20
200.0
 30
0.0
 11
-225.0
 21
200.0
 31
0.0
  0
LINE
  5
37B
330
70
100
AcDbEntity
  8
DETAIL
  6
Continuous
100
AcDbLine
 10
225.0
 20
1905.0
 30
0.0
 11
-225.0
 21
1905.0
 31
0.0
  0
LINE
  5
37C
330
70
100
AcDbEntity
  8
DETAIL
  6
Continuous
100
AcDbLine
 10
-60.89300532620768
 20
200.0
 30
0.0
 11
-60.89300532620768
 21
162.4
 31
0.0
  0
LINE
  5
37D
330
70
100
AcDbEntity
  8
DETAIL
  6
Continuous
100
AcDbLine
 10
-46.89300532620769
 20
200.0
 30
0.0
 11
-46.89300532620769
 21
162.4
 31
0.0
  0
LINE
  5
37E
330
70
100
AcDbEntity
  8
DETAIL
  6
Continuous
100
AcDbLine
 10
-46.89300532620769
 20
162.4
 30
0.0
 11
-60.89300532620768
 21
162.4
 31
0.0
  0
LINE
  5
37F
330
70
100
AcDbEntity
  8
DETAIL
  6
Continuous
100
AcDbLine
 10
-165.0
 20
5.5
 30
0.0
 11
-111.0
 21
5.5
 31
0.0
  0
LINE
  5
380
330
70
100
AcDbEntity
  8
DETAIL
  6
Continuous
100
AcDbLine
 10
-111.0
 20
2.299999999999998
 30
0.0
 11
-111.0
 21
5.5
 31
0.0
  0
LINE
  5
381
330
70
100
AcDbEntity
  8
DETAIL
  6
Continuous
100
AcDbLine
 10
-165.0
 20
2.300000000000002
 30
0.0
 11
-165.0
 21
5.5
 31
0.0
  0
LINE
  5
382
330
70
100
AcDbEntity
  8
DETAIL
  6
DASHED
100
AcDbLine
 10
-27.00000000000001
 20
2.300000000000002
 30
0.0
 11
-27.00000000000001
 21
5.5
 31
0.0
  0
LINE
  5
383
330
70
100
AcDbEntity
  8
DETAIL
  6
DASHED
100
AcDbLine
 10
-27.00000000000001
 20
5.5
 30
0.0
 11
26.99999999999999
 21
5.5
 31
0.0
  0
LINE
  5
384
330
70
100
AcDbEntity
  8
DETAIL
  6
DASHED
100
AcDbLine
 10
26.99999999999999
 20
2.299999999999998
 30
0.0
 11
26.99999999999999
 21
5.5
 31
0.0
  0
LINE
  5
385
330
70
100
AcDbEntity
  8
DETAIL
  6
Continuous
100
AcDbLine
 10
111.0
 20
2.300000000000002
 30
0.0
 11
111.0
 21
5.5
 31
0.0
  0
LINE
  5
386
330
70
100
AcDbEntity
  8
DETAIL
  6
Continuous
100
AcDbLine
 10
111.0
 20
5.5
 30
0.0
 11
165.0
 21
5.5
 31
0.0
  0
LINE
  5
387
330
70
100
AcDbEntity
  8
DETAIL
  6
Continuous
100
AcDbLine
 10
165.0
 20
2.299999999999998
 30
0.0
 11
165.0
 21
5.5
 31
0.0
  0
LINE
  5
388
330
70
100
AcDbEntity
  8
DETAIL
  6
Continuous
100
AcDbLine
 10
111.0
 20
2.299999999999998
 30
0.0
 11
165.0
 21
2.299999999999998
 31
0.0
  0
LINE
  5
389
330
70
100
AcDbEntity
  8
DETAIL
  6
DASHED
100
AcDbLine
 10
-27.00000000000001
 20
2.299999999999998
 30
0.0
 11
26.99999999999999
 21
2.299999999999998
 31
0.0
  0
LINE
  5
38A
330
70
100
AcDbEntity
  8
DETAIL
  6
Continuous
100
AcDbLine
 10
-165.0
 20
2.299999999999998
 30
0.0
 11
-111.0
 21
2.299999999999998
 31
0.0
  0
LINE
  5
38B
330
70
100
AcDbEntity
  8
DETAIL
  6
DASHED
100
AcDbLine
 10
117.5999999999998
 20
1109.0
 30
0.0
 11
90.40000000000008
 21
1109.0
 31
0.0
  0
LINE
  5
38C
330
70
100
AcDbEntity
  8
DETAIL
  6
DASHED
100
AcDbLine
 10
117.5999999999998
 20
1059.0
 30
0.0
 11
117.5999999999998
 21
1109.0
 31
0.0
  0
LINE
  5
38D
330
70
100
AcDbEntity
  8
DETAIL
  6
DASHED
100
AcDbLine
 10
90.40000000000008
 20
1059.0
 30
0.0
 11
90.40000000000008
 21
1109.0
 31
0.0
  0
LINE
  5
38E
330
70
100
AcDbEntity
  8
DETAIL
  6
DASHED
100
AcDbLine
 10
117.5999999999998
 20
1059.0
 30
0.0
 11
90.40000000000008
 21
1059.0
 31
0.0
  0
LINE
  5
38F
330
70
100
AcDbEntity
  8
DETAIL
  6
DASHED
100
AcDbLine
 10
-116.4000000000001
 20
930.0
 30
0.0
 11
-116.4000000000001
 21
980.0
 31
0.0
  0
LINE
  5
390
330
70
100
AcDbEntity
  8
DETAIL
  6
DASHED
100
AcDbLine
 10
-143.5999999999999
 20
930.0
 30
0.0
 11
-143.5999999999999
 21
980.0
 31
0.0
  0
LINE
  5
391
330
70
100
AcDbEntity
  8
DETAIL
  6
DASHED
100
AcDbLine
 10
-116.4000000000001
 20
930.0
 30
0.0
 11
-143.5999999999999
 21
930.0
 31
0.0
  0
LINE
  5
392
330
70
100
AcDbEntity
  8
DETAIL
  6
DASHED
100
AcDbLine
 10
-116.4000000000001
 20
980.0
 30
0.0
 11
-143.5999999999999
 21
980.0
 31
0.0
  0
LINE
  5
393
330
70
100
AcDbEntity
  8
BASIS
  6
DASHDOT
100
AcDbLine
 10
0.0
 20
1961.851882225665
 30
0.0
 11
0.0
 21
-38.68780836657606
 31
0.0
  0
LINE
  5
394
330
70
100
AcDbEntity
  8
SIZE
  6
Continuous
 62
    30
100
AcDbLine
 10
180.0
 20
-0.0000000000000028
 30
0.0
 11
485.1000000238417
 21
-0.0000000000000893
 31
0.0
  0
LINE
  5
395
330
70
100
AcDbEntity
  8
SIZE
  6
Continuous
 62
    30
100
AcDbLine
 10
-100.0
 20
930.0
 30
0.0
 11
485.1000000238419
 21
929.9999999999997
 31
0.0
  0
LINE
  5
396
330
70
100
AcDbEntity
  8
SIZE
  6
Continuous
 62
    30
100
AcDbLine
 10
472.6000000238417
 20
9.999999999999912
 30
0.0
 11
472.6000000238419
 21
920.0
 31
0.0
  0
CIRCLE
  5
397
330
70
100
AcDbEntity
  8
SIZE
  6
Continuous
 62
    30
100
AcDbCircle
 10
472.6000000238417
 20
-0.0000000000000857
 30
0.0
 40
5.0
  0
LINE
  5
398
330
70
100
AcDbEntity
  8
SIZE
  6
Continuous
 62
    30
100
AcDbLine
 10
472.6000000238417
 20
-0.0000000000000857
 30
0.0
 11
472.6000000238417
 21
9.999999999999912
 31
0.0
  0
CIRCLE
  5
399
330
70
100
AcDbEntity
  8
SIZE
  6
Continuous
 62
    30
100
AcDbCircle
 10
472.6000000238419
 20
929.9999999999997
 30
0.0
 40
5.0
  0
LINE
  5
39A
330
70
100
AcDbEntity
  8
SIZE
  6
Continuous
 62
    30
100
AcDbLine
 10
472.6000000238419
 20
929.9999999999997
 30
0.0
 11
472.6000000238419
 21
919.9999999999997
 31
0.0
  0
TEXT
  5
39B
330
70
100
AcDbEntity
  8
SIZE
  6
Continuous
 62
    30
100
AcDbText
 10
462.6000000238418
 20
427.499999877608
 30
0.0
 40
30.0
  1
930
 50
90.0
 72
     1
 11
462.6000000238418
 21
464.999999877608
 31
0.0
100
AcDbText
  0
POINT
  5
39C
330
70
100
AcDbEntity
  8
DEFPOINTS
  6
Continuous
 62
    30
100
AcDbPoint
 10
170.0
 20
0.0
 30
0.0
  0
POINT
  5
39D
330
70
100
AcDbEntity
  8
DEFPOINTS
  6
Continuous
 62
    30
100
AcDbPoint
 10
-110.0
 20
930.0
 30
0.0
  0
POINT
  5
39E
330
70
100
AcDbEntity
  8
DEFPOINTS
  6
Continuous
 62
    30
100
AcDbPoint
 10
472.6000000238419
 20
929.9999999999997
 30
0.0
  0
LINE
  5
39F
330
70
100
AcDbEntity
  8
SIZE
  6
Continuous
 62
    30
100
AcDbLine
 10
0.0000000000000006
 20
-28.68780899047852
 30
0.0
 11
0.0000000000000499
 21
775.7099364995955
 31
0.0
  0
LINE
  5
3A0
330
70
100
AcDbEntity
  8
SIZE
  6
Continuous
 62
    30
100
AcDbLine
 10
-130.0
 20
900.0
 30
0.0
 11
-130.0
 21
750.7099364995955
 31
0.0
  0
LINE
  5
3A1
330
70
100
AcDbEntity
  8
SIZE
  6
Continuous
 62
    30
100
AcDbLine
 10
-9.99999999999995
 20
763.2099364995955
 30
0.0
 11
-120.0
 21
763.2099364995955
 31
0.0
  0
CIRCLE
  5
3A2
330
70
100
AcDbEntity
  8
SIZE
  6
Continuous
 62
    30
100
AcDbCircle
 10
0.0000000000000491
 20
763.2099364995955
 30
0.0
 40
5.0
  0
LINE
  5
3A3
330
70
100
AcDbEntity
  8
SIZE
  6
Continuous
 62
    30
100
AcDbLine
 10
0.0000000000000491
 20
763.2099364995955
 30
0.0
 11
-9.99999999999995
 21
763.2099364995955
 31
0.0
  0
CIRCLE
  5
3A4
330
70
100
AcDbEntity
  8
SIZE
  6
Continuous
 62
    30
100
AcDbCircle
 10
-130.0
 20
763.2099364995955
 30
0.0
 40
5.0
  0
LINE
  5
3A5
330
70
100
AcDbEntity
  8
SIZE
  6
Continuous
 62
    30
100
AcDbLine
 10
-130.0
 20
763.2099364995955
 30
0.0
 11
-120.0
 21
763.2099364995955
 31
0.0
  0
TEXT
  5
3A6
330
70
100
AcDbEntity
  8
SIZE
  6
Continuous
 62
    30
100
AcDbText
 10
-97.50000006119593
 20
773.2099364995955
 30
0.0
 40
30.0
  1
130
 72
     1
 11
-65.00000006119593
 21
773.2099364995955
 31
0.0
100
AcDbText
  0
POINT
  5
3A7
330
70
100
AcDbEntity
  8
DEFPOINTS
  6
Continuous
 62
    30
100
AcDbPoint
 10
0.0
 20
-38.68780899047852
 30
0.0
  0
POINT
  5
3A8
330
70
100
AcDbEntity
  8
DEFPOINTS
  6
Continuous
 62
    30
100
AcDbPoint
 10
-130.0
 20
910.0
 30
0.0
  0
POINT
  5
3A9
330
70
100
AcDbEntity
  8
DEFPOINTS
  6
Continuous
 62
    30
100
AcDbPoint
 10
-130.0
 20
763.2099364995955
 30
0.0
  0
LINE
  5
3AA
330
70
100
AcDbEntity
  8
SIZE
  6
Continuous
 62
    30
100
AcDbLine
 10
-235.0
 20
200.0
 30
0.0
 11
-589.8999999761583
 21
200.0000000000001
 31
0.0
  0
LINE
  5
3AB
330
70
100
AcDbEntity
  8
SIZE
  6
Continuous
 62
    30
100
AcDbLine
 10
-235.0
 20
1905.0
 30
0.0
 11
-589.8999999761578
 21
1905.0
 31
0.0
  0
LINE
  5
3AC
330
70
100
AcDbEntity
  8
SIZE
  6
Continuous
 62
    30
100
AcDbLine
 10
-577.3999999761583
 20
210.0000000000001
 30
0.0
 11
-577.3999999761578
 21
1895.0
 31
0.0
  0
CIRCLE
  5
3AD
330
70
100
AcDbEntity
  8
SIZE
  6
Continuous
 62
    30
100
AcDbCircle
 10
-577.3999999761583
 20
200.0000000000001
 30
0.0
 40
5.0
  0
LINE
  5
3AE
330
70
100
AcDbEntity
  8
SIZE
  6
Continuous
 62
    30
100
AcDbLine
 10
-577.3999999761583
 20
200.0000000000001
 30
0.0
 11
-577.3999999761583
 21
210.0000000000001
 31
0.0
  0
CIRCLE
  5
3AF
330
70
100
AcDbEntity
  8
SIZE
  6
Continuous
 62
    30
100
AcDbCircle
 10
-577.3999999761578
 20
1905.0
 30
0.0
 40
5.0
  0
LINE
  5
3B0
330
70
100
AcDbEntity
  8
SIZE
  6
Continuous
 62
    30
100
AcDbLine
 10
-577.3999999761578
 20
1905.0
 30
0.0
 11
-577.3999999761578
 21
1895.0
 31
0.0
  0
TEXT
  5
3B1
330
70
100
AcDbEntity
  8
SIZE
  6
Continuous
 62
    30
100
AcDbText
 10
-587.3999999761581
 20
1004.999999877608
 30
0.0
 40
30.0
  1
1705
 50
90.0
 72
     1
 11
-587.3999999761581
 21
1052.499999877608
 31
0.0
100
AcDbText
  0
POINT
  5
3B2
330
70
100
AcDbEntity
  8
DEFPOINTS
  6
Continuous
 62
    30
100
AcDbPoint
 10
-225.0
 20
200.0
 30
0.0
  0
POINT
  5
3B3
330
70
100
AcDbEntity
  8
DEFPOINTS
  6
Continuous
 62
    30
100
AcDbPoint
 10
-225.0
 20
1905.0
 30
0.0
  0
POINT
  5
3B4
330
70
100
AcDbEntity
  8
DEFPOINTS
  6
Continuous
 62
    30
100
AcDbPoint
 10
-577.3999999761578
 20
1905.0
 30
0.0
  0
LINE
  5
3B5
330
70
100
AcDbEntity
  8
SIZE
  6
Continuous
 62
    30
100
AcDbLine
 10
60.0
 20
1928.0
 30
0.0
 11
685.1000000238419
 21
1928.0
 31
0.0
  0
LINE
  5
3B6
330
70
100
AcDbEntity
  8
SIZE
  6
Continuous
 62
    30
100
AcDbLine
 10
215.0
 20
-0.0000000000000028
 30
0.0
 11
685.1000000238416
 21
-0.000000000000136
 31
0.0
  0
LINE
  5
3B7
330
70
100
AcDbEntity
  8
SIZE
  6
Continuous
 62
    30
100
AcDbLine
 10
672.6000000238419
 20
1918.0
 30
0.0
 11
672.6000000238416
 21
9.999999999999868
 31
0.0
  0
CIRCLE
  5
3B8
330
70
100
AcDbEntity
  8
SIZE
  6
Continuous
 62
    30
100
AcDbCircle
 10
672.6000000238419
 20
1928.0
 30
0.0
 40
5.0
  0
LINE
  5
3B9
330
70
100
AcDbEntity
  8
SIZE
  6
Continuous
 62
    30
100
AcDbLine
 10
672.6000000238419
 20
1928.0
 30
0.0
 11
672.6000000238419
 21
1918.0
 31
0.0
  0
CIRCLE
  5
3BA
330
70
100
AcDbEntity
  8
SIZE
  6
Continuous
 62
    30
100
AcDbCircle
 10
672.6000000238416
 20
-0.0000000000001325
 30
0.0
 40
5.0
  0
LINE
  5
3BB
330
70
100
AcDbEntity
  8
SIZE
  6
Continuous
 62
    30
100
AcDbLine
 10
672.6000000238416
 20
-0.0000000000001325
 30
0.0
 11
672.6000000238416
 21
9.999999999999864
 31
0.0
  0
TEXT
  5
3BC
330
70
100
AcDbEntity
  8
SIZE
  6
Continuous
 62
    30
100
AcDbText
 10
662.6000000238417
 20
913.999999877608
 30
0.0
 40
30.0
  1
1928
 50
90.0
 72
     1
 11
662.6000000238417
 21
963.999999877608
 31
0.0
100
AcDbText
  0
POINT
  5
3BD
330
70
100
AcDbEntity
  8
DEFPOINTS
  6
Continuous
 62
    30
100
AcDbPoint
 10
50.0
 20
1928.0
 30
0.0
  0
POINT
  5
3BE
330
70
100
AcDbEntity
  8
DEFPOINTS
  6
Continuous
 62
    30
100
AcDbPoint
 10
205.0
 20
0.0
 30
0.0
  0
POINT
  5
3BF
330
70
100
AcDbEntity
  8
DEFPOINTS
  6
Continuous
 62
    30
100
AcDbPoint
 10
672.6000000238416
 20
-0.0000000000001325
 30
0.0
  0
LINE
  5
3C0
330
70
100
AcDbEntity
  8
SIZE
  6
Continuous
 62
    30
100
AcDbLine
 10
-235.0
 20
1905.0
 30
0.0
 11
-689.8999999761577
 21
1905.0
 31
0.0
  0
LINE
  5
3C1
330
70
100
AcDbEntity
  8
SIZE
  6
Continuous
 62
    30
100
AcDbLine
 10
-235.0
 20
2105.0
 30
0.0
 11
-689.8999999761577
 21
2105.0
 31
0.0
  0
LINE
  5
3C2
330
70
100
AcDbEntity
  8
SIZE
  6
Continuous
 62
    30
100
AcDbLine
 10
-677.3999999761578
 20
1915.0
 30
0.0
 11
-677.3999999761578
 21
2095.0
 31
0.0
  0
CIRCLE
  5
3C3
330
70
100
AcDbEntity
  8
SIZE
  6
Continuous
 62
    30
100
AcDbCircle
 10
-677.3999999761578
 20
1905.0
 30
0.0
 40
5.0
  0
LINE
  5
3C4
330
70
100
AcDbEntity
  8
SIZE
  6
Continuous
 62
    30
100
AcDbLine
 10
-677.3999999761578
 20
1905.0
 30
0.0
 11
-677.3999999761578
 21
1915.0
 31
0.0
  0
CIRCLE
  5
3C5
330
70
100
AcDbEntity
  8
SIZE
  6
Continuous
 62
    30
100
AcDbCircle
 10
-677.3999999761578
 20
2105.0
 30
0.0
 40
5.0
  0
LINE
  5
3C6
330
70
100
AcDbEntity
  8
SIZE
  6
Continuous
 62
    30
100
AcDbLine
 10
-677.3999999761578
 20
2105.0
 30
0.0
 11
-677.3999999761578
 21
2095.0
 31
0.0
  0
TEXT
  5
3C7
330
70
100
AcDbEntity
  8
SIZE
  6
Continuous
 62
    30
100
AcDbText
 10
-687.3999999761581
 20
1969.999999877608
 30
0.0
 40
30.0
  1
200
 50
90.0
 72
     1
 11
-687.3999999761581
 21
2004.999999877608
 31
0.0
100
AcDbText
  0
POINT
  5
3C8
330
70
100
AcDbEntity
  8
DEFPOINTS
  6
Continuous
 62
    30
100
AcDbPoint
 10
-225.0
 20
1905.0
 30
0.0
  0
POINT
  5
3C9
330
70
100
AcDbEntity
  8
DEFPOINTS
  6
Continuous
 62
    30
100
AcDbPoint
 10
-225.0
 20
2105.0
 30
0.0
  0
POINT
  5
3CA
330
70
100
AcDbEntity
  8
DEFPOINTS
  6
Continuous
 62
    30
100
AcDbPoint
 10
-677.3999999761578
 20
2105.0
 30
0.0
  0
LINE
  5
3CB
330
70
100
AcDbEntity
  8
SIZE
  6
Continuous
 62
    30
100
AcDbLine
 10
-225.0
 20
2115.0
 30
0.0
 11
-225.0
 21
2469.899999976159
 31
0.0
  0
LINE
  5
3CC
330
70
100
AcDbEntity
  8
SIZE
  6
Continuous
 62
    30
100
AcDbLine
 10
225.0
 20
2115.0
 30
0.0
 11
225.0
 21
2469.899999976159
 31
0.0
  0
LINE
  5
3CD
330
70
100
AcDbEntity
  8
SIZE
  6
Continuous
 62
    30
100
AcDbLine
 10
-215.0
 20
2457.399999976158
 30
0.0
 11
215.0
 21
2457.399999976158
 31
0.0
  0
CIRCLE
  5
3CE
330
70
100
AcDbEntity
  8
SIZE
  6
Continuous
 62
    30
100
AcDbCircle
 10
-225.0
 20
2457.399999976158
 30
0.0
 40
5.0
  0
LINE
  5
3CF
330
70
100
AcDbEntity
  8
SIZE
  6
Continuous
 62
    30
100
AcDbLine
 10
-225.0
 20
2457.399999976158
 30
0.0
 11
-215.0
 21
2457.399999976158
 31
0.0
  0
CIRCLE
  5
3D0
330
70
100
AcDbEntity
  8
SIZE
  6
Continuous
 62
    30
100
AcDbCircle
 10
225.0
 20
2457.399999976158
 30
0.0
 40
5.0
  0
LINE
  5
3D1
330
70
100
AcDbEntity
  8
SIZE
  6
Continuous
 62
    30
100
AcDbLine
 10
225.0
 20
2457.399999976158
 30
0.0
 11
215.0
 21
2457.399999976158
 31
0.0
  0
TEXT
  5
3D2
330
70
100
AcDbEntity
  8
SIZE
  6
Continuous
 62
    30
100
AcDbText
 10
-37.50000006119594
 20
2467.399999976158
 30
0.0
 40
30.0
  1
450
 72
     1
 11
-0.0000000611959337
 21
2467.399999976158
 31
0.0
100
AcDbText
  0
POINT
  5
3D3
330
70
100
AcDbEntity
  8
DEFPOINTS
  6
Continuous
 62
    30
100
AcDbPoint
 10
-225.0
 20
2105.0
 30
0.0
  0
POINT
  5
3D4
330
70
100
AcDbEntity
  8
DEFPOINTS
  6
Continuous
 62
    30
100
AcDbPoint
 10
225.0
 20
2105.0
 30
0.0
  0
POINT
  5
3D5
330
70
100
AcDbEntity
  8
DEFPOINTS
  6
Continuous
 62
    30
100
AcDbPoint
 10
225.0
 20
2457.399999976158
 30
0.0
  0
LINE
  5
3D6
330
70
100
AcDbEntity
  8
SIZE
  6
Continuous
 62
    30
100
AcDbLine
 10
45.0
 20
1955.0
 30
0.0
 11
45.00000000000002
 21
2319.899999976158
 31
0.0
  0
LINE
  5
3D7
330
70
100
AcDbEntity
  8
SIZE
  6
Continuous
 62
    30
100
AcDbLine
 10
-45.0
 20
1955.0
 30
0.0
 11
-44.99999999999998
 21
2319.899999976158
 31
0.0
  0
LINE
  5
3D8
330
70
100
AcDbEntity
  8
SIZE
  6
Continuous
 62
    30
100
AcDbLine
 10
35.00000000000002
 20
2307.399999976158
 30
0.0
 11
-34.99999999999998
 21
2307.399999976158
 31
0.0
  0
CIRCLE
  5
3D9
330
70
100
AcDbEntity
  8
SIZE
  6
Continuous
 62
    30
100
AcDbCircle
 10
45.00000000000002
 20
2307.399999976158
 30
0.0
 40
5.0
  0
LINE
  5
3DA
330
70
100
AcDbEntity
  8
SIZE
  6
Continuous
 62
    30
100
AcDbLine
 10
45.00000000000002
 20
2307.399999976158
 30
0.0
 11
35.00000000000002
 21
2307.399999976158
 31
0.0
  0
CIRCLE
  5
3DB
330
70
100
AcDbEntity
  8
SIZE
  6
Continuous
 62
    30
100
AcDbCircle
 10
-44.99999999999998
 20
2307.399999976158
 30
0.0
 40
5.0
  0
LINE
  5
3DC
330
70
100
AcDbEntity
  8
SIZE
  6
Continuous
 62
    30
100
AcDbLine
 10
-44.99999999999998
 20
2307.399999976158
 30
0.0
 11
-34.99999999999998
 21
2307.399999976158
 31
0.0
  0
TEXT
  5
3DD
330
70
100
AcDbEntity
  8
SIZE
  6
Continuous
 62
    30
100
AcDbText
 10
-22.50000006119594
 20
2317.399999976158
 30
0.0
 40
30.0
  1
90
 72
     1
 11
-0.0000000611959372
 21
2317.399999976158
 31
0.0
100
AcDbText
  0
POINT
  5
3DE
330
70
100
AcDbEntity
  8
DEFPOINTS
  6
Continuous
 62
    30
100
AcDbPoint
 10
45.0
 20
1945.0
 30
0.0
  0
POINT
  5
3DF
330
70
100
AcDbEntity
  8
DEFPOINTS
  6
Continuous
 62
    30
100
AcDbPoint
 10
-45.0
 20
1945.0
 30
0.0
  0
POINT
  5
3E0
330
70
100
AcDbEntity
  8
DEFPOINTS
  6
Continuous
 62
    30
100
AcDbPoint
 10
-44.99999999999998
 20
2307.399999976158
 30
0.0
  0
LINE
  5
3E1
330
70
100
AcDbEntity
  8
SIZE
  6
Continuous
 62
    30
100
AcDbLine
 10
30.0
 20
1958.0
 30
0.0
 11
30.00000000000002
 21
2219.899999976158
 31
0.0
  0
LINE
  5
3E2
330
70
100
AcDbEntity
  8
SIZE
  6
Continuous
 62
    30
100
AcDbLine
 10
-30.0
 20
1958.0
 30
0.0
 11
-29.99999999999998
 21
2219.899999976158
 31
0.0
  0
LINE
  5
3E3
330
70
100
AcDbEntity
  8
SIZE
  6
Continuous
 62
    30
100
AcDbLine
 10
20.00000000000001
 20
2207.399999976158
 30
0.0
 11
-19.99999999999997
 21
2207.399999976158
 31
0.0
  0
CIRCLE
  5
3E4
330
70
100
AcDbEntity
  8
SIZE
  6
Continuous
 62
    30
100
AcDbCircle
 10
30.00000000000002
 20
2207.399999976158
 30
0.0
 40
5.0
  0
LINE
  5
3E5
330
70
100
AcDbEntity
  8
SIZE
  6
Continuous
 62
    30
100
AcDbLine
 10
30.00000000000002
 20
2207.399999976158
 30
0.0
 11
20.00000000000002
 21
2207.399999976158
 31
0.0
  0
CIRCLE
  5
3E6
330
70
100
AcDbEntity
  8
SIZE
  6
Continuous
 62
    30
100
AcDbCircle
 10
-29.99999999999999
 20
2207.399999976158
 30
0.0
 40
5.0
  0
LINE
  5
3E7
330
70
100
AcDbEntity
  8
SIZE
  6
Continuous
 62
    30
100
AcDbLine
 10
-29.99999999999999
 20
2207.399999976158
 30
0.0
 11
-19.99999999999999
 21
2207.399999976158
 31
0.0
  0
TEXT
  5
3E8
330
70
100
AcDbEntity
  8
SIZE
  6
Continuous
 62
    30
100
AcDbText
 10
-22.49999999999999
 20
2217.399999976158
 30
0.0
 40
30.0
  1
60
 72
     1
 11
0.0000000000000142
 21
2217.399999976158
 31
0.0
100
AcDbText
  0
POINT
  5
3E9
330
70
100
AcDbEntity
  8
DEFPOINTS
  6
Continuous
 62
    30
100
AcDbPoint
 10
30.0
 20
1948.0
 30
0.0
  0
POINT
  5
3EA
330
70
100
AcDbEntity
  8
DEFPOINTS
  6
Continuous
 62
    30
100
AcDbPoint
 10
-30.0
 20
1948.0
 30
0.0
  0
POINT
  5
3EB
330
70
100
AcDbEntity
  8
DEFPOINTS
  6
Continuous
 62
    30
100
AcDbPoint
 10
-29.99999999999999
 20
2207.399999976158
 30
0.0
  0
LINE
  5
3EC
330
70
100
AcDbEntity
  8
SIZE
  6
Continuous
 62
    30
100
AcDbLine
 10
-225.0
 20
190.0
 30
0.0
 11
-225.0
 21
-360.1000000238419
 31
0.0
  0
LINE
  5
3ED
330
70
100
AcDbEntity
  8
SIZE
  6
Continuous
 62
    30
100
AcDbLine
 10
225.0
 20
190.0
 30
0.0
 11
225.0
 21
-360.1000000238419
 31
0.0
  0
LINE
  5
3EE
330
70
100
AcDbEntity
  8
SIZE
  6
Continuous
 62
    30
100
AcDbLine
 10
-215.0
 20
-347.6000000238418
 30
0.0
 11
215.0
 21
-347.6000000238418
 31
0.0
  0
CIRCLE
  5
3EF
330
70
100
AcDbEntity
  8
SIZE
  6
Continuous
 62
    30
100
AcDbCircle
 10
-225.0
 20
-347.6000000238418
 30
0.0
 40
5.0
  0
LINE
  5
3F0
330
70
100
AcDbEntity
  8
SIZE
  6
Continuous
 62
    30
100
AcDbLine
 10
-225.0
 20
-347.6000000238418
 30
0.0
 11
-215.0
 21
-347.6000000238418
 31
0.0
  0
CIRCLE
  5
3F1
330
70
100
AcDbEntity
  8
SIZE
  6
Continuous
 62
    30
100
AcDbCircle
 10
225.0
 20
-347.6000000238418
 30
0.0
 40
5.0
  0
LINE
  5
3F2
330
70
100
AcDbEntity
  8
SIZE
  6
Continuous
 62
    30
100
AcDbLine
 10
225.0
 20
-347.6000000238418
 30
0.0
 11
215.0
 21
-347.6000000238418
 31
0.0
  0
TEXT
  5
3F3
330
70
100
AcDbEntity
  8
SIZE
  6
Continuous
 62
    30
100
AcDbText
 10
-37.50000006119594
 20
-337.6000000238418
 30
0.0
 40
30.0
  1
450
 72
     1
 11
-0.0000000611959337
 21
-337.6000000238418
 31
0.0
100
AcDbText
  0
POINT
  5
3F4
330
70
100
AcDbEntity
  8
DEFPOINTS
  6
Continuous
 62
    30
100
AcDbPoint
 10
-225.0
 20
200.0
 30
0.0
  0
POINT
  5
3F5
330
70
100
AcDbEntity
  8
DEFPOINTS
  6
Continuous
 62
    30
100
AcDbPoint
 10
225.0
 20
200.0
 30
0.0
  0
POINT
  5
3F6
330
70
100
AcDbEntity
  8
DEFPOINTS
  6
Continuous
 62
    30
100
AcDbPoint
 10
225.0
 20
-347.6000000238418
 30
0.0
  0
LINE
  5
3F7
330
70
100
AcDbEntity
  8
SIZE
  6
Continuous
 62
    30
100
AcDbLine
 10
-215.0
 20
0.0000000000000028
 30
0.0
 11
-589.8999999761581
 21
0.000000000000109
 31
0.0
  0
LINE
  5
3F8
330
70
100
AcDbEntity
  8
SIZE
  6
Continuous
 62
    30
100
AcDbLine
 10
-235.0
 20
200.0
 30
0.0
 11
-589.8999999761581
 21
200.0000000000001
 31
0.0
  0
LINE
  5
3F9
330
70
100
AcDbEntity
  8
SIZE
  6
Continuous
 62
    30
100
AcDbLine
 10
-577.3999999761581
 20
10.0000000000001
 30
0.0
 11
-577.3999999761581
 21
190.0000000000001
 31
0.0
  0
CIRCLE
  5
3FA
330
70
100
AcDbEntity
  8
SIZE
  6
Continuous
 62
    30
100
AcDbCircle
 10
-577.3999999761581
 20
0.0000000000001055
 30
0.0
 40
5.0
  0
LINE
  5
3FB
330
70
100
AcDbEntity
  8
SIZE
  6
Continuous
 62
    30
100
AcDbLine
 10
-577.3999999761581
 20
0.0000000000001055
 30
0.0
 11
-577.3999999761581
 21
10.0000000000001
 31
0.0
  0
CIRCLE
  5
3FC
330
70
100
AcDbEntity
  8
SIZE
  6
Continuous
 62
    30
100
AcDbCircle
 10
-577.3999999761581
 20
200.0000000000001
 30
0.0
 40
5.0
  0
LINE
  5
3FD
330
70
100
AcDbEntity
  8
SIZE
  6
Continuous
 62
    30
100
AcDbLine
 10
-577.3999999761581
 20
200.0000000000001
 30
0.0
 11
-577.3999999761581
 21
190.0000000000001
 31
0.0
  0
TEXT
  5
3FE
330
70
100
AcDbEntity
  8
SIZE
  6
Continuous
 62
    30
100
AcDbText
 10
-587.3999999761581
 20
64.99999987760808
 30
0.0
 40
30.0
  1
200
 50
90.0
 72
     1
 11
-587.3999999761581
 21
99.99999987760809
 31
0.0
100
AcDbText
  0
POINT
  5
3FF
330
70
100
AcDbEntity
  8
DEFPOINTS
  6
Continuous
 62
    30
100
AcDbPoint
 10
-205.0
 20
0.0
 30
0.0
  0
POINT
  5
400
330
70
100
AcDbEntity
  8
DEFPOINTS
  6
Continuous
 62
    30
100
AcDbPoint
 10
-225.0
 20
200.0
 30
0.0
  0
POINT
  5
401
330
70
100
AcDbEntity
  8
DEFPOINTS
  6
Continuous
 62
    30
100
AcDbPoint
 10
-577.3999999761581
 20
200.0000000000001
 30
0.0
  0
LINE
  5
402
330
70
100
AcDbEntity
  8
SIZE
  6
Continuous
 62
    30
100
AcDbLine
 10
50.0
 20
170.0
 30
0.0
 11
49.99999999999998
 21
-160.1000000238419
 31
0.0
  0
LINE
  5
403
330
70
100
AcDbEntity
  8
SIZE
  6
Continuous
 62
    30
100
AcDbLine
 10
-0.0000000000000006
 20
-48.68780899047852
 30
0.0
 11
-0.0000000000000074
 21
-160.1000000238419
 31
0.0
  0
LINE
  5
404
330
70
100
AcDbEntity
  8
SIZE
  6
Continuous
 62
    30
100
AcDbLine
 10
39.99999999999998
 20
-147.6000000238419
 30
0.0
 11
9.999999999999991
 21
-147.6000000238419
 31
0.0
  0
CIRCLE
  5
405
330
70
100
AcDbEntity
  8
SIZE
  6
Continuous
 62
    30
100
AcDbCircle
 10
49.99999999999998
 20
-147.6000000238419
 30
0.0
 40
5.0
  0
LINE
  5
406
330
70
100
AcDbEntity
  8
SIZE
  6
Continuous
 62
    30
100
AcDbLine
 10
49.99999999999998
 20
-147.6000000238419
 30
0.0
 11
39.99999999999998
 21
-147.6000000238419
 31
0.0
  0
CIRCLE
  5
407
330
70
100
AcDbEntity
  8
SIZE
  6
Continuous
 62
    30
100
AcDbCircle
 10
-0.0000000000000067
 20
-147.6000000238419
 30
0.0
 40
5.0
  0
LINE
  5
408
330
70
100
AcDbEntity
  8
SIZE
  6
Continuous
 62
    30
100
AcDbLine
 10
-0.0000000000000067
 20
-147.6000000238419
 30
0.0
 11
9.999999999999992
 21
-147.6000000238419
 31
0.0
  0
TEXT
  5
409
330
70
100
AcDbEntity
  8
SIZE
  6
Continuous
 62
    30
100
AcDbText
 10
2.499999999999989
 20
-137.6000000238419
 30
0.0
 40
30.0
  1
50
 72
     1
 11
24.99999999999999
 21
-137.6000000238419
 31
0.0
100
AcDbText
  0
POINT
  5
40A
330
70
100
AcDbEntity
  8
DEFPOINTS
  6
Continuous
 62
    30
100
AcDbPoint
 10
50.0
 20
180.0
 30
0.0
  0
POINT
  5
40B
330
70
100
AcDbEntity
  8
DEFPOINTS
  6
Continuous
 62
    30
100
AcDbPoint
 10
0.0
 20
-38.68780899047852
 30
0.0
  0
POINT
  5
40C
330
70
100
AcDbEntity
  8
DEFPOINTS
  6
Continuous
 62
    30
100
AcDbPoint
 10
-0.0000000000000067
 20
-147.6000000238419
 30
0.0
  0
LINE
  5
40D
330
70
100
AcDbEntity
  8
SIZE
  6
Continuous
 62
    30
100
AcDbLine
 10
-138.0
 20
-30.0
 30
0.0
 11
-138.0
 21
-260.1000000238419
 31
0.0
  0
LINE
  5
40E
330
70
100
AcDbEntity
  8
SIZE
  6
Continuous
 62
    30
100
AcDbLine
 10
138.0
 20
-30.0
 30
0.0
 11
137.9999999999998
 21
-260.1000000238419
 31
0.0
  0
LINE
  5
40F
330
70
100
AcDbEntity
  8
SIZE
  6
Continuous
 62
    30
100
AcDbLine
 10
-128.0
 20
-247.6000000238419
 30
0.0
 11
128.0
 21
-247.6000000238419
 31
0.0
  0
CIRCLE
  5
410
330
70
100
AcDbEntity
  8
SIZE
  6
Continuous
 62
    30
100
AcDbCircle
 10
-138.0
 20
-247.6000000238419
 30
0.0
 40
5.0
  0
LINE
  5
411
330
70
100
AcDbEntity
  8
SIZE
  6
Continuous
 62
    30
100
AcDbLine
 10
-138.0
 20
-247.6000000238419
 30
0.0
 11
-128.0
 21
-247.6000000238419
 31
0.0
  0
CIRCLE
  5
412
330
70
100
AcDbEntity
  8
SIZE
  6
Continuous
 62
    30
100
AcDbCircle
 10
138.0
 20
-247.6000000238419
 30
0.0
 40
5.0
  0
LINE
  5
413
330
70
100
AcDbEntity
  8
SIZE
  6
Continuous
 62
    30
100
AcDbLine
 10
138.0
 20
-247.6000000238419
 30
0.0
 11
128.0
 21
-247.6000000238419
 31
0.0
  0
TEXT
  5
414
330
70
100
AcDbEntity
  8
SIZE
  6
Continuous
 62
    30
100
AcDbText
 10
-40.00000006119593
 20
-237.6000000238418
 30
0.0
 40
30.0
  1
276
 72
     1
 11
-0.0000000611959337
 21
-237.6000000238418
 31
0.0
100
AcDbText
  0
POINT
  5
415
330
70
100
AcDbEntity
  8
DEFPOINTS
  6
Continuous
 62
    30
100
AcDbPoint
 10
-138.0
 20
-20.0
 30
0.0
  0
POINT
  5
416
330
70
100
AcDbEntity
  8
DEFPOINTS
  6
Continuous
 62
    30
100
AcDbPoint
 10
138.0
 20
-20.0
 30
0.0
  0
POINT
  5
417
330
70
100
AcDbEntity
  8
DEFPOINTS
  6
Continuous
 62
    30
100
AcDbPoint
 10
138.0
 20
-247.6000000238419
 30
0.0
  0
LINE
  5
418
330
70
100
AcDbEntity
  8
SIZE
  6
Continuous
 62
    30
100
AcDbLine
 10
142.0
 20
130.0
 30
0.0
 11
141.9999999999998
 21
-160.1000000238419
 31
0.0
  0
LINE
  5
419
330
70
100
AcDbEntity
  8
SIZE
  6
Continuous
 62
    30
100
AcDbLine
 10
50.0
 20
170.0
 30
0.0
 11
49.99999999999998
 21
-160.1000000238419
 31
0.0
  0
LINE
  5
41A
330
70
100
AcDbEntity
  8
SIZE
  6
Continuous
 62
    30
100
AcDbLine
 10
132.0
 20
-147.6000000238419
 30
0.0
 11
59.99999999999998
 21
-147.6000000238419
 31
0.0
  0
CIRCLE
  5
41B
330
70
100
AcDbEntity
  8
SIZE
  6
Continuous
 62
    30
100
AcDbCircle
 10
141.9999999999998
 20
-147.6000000238419
 30
0.0
 40
5.0
  0
LINE
  5
41C
330
70
100
AcDbEntity
  8
SIZE
  6
Continuous
 62
    30
100
AcDbLine
 10
141.9999999999998
 20
-147.6000000238419
 30
0.0
 11
131.9999999999998
 21
-147.6000000238419
 31
0.0
  0
CIRCLE
  5
41D
330
70
100
AcDbEntity
  8
SIZE
  6
Continuous
 62
    30
100
AcDbCircle
 10
49.99999999999998
 20
-147.6000000238419
 30
0.0
 40
5.0
  0
LINE
  5
41E
330
70
100
AcDbEntity
  8
SIZE
  6
Continuous
 62
    30
100
AcDbLine
 10
49.99999999999998
 20
-147.6000000238419
 30
0.0
 11
59.99999999999998
 21
-147.6000000238419
 31
0.0
  0
TEXT
  5
41F
330
70
100
AcDbEntity
  8
SIZE
  6
Continuous
 62
    30
100
AcDbText
 10
90.12036126692899
 20
-137.6000000238419
 30
0.0
 40
30.0
  1
92
 72
     1
 11
115.120361266929
 21
-137.6000000238419
 31
0.0
100
AcDbText
  0
POINT
  5
420
330
70
100
AcDbEntity
  8
DEFPOINTS
  6
Continuous
 62
    30
100
AcDbPoint
 10
142.0
 20
140.0
 30
0.0
  0
POINT
  5
421
330
70
100
AcDbEntity
  8
DEFPOINTS
  6
Continuous
 62
    30
100
AcDbPoint
 10
50.0
 20
180.0
 30
0.0
  0
POINT
  5
422
330
70
100
AcDbEntity
  8
DEFPOINTS
  6
Continuous
 62
    30
100
AcDbPoint
 10
49.99999999999998
 20
-147.6000000238419
 30
0.0
  0
LINE
  5
423
330
70
100
AcDbEntity
  8
SIZE
  6
Continuous
 62
    30
100
AcDbLine
 10
0.0000000000000006
 20
-28.68780899047852
 30
0.0
 11
0.0000000000000217
 21
314.8999999761582
 31
0.0
  0
LINE
  5
424
330
70
100
AcDbEntity
  8
SIZE
  6
Continuous
 62
    30
100
AcDbLine
 10
142.0
 20
202.0
 30
0.0
 11
142.0
 21
314.8999999761582
 31
0.0
  0
LINE
  5
425
330
70
100
AcDbEntity
  8
SIZE
  6
Continuous
 62
    30
100
AcDbLine
 10
10.00000000000002
 20
302.3999999761582
 30
0.0
 11
132.0
 21
302.3999999761582
 31
0.0
  0
CIRCLE
  5
426
330
70
100
AcDbEntity
  8
SIZE
  6
Continuous
 62
    30
100
AcDbCircle
 10
0.0000000000000209
 20
302.3999999761582
 30
0.0
 40
5.0
  0
LINE
  5
427
330
70
100
AcDbEntity
  8
SIZE
  6
Continuous
 62
    30
100
AcDbLine
 10
0.0000000000000209
 20
302.3999999761582
 30
0.0
 11
10.00000000000002
 21
302.3999999761582
 31
0.0
  0
CIRCLE
  5
428
330
70
100
AcDbEntity
  8
SIZE
  6
Continuous
 62
    30
100
AcDbCircle
 10
142.0
 20
302.3999999761582
 30
0.0
 40
5.0
  0
LINE
  5
429
330
70
100
AcDbEntity
  8
SIZE
  6
Continuous
 62
    30
100
AcDbLine
 10
142.0
 20
302.3999999761582
 30
0.0
 11
132.0
 21
302.3999999761582
 31
0.0
  0
TEXT
  5
42A
330
70
100
AcDbEntity
  8
SIZE
  6
Continuous
 62
    30
100
AcDbText
 10
35.99999993880404
 20
312.3999999761582
 30
0.0
 40
30.0
  1
142
 72
     1
 11
70.99999993880404
 21
312.3999999761582
 31
0.0
100
AcDbText
  0
POINT
  5
42B
330
70
100
AcDbEntity
  8
DEFPOINTS
  6
Continuous
 62
    30
100
AcDbPoint
 10
0.0
 20
-38.68780899047852
 30
0.0
  0
POINT
  5
42C
330
70
100
AcDbEntity
  8
DEFPOINTS
  6
Continuous
 62
    30
100
AcDbPoint
 10
142.0
 20
192.0
 30
0.0
  0
POINT
  5
42D
330
70
100
AcDbEntity
  8
DEFPOINTS
  6
Continuous
 62
    30
100
AcDbPoint
 10
142.0
 20
302.3999999761582
 30
0.0
  0
LINE
  5
42E
330
70
100
AcDbEntity
  8
SIZE
  6
Continuous
 62
    30
100
AcDbLine
 10
50.0
 20
1950.0
 30
0.0
 11
785.1000000238419
 21
1950.0
 31
0.0
  0
LINE
  5
42F
330
70
100
AcDbEntity
  8
SIZE
  6
Continuous
 62
    30
100
AcDbLine
 10
180.0
 20
-0.0000000000000028
 30
0.0
 11
785.1000000238415
 21
-0.0000000000001742
 31
0.0
  0
LINE
  5
430
330
70
100
AcDbEntity
  8
SIZE
  6
Continuous
 62
    30
100
AcDbLine
 10
772.6000000238419
 20
1940.0
 30
0.0
 11
772.6000000238415
 21
9.999999999999827
 31
0.0
  0
CIRCLE
  5
431
330
70
100
AcDbEntity
  8
SIZE
  6
Continuous
 62
    30
100
AcDbCircle
 10
772.6000000238419
 20
1950.0
 30
0.0
 40
5.0
  0
LINE
  5
432
330
70
100
AcDbEntity
  8
SIZE
  6
Continuous
 62
    30
100
AcDbLine
 10
772.6000000238419
 20
1950.0
 30
0.0
 11
772.6000000238419
 21
1940.0
 31
0.0
  0
CIRCLE
  5
433
330
70
100
AcDbEntity
  8
SIZE
  6
Continuous
 62
    30
100
AcDbCircle
 10
772.6000000238415
 20
-0.0000000000001707
 30
0.0
 40
5.0
  0
LINE
  5
434
330
70
100
AcDbEntity
  8
SIZE
  6
Continuous
 62
    30
100
AcDbLine
 10
772.6000000238415
 20
-0.0000000000001707
 30
0.0
 11
772.6000000238415
 21
9.999999999999827
 31
0.0
  0
TEXT
  5
435
330
70
100
AcDbEntity
  8
SIZE
  6
Continuous
 62
    30
100
AcDbText
 10
762.6000000238417
 20
927.4999998776079
 30
0.0
 40
30.0
  1
1950
 50
90.0
 72
     1
 11
762.6000000238417
 21
974.9999998776081
 31
0.0
100
AcDbText
  0
POINT
  5
436
330
70
100
AcDbEntity
  8
DEFPOINTS
  6
Continuous
 62
    30
100
AcDbPoint
 10
40.0
 20
1950.0
 30
0.0
  0
POINT
  5
437
330
70
100
AcDbEntity
  8
DEFPOINTS
  6
Continuous
 62
    30
100
AcDbPoint
 10
170.0
 20
0.0
 30
0.0
  0
POINT
  5
438
330
70
100
AcDbEntity
  8
DEFPOINTS
  6
Continuous
 62
    30
100
AcDbPoint
 10
772.6000000238415
 20
-0.0000000000001707
 30
0.0
  0
LINE
  5
439
330
70
100
AcDbEntity
  8
SIZE
  6
Continuous
 62
    30
100
AcDbLine
 10
-180.0
 20
0.0000000000000028
 30
0.0
 11
-689.8999999761585
 21
0.0000000000001473
 31
0.0
  0
LINE
  5
43A
330
70
100
AcDbEntity
  8
SIZE
  6
Continuous
 62
    30
100
AcDbLine
 10
-235.0
 20
1905.0
 30
0.0
 11
-689.8999999761577
 21
1905.0
 31
0.0
  0
LINE
  5
43B
330
70
100
AcDbEntity
  8
SIZE
  6
Continuous
 62
    30
100
AcDbLine
 10
-677.3999999761583
 20
10.00000000000014
 30
0.0
 11
-677.3999999761578
 21
1895.0
 31
0.0
  0
CIRCLE
  5
43C
330
70
100
AcDbEntity
  8
SIZE
  6
Continuous
 62
    30
100
AcDbCircle
 10
-677.3999999761583
 20
0.0000000000001437
 30
0.0
 40
5.0
  0
LINE
  5
43D
330
70
100
AcDbEntity
  8
SIZE
  6
Continuous
 62
    30
100
AcDbLine
 10
-677.3999999761583
 20
0.0000000000001437
 30
0.0
 11
-677.3999999761583
 21
10.00000000000014
 31
0.0
  0
CIRCLE
  5
43E
330
70
100
AcDbEntity
  8
SIZE
  6
Continuous
 62
    30
100
AcDbCircle
 10
-677.3999999761578
 20
1905.0
 30
0.0
 40
5.0
  0
LINE
  5
43F
330
70
100
AcDbEntity
  8
SIZE
  6
Continuous
 62
    30
100
AcDbLine
 10
-677.3999999761578
 20
1905.0
 30
0.0
 11
-677.3999999761578
 21
1895.0
 31
0.0
  0
TEXT
  5
440
330
70
100
AcDbEntity
  8
SIZE
  6
Continuous
 62
    30
100
AcDbText
 10
-687.3999999761581
 20
904.999999877608
 30
0.0
 40
30.0
  1
1905
 50
90.0
 72
     1
 11
-687.3999999761581
 21
952.4999998776079
 31
0.0
100
AcDbText
  0
POINT
  5
441
330
70
100
AcDbEntity
  8
DEFPOINTS
  6
Continuous
 62
    30
100
AcDbPoint
 10
-170.0
 20
0.0
 30
0.0
  0
POINT
  5
442
330
70
100
AcDbEntity
  8
DEFPOINTS
  6
Continuous
 62
    30
100
AcDbPoint
 10
-225.0
 20
1905.0
 30
0.0
  0
POINT
  5
443
330
70
100
AcDbEntity
  8
DEFPOINTS
  6
Continuous
 62
    30
100
AcDbPoint
 10
-677.3999999761578
 20
1905.0
 30
0.0
  0
LINE
  5
444
330
70
100
AcDbEntity
  8
SIZE
  6
Continuous
 62
    30
100
AcDbLine
 10
112.0
 20
160.0
 30
0.0
 11
-389.8999999761581
 21
160.0000000000001
 31
0.0
  0
LINE
  5
445
330
70
100
AcDbEntity
  8
SIZE
  6
Continuous
 62
    30
100
AcDbLine
 10
-180.0
 20
0.0000000000000028
 30
0.0
 11
-389.8999999761581
 21
0.0000000000000623
 31
0.0
  0
LINE
  5
446
330
70
100
AcDbEntity
  8
SIZE
  6
Continuous
 62
    30
100
AcDbLine
 10
-377.3999999761581
 20
150.0000000000001
 30
0.0
 11
-377.3999999761581
 21
10.00000000000006
 31
0.0
  0
CIRCLE
  5
447
330
70
100
AcDbEntity
  8
SIZE
  6
Continuous
 62
    30
100
AcDbCircle
 10
-377.3999999761581
 20
160.0000000000001
 30
0.0
 40
5.0
  0
LINE
  5
448
330
70
100
AcDbEntity
  8
SIZE
  6
Continuous
 62
    30
100
AcDbLine
 10
-377.3999999761581
 20
160.0000000000001
 30
0.0
 11
-377.3999999761581
 21
150.0000000000001
 31
0.0
  0
CIRCLE
  5
449
330
70
100
AcDbEntity
  8
SIZE
  6
Continuous
 62
    30
100
AcDbCircle
 10
-377.3999999761581
 20
0.0000000000000588
 30
0.0
 40
5.0
  0
LINE
  5
44A
330
70
100
AcDbEntity
  8
SIZE
  6
Continuous
 62
    30
100
AcDbLine
 10
-377.3999999761581
 20
0.0000000000000588
 30
0.0
 11
-377.3999999761581
 21
10.00000000000006
 31
0.0
  0
TEXT
  5
44B
330
70
100
AcDbEntity
  8
SIZE
  6
Continuous
 62
    30
100
AcDbText
 10
-387.3999999761581
 20
47.49999987760809
 30
0.0
 40
30.0
  1
160
 50
90.0
 72
     1
 11
-387.3999999761581
 21
79.99999987760809
 31
0.0
100
AcDbText
  0
POINT
  5
44C
330
70
100
AcDbEntity
  8
DEFPOINTS
  6
Continuous
 62
    30
100
AcDbPoint
 10
122.0
 20
160.0
 30
0.0
  0
POINT
  5
44D
330
70
100
AcDbEntity
  8
DEFPOINTS
  6
Continuous
 62
    30
100
AcDbPoint
 10
-170.0
 20
0.0
 30
0.0
  0
POINT
  5
44E
330
70
100
AcDbEntity
  8
DEFPOINTS
  6
Continuous
 62
    30
100
AcDbPoint
 10
-377.3999999761581
 20
0.0000000000000588
 30
0.0
  0
LINE
  5
44F
330
70
100
AcDbEntity
  8
SIZE
  6
Continuous
 62
    30
100
AcDbLine
 10
-180.0
 20
0.0000000000000028
 30
0.0
 11
-489.899999976158
 21
0.0000000000000906
 31
0.0
  0
LINE
  5
450
330
70
100
AcDbEntity
  8
SIZE
  6
Continuous
 62
    30
100
AcDbLine
 10
112.0
 20
172.0
 30
0.0
 11
-489.8999999761579
 21
172.0000000000001
 31
0.0
  0
LINE
  5
451
330
70
100
AcDbEntity
  8
SIZE
  6
Continuous
 62
    30
100
AcDbLine
 10
-477.399999976158
 20
10.00000000000008
 30
0.0
 11
-477.3999999761579
 21
162.0000000000001
 31
0.0
  0
CIRCLE
  5
452
330
70
100
AcDbEntity
  8
SIZE
  6
Continuous
 62
    30
100
AcDbCircle
 10
-477.399999976158
 20
0.0000000000000871
 30
0.0
 40
5.0
  0
LINE
  5
453
330
70
100
AcDbEntity
  8
SIZE
  6
Continuous
 62
    30
100
AcDbLine
 10
-477.399999976158
 20
0.0000000000000871
 30
0.0
 11
-477.399999976158
 21
10.00000000000009
 31
0.0
  0
CIRCLE
  5
454
330
70
100
AcDbEntity
  8
SIZE
  6
Continuous
 62
    30
100
AcDbCircle
 10
-477.3999999761579
 20
172.0000000000001
 30
0.0
 40
5.0
  0
LINE
  5
455
330
70
100
AcDbEntity
  8
SIZE
  6
Continuous
 62
    30
100
AcDbLine
 10
-477.3999999761579
 20
172.0000000000001
 30
0.0
 11
-477.3999999761579
 21
162.0000000000001
 31
0.0
  0
TEXT
  5
456
330
70
100
AcDbEntity
  8
SIZE
  6
Continuous
 62
    30
100
AcDbText
 10
-487.3999999761579
 20
50.99999987760807
 30
0.0
 40
30.0
  1
172
 50
90.0
 72
     1
 11
-487.3999999761579
 21
85.99999987760808
 31
0.0
100
AcDbText
  0
POINT
  5
457
330
70
100
AcDbEntity
  8
DEFPOINTS
  6
Continuous
 62
    30
100
AcDbPoint
 10
-170.0
 20
0.0
 30
0.0
  0
POINT
  5
458
330
70
100
AcDbEntity
  8
DEFPOINTS
  6
Continuous
 62
    30
100
AcDbPoint
 10
122.0
 20
172.0
 30
0.0
  0
POINT
  5
459
330
70
100
AcDbEntity
  8
DEFPOINTS
  6
Continuous
 62
    30
100
AcDbPoint
 10
-477.3999999761579
 20
172.0000000000001
 30
0.0
  0
LINE
  5
45A
330
70
100
AcDbEntity
  8
SIZE
  6
Continuous
 62
    30
100
AcDbLine
 10
180.0
 20
-0.0000000000000028
 30
0.0
 11
585.1000000238419
 21
-0.0000000000001176
 31
0.0
  0
LINE
  5
45B
330
70
100
AcDbEntity
  8
SIZE
  6
Continuous
 62
    30
100
AcDbLine
 10
134.0
 20
1059.0
 30
0.0
 11
585.1000000238419
 21
1059.0
 31
0.0
  0
LINE
  5
45C
330
70
100
AcDbEntity
  8
SIZE
  6
Continuous
 62
    30
100
AcDbLine
 10
572.6000000238419
 20
9.999999999999884
 30
0.0
 11
572.6000000238419
 21
1049.0
 31
0.0
  0
CIRCLE
  5
45D
330
70
100
AcDbEntity
  8
SIZE
  6
Continuous
 62
    30
100
AcDbCircle
 10
572.6000000238419
 20
-0.000000000000114
 30
0.0
 40
5.0
  0
LINE
  5
45E
330
70
100
AcDbEntity
  8
SIZE
  6
Continuous
 62
    30
100
AcDbLine
 10
572.6000000238419
 20
-0.000000000000114
 30
0.0
 11
572.6000000238419
 21
9.999999999999886
 31
0.0
  0
CIRCLE
  5
45F
330
70
100
AcDbEntity
  8
SIZE
  6
Continuous
 62
    30
100
AcDbCircle
 10
572.6000000238419
 20
1059.0
 30
0.0
 40
5.0
  0
LINE
  5
460
330
70
100
AcDbEntity
  8
SIZE
  6
Continuous
 62
    30
100
AcDbLine
 10
572.6000000238419
 20
1059.0
 30
0.0
 11
572.6000000238419
 21
1049.0
 31
0.0
  0
TEXT
  5
461
330
70
100
AcDbEntity
  8
SIZE
  6
Continuous
 62
    30
100
AcDbText
 10
562.6000000238417
 20
481.9999998776081
 30
0.0
 40
30.0
  1
1059
 50
90.0
 72
     1
 11
562.6000000238417
 21
529.4999998776082
 31
0.0
100
AcDbText
  0
POINT
  5
462
330
70
100
AcDbEntity
  8
DEFPOINTS
  6
Continuous
 62
    30
100
AcDbPoint
 10
170.0
 20
0.0
 30
0.0
  0
POINT
  5
463
330
70
100
AcDbEntity
  8
DEFPOINTS
  6
Continuous
 62
    30
100
AcDbPoint
 10
124.0
 20
1059.0
 30
0.0
  0
POINT
  5
464
330
70
100
AcDbEntity
  8
DEFPOINTS
  6
Continuous
 62
    30
100
AcDbPoint
 10
572.6000000238419
 20
1059.0
 30
0.0
  0
LINE
  5
465
330
70
100
AcDbEntity
  8
SIZE
  6
Continuous
 62
    30
100
AcDbLine
 10
104.0
 20
1029.0
 30
0.0
 11
104.0
 21
750.7099364995955
 31
0.0
  0
LINE
  5
466
330
70
100
AcDbEntity
  8
SIZE
  6
Continuous
 62
    30
100
AcDbLine
 10
0.0000000000000006
 20
-28.68780899047852
 30
0.0
 11
0.0000000000000499
 21
775.7099364995955
 31
0.0
  0
LINE
  5
467
330
70
100
AcDbEntity
  8
SIZE
  6
Continuous
 62
    30
100
AcDbLine
 10
93.99999999999998
 20
763.2099364995955
 30
0.0
 11
10.00000000000005
 21
763.2099364995955
 31
0.0
  0
CIRCLE
  5
468
330
70
100
AcDbEntity
  8
SIZE
  6
Continuous
 62
    30
100
AcDbCircle
 10
104.0
 20
763.2099364995955
 30
0.0
 40
5.0
  0
LINE
  5
469
330
70
100
AcDbEntity
  8
SIZE
  6
Continuous
 62
    30
100
AcDbLine
 10
104.0
 20
763.2099364995955
 30
0.0
 11
94.0
 21
763.2099364995955
 31
0.0
  0
CIRCLE
  5
46A
330
70
100
AcDbEntity
  8
SIZE
  6
Continuous
 62
    30
100
AcDbCircle
 10
0.0000000000000491
 20
763.2099364995955
 30
0.0
 40
5.0
  0
LINE
  5
46B
330
70
100
AcDbEntity
  8
SIZE
  6
Continuous
 62
    30
100
AcDbLine
 10
0.0000000000000491
 20
763.2099364995955
 30
0.0
 11
10.00000000000005
 21
763.2099364995955
 31
0.0
  0
TEXT
  5
46C
330
70
100
AcDbEntity
  8
SIZE
  6
Continuous
 62
    30
100
AcDbText
 10
19.49999993880403
 20
773.2099364995955
 30
0.0
 40
30.0
  1
104
 72
     1
 11
51.99999993880403
 21
773.2099364995955
 31
0.0
100
AcDbText
  0
POINT
  5
46D
330
70
100
AcDbEntity
  8
DEFPOINTS
  6
Continuous
 62
    30
100
AcDbPoint
 10
104.0
 20
1039.0
 30
0.0
  0
POINT
  5
46E
330
70
100
AcDbEntity
  8
DEFPOINTS
  6
Continuous
 62
    30
100
AcDbPoint
 10
0.0
 20
-38.68780899047852
 30
0.0
  0
POINT
  5
46F
330
70
100
AcDbEntity
  8
DEFPOINTS
  6
Continuous
 62
    30
100
AcDbPoint
 10
0.0000000000000491
 20
763.2099364995955
 30
0.0
  0
LINE
  5
470
330
70
100
AcDbEntity
  8
SIZE
  6
Continuous
 62
    30
100
AcDbLine
 10
-0.0000000000000006
 20
-48.68780899047852
 30
0.0
 11
-0.0000000000000074
 21
-160.1000000238419
 31
0.0
  0
LINE
  5
471
330
70
100
AcDbEntity
  8
SIZE
  6
Continuous
 62
    30
100
AcDbLine
 10
-128.0
 20
170.0
 30
0.0
 11
-128.0
 21
-160.1000000238419
 31
0.0
  0
LINE
  5
472
330
70
100
AcDbEntity
  8
SIZE
  6
Continuous
 62
    30
100
AcDbLine
 10
-10.0
 20
-147.6000000238419
 30
0.0
 11
-118.0
 21
-147.6000000238419
 31
0.0
  0
CIRCLE
  5
473
330
70
100
AcDbEntity
  8
SIZE
  6
Continuous
 62
    30
100
AcDbCircle
 10
-0.0000000000000067
 20
-147.6000000238419
 30
0.0
 40
5.0
  0
LINE
  5
474
330
70
100
AcDbEntity
  8
SIZE
  6
Continuous
 62
    30
100
AcDbLine
 10
-0.0000000000000067
 20
-147.6000000238419
 30
0.0
 11
-10.00000000000001
 21
-147.6000000238419
 31
0.0
  0
CIRCLE
  5
475
330
70
100
AcDbEntity
  8
SIZE
  6
Continuous
 62
    30
100
AcDbCircle
 10
-128.0
 20
-147.6000000238419
 30
0.0
 40
5.0
  0
LINE
  5
476
330
70
100
AcDbEntity
  8
SIZE
  6
Continuous
 62
    30
100
AcDbLine
 10
-128.0
 20
-147.6000000238419
 30
0.0
 11
-118.0
 21
-147.6000000238419
 31
0.0
  0
TEXT
  5
477
330
70
100
AcDbEntity
  8
SIZE
  6
Continuous
 62
    30
100
AcDbText
 10
-99.00000006119594
 20
-137.6000000238419
 30
0.0
 40
30.0
  1
128
 72
     1
 11
-64.00000006119594
 21
-137.6000000238419
 31
0.0
100
AcDbText
  0
POINT
  5
478
330
70
100
AcDbEntity
  8
DEFPOINTS
  6
Continuous
 62
    30
100
AcDbPoint
 10
0.0
 20
-38.68780899047852
 30
0.0
  0
POINT
  5
479
330
70
100
AcDbEntity
  8
DEFPOINTS
  6
Continuous
 62
    30
100
AcDbPoint
 10
-128.0
 20
180.0
 30
0.0
  0
POINT
  5
47A
330
70
100
AcDbEntity
  8
DEFPOINTS
  6
Continuous
 62
    30
100
AcDbPoint
 10
-128.0
 20
-147.6000000238419
 30
0.0
  0
LINE
  5
47B
330
70
100
AcDbEntity
  8
SIZE
  6
Continuous
 62
    30
100
AcDbLine
 10
-179.5
 20
170.0
 30
0.0
 11
-179.5
 21
-160.1000000238419
 31
0.0
  0
LINE
  5
47C
330
70
100
AcDbEntity
  8
SIZE
  6
Continuous
 62
    30
100
AcDbLine
 10
-128.0
 20
170.0
 30
0.0
 11
-128.0
 21
-160.1000000238419
 31
0.0
  0
LINE
  5
47D
330
70
100
AcDbEntity
  8
SIZE
  6
Continuous
 62
    30
100
AcDbLine
 10
-169.5
 20
-147.6000000238419
 30
0.0
 11
-138.0
 21
-147.6000000238419
 31
0.0
  0
CIRCLE
  5
47E
330
70
100
AcDbEntity
  8
SIZE
  6
Continuous
 62
    30
100
AcDbCircle
 10
-179.5
 20
-147.6000000238419
 30
0.0
 40
5.0
  0
LINE
  5
47F
330
70
100
AcDbEntity
  8
SIZE
  6
Continuous
 62
    30
100
AcDbLine
 10
-179.5
 20
-147.6000000238419
 30
0.0
 11
-169.5
 21
-147.6000000238419
 31
0.0
  0
CIRCLE
  5
480
330
70
100
AcDbEntity
  8
SIZE
  6
Continuous
 62
    30
100
AcDbCircle
 10
-128.0
 20
-147.6000000238419
 30
0.0
 40
5.0
  0
LINE
  5
481
330
70
100
AcDbEntity
  8
SIZE
  6
Continuous
 62
    30
100
AcDbLine
 10
-128.0
 20
-147.6000000238419
 30
0.0
 11
-138.0
 21
-147.6000000238419
 31
0.0
  0
TEXT
  5
482
330
70
100
AcDbEntity
  8
SIZE
  6
Continuous
 62
    30
100
AcDbText
 10
-178.75
 20
-137.6000000238419
 30
0.0
 40
30.0
  1
52
 72
     1
 11
-153.75
 21
-137.6000000238419
 31
0.0
100
AcDbText
  0
POINT
  5
483
330
70
100
AcDbEntity
  8
DEFPOINTS
  6
Continuous
 62
    30
100
AcDbPoint
 10
-179.5
 20
180.0
 30
0.0
  0
POINT
  5
484
330
70
100
AcDbEntity
  8
DEFPOINTS
  6
Continuous
 62
    30
100
AcDbPoint
 10
-128.0
 20
180.0
 30
0.0
  0
POINT
  5
485
330
70
100
AcDbEntity
  8
DEFPOINTS
  6
Continuous
 62
    30
100
AcDbPoint
 10
-128.0
 20
-147.6000000238419
 30
0.0
  0
TEXT
  5
486
330
70
100
AcDbEntity
  8
NOTE
  6
Continuous
100
AcDbText
 10
-626.7816772460937
 20
1911.13818359375
 30
0.0
 40
40.0
  1
メンテナンススペース
 50
90.00000500895634
 41
0.84375
  7
STANDARD1
100
AcDbText
  0
TEXT
  5
487
330
70
100
AcDbEntity
  8
NOTE
  6
Continuous
100
AcDbText
 10
-199.2392578125
 20
2405.358642578125
 30
0.0
 40
40.0
  1
メンテナンススペース
 50
0.000002504478167
 41
0.84375
  7
STANDARD1
100
AcDbText
  0
LINE
  5
488
330
70
100
AcDbEntity
  8
NOTE
  6
Continuous
100
AcDbLine
 10
-159.4999999999997
 20
200.0
 30
0.0
 11
-199.4999999999997
 21
200.0
 31
0.0
  0
LINE
  5
489
330
70
100
AcDbEntity
  8
NOTE
  6
Continuous
100
AcDbLine
 10
-107.9999999999998
 20
200.0
 30
0.0
 11
-147.9999999999997
 21
200.0
 31
0.0
  0
LINE
  5
48A
330
70
100
AcDbEntity
  8
NOTE
  6
Continuous
100
AcDbLine
 10
70.00000000000023
 20
200.0
 30
0.0
 11
30.00000000000023
 21
200.0
 31
0.0
  0
LINE
  5
48B
330
70
100
AcDbEntity
  8
NOTE
  6
Continuous
100
AcDbLine
 10
-179.4999999999997
 20
180.0
 30
0.0
 11
-179.4999999999997
 21
220.0
 31
0.0
  0
LINE
  5
48C
330
70
100
AcDbEntity
  8
NOTE
  6
Continuous
100
AcDbLine
 10
-127.9999999999998
 20
220.0
 30
0.0
 11
-127.9999999999998
 21
180.0
 31
0.0
  0
LINE
  5
48D
330
70
100
AcDbEntity
  8
NOTE
  6
Continuous
100
AcDbLine
 10
50.00000000000023
 20
220.0
 30
0.0
 11
50.00000000000023
 21
180.0
 31
0.0
  0
LINE
  5
48E
330
70
100
AcDbEntity
  8
NOTE
  6
Continuous
100
AcDbLine
 10
-118.0
 20
0.0
 30
0.0
 11
-158.0
 21
0.0
 31
0.0
  0
LINE
  5
48F
330
70
100
AcDbEntity
  8
NOTE
  6
Continuous
100
AcDbLine
 10
-138.0
 20
20.0
 30
0.0
 11
-138.0
 21
-20.0
 31
0.0
  0
LINE
  5
490
330
70
100
AcDbEntity
  8
NOTE
  6
Continuous
100
AcDbLine
 10
20.0
 20
0.0
 30
0.0
 11
-20.0
 21
0.0
 31
0.0
  0
LINE
  5
491
330
70
100
AcDbEntity
  8
NOTE
  6
Continuous
100
AcDbLine
 10
0.0
 20
-20.0
 30
0.0
 11
0.0
 21
20.0
 31
0.0
  0
LINE
  5
492
330
70
100
AcDbEntity
  8
NOTE
  6
Continuous
100
AcDbLine
 10
158.0
 20
0.0
 30
0.0
 11
118.0
 21
0.0
 31
0.0
  0
LINE
  5
493
330
70
100
AcDbEntity
  8
NOTE
  6
Continuous
100
AcDbLine
 10
138.0
 20
20.0
 30
0.0
 11
138.0
 21
-20.0
 31
0.0
  0
LINE
  5
494
330
70
100
AcDbEntity
  8
NOTE
  6
Continuous
100
AcDbLine
 10
-10.0
 20
1928.0
 30
0.0
 11
-50.0
 21
1928.0
 31
0.0
  0
LINE
  5
495
330
70
100
AcDbEntity
  8
NOTE
  6
Continuous
100
AcDbLine
 10
-30.0
 20
1948.0
 30
0.0
 11
-30.0
 21
1908.0
 31
0.0
  0
LINE
  5
496
330
70
100
AcDbEntity
  8
NOTE
  6
Continuous
100
AcDbLine
 10
50.0
 20
1928.0
 30
0.0
 11
10.0
 21
1928.0
 31
0.0
  0
LINE
  5
497
330
70
100
AcDbEntity
  8
NOTE
  6
Continuous
100
AcDbLine
 10
30.0
 20
1948.0
 30
0.0
 11
30.0
 21
1908.0
 31
0.0
  0
LINE
  5
498
330
70
100
AcDbEntity
  8
NOTE
  6
Continuous
100
AcDbLine
 10
-20.0
 20
200.0
 30
0.0
 11
20.0
 21
200.0
 31
0.0
  0
LINE
  5
499
330
70
100
AcDbEntity
  8
NOTE
  6
Continuous
100
AcDbLine
 10
0.0
 20
180.0
 30
0.0
 11
0.0
 21
220.0
 31
0.0
  0
LINE
  5
49A
330
70
100
AcDbEntity
  8
NOTE
  6
Continuous
100
AcDbLine
 10
162.0000000000002
 20
159.9999999999998
 30
0.0
 11
122.0000000000002
 21
159.9999999999998
 31
0.0
  0
LINE
  5
49B
330
70
100
AcDbEntity
  8
NOTE
  6
Continuous
100
AcDbLine
 10
162.0000000000002
 20
171.9999999999998
 30
0.0
 11
122.0000000000002
 21
171.9999999999998
 31
0.0
  0
LINE
  5
49C
330
70
100
AcDbEntity
  8
NOTE
  6
Continuous
100
AcDbLine
 10
142.0000000000002
 20
152.4999999999998
 30
0.0
 11
142.0000000000002
 21
191.9999999999998
 31
0.0
  0
LINE
  5
49D
330
70
100
AcDbEntity
  8
NOTE
  6
Continuous
100
AcDbLine
 10
142.0000000000002
 20
139.9999999999998
 30
0.0
 11
142.0000000000002
 21
179.9999999999998
 31
0.0
  0
TEXT
  5
49E
330
70
100
AcDbEntity
  8
NOTE
  6
Continuous
100
AcDbText
 10
427.5184631347656
 20
2302.817138671875
 30
0.0
 40
40.0
  1
（同梱部品）
 50
0.000002504478167
 41
0.8125
  7
STANDARD1
100
AcDbText
  0
LINE
  5
49F
330
70
100
AcDbEntity
  8
NOTE
  6
Continuous
100
AcDbLine
 10
528.75
 20
2205.0
 30
0.0
 11
272.5
 21
2205.0
 31
0.0
  0
LINE
  5
4A0
330
70
100
AcDbEntity
  8
NOTE
  6
Continuous
100
AcDbLine
 10
272.5
 20
2205.0
 30
0.0
 11
30.0
 21
1928.0
 31
0.0
  0
LINE
  5
4A1
330
70
100
AcDbEntity
  8
NOTE
  6
Continuous
100
AcDbLine
 10
30.0
 20
1928.0
 30
0.0
 11
30.88302941069737
 21
1929.794508027244
 31
0.0
  0
LINE
  5
4A2
330
70
100
AcDbEntity
  8
NOTE
  6
Continuous
100
AcDbLine
 10
30.0
 20
1928.0
 30
0.0
 11
31.6619799317855
 21
1929.112574809324
 31
0.0
  0
TEXT
  5
4A3
330
70
100
AcDbEntity
  8
NOTE
  6
Continuous
100
AcDbText
 10
333.25
 20
2206.0
 30
0.0
 40
40.0
  1
AH 2-M10
 50
0.000002504478167
 41
0.6447368672019561
  7
STANDARD1
100
AcDbText
  0
LINE
  5
4A4
330
70
100
AcDbEntity
  8
NOTE
  6
Continuous
100
AcDbLine
 10
656.7499999999999
 20
2355.0
 30
0.0
 11
272.5
 21
2355.0
 31
0.0
  0
LINE
  5
4A5
330
70
100
AcDbEntity
  8
NOTE
  6
Continuous
100
AcDbLine
 10
272.5
 20
2355.0
 30
0.0
 11
10.0
 21
1950.0
 31
0.0
  0
LINE
  5
4A6
330
70
100
AcDbEntity
  8
NOTE
  6
Continuous
100
AcDbLine
 10
10.0
 20
1950.0
 30
0.0
 11
10.61634776890949
 21
1951.902660092544
 31
0.0
  0
LINE
  5
4A7
330
70
100
AcDbEntity
  8
NOTE
  6
Continuous
100
AcDbLine
 10
10.0
 20
1950.0
 30
0.0
 11
11.48510289123185
 21
1951.339578068816
 31
0.0
  0
TEXT
  5
4A8
330
70
100
AcDbEntity
  8
NOTE
  6
Continuous
100
AcDbText
 10
333.25
 20
2356.0
 30
0.0
 40
40.0
  1
上部振れ止め金具
 50
0.000002504478167
 41
0.84375
  7
STANDARD1
100
AcDbText
  0
TEXT
  5
4A9
330
70
100
AcDbEntity
  8
NOTE
  6
Continuous
100
AcDbText
 10
-874.0336303710938
 20
-405.1300048828125
 30
0.0
 40
40.0
  1
［3-脚固定金具（同梱部品）］
 50
0.000002504478167
 41
0.7900568206201899
  7
STANDARD1
100
AcDbText
  0
LINE
  5
4AA
330
70
100
AcDbEntity
  8
NOTE
  6
Continuous
100
AcDbLine
 10
-602.3751831054688
 20
-350.0
 30
0.0
 11
-346.1251831054688
 21
-350.0
 31
0.0
  0
LINE
  5
4AB
330
70
100
AcDbEntity
  8
NOTE
  6
Continuous
100
AcDbLine
 10
-346.1251831054688
 20
-350.0
 30
0.0
 11
-138.0
 21
0.0
 31
0.0
  0
LINE
  5
4AC
330
70
100
AcDbEntity
  8
NOTE
  6
Continuous
100
AcDbLine
 10
-138.0
 20
0.0
 30
0.0
 11
-138.5424626953742
 21
-1.925028369694151
 31
0.0
  0
LINE
  5
4AD
330
70
100
AcDbEntity
  8
NOTE
  6
Continuous
100
AcDbLine
 10
-138.0
 20
0.0
 30
0.0
 11
-139.4323006799853
 21
-1.395892102604469
 31
0.0
  0
TEXT
  5
4AE
330
70
100
AcDbEntity
  8
NOTE
  6
Continuous
100
AcDbText
 10
-602.3751831054688
 20
-349.0
 30
0.0
 40
40.0
  1
AH 3-M10
 50
0.000002504478167
 41
0.6447368672019561
  7
STANDARD1
100
AcDbText
  0
LINE
  5
4AF
330
70
100
AcDbEntity
  8
NOTE
  6
Continuous
100
AcDbLine
 10
-598.3751831054687
 20
-250.0
 30
0.0
 11
-375.1251831054688
 21
-250.0
 31
0.0
  0
LINE
  5
4B0
330
70
100
AcDbEntity
  8
NOTE
  6
Continuous
100
AcDbLine
 10
-375.1251831054688
 20
-250.0
 30
0.0
 11
-128.0
 21
200.0
 31
0.0
  0
LINE
  5
4B1
330
70
100
AcDbEntity
  8
NOTE
  6
Continuous
100
AcDbLine
 10
-128.0
 20
200.0
 30
0.0
 11
-128.476190265044
 21
198.0575163240126
 31
0.0
  0
LINE
  5
4B2
330
70
100
AcDbEntity
  8
NOTE
  6
Continuous
100
AcDbLine
 10
-128.0
 20
200.0
 30
0.0
 11
-129.3836347255985
 21
198.5558549428406
 31
0.0
  0
TEXT
  5
4B3
330
70
100
AcDbEntity
  8
NOTE
  6
Continuous
100
AcDbText
 10
-598.3751831054687
 20
-249.0
 30
0.0
 40
40.0
  1
CW φ39
 50
0.000002504478167
 41
0.7025862274498779
  7
STANDARD1
100
AcDbText
  0
LINE
  5
4B4
330
70
100
AcDbEntity
  8
NOTE
  6
Continuous
100
AcDbLine
 10
-610.3751831054687
 20
-150.0
 30
0.0
 11
-387.1251831054688
 21
-150.0
 31
0.0
  0
LINE
  5
4B5
330
70
100
AcDbEntity
  8
NOTE
  6
Continuous
100
AcDbLine
 10
-387.1251831054688
 20
-150.0
 30
0.0
 11
-179.5
 21
200.0
 31
0.0
  0
LINE
  5
4B6
330
70
100
AcDbEntity
  8
NOTE
  6
Continuous
100
AcDbLine
 10
-179.5
 20
200.0
 30
0.0
 11
-180.04042947
 21
198.0743998369455
 31
0.0
  0
LINE
  5
4B7
330
70
100
AcDbEntity
  8
NOTE
  6
Continuous
100
AcDbLine
 10
-179.5
 20
200.0
 30
0.0
 11
-180.9308257518619
 21
198.6025960971112
 31
0.0
  0
TEXT
  5
4B8
330
70
100
AcDbEntity
  8
NOTE
  6
Continuous
100
AcDbText
 10
-610.3751831054687
 20
-149.0
 30
0.0
 40
40.0
  1
EL φ19
 50
0.000002504478167
 41
0.7025862274498779
  7
STANDARD1
100
AcDbText
  0
LINE
  5
4B9
330
70
100
AcDbEntity
  8
NOTE
  6
Continuous
100
AcDbLine
 10
542.4320678710936
 20
-450.0
 30
0.0
 11
319.1820678710937
 21
-450.0
 31
0.0
  0
LINE
  5
4BA
330
70
100
AcDbEntity
  8
NOTE
  6
Continuous
100
AcDbLine
 10
319.1820678710937
 20
-450.0
 30
0.0
 11
0.0
 21
200.0
 31
0.0
  0
LINE
  5
4BB
330
70
100
AcDbEntity
  8
NOTE
  6
Continuous
100
AcDbLine
 10
0.0
 20
200.0
 30
0.0
 11
1.316152370910014
 21
198.4940973017661
 31
0.0
  0
LINE
  5
4BC
330
70
100
AcDbEntity
  8
NOTE
  6
Continuous
100
AcDbLine
 10
0.0
 20
200.0
 30
0.0
 11
0.3868700107517279
 21
198.0377738166101
 31
0.0
  0
TEXT
  5
4BD
330
70
100
AcDbEntity
  8
NOTE
  6
Continuous
100
AcDbText
 10
379.9320678710937
 20
-449.0
 30
0.0
 40
40.0
  1
CL φ19
 50
0.000002504478167
 41
0.7025862274498779
  7
STANDARD1
100
AcDbText
  0
LINE
  5
4BE
330
70
100
AcDbEntity
  8
NOTE
  6
Continuous
100
AcDbLine
 10
738.4320678710937
 20
-250.0
 30
0.0
 11
319.1820678710937
 21
-250.0
 31
0.0
  0
LINE
  5
4BF
330
70
100
AcDbEntity
  8
NOTE
  6
Continuous
100
AcDbLine
 10
319.1820678710937
 20
-250.0
 30
0.0
 11
142.0
 21
160.0
 31
0.0
  0
LINE
  5
4C0
330
70
100
AcDbEntity
  8
NOTE
  6
Continuous
100
AcDbLine
 10
142.0
 20
160.0
 30
0.0
 11
143.2415199755806
 21
158.431998676584
 31
0.0
  0
LINE
  5
4C1
330
70
100
AcDbEntity
  8
NOTE
  6
Continuous
100
AcDbLine
 10
142.0
 20
160.0
 30
0.0
 11
142.2911871476202
 21
158.0213110287211
 31
0.0
  0
TEXT
  5
4C2
330
70
100
AcDbEntity
  8
NOTE
  6
Continuous
100
AcDbText
 10
379.9320678710937
 20
-249.0
 30
0.0
 40
40.0
  1
WD R3/4(φ27.2)
 50
0.000002504478167
 41
0.6503623413003014
  7
STANDARD1
100
AcDbText
  0
LINE
  5
4C3
330
70
100
AcDbEntity
  8
NOTE
  6
Continuous
100
AcDbLine
 10
517.9320678710936
 20
-150.5
 30
0.0
 11
319.1820678710937
 21
-150.5
 31
0.0
  0
LINE
  5
4C4
330
70
100
AcDbEntity
  8
NOTE
  6
Continuous
100
AcDbLine
 10
319.1820678710937
 20
-150.5
 30
0.0
 11
142.0
 21
172.0
 31
0.0
  0
LINE
  5
4C5
330
70
100
AcDbEntity
  8
NOTE
  6
Continuous
100
AcDbLine
 10
142.0
 20
172.0
 30
0.0
 11
143.383895069541
 21
170.5561044232701
 31
0.0
  0
LINE
  5
4C6
330
70
100
AcDbEntity
  8
NOTE
  6
Continuous
100
AcDbLine
 10
142.0
 20
172.0
 30
0.0
 11
142.4765404697278
 21
170.057602208426
 31
0.0
  0
TEXT
  5
4C7
330
70
100
AcDbEntity
  8
NOTE
  6
Continuous
100
AcDbText
 10
379.9320678710937
 20
-149.5
 30
0.0
 40
40.0
  1
D φ18
 50
0.000002504478167
 41
0.7213541865348822
  7
STANDARD1
100
AcDbText
  0
LINE
  5
4C8
330
70
100
AcDbEntity
  8
NOTE
  6
Continuous
100
AcDbLine
 10
542.4320678710936
 20
-350.0
 30
0.0
 11
319.1820678710937
 21
-350.0
 31
0.0
  0
LINE
  5
4C9
330
70
100
AcDbEntity
  8
NOTE
  6
Continuous
100
AcDbLine
 10
319.1820678710937
 20
-350.0
 30
0.0
 11
50.0
 21
200.0
 31
0.0
  0
LINE
  5
4CA
330
70
100
AcDbEntity
  8
NOTE
  6
Continuous
100
AcDbLine
 10
50.0
 20
200.0
 30
0.0
 11
51.31417539798395
 21
198.4923717224283
 31
0.0
  0
LINE
  5
4CB
330
70
100
AcDbEntity
  8
NOTE
  6
Continuous
100
AcDbLine
 10
50.0
 20
200.0
 30
0.0
 11
50.38429511229885
 21
198.0372679075678
 31
0.0
  0
TEXT
  5
4CC
330
70
100
AcDbEntity
  8
NOTE
  6
Continuous
100
AcDbText
 10
379.9320678710937
 20
-349.0
 30
0.0
 40
40.0
  1
HW φ39
 50
0.000002504478167
 41
0.7025862274498779
  7
STANDARD1
100
AcDbText
  0
LINE
  5
4CD
330
70
100
AcDbEntity
  8
NOTE
  6
Continuous
100
AcDbLine
 10
558.0771484375
 20
1196.330200195312
 30
0.0
 11
315.9771423339844
 21
1196.330200195312
 31
0.0
  0
LINE
  5
4CE
330
70
100
AcDbEntity
  8
NOTE
  6
Continuous
100
AcDbLine
 10
315.9771423339844
 20
1196.330200195312
 30
0.0
 11
103.9999771118164
 21
1058.999877929688
 31
0.0
  0
LINE
  5
4CF
330
70
100
AcDbEntity
  8
NOTE
  6
Continuous
100
AcDbLine
 10
103.9999771118164
 20
1058.999877929688
 30
0.0
 11
105.3398624715253
 21
1060.484703583708
 31
0.0
  0
LINE
  5
4D0
330
70
100
AcDbEntity
  8
NOTE
  6
Continuous
100
AcDbLine
 10
103.9999771118164
 20
1058.999877929688
 30
0.0
 11
105.9027647074682
 21
1059.615831958681
 31
0.0
  0
TEXT
  5
4D1
330
70
100
AcDbEntity
  8
NOTE
  6
Continuous
100
AcDbText
 10
374.4771423339844
 20
1247.330200195312
 30
0.0
 40
40.0
  1
HW R3/4
 50
0.000002504478167
 41
0.6522727500308641
  7
STANDARD1
100
AcDbText
  0
TEXT
  5
4D2
330
70
100
AcDbEntity
  8
NOTE
  6
Continuous
100
AcDbText
 10
374.4771423339844
 20
1197.330200195312
 30
0.0
 40
40.0
  1
(φ27.2)
 50
0.000002504478167
 41
0.6479166845480601
  7
STANDARD1
100
AcDbText
  0
LINE
  5
4D3
330
70
100
AcDbEntity
  8
NOTE
  6
Continuous
100
AcDbLine
 10
124.0
 20
1059.0
 30
0.0
 11
84.0
 21
1059.0
 31
0.0
  0
LINE
  5
4D4
330
70
100
AcDbEntity
  8
NOTE
  6
Continuous
100
AcDbLine
 10
104.0
 20
1039.0
 30
0.0
 11
104.0
 21
1079.0
 31
0.0
  0
LINE
  5
4D5
330
70
100
AcDbEntity
  8
NOTE
  6
Continuous
100
AcDbLine
 10
-130.0
 20
910.0
 30
0.0
 11
-130.0
 21
950.0
 31
0.0
  0
LINE
  5
4D6
330
70
100
AcDbEntity
  8
NOTE
  6
Continuous
100
AcDbLine
 10
-110.0
 20
930.0
 30
0.0
 11
-150.0
 21
930.0
 31
0.0
  0
LINE
  5
4D7
330
70
100
AcDbEntity
  8
NOTE
  6
Continuous
100
AcDbLine
 10
-535.1795043945311
 20
1141.300415039062
 30
0.0
 11
-293.0794982910157
 21
1141.300415039062
 31
0.0
  0
LINE
  5
4D8
330
70
100
AcDbEntity
  8
NOTE
  6
Continuous
100
AcDbLine
 10
-293.0794982910157
 20
1141.300415039062
 30
0.0
 11
-129.9998931884765
 21
929.9998779296876
 31
0.0
  0
LINE
  5
4D9
330
70
100
AcDbEntity
  8
NOTE
  6
Continuous
100
AcDbLine
 10
-129.9998931884765
 20
929.9998779296876
 30
0.0
 11
-131.5900062415866
 21
931.2129486111933
 31
0.0
  0
LINE
  5
4DA
330
70
100
AcDbEntity
  8
NOTE
  6
Continuous
100
AcDbLine
 10
-129.9998931884765
 20
929.9998779296876
 30
0.0
 11
-130.7704361197149
 21
931.8454844942396
 31
0.0
  0
TEXT
  5
4DB
330
70
100
AcDbEntity
  8
NOTE
  6
Continuous
100
AcDbText
 10
-535.1795043945311
 20
1192.300415039062
 30
0.0
 40
40.0
  1
CW R3/4
 50
0.000002504478167
 41
0.6522727500308641
  7
STANDARD1
100
AcDbText
  0
TEXT
  5
4DC
330
70
100
AcDbEntity
  8
NOTE
  6
Continuous
100
AcDbText
 10
-535.1795043945311
 20
1142.300415039062
 30
0.0
 40
40.0
  1
(φ27.2)
 50
0.000002504478167
 41
0.6479166845480601
  7
STANDARD1
100
AcDbText
  0
CIRCLE
  5
4DD
330
70
100
AcDbEntity
  8
ARRANGE
  6
Continuous
100
AcDbCircle
 10
0.0
 20
0.0
 30
0.0
 40
15.0
  0
CIRCLE
  5
4DE
330
70
100
AcDbEntity
  8
FIX
  6
Continuous
100
AcDbCircle
 10
-30.0
 20
1928.0
 30
0.0
 40
5.0
  0
CIRCLE
  5
4DF
330
70
100
AcDbEntity
  8
FIX
  6
Continuous
100
AcDbCircle
 10
30.0
 20
1928.0
 30
0.0
 40
5.0
  0
CIRCLE
  5
4E0
330
70
100
AcDbEntity
  8
FIX
  6
Continuous
100
AcDbCircle
 10
-138.0
 20
0.0
 30
0.0
 40
5.0
  0
CIRCLE
  5
4E1
330
70
100
AcDbEntity
  8
FIX
  6
Continuous
100
AcDbCircle
 10
0.0
 20
0.0
 30
0.0
 40
5.0
  0
CIRCLE
  5
4E2
330
70
100
AcDbEntity
  8
FIX
  6
Continuous
100
AcDbCircle
 10
138.0
 20
0.0
 30
0.0
 40
5.0
  0
LINE
  5
4E3
330
70
100
AcDbEntity
  8
SERVICESPACE
  6
DASHDOT
100
AcDbLine
 10
-225.0
 20
2105.0
 30
0.0
 11
225.0
 21
1905.0
 31
0.0
  0
LINE
  5
4E4
330
70
100
AcDbEntity
  8
SERVICESPACE
  6
DASHDOT
100
AcDbLine
 10
225.0
 20
2105.0
 30
0.0
 11
-225.0
 21
1905.0
 31
0.0
  0
LINE
  5
4E5
330
70
100
AcDbEntity
  8
SERVICESPACE
  6
DASHDOT
100
AcDbLine
 10
-225.0
 20
1905.0
 30
0.0
 11
225.0
 21
1905.0
 31
0.0
  0
LINE
  5
4E6
330
70
100
AcDbEntity
  8
SERVICESPACE
  6
DASHDOT
100
AcDbLine
 10
-225.0
 20
2105.0
 30
0.0
 11
225.0
 21
2105.0
 31
0.0
  0
LINE
  5
4E7
330
70
100
AcDbEntity
  8
SERVICESPACE
  6
DASHDOT
100
AcDbLine
 10
225.0
 20
1905.0
 30
0.0
 11
225.0
 21
2105.0
 31
0.0
  0
LINE
  5
4E8
330
70
100
AcDbEntity
  8
SERVICESPACE
  6
DASHDOT
100
AcDbLine
 10
-225.0
 20
1905.0
 30
0.0
 11
-225.0
 21
2105.0
 31
0.0
  0
TEXT
  5
4E9
330
70
100
AcDbEntity
  8
ETC
  6
Continuous
100
AcDbText
 10
596.9732055664064
 20
2521.11865234375
 30
0.0
 40
40.0
  1
TG151EB3
 50
0.000002504478167
 41
0.6125000238418579
  7
STANDARD1
100
AcDbText
  0
TEXT
  5
4EA
330
70
100
AcDbEntity
  8
ETC
  6
Continuous
100
AcDbText
 10
596.9732055664064
 20
2451.11865234375
 30
0.0
 40
40.0
  1
電気温水器
 50
0.000002504478167
 41
0.84375
  7
STANDARD1
100
AcDbText
  0
ENDSEC
  0
SECTION
  2
OBJECTS
  0
DICTIONARY
  5
C
330
0
100
AcDbDictionary
281
     1
  3
ACAD_CIP_PREVIOUS_PRODUCT_INFO
350
4EC
  3
ACAD_COLOR
350
62
  3
ACAD_DETAILVIEWSTYLE
350
6A
  3
ACAD_GROUP
350
D
  3
ACAD_LAYOUT
350
61
  3
ACAD_MATERIAL
350
10
  3
ACAD_MLEADERSTYLE
350
65
  3
ACAD_MLINESTYLE
350
5E
  3
ACAD_PLOTSETTINGS
350
60
  3
ACAD_PLOTSTYLENAME
350
E
  3
ACAD_SCALELIST
350
42
  3
ACAD_SECTIONVIEWSTYLE
350
67
  3
ACAD_TABLESTYLE
350
63
  3
ACAD_VISUALSTYLE
350
29
  3
ACDB_RECOMPOSE_DATA
350
519
  3
AcDbVariableDictionary
350
50C
  3
AcDsDecomposeData
350
51F
  0
DICTIONARY
  5
506
330
2
100
AcDbDictionary
280
     1
281
     1
  3
ACAD_LAYERSTATES
360
507
  0
DICTIONARY
  5
4ED
330
54
100
AcDbDictionary
280
     1
281
     1
  3
ADSK_XREC_LAYER_RECONCILED
360
4EE
  0
DICTIONARY
  5
4EF
330
78
100
AcDbDictionary
280
     1
281
     1
  3
ADSK_XREC_LAYER_RECONCILED
360
4F0
  0
DICTIONARY
  5
4F1
330
79
100
AcDbDictionary
280
     1
281
     1
  3
ADSK_XREC_LAYER_RECONCILED
360
4F2
  0
DICTIONARY
  5
4F3
330
7A
100
AcDbDictionary
280
     1
281
     1
  3
ADSK_XREC_LAYER_RECONCILED
360
4F4
  0
DICTIONARY
  5
4F5
330
7B
100
AcDbDictionary
280
     1
281
     1
  3
ADSK_XREC_LAYER_RECONCILED
360
4F6
  0
DICTIONARY
  5
4F7
330
7C
100
AcDbDictionary
280
     1
281
     1
  3
ADSK_XREC_LAYER_RECONCILED
360
4F8
  0
DICTIONARY
  5
4F9
330
7D
100
AcDbDictionary
280
     1
281
     1
  3
ADSK_XREC_LAYER_RECONCILED
360
4FA
  0
DICTIONARY
  5
4FB
330
7E
100
AcDbDictionary
280
     1
281
     1
  3
ADSK_XREC_LAYER_RECONCILED
360
4FC
  0
DICTIONARY
  5
4FD
330
7F
100
AcDbDictionary
280
     1
281
     1
  3
ADSK_XREC_LAYER_RECONCILED
360
4FE
  0
DICTIONARY
  5
4FF
330
80
100
AcDbDictionary
280
     1
281
     1
  3
ADSK_XREC_LAYER_RECONCILED
360
500
  0
DICTIONARY
  5
501
330
81
100
AcDbDictionary
280
     1
281
     1
  3
ADSK_XREC_LAYER_RECONCILED
360
502
  0
XRECORD
  5
4EC
102
{ACAD_REACTORS
330
C
102
}
330
C
100
AcDbXrecord
280
     1
300
ACDLT
300
2013
300
ACDLT_F_S
  0
DICTIONARY
  5
62
102
{ACAD_REACTORS
330
C
102
}
330
C
100
AcDbDictionary
281
     1
  0
DICTIONARY
  5
6A
102
{ACAD_REACTORS
330
C
102
}
330
C
100
AcDbDictionary
281
     1
  3
Imperial24
350
6B
  0
DICTIONARY
  5
D
102
{ACAD_REACTORS
330
C
102
}
330
C
100
AcDbDictionary
281
     1
  0
DICTIONARY
  5
61
102
{ACAD_REACTORS
330
C
102
}
330
C
100
AcDbDictionary
281
     1
  3
Model
350
73
  3
レイアウト1
350
6F
  0
DICTIONARY
  5
10
102
{ACAD_REACTORS
330
C
102
}
330
C
100
AcDbDictionary
281
     1
  3
ByBlock
350
19
  3
ByLayer
350
11
  3
Global
350
21
  0
DICTIONARY
  5
65
102
{ACAD_REACTORS
330
C
102
}
330
C
100
AcDbDictionary
281
     1
  3
Standard
350
66
  0
DICTIONARY
  5
5E
102
{ACAD_REACTORS
330
C
102
}
330
C
100
AcDbDictionary
281
     1
  3
Standard
350
5F
  0
DICTIONARY
  5
60
102
{ACAD_REACTORS
330
C
102
}
330
C
100
AcDbDictionary
281
     1
  0
ACDBDICTIONARYWDFLT
  5
E
102
{ACAD_REACTORS
330
C
102
}
330
C
100
AcDbDictionary
281
     1
  3
Normal
350
F
100
AcDbDictionaryWithDefault
340
F
  0
DICTIONARY
  5
42
102
{ACAD_REACTORS
330
C
102
}
330
C
100
AcDbDictionary
281
     1
  3
A0
350
43
  3
A1
350
44
  3
A2
350
45
  3
A3
350
46
  3
A4
350
47
  3
A5
350
48
  3
A6
350
49
  3
A7
350
4A
  3
A8
350
4B
  3
A9
350
4C
  3
B0
350
4D
  3
B1
350
4E
  3
B2
350
4F
  3
B3
350
50
  3
B4
350
51
  3
B5
350
52
  3
B6
350
53
  0
DICTIONARY
  5
67
102
{ACAD_REACTORS
330
C
102
}
330
C
100
AcDbDictionary
281
     1
  3
Imperial24
350
69
  0
DICTIONARY
  5
63
102
{ACAD_REACTORS
330
C
102
}
330
C
100
AcDbDictionary
281
     1
  3
Standard
350
64
  0
DICTIONARY
  5
29
102
{ACAD_REACTORS
330
C
102
}
330
C
100
AcDbDictionary
281
     1
  3
2dWireframe
350
2F
  3
Basic
350
2E
  3
Brighten
350
35
  3
ColorChange
350
39
  3
Conceptual
350
32
  3
Dim
350
34
  3
EdgeColorOff
350
41
  3
Facepattern
350
38
  3
Flat
350
2A
  3
FlatWithEdges
350
2B
  3
Gouraud
350
2C
  3
GouraudWithEdges
350
2D
  3
Hidden
350
31
  3
JitterOff
350
3F
  3
Linepattern
350
37
  3
OverhangOff
350
40
  3
Realistic
350
33
  3
Shaded
350
3E
  3
Shaded with edges
350
3D
  3
Shades of Gray
350
3A
  3
Sketchy
350
3B
  3
Thicken
350
36
  3
Wireframe
350
30
  3
X-Ray
350
3C
  0
XRECORD
  5
519
102
{ACAD_REACTORS
330
C
102
}
330
C
100
AcDbXrecord
280
     1
 90
        1
330
64
  0
DICTIONARY
  5
50C
102
{ACAD_REACTORS
330
C
102
}
330
C
100
AcDbDictionary
281
     1
  3
CANNOSCALE
350
512
  3
CMLEADERSTYLE
350
50E
  3
CTABLESTYLE
350
50D
  3
CVIEWDETAILSTYLE
350
50F
  3
CVIEWSECTIONSTYLE
350
510
  3
LAYEREVAL
350
514
  3
LAYERNOTIFY
350
515
  3
LIGHTINGUNITS
350
513
  3
MSLTSCALE
350
511
  3
XCLIPFRAME
350
516
  0
DICTIONARY
  5
51F
102
{ACAD_REACTORS
330
C
102
}
330
C
100
AcDbDictionary
281
     1
  3
AcDsRecords
350
521
  3
AcDsSchemas
350
520
1001
ACAD
1070
     2
  0
DICTIONARY
  5
507
102
{ACAD_REACTORS
330
506
102
}
330
506
100
AcDbDictionary
281
     1
  0
XRECORD
  5
4EE
102
{ACAD_REACTORS
330
4ED
102
}
330
4ED
100
AcDbXrecord
280
     1
290
     1
  0
XRECORD
  5
4F0
102
{ACAD_REACTORS
330
4EF
102
}
330
4EF
100
AcDbXrecord
280
     1
290
     1
  0
XRECORD
  5
4F2
102
{ACAD_REACTORS
330
4F1
102
}
330
4F1
100
AcDbXrecord
280
     1
290
     1
  0
XRECORD
  5
4F4
102
{ACAD_REACTORS
330
4F3
102
}
330
4F3
100
AcDbXrecord
280
     1
290
     1
  0
XRECORD
  5
4F6
102
{ACAD_REACTORS
330
4F5
102
}
330
4F5
100
AcDbXrecord
280
     1
290
     1
  0
XRECORD
  5
4F8
102
{ACAD_REACTORS
330
4F7
102
}
330
4F7
100
AcDbXrecord
280
     1
290
     1
  0
XRECORD
  5
4FA
102
{ACAD_REACTORS
330
4F9
102
}
330
4F9
100
AcDbXrecord
280
     1
290
     1
  0
XRECORD
  5
4FC
102
{ACAD_REACTORS
330
4FB
102
}
330
4FB
100
AcDbXrecord
280
     1
290
     1
  0
XRECORD
  5
4FE
102
{ACAD_REACTORS
330
4FD
102
}
330
4FD
100
AcDbXrecord
280
     1
290
     1
  0
XRECORD
  5
500
102
{ACAD_REACTORS
330
4FF
102
}
330
4FF
100
AcDbXrecord
280
     1
290
     1
  0
XRECORD
  5
502
102
{ACAD_REACTORS
330
501
102
}
330
501
100
AcDbXrecord
280
     1
290
     1
  0
ACDBDETAILVIEWSTYLE
  5
6B
102
{ACAD_REACTORS
330
6A
102
}
330
6A
100
AcDbModelDocViewStyle
 70
     0
  3
Imperial24
290
     0
100
AcDbDetailViewStyle
 70
     0
 71
     0
 90
        3
 71
     1
340
55
 62
   256
 40
0.24
340
0
 62
   256
 40
0.24
300

 40
0.36
280
     3
 71
     2
340
5C
 90
       25
 62
   256
 71
     3
340
55
 62
   256
 40
0.24
 90
        1
 40
0.75
 90
        1
300
%<\AcVar ViewType \f "%tc1">% %<\AcVar ViewDetailId>%\PSCALE %<\AcVar ViewScale \f "%sn">%
 71
     4
340
5C
 90
       25
 62
   256
340
5C
 90
       25
 62
   256
280
     0
  0
LAYOUT
  5
73
102
{ACAD_REACTORS
330
61
102
}
330
61
100
AcDbPlotSettings
  1

  2
EPSON LP-S3200(2)
  4

  6

 40
0.0
 41
0.0
 42
0.0
 43
0.0
 44
0.0
 45
0.0
 46
0.0
 47
0.0
 48
0.0
 49
0.0
140
0.0
141
0.0
142
1.0
143
1.0
 70
  1712
 72
     0
 73
     0
 74
     0
  7

 75
     0
147
1.0
 76
     0
 77
     2
 78
   300
148
0.0
149
0.0
100
AcDbLayout
  1
Model
 70
     1
 71
     0
 10
0.0
 20
0.0
 11
12.0
 21
9.0
 12
0.0
 22
0.0
 32
0.0
 14
0.0
 24
0.0
 34
0.0
 15
0.0
 25
0.0
 35
0.0
146
0.0
 13
0.0
 23
0.0
 33
0.0
 16
1.0
 26
0.0
 36
0.0
 17
0.0
 27
1.0
 37
0.0
 76
     0
330
70
331
88
  0
LAYOUT
  5
6F
102
{ACAD_REACTORS
330
61
102
}
330
61
100
AcDbPlotSettings
  1

  2
EPSON LP-S3200(2)
  4

  6

 40
0.0
 41
0.0
 42
0.0
 43
0.0
 44
0.0
 45
0.0
 46
0.0
 47
0.0
 48
0.0
 49
0.0
140
0.0
141
0.0
142
1.0
143
1.0
 70
   688
 72
     0
 73
     0
 74
     5
  7

 75
    16
147
1.0
 76
     0
 77
     2
 78
   300
148
0.0
149
0.0
100
AcDbLayout
  1
レイアウト1
 70
     1
 71
     1
 10
0.0
 20
0.0
 11
12.0
 21
9.0
 12
0.0
 22
0.0
 32
0.0
 14
1.000000000000000E+20
 24
1.000000000000000E+20
 34
1.000000000000000E+20
 15
-1.000000000000000E+20
 25
-1.000000000000000E+20
 35
-1.000000000000000E+20
146
0.0
 13
0.0
 23
0.0
 33
0.0
 16
1.0
 26
0.0
 36
0.0
 17
0.0
 27
1.0
 37
0.0
 76
     0
330
6C
  0
MATERIAL
  5
19
102
{ACAD_XDICTIONARY
360
1A
102
}
102
{ACAD_REACTORS
330
10
102
}
330
10
100
AcDbMaterial
  1
ByBlock
 72
     0
 43
0.0208333333333333
 43
0.0
 43
0.0
 43
0.0
 43
0.0
 43
0.0208333333333333
 43
0.0
 43
0.0
 43
0.0
 43
0.0
 43
1.0
 43
0.0
 43
0.0
 43
0.0
 43
0.0
 43
1.0
 77
     0
 47
0.0208333333333333
 47
0.0
 47
0.0
 47
0.0
 47
0.0
 47
0.0208333333333333
 47
0.0
 47
0.0
 47
0.0
 47
0.0
 47
1.0
 47
0.0
 47
0.0
 47
0.0
 47
0.0
 47
1.0
171
     0
 49
0.0208333333333333
 49
0.0
 49
0.0
 49
0.0
 49
0.0
 49
0.0208333333333333
 49
0.0
 49
0.0
 49
0.0
 49
0.0
 49
1.0
 49
0.0
 49
0.0
 49
0.0
 49
0.0
 49
1.0
175
     0
142
0.0208333333333333
142
0.0
142
0.0
142
0.0
142
0.0
142
0.0208333333333333
142
0.0
142
0.0
142
0.0
142
0.0
142
1.0
142
0.0
142
0.0
142
0.0
142
0.0
142
1.0
179
     0
144
0.0208333333333333
144
0.0
144
0.0
144
0.0
144
0.0
144
0.0208333333333333
144
0.0
144
0.0
144
0.0
144
0.0
144
1.0
144
0.0
144
0.0
144
0.0
144
0.0
144
1.0
147
0.0208333333333333
147
0.0
147
0.0
147
0.0
147
0.0
147
0.0208333333333333
147
0.0
147
0.0
147
0.0
147
0.0
147
1.0
147
0.0
147
0.0
147
0.0
147
0.0
147
1.0
  0
MATERIAL
  5
11
102
{ACAD_XDICTIONARY
360
12
102
}
102
{ACAD_REACTORS
330
10
102
}
330
10
100
AcDbMaterial
  1
ByLayer
 72
     0
 43
0.0208333333333333
 43
0.0
 43
0.0
 43
0.0
 43
0.0
 43
0.0208333333333333
 43
0.0
 43
0.0
 43
0.0
 43
0.0
 43
1.0
 43
0.0
 43
0.0
 43
0.0
 43
0.0
 43
1.0
 77
     0
 47
0.0208333333333333
 47
0.0
 47
0.0
 47
0.0
 47
0.0
 47
0.0208333333333333
 47
0.0
 47
0.0
 47
0.0
 47
0.0
 47
1.0
 47
0.0
 47
0.0
 47
0.0
 47
0.0
 47
1.0
171
     0
 49
0.0208333333333333
 49
0.0
 49
0.0
 49
0.0
 49
0.0
 49
0.0208333333333333
 49
0.0
 49
0.0
 49
0.0
 49
0.0
 49
1.0
 49
0.0
 49
0.0
 49
0.0
 49
0.0
 49
1.0
175
     0
142
0.0208333333333333
142
0.0
142
0.0
142
0.0
142
0.0
142
0.0208333333333333
142
0.0
142
0.0
142
0.0
142
0.0
142
1.0
142
0.0
142
0.0
142
0.0
142
0.0
142
1.0
179
     0
144
0.0208333333333333
144
0.0
144
0.0
144
0.0
144
0.0
144
0.0208333333333333
144
0.0
144
0.0
144
0.0
144
0.0
144
1.0
144
0.0
144
0.0
144
0.0
144
0.0
144
1.0
147
0.0208333333333333
147
0.0
147
0.0
147
0.0
147
0.0
147
0.0208333333333333
147
0.0
147
0.0
147
0.0
147
0.0
147
1.0
147
0.0
147
0.0
147
0.0
147
0.0
147
1.0
  0
MATERIAL
  5
21
102
{ACAD_XDICTIONARY
360
22
102
}
102
{ACAD_REACTORS
330
10
102
}
330
10
100
AcDbMaterial
  1
Global
 72
     0
 43
0.0208333333333333
 43
0.0
 43
0.0
 43
0.0
 43
0.0
 43
0.0208333333333333
 43
0.0
 43
0.0
 43
0.0
 43
0.0
 43
1.0
 43
0.0
 43
0.0
 43
0.0
 43
0.0
 43
1.0
 77
     0
 47
0.0208333333333333
 47
0.0
 47
0.0
 47
0.0
 47
0.0
 47
0.0208333333333333
 47
0.0
 47
0.0
 47
0.0
 47
0.0
 47
1.0
 47
0.0
 47
0.0
 47
0.0
 47
0.0
 47
1.0
171
     0
 49
0.0208333333333333
 49
0.0
 49
0.0
 49
0.0
 49
0.0
 49
0.0208333333333333
 49
0.0
 49
0.0
 49
0.0
 49
0.0
 49
1.0
 49
0.0
 49
0.0
 49
0.0
 49
0.0
 49
1.0
175
     0
142
0.0208333333333333
142
0.0
142
0.0
142
0.0
142
0.0
142
0.0208333333333333
142
0.0
142
0.0
142
0.0
142
0.0
142
1.0
142
0.0
142
0.0
142
0.0
142
0.0
142
1.0
179
     0
144
0.0208333333333333
144
0.0
144
0.0
144
0.0
144
0.0
144
0.0208333333333333
144
0.0
144
0.0
144
0.0
144
0.0
144
1.0
144
0.0
144
0.0
144
0.0
144
0.0
144
1.0
147
0.0208333333333333
147
0.0
147
0.0
147
0.0
147
0.0
147
0.0208333333333333
147
0.0
147
0.0
147
0.0
147
0.0
147
1.0
147
0.0
147
0.0
147
0.0
147
0.0
147
1.0
  0
MLEADERSTYLE
  5
66
102
{ACAD_REACTORS
330
65
102
}
330
65
100
AcDbMLeaderStyle
170
     2
171
     1
172
     0
 90
        2
 40
0.0
 41
0.0
173
     1
 91
-1056964608
340
5A
 92
       -2
290
     1
 42
0.09
291
     1
 43
0.36
  3
Standard
 44
0.18
300

342
55
174
     1
178
     6
175
     1
176
     0
 93
-1056964608
 45
0.18
292
     0
297
     0
 46
0.18
 94
-1056964608
 47
1.0
 49
1.0
140
1.0
293
     1
141
0.0
294
     1
177
     0
142
1.0
295
     0
296
     0
143
0.125
1001
ACAD_MLEADERVER
1070
     2
  0
MLINESTYLE
  5
5F
102
{ACAD_REACTORS
330
5E
102
}
330
5E
100
AcDbMlineStyle
  2
STANDARD
 70
     0
  3

 62
   256
 51
90.0
 52
90.0
 71
     2
 49
0.5
 62
   256
  6
BYLAYER
 49
-0.5
 62
   256
  6
BYLAYER
  0
ACDBPLACEHOLDER
  5
F
102
{ACAD_REACTORS
330
E
102
}
330
E
  0
SCALE
  5
43
102
{ACAD_REACTORS
330
42
102
}
330
42
100
AcDbScale
 70
     0
300
1:1
140
1.0
141
1.0
290
     1
  0
SCALE
  5
44
102
{ACAD_REACTORS
330
42
102
}
330
42
100
AcDbScale
 70
     0
300
1/128" = 1'-0"
140
0.0078125
141
12.0
290
     0
  0
SCALE
  5
45
102
{ACAD_REACTORS
330
42
102
}
330
42
100
AcDbScale
 70
     0
300
1/64" = 1'-0"
140
0.015625
141
12.0
290
     0
  0
SCALE
  5
46
102
{ACAD_REACTORS
330
42
102
}
330
42
100
AcDbScale
 70
     0
300
1/32" = 1'-0"
140
0.03125
141
12.0
290
     0
  0
SCALE
  5
47
102
{ACAD_REACTORS
330
42
102
}
330
42
100
AcDbScale
 70
     0
300
1/16" = 1'-0"
140
0.0625
141
12.0
290
     0
  0
SCALE
  5
48
102
{ACAD_REACTORS
330
42
102
}
330
42
100
AcDbScale
 70
     0
300
3/32" = 1'-0"
140
0.09375
141
12.0
290
     0
  0
SCALE
  5
49
102
{ACAD_REACTORS
330
42
102
}
330
42
100
AcDbScale
 70
     0
300
1/8" = 1'-0"
140
0.125
141
12.0
290
     0
  0
SCALE
  5
4A
102
{ACAD_REACTORS
330
42
102
}
330
42
100
AcDbScale
 70
     0
300
3/16" = 1'-0"
140
0.1875
141
12.0
290
     0
  0
SCALE
  5
4B
102
{ACAD_REACTORS
330
42
102
}
330
42
100
AcDbScale
 70
     0
300
1/4" = 1'-0"
140
0.25
141
12.0
290
     0
  0
SCALE
  5
4C
102
{ACAD_REACTORS
330
42
102
}
330
42
100
AcDbScale
 70
     0
300
3/8" = 1'-0"
140
0.375
141
12.0
290
     0
  0
SCALE
  5
4D
102
{ACAD_REACTORS
330
42
102
}
330
42
100
AcDbScale
 70
     0
300
1/2" = 1'-0"
140
0.5
141
12.0
290
     0
  0
SCALE
  5
4E
102
{ACAD_REACTORS
330
42
102
}
330
42
100
AcDbScale
 70
     0
300
3/4" = 1'-0"
140
0.75
141
12.0
290
     0
  0
SCALE
  5
4F
102
{ACAD_REACTORS
330
42
102
}
330
42
100
AcDbScale
 70
     0
300
1" = 1'-0"
140
1.0
141
12.0
290
     0
  0
SCALE
  5
50
102
{ACAD_REACTORS
330
42
102
}
330
42
100
AcDbScale
 70
     0
300
1-1/2" = 1'-0"
140
1.5
141
12.0
290
     0
  0
SCALE
  5
51
102
{ACAD_REACTORS
330
42
102
}
330
42
100
AcDbScale
 70
     0
300
3" = 1'-0"
140
3.0
141
12.0
290
     0
  0
SCALE
  5
52
102
{ACAD_REACTORS
330
42
102
}
330
42
100
AcDbScale
 70
     0
300
6" = 1'-0"
140
6.0
141
12.0
290
     0
  0
SCALE
  5
53
102
{ACAD_REACTORS
330
42
102
}
330
42
100
AcDbScale
 70
     0
300
1'-0" = 1'-0"
140
12.0
141
12.0
290
     0
  0
ACDBSECTIONVIEWSTYLE
  5
69
102
{ACAD_REACTORS
330
67
102
}
330
67
100
AcDbModelDocViewStyle
 70
     0
  3
Imperial24
290
     0
100
AcDbSectionViewStyle
 70
     0
 71
     0
 90
       78
 71
     1
340
55
 62
   256
 40
0.24
340
0
340
0
 62
   256
 40
0.24
300
I, O, Q, S, X, Z
 40
0.48
 90
        3
 40
0.18
 90
        1
 71
     2
340
68
 90
       25
 62
   256
340
5C
 90
       50
 62
   256
 40
0.24
 40
0.0
 40
0.24
 71
     3
340
55
 62
   256
 40
0.24
 90
        1
 40
0.75
 90
        1
300
%<\AcVar ViewType \f "%tc1">% %<\AcVar ViewSectionStartId>%-%<\AcVar ViewSectionEndId>%\PSCALE %<\AcVar ViewScale \f "%sn">%
 71
     4
 62
   256
 62
   257
300
ANSI31
 40
1.0
 90
        0
290
     0
290
     0
 90
        6
 40
0.0
 40
1.570796326794896
 40
0.2617993877991494
 40
1.308996938995747
 40
-0.2617993877991494
 40
1.832595714594046
  0
TABLESTYLE
  5
64
102
{ACAD_XDICTIONARY
360
517
102
}
102
{ACAD_REACTORS
330
63
102
}
330
63
100
AcDbTableStyle
  3
Standard
 70
     0
 71
     0
 40
0.06
 41
0.06
280
     0
281
     0
  7
STANDARD
140
0.18
170
     2
 62
     0
 63
     7
283
     0
 90
      512
 91
        0
  1

274
    -2
284
     1
 64
     0
275
    -2
285
     1
 65
     0
276
    -2
286
     1
 66
     0
277
    -2
287
     1
 67
     0
278
    -2
288
     1
 68
     0
279
    -2
289
     1
 69
     0
  7
STANDARD
140
0.25
170
     5
 62
     0
 63
     7
283
     0
 90
      512
 91
        0
  1

274
    -2
284
     1
 64
     0
275
    -2
285
     1
 65
     0
276
    -2
286
     1
 66
     0
277
    -2
287
     1
 67
     0
278
    -2
288
     1
 68
     0
279
    -2
289
     1
 69
     0
  7
STANDARD
140
0.18
170
     5
 62
     0
 63
     7
283
     0
 90
      512
 91
        0
  1

274
    -2
284
     1
 64
     0
275
    -2
285
     1
 65
     0
276
    -2
286
     1
 66
     0
277
    -2
287
     1
 67
     0
278
    -2
288
     1
 68
     0
279
    -2
289
     1
 69
     0
  0
VISUALSTYLE
  5
2F
102
{ACAD_XDICTIONARY
360
52C
102
}
102
{ACAD_REACTORS
330
29
102
}
330
29
100
AcDbVisualStyle
  2
2dWireframe
 70
     4
 71
     0
 72
     2
 73
     0
 90
        0
 40
-0.6
 41
-30.0
 62
     5
 63
     7
421
 16777215
 74
     1
 91
        4
 64
     7
 65
   257
 75
     1
175
     1
 42
1.0
 92
        0
 66
   257
 43
1.0
 76
     1
 77
     6
 78
     2
 67
     7
 79
     5
170
     0
171
     0
290
     0
174
     0
 93
        1
 44
0.0
173
     0
291
     0
 45
0.0
1001
ACAD
1000
AcDbSavedByObjectVersion
1070
     0
  0
VISUALSTYLE
  5
2E
102
{ACAD_XDICTIONARY
360
52A
102
}
102
{ACAD_REACTORS
330
29
102
}
330
29
100
AcDbVisualStyle
  2
Basic
 70
     7
 71
     1
 72
     0
 73
     1
 90
        0
 40
-0.6
 41
-30.0
 62
     5
 63
     7
421
 16777215
 74
     0
 91
        4
 64
     7
 65
   257
 75
     1
175
     1
 42
1.0
 92
        8
 66
     7
 43
1.0
 76
     1
 77
     6
 78
     2
 67
     7
 79
     5
170
     0
171
     0
290
     0
174
     0
 93
        1
 44
0.0
173
     0
291
     1
 45
0.0
1001
ACAD
1000
AcDbSavedByObjectVersion
1070
     0
  0
VISUALSTYLE
  5
35
102
{ACAD_XDICTIONARY
360
538
102
}
102
{ACAD_REACTORS
330
29
102
}
330
29
100
AcDbVisualStyle
  2
Brighten
 70
    12
 71
     2
 72
     2
 73
     0
 90
        0
 40
-0.6
 41
-30.0
 62
     5
 63
     7
421
 16777215
 74
     1
 91
        4
 64
     7
 65
   257
 75
     1
175
     1
 42
1.0
 92
        8
 66
     7
 43
1.0
 76
     1
 77
     6
 78
     2
 67
     7
 79
     5
170
     0
171
     0
290
     0
174
     0
 93
        1
 44
50.0
173
     0
291
     1
 45
0.0
1001
ACAD
1000
AcDbSavedByObjectVersion
1070
     0
  0
VISUALSTYLE
  5
39
102
{ACAD_XDICTIONARY
360
540
102
}
102
{ACAD_REACTORS
330
29
102
}
330
29
100
AcDbVisualStyle
  2
ColorChange
 70
    16
 71
     2
 72
     2
 73
     3
 90
        0
 40
-0.6
 41
-30.0
 62
     5
 63
     8
421
  8421504
 74
     1
 91
        4
 64
     7
 65
   257
 75
     1
175
     1
 42
1.0
 92
        8
 66
     8
424
  8421504
 43
1.0
 76
     1
 77
     6
 78
     2
 67
     7
 79
     5
170
     0
171
     0
290
     0
174
     0
 93
        1
 44
0.0
173
     0
291
     1
 45
0.0
1001
ACAD
1000
AcDbSavedByObjectVersion
1070
     0
  0
VISUALSTYLE
  5
32
102
{ACAD_XDICTIONARY
360
532
102
}
102
{ACAD_REACTORS
330
29
102
}
330
29
100
AcDbVisualStyle
  2
Conceptual
 70
     9
 71
     3
 72
     2
 73
     0
 90
        0
 40
-0.6
 41
-30.0
 62
     5
 63
     7
421
 16777215
 74
     2
 91
        2
 64
     7
 65
   257
 75
     1
175
     1
 42
179.0
 92
        8
 66
     7
 43
1.0
 76
     1
 77
     6
 78
     2
 67
     7
 79
     3
170
     0
171
     0
290
     0
174
     0
 93
        1
 44
0.0
173
     0
291
     0
 45
0.0
1001
ACAD
1000
AcDbSavedByObjectVersion
1070
     0
  0
VISUALSTYLE
  5
34
102
{ACAD_XDICTIONARY
360
536
102
}
102
{ACAD_REACTORS
330
29
102
}
330
29
100
AcDbVisualStyle
  2
Dim
 70
    11
 71
     2
 72
     2
 73
     0
 90
        0
 40
-0.6
 41
-30.0
 62
     5
 63
     7
421
 16777215
 74
     1
 91
        4
 64
     7
 65
   257
 75
     1
175
     1
 42
1.0
 92
        8
 66
     7
 43
1.0
 76
     1
 77
     6
 78
     2
 67
     7
 79
     5
170
     0
171
     0
290
     0
174
     0
 93
        1
 44
-50.0
173
     0
291
     1
 45
0.0
1001
ACAD
1000
AcDbSavedByObjectVersion
1070
     0
  0
VISUALSTYLE
  5
41
102
{ACAD_XDICTIONARY
360
550
102
}
102
{ACAD_REACTORS
330
29
102
}
330
29
100
AcDbVisualStyle
  2
EdgeColorOff
 70
    22
 71
     2
 72
     2
 73
     0
 90
        0
 40
-0.6
 41
-30.0
 62
     5
 63
     7
421
 16777215
 74
     1
 91
        4
 64
     7
 65
   257
 75
     1
175
     1
 42
1.0
 92
        8
 66
     7
 43
1.0
 76
     1
 77
     6
 78
     2
 67
     7
 79
     5
170
     0
171
     0
290
     0
174
     0
 93
        1
 44
0.0
173
     0
291
     1
 45
0.0
1001
ACAD
1000
AcDbSavedByObjectVersion
1070
     0
  0
VISUALSTYLE
  5
38
102
{ACAD_XDICTIONARY
360
53E
102
}
102
{ACAD_REACTORS
330
29
102
}
330
29
100
AcDbVisualStyle
  2
Facepattern
 70
    15
 71
     2
 72
     2
 73
     0
 90
        0
 40
-0.6
 41
-30.0
 62
     5
 63
     7
421
 16777215
 74
     1
 91
        4
 64
     7
 65
   257
 75
     1
175
     1
 42
1.0
 92
        8
 66
     7
 43
1.0
 76
     1
 77
     6
 78
     2
 67
     7
 79
     5
170
     0
171
     0
290
     0
174
     0
 93
        1
 44
0.0
173
     0
291
     1
 45
0.0
1001
ACAD
1000
AcDbSavedByObjectVersion
1070
     0
  0
VISUALSTYLE
  5
2A
102
{ACAD_XDICTIONARY
360
522
102
}
102
{ACAD_REACTORS
330
29
102
}
330
29
100
AcDbVisualStyle
  2
Flat
 70
     0
 71
     2
 72
     1
 73
     1
 90
        2
 40
-0.6
 41
30.0
 62
     5
 63
     7
421
 16777215
 74
     0
 91
        0
 64
     7
 65
   257
 75
     1
175
     1
 42
1.0
 92
        8
 66
     7
 43
1.0
 76
     1
 77
     6
 78
     2
 67
     7
 79
     5
170
     0
171
     0
290
     0
174
     0
 93
       13
 44
0.0
173
     0
291
     1
 45
0.0
1001
ACAD
1000
AcDbSavedByObjectVersion
1070
     0
  0
VISUALSTYLE
  5
2B
102
{ACAD_XDICTIONARY
360
524
102
}
102
{ACAD_REACTORS
330
29
102
}
330
29
100
AcDbVisualStyle
  2
FlatWithEdges
 70
     1
 71
     2
 72
     1
 73
     1
 90
        2
 40
-0.6
 41
30.0
 62
     5
 63
     7
421
 16777215
 74
     1
 91
        0
 64
     7
 65
   257
 75
     1
175
     1
 42
1.0
 92
        0
 66
   257
 43
1.0
 76
     1
 77
     6
 78
     2
 67
     7
 79
     5
170
     0
171
     0
290
     0
174
     0
 93
       13
 44
0.0
173
     0
291
     1
 45
0.0
1001
ACAD
1000
AcDbSavedByObjectVersion
1070
     0
  0
VISUALSTYLE
  5
2C
102
{ACAD_XDICTIONARY
360
526
102
}
102
{ACAD_REACTORS
330
29
102
}
330
29
100
AcDbVisualStyle
  2
Gouraud
 70
     2
 71
     2
 72
     2
 73
     1
 90
        2
 40
-0.6
 41
30.0
 62
     5
 63
     7
421
 16777215
 74
     0
 91
        0
 64
     7
 65
   257
 75
     1
175
     1
 42
1.0
 92
        0
 66
     7
 43
1.0
 76
     1
 77
     6
 78
     2
 67
     7
 79
     5
170
     0
171
     0
290
     0
174
     0
 93
       13
 44
0.0
173
     0
291
     1
 45
0.0
1001
ACAD
1000
AcDbSavedByObjectVersion
1070
     0
  0
VISUALSTYLE
  5
2D
102
{ACAD_XDICTIONARY
360
528
102
}
102
{ACAD_REACTORS
330
29
102
}
330
29
100
AcDbVisualStyle
  2
GouraudWithEdges
 70
     3
 71
     2
 72
     2
 73
     1
 90
        2
 40
-0.6
 41
30.0
 62
     5
 63
     7
421
 16777215
 74
     1
 91
        0
 64
     7
 65
   257
 75
     1
175
     1
 42
1.0
 92
        0
 66
   257
 43
1.0
 76
     1
 77
     6
 78
     2
 67
     7
 79
     5
170
     0
171
     0
290
     0
174
     0
 93
       13
 44
0.0
173
     0
291
     1
 45
0.0
1001
ACAD
1000
AcDbSavedByObjectVersion
1070
     0
  0
VISUALSTYLE
  5
31
102
{ACAD_XDICTIONARY
360
530
102
}
102
{ACAD_REACTORS
330
29
102
}
330
29
100
AcDbVisualStyle
  2
Hidden
 70
     6
 71
     1
 72
     2
 73
     2
 90
        0
 40
-0.6
 41
-30.0
 62
     5
 63
     7
421
 16777215
 74
     2
 91
        2
 64
     7
 65
   257
 75
     2
175
     1
 42
40.0
 92
        0
 66
   257
 43
1.0
 76
     1
 77
     6
 78
     2
 67
     7
 79
     3
170
     0
171
     0
290
     0
174
     0
 93
        1
 44
0.0
173
     0
291
     0
 45
0.0
1001
ACAD
1000
AcDbSavedByObjectVersion
1070
     0
  0
VISUALSTYLE
  5
3F
102
{ACAD_XDICTIONARY
360
54C
102
}
102
{ACAD_REACTORS
330
29
102
}
330
29
100
AcDbVisualStyle
  2
JitterOff
 70
    20
 71
     2
 72
     2
 73
     0
 90
        0
 40
-0.6
 41
-30.0
 62
     5
 63
     7
421
 16777215
 74
     1
 91
        4
 64
     7
 65
   257
 75
     1
175
     1
 42
1.0
 92
       10
 66
     7
 43
1.0
 76
     1
 77
     6
 78
     2
 67
     7
 79
     5
170
     0
171
     0
290
     0
174
     0
 93
        1
 44
0.0
173
     0
291
     1
 45
0.0
1001
ACAD
1000
AcDbSavedByObjectVersion
1070
     0
  0
VISUALSTYLE
  5
37
102
{ACAD_XDICTIONARY
360
53C
102
}
102
{ACAD_REACTORS
330
29
102
}
330
29
100
AcDbVisualStyle
  2
Linepattern
 70
    14
 71
     2
 72
     2
 73
     0
 90
        0
 40
-0.6
 41
-30.0
 62
     5
 63
     7
421
 16777215
 74
     1
 91
        4
 64
     7
 65
   257
 75
     7
175
     7
 42
1.0
 92
        8
 66
     7
 43
1.0
 76
     1
 77
     6
 78
     2
 67
     7
 79
     5
170
     0
171
     0
290
     0
174
     0
 93
        1
 44
0.0
173
     0
291
     1
 45
0.0
1001
ACAD
1000
AcDbSavedByObjectVersion
1070
     0
  0
VISUALSTYLE
  5
40
102
{ACAD_XDICTIONARY
360
54E
102
}
102
{ACAD_REACTORS
330
29
102
}
330
29
100
AcDbVisualStyle
  2
OverhangOff
 70
    21
 71
     2
 72
     2
 73
     0
 90
        0
 40
-0.6
 41
-30.0
 62
     5
 63
     7
421
 16777215
 74
     1
 91
        4
 64
     7
 65
   257
 75
     1
175
     1
 42
1.0
 92
        9
 66
     7
 43
1.0
 76
     1
 77
     6
 78
     2
 67
     7
 79
     5
170
     0
171
     0
290
     0
174
     0
 93
        1
 44
0.0
173
     0
291
     1
 45
0.0
1001
ACAD
1000
AcDbSavedByObjectVersion
1070
     0
  0
VISUALSTYLE
  5
33
102
{ACAD_XDICTIONARY
360
534
102
}
102
{ACAD_REACTORS
330
29
102
}
330
29
100
AcDbVisualStyle
  2
Realistic
 70
     8
 71
     2
 72
     3
 73
     0
 90
        2
 40
-0.6
 41
30.0
 62
     5
 63
     7
421
 16777215
 74
     0
 91
        0
 64
     7
 65
   257
 75
     1
175
     1
 42
1.0
 92
        8
 66
   257
 43
1.0
 76
     1
 77
     6
 78
     2
 67
     7
 79
     3
170
     0
171
     0
290
     0
174
     0
 93
       13
 44
0.0
173
     0
291
     0
 45
0.0
1001
ACAD
1000
AcDbSavedByObjectVersion
1070
     0
  0
VISUALSTYLE
  5
3E
102
{ACAD_XDICTIONARY
360
54A
102
}
102
{ACAD_REACTORS
330
29
102
}
330
29
100
AcDbVisualStyle
  2
Shaded
 70
    27
 71
     2
 72
     2
 73
     1
 90
        2
 40
-0.6
 41
30.0
 62
     5
 63
     7
421
 16777215
 74
     0
 91
        4
 64
     7
 65
   257
 75
     1
175
     1
 42
1.0
 92
        8
 66
   257
 43
1.0
 76
     1
 77
     6
 78
     2
 67
     8
425
  7895160
 79
     3
170
     0
171
     0
290
     0
174
     0
 93
        5
 44
0.0
173
     0
291
     0
 45
0.0
1001
ACAD
1000
AcDbSavedByObjectVersion
1070
     0
  0
VISUALSTYLE
  5
3D
102
{ACAD_XDICTIONARY
360
548
102
}
102
{ACAD_REACTORS
330
29
102
}
330
29
100
AcDbVisualStyle
  2
Shaded with edges
 70
    26
 71
     2
 72
     2
 73
     1
 90
        2
 40
-0.6
 41
30.0
 62
     5
 63
     7
421
 16777215
 74
     1
 91
       10
 64
     7
 65
   257
 75
     2
175
     1
 42
1.0
 92
        8
 66
   257
 43
1.0
 76
     1
 77
     6
 78
     2
 67
     7
 79
     3
170
     0
171
     0
290
     0
174
     0
 93
        5
 44
0.0
173
     0
291
     0
 45
0.0
1001
ACAD
1000
AcDbSavedByObjectVersion
1070
     0
  0
VISUALSTYLE
  5
3A
102
{ACAD_XDICTIONARY
360
542
102
}
102
{ACAD_REACTORS
330
29
102
}
330
29
100
AcDbVisualStyle
  2
Shades of Gray
 70
    23
 71
     2
 72
     2
 73
     3
 90
        0
 40
-0.6
 41
-30.0
 62
     5
 63
     7
421
 16777215
 74
     2
 91
        2
 64
     7
 65
     7
 75
     1
175
     1
 42
40.0
 92
        8
 66
     7
 43
1.0
 76
     1
 77
     6
 78
     2
 67
     7
 79
     3
170
     0
171
     0
290
     0
174
     0
 93
        1
 44
0.0
173
     0
291
     0
 45
0.0
1001
ACAD
1000
AcDbSavedByObjectVersion
1070
     0
  0
VISUALSTYLE
  5
3B
102
{ACAD_XDICTIONARY
360
544
102
}
102
{ACAD_REACTORS
330
29
102
}
330
29
100
AcDbVisualStyle
  2
Sketchy
 70
    24
 71
     1
 72
     2
 73
     2
 90
        0
 40
-0.6
 41
-30.0
 62
     5
 63
     7
421
 16777215
 74
     2
 91
        2
 64
     7
 65
     7
 75
     1
175
     1
 42
40.0
 92
       11
 66
     7
 43
1.0
 76
     1
 77
     6
 78
     2
 67
     7
 79
     6
170
     0
171
     0
290
     0
174
     0
 93
        1
 44
0.0
173
     0
291
     0
 45
0.0
1001
ACAD
1000
AcDbSavedByObjectVersion
1070
     0
  0
VISUALSTYLE
  5
36
102
{ACAD_XDICTIONARY
360
53A
102
}
102
{ACAD_REACTORS
330
29
102
}
330
29
100
AcDbVisualStyle
  2
Thicken
 70
    13
 71
     2
 72
     2
 73
     0
 90
        0
 40
-0.6
 41
-30.0
 62
     5
 63
     7
421
 16777215
 74
     1
 91
        4
 64
     7
 65
   257
 75
     1
175
     1
 42
1.0
 92
       12
 66
     7
 43
1.0
 76
     1
 77
     6
 78
     2
 67
     7
 79
     5
170
     0
171
     0
290
     0
174
     0
 93
        1
 44
0.0
173
     0
291
     1
 45
0.0
1001
ACAD
1000
AcDbSavedByObjectVersion
1070
     0
  0
VISUALSTYLE
  5
30
102
{ACAD_XDICTIONARY
360
52E
102
}
102
{ACAD_REACTORS
330
29
102
}
330
29
100
AcDbVisualStyle
  2
Wireframe
 70
     5
 71
     0
 72
     2
 73
     0
 90
        0
 40
-0.6
 41
-30.0
 62
     5
 63
     7
421
 16777215
 74
     1
 91
        4
 64
     7
 65
   257
 75
     1
175
     1
 42
1.0
 92
        0
 66
   257
 43
1.0
 76
     1
 77
     6
 78
     2
 67
     7
 79
     3
170
     0
171
     0
290
     0
174
     0
 93
        1
 44
0.0
173
     0
291
     0
 45
0.0
1001
ACAD
1000
AcDbSavedByObjectVersion
1070
     0
  0
VISUALSTYLE
  5
3C
102
{ACAD_XDICTIONARY
360
546
102
}
102
{ACAD_REACTORS
330
29
102
}
330
29
100
AcDbVisualStyle
  2
X-Ray
 70
    25
 71
     2
 72
     2
 73
     1
 90
        1
 40
0.5
 41
-30.0
 62
     5
 63
     7
421
 16777215
 74
     1
 91
        0
 64
     7
 65
   257
 75
     1
175
     1
 42
1.0
 92
        8
 66
     7
 43
1.0
 76
     1
 77
     6
 78
     2
 67
     7
 79
     3
170
     0
171
     0
290
     0
174
     0
 93
       13
 44
0.0
173
     0
291
     0
 45
0.0
1001
ACAD
1000
AcDbSavedByObjectVersion
1070
     0
  0
DICTIONARYVAR
  5
512
102
{ACAD_REACTORS
330
50C
102
}
330
50C
100
DictionaryVariables
280
     0
  1
1:1
  0
DICTIONARYVAR
  5
50E
102
{ACAD_REACTORS
330
50C
102
}
330
50C
100
DictionaryVariables
280
     0
  1
STANDARD
  0
DICTIONARYVAR
  5
50D
102
{ACAD_REACTORS
330
50C
102
}
330
50C
100
DictionaryVariables
280
     0
  1
STANDARD
  0
DICTIONARYVAR
  5
50F
102
{ACAD_REACTORS
330
50C
102
}
330
50C
100
DictionaryVariables
280
     0
  1
Imperial24
  0
DICTIONARYVAR
  5
510
102
{ACAD_REACTORS
330
50C
102
}
330
50C
100
DictionaryVariables
280
     0
  1
Imperial24
  0
DICTIONARYVAR
  5
514
102
{ACAD_REACTORS
330
50C
102
}
330
50C
100
DictionaryVariables
280
     0
  1
1
  0
DICTIONARYVAR
  5
515
102
{ACAD_REACTORS
330
50C
102
}
330
50C
100
DictionaryVariables
280
     0
  1
15
  0
DICTIONARYVAR
  5
513
102
{ACAD_REACTORS
330
50C
102
}
330
50C
100
DictionaryVariables
280
     0
  1
0
  0
DICTIONARYVAR
  5
511
102
{ACAD_REACTORS
330
50C
102
}
330
50C
100
DictionaryVariables
280
     0
  1
0
  0
DICTIONARYVAR
  5
516
102
{ACAD_REACTORS
330
50C
102
}
330
50C
100
DictionaryVariables
280
     0
  1
2
  0
DICTIONARY
  5
521
102
{ACAD_REACTORS
330
51F
102
}
330
51F
100
AcDbDictionary
281
     1
  0
DICTIONARY
  5
520
102
{ACAD_REACTORS
330
51F
102
}
330
51F
100
AcDbDictionary
281
     1
  3
2130126672
350
51A
  3
2130126680
350
51B
  3
2130126688
350
51C
  3
2130126696
350
51D
  3
2130126704
350
51E
  0
DICTIONARY
  5
1A
330
19
100
AcDbDictionary
280
     1
281
     1
  3
BUMPTILE
360
1C
  3
DIFFUSETILE
360
1B
  3
OPACITYTILE
360
1F
  3
REFLECTIONTILE
360
1E
  3
REFRACTIONTILE
360
20
  3
SPECULARTILE
360
1D
  0
DICTIONARY
  5
12
330
11
100
AcDbDictionary
280
     1
281
     1
  3
BUMPTILE
360
14
  3
DIFFUSETILE
360
13
  3
OPACITYTILE
360
17
  3
REFLECTIONTILE
360
16
  3
REFRACTIONTILE
360
18
  3
SPECULARTILE
360
15
  0
DICTIONARY
  5
22
330
21
100
AcDbDictionary
280
     1
281
     1
  3
BUMPTILE
360
24
  3
DIFFUSETILE
360
23
  3
OPACITYTILE
360
27
  3
REFLECTIONTILE
360
26
  3
REFRACTIONTILE
360
28
  3
SPECULARTILE
360
25
  0
DICTIONARY
  5
517
330
64
100
AcDbDictionary
280
     1
281
     1
  3
ACAD_ROUNDTRIP_2008_TABLESTYLE_CELLSTYLEMAP
360
518
  0
DICTIONARY
  5
52C
330
2F
100
AcDbDictionary
280
     1
281
     1
  3
ACAD_XREC_ROUNDTRIP
360
52D
  0
DICTIONARY
  5
52A
330
2E
100
AcDbDictionary
280
     1
281
     1
  3
ACAD_XREC_ROUNDTRIP
360
52B
  0
DICTIONARY
  5
538
330
35
100
AcDbDictionary
280
     1
281
     1
  3
ACAD_XREC_ROUNDTRIP
360
539
  0
DICTIONARY
  5
540
330
39
100
AcDbDictionary
280
     1
281
     1
  3
ACAD_XREC_ROUNDTRIP
360
541
  0
DICTIONARY
  5
532
330
32
100
AcDbDictionary
280
     1
281
     1
  3
ACAD_XREC_ROUNDTRIP
360
533
  0
DICTIONARY
  5
536
330
34
100
AcDbDictionary
280
     1
281
     1
  3
ACAD_XREC_ROUNDTRIP
360
537
  0
DICTIONARY
  5
550
330
41
100
AcDbDictionary
280
     1
281
     1
  3
ACAD_XREC_ROUNDTRIP
360
551
  0
DICTIONARY
  5
53E
330
38
100
AcDbDictionary
280
     1
281
     1
  3
ACAD_XREC_ROUNDTRIP
360
53F
  0
DICTIONARY
  5
522
330
2A
100
AcDbDictionary
280
     1
281
     1
  3
ACAD_XREC_ROUNDTRIP
360
523
  0
DICTIONARY
  5
524
330
2B
100
AcDbDictionary
280
     1
281
     1
  3
ACAD_XREC_ROUNDTRIP
360
525
  0
DICTIONARY
  5
526
330
2C
100
AcDbDictionary
280
     1
281
     1
  3
ACAD_XREC_ROUNDTRIP
360
527
  0
DICTIONARY
  5
528
330
2D
100
AcDbDictionary
280
     1
281
     1
  3
ACAD_XREC_ROUNDTRIP
360
529
  0
DICTIONARY
  5
530
330
31
100
AcDbDictionary
280
     1
281
     1
  3
ACAD_XREC_ROUNDTRIP
360
531
  0
DICTIONARY
  5
54C
330
3F
100
AcDbDictionary
280
     1
281
     1
  3
ACAD_XREC_ROUNDTRIP
360
54D
  0
DICTIONARY
  5
53C
330
37
100
AcDbDictionary
280
     1
281
     1
  3
ACAD_XREC_ROUNDTRIP
360
53D
  0
DICTIONARY
  5
54E
330
40
100
AcDbDictionary
280
     1
281
     1
  3
ACAD_XREC_ROUNDTRIP
360
54F
  0
DICTIONARY
  5
534
330
33
100
AcDbDictionary
280
     1
281
     1
  3
ACAD_XREC_ROUNDTRIP
360
535
  0
DICTIONARY
  5
54A
330
3E
100
AcDbDictionary
280
     1
281
     1
  3
ACAD_XREC_ROUNDTRIP
360
54B
  0
DICTIONARY
  5
548
330
3D
100
AcDbDictionary
280
     1
281
     1
  3
ACAD_XREC_ROUNDTRIP
360
549
  0
DICTIONARY
  5
542
330
3A
100
AcDbDictionary
280
     1
281
     1
  3
ACAD_XREC_ROUNDTRIP
360
543
  0
DICTIONARY
  5
544
330
3B
100
AcDbDictionary
280
     1
281
     1
  3
ACAD_XREC_ROUNDTRIP
360
545
  0
DICTIONARY
  5
53A
330
36
100
AcDbDictionary
280
     1
281
     1
  3
ACAD_XREC_ROUNDTRIP
360
53B
  0
DICTIONARY
  5
52E
330
30
100
AcDbDictionary
280
     1
281
     1
  3
ACAD_XREC_ROUNDTRIP
360
52F
  0
DICTIONARY
  5
546
330
3C
100
AcDbDictionary
280
     1
281
     1
  3
ACAD_XREC_ROUNDTRIP
360
547
  0
XRECORD
  5
51A
102
{ACAD_REACTORS
330
520
102
}
330
520
100
AcDbXrecord
280
     1
  1
AcDb_Thumbnail_Schema
102
{ATTRRECORD
341
51B
  2
AcDbDs::TreatedAsObjectData
280
     1
291
     1
102
ATTRRECORD}
102
{ATTRRECORD
341
51C
  2
AcDbDs::Legacy
280
     1
291
     1
102
ATTRRECORD}
  2
AcDbDs::ID
280
    10
 91
        8
102
{ATTRRECORD
341
51D
  2
AcDs:Indexable
280
     1
291
     1
102
ATTRRECORD}
102
{ATTRRECORD
341
51E
  2
AcDbDs::HandleAttribute
280
     7
282
     1
102
ATTRRECORD}
  2
Thumbnail_Data
280
    15
 91
        0
  0
XRECORD
  5
51B
102
{ACAD_REACTORS
330
520
102
}
330
520
100
AcDbXrecord
280
     1
  1
AcDbDs::TreatedAsObjectDataSchema
  2
AcDbDs::TreatedAsObjectData
280
     1
 91
        0
  0
XRECORD
  5
51C
102
{ACAD_REACTORS
330
520
102
}
330
520
100
AcDbXrecord
280
     1
  1
AcDbDs::LegacySchema
  2
AcDbDs::Legacy
280
     1
 91
        0
  0
XRECORD
  5
51D
102
{ACAD_REACTORS
330
520
102
}
330
520
100
AcDbXrecord
280
     1
  1
AcDbDs::IndexedPropertySchema
  2
AcDs:Indexable
280
     1
 91
        0
  0
XRECORD
  5
51E
102
{ACAD_REACTORS
330
520
102
}
330
520
100
AcDbXrecord
280
     1
  1
AcDbDs::HandleAttributeSchema
  2
AcDbDs::HandleAttribute
280
     7
 91
        1
284
     1
  0
XRECORD
  5
1C
102
{ACAD_REACTORS
330
1A
102
}
330
1A
100
AcDbXrecord
280
     1
270
     1
271
     1
  0
XRECORD
  5
1B
102
{ACAD_REACTORS
330
1A
102
}
330
1A
100
AcDbXrecord
280
     1
270
     1
271
     1
  0
XRECORD
  5
1F
102
{ACAD_REACTORS
330
1A
102
}
330
1A
100
AcDbXrecord
280
     1
270
     1
271
     1
  0
XRECORD
  5
1E
102
{ACAD_REACTORS
330
1A
102
}
330
1A
100
AcDbXrecord
280
     1
270
     1
271
     1
  0
XRECORD
  5
20
102
{ACAD_REACTORS
330
1A
102
}
330
1A
100
AcDbXrecord
280
     1
270
     1
271
     1
  0
XRECORD
  5
1D
102
{ACAD_REACTORS
330
1A
102
}
330
1A
100
AcDbXrecord
280
     1
270
     1
271
     1
  0
XRECORD
  5
14
102
{ACAD_REACTORS
330
12
102
}
330
12
100
AcDbXrecord
280
     1
270
     1
271
     1
  0
XRECORD
  5
13
102
{ACAD_REACTORS
330
12
102
}
330
12
100
AcDbXrecord
280
     1
270
     1
271
     1
  0
XRECORD
  5
17
102
{ACAD_REACTORS
330
12
102
}
330
12
100
AcDbXrecord
280
     1
270
     1
271
     1
  0
XRECORD
  5
16
102
{ACAD_REACTORS
330
12
102
}
330
12
100
AcDbXrecord
280
     1
270
     1
271
     1
  0
XRECORD
  5
18
102
{ACAD_REACTORS
330
12
102
}
330
12
100
AcDbXrecord
280
     1
270
     1
271
     1
  0
XRECORD
  5
15
102
{ACAD_REACTORS
330
12
102
}
330
12
100
AcDbXrecord
280
     1
270
     1
271
     1
  0
XRECORD
  5
24
102
{ACAD_REACTORS
330
22
102
}
330
22
100
AcDbXrecord
280
     1
270
     1
271
     1
  0
XRECORD
  5
23
102
{ACAD_REACTORS
330
22
102
}
330
22
100
AcDbXrecord
280
     1
270
     1
271
     1
  0
XRECORD
  5
27
102
{ACAD_REACTORS
330
22
102
}
330
22
100
AcDbXrecord
280
     1
270
     1
271
     1
  0
XRECORD
  5
26
102
{ACAD_REACTORS
330
22
102
}
330
22
100
AcDbXrecord
280
     1
270
     1
271
     1
  0
XRECORD
  5
28
102
{ACAD_REACTORS
330
22
102
}
330
22
100
AcDbXrecord
280
     1
270
     1
271
     1
  0
XRECORD
  5
25
102
{ACAD_REACTORS
330
22
102
}
330
22
100
AcDbXrecord
280
     1
270
     1
271
     1
  0
CELLSTYLEMAP
  5
518
102
{ACAD_REACTORS
330
517
102
}
330
517
100
AcDbCellStyleMap
 90
        3
300
CELLSTYLE
  1
TABLEFORMAT_BEGIN
 90
        5
170
     1
 91
        0
 92
    32768
 62
   257
 93
        1
300
CONTENTFORMAT
  1
CONTENTFORMAT_BEGIN
 90
        0
 91
        0
 92
      512
 93
        0
300

 40
0.0
140
1.0
 94
        5
 62
     0
340
55
144
0.25
309
CONTENTFORMAT_END
171
     0
 94
        0
309
TABLEFORMAT_END
  1
CELLSTYLE_BEGIN
 90
        1
 91
        1
300
_TITLE
309
CELLSTYLE_END
300
CELLSTYLE
  1
TABLEFORMAT_BEGIN
 90
        5
170
     1
 91
        0
 92
        0
 62
   257
 93
        1
300
CONTENTFORMAT
  1
CONTENTFORMAT_BEGIN
 90
        0
 91
        0
 92
      512
 93
        0
300

 40
0.0
140
1.0
 94
        5
 62
     0
340
55
144
0.18
309
CONTENTFORMAT_END
171
     0
 94
        0
309
TABLEFORMAT_END
  1
CELLSTYLE_BEGIN
 90
        2
 91
        1
300
_HEADER
309
CELLSTYLE_END
300
CELLSTYLE
  1
TABLEFORMAT_BEGIN
 90
        5
170
     1
 91
        0
 92
        0
 62
   257
 93
        1
300
CONTENTFORMAT
  1
CONTENTFORMAT_BEGIN
 90
        0
 91
        0
 92
      512
 93
        0
300

 40
0.0
140
1.0
 94
        2
 62
     0
340
55
144
0.18
309
CONTENTFORMAT_END
171
     0
 94
        0
309
TABLEFORMAT_END
  1
CELLSTYLE_BEGIN
 90
        3
 91
        2
300
_DATA
309
CELLSTYLE_END
  0
XRECORD
  5
52D
102
{ACAD_REACTORS
330
52C
102
}
330
52C
100
AcDbXrecord
280
     1
102
RTVSPost2010Prop28
280
     1
102
RTVSPost2010PropOp28
 70
     1
102
RTVSPost2010Prop29
280
     1
102
RTVSPost2010PropOp29
 70
     1
102
RTVSPost2010Prop30
280
     0
102
RTVSPost2010PropOp30
 70
     1
102
RTVSPost2010Prop31
280
     0
102
RTVSPost2010PropOp31
 70
     1
102
RTVSPost2010Prop32
280
     0
102
RTVSPost2010PropOp32
 70
     1
102
RTVSPost2010Prop33
280
     0
102
RTVSPost2010PropOp33
 70
     1
102
RTVSPost2010Prop34
280
     0
102
RTVSPost2010PropOp34
 70
     1
102
RTVSPost2010Prop35
280
     0
102
RTVSPost2010PropOp35
 70
     1
102
RTVSPost2010Prop36
280
     0
102
RTVSPost2010PropOp36
 70
     1
102
RTVSPost2010Prop37
 90
       50
102
RTVSPost2010PropOp37
 70
     1
102
RTVSPost2010Prop38
140
0.0
102
RTVSPost2010PropOp38
 70
     1
102
RTVSPost2010Prop39
140
1.0
102
RTVSPost2010PropOp39
 70
     1
102
RTVSPost2010Prop40
 90
        0
102
RTVSPost2010PropOp40
 70
     1
102
RTVSPost2010Prop41ColorIndex
 90
       18
102
RTVSPost2010Prop41ColorRGB
 90
        0
102
RTVSPost2010PropOp41
 70
     1
102
RTVSPost2010Prop42
 90
       50
102
RTVSPost2010PropOp42
 70
     1
102
RTVSPost2010Prop43
 90
        3
102
RTVSPost2010PropOp43
 70
     1
102
RTVSPost2010Prop44ColorIndex
 90
        5
102
RTVSPost2010Prop44ColorRGB
 90
      255
102
RTVSPost2010PropOp44
 70
     1
102
RTVSPost2010Prop45
280
     0
102
RTVSPost2010PropOp45
 70
     1
102
RTVSPost2010Prop46
 90
       50
102
RTVSPost2010PropOp46
 70
     1
102
RTVSPost2010Prop47
 90
       50
102
RTVSPost2010PropOp47
 70
     1
102
RTVSPost2010Prop48
 90
       50
102
RTVSPost2010PropOp48
 70
     1
102
RTVSPost2010Prop49
280
     0
102
RTVSPost2010PropOp49
 70
     1
102
RTVSPost2010Prop50
 90
       50
102
RTVSPost2010PropOp50
 70
     1
102
RTVSPost2010Prop51ColorIndex
 90
      256
102
RTVSPost2010Prop51ColorRGB
 90
-16777216
102
RTVSPost2010PropOp51
 70
     0
102
RTVSPost2010Prop52
140
1.0
102
RTVSPost2010PropOp52
 70
     0
102
RTVSPost2010Prop53
 90
        2
102
RTVSPost2010PropOp53
 70
     1
102
RTVSPost2010Prop54
  1
strokes_ogs.tif
102
RTVSPost2010PropOp54
 70
     1
102
RTVSPost2010Prop55
280
     0
102
RTVSPost2010PropOp55
 70
     1
102
RTVSPost2010Prop56
140
1.0
102
RTVSPost2010PropOp56
 70
     1
102
RTVSPost2010Prop57
140
1.0
102
RTVSPost2010PropOp57
 70
     1
102
RTVSPropertyOp0
 70
     1
102
RTVSPropertyOp1
 70
     1
102
RTVSPropertyOp2
 70
     1
102
RTVSPropertyOp3
 70
     1
102
RTVSPropertyOp4
 70
     1
102
RTVSPropertyOp5
 70
     1
102
RTVSPropertyOp6
 70
     1
102
RTVSPropertyOp7
 70
     1
102
RTVSPropertyOp8
 70
     1
102
RTVSPropertyOp9
 70
     1
102
RTVSPropertyOp10
 70
     1
102
RTVSPropertyOp11
 70
     1
102
RTVSPropertyOp12
 70
     1
102
RTVSPropertyOp13
 70
     1
102
RTVSPropertyOp14
 70
     1
102
RTVSPropertyOp15
 70
     1
102
RTVSPropertyOp16
 70
     1
102
RTVSPropertyOp17
 70
     1
102
RTVSPropertyOp18
 70
     1
102
RTVSPropertyOp19
 70
     1
102
RTVSPropertyOp20
 70
     1
102
RTVSPropertyOp21
 70
     1
102
RTVSPropertyOp22
 70
     1
102
RTVSPropertyOp23
 70
     1
102
RTVSPropertyOp24
 70
     1
102
RTVSPropertyOp25
 70
     1
102
RTVSPropertyOp26
 70
     1
102
RTVSPropertyOp27
 70
     1
102
RTVSPropertyOp28
 70
     1
102
RTVSPropertyOp29
 70
     1
102
RTVSPropertyOp30
 70
     1
102
RTVSPropertyOp31
 70
     1
102
RTVSPropertyOp32
 70
     1
102
RTVSPropertyOp33
 70
     1
102
RTVSPropertyOp34
 70
     1
102
RTVSPropertyOp35
 70
     1
102
RTVSPropertyOp36
 70
     1
102
RTVSPropertyOp37
 70
     1
102
RTVSPropertyOp38
 70
     1
102
RTVSPropertyOp39
 70
     1
102
RTVSPropertyOp40
 70
     1
102
RTVSPropertyOp41
 70
     1
102
RTVSPropertyOp42
 70
     1
102
RTVSPropertyOp43
 70
     1
102
RTVSPropertyOp44
 70
     1
102
RTVSPropertyOp45
 70
     1
102
RTVSPropertyOp46
 70
     1
102
RTVSPropertyOp47
 70
     1
102
RTVSPropertyOp48
 70
     1
102
RTVSPropertyOp49
 70
     1
102
RTVSPropertyOp50
 70
     1
102
RTVSPropertyOp51
 70
     0
102
RTVSPropertyOp52
 70
     0
102
RTVSPropertyOp53
 70
     1
102
RTVSPropertyOp54
 70
     1
102
RTVSPropertyOp55
 70
     1
102
RTVSPropertyOp56
 70
     1
102
RTVSPropertyOp57
 70
     1
102
RTVSPropertyOp58
 70
     1
102
RTVSPropertyOp59
 70
     1
102
RTVSPropertyOp60
 70
     1
102
RTVSPropertyOp61
 70
     1
102
RTVSPropertyOp62
 70
     1
  0
XRECORD
  5
52B
102
{ACAD_REACTORS
330
52A
102
}
330
52A
100
AcDbXrecord
280
     1
102
RTVSPost2010Prop28
280
     0
102
RTVSPost2010PropOp28
 70
     1
102
RTVSPost2010Prop29
280
     1
102
RTVSPost2010PropOp29
 70
     1
102
RTVSPost2010Prop30
280
     1
102
RTVSPost2010PropOp30
 70
     1
102
RTVSPost2010Prop31
280
     0
102
RTVSPost2010PropOp31
 70
     1
102
RTVSPost2010Prop32
280
     0
102
RTVSPost2010PropOp32
 70
     1
102
RTVSPost2010Prop33
280
     0
102
RTVSPost2010PropOp33
 70
     1
102
RTVSPost2010Prop34
280
     0
102
RTVSPost2010PropOp34
 70
     1
102
RTVSPost2010Prop35
280
     0
102
RTVSPost2010PropOp35
 70
     1
102
RTVSPost2010Prop36
280
     0
102
RTVSPost2010PropOp36
 70
     1
102
RTVSPost2010Prop37
 90
       50
102
RTVSPost2010PropOp37
 70
     1
102
RTVSPost2010Prop38
140
0.0
102
RTVSPost2010PropOp38
 70
     1
102
RTVSPost2010Prop39
140
1.0
102
RTVSPost2010PropOp39
 70
     1
102
RTVSPost2010Prop40
 90
        0
102
RTVSPost2010PropOp40
 70
     1
102
RTVSPost2010Prop41ColorIndex
 90
       18
102
RTVSPost2010Prop41ColorRGB
 90
        0
102
RTVSPost2010PropOp41
 70
     1
102
RTVSPost2010Prop42
 90
       50
102
RTVSPost2010PropOp42
 70
     1
102
RTVSPost2010Prop43
 90
        3
102
RTVSPost2010PropOp43
 70
     1
102
RTVSPost2010Prop44ColorIndex
 90
        5
102
RTVSPost2010Prop44ColorRGB
 90
      255
102
RTVSPost2010PropOp44
 70
     1
102
RTVSPost2010Prop45
280
     0
102
RTVSPost2010PropOp45
 70
     1
102
RTVSPost2010Prop46
 90
       50
102
RTVSPost2010PropOp46
 70
     1
102
RTVSPost2010Prop47
 90
       50
102
RTVSPost2010PropOp47
 70
     1
102
RTVSPost2010Prop48
 90
       50
102
RTVSPost2010PropOp48
 70
     1
102
RTVSPost2010Prop49
280
     0
102
RTVSPost2010PropOp49
 70
     1
102
RTVSPost2010Prop50
 90
       50
102
RTVSPost2010PropOp50
 70
     1
102
RTVSPost2010Prop51ColorIndex
 90
      256
102
RTVSPost2010Prop51ColorRGB
 90
-16777216
102
RTVSPost2010PropOp51
 70
     0
102
RTVSPost2010Prop52
140
1.0
102
RTVSPost2010PropOp52
 70
     0
102
RTVSPost2010Prop53
 90
        2
102
RTVSPost2010PropOp53
 70
     1
102
RTVSPost2010Prop54
  1
strokes_ogs.tif
102
RTVSPost2010PropOp54
 70
     1
102
RTVSPost2010Prop55
280
     0
102
RTVSPost2010PropOp55
 70
     1
102
RTVSPost2010Prop56
140
1.0
102
RTVSPost2010PropOp56
 70
     1
102
RTVSPost2010Prop57
140
1.0
102
RTVSPost2010PropOp57
 70
     1
102
RTVSPropertyOp0
 70
     1
102
RTVSPropertyOp1
 70
     1
102
RTVSPropertyOp2
 70
     1
102
RTVSPropertyOp3
 70
     1
102
RTVSPropertyOp4
 70
     1
102
RTVSPropertyOp5
 70
     1
102
RTVSPropertyOp6
 70
     1
102
RTVSPropertyOp7
 70
     1
102
RTVSPropertyOp8
 70
     1
102
RTVSPropertyOp9
 70
     1
102
RTVSPropertyOp10
 70
     1
102
RTVSPropertyOp11
 70
     1
102
RTVSPropertyOp12
 70
     1
102
RTVSPropertyOp13
 70
     1
102
RTVSPropertyOp14
 70
     1
102
RTVSPropertyOp15
 70
     1
102
RTVSPropertyOp16
 70
     1
102
RTVSPropertyOp17
 70
     1
102
RTVSPropertyOp18
 70
     1
102
RTVSPropertyOp19
 70
     1
102
RTVSPropertyOp20
 70
     1
102
RTVSPropertyOp21
 70
     1
102
RTVSPropertyOp22
 70
     1
102
RTVSPropertyOp23
 70
     1
102
RTVSPropertyOp24
 70
     1
102
RTVSPropertyOp25
 70
     1
102
RTVSPropertyOp26
 70
     1
102
RTVSPropertyOp27
 70
     1
102
RTVSPropertyOp28
 70
     1
102
RTVSPropertyOp29
 70
     1
102
RTVSPropertyOp30
 70
     1
102
RTVSPropertyOp31
 70
     1
102
RTVSPropertyOp32
 70
     1
102
RTVSPropertyOp33
 70
     1
102
RTVSPropertyOp34
 70
     1
102
RTVSPropertyOp35
 70
     1
102
RTVSPropertyOp36
 70
     1
102
RTVSPropertyOp37
 70
     1
102
RTVSPropertyOp38
 70
     1
102
RTVSPropertyOp39
 70
     1
102
RTVSPropertyOp40
 70
     1
102
RTVSPropertyOp41
 70
     1
102
RTVSPropertyOp42
 70
     1
102
RTVSPropertyOp43
 70
     1
102
RTVSPropertyOp44
 70
     1
102
RTVSPropertyOp45
 70
     1
102
RTVSPropertyOp46
 70
     1
102
RTVSPropertyOp47
 70
     1
102
RTVSPropertyOp48
 70
     1
102
RTVSPropertyOp49
 70
     1
102
RTVSPropertyOp50
 70
     1
102
RTVSPropertyOp51
 70
     0
102
RTVSPropertyOp52
 70
     0
102
RTVSPropertyOp53
 70
     1
102
RTVSPropertyOp54
 70
     1
102
RTVSPropertyOp55
 70
     1
102
RTVSPropertyOp56
 70
     1
102
RTVSPropertyOp57
 70
     1
102
RTVSPropertyOp58
 70
     1
102
RTVSPropertyOp59
 70
     1
102
RTVSPropertyOp60
 70
     1
102
RTVSPropertyOp61
 70
     1
102
RTVSPropertyOp62
 70
     1
  0
XRECORD
  5
539
102
{ACAD_REACTORS
330
538
102
}
330
538
100
AcDbXrecord
280
     1
102
RTVSPost2010Prop28
280
     0
102
RTVSPost2010PropOp28
 70
     1
102
RTVSPost2010Prop29
280
     1
102
RTVSPost2010PropOp29
 70
     1
102
RTVSPost2010Prop30
280
     1
102
RTVSPost2010PropOp30
 70
     1
102
RTVSPost2010Prop31
280
     0
102
RTVSPost2010PropOp31
 70
     1
102
RTVSPost2010Prop32
280
     0
102
RTVSPost2010PropOp32
 70
     1
102
RTVSPost2010Prop33
280
     0
102
RTVSPost2010PropOp33
 70
     1
102
RTVSPost2010Prop34
280
     0
102
RTVSPost2010PropOp34
 70
     1
102
RTVSPost2010Prop35
280
     0
102
RTVSPost2010PropOp35
 70
     1
102
RTVSPost2010Prop36
280
     0
102
RTVSPost2010PropOp36
 70
     1
102
RTVSPost2010Prop37
 90
       50
102
RTVSPost2010PropOp37
 70
     1
102
RTVSPost2010Prop38
140
0.0
102
RTVSPost2010PropOp38
 70
     1
102
RTVSPost2010Prop39
140
1.0
102
RTVSPost2010PropOp39
 70
     1
102
RTVSPost2010Prop40
 90
        0
102
RTVSPost2010PropOp40
 70
     1
102
RTVSPost2010Prop41ColorIndex
 90
       18
102
RTVSPost2010Prop41ColorRGB
 90
        0
102
RTVSPost2010PropOp41
 70
     1
102
RTVSPost2010Prop42
 90
       50
102
RTVSPost2010PropOp42
 70
     1
102
RTVSPost2010Prop43
 90
        3
102
RTVSPost2010PropOp43
 70
     1
102
RTVSPost2010Prop44ColorIndex
 90
        5
102
RTVSPost2010Prop44ColorRGB
 90
      255
102
RTVSPost2010PropOp44
 70
     1
102
RTVSPost2010Prop45
280
     0
102
RTVSPost2010PropOp45
 70
     1
102
RTVSPost2010Prop46
 90
       50
102
RTVSPost2010PropOp46
 70
     1
102
RTVSPost2010Prop47
 90
       50
102
RTVSPost2010PropOp47
 70
     1
102
RTVSPost2010Prop48
 90
       50
102
RTVSPost2010PropOp48
 70
     1
102
RTVSPost2010Prop49
280
     0
102
RTVSPost2010PropOp49
 70
     1
102
RTVSPost2010Prop50
 90
       50
102
RTVSPost2010PropOp50
 70
     1
102
RTVSPost2010Prop51ColorIndex
 90
      256
102
RTVSPost2010Prop51ColorRGB
 90
-16777216
102
RTVSPost2010PropOp51
 70
     0
102
RTVSPost2010Prop52
140
1.0
102
RTVSPost2010PropOp52
 70
     0
102
RTVSPost2010Prop53
 90
        2
102
RTVSPost2010PropOp53
 70
     1
102
RTVSPost2010Prop54
  1
strokes_ogs.tif
102
RTVSPost2010PropOp54
 70
     1
102
RTVSPost2010Prop55
280
     0
102
RTVSPost2010PropOp55
 70
     1
102
RTVSPost2010Prop56
140
1.0
102
RTVSPost2010PropOp56
 70
     1
102
RTVSPost2010Prop57
140
1.0
102
RTVSPost2010PropOp57
 70
     1
102
RTVSPropertyOp0
 70
     1
102
RTVSPropertyOp1
 70
     1
102
RTVSPropertyOp2
 70
     1
102
RTVSPropertyOp3
 70
     1
102
RTVSPropertyOp4
 70
     1
102
RTVSPropertyOp5
 70
     1
102
RTVSPropertyOp6
 70
     1
102
RTVSPropertyOp7
 70
     1
102
RTVSPropertyOp8
 70
     1
102
RTVSPropertyOp9
 70
     1
102
RTVSPropertyOp10
 70
     1
102
RTVSPropertyOp11
 70
     1
102
RTVSPropertyOp12
 70
     1
102
RTVSPropertyOp13
 70
     1
102
RTVSPropertyOp14
 70
     1
102
RTVSPropertyOp15
 70
     1
102
RTVSPropertyOp16
 70
     1
102
RTVSPropertyOp17
 70
     1
102
RTVSPropertyOp18
 70
     1
102
RTVSPropertyOp19
 70
     1
102
RTVSPropertyOp20
 70
     1
102
RTVSPropertyOp21
 70
     1
102
RTVSPropertyOp22
 70
     1
102
RTVSPropertyOp23
 70
     1
102
RTVSPropertyOp24
 70
     1
102
RTVSPropertyOp25
 70
     1
102
RTVSPropertyOp26
 70
     1
102
RTVSPropertyOp27
 70
     1
102
RTVSPropertyOp28
 70
     1
102
RTVSPropertyOp29
 70
     1
102
RTVSPropertyOp30
 70
     1
102
RTVSPropertyOp31
 70
     1
102
RTVSPropertyOp32
 70
     1
102
RTVSPropertyOp33
 70
     1
102
RTVSPropertyOp34
 70
     1
102
RTVSPropertyOp35
 70
     1
102
RTVSPropertyOp36
 70
     1
102
RTVSPropertyOp37
 70
     1
102
RTVSPropertyOp38
 70
     1
102
RTVSPropertyOp39
 70
     1
102
RTVSPropertyOp40
 70
     1
102
RTVSPropertyOp41
 70
     1
102
RTVSPropertyOp42
 70
     1
102
RTVSPropertyOp43
 70
     1
102
RTVSPropertyOp44
 70
     1
102
RTVSPropertyOp45
 70
     1
102
RTVSPropertyOp46
 70
     1
102
RTVSPropertyOp47
 70
     1
102
RTVSPropertyOp48
 70
     1
102
RTVSPropertyOp49
 70
     1
102
RTVSPropertyOp50
 70
     1
102
RTVSPropertyOp51
 70
     0
102
RTVSPropertyOp52
 70
     0
102
RTVSPropertyOp53
 70
     1
102
RTVSPropertyOp54
 70
     1
102
RTVSPropertyOp55
 70
     1
102
RTVSPropertyOp56
 70
     1
102
RTVSPropertyOp57
 70
     1
102
RTVSPropertyOp58
 70
     1
102
RTVSPropertyOp59
 70
     1
102
RTVSPropertyOp60
 70
     1
102
RTVSPropertyOp61
 70
     1
102
RTVSPropertyOp62
 70
     1
  0
XRECORD
  5
541
102
{ACAD_REACTORS
330
540
102
}
330
540
100
AcDbXrecord
280
     1
102
RTVSPost2010Prop28
280
     0
102
RTVSPost2010PropOp28
 70
     1
102
RTVSPost2010Prop29
280
     1
102
RTVSPost2010PropOp29
 70
     1
102
RTVSPost2010Prop30
280
     1
102
RTVSPost2010PropOp30
 70
     1
102
RTVSPost2010Prop31
280
     0
102
RTVSPost2010PropOp31
 70
     1
102
RTVSPost2010Prop32
280
     0
102
RTVSPost2010PropOp32
 70
     1
102
RTVSPost2010Prop33
280
     0
102
RTVSPost2010PropOp33
 70
     1
102
RTVSPost2010Prop34
280
     0
102
RTVSPost2010PropOp34
 70
     1
102
RTVSPost2010Prop35
280
     0
102
RTVSPost2010PropOp35
 70
     1
102
RTVSPost2010Prop36
280
     0
102
RTVSPost2010PropOp36
 70
     1
102
RTVSPost2010Prop37
 90
       50
102
RTVSPost2010PropOp37
 70
     1
102
RTVSPost2010Prop38
140
0.0
102
RTVSPost2010PropOp38
 70
     1
102
RTVSPost2010Prop39
140
1.0
102
RTVSPost2010PropOp39
 70
     1
102
RTVSPost2010Prop40
 90
        0
102
RTVSPost2010PropOp40
 70
     1
102
RTVSPost2010Prop41ColorIndex
 90
       18
102
RTVSPost2010Prop41ColorRGB
 90
        0
102
RTVSPost2010PropOp41
 70
     1
102
RTVSPost2010Prop42
 90
       50
102
RTVSPost2010PropOp42
 70
     1
102
RTVSPost2010Prop43
 90
        3
102
RTVSPost2010PropOp43
 70
     1
102
RTVSPost2010Prop44ColorIndex
 90
        5
102
RTVSPost2010Prop44ColorRGB
 90
      255
102
RTVSPost2010PropOp44
 70
     1
102
RTVSPost2010Prop45
280
     0
102
RTVSPost2010PropOp45
 70
     1
102
RTVSPost2010Prop46
 90
       50
102
RTVSPost2010PropOp46
 70
     1
102
RTVSPost2010Prop47
 90
       50
102
RTVSPost2010PropOp47
 70
     1
102
RTVSPost2010Prop48
 90
       50
102
RTVSPost2010PropOp48
 70
     1
102
RTVSPost2010Prop49
280
     0
102
RTVSPost2010PropOp49
 70
     1
102
RTVSPost2010Prop50
 90
       50
102
RTVSPost2010PropOp50
 70
     1
102
RTVSPost2010Prop51ColorIndex
 90
      256
102
RTVSPost2010Prop51ColorRGB
 90
-16777216
102
RTVSPost2010PropOp51
 70
     0
102
RTVSPost2010Prop52
140
1.0
102
RTVSPost2010PropOp52
 70
     0
102
RTVSPost2010Prop53
 90
        2
102
RTVSPost2010PropOp53
 70
     1
102
RTVSPost2010Prop54
  1
strokes_ogs.tif
102
RTVSPost2010PropOp54
 70
     1
102
RTVSPost2010Prop55
280
     0
102
RTVSPost2010PropOp55
 70
     1
102
RTVSPost2010Prop56
140
1.0
102
RTVSPost2010PropOp56
 70
     1
102
RTVSPost2010Prop57
140
1.0
102
RTVSPost2010PropOp57
 70
     1
102
RTVSPropertyOp0
 70
     1
102
RTVSPropertyOp1
 70
     1
102
RTVSPropertyOp2
 70
     1
102
RTVSPropertyOp3
 70
     1
102
RTVSPropertyOp4
 70
     1
102
RTVSPropertyOp5
 70
     1
102
RTVSPropertyOp6
 70
     1
102
RTVSPropertyOp7
 70
     1
102
RTVSPropertyOp8
 70
     1
102
RTVSPropertyOp9
 70
     1
102
RTVSPropertyOp10
 70
     1
102
RTVSPropertyOp11
 70
     1
102
RTVSPropertyOp12
 70
     1
102
RTVSPropertyOp13
 70
     1
102
RTVSPropertyOp14
 70
     1
102
RTVSPropertyOp15
 70
     1
102
RTVSPropertyOp16
 70
     1
102
RTVSPropertyOp17
 70
     1
102
RTVSPropertyOp18
 70
     1
102
RTVSPropertyOp19
 70
     1
102
RTVSPropertyOp20
 70
     1
102
RTVSPropertyOp21
 70
     1
102
RTVSPropertyOp22
 70
     1
102
RTVSPropertyOp23
 70
     1
102
RTVSPropertyOp24
 70
     1
102
RTVSPropertyOp25
 70
     1
102
RTVSPropertyOp26
 70
     1
102
RTVSPropertyOp27
 70
     1
102
RTVSPropertyOp28
 70
     1
102
RTVSPropertyOp29
 70
     1
102
RTVSPropertyOp30
 70
     1
102
RTVSPropertyOp31
 70
     1
102
RTVSPropertyOp32
 70
     1
102
RTVSPropertyOp33
 70
     1
102
RTVSPropertyOp34
 70
     1
102
RTVSPropertyOp35
 70
     1
102
RTVSPropertyOp36
 70
     1
102
RTVSPropertyOp37
 70
     1
102
RTVSPropertyOp38
 70
     1
102
RTVSPropertyOp39
 70
     1
102
RTVSPropertyOp40
 70
     1
102
RTVSPropertyOp41
 70
     1
102
RTVSPropertyOp42
 70
     1
102
RTVSPropertyOp43
 70
     1
102
RTVSPropertyOp44
 70
     1
102
RTVSPropertyOp45
 70
     1
102
RTVSPropertyOp46
 70
     1
102
RTVSPropertyOp47
 70
     1
102
RTVSPropertyOp48
 70
     1
102
RTVSPropertyOp49
 70
     1
102
RTVSPropertyOp50
 70
     1
102
RTVSPropertyOp51
 70
     0
102
RTVSPropertyOp52
 70
     0
102
RTVSPropertyOp53
 70
     1
102
RTVSPropertyOp54
 70
     1
102
RTVSPropertyOp55
 70
     1
102
RTVSPropertyOp56
 70
     1
102
RTVSPropertyOp57
 70
     1
102
RTVSPropertyOp58
 70
     1
102
RTVSPropertyOp59
 70
     1
102
RTVSPropertyOp60
 70
     1
102
RTVSPropertyOp61
 70
     1
102
RTVSPropertyOp62
 70
     1
  0
XRECORD
  5
533
102
{ACAD_REACTORS
330
532
102
}
330
532
100
AcDbXrecord
280
     1
102
RTVSPost2010Prop28
280
     0
102
RTVSPost2010PropOp28
 70
     1
102
RTVSPost2010Prop29
280
     1
102
RTVSPost2010PropOp29
 70
     1
102
RTVSPost2010Prop30
280
     1
102
RTVSPost2010PropOp30
 70
     1
102
RTVSPost2010Prop31
280
     0
102
RTVSPost2010PropOp31
 70
     1
102
RTVSPost2010Prop32
280
     0
102
RTVSPost2010PropOp32
 70
     1
102
RTVSPost2010Prop33
280
     0
102
RTVSPost2010PropOp33
 70
     1
102
RTVSPost2010Prop34
280
     0
102
RTVSPost2010PropOp34
 70
     1
102
RTVSPost2010Prop35
280
     0
102
RTVSPost2010PropOp35
 70
     1
102
RTVSPost2010Prop36
280
     0
102
RTVSPost2010PropOp36
 70
     1
102
RTVSPost2010Prop37
 90
       50
102
RTVSPost2010PropOp37
 70
     1
102
RTVSPost2010Prop38
140
0.0
102
RTVSPost2010PropOp38
 70
     1
102
RTVSPost2010Prop39
140
1.0
102
RTVSPost2010PropOp39
 70
     1
102
RTVSPost2010Prop40
 90
        0
102
RTVSPost2010PropOp40
 70
     1
102
RTVSPost2010Prop41ColorIndex
 90
       18
102
RTVSPost2010Prop41ColorRGB
 90
        0
102
RTVSPost2010PropOp41
 70
     1
102
RTVSPost2010Prop42
 90
       50
102
RTVSPost2010PropOp42
 70
     1
102
RTVSPost2010Prop43
 90
        3
102
RTVSPost2010PropOp43
 70
     1
102
RTVSPost2010Prop44ColorIndex
 90
        5
102
RTVSPost2010Prop44ColorRGB
 90
      255
102
RTVSPost2010PropOp44
 70
     1
102
RTVSPost2010Prop45
280
     0
102
RTVSPost2010PropOp45
 70
     1
102
RTVSPost2010Prop46
 90
       50
102
RTVSPost2010PropOp46
 70
     1
102
RTVSPost2010Prop47
 90
       50
102
RTVSPost2010PropOp47
 70
     1
102
RTVSPost2010Prop48
 90
       50
102
RTVSPost2010PropOp48
 70
     1
102
RTVSPost2010Prop49
280
     0
102
RTVSPost2010PropOp49
 70
     1
102
RTVSPost2010Prop50
 90
       50
102
RTVSPost2010PropOp50
 70
     1
102
RTVSPost2010Prop51ColorIndex
 90
      256
102
RTVSPost2010Prop51ColorRGB
 90
-16777216
102
RTVSPost2010PropOp51
 70
     0
102
RTVSPost2010Prop52
140
1.0
102
RTVSPost2010PropOp52
 70
     0
102
RTVSPost2010Prop53
 90
        2
102
RTVSPost2010PropOp53
 70
     1
102
RTVSPost2010Prop54
  1
strokes_ogs.tif
102
RTVSPost2010PropOp54
 70
     1
102
RTVSPost2010Prop55
280
     0
102
RTVSPost2010PropOp55
 70
     1
102
RTVSPost2010Prop56
140
1.0
102
RTVSPost2010PropOp56
 70
     1
102
RTVSPost2010Prop57
140
1.0
102
RTVSPost2010PropOp57
 70
     1
102
RTVSPropertyOp0
 70
     1
102
RTVSPropertyOp1
 70
     1
102
RTVSPropertyOp2
 70
     1
102
RTVSPropertyOp3
 70
     1
102
RTVSPropertyOp4
 70
     1
102
RTVSPropertyOp5
 70
     1
102
RTVSPropertyOp6
 70
     1
102
RTVSPropertyOp7
 70
     1
102
RTVSPropertyOp8
 70
     1
102
RTVSPropertyOp9
 70
     1
102
RTVSPropertyOp10
 70
     1
102
RTVSPropertyOp11
 70
     1
102
RTVSPropertyOp12
 70
     1
102
RTVSPropertyOp13
 70
     1
102
RTVSPropertyOp14
 70
     1
102
RTVSPropertyOp15
 70
     1
102
RTVSPropertyOp16
 70
     1
102
RTVSPropertyOp17
 70
     1
102
RTVSPropertyOp18
 70
     1
102
RTVSPropertyOp19
 70
     1
102
RTVSPropertyOp20
 70
     1
102
RTVSPropertyOp21
 70
     1
102
RTVSPropertyOp22
 70
     1
102
RTVSPropertyOp23
 70
     1
102
RTVSPropertyOp24
 70
     1
102
RTVSPropertyOp25
 70
     1
102
RTVSPropertyOp26
 70
     1
102
RTVSPropertyOp27
 70
     1
102
RTVSPropertyOp28
 70
     1
102
RTVSPropertyOp29
 70
     1
102
RTVSPropertyOp30
 70
     1
102
RTVSPropertyOp31
 70
     1
102
RTVSPropertyOp32
 70
     1
102
RTVSPropertyOp33
 70
     1
102
RTVSPropertyOp34
 70
     1
102
RTVSPropertyOp35
 70
     1
102
RTVSPropertyOp36
 70
     1
102
RTVSPropertyOp37
 70
     1
102
RTVSPropertyOp38
 70
     1
102
RTVSPropertyOp39
 70
     1
102
RTVSPropertyOp40
 70
     1
102
RTVSPropertyOp41
 70
     1
102
RTVSPropertyOp42
 70
     1
102
RTVSPropertyOp43
 70
     1
102
RTVSPropertyOp44
 70
     1
102
RTVSPropertyOp45
 70
     1
102
RTVSPropertyOp46
 70
     1
102
RTVSPropertyOp47
 70
     1
102
RTVSPropertyOp48
 70
     1
102
RTVSPropertyOp49
 70
     1
102
RTVSPropertyOp50
 70
     1
102
RTVSPropertyOp51
 70
     0
102
RTVSPropertyOp52
 70
     0
102
RTVSPropertyOp53
 70
     1
102
RTVSPropertyOp54
 70
     1
102
RTVSPropertyOp55
 70
     1
102
RTVSPropertyOp56
 70
     1
102
RTVSPropertyOp57
 70
     1
102
RTVSPropertyOp58
 70
     1
102
RTVSPropertyOp59
 70
     1
102
RTVSPropertyOp60
 70
     1
102
RTVSPropertyOp61
 70
     1
102
RTVSPropertyOp62
 70
     1
  0
XRECORD
  5
537
102
{ACAD_REACTORS
330
536
102
}
330
536
100
AcDbXrecord
280
     1
102
RTVSPost2010Prop28
280
     0
102
RTVSPost2010PropOp28
 70
     1
102
RTVSPost2010Prop29
280
     1
102
RTVSPost2010PropOp29
 70
     1
102
RTVSPost2010Prop30
280
     1
102
RTVSPost2010PropOp30
 70
     1
102
RTVSPost2010Prop31
280
     0
102
RTVSPost2010PropOp31
 70
     1
102
RTVSPost2010Prop32
280
     0
102
RTVSPost2010PropOp32
 70
     1
102
RTVSPost2010Prop33
280
     0
102
RTVSPost2010PropOp33
 70
     1
102
RTVSPost2010Prop34
280
     0
102
RTVSPost2010PropOp34
 70
     1
102
RTVSPost2010Prop35
280
     0
102
RTVSPost2010PropOp35
 70
     1
102
RTVSPost2010Prop36
280
     0
102
RTVSPost2010PropOp36
 70
     1
102
RTVSPost2010Prop37
 90
       50
102
RTVSPost2010PropOp37
 70
     1
102
RTVSPost2010Prop38
140
0.0
102
RTVSPost2010PropOp38
 70
     1
102
RTVSPost2010Prop39
140
1.0
102
RTVSPost2010PropOp39
 70
     1
102
RTVSPost2010Prop40
 90
        0
102
RTVSPost2010PropOp40
 70
     1
102
RTVSPost2010Prop41ColorIndex
 90
       18
102
RTVSPost2010Prop41ColorRGB
 90
        0
102
RTVSPost2010PropOp41
 70
     1
102
RTVSPost2010Prop42
 90
       50
102
RTVSPost2010PropOp42
 70
     1
102
RTVSPost2010Prop43
 90
        3
102
RTVSPost2010PropOp43
 70
     1
102
RTVSPost2010Prop44ColorIndex
 90
        5
102
RTVSPost2010Prop44ColorRGB
 90
      255
102
RTVSPost2010PropOp44
 70
     1
102
RTVSPost2010Prop45
280
     0
102
RTVSPost2010PropOp45
 70
     1
102
RTVSPost2010Prop46
 90
       50
102
RTVSPost2010PropOp46
 70
     1
102
RTVSPost2010Prop47
 90
       50
102
RTVSPost2010PropOp47
 70
     1
102
RTVSPost2010Prop48
 90
       50
102
RTVSPost2010PropOp48
 70
     1
102
RTVSPost2010Prop49
280
     0
102
RTVSPost2010PropOp49
 70
     1
102
RTVSPost2010Prop50
 90
       50
102
RTVSPost2010PropOp50
 70
     1
102
RTVSPost2010Prop51ColorIndex
 90
      256
102
RTVSPost2010Prop51ColorRGB
 90
-16777216
102
RTVSPost2010PropOp51
 70
     0
102
RTVSPost2010Prop52
140
1.0
102
RTVSPost2010PropOp52
 70
     0
102
RTVSPost2010Prop53
 90
        2
102
RTVSPost2010PropOp53
 70
     1
102
RTVSPost2010Prop54
  1
strokes_ogs.tif
102
RTVSPost2010PropOp54
 70
     1
102
RTVSPost2010Prop55
280
     0
102
RTVSPost2010PropOp55
 70
     1
102
RTVSPost2010Prop56
140
1.0
102
RTVSPost2010PropOp56
 70
     1
102
RTVSPost2010Prop57
140
1.0
102
RTVSPost2010PropOp57
 70
     1
102
RTVSPropertyOp0
 70
     1
102
RTVSPropertyOp1
 70
     1
102
RTVSPropertyOp2
 70
     1
102
RTVSPropertyOp3
 70
     1
102
RTVSPropertyOp4
 70
     1
102
RTVSPropertyOp5
 70
     1
102
RTVSPropertyOp6
 70
     1
102
RTVSPropertyOp7
 70
     1
102
RTVSPropertyOp8
 70
     1
102
RTVSPropertyOp9
 70
     1
102
RTVSPropertyOp10
 70
     1
102
RTVSPropertyOp11
 70
     1
102
RTVSPropertyOp12
 70
     1
102
RTVSPropertyOp13
 70
     1
102
RTVSPropertyOp14
 70
     1
102
RTVSPropertyOp15
 70
     1
102
RTVSPropertyOp16
 70
     1
102
RTVSPropertyOp17
 70
     1
102
RTVSPropertyOp18
 70
     1
102
RTVSPropertyOp19
 70
     1
102
RTVSPropertyOp20
 70
     1
102
RTVSPropertyOp21
 70
     1
102
RTVSPropertyOp22
 70
     1
102
RTVSPropertyOp23
 70
     1
102
RTVSPropertyOp24
 70
     1
102
RTVSPropertyOp25
 70
     1
102
RTVSPropertyOp26
 70
     1
102
RTVSPropertyOp27
 70
     1
102
RTVSPropertyOp28
 70
     1
102
RTVSPropertyOp29
 70
     1
102
RTVSPropertyOp30
 70
     1
102
RTVSPropertyOp31
 70
     1
102
RTVSPropertyOp32
 70
     1
102
RTVSPropertyOp33
 70
     1
102
RTVSPropertyOp34
 70
     1
102
RTVSPropertyOp35
 70
     1
102
RTVSPropertyOp36
 70
     1
102
RTVSPropertyOp37
 70
     1
102
RTVSPropertyOp38
 70
     1
102
RTVSPropertyOp39
 70
     1
102
RTVSPropertyOp40
 70
     1
102
RTVSPropertyOp41
 70
     1
102
RTVSPropertyOp42
 70
     1
102
RTVSPropertyOp43
 70
     1
102
RTVSPropertyOp44
 70
     1
102
RTVSPropertyOp45
 70
     1
102
RTVSPropertyOp46
 70
     1
102
RTVSPropertyOp47
 70
     1
102
RTVSPropertyOp48
 70
     1
102
RTVSPropertyOp49
 70
     1
102
RTVSPropertyOp50
 70
     1
102
RTVSPropertyOp51
 70
     0
102
RTVSPropertyOp52
 70
     0
102
RTVSPropertyOp53
 70
     1
102
RTVSPropertyOp54
 70
     1
102
RTVSPropertyOp55
 70
     1
102
RTVSPropertyOp56
 70
     1
102
RTVSPropertyOp57
 70
     1
102
RTVSPropertyOp58
 70
     1
102
RTVSPropertyOp59
 70
     1
102
RTVSPropertyOp60
 70
     1
102
RTVSPropertyOp61
 70
     1
102
RTVSPropertyOp62
 70
     1
  0
XRECORD
  5
551
102
{ACAD_REACTORS
330
550
102
}
330
550
100
AcDbXrecord
280
     1
102
RTVSPost2010Prop28
280
     0
102
RTVSPost2010PropOp28
 70
     1
102
RTVSPost2010Prop29
280
     1
102
RTVSPost2010PropOp29
 70
     1
102
RTVSPost2010Prop30
280
     1
102
RTVSPost2010PropOp30
 70
     1
102
RTVSPost2010Prop31
280
     0
102
RTVSPost2010PropOp31
 70
     1
102
RTVSPost2010Prop32
280
     0
102
RTVSPost2010PropOp32
 70
     1
102
RTVSPost2010Prop33
280
     0
102
RTVSPost2010PropOp33
 70
     1
102
RTVSPost2010Prop34
280
     0
102
RTVSPost2010PropOp34
 70
     1
102
RTVSPost2010Prop35
280
     0
102
RTVSPost2010PropOp35
 70
     1
102
RTVSPost2010Prop36
280
     0
102
RTVSPost2010PropOp36
 70
     1
102
RTVSPost2010Prop37
 90
       50
102
RTVSPost2010PropOp37
 70
     0
102
RTVSPost2010Prop38
140
0.0
102
RTVSPost2010PropOp38
 70
     0
102
RTVSPost2010Prop39
140
1.0
102
RTVSPost2010PropOp39
 70
     0
102
RTVSPost2010Prop40
 90
        0
102
RTVSPost2010PropOp40
 70
     0
102
RTVSPost2010Prop41ColorIndex
 90
       18
102
RTVSPost2010Prop41ColorRGB
 90
        0
102
RTVSPost2010PropOp41
 70
     0
102
RTVSPost2010Prop42
 90
       50
102
RTVSPost2010PropOp42
 70
     0
102
RTVSPost2010Prop43
 90
        3
102
RTVSPost2010PropOp43
 70
     0
102
RTVSPost2010Prop44ColorIndex
 90
        5
102
RTVSPost2010Prop44ColorRGB
 90
      255
102
RTVSPost2010PropOp44
 70
     0
102
RTVSPost2010Prop45
280
     0
102
RTVSPost2010PropOp45
 70
     1
102
RTVSPost2010Prop46
 90
       50
102
RTVSPost2010PropOp46
 70
     0
102
RTVSPost2010Prop47
 90
       50
102
RTVSPost2010PropOp47
 70
     0
102
RTVSPost2010Prop48
 90
       50
102
RTVSPost2010PropOp48
 70
     0
102
RTVSPost2010Prop49
280
     0
102
RTVSPost2010PropOp49
 70
     1
102
RTVSPost2010Prop50
 90
       50
102
RTVSPost2010PropOp50
 70
     0
102
RTVSPost2010Prop51ColorIndex
 90
      256
102
RTVSPost2010Prop51ColorRGB
 90
-16777216
102
RTVSPost2010PropOp51
 70
     0
102
RTVSPost2010Prop52
140
1.0
102
RTVSPost2010PropOp52
 70
     0
102
RTVSPost2010Prop53
 90
        2
102
RTVSPost2010PropOp53
 70
     0
102
RTVSPost2010Prop54
  1
strokes_ogs.tif
102
RTVSPost2010PropOp54
 70
     0
102
RTVSPost2010Prop55
280
     0
102
RTVSPost2010PropOp55
 70
     1
102
RTVSPost2010Prop56
140
1.0
102
RTVSPost2010PropOp56
 70
     0
102
RTVSPost2010Prop57
140
1.0
102
RTVSPost2010PropOp57
 70
     0
102
RTVSPropertyOp0
 70
     0
102
RTVSPropertyOp1
 70
     0
102
RTVSPropertyOp2
 70
     0
102
RTVSPropertyOp3
 70
     0
102
RTVSPropertyOp4
 70
     0
102
RTVSPropertyOp5
 70
     0
102
RTVSPropertyOp6
 70
     0
102
RTVSPropertyOp7
 70
     0
102
RTVSPropertyOp8
 70
     0
102
RTVSPropertyOp9
 70
     0
102
RTVSPropertyOp10
 70
     0
102
RTVSPropertyOp11
 70
     0
102
RTVSPropertyOp12
 70
     0
102
RTVSPropertyOp13
 70
     0
102
RTVSPropertyOp14
 70
     2
102
RTVSPropertyOp15
 70
     0
102
RTVSPropertyOp16
 70
     0
102
RTVSPropertyOp17
 70
     0
102
RTVSPropertyOp18
 70
     0
102
RTVSPropertyOp19
 70
     0
102
RTVSPropertyOp20
 70
     0
102
RTVSPropertyOp21
 70
     0
102
RTVSPropertyOp22
 70
     0
102
RTVSPropertyOp23
 70
     0
102
RTVSPropertyOp24
 70
     0
102
RTVSPropertyOp25
 70
     0
102
RTVSPropertyOp26
 70
     0
102
RTVSPropertyOp27
 70
     0
102
RTVSPropertyOp28
 70
     1
102
RTVSPropertyOp29
 70
     1
102
RTVSPropertyOp30
 70
     1
102
RTVSPropertyOp31
 70
     1
102
RTVSPropertyOp32
 70
     1
102
RTVSPropertyOp33
 70
     1
102
RTVSPropertyOp34
 70
     1
102
RTVSPropertyOp35
 70
     1
102
RTVSPropertyOp36
 70
     1
102
RTVSPropertyOp37
 70
     0
102
RTVSPropertyOp38
 70
     0
102
RTVSPropertyOp39
 70
     0
102
RTVSPropertyOp40
 70
     0
102
RTVSPropertyOp41
 70
     0
102
RTVSPropertyOp42
 70
     0
102
RTVSPropertyOp43
 70
     0
102
RTVSPropertyOp44
 70
     0
102
RTVSPropertyOp45
 70
     1
102
RTVSPropertyOp46
 70
     0
102
RTVSPropertyOp47
 70
     0
102
RTVSPropertyOp48
 70
     0
102
RTVSPropertyOp49
 70
     1
102
RTVSPropertyOp50
 70
     0
102
RTVSPropertyOp51
 70
     0
102
RTVSPropertyOp52
 70
     0
102
RTVSPropertyOp53
 70
     0
102
RTVSPropertyOp54
 70
     0
102
RTVSPropertyOp55
 70
     1
102
RTVSPropertyOp56
 70
     0
102
RTVSPropertyOp57
 70
     0
102
RTVSPropertyOp58
 70
     0
102
RTVSPropertyOp59
 70
     0
102
RTVSPropertyOp60
 70
     0
102
RTVSPropertyOp61
 70
     0
102
RTVSPropertyOp62
 70
     0
  0
XRECORD
  5
53F
102
{ACAD_REACTORS
330
53E
102
}
330
53E
100
AcDbXrecord
280
     1
102
RTVSPost2010Prop28
280
     0
102
RTVSPost2010PropOp28
 70
     1
102
RTVSPost2010Prop29
280
     1
102
RTVSPost2010PropOp29
 70
     1
102
RTVSPost2010Prop30
280
     1
102
RTVSPost2010PropOp30
 70
     1
102
RTVSPost2010Prop31
280
     0
102
RTVSPost2010PropOp31
 70
     1
102
RTVSPost2010Prop32
280
     0
102
RTVSPost2010PropOp32
 70
     1
102
RTVSPost2010Prop33
280
     0
102
RTVSPost2010PropOp33
 70
     1
102
RTVSPost2010Prop34
280
     0
102
RTVSPost2010PropOp34
 70
     1
102
RTVSPost2010Prop35
280
     0
102
RTVSPost2010PropOp35
 70
     1
102
RTVSPost2010Prop36
280
     0
102
RTVSPost2010PropOp36
 70
     1
102
RTVSPost2010Prop37
 90
       50
102
RTVSPost2010PropOp37
 70
     1
102
RTVSPost2010Prop38
140
0.0
102
RTVSPost2010PropOp38
 70
     1
102
RTVSPost2010Prop39
140
1.0
102
RTVSPost2010PropOp39
 70
     1
102
RTVSPost2010Prop40
 90
        0
102
RTVSPost2010PropOp40
 70
     1
102
RTVSPost2010Prop41ColorIndex
 90
       18
102
RTVSPost2010Prop41ColorRGB
 90
        0
102
RTVSPost2010PropOp41
 70
     1
102
RTVSPost2010Prop42
 90
       50
102
RTVSPost2010PropOp42
 70
     1
102
RTVSPost2010Prop43
 90
        3
102
RTVSPost2010PropOp43
 70
     1
102
RTVSPost2010Prop44ColorIndex
 90
        5
102
RTVSPost2010Prop44ColorRGB
 90
      255
102
RTVSPost2010PropOp44
 70
     1
102
RTVSPost2010Prop45
280
     0
102
RTVSPost2010PropOp45
 70
     1
102
RTVSPost2010Prop46
 90
       50
102
RTVSPost2010PropOp46
 70
     1
102
RTVSPost2010Prop47
 90
       50
102
RTVSPost2010PropOp47
 70
     1
102
RTVSPost2010Prop48
 90
       50
102
RTVSPost2010PropOp48
 70
     1
102
RTVSPost2010Prop49
280
     0
102
RTVSPost2010PropOp49
 70
     1
102
RTVSPost2010Prop50
 90
       50
102
RTVSPost2010PropOp50
 70
     1
102
RTVSPost2010Prop51ColorIndex
 90
      256
102
RTVSPost2010Prop51ColorRGB
 90
-16777216
102
RTVSPost2010PropOp51
 70
     0
102
RTVSPost2010Prop52
140
1.0
102
RTVSPost2010PropOp52
 70
     0
102
RTVSPost2010Prop53
 90
        2
102
RTVSPost2010PropOp53
 70
     1
102
RTVSPost2010Prop54
  1
strokes_ogs.tif
102
RTVSPost2010PropOp54
 70
     1
102
RTVSPost2010Prop55
280
     0
102
RTVSPost2010PropOp55
 70
     1
102
RTVSPost2010Prop56
140
1.0
102
RTVSPost2010PropOp56
 70
     1
102
RTVSPost2010Prop57
140
1.0
102
RTVSPost2010PropOp57
 70
     1
102
RTVSPropertyOp0
 70
     1
102
RTVSPropertyOp1
 70
     1
102
RTVSPropertyOp2
 70
     1
102
RTVSPropertyOp3
 70
     1
102
RTVSPropertyOp4
 70
     1
102
RTVSPropertyOp5
 70
     1
102
RTVSPropertyOp6
 70
     1
102
RTVSPropertyOp7
 70
     1
102
RTVSPropertyOp8
 70
     1
102
RTVSPropertyOp9
 70
     1
102
RTVSPropertyOp10
 70
     1
102
RTVSPropertyOp11
 70
     1
102
RTVSPropertyOp12
 70
     1
102
RTVSPropertyOp13
 70
     1
102
RTVSPropertyOp14
 70
     1
102
RTVSPropertyOp15
 70
     1
102
RTVSPropertyOp16
 70
     1
102
RTVSPropertyOp17
 70
     1
102
RTVSPropertyOp18
 70
     1
102
RTVSPropertyOp19
 70
     1
102
RTVSPropertyOp20
 70
     1
102
RTVSPropertyOp21
 70
     1
102
RTVSPropertyOp22
 70
     1
102
RTVSPropertyOp23
 70
     1
102
RTVSPropertyOp24
 70
     1
102
RTVSPropertyOp25
 70
     1
102
RTVSPropertyOp26
 70
     1
102
RTVSPropertyOp27
 70
     1
102
RTVSPropertyOp28
 70
     1
102
RTVSPropertyOp29
 70
     1
102
RTVSPropertyOp30
 70
     1
102
RTVSPropertyOp31
 70
     1
102
RTVSPropertyOp32
 70
     1
102
RTVSPropertyOp33
 70
     1
102
RTVSPropertyOp34
 70
     1
102
RTVSPropertyOp35
 70
     1
102
RTVSPropertyOp36
 70
     1
102
RTVSPropertyOp37
 70
     1
102
RTVSPropertyOp38
 70
     1
102
RTVSPropertyOp39
 70
     1
102
RTVSPropertyOp40
 70
     1
102
RTVSPropertyOp41
 70
     1
102
RTVSPropertyOp42
 70
     1
102
RTVSPropertyOp43
 70
     1
102
RTVSPropertyOp44
 70
     1
102
RTVSPropertyOp45
 70
     1
102
RTVSPropertyOp46
 70
     1
102
RTVSPropertyOp47
 70
     1
102
RTVSPropertyOp48
 70
     1
102
RTVSPropertyOp49
 70
     1
102
RTVSPropertyOp50
 70
     1
102
RTVSPropertyOp51
 70
     0
102
RTVSPropertyOp52
 70
     0
102
RTVSPropertyOp53
 70
     1
102
RTVSPropertyOp54
 70
     1
102
RTVSPropertyOp55
 70
     1
102
RTVSPropertyOp56
 70
     1
102
RTVSPropertyOp57
 70
     1
102
RTVSPropertyOp58
 70
     1
102
RTVSPropertyOp59
 70
     1
102
RTVSPropertyOp60
 70
     1
102
RTVSPropertyOp61
 70
     1
102
RTVSPropertyOp62
 70
     1
  0
XRECORD
  5
523
102
{ACAD_REACTORS
330
522
102
}
330
522
100
AcDbXrecord
280
     1
102
RTVSPost2010Prop28
280
     0
102
RTVSPost2010PropOp28
 70
     1
102
RTVSPost2010Prop29
280
     1
102
RTVSPost2010PropOp29
 70
     1
102
RTVSPost2010Prop30
280
     1
102
RTVSPost2010PropOp30
 70
     1
102
RTVSPost2010Prop31
280
     0
102
RTVSPost2010PropOp31
 70
     1
102
RTVSPost2010Prop32
280
     0
102
RTVSPost2010PropOp32
 70
     1
102
RTVSPost2010Prop33
280
     0
102
RTVSPost2010PropOp33
 70
     1
102
RTVSPost2010Prop34
280
     0
102
RTVSPost2010PropOp34
 70
     1
102
RTVSPost2010Prop35
280
     0
102
RTVSPost2010PropOp35
 70
     1
102
RTVSPost2010Prop36
280
     0
102
RTVSPost2010PropOp36
 70
     1
102
RTVSPost2010Prop37
 90
       50
102
RTVSPost2010PropOp37
 70
     1
102
RTVSPost2010Prop38
140
0.0
102
RTVSPost2010PropOp38
 70
     1
102
RTVSPost2010Prop39
140
1.0
102
RTVSPost2010PropOp39
 70
     1
102
RTVSPost2010Prop40
 90
        0
102
RTVSPost2010PropOp40
 70
     1
102
RTVSPost2010Prop41ColorIndex
 90
       18
102
RTVSPost2010Prop41ColorRGB
 90
        0
102
RTVSPost2010PropOp41
 70
     1
102
RTVSPost2010Prop42
 90
       50
102
RTVSPost2010PropOp42
 70
     1
102
RTVSPost2010Prop43
 90
        3
102
RTVSPost2010PropOp43
 70
     1
102
RTVSPost2010Prop44ColorIndex
 90
        5
102
RTVSPost2010Prop44ColorRGB
 90
      255
102
RTVSPost2010PropOp44
 70
     1
102
RTVSPost2010Prop45
280
     0
102
RTVSPost2010PropOp45
 70
     1
102
RTVSPost2010Prop46
 90
       50
102
RTVSPost2010PropOp46
 70
     1
102
RTVSPost2010Prop47
 90
       50
102
RTVSPost2010PropOp47
 70
     1
102
RTVSPost2010Prop48
 90
       50
102
RTVSPost2010PropOp48
 70
     1
102
RTVSPost2010Prop49
280
     0
102
RTVSPost2010PropOp49
 70
     1
102
RTVSPost2010Prop50
 90
       50
102
RTVSPost2010PropOp50
 70
     1
102
RTVSPost2010Prop51ColorIndex
 90
      256
102
RTVSPost2010Prop51ColorRGB
 90
-16777216
102
RTVSPost2010PropOp51
 70
     0
102
RTVSPost2010Prop52
140
1.0
102
RTVSPost2010PropOp52
 70
     0
102
RTVSPost2010Prop53
 90
        2
102
RTVSPost2010PropOp53
 70
     1
102
RTVSPost2010Prop54
  1
strokes_ogs.tif
102
RTVSPost2010PropOp54
 70
     1
102
RTVSPost2010Prop55
280
     0
102
RTVSPost2010PropOp55
 70
     1
102
RTVSPost2010Prop56
140
1.0
102
RTVSPost2010PropOp56
 70
     1
102
RTVSPost2010Prop57
140
1.0
102
RTVSPost2010PropOp57
 70
     1
102
RTVSPropertyOp0
 70
     1
102
RTVSPropertyOp1
 70
     1
102
RTVSPropertyOp2
 70
     1
102
RTVSPropertyOp3
 70
     1
102
RTVSPropertyOp4
 70
     1
102
RTVSPropertyOp5
 70
     1
102
RTVSPropertyOp6
 70
     1
102
RTVSPropertyOp7
 70
     1
102
RTVSPropertyOp8
 70
     1
102
RTVSPropertyOp9
 70
     1
102
RTVSPropertyOp10
 70
     1
102
RTVSPropertyOp11
 70
     1
102
RTVSPropertyOp12
 70
     1
102
RTVSPropertyOp13
 70
     1
102
RTVSPropertyOp14
 70
     1
102
RTVSPropertyOp15
 70
     1
102
RTVSPropertyOp16
 70
     1
102
RTVSPropertyOp17
 70
     1
102
RTVSPropertyOp18
 70
     1
102
RTVSPropertyOp19
 70
     1
102
RTVSPropertyOp20
 70
     1
102
RTVSPropertyOp21
 70
     1
102
RTVSPropertyOp22
 70
     1
102
RTVSPropertyOp23
 70
     1
102
RTVSPropertyOp24
 70
     1
102
RTVSPropertyOp25
 70
     1
102
RTVSPropertyOp26
 70
     1
102
RTVSPropertyOp27
 70
     1
102
RTVSPropertyOp28
 70
     1
102
RTVSPropertyOp29
 70
     1
102
RTVSPropertyOp30
 70
     1
102
RTVSPropertyOp31
 70
     1
102
RTVSPropertyOp32
 70
     1
102
RTVSPropertyOp33
 70
     1
102
RTVSPropertyOp34
 70
     1
102
RTVSPropertyOp35
 70
     1
102
RTVSPropertyOp36
 70
     1
102
RTVSPropertyOp37
 70
     1
102
RTVSPropertyOp38
 70
     1
102
RTVSPropertyOp39
 70
     1
102
RTVSPropertyOp40
 70
     1
102
RTVSPropertyOp41
 70
     1
102
RTVSPropertyOp42
 70
     1
102
RTVSPropertyOp43
 70
     1
102
RTVSPropertyOp44
 70
     1
102
RTVSPropertyOp45
 70
     1
102
RTVSPropertyOp46
 70
     1
102
RTVSPropertyOp47
 70
     1
102
RTVSPropertyOp48
 70
     1
102
RTVSPropertyOp49
 70
     1
102
RTVSPropertyOp50
 70
     1
102
RTVSPropertyOp51
 70
     0
102
RTVSPropertyOp52
 70
     0
102
RTVSPropertyOp53
 70
     1
102
RTVSPropertyOp54
 70
     1
102
RTVSPropertyOp55
 70
     1
102
RTVSPropertyOp56
 70
     1
102
RTVSPropertyOp57
 70
     1
102
RTVSPropertyOp58
 70
     1
102
RTVSPropertyOp59
 70
     1
102
RTVSPropertyOp60
 70
     1
102
RTVSPropertyOp61
 70
     1
102
RTVSPropertyOp62
 70
     1
  0
XRECORD
  5
525
102
{ACAD_REACTORS
330
524
102
}
330
524
100
AcDbXrecord
280
     1
102
RTVSPost2010Prop28
280
     0
102
RTVSPost2010PropOp28
 70
     1
102
RTVSPost2010Prop29
280
     1
102
RTVSPost2010PropOp29
 70
     1
102
RTVSPost2010Prop30
280
     1
102
RTVSPost2010PropOp30
 70
     1
102
RTVSPost2010Prop31
280
     0
102
RTVSPost2010PropOp31
 70
     1
102
RTVSPost2010Prop32
280
     0
102
RTVSPost2010PropOp32
 70
     1
102
RTVSPost2010Prop33
280
     0
102
RTVSPost2010PropOp33
 70
     1
102
RTVSPost2010Prop34
280
     0
102
RTVSPost2010PropOp34
 70
     1
102
RTVSPost2010Prop35
280
     0
102
RTVSPost2010PropOp35
 70
     1
102
RTVSPost2010Prop36
280
     0
102
RTVSPost2010PropOp36
 70
     1
102
RTVSPost2010Prop37
 90
       50
102
RTVSPost2010PropOp37
 70
     1
102
RTVSPost2010Prop38
140
0.0
102
RTVSPost2010PropOp38
 70
     1
102
RTVSPost2010Prop39
140
1.0
102
RTVSPost2010PropOp39
 70
     1
102
RTVSPost2010Prop40
 90
        0
102
RTVSPost2010PropOp40
 70
     1
102
RTVSPost2010Prop41ColorIndex
 90
       18
102
RTVSPost2010Prop41ColorRGB
 90
        0
102
RTVSPost2010PropOp41
 70
     1
102
RTVSPost2010Prop42
 90
       50
102
RTVSPost2010PropOp42
 70
     1
102
RTVSPost2010Prop43
 90
        3
102
RTVSPost2010PropOp43
 70
     1
102
RTVSPost2010Prop44ColorIndex
 90
        5
102
RTVSPost2010Prop44ColorRGB
 90
      255
102
RTVSPost2010PropOp44
 70
     1
102
RTVSPost2010Prop45
280
     0
102
RTVSPost2010PropOp45
 70
     1
102
RTVSPost2010Prop46
 90
       50
102
RTVSPost2010PropOp46
 70
     1
102
RTVSPost2010Prop47
 90
       50
102
RTVSPost2010PropOp47
 70
     1
102
RTVSPost2010Prop48
 90
       50
102
RTVSPost2010PropOp48
 70
     1
102
RTVSPost2010Prop49
280
     0
102
RTVSPost2010PropOp49
 70
     1
102
RTVSPost2010Prop50
 90
       50
102
RTVSPost2010PropOp50
 70
     1
102
RTVSPost2010Prop51ColorIndex
 90
      256
102
RTVSPost2010Prop51ColorRGB
 90
-16777216
102
RTVSPost2010PropOp51
 70
     0
102
RTVSPost2010Prop52
140
1.0
102
RTVSPost2010PropOp52
 70
     0
102
RTVSPost2010Prop53
 90
        2
102
RTVSPost2010PropOp53
 70
     1
102
RTVSPost2010Prop54
  1
strokes_ogs.tif
102
RTVSPost2010PropOp54
 70
     1
102
RTVSPost2010Prop55
280
     0
102
RTVSPost2010PropOp55
 70
     1
102
RTVSPost2010Prop56
140
1.0
102
RTVSPost2010PropOp56
 70
     1
102
RTVSPost2010Prop57
140
1.0
102
RTVSPost2010PropOp57
 70
     1
102
RTVSPropertyOp0
 70
     1
102
RTVSPropertyOp1
 70
     1
102
RTVSPropertyOp2
 70
     1
102
RTVSPropertyOp3
 70
     1
102
RTVSPropertyOp4
 70
     1
102
RTVSPropertyOp5
 70
     1
102
RTVSPropertyOp6
 70
     1
102
RTVSPropertyOp7
 70
     1
102
RTVSPropertyOp8
 70
     1
102
RTVSPropertyOp9
 70
     1
102
RTVSPropertyOp10
 70
     1
102
RTVSPropertyOp11
 70
     1
102
RTVSPropertyOp12
 70
     1
102
RTVSPropertyOp13
 70
     1
102
RTVSPropertyOp14
 70
     1
102
RTVSPropertyOp15
 70
     1
102
RTVSPropertyOp16
 70
     1
102
RTVSPropertyOp17
 70
     1
102
RTVSPropertyOp18
 70
     1
102
RTVSPropertyOp19
 70
     1
102
RTVSPropertyOp20
 70
     1
102
RTVSPropertyOp21
 70
     1
102
RTVSPropertyOp22
 70
     1
102
RTVSPropertyOp23
 70
     1
102
RTVSPropertyOp24
 70
     1
102
RTVSPropertyOp25
 70
     1
102
RTVSPropertyOp26
 70
     1
102
RTVSPropertyOp27
 70
     1
102
RTVSPropertyOp28
 70
     1
102
RTVSPropertyOp29
 70
     1
102
RTVSPropertyOp30
 70
     1
102
RTVSPropertyOp31
 70
     1
102
RTVSPropertyOp32
 70
     1
102
RTVSPropertyOp33
 70
     1
102
RTVSPropertyOp34
 70
     1
102
RTVSPropertyOp35
 70
     1
102
RTVSPropertyOp36
 70
     1
102
RTVSPropertyOp37
 70
     1
102
RTVSPropertyOp38
 70
     1
102
RTVSPropertyOp39
 70
     1
102
RTVSPropertyOp40
 70
     1
102
RTVSPropertyOp41
 70
     1
102
RTVSPropertyOp42
 70
     1
102
RTVSPropertyOp43
 70
     1
102
RTVSPropertyOp44
 70
     1
102
RTVSPropertyOp45
 70
     1
102
RTVSPropertyOp46
 70
     1
102
RTVSPropertyOp47
 70
     1
102
RTVSPropertyOp48
 70
     1
102
RTVSPropertyOp49
 70
     1
102
RTVSPropertyOp50
 70
     1
102
RTVSPropertyOp51
 70
     0
102
RTVSPropertyOp52
 70
     0
102
RTVSPropertyOp53
 70
     1
102
RTVSPropertyOp54
 70
     1
102
RTVSPropertyOp55
 70
     1
102
RTVSPropertyOp56
 70
     1
102
RTVSPropertyOp57
 70
     1
102
RTVSPropertyOp58
 70
     1
102
RTVSPropertyOp59
 70
     1
102
RTVSPropertyOp60
 70
     1
102
RTVSPropertyOp61
 70
     1
102
RTVSPropertyOp62
 70
     1
  0
XRECORD
  5
527
102
{ACAD_REACTORS
330
526
102
}
330
526
100
AcDbXrecord
280
     1
102
RTVSPost2010Prop28
280
     0
102
RTVSPost2010PropOp28
 70
     1
102
RTVSPost2010Prop29
280
     1
102
RTVSPost2010PropOp29
 70
     1
102
RTVSPost2010Prop30
280
     1
102
RTVSPost2010PropOp30
 70
     1
102
RTVSPost2010Prop31
280
     0
102
RTVSPost2010PropOp31
 70
     1
102
RTVSPost2010Prop32
280
     0
102
RTVSPost2010PropOp32
 70
     1
102
RTVSPost2010Prop33
280
     0
102
RTVSPost2010PropOp33
 70
     1
102
RTVSPost2010Prop34
280
     0
102
RTVSPost2010PropOp34
 70
     1
102
RTVSPost2010Prop35
280
     0
102
RTVSPost2010PropOp35
 70
     1
102
RTVSPost2010Prop36
280
     0
102
RTVSPost2010PropOp36
 70
     1
102
RTVSPost2010Prop37
 90
       50
102
RTVSPost2010PropOp37
 70
     1
102
RTVSPost2010Prop38
140
0.0
102
RTVSPost2010PropOp38
 70
     1
102
RTVSPost2010Prop39
140
1.0
102
RTVSPost2010PropOp39
 70
     1
102
RTVSPost2010Prop40
 90
        0
102
RTVSPost2010PropOp40
 70
     1
102
RTVSPost2010Prop41ColorIndex
 90
       18
102
RTVSPost2010Prop41ColorRGB
 90
        0
102
RTVSPost2010PropOp41
 70
     1
102
RTVSPost2010Prop42
 90
       50
102
RTVSPost2010PropOp42
 70
     1
102
RTVSPost2010Prop43
 90
        3
102
RTVSPost2010PropOp43
 70
     1
102
RTVSPost2010Prop44ColorIndex
 90
        5
102
RTVSPost2010Prop44ColorRGB
 90
      255
102
RTVSPost2010PropOp44
 70
     1
102
RTVSPost2010Prop45
280
     0
102
RTVSPost2010PropOp45
 70
     1
102
RTVSPost2010Prop46
 90
       50
102
RTVSPost2010PropOp46
 70
     1
102
RTVSPost2010Prop47
 90
       50
102
RTVSPost2010PropOp47
 70
     1
102
RTVSPost2010Prop48
 90
       50
102
RTVSPost2010PropOp48
 70
     1
102
RTVSPost2010Prop49
280
     0
102
RTVSPost2010PropOp49
 70
     1
102
RTVSPost2010Prop50
 90
       50
102
RTVSPost2010PropOp50
 70
     1
102
RTVSPost2010Prop51ColorIndex
 90
      256
102
RTVSPost2010Prop51ColorRGB
 90
-16777216
102
RTVSPost2010PropOp51
 70
     0
102
RTVSPost2010Prop52
140
1.0
102
RTVSPost2010PropOp52
 70
     0
102
RTVSPost2010Prop53
 90
        2
102
RTVSPost2010PropOp53
 70
     1
102
RTVSPost2010Prop54
  1
strokes_ogs.tif
102
RTVSPost2010PropOp54
 70
     1
102
RTVSPost2010Prop55
280
     0
102
RTVSPost2010PropOp55
 70
     1
102
RTVSPost2010Prop56
140
1.0
102
RTVSPost2010PropOp56
 70
     1
102
RTVSPost2010Prop57
140
1.0
102
RTVSPost2010PropOp57
 70
     1
102
RTVSPropertyOp0
 70
     1
102
RTVSPropertyOp1
 70
     1
102
RTVSPropertyOp2
 70
     1
102
RTVSPropertyOp3
 70
     1
102
RTVSPropertyOp4
 70
     1
102
RTVSPropertyOp5
 70
     1
102
RTVSPropertyOp6
 70
     1
102
RTVSPropertyOp7
 70
     1
102
RTVSPropertyOp8
 70
     1
102
RTVSPropertyOp9
 70
     1
102
RTVSPropertyOp10
 70
     1
102
RTVSPropertyOp11
 70
     1
102
RTVSPropertyOp12
 70
     1
102
RTVSPropertyOp13
 70
     1
102
RTVSPropertyOp14
 70
     1
102
RTVSPropertyOp15
 70
     1
102
RTVSPropertyOp16
 70
     1
102
RTVSPropertyOp17
 70
     1
102
RTVSPropertyOp18
 70
     1
102
RTVSPropertyOp19
 70
     1
102
RTVSPropertyOp20
 70
     1
102
RTVSPropertyOp21
 70
     1
102
RTVSPropertyOp22
 70
     1
102
RTVSPropertyOp23
 70
     1
102
RTVSPropertyOp24
 70
     1
102
RTVSPropertyOp25
 70
     1
102
RTVSPropertyOp26
 70
     1
102
RTVSPropertyOp27
 70
     1
102
RTVSPropertyOp28
 70
     1
102
RTVSPropertyOp29
 70
     1
102
RTVSPropertyOp30
 70
     1
102
RTVSPropertyOp31
 70
     1
102
RTVSPropertyOp32
 70
     1
102
RTVSPropertyOp33
 70
     1
102
RTVSPropertyOp34
 70
     1
102
RTVSPropertyOp35
 70
     1
102
RTVSPropertyOp36
 70
     1
102
RTVSPropertyOp37
 70
     1
102
RTVSPropertyOp38
 70
     1
102
RTVSPropertyOp39
 70
     1
102
RTVSPropertyOp40
 70
     1
102
RTVSPropertyOp41
 70
     1
102
RTVSPropertyOp42
 70
     1
102
RTVSPropertyOp43
 70
     1
102
RTVSPropertyOp44
 70
     1
102
RTVSPropertyOp45
 70
     1
102
RTVSPropertyOp46
 70
     1
102
RTVSPropertyOp47
 70
     1
102
RTVSPropertyOp48
 70
     1
102
RTVSPropertyOp49
 70
     1
102
RTVSPropertyOp50
 70
     1
102
RTVSPropertyOp51
 70
     0
102
RTVSPropertyOp52
 70
     0
102
RTVSPropertyOp53
 70
     1
102
RTVSPropertyOp54
 70
     1
102
RTVSPropertyOp55
 70
     1
102
RTVSPropertyOp56
 70
     1
102
RTVSPropertyOp57
 70
     1
102
RTVSPropertyOp58
 70
     1
102
RTVSPropertyOp59
 70
     1
102
RTVSPropertyOp60
 70
     1
102
RTVSPropertyOp61
 70
     1
102
RTVSPropertyOp62
 70
     1
  0
XRECORD
  5
529
102
{ACAD_REACTORS
330
528
102
}
330
528
100
AcDbXrecord
280
     1
102
RTVSPost2010Prop28
280
     0
102
RTVSPost2010PropOp28
 70
     1
102
RTVSPost2010Prop29
280
     1
102
RTVSPost2010PropOp29
 70
     1
102
RTVSPost2010Prop30
280
     1
102
RTVSPost2010PropOp30
 70
     1
102
RTVSPost2010Prop31
280
     0
102
RTVSPost2010PropOp31
 70
     1
102
RTVSPost2010Prop32
280
     0
102
RTVSPost2010PropOp32
 70
     1
102
RTVSPost2010Prop33
280
     0
102
RTVSPost2010PropOp33
 70
     1
102
RTVSPost2010Prop34
280
     0
102
RTVSPost2010PropOp34
 70
     1
102
RTVSPost2010Prop35
280
     0
102
RTVSPost2010PropOp35
 70
     1
102
RTVSPost2010Prop36
280
     0
102
RTVSPost2010PropOp36
 70
     1
102
RTVSPost2010Prop37
 90
       50
102
RTVSPost2010PropOp37
 70
     1
102
RTVSPost2010Prop38
140
0.0
102
RTVSPost2010PropOp38
 70
     1
102
RTVSPost2010Prop39
140
1.0
102
RTVSPost2010PropOp39
 70
     1
102
RTVSPost2010Prop40
 90
        0
102
RTVSPost2010PropOp40
 70
     1
102
RTVSPost2010Prop41ColorIndex
 90
       18
102
RTVSPost2010Prop41ColorRGB
 90
        0
102
RTVSPost2010PropOp41
 70
     1
102
RTVSPost2010Prop42
 90
       50
102
RTVSPost2010PropOp42
 70
     1
102
RTVSPost2010Prop43
 90
        3
102
RTVSPost2010PropOp43
 70
     1
102
RTVSPost2010Prop44ColorIndex
 90
        5
102
RTVSPost2010Prop44ColorRGB
 90
      255
102
RTVSPost2010PropOp44
 70
     1
102
RTVSPost2010Prop45
280
     0
102
RTVSPost2010PropOp45
 70
     1
102
RTVSPost2010Prop46
 90
       50
102
RTVSPost2010PropOp46
 70
     1
102
RTVSPost2010Prop47
 90
       50
102
RTVSPost2010PropOp47
 70
     1
102
RTVSPost2010Prop48
 90
       50
102
RTVSPost2010PropOp48
 70
     1
102
RTVSPost2010Prop49
280
     0
102
RTVSPost2010PropOp49
 70
     1
102
RTVSPost2010Prop50
 90
       50
102
RTVSPost2010PropOp50
 70
     1
102
RTVSPost2010Prop51ColorIndex
 90
      256
102
RTVSPost2010Prop51ColorRGB
 90
-16777216
102
RTVSPost2010PropOp51
 70
     0
102
RTVSPost2010Prop52
140
1.0
102
RTVSPost2010PropOp52
 70
     0
102
RTVSPost2010Prop53
 90
        2
102
RTVSPost2010PropOp53
 70
     1
102
RTVSPost2010Prop54
  1
strokes_ogs.tif
102
RTVSPost2010PropOp54
 70
     1
102
RTVSPost2010Prop55
280
     0
102
RTVSPost2010PropOp55
 70
     1
102
RTVSPost2010Prop56
140
1.0
102
RTVSPost2010PropOp56
 70
     1
102
RTVSPost2010Prop57
140
1.0
102
RTVSPost2010PropOp57
 70
     1
102
RTVSPropertyOp0
 70
     1
102
RTVSPropertyOp1
 70
     1
102
RTVSPropertyOp2
 70
     1
102
RTVSPropertyOp3
 70
     1
102
RTVSPropertyOp4
 70
     1
102
RTVSPropertyOp5
 70
     1
102
RTVSPropertyOp6
 70
     1
102
RTVSPropertyOp7
 70
     1
102
RTVSPropertyOp8
 70
     1
102
RTVSPropertyOp9
 70
     1
102
RTVSPropertyOp10
 70
     1
102
RTVSPropertyOp11
 70
     1
102
RTVSPropertyOp12
 70
     1
102
RTVSPropertyOp13
 70
     1
102
RTVSPropertyOp14
 70
     1
102
RTVSPropertyOp15
 70
     1
102
RTVSPropertyOp16
 70
     1
102
RTVSPropertyOp17
 70
     1
102
RTVSPropertyOp18
 70
     1
102
RTVSPropertyOp19
 70
     1
102
RTVSPropertyOp20
 70
     1
102
RTVSPropertyOp21
 70
     1
102
RTVSPropertyOp22
 70
     1
102
RTVSPropertyOp23
 70
     1
102
RTVSPropertyOp24
 70
     1
102
RTVSPropertyOp25
 70
     1
102
RTVSPropertyOp26
 70
     1
102
RTVSPropertyOp27
 70
     1
102
RTVSPropertyOp28
 70
     1
102
RTVSPropertyOp29
 70
     1
102
RTVSPropertyOp30
 70
     1
102
RTVSPropertyOp31
 70
     1
102
RTVSPropertyOp32
 70
     1
102
RTVSPropertyOp33
 70
     1
102
RTVSPropertyOp34
 70
     1
102
RTVSPropertyOp35
 70
     1
102
RTVSPropertyOp36
 70
     1
102
RTVSPropertyOp37
 70
     1
102
RTVSPropertyOp38
 70
     1
102
RTVSPropertyOp39
 70
     1
102
RTVSPropertyOp40
 70
     1
102
RTVSPropertyOp41
 70
     1
102
RTVSPropertyOp42
 70
     1
102
RTVSPropertyOp43
 70
     1
102
RTVSPropertyOp44
 70
     1
102
RTVSPropertyOp45
 70
     1
102
RTVSPropertyOp46
 70
     1
102
RTVSPropertyOp47
 70
     1
102
RTVSPropertyOp48
 70
     1
102
RTVSPropertyOp49
 70
     1
102
RTVSPropertyOp50
 70
     1
102
RTVSPropertyOp51
 70
     0
102
RTVSPropertyOp52
 70
     0
102
RTVSPropertyOp53
 70
     1
102
RTVSPropertyOp54
 70
     1
102
RTVSPropertyOp55
 70
     1
102
RTVSPropertyOp56
 70
     1
102
RTVSPropertyOp57
 70
     1
102
RTVSPropertyOp58
 70
     1
102
RTVSPropertyOp59
 70
     1
102
RTVSPropertyOp60
 70
     1
102
RTVSPropertyOp61
 70
     1
102
RTVSPropertyOp62
 70
     1
  0
XRECORD
  5
531
102
{ACAD_REACTORS
330
530
102
}
330
530
100
AcDbXrecord
280
     1
102
RTVSPost2010Prop28
280
     0
102
RTVSPost2010PropOp28
 70
     1
102
RTVSPost2010Prop29
280
     1
102
RTVSPost2010PropOp29
 70
     1
102
RTVSPost2010Prop30
280
     1
102
RTVSPost2010PropOp30
 70
     1
102
RTVSPost2010Prop31
280
     0
102
RTVSPost2010PropOp31
 70
     1
102
RTVSPost2010Prop32
280
     0
102
RTVSPost2010PropOp32
 70
     1
102
RTVSPost2010Prop33
280
     0
102
RTVSPost2010PropOp33
 70
     1
102
RTVSPost2010Prop34
280
     0
102
RTVSPost2010PropOp34
 70
     1
102
RTVSPost2010Prop35
280
     0
102
RTVSPost2010PropOp35
 70
     1
102
RTVSPost2010Prop36
280
     0
102
RTVSPost2010PropOp36
 70
     1
102
RTVSPost2010Prop37
 90
       50
102
RTVSPost2010PropOp37
 70
     1
102
RTVSPost2010Prop38
140
0.0
102
RTVSPost2010PropOp38
 70
     1
102
RTVSPost2010Prop39
140
1.0
102
RTVSPost2010PropOp39
 70
     1
102
RTVSPost2010Prop40
 90
        0
102
RTVSPost2010PropOp40
 70
     1
102
RTVSPost2010Prop41ColorIndex
 90
       18
102
RTVSPost2010Prop41ColorRGB
 90
        0
102
RTVSPost2010PropOp41
 70
     1
102
RTVSPost2010Prop42
 90
       50
102
RTVSPost2010PropOp42
 70
     1
102
RTVSPost2010Prop43
 90
        3
102
RTVSPost2010PropOp43
 70
     1
102
RTVSPost2010Prop44ColorIndex
 90
        5
102
RTVSPost2010Prop44ColorRGB
 90
      255
102
RTVSPost2010PropOp44
 70
     1
102
RTVSPost2010Prop45
280
     0
102
RTVSPost2010PropOp45
 70
     1
102
RTVSPost2010Prop46
 90
       50
102
RTVSPost2010PropOp46
 70
     1
102
RTVSPost2010Prop47
 90
       50
102
RTVSPost2010PropOp47
 70
     1
102
RTVSPost2010Prop48
 90
       50
102
RTVSPost2010PropOp48
 70
     1
102
RTVSPost2010Prop49
280
     0
102
RTVSPost2010PropOp49
 70
     1
102
RTVSPost2010Prop50
 90
       50
102
RTVSPost2010PropOp50
 70
     1
102
RTVSPost2010Prop51ColorIndex
 90
      256
102
RTVSPost2010Prop51ColorRGB
 90
-16777216
102
RTVSPost2010PropOp51
 70
     0
102
RTVSPost2010Prop52
140
1.0
102
RTVSPost2010PropOp52
 70
     0
102
RTVSPost2010Prop53
 90
        2
102
RTVSPost2010PropOp53
 70
     1
102
RTVSPost2010Prop54
  1
strokes_ogs.tif
102
RTVSPost2010PropOp54
 70
     1
102
RTVSPost2010Prop55
280
     0
102
RTVSPost2010PropOp55
 70
     1
102
RTVSPost2010Prop56
140
1.0
102
RTVSPost2010PropOp56
 70
     1
102
RTVSPost2010Prop57
140
1.0
102
RTVSPost2010PropOp57
 70
     1
102
RTVSPropertyOp0
 70
     1
102
RTVSPropertyOp1
 70
     1
102
RTVSPropertyOp2
 70
     1
102
RTVSPropertyOp3
 70
     1
102
RTVSPropertyOp4
 70
     1
102
RTVSPropertyOp5
 70
     1
102
RTVSPropertyOp6
 70
     1
102
RTVSPropertyOp7
 70
     1
102
RTVSPropertyOp8
 70
     1
102
RTVSPropertyOp9
 70
     1
102
RTVSPropertyOp10
 70
     1
102
RTVSPropertyOp11
 70
     1
102
RTVSPropertyOp12
 70
     1
102
RTVSPropertyOp13
 70
     1
102
RTVSPropertyOp14
 70
     1
102
RTVSPropertyOp15
 70
     1
102
RTVSPropertyOp16
 70
     1
102
RTVSPropertyOp17
 70
     1
102
RTVSPropertyOp18
 70
     1
102
RTVSPropertyOp19
 70
     1
102
RTVSPropertyOp20
 70
     1
102
RTVSPropertyOp21
 70
     1
102
RTVSPropertyOp22
 70
     1
102
RTVSPropertyOp23
 70
     1
102
RTVSPropertyOp24
 70
     1
102
RTVSPropertyOp25
 70
     1
102
RTVSPropertyOp26
 70
     1
102
RTVSPropertyOp27
 70
     1
102
RTVSPropertyOp28
 70
     1
102
RTVSPropertyOp29
 70
     1
102
RTVSPropertyOp30
 70
     1
102
RTVSPropertyOp31
 70
     1
102
RTVSPropertyOp32
 70
     1
102
RTVSPropertyOp33
 70
     1
102
RTVSPropertyOp34
 70
     1
102
RTVSPropertyOp35
 70
     1
102
RTVSPropertyOp36
 70
     1
102
RTVSPropertyOp37
 70
     1
102
RTVSPropertyOp38
 70
     1
102
RTVSPropertyOp39
 70
     1
102
RTVSPropertyOp40
 70
     1
102
RTVSPropertyOp41
 70
     1
102
RTVSPropertyOp42
 70
     1
102
RTVSPropertyOp43
 70
     1
102
RTVSPropertyOp44
 70
     1
102
RTVSPropertyOp45
 70
     1
102
RTVSPropertyOp46
 70
     1
102
RTVSPropertyOp47
 70
     1
102
RTVSPropertyOp48
 70
     1
102
RTVSPropertyOp49
 70
     1
102
RTVSPropertyOp50
 70
     1
102
RTVSPropertyOp51
 70
     0
102
RTVSPropertyOp52
 70
     0
102
RTVSPropertyOp53
 70
     1
102
RTVSPropertyOp54
 70
     1
102
RTVSPropertyOp55
 70
     1
102
RTVSPropertyOp56
 70
     1
102
RTVSPropertyOp57
 70
     1
102
RTVSPropertyOp58
 70
     1
102
RTVSPropertyOp59
 70
     1
102
RTVSPropertyOp60
 70
     1
102
RTVSPropertyOp61
 70
     1
102
RTVSPropertyOp62
 70
     1
  0
XRECORD
  5
54D
102
{ACAD_REACTORS
330
54C
102
}
330
54C
100
AcDbXrecord
280
     1
102
RTVSPost2010Prop28
280
     0
102
RTVSPost2010PropOp28
 70
     1
102
RTVSPost2010Prop29
280
     1
102
RTVSPost2010PropOp29
 70
     1
102
RTVSPost2010Prop30
280
     1
102
RTVSPost2010PropOp30
 70
     1
102
RTVSPost2010Prop31
280
     0
102
RTVSPost2010PropOp31
 70
     1
102
RTVSPost2010Prop32
280
     0
102
RTVSPost2010PropOp32
 70
     1
102
RTVSPost2010Prop33
280
     0
102
RTVSPost2010PropOp33
 70
     1
102
RTVSPost2010Prop34
280
     0
102
RTVSPost2010PropOp34
 70
     1
102
RTVSPost2010Prop35
280
     0
102
RTVSPost2010PropOp35
 70
     1
102
RTVSPost2010Prop36
280
     0
102
RTVSPost2010PropOp36
 70
     1
102
RTVSPost2010Prop37
 90
       50
102
RTVSPost2010PropOp37
 70
     0
102
RTVSPost2010Prop38
140
0.0
102
RTVSPost2010PropOp38
 70
     0
102
RTVSPost2010Prop39
140
1.0
102
RTVSPost2010PropOp39
 70
     0
102
RTVSPost2010Prop40
 90
        0
102
RTVSPost2010PropOp40
 70
     0
102
RTVSPost2010Prop41ColorIndex
 90
       18
102
RTVSPost2010Prop41ColorRGB
 90
        0
102
RTVSPost2010PropOp41
 70
     0
102
RTVSPost2010Prop42
 90
       50
102
RTVSPost2010PropOp42
 70
     0
102
RTVSPost2010Prop43
 90
        3
102
RTVSPost2010PropOp43
 70
     0
102
RTVSPost2010Prop44ColorIndex
 90
        5
102
RTVSPost2010Prop44ColorRGB
 90
      255
102
RTVSPost2010PropOp44
 70
     0
102
RTVSPost2010Prop45
280
     0
102
RTVSPost2010PropOp45
 70
     1
102
RTVSPost2010Prop46
 90
       50
102
RTVSPost2010PropOp46
 70
     0
102
RTVSPost2010Prop47
 90
       50
102
RTVSPost2010PropOp47
 70
     0
102
RTVSPost2010Prop48
 90
       50
102
RTVSPost2010PropOp48
 70
     0
102
RTVSPost2010Prop49
280
     0
102
RTVSPost2010PropOp49
 70
     1
102
RTVSPost2010Prop50
 90
       50
102
RTVSPost2010PropOp50
 70
     0
102
RTVSPost2010Prop51ColorIndex
 90
      256
102
RTVSPost2010Prop51ColorRGB
 90
-16777216
102
RTVSPost2010PropOp51
 70
     0
102
RTVSPost2010Prop52
140
1.0
102
RTVSPost2010PropOp52
 70
     0
102
RTVSPost2010Prop53
 90
        2
102
RTVSPost2010PropOp53
 70
     0
102
RTVSPost2010Prop54
  1
strokes_ogs.tif
102
RTVSPost2010PropOp54
 70
     0
102
RTVSPost2010Prop55
280
     0
102
RTVSPost2010PropOp55
 70
     1
102
RTVSPost2010Prop56
140
1.0
102
RTVSPost2010PropOp56
 70
     0
102
RTVSPost2010Prop57
140
1.0
102
RTVSPost2010PropOp57
 70
     0
102
RTVSPropertyOp0
 70
     0
102
RTVSPropertyOp1
 70
     0
102
RTVSPropertyOp2
 70
     0
102
RTVSPropertyOp3
 70
     0
102
RTVSPropertyOp4
 70
     0
102
RTVSPropertyOp5
 70
     0
102
RTVSPropertyOp6
 70
     0
102
RTVSPropertyOp7
 70
     0
102
RTVSPropertyOp8
 70
     0
102
RTVSPropertyOp9
 70
     0
102
RTVSPropertyOp10
 70
     0
102
RTVSPropertyOp11
 70
     0
102
RTVSPropertyOp12
 70
     0
102
RTVSPropertyOp13
 70
     0
102
RTVSPropertyOp14
 70
     2
102
RTVSPropertyOp15
 70
     0
102
RTVSPropertyOp16
 70
     0
102
RTVSPropertyOp17
 70
     0
102
RTVSPropertyOp18
 70
     0
102
RTVSPropertyOp19
 70
     0
102
RTVSPropertyOp20
 70
     0
102
RTVSPropertyOp21
 70
     0
102
RTVSPropertyOp22
 70
     0
102
RTVSPropertyOp23
 70
     0
102
RTVSPropertyOp24
 70
     0
102
RTVSPropertyOp25
 70
     0
102
RTVSPropertyOp26
 70
     0
102
RTVSPropertyOp27
 70
     0
102
RTVSPropertyOp28
 70
     1
102
RTVSPropertyOp29
 70
     1
102
RTVSPropertyOp30
 70
     1
102
RTVSPropertyOp31
 70
     1
102
RTVSPropertyOp32
 70
     1
102
RTVSPropertyOp33
 70
     1
102
RTVSPropertyOp34
 70
     1
102
RTVSPropertyOp35
 70
     1
102
RTVSPropertyOp36
 70
     1
102
RTVSPropertyOp37
 70
     0
102
RTVSPropertyOp38
 70
     0
102
RTVSPropertyOp39
 70
     0
102
RTVSPropertyOp40
 70
     0
102
RTVSPropertyOp41
 70
     0
102
RTVSPropertyOp42
 70
     0
102
RTVSPropertyOp43
 70
     0
102
RTVSPropertyOp44
 70
     0
102
RTVSPropertyOp45
 70
     1
102
RTVSPropertyOp46
 70
     0
102
RTVSPropertyOp47
 70
     0
102
RTVSPropertyOp48
 70
     0
102
RTVSPropertyOp49
 70
     1
102
RTVSPropertyOp50
 70
     0
102
RTVSPropertyOp51
 70
     0
102
RTVSPropertyOp52
 70
     0
102
RTVSPropertyOp53
 70
     0
102
RTVSPropertyOp54
 70
     0
102
RTVSPropertyOp55
 70
     1
102
RTVSPropertyOp56
 70
     0
102
RTVSPropertyOp57
 70
     0
102
RTVSPropertyOp58
 70
     0
102
RTVSPropertyOp59
 70
     0
102
RTVSPropertyOp60
 70
     0
102
RTVSPropertyOp61
 70
     0
102
RTVSPropertyOp62
 70
     0
  0
XRECORD
  5
53D
102
{ACAD_REACTORS
330
53C
102
}
330
53C
100
AcDbXrecord
280
     1
102
RTVSPost2010Prop28
280
     0
102
RTVSPost2010PropOp28
 70
     1
102
RTVSPost2010Prop29
280
     1
102
RTVSPost2010PropOp29
 70
     1
102
RTVSPost2010Prop30
280
     1
102
RTVSPost2010PropOp30
 70
     1
102
RTVSPost2010Prop31
280
     0
102
RTVSPost2010PropOp31
 70
     1
102
RTVSPost2010Prop32
280
     0
102
RTVSPost2010PropOp32
 70
     1
102
RTVSPost2010Prop33
280
     0
102
RTVSPost2010PropOp33
 70
     1
102
RTVSPost2010Prop34
280
     0
102
RTVSPost2010PropOp34
 70
     1
102
RTVSPost2010Prop35
280
     0
102
RTVSPost2010PropOp35
 70
     1
102
RTVSPost2010Prop36
280
     0
102
RTVSPost2010PropOp36
 70
     1
102
RTVSPost2010Prop37
 90
       50
102
RTVSPost2010PropOp37
 70
     1
102
RTVSPost2010Prop38
140
0.0
102
RTVSPost2010PropOp38
 70
     1
102
RTVSPost2010Prop39
140
1.0
102
RTVSPost2010PropOp39
 70
     1
102
RTVSPost2010Prop40
 90
        0
102
RTVSPost2010PropOp40
 70
     1
102
RTVSPost2010Prop41ColorIndex
 90
       18
102
RTVSPost2010Prop41ColorRGB
 90
        0
102
RTVSPost2010PropOp41
 70
     1
102
RTVSPost2010Prop42
 90
       50
102
RTVSPost2010PropOp42
 70
     1
102
RTVSPost2010Prop43
 90
        3
102
RTVSPost2010PropOp43
 70
     1
102
RTVSPost2010Prop44ColorIndex
 90
        5
102
RTVSPost2010Prop44ColorRGB
 90
      255
102
RTVSPost2010PropOp44
 70
     1
102
RTVSPost2010Prop45
280
     0
102
RTVSPost2010PropOp45
 70
     1
102
RTVSPost2010Prop46
 90
       50
102
RTVSPost2010PropOp46
 70
     1
102
RTVSPost2010Prop47
 90
       50
102
RTVSPost2010PropOp47
 70
     1
102
RTVSPost2010Prop48
 90
       50
102
RTVSPost2010PropOp48
 70
     1
102
RTVSPost2010Prop49
280
     0
102
RTVSPost2010PropOp49
 70
     1
102
RTVSPost2010Prop50
 90
       50
102
RTVSPost2010PropOp50
 70
     1
102
RTVSPost2010Prop51ColorIndex
 90
      256
102
RTVSPost2010Prop51ColorRGB
 90
-16777216
102
RTVSPost2010PropOp51
 70
     0
102
RTVSPost2010Prop52
140
1.0
102
RTVSPost2010PropOp52
 70
     0
102
RTVSPost2010Prop53
 90
        2
102
RTVSPost2010PropOp53
 70
     1
102
RTVSPost2010Prop54
  1
strokes_ogs.tif
102
RTVSPost2010PropOp54
 70
     1
102
RTVSPost2010Prop55
280
     0
102
RTVSPost2010PropOp55
 70
     1
102
RTVSPost2010Prop56
140
1.0
102
RTVSPost2010PropOp56
 70
     1
102
RTVSPost2010Prop57
140
1.0
102
RTVSPost2010PropOp57
 70
     1
102
RTVSPropertyOp0
 70
     1
102
RTVSPropertyOp1
 70
     1
102
RTVSPropertyOp2
 70
     1
102
RTVSPropertyOp3
 70
     1
102
RTVSPropertyOp4
 70
     1
102
RTVSPropertyOp5
 70
     1
102
RTVSPropertyOp6
 70
     1
102
RTVSPropertyOp7
 70
     1
102
RTVSPropertyOp8
 70
     1
102
RTVSPropertyOp9
 70
     1
102
RTVSPropertyOp10
 70
     1
102
RTVSPropertyOp11
 70
     1
102
RTVSPropertyOp12
 70
     1
102
RTVSPropertyOp13
 70
     1
102
RTVSPropertyOp14
 70
     1
102
RTVSPropertyOp15
 70
     1
102
RTVSPropertyOp16
 70
     1
102
RTVSPropertyOp17
 70
     1
102
RTVSPropertyOp18
 70
     1
102
RTVSPropertyOp19
 70
     1
102
RTVSPropertyOp20
 70
     1
102
RTVSPropertyOp21
 70
     1
102
RTVSPropertyOp22
 70
     1
102
RTVSPropertyOp23
 70
     1
102
RTVSPropertyOp24
 70
     1
102
RTVSPropertyOp25
 70
     1
102
RTVSPropertyOp26
 70
     1
102
RTVSPropertyOp27
 70
     1
102
RTVSPropertyOp28
 70
     1
102
RTVSPropertyOp29
 70
     1
102
RTVSPropertyOp30
 70
     1
102
RTVSPropertyOp31
 70
     1
102
RTVSPropertyOp32
 70
     1
102
RTVSPropertyOp33
 70
     1
102
RTVSPropertyOp34
 70
     1
102
RTVSPropertyOp35
 70
     1
102
RTVSPropertyOp36
 70
     1
102
RTVSPropertyOp37
 70
     1
102
RTVSPropertyOp38
 70
     1
102
RTVSPropertyOp39
 70
     1
102
RTVSPropertyOp40
 70
     1
102
RTVSPropertyOp41
 70
     1
102
RTVSPropertyOp42
 70
     1
102
RTVSPropertyOp43
 70
     1
102
RTVSPropertyOp44
 70
     1
102
RTVSPropertyOp45
 70
     1
102
RTVSPropertyOp46
 70
     1
102
RTVSPropertyOp47
 70
     1
102
RTVSPropertyOp48
 70
     1
102
RTVSPropertyOp49
 70
     1
102
RTVSPropertyOp50
 70
     1
102
RTVSPropertyOp51
 70
     0
102
RTVSPropertyOp52
 70
     0
102
RTVSPropertyOp53
 70
     1
102
RTVSPropertyOp54
 70
     1
102
RTVSPropertyOp55
 70
     1
102
RTVSPropertyOp56
 70
     1
102
RTVSPropertyOp57
 70
     1
102
RTVSPropertyOp58
 70
     1
102
RTVSPropertyOp59
 70
     1
102
RTVSPropertyOp60
 70
     1
102
RTVSPropertyOp61
 70
     1
102
RTVSPropertyOp62
 70
     1
  0
XRECORD
  5
54F
102
{ACAD_REACTORS
330
54E
102
}
330
54E
100
AcDbXrecord
280
     1
102
RTVSPost2010Prop28
280
     0
102
RTVSPost2010PropOp28
 70
     1
102
RTVSPost2010Prop29
280
     1
102
RTVSPost2010PropOp29
 70
     1
102
RTVSPost2010Prop30
280
     1
102
RTVSPost2010PropOp30
 70
     1
102
RTVSPost2010Prop31
280
     0
102
RTVSPost2010PropOp31
 70
     1
102
RTVSPost2010Prop32
280
     0
102
RTVSPost2010PropOp32
 70
     1
102
RTVSPost2010Prop33
280
     0
102
RTVSPost2010PropOp33
 70
     1
102
RTVSPost2010Prop34
280
     0
102
RTVSPost2010PropOp34
 70
     1
102
RTVSPost2010Prop35
280
     0
102
RTVSPost2010PropOp35
 70
     1
102
RTVSPost2010Prop36
280
     0
102
RTVSPost2010PropOp36
 70
     1
102
RTVSPost2010Prop37
 90
       50
102
RTVSPost2010PropOp37
 70
     0
102
RTVSPost2010Prop38
140
0.0
102
RTVSPost2010PropOp38
 70
     0
102
RTVSPost2010Prop39
140
1.0
102
RTVSPost2010PropOp39
 70
     0
102
RTVSPost2010Prop40
 90
        0
102
RTVSPost2010PropOp40
 70
     0
102
RTVSPost2010Prop41ColorIndex
 90
       18
102
RTVSPost2010Prop41ColorRGB
 90
        0
102
RTVSPost2010PropOp41
 70
     0
102
RTVSPost2010Prop42
 90
       50
102
RTVSPost2010PropOp42
 70
     0
102
RTVSPost2010Prop43
 90
        3
102
RTVSPost2010PropOp43
 70
     0
102
RTVSPost2010Prop44ColorIndex
 90
        5
102
RTVSPost2010Prop44ColorRGB
 90
      255
102
RTVSPost2010PropOp44
 70
     0
102
RTVSPost2010Prop45
280
     0
102
RTVSPost2010PropOp45
 70
     1
102
RTVSPost2010Prop46
 90
       50
102
RTVSPost2010PropOp46
 70
     0
102
RTVSPost2010Prop47
 90
       50
102
RTVSPost2010PropOp47
 70
     0
102
RTVSPost2010Prop48
 90
       50
102
RTVSPost2010PropOp48
 70
     0
102
RTVSPost2010Prop49
280
     0
102
RTVSPost2010PropOp49
 70
     1
102
RTVSPost2010Prop50
 90
       50
102
RTVSPost2010PropOp50
 70
     0
102
RTVSPost2010Prop51ColorIndex
 90
      256
102
RTVSPost2010Prop51ColorRGB
 90
-16777216
102
RTVSPost2010PropOp51
 70
     0
102
RTVSPost2010Prop52
140
1.0
102
RTVSPost2010PropOp52
 70
     0
102
RTVSPost2010Prop53
 90
        2
102
RTVSPost2010PropOp53
 70
     0
102
RTVSPost2010Prop54
  1
strokes_ogs.tif
102
RTVSPost2010PropOp54
 70
     0
102
RTVSPost2010Prop55
280
     0
102
RTVSPost2010PropOp55
 70
     1
102
RTVSPost2010Prop56
140
1.0
102
RTVSPost2010PropOp56
 70
     0
102
RTVSPost2010Prop57
140
1.0
102
RTVSPost2010PropOp57
 70
     0
102
RTVSPropertyOp0
 70
     0
102
RTVSPropertyOp1
 70
     0
102
RTVSPropertyOp2
 70
     0
102
RTVSPropertyOp3
 70
     0
102
RTVSPropertyOp4
 70
     0
102
RTVSPropertyOp5
 70
     0
102
RTVSPropertyOp6
 70
     0
102
RTVSPropertyOp7
 70
     0
102
RTVSPropertyOp8
 70
     0
102
RTVSPropertyOp9
 70
     0
102
RTVSPropertyOp10
 70
     0
102
RTVSPropertyOp11
 70
     0
102
RTVSPropertyOp12
 70
     0
102
RTVSPropertyOp13
 70
     0
102
RTVSPropertyOp14
 70
     2
102
RTVSPropertyOp15
 70
     0
102
RTVSPropertyOp16
 70
     0
102
RTVSPropertyOp17
 70
     0
102
RTVSPropertyOp18
 70
     0
102
RTVSPropertyOp19
 70
     0
102
RTVSPropertyOp20
 70
     0
102
RTVSPropertyOp21
 70
     0
102
RTVSPropertyOp22
 70
     0
102
RTVSPropertyOp23
 70
     0
102
RTVSPropertyOp24
 70
     0
102
RTVSPropertyOp25
 70
     0
102
RTVSPropertyOp26
 70
     0
102
RTVSPropertyOp27
 70
     0
102
RTVSPropertyOp28
 70
     1
102
RTVSPropertyOp29
 70
     1
102
RTVSPropertyOp30
 70
     1
102
RTVSPropertyOp31
 70
     1
102
RTVSPropertyOp32
 70
     1
102
RTVSPropertyOp33
 70
     1
102
RTVSPropertyOp34
 70
     1
102
RTVSPropertyOp35
 70
     1
102
RTVSPropertyOp36
 70
     1
102
RTVSPropertyOp37
 70
     0
102
RTVSPropertyOp38
 70
     0
102
RTVSPropertyOp39
 70
     0
102
RTVSPropertyOp40
 70
     0
102
RTVSPropertyOp41
 70
     0
102
RTVSPropertyOp42
 70
     0
102
RTVSPropertyOp43
 70
     0
102
RTVSPropertyOp44
 70
     0
102
RTVSPropertyOp45
 70
     1
102
RTVSPropertyOp46
 70
     0
102
RTVSPropertyOp47
 70
     0
102
RTVSPropertyOp48
 70
     0
102
RTVSPropertyOp49
 70
     1
102
RTVSPropertyOp50
 70
     0
102
RTVSPropertyOp51
 70
     0
102
RTVSPropertyOp52
 70
     0
102
RTVSPropertyOp53
 70
     0
102
RTVSPropertyOp54
 70
     0
102
RTVSPropertyOp55
 70
     1
102
RTVSPropertyOp56
 70
     0
102
RTVSPropertyOp57
 70
     0
102
RTVSPropertyOp58
 70
     0
102
RTVSPropertyOp59
 70
     0
102
RTVSPropertyOp60
 70
     0
102
RTVSPropertyOp61
 70
     0
102
RTVSPropertyOp62
 70
     0
  0
XRECORD
  5
535
102
{ACAD_REACTORS
330
534
102
}
330
534
100
AcDbXrecord
280
     1
102
RTVSPost2010Prop28
280
     0
102
RTVSPost2010PropOp28
 70
     1
102
RTVSPost2010Prop29
280
     1
102
RTVSPost2010PropOp29
 70
     1
102
RTVSPost2010Prop30
280
     1
102
RTVSPost2010PropOp30
 70
     1
102
RTVSPost2010Prop31
280
     0
102
RTVSPost2010PropOp31
 70
     1
102
RTVSPost2010Prop32
280
     0
102
RTVSPost2010PropOp32
 70
     1
102
RTVSPost2010Prop33
280
     0
102
RTVSPost2010PropOp33
 70
     1
102
RTVSPost2010Prop34
280
     0
102
RTVSPost2010PropOp34
 70
     1
102
RTVSPost2010Prop35
280
     0
102
RTVSPost2010PropOp35
 70
     1
102
RTVSPost2010Prop36
280
     0
102
RTVSPost2010PropOp36
 70
     1
102
RTVSPost2010Prop37
 90
       50
102
RTVSPost2010PropOp37
 70
     1
102
RTVSPost2010Prop38
140
0.0
102
RTVSPost2010PropOp38
 70
     1
102
RTVSPost2010Prop39
140
1.0
102
RTVSPost2010PropOp39
 70
     1
102
RTVSPost2010Prop40
 90
        0
102
RTVSPost2010PropOp40
 70
     1
102
RTVSPost2010Prop41ColorIndex
 90
       18
102
RTVSPost2010Prop41ColorRGB
 90
        0
102
RTVSPost2010PropOp41
 70
     1
102
RTVSPost2010Prop42
 90
       50
102
RTVSPost2010PropOp42
 70
     1
102
RTVSPost2010Prop43
 90
        3
102
RTVSPost2010PropOp43
 70
     1
102
RTVSPost2010Prop44ColorIndex
 90
        5
102
RTVSPost2010Prop44ColorRGB
 90
      255
102
RTVSPost2010PropOp44
 70
     1
102
RTVSPost2010Prop45
280
     0
102
RTVSPost2010PropOp45
 70
     1
102
RTVSPost2010Prop46
 90
       50
102
RTVSPost2010PropOp46
 70
     1
102
RTVSPost2010Prop47
 90
       50
102
RTVSPost2010PropOp47
 70
     1
102
RTVSPost2010Prop48
 90
       50
102
RTVSPost2010PropOp48
 70
     1
102
RTVSPost2010Prop49
280
     0
102
RTVSPost2010PropOp49
 70
     1
102
RTVSPost2010Prop50
 90
       50
102
RTVSPost2010PropOp50
 70
     1
102
RTVSPost2010Prop51ColorIndex
 90
      256
102
RTVSPost2010Prop51ColorRGB
 90
-16777216
102
RTVSPost2010PropOp51
 70
     0
102
RTVSPost2010Prop52
140
1.0
102
RTVSPost2010PropOp52
 70
     0
102
RTVSPost2010Prop53
 90
        2
102
RTVSPost2010PropOp53
 70
     1
102
RTVSPost2010Prop54
  1
strokes_ogs.tif
102
RTVSPost2010PropOp54
 70
     1
102
RTVSPost2010Prop55
280
     0
102
RTVSPost2010PropOp55
 70
     1
102
RTVSPost2010Prop56
140
1.0
102
RTVSPost2010PropOp56
 70
     1
102
RTVSPost2010Prop57
140
1.0
102
RTVSPost2010PropOp57
 70
     1
102
RTVSPropertyOp0
 70
     1
102
RTVSPropertyOp1
 70
     1
102
RTVSPropertyOp2
 70
     1
102
RTVSPropertyOp3
 70
     1
102
RTVSPropertyOp4
 70
     1
102
RTVSPropertyOp5
 70
     1
102
RTVSPropertyOp6
 70
     1
102
RTVSPropertyOp7
 70
     1
102
RTVSPropertyOp8
 70
     1
102
RTVSPropertyOp9
 70
     1
102
RTVSPropertyOp10
 70
     1
102
RTVSPropertyOp11
 70
     1
102
RTVSPropertyOp12
 70
     1
102
RTVSPropertyOp13
 70
     1
102
RTVSPropertyOp14
 70
     1
102
RTVSPropertyOp15
 70
     1
102
RTVSPropertyOp16
 70
     1
102
RTVSPropertyOp17
 70
     1
102
RTVSPropertyOp18
 70
     1
102
RTVSPropertyOp19
 70
     1
102
RTVSPropertyOp20
 70
     1
102
RTVSPropertyOp21
 70
     1
102
RTVSPropertyOp22
 70
     1
102
RTVSPropertyOp23
 70
     1
102
RTVSPropertyOp24
 70
     1
102
RTVSPropertyOp25
 70
     1
102
RTVSPropertyOp26
 70
     1
102
RTVSPropertyOp27
 70
     1
102
RTVSPropertyOp28
 70
     1
102
RTVSPropertyOp29
 70
     1
102
RTVSPropertyOp30
 70
     1
102
RTVSPropertyOp31
 70
     1
102
RTVSPropertyOp32
 70
     1
102
RTVSPropertyOp33
 70
     1
102
RTVSPropertyOp34
 70
     1
102
RTVSPropertyOp35
 70
     1
102
RTVSPropertyOp36
 70
     1
102
RTVSPropertyOp37
 70
     1
102
RTVSPropertyOp38
 70
     1
102
RTVSPropertyOp39
 70
     1
102
RTVSPropertyOp40
 70
     1
102
RTVSPropertyOp41
 70
     1
102
RTVSPropertyOp42
 70
     1
102
RTVSPropertyOp43
 70
     1
102
RTVSPropertyOp44
 70
     1
102
RTVSPropertyOp45
 70
     1
102
RTVSPropertyOp46
 70
     1
102
RTVSPropertyOp47
 70
     1
102
RTVSPropertyOp48
 70
     1
102
RTVSPropertyOp49
 70
     1
102
RTVSPropertyOp50
 70
     1
102
RTVSPropertyOp51
 70
     0
102
RTVSPropertyOp52
 70
     0
102
RTVSPropertyOp53
 70
     1
102
RTVSPropertyOp54
 70
     1
102
RTVSPropertyOp55
 70
     1
102
RTVSPropertyOp56
 70
     1
102
RTVSPropertyOp57
 70
     1
102
RTVSPropertyOp58
 70
     1
102
RTVSPropertyOp59
 70
     1
102
RTVSPropertyOp60
 70
     1
102
RTVSPropertyOp61
 70
     1
102
RTVSPropertyOp62
 70
     1
  0
XRECORD
  5
54B
102
{ACAD_REACTORS
330
54A
102
}
330
54A
100
AcDbXrecord
280
     1
102
RTVSPost2010Prop28
280
     0
102
RTVSPost2010PropOp28
 70
     1
102
RTVSPost2010Prop29
280
     1
102
RTVSPost2010PropOp29
 70
     1
102
RTVSPost2010Prop30
280
     1
102
RTVSPost2010PropOp30
 70
     1
102
RTVSPost2010Prop31
280
     0
102
RTVSPost2010PropOp31
 70
     1
102
RTVSPost2010Prop32
280
     0
102
RTVSPost2010PropOp32
 70
     1
102
RTVSPost2010Prop33
280
     0
102
RTVSPost2010PropOp33
 70
     1
102
RTVSPost2010Prop34
280
     0
102
RTVSPost2010PropOp34
 70
     1
102
RTVSPost2010Prop35
280
     0
102
RTVSPost2010PropOp35
 70
     1
102
RTVSPost2010Prop36
280
     0
102
RTVSPost2010PropOp36
 70
     1
102
RTVSPost2010Prop37
 90
       50
102
RTVSPost2010PropOp37
 70
     1
102
RTVSPost2010Prop38
140
0.0
102
RTVSPost2010PropOp38
 70
     1
102
RTVSPost2010Prop39
140
1.0
102
RTVSPost2010PropOp39
 70
     1
102
RTVSPost2010Prop40
 90
        0
102
RTVSPost2010PropOp40
 70
     1
102
RTVSPost2010Prop41ColorIndex
 90
       18
102
RTVSPost2010Prop41ColorRGB
 90
        0
102
RTVSPost2010PropOp41
 70
     1
102
RTVSPost2010Prop42
 90
       50
102
RTVSPost2010PropOp42
 70
     1
102
RTVSPost2010Prop43
 90
        3
102
RTVSPost2010PropOp43
 70
     1
102
RTVSPost2010Prop44ColorIndex
 90
        5
102
RTVSPost2010Prop44ColorRGB
 90
      255
102
RTVSPost2010PropOp44
 70
     1
102
RTVSPost2010Prop45
280
     0
102
RTVSPost2010PropOp45
 70
     1
102
RTVSPost2010Prop46
 90
       50
102
RTVSPost2010PropOp46
 70
     1
102
RTVSPost2010Prop47
 90
       50
102
RTVSPost2010PropOp47
 70
     1
102
RTVSPost2010Prop48
 90
       50
102
RTVSPost2010PropOp48
 70
     1
102
RTVSPost2010Prop49
280
     0
102
RTVSPost2010PropOp49
 70
     1
102
RTVSPost2010Prop50
 90
       50
102
RTVSPost2010PropOp50
 70
     1
102
RTVSPost2010Prop51ColorIndex
 90
      256
102
RTVSPost2010Prop51ColorRGB
 90
-16777216
102
RTVSPost2010PropOp51
 70
     0
102
RTVSPost2010Prop52
140
1.0
102
RTVSPost2010PropOp52
 70
     0
102
RTVSPost2010Prop53
 90
        2
102
RTVSPost2010PropOp53
 70
     1
102
RTVSPost2010Prop54
  1
strokes_ogs.tif
102
RTVSPost2010PropOp54
 70
     1
102
RTVSPost2010Prop55
280
     0
102
RTVSPost2010PropOp55
 70
     1
102
RTVSPost2010Prop56
140
1.0
102
RTVSPost2010PropOp56
 70
     1
102
RTVSPost2010Prop57
140
1.0
102
RTVSPost2010PropOp57
 70
     1
102
RTVSPropertyOp0
 70
     1
102
RTVSPropertyOp1
 70
     1
102
RTVSPropertyOp2
 70
     1
102
RTVSPropertyOp3
 70
     1
102
RTVSPropertyOp4
 70
     1
102
RTVSPropertyOp5
 70
     1
102
RTVSPropertyOp6
 70
     1
102
RTVSPropertyOp7
 70
     1
102
RTVSPropertyOp8
 70
     1
102
RTVSPropertyOp9
 70
     1
102
RTVSPropertyOp10
 70
     1
102
RTVSPropertyOp11
 70
     1
102
RTVSPropertyOp12
 70
     1
102
RTVSPropertyOp13
 70
     1
102
RTVSPropertyOp14
 70
     1
102
RTVSPropertyOp15
 70
     1
102
RTVSPropertyOp16
 70
     1
102
RTVSPropertyOp17
 70
     1
102
RTVSPropertyOp18
 70
     1
102
RTVSPropertyOp19
 70
     1
102
RTVSPropertyOp20
 70
     1
102
RTVSPropertyOp21
 70
     1
102
RTVSPropertyOp22
 70
     1
102
RTVSPropertyOp23
 70
     1
102
RTVSPropertyOp24
 70
     1
102
RTVSPropertyOp25
 70
     1
102
RTVSPropertyOp26
 70
     1
102
RTVSPropertyOp27
 70
     1
102
RTVSPropertyOp28
 70
     1
102
RTVSPropertyOp29
 70
     1
102
RTVSPropertyOp30
 70
     1
102
RTVSPropertyOp31
 70
     1
102
RTVSPropertyOp32
 70
     1
102
RTVSPropertyOp33
 70
     1
102
RTVSPropertyOp34
 70
     1
102
RTVSPropertyOp35
 70
     1
102
RTVSPropertyOp36
 70
     1
102
RTVSPropertyOp37
 70
     1
102
RTVSPropertyOp38
 70
     1
102
RTVSPropertyOp39
 70
     1
102
RTVSPropertyOp40
 70
     1
102
RTVSPropertyOp41
 70
     1
102
RTVSPropertyOp42
 70
     1
102
RTVSPropertyOp43
 70
     1
102
RTVSPropertyOp44
 70
     1
102
RTVSPropertyOp45
 70
     1
102
RTVSPropertyOp46
 70
     1
102
RTVSPropertyOp47
 70
     1
102
RTVSPropertyOp48
 70
     1
102
RTVSPropertyOp49
 70
     1
102
RTVSPropertyOp50
 70
     1
102
RTVSPropertyOp51
 70
     0
102
RTVSPropertyOp52
 70
     0
102
RTVSPropertyOp53
 70
     1
102
RTVSPropertyOp54
 70
     1
102
RTVSPropertyOp55
 70
     1
102
RTVSPropertyOp56
 70
     1
102
RTVSPropertyOp57
 70
     1
102
RTVSPropertyOp58
 70
     1
102
RTVSPropertyOp59
 70
     1
102
RTVSPropertyOp60
 70
     1
102
RTVSPropertyOp61
 70
     1
102
RTVSPropertyOp62
 70
     1
  0
XRECORD
  5
549
102
{ACAD_REACTORS
330
548
102
}
330
548
100
AcDbXrecord
280
     1
102
RTVSPost2010Prop28
280
     0
102
RTVSPost2010PropOp28
 70
     1
102
RTVSPost2010Prop29
280
     1
102
RTVSPost2010PropOp29
 70
     1
102
RTVSPost2010Prop30
280
     1
102
RTVSPost2010PropOp30
 70
     1
102
RTVSPost2010Prop31
280
     0
102
RTVSPost2010PropOp31
 70
     1
102
RTVSPost2010Prop32
280
     0
102
RTVSPost2010PropOp32
 70
     1
102
RTVSPost2010Prop33
280
     0
102
RTVSPost2010PropOp33
 70
     1
102
RTVSPost2010Prop34
280
     0
102
RTVSPost2010PropOp34
 70
     1
102
RTVSPost2010Prop35
280
     0
102
RTVSPost2010PropOp35
 70
     1
102
RTVSPost2010Prop36
280
     0
102
RTVSPost2010PropOp36
 70
     1
102
RTVSPost2010Prop37
 90
       50
102
RTVSPost2010PropOp37
 70
     1
102
RTVSPost2010Prop38
140
0.0
102
RTVSPost2010PropOp38
 70
     1
102
RTVSPost2010Prop39
140
1.0
102
RTVSPost2010PropOp39
 70
     1
102
RTVSPost2010Prop40
 90
        0
102
RTVSPost2010PropOp40
 70
     1
102
RTVSPost2010Prop41ColorIndex
 90
       18
102
RTVSPost2010Prop41ColorRGB
 90
        0
102
RTVSPost2010PropOp41
 70
     1
102
RTVSPost2010Prop42
 90
       50
102
RTVSPost2010PropOp42
 70
     1
102
RTVSPost2010Prop43
 90
        3
102
RTVSPost2010PropOp43
 70
     1
102
RTVSPost2010Prop44ColorIndex
 90
        5
102
RTVSPost2010Prop44ColorRGB
 90
      255
102
RTVSPost2010PropOp44
 70
     1
102
RTVSPost2010Prop45
280
     0
102
RTVSPost2010PropOp45
 70
     1
102
RTVSPost2010Prop46
 90
       50
102
RTVSPost2010PropOp46
 70
     1
102
RTVSPost2010Prop47
 90
       50
102
RTVSPost2010PropOp47
 70
     1
102
RTVSPost2010Prop48
 90
       50
102
RTVSPost2010PropOp48
 70
     1
102
RTVSPost2010Prop49
280
     0
102
RTVSPost2010PropOp49
 70
     1
102
RTVSPost2010Prop50
 90
       50
102
RTVSPost2010PropOp50
 70
     1
102
RTVSPost2010Prop51ColorIndex
 90
      256
102
RTVSPost2010Prop51ColorRGB
 90
-16777216
102
RTVSPost2010PropOp51
 70
     0
102
RTVSPost2010Prop52
140
1.0
102
RTVSPost2010PropOp52
 70
     0
102
RTVSPost2010Prop53
 90
        2
102
RTVSPost2010PropOp53
 70
     1
102
RTVSPost2010Prop54
  1
strokes_ogs.tif
102
RTVSPost2010PropOp54
 70
     1
102
RTVSPost2010Prop55
280
     0
102
RTVSPost2010PropOp55
 70
     1
102
RTVSPost2010Prop56
140
1.0
102
RTVSPost2010PropOp56
 70
     1
102
RTVSPost2010Prop57
140
1.0
102
RTVSPost2010PropOp57
 70
     1
102
RTVSPropertyOp0
 70
     1
102
RTVSPropertyOp1
 70
     1
102
RTVSPropertyOp2
 70
     1
102
RTVSPropertyOp3
 70
     1
102
RTVSPropertyOp4
 70
     1
102
RTVSPropertyOp5
 70
     1
102
RTVSPropertyOp6
 70
     1
102
RTVSPropertyOp7
 70
     1
102
RTVSPropertyOp8
 70
     1
102
RTVSPropertyOp9
 70
     1
102
RTVSPropertyOp10
 70
     1
102
RTVSPropertyOp11
 70
     1
102
RTVSPropertyOp12
 70
     1
102
RTVSPropertyOp13
 70
     1
102
RTVSPropertyOp14
 70
     1
102
RTVSPropertyOp15
 70
     1
102
RTVSPropertyOp16
 70
     1
102
RTVSPropertyOp17
 70
     1
102
RTVSPropertyOp18
 70
     1
102
RTVSPropertyOp19
 70
     1
102
RTVSPropertyOp20
 70
     1
102
RTVSPropertyOp21
 70
     1
102
RTVSPropertyOp22
 70
     1
102
RTVSPropertyOp23
 70
     1
102
RTVSPropertyOp24
 70
     1
102
RTVSPropertyOp25
 70
     1
102
RTVSPropertyOp26
 70
     1
102
RTVSPropertyOp27
 70
     1
102
RTVSPropertyOp28
 70
     1
102
RTVSPropertyOp29
 70
     1
102
RTVSPropertyOp30
 70
     1
102
RTVSPropertyOp31
 70
     1
102
RTVSPropertyOp32
 70
     1
102
RTVSPropertyOp33
 70
     1
102
RTVSPropertyOp34
 70
     1
102
RTVSPropertyOp35
 70
     1
102
RTVSPropertyOp36
 70
     1
102
RTVSPropertyOp37
 70
     1
102
RTVSPropertyOp38
 70
     1
102
RTVSPropertyOp39
 70
     1
102
RTVSPropertyOp40
 70
     1
102
RTVSPropertyOp41
 70
     1
102
RTVSPropertyOp42
 70
     1
102
RTVSPropertyOp43
 70
     1
102
RTVSPropertyOp44
 70
     1
102
RTVSPropertyOp45
 70
     1
102
RTVSPropertyOp46
 70
     1
102
RTVSPropertyOp47
 70
     1
102
RTVSPropertyOp48
 70
     1
102
RTVSPropertyOp49
 70
     1
102
RTVSPropertyOp50
 70
     1
102
RTVSPropertyOp51
 70
     0
102
RTVSPropertyOp52
 70
     0
102
RTVSPropertyOp53
 70
     1
102
RTVSPropertyOp54
 70
     1
102
RTVSPropertyOp55
 70
     1
102
RTVSPropertyOp56
 70
     1
102
RTVSPropertyOp57
 70
     1
102
RTVSPropertyOp58
 70
     1
102
RTVSPropertyOp59
 70
     1
102
RTVSPropertyOp60
 70
     1
102
RTVSPropertyOp61
 70
     1
102
RTVSPropertyOp62
 70
     1
  0
XRECORD
  5
543
102
{ACAD_REACTORS
330
542
102
}
330
542
100
AcDbXrecord
280
     1
102
RTVSPost2010Prop28
280
     0
102
RTVSPost2010PropOp28
 70
     1
102
RTVSPost2010Prop29
280
     1
102
RTVSPost2010PropOp29
 70
     1
102
RTVSPost2010Prop30
280
     1
102
RTVSPost2010PropOp30
 70
     1
102
RTVSPost2010Prop31
280
     0
102
RTVSPost2010PropOp31
 70
     1
102
RTVSPost2010Prop32
280
     0
102
RTVSPost2010PropOp32
 70
     1
102
RTVSPost2010Prop33
280
     0
102
RTVSPost2010PropOp33
 70
     1
102
RTVSPost2010Prop34
280
     0
102
RTVSPost2010PropOp34
 70
     1
102
RTVSPost2010Prop35
280
     0
102
RTVSPost2010PropOp35
 70
     1
102
RTVSPost2010Prop36
280
     0
102
RTVSPost2010PropOp36
 70
     1
102
RTVSPost2010Prop37
 90
       50
102
RTVSPost2010PropOp37
 70
     1
102
RTVSPost2010Prop38
140
0.0
102
RTVSPost2010PropOp38
 70
     1
102
RTVSPost2010Prop39
140
1.0
102
RTVSPost2010PropOp39
 70
     1
102
RTVSPost2010Prop40
 90
        0
102
RTVSPost2010PropOp40
 70
     1
102
RTVSPost2010Prop41ColorIndex
 90
       18
102
RTVSPost2010Prop41ColorRGB
 90
        0
102
RTVSPost2010PropOp41
 70
     1
102
RTVSPost2010Prop42
 90
       50
102
RTVSPost2010PropOp42
 70
     1
102
RTVSPost2010Prop43
 90
        3
102
RTVSPost2010PropOp43
 70
     1
102
RTVSPost2010Prop44ColorIndex
 90
        5
102
RTVSPost2010Prop44ColorRGB
 90
      255
102
RTVSPost2010PropOp44
 70
     1
102
RTVSPost2010Prop45
280
     0
102
RTVSPost2010PropOp45
 70
     1
102
RTVSPost2010Prop46
 90
       50
102
RTVSPost2010PropOp46
 70
     1
102
RTVSPost2010Prop47
 90
       50
102
RTVSPost2010PropOp47
 70
     1
102
RTVSPost2010Prop48
 90
       50
102
RTVSPost2010PropOp48
 70
     1
102
RTVSPost2010Prop49
280
     0
102
RTVSPost2010PropOp49
 70
     1
102
RTVSPost2010Prop50
 90
       50
102
RTVSPost2010PropOp50
 70
     1
102
RTVSPost2010Prop51ColorIndex
 90
      256
102
RTVSPost2010Prop51ColorRGB
 90
-16777216
102
RTVSPost2010PropOp51
 70
     0
102
RTVSPost2010Prop52
140
1.0
102
RTVSPost2010PropOp52
 70
     0
102
RTVSPost2010Prop53
 90
        2
102
RTVSPost2010PropOp53
 70
     1
102
RTVSPost2010Prop54
  1
strokes_ogs.tif
102
RTVSPost2010PropOp54
 70
     1
102
RTVSPost2010Prop55
280
     0
102
RTVSPost2010PropOp55
 70
     1
102
RTVSPost2010Prop56
140
1.0
102
RTVSPost2010PropOp56
 70
     1
102
RTVSPost2010Prop57
140
1.0
102
RTVSPost2010PropOp57
 70
     1
102
RTVSPropertyOp0
 70
     1
102
RTVSPropertyOp1
 70
     1
102
RTVSPropertyOp2
 70
     1
102
RTVSPropertyOp3
 70
     1
102
RTVSPropertyOp4
 70
     1
102
RTVSPropertyOp5
 70
     1
102
RTVSPropertyOp6
 70
     1
102
RTVSPropertyOp7
 70
     1
102
RTVSPropertyOp8
 70
     1
102
RTVSPropertyOp9
 70
     1
102
RTVSPropertyOp10
 70
     1
102
RTVSPropertyOp11
 70
     1
102
RTVSPropertyOp12
 70
     1
102
RTVSPropertyOp13
 70
     1
102
RTVSPropertyOp14
 70
     1
102
RTVSPropertyOp15
 70
     1
102
RTVSPropertyOp16
 70
     1
102
RTVSPropertyOp17
 70
     1
102
RTVSPropertyOp18
 70
     1
102
RTVSPropertyOp19
 70
     1
102
RTVSPropertyOp20
 70
     1
102
RTVSPropertyOp21
 70
     1
102
RTVSPropertyOp22
 70
     1
102
RTVSPropertyOp23
 70
     1
102
RTVSPropertyOp24
 70
     1
102
RTVSPropertyOp25
 70
     1
102
RTVSPropertyOp26
 70
     1
102
RTVSPropertyOp27
 70
     1
102
RTVSPropertyOp28
 70
     1
102
RTVSPropertyOp29
 70
     1
102
RTVSPropertyOp30
 70
     1
102
RTVSPropertyOp31
 70
     1
102
RTVSPropertyOp32
 70
     1
102
RTVSPropertyOp33
 70
     1
102
RTVSPropertyOp34
 70
     1
102
RTVSPropertyOp35
 70
     1
102
RTVSPropertyOp36
 70
     1
102
RTVSPropertyOp37
 70
     1
102
RTVSPropertyOp38
 70
     1
102
RTVSPropertyOp39
 70
     1
102
RTVSPropertyOp40
 70
     1
102
RTVSPropertyOp41
 70
     1
102
RTVSPropertyOp42
 70
     1
102
RTVSPropertyOp43
 70
     1
102
RTVSPropertyOp44
 70
     1
102
RTVSPropertyOp45
 70
     1
102
RTVSPropertyOp46
 70
     1
102
RTVSPropertyOp47
 70
     1
102
RTVSPropertyOp48
 70
     1
102
RTVSPropertyOp49
 70
     1
102
RTVSPropertyOp50
 70
     1
102
RTVSPropertyOp51
 70
     0
102
RTVSPropertyOp52
 70
     0
102
RTVSPropertyOp53
 70
     1
102
RTVSPropertyOp54
 70
     1
102
RTVSPropertyOp55
 70
     1
102
RTVSPropertyOp56
 70
     1
102
RTVSPropertyOp57
 70
     1
102
RTVSPropertyOp58
 70
     1
102
RTVSPropertyOp59
 70
     1
102
RTVSPropertyOp60
 70
     1
102
RTVSPropertyOp61
 70
     1
102
RTVSPropertyOp62
 70
     1
  0
XRECORD
  5
545
102
{ACAD_REACTORS
330
544
102
}
330
544
100
AcDbXrecord
280
     1
102
RTVSPost2010Prop28
280
     0
102
RTVSPost2010PropOp28
 70
     1
102
RTVSPost2010Prop29
280
     1
102
RTVSPost2010PropOp29
 70
     1
102
RTVSPost2010Prop30
280
     1
102
RTVSPost2010PropOp30
 70
     1
102
RTVSPost2010Prop31
280
     0
102
RTVSPost2010PropOp31
 70
     1
102
RTVSPost2010Prop32
280
     0
102
RTVSPost2010PropOp32
 70
     1
102
RTVSPost2010Prop33
280
     0
102
RTVSPost2010PropOp33
 70
     1
102
RTVSPost2010Prop34
280
     0
102
RTVSPost2010PropOp34
 70
     1
102
RTVSPost2010Prop35
280
     0
102
RTVSPost2010PropOp35
 70
     1
102
RTVSPost2010Prop36
280
     0
102
RTVSPost2010PropOp36
 70
     1
102
RTVSPost2010Prop37
 90
       50
102
RTVSPost2010PropOp37
 70
     1
102
RTVSPost2010Prop38
140
0.0
102
RTVSPost2010PropOp38
 70
     1
102
RTVSPost2010Prop39
140
1.0
102
RTVSPost2010PropOp39
 70
     1
102
RTVSPost2010Prop40
 90
        0
102
RTVSPost2010PropOp40
 70
     1
102
RTVSPost2010Prop41ColorIndex
 90
       18
102
RTVSPost2010Prop41ColorRGB
 90
        0
102
RTVSPost2010PropOp41
 70
     1
102
RTVSPost2010Prop42
 90
       50
102
RTVSPost2010PropOp42
 70
     1
102
RTVSPost2010Prop43
 90
        3
102
RTVSPost2010PropOp43
 70
     1
102
RTVSPost2010Prop44ColorIndex
 90
        5
102
RTVSPost2010Prop44ColorRGB
 90
      255
102
RTVSPost2010PropOp44
 70
     1
102
RTVSPost2010Prop45
280
     0
102
RTVSPost2010PropOp45
 70
     1
102
RTVSPost2010Prop46
 90
       50
102
RTVSPost2010PropOp46
 70
     1
102
RTVSPost2010Prop47
 90
       50
102
RTVSPost2010PropOp47
 70
     1
102
RTVSPost2010Prop48
 90
       50
102
RTVSPost2010PropOp48
 70
     1
102
RTVSPost2010Prop49
280
     0
102
RTVSPost2010PropOp49
 70
     1
102
RTVSPost2010Prop50
 90
       50
102
RTVSPost2010PropOp50
 70
     1
102
RTVSPost2010Prop51ColorIndex
 90
      256
102
RTVSPost2010Prop51ColorRGB
 90
-16777216
102
RTVSPost2010PropOp51
 70
     0
102
RTVSPost2010Prop52
140
1.0
102
RTVSPost2010PropOp52
 70
     0
102
RTVSPost2010Prop53
 90
        2
102
RTVSPost2010PropOp53
 70
     1
102
RTVSPost2010Prop54
  1
strokes_ogs.tif
102
RTVSPost2010PropOp54
 70
     1
102
RTVSPost2010Prop55
280
     0
102
RTVSPost2010PropOp55
 70
     1
102
RTVSPost2010Prop56
140
1.0
102
RTVSPost2010PropOp56
 70
     1
102
RTVSPost2010Prop57
140
1.0
102
RTVSPost2010PropOp57
 70
     1
102
RTVSPropertyOp0
 70
     1
102
RTVSPropertyOp1
 70
     1
102
RTVSPropertyOp2
 70
     1
102
RTVSPropertyOp3
 70
     1
102
RTVSPropertyOp4
 70
     1
102
RTVSPropertyOp5
 70
     1
102
RTVSPropertyOp6
 70
     1
102
RTVSPropertyOp7
 70
     1
102
RTVSPropertyOp8
 70
     1
102
RTVSPropertyOp9
 70
     1
102
RTVSPropertyOp10
 70
     1
102
RTVSPropertyOp11
 70
     1
102
RTVSPropertyOp12
 70
     1
102
RTVSPropertyOp13
 70
     1
102
RTVSPropertyOp14
 70
     1
102
RTVSPropertyOp15
 70
     1
102
RTVSPropertyOp16
 70
     1
102
RTVSPropertyOp17
 70
     1
102
RTVSPropertyOp18
 70
     1
102
RTVSPropertyOp19
 70
     1
102
RTVSPropertyOp20
 70
     1
102
RTVSPropertyOp21
 70
     1
102
RTVSPropertyOp22
 70
     1
102
RTVSPropertyOp23
 70
     1
102
RTVSPropertyOp24
 70
     1
102
RTVSPropertyOp25
 70
     1
102
RTVSPropertyOp26
 70
     1
102
RTVSPropertyOp27
 70
     1
102
RTVSPropertyOp28
 70
     1
102
RTVSPropertyOp29
 70
     1
102
RTVSPropertyOp30
 70
     1
102
RTVSPropertyOp31
 70
     1
102
RTVSPropertyOp32
 70
     1
102
RTVSPropertyOp33
 70
     1
102
RTVSPropertyOp34
 70
     1
102
RTVSPropertyOp35
 70
     1
102
RTVSPropertyOp36
 70
     1
102
RTVSPropertyOp37
 70
     1
102
RTVSPropertyOp38
 70
     1
102
RTVSPropertyOp39
 70
     1
102
RTVSPropertyOp40
 70
     1
102
RTVSPropertyOp41
 70
     1
102
RTVSPropertyOp42
 70
     1
102
RTVSPropertyOp43
 70
     1
102
RTVSPropertyOp44
 70
     1
102
RTVSPropertyOp45
 70
     1
102
RTVSPropertyOp46
 70
     1
102
RTVSPropertyOp47
 70
     1
102
RTVSPropertyOp48
 70
     1
102
RTVSPropertyOp49
 70
     1
102
RTVSPropertyOp50
 70
     1
102
RTVSPropertyOp51
 70
     0
102
RTVSPropertyOp52
 70
     0
102
RTVSPropertyOp53
 70
     1
102
RTVSPropertyOp54
 70
     1
102
RTVSPropertyOp55
 70
     1
102
RTVSPropertyOp56
 70
     1
102
RTVSPropertyOp57
 70
     1
102
RTVSPropertyOp58
 70
     1
102
RTVSPropertyOp59
 70
     1
102
RTVSPropertyOp60
 70
     1
102
RTVSPropertyOp61
 70
     1
102
RTVSPropertyOp62
 70
     1
  0
XRECORD
  5
53B
102
{ACAD_REACTORS
330
53A
102
}
330
53A
100
AcDbXrecord
280
     1
102
RTVSPost2010Prop28
280
     0
102
RTVSPost2010PropOp28
 70
     1
102
RTVSPost2010Prop29
280
     1
102
RTVSPost2010PropOp29
 70
     1
102
RTVSPost2010Prop30
280
     1
102
RTVSPost2010PropOp30
 70
     1
102
RTVSPost2010Prop31
280
     0
102
RTVSPost2010PropOp31
 70
     1
102
RTVSPost2010Prop32
280
     0
102
RTVSPost2010PropOp32
 70
     1
102
RTVSPost2010Prop33
280
     0
102
RTVSPost2010PropOp33
 70
     1
102
RTVSPost2010Prop34
280
     0
102
RTVSPost2010PropOp34
 70
     1
102
RTVSPost2010Prop35
280
     0
102
RTVSPost2010PropOp35
 70
     1
102
RTVSPost2010Prop36
280
     0
102
RTVSPost2010PropOp36
 70
     1
102
RTVSPost2010Prop37
 90
       50
102
RTVSPost2010PropOp37
 70
     1
102
RTVSPost2010Prop38
140
0.0
102
RTVSPost2010PropOp38
 70
     1
102
RTVSPost2010Prop39
140
1.0
102
RTVSPost2010PropOp39
 70
     1
102
RTVSPost2010Prop40
 90
        0
102
RTVSPost2010PropOp40
 70
     1
102
RTVSPost2010Prop41ColorIndex
 90
       18
102
RTVSPost2010Prop41ColorRGB
 90
        0
102
RTVSPost2010PropOp41
 70
     1
102
RTVSPost2010Prop42
 90
       50
102
RTVSPost2010PropOp42
 70
     1
102
RTVSPost2010Prop43
 90
        3
102
RTVSPost2010PropOp43
 70
     1
102
RTVSPost2010Prop44ColorIndex
 90
        5
102
RTVSPost2010Prop44ColorRGB
 90
      255
102
RTVSPost2010PropOp44
 70
     1
102
RTVSPost2010Prop45
280
     0
102
RTVSPost2010PropOp45
 70
     1
102
RTVSPost2010Prop46
 90
       50
102
RTVSPost2010PropOp46
 70
     1
102
RTVSPost2010Prop47
 90
       50
102
RTVSPost2010PropOp47
 70
     1
102
RTVSPost2010Prop48
 90
       50
102
RTVSPost2010PropOp48
 70
     1
102
RTVSPost2010Prop49
280
     0
102
RTVSPost2010PropOp49
 70
     1
102
RTVSPost2010Prop50
 90
       50
102
RTVSPost2010PropOp50
 70
     1
102
RTVSPost2010Prop51ColorIndex
 90
      256
102
RTVSPost2010Prop51ColorRGB
 90
-16777216
102
RTVSPost2010PropOp51
 70
     0
102
RTVSPost2010Prop52
140
1.0
102
RTVSPost2010PropOp52
 70
     0
102
RTVSPost2010Prop53
 90
        2
102
RTVSPost2010PropOp53
 70
     1
102
RTVSPost2010Prop54
  1
strokes_ogs.tif
102
RTVSPost2010PropOp54
 70
     1
102
RTVSPost2010Prop55
280
     0
102
RTVSPost2010PropOp55
 70
     1
102
RTVSPost2010Prop56
140
1.0
102
RTVSPost2010PropOp56
 70
     1
102
RTVSPost2010Prop57
140
1.0
102
RTVSPost2010PropOp57
 70
     1
102
RTVSPropertyOp0
 70
     1
102
RTVSPropertyOp1
 70
     1
102
RTVSPropertyOp2
 70
     1
102
RTVSPropertyOp3
 70
     1
102
RTVSPropertyOp4
 70
     1
102
RTVSPropertyOp5
 70
     1
102
RTVSPropertyOp6
 70
     1
102
RTVSPropertyOp7
 70
     1
102
RTVSPropertyOp8
 70
     1
102
RTVSPropertyOp9
 70
     1
102
RTVSPropertyOp10
 70
     1
102
RTVSPropertyOp11
 70
     1
102
RTVSPropertyOp12
 70
     1
102
RTVSPropertyOp13
 70
     1
102
RTVSPropertyOp14
 70
     1
102
RTVSPropertyOp15
 70
     1
102
RTVSPropertyOp16
 70
     1
102
RTVSPropertyOp17
 70
     1
102
RTVSPropertyOp18
 70
     1
102
RTVSPropertyOp19
 70
     1
102
RTVSPropertyOp20
 70
     1
102
RTVSPropertyOp21
 70
     1
102
RTVSPropertyOp22
 70
     1
102
RTVSPropertyOp23
 70
     1
102
RTVSPropertyOp24
 70
     1
102
RTVSPropertyOp25
 70
     1
102
RTVSPropertyOp26
 70
     1
102
RTVSPropertyOp27
 70
     1
102
RTVSPropertyOp28
 70
     1
102
RTVSPropertyOp29
 70
     1
102
RTVSPropertyOp30
 70
     1
102
RTVSPropertyOp31
 70
     1
102
RTVSPropertyOp32
 70
     1
102
RTVSPropertyOp33
 70
     1
102
RTVSPropertyOp34
 70
     1
102
RTVSPropertyOp35
 70
     1
102
RTVSPropertyOp36
 70
     1
102
RTVSPropertyOp37
 70
     1
102
RTVSPropertyOp38
 70
     1
102
RTVSPropertyOp39
 70
     1
102
RTVSPropertyOp40
 70
     1
102
RTVSPropertyOp41
 70
     1
102
RTVSPropertyOp42
 70
     1
102
RTVSPropertyOp43
 70
     1
102
RTVSPropertyOp44
 70
     1
102
RTVSPropertyOp45
 70
     1
102
RTVSPropertyOp46
 70
     1
102
RTVSPropertyOp47
 70
     1
102
RTVSPropertyOp48
 70
     1
102
RTVSPropertyOp49
 70
     1
102
RTVSPropertyOp50
 70
     1
102
RTVSPropertyOp51
 70
     0
102
RTVSPropertyOp52
 70
     0
102
RTVSPropertyOp53
 70
     1
102
RTVSPropertyOp54
 70
     1
102
RTVSPropertyOp55
 70
     1
102
RTVSPropertyOp56
 70
     1
102
RTVSPropertyOp57
 70
     1
102
RTVSPropertyOp58
 70
     1
102
RTVSPropertyOp59
 70
     1
102
RTVSPropertyOp60
 70
     1
102
RTVSPropertyOp61
 70
     1
102
RTVSPropertyOp62
 70
     1
  0
XRECORD
  5
52F
102
{ACAD_REACTORS
330
52E
102
}
330
52E
100
AcDbXrecord
280
     1
102
RTVSPost2010Prop28
280
     0
102
RTVSPost2010PropOp28
 70
     1
102
RTVSPost2010Prop29
280
     1
102
RTVSPost2010PropOp29
 70
     1
102
RTVSPost2010Prop30
280
     1
102
RTVSPost2010PropOp30
 70
     1
102
RTVSPost2010Prop31
280
     0
102
RTVSPost2010PropOp31
 70
     1
102
RTVSPost2010Prop32
280
     0
102
RTVSPost2010PropOp32
 70
     1
102
RTVSPost2010Prop33
280
     0
102
RTVSPost2010PropOp33
 70
     1
102
RTVSPost2010Prop34
280
     0
102
RTVSPost2010PropOp34
 70
     1
102
RTVSPost2010Prop35
280
     0
102
RTVSPost2010PropOp35
 70
     1
102
RTVSPost2010Prop36
280
     0
102
RTVSPost2010PropOp36
 70
     1
102
RTVSPost2010Prop37
 90
       50
102
RTVSPost2010PropOp37
 70
     1
102
RTVSPost2010Prop38
140
0.0
102
RTVSPost2010PropOp38
 70
     1
102
RTVSPost2010Prop39
140
1.0
102
RTVSPost2010PropOp39
 70
     1
102
RTVSPost2010Prop40
 90
        0
102
RTVSPost2010PropOp40
 70
     1
102
RTVSPost2010Prop41ColorIndex
 90
       18
102
RTVSPost2010Prop41ColorRGB
 90
        0
102
RTVSPost2010PropOp41
 70
     1
102
RTVSPost2010Prop42
 90
       50
102
RTVSPost2010PropOp42
 70
     1
102
RTVSPost2010Prop43
 90
        3
102
RTVSPost2010PropOp43
 70
     1
102
RTVSPost2010Prop44ColorIndex
 90
        5
102
RTVSPost2010Prop44ColorRGB
 90
      255
102
RTVSPost2010PropOp44
 70
     1
102
RTVSPost2010Prop45
280
     0
102
RTVSPost2010PropOp45
 70
     1
102
RTVSPost2010Prop46
 90
       50
102
RTVSPost2010PropOp46
 70
     1
102
RTVSPost2010Prop47
 90
       50
102
RTVSPost2010PropOp47
 70
     1
102
RTVSPost2010Prop48
 90
       50
102
RTVSPost2010PropOp48
 70
     1
102
RTVSPost2010Prop49
280
     0
102
RTVSPost2010PropOp49
 70
     1
102
RTVSPost2010Prop50
 90
       50
102
RTVSPost2010PropOp50
 70
     1
102
RTVSPost2010Prop51ColorIndex
 90
      256
102
RTVSPost2010Prop51ColorRGB
 90
-16777216
102
RTVSPost2010PropOp51
 70
     0
102
RTVSPost2010Prop52
140
1.0
102
RTVSPost2010PropOp52
 70
     0
102
RTVSPost2010Prop53
 90
        2
102
RTVSPost2010PropOp53
 70
     1
102
RTVSPost2010Prop54
  1
strokes_ogs.tif
102
RTVSPost2010PropOp54
 70
     1
102
RTVSPost2010Prop55
280
     0
102
RTVSPost2010PropOp55
 70
     1
102
RTVSPost2010Prop56
140
1.0
102
RTVSPost2010PropOp56
 70
     1
102
RTVSPost2010Prop57
140
1.0
102
RTVSPost2010PropOp57
 70
     1
102
RTVSPropertyOp0
 70
     1
102
RTVSPropertyOp1
 70
     1
102
RTVSPropertyOp2
 70
     1
102
RTVSPropertyOp3
 70
     1
102
RTVSPropertyOp4
 70
     1
102
RTVSPropertyOp5
 70
     1
102
RTVSPropertyOp6
 70
     1
102
RTVSPropertyOp7
 70
     1
102
RTVSPropertyOp8
 70
     1
102
RTVSPropertyOp9
 70
     1
102
RTVSPropertyOp10
 70
     1
102
RTVSPropertyOp11
 70
     1
102
RTVSPropertyOp12
 70
     1
102
RTVSPropertyOp13
 70
     1
102
RTVSPropertyOp14
 70
     1
102
RTVSPropertyOp15
 70
     1
102
RTVSPropertyOp16
 70
     1
102
RTVSPropertyOp17
 70
     1
102
RTVSPropertyOp18
 70
     1
102
RTVSPropertyOp19
 70
     1
102
RTVSPropertyOp20
 70
     1
102
RTVSPropertyOp21
 70
     1
102
RTVSPropertyOp22
 70
     1
102
RTVSPropertyOp23
 70
     1
102
RTVSPropertyOp24
 70
     1
102
RTVSPropertyOp25
 70
     1
102
RTVSPropertyOp26
 70
     1
102
RTVSPropertyOp27
 70
     1
102
RTVSPropertyOp28
 70
     1
102
RTVSPropertyOp29
 70
     1
102
RTVSPropertyOp30
 70
     1
102
RTVSPropertyOp31
 70
     1
102
RTVSPropertyOp32
 70
     1
102
RTVSPropertyOp33
 70
     1
102
RTVSPropertyOp34
 70
     1
102
RTVSPropertyOp35
 70
     1
102
RTVSPropertyOp36
 70
     1
102
RTVSPropertyOp37
 70
     1
102
RTVSPropertyOp38
 70
     1
102
RTVSPropertyOp39
 70
     1
102
RTVSPropertyOp40
 70
     1
102
RTVSPropertyOp41
 70
     1
102
RTVSPropertyOp42
 70
     1
102
RTVSPropertyOp43
 70
     1
102
RTVSPropertyOp44
 70
     1
102
RTVSPropertyOp45
 70
     1
102
RTVSPropertyOp46
 70
     1
102
RTVSPropertyOp47
 70
     1
102
RTVSPropertyOp48
 70
     1
102
RTVSPropertyOp49
 70
     1
102
RTVSPropertyOp50
 70
     1
102
RTVSPropertyOp51
 70
     0
102
RTVSPropertyOp52
 70
     0
102
RTVSPropertyOp53
 70
     1
102
RTVSPropertyOp54
 70
     1
102
RTVSPropertyOp55
 70
     1
102
RTVSPropertyOp56
 70
     1
102
RTVSPropertyOp57
 70
     1
102
RTVSPropertyOp58
 70
     1
102
RTVSPropertyOp59
 70
     1
102
RTVSPropertyOp60
 70
     1
102
RTVSPropertyOp61
 70
     1
102
RTVSPropertyOp62
 70
     1
  0
XRECORD
  5
547
102
{ACAD_REACTORS
330
546
102
}
330
546
100
AcDbXrecord
280
     1
102
RTVSPost2010Prop28
280
     0
102
RTVSPost2010PropOp28
 70
     1
102
RTVSPost2010Prop29
280
     1
102
RTVSPost2010PropOp29
 70
     1
102
RTVSPost2010Prop30
280
     1
102
RTVSPost2010PropOp30
 70
     1
102
RTVSPost2010Prop31
280
     0
102
RTVSPost2010PropOp31
 70
     1
102
RTVSPost2010Prop32
280
     0
102
RTVSPost2010PropOp32
 70
     1
102
RTVSPost2010Prop33
280
     0
102
RTVSPost2010PropOp33
 70
     1
102
RTVSPost2010Prop34
280
     0
102
RTVSPost2010PropOp34
 70
     1
102
RTVSPost2010Prop35
280
     0
102
RTVSPost2010PropOp35
 70
     1
102
RTVSPost2010Prop36
280
     0
102
RTVSPost2010PropOp36
 70
     1
102
RTVSPost2010Prop37
 90
       50
102
RTVSPost2010PropOp37
 70
     1
102
RTVSPost2010Prop38
140
0.0
102
RTVSPost2010PropOp38
 70
     1
102
RTVSPost2010Prop39
140
1.0
102
RTVSPost2010PropOp39
 70
     1
102
RTVSPost2010Prop40
 90
        0
102
RTVSPost2010PropOp40
 70
     1
102
RTVSPost2010Prop41ColorIndex
 90
       18
102
RTVSPost2010Prop41ColorRGB
 90
        0
102
RTVSPost2010PropOp41
 70
     1
102
RTVSPost2010Prop42
 90
       50
102
RTVSPost2010PropOp42
 70
     1
102
RTVSPost2010Prop43
 90
        3
102
RTVSPost2010PropOp43
 70
     1
102
RTVSPost2010Prop44ColorIndex
 90
        5
102
RTVSPost2010Prop44ColorRGB
 90
      255
102
RTVSPost2010PropOp44
 70
     1
102
RTVSPost2010Prop45
280
     0
102
RTVSPost2010PropOp45
 70
     1
102
RTVSPost2010Prop46
 90
       50
102
RTVSPost2010PropOp46
 70
     1
102
RTVSPost2010Prop47
 90
       50
102
RTVSPost2010PropOp47
 70
     1
102
RTVSPost2010Prop48
 90
       50
102
RTVSPost2010PropOp48
 70
     1
102
RTVSPost2010Prop49
280
     0
102
RTVSPost2010PropOp49
 70
     1
102
RTVSPost2010Prop50
 90
       50
102
RTVSPost2010PropOp50
 70
     1
102
RTVSPost2010Prop51ColorIndex
 90
      256
102
RTVSPost2010Prop51ColorRGB
 90
-16777216
102
RTVSPost2010PropOp51
 70
     0
102
RTVSPost2010Prop52
140
1.0
102
RTVSPost2010PropOp52
 70
     0
102
RTVSPost2010Prop53
 90
        2
102
RTVSPost2010PropOp53
 70
     1
102
RTVSPost2010Prop54
  1
strokes_ogs.tif
102
RTVSPost2010PropOp54
 70
     1
102
RTVSPost2010Prop55
280
     0
102
RTVSPost2010PropOp55
 70
     1
102
RTVSPost2010Prop56
140
1.0
102
RTVSPost2010PropOp56
 70
     1
102
RTVSPost2010Prop57
140
1.0
102
RTVSPost2010PropOp57
 70
     1
102
RTVSPropertyOp0
 70
     1
102
RTVSPropertyOp1
 70
     1
102
RTVSPropertyOp2
 70
     1
102
RTVSPropertyOp3
 70
     1
102
RTVSPropertyOp4
 70
     1
102
RTVSPropertyOp5
 70
     1
102
RTVSPropertyOp6
 70
     1
102
RTVSPropertyOp7
 70
     1
102
RTVSPropertyOp8
 70
     1
102
RTVSPropertyOp9
 70
     1
102
RTVSPropertyOp10
 70
     1
102
RTVSPropertyOp11
 70
     1
102
RTVSPropertyOp12
 70
     1
102
RTVSPropertyOp13
 70
     1
102
RTVSPropertyOp14
 70
     1
102
RTVSPropertyOp15
 70
     1
102
RTVSPropertyOp16
 70
     1
102
RTVSPropertyOp17
 70
     1
102
RTVSPropertyOp18
 70
     1
102
RTVSPropertyOp19
 70
     1
102
RTVSPropertyOp20
 70
     1
102
RTVSPropertyOp21
 70
     1
102
RTVSPropertyOp22
 70
     1
102
RTVSPropertyOp23
 70
     1
102
RTVSPropertyOp24
 70
     1
102
RTVSPropertyOp25
 70
     1
102
RTVSPropertyOp26
 70
     1
102
RTVSPropertyOp27
 70
     1
102
RTVSPropertyOp28
 70
     1
102
RTVSPropertyOp29
 70
     1
102
RTVSPropertyOp30
 70
     1
102
RTVSPropertyOp31
 70
     1
102
RTVSPropertyOp32
 70
     1
102
RTVSPropertyOp33
 70
     1
102
RTVSPropertyOp34
 70
     1
102
RTVSPropertyOp35
 70
     1
102
RTVSPropertyOp36
 70
     1
102
RTVSPropertyOp37
 70
     1
102
RTVSPropertyOp38
 70
     1
102
RTVSPropertyOp39
 70
     1
102
RTVSPropertyOp40
 70
     1
102
RTVSPropertyOp41
 70
     1
102
RTVSPropertyOp42
 70
     1
102
RTVSPropertyOp43
 70
     1
102
RTVSPropertyOp44
 70
     1
102
RTVSPropertyOp45
 70
     1
102
RTVSPropertyOp46
 70
     1
102
RTVSPropertyOp47
 70
     1
102
RTVSPropertyOp48
 70
     1
102
RTVSPropertyOp49
 70
     1
102
RTVSPropertyOp50
 70
     1
102
RTVSPropertyOp51
 70
     0
102
RTVSPropertyOp52
 70
     0
102
RTVSPropertyOp53
 70
     1
102
RTVSPropertyOp54
 70
     1
102
RTVSPropertyOp55
 70
     1
102
RTVSPropertyOp56
 70
     1
102
RTVSPropertyOp57
 70
     1
102
RTVSPropertyOp58
 70
     1
102
RTVSPropertyOp59
 70
     1
102
RTVSPropertyOp60
 70
     1
102
RTVSPropertyOp61
 70
     1
102
RTVSPropertyOp62
 70
     1
  0
ENDSEC
  0
EOF
