  0
SECTION
  2
HEADER
  9
$ACADVER
  1
AC1021
  9
$ACADMAINTVER
 70
    50
  9
$DWGCODEPAGE
  3
ANSI_932
  9
$LASTSAVEDBY
  1
WV49162
  9
$INSBASE
 10
0.0
 20
0.0
 30
0.0
  9
$EXTMIN
 10
-1893.399999976157
 20
-460.1000000238418
 30
0.0
  9
$EXTMAX
 10
786.0523337893866
 20
2091.700048804283
 30
0.0
  9
$LIMMIN
 10
0.0
 20
0.0
  9
$LIMMAX
 10
12.0
 20
9.0
  9
$ORTHOMODE
 70
     1
  9
$REGENMODE
 70
     1
  9
$FILLMODE
 70
     1
  9
$QTEXTMODE
 70
     0
  9
$MIRRTEXT
 70
     0
  9
$LTSCALE
 40
1.0
  9
$ATTMODE
 70
     1
  9
$TEXTSIZE
 40
3.0
  9
$TRACEWID
 40
0.05
  9
$TEXTSTYLE
  7
STANDARD1
  9
$CLAYER
  8
0
  9
$CELTYPE
  6
CONTINUOUS
  9
$CECOLOR
 62
   256
  9
$CELTSCALE
 40
1.0
  9
$DISPSILH
 70
     0
  9
$DIMSCALE
 40
1.0
  9
$DIMASZ
 40
10.0
  9
$DIMEXO
 40
10.0
  9
$DIMDLI
 40
8.0
  9
$DIMRND
 40
0.0
  9
$DIMDLE
 40
0.0
  9
$DIMEXE
 40
12.5
  9
$DIMTP
 40
0.0
  9
$DIMTM
 40
0.0
  9
$DIMTXT
 40
30.0
  9
$DIMCEN
 40
2.5
  9
$DIMTSZ
 40
0.0
  9
$DIMTOL
 70
     0
  9
$DIMLIM
 70
     0
  9
$DIMTIH
 70
     0
  9
$DIMTOH
 70
     0
  9
$DIMSE1
 70
     0
  9
$DIMSE2
 70
     0
  9
$DIMTAD
 70
     3
  9
$DIMZIN
 70
    12
  9
$DIMBLK
  1

  9
$DIMASO
 70
     1
  9
$DIMSHO
 70
     1
  9
$DIMPOST
  1

  9
$DIMAPOST
  1

  9
$DIMALT
 70
     0
  9
$DIMALTD
 70
     4
  9
$DIMALTF
 40
25.4
  9
$DIMLFAC
 40
1.0
  9
$DIMTOFL
 70
     1
  9
$DIMTVP
 40
0.0
  9
$DIMTIX
 70
     0
  9
$DIMSOXD
 70
     0
  9
$DIMSAH
 70
     1
  9
$DIMBLK1
  1
ORIGIN
  9
$DIMBLK2
  1
ORIGIN
  9
$DIMSTYLE
  2
STANDARD
  9
$DIMCLRD
 70
     0
  9
$DIMCLRE
 70
     0
  9
$DIMCLRT
 70
     0
  9
$DIMTFAC
 40
0.7142857313156129
  9
$DIMGAP
 40
10.0
  9
$DIMJUST
 70
     0
  9
$DIMSD1
 70
     0
  9
$DIMSD2
 70
     0
  9
$DIMTOLJ
 70
     1
  9
$DIMTZIN
 70
     0
  9
$DIMALTZ
 70
     0
  9
$DIMALTTZ
 70
     0
  9
$DIMUPT
 70
     0
  9
$DIMDEC
 70
     4
  9
$DIMTDEC
 70
     4
  9
$DIMALTU
 70
     2
  9
$DIMALTTD
 70
     2
  9
$DIMTXSTY
  7
STANDARD
  9
$DIMAUNIT
 70
     0
  9
$DIMADEC
 70
     0
  9
$DIMALTRND
 40
0.0
  9
$DIMAZIN
 70
     0
  9
$DIMDSEP
 70
    46
  9
$DIMATFIT
 70
     3
  9
$DIMFRAC
 70
     0
  9
$DIMLDRBLK
  1
ORIGIN
  9
$DIMLUNIT
 70
     2
  9
$DIMLWD
 70
    -2
  9
$DIMLWE
 70
    -2
  9
$DIMTMOVE
 70
     0
  9
$DIMFXL
 40
1.0
  9
$DIMFXLON
 70
     0
  9
$DIMJOGANG
 40
0.7853981633974483
  9
$DIMTFILL
 70
     0
  9
$DIMTFILLCLR
 70
     0
  9
$DIMARCSYM
 70
     0
  9
$DIMLTYPE
  6

  9
$DIMLTEX1
  6

  9
$DIMLTEX2
  6

  9
$LUNITS
 70
     2
  9
$LUPREC
 70
     3
  9
$SKETCHINC
 40
0.1
  9
$FILLETRAD
 40
0.0
  9
$AUNITS
 70
     0
  9
$AUPREC
 70
     0
  9
$MENU
  1
.
  9
$ELEVATION
 40
0.0
  9
$PELEVATION
 40
0.0
  9
$THICKNESS
 40
0.0
  9
$LIMCHECK
 70
     0
  9
$CHAMFERA
 40
0.0
  9
$CHAMFERB
 40
0.0
  9
$CHAMFERC
 40
0.0
  9
$CHAMFERD
 40
0.0
  9
$SKPOLY
 70
     0
  9
$TDCREATE
 40
2457733.786442963
  9
$TDUCREATE
 40
2457733.411442963
  9
$TDUPDATE
 40
2457735.556498056
  9
$TDUUPDATE
 40
2457735.181498055
  9
$TDINDWG
 40
0.0199664005
  9
$TDUSRTIMER
 40
0.0199661574
  9
$USRTIMER
 70
     1
  9
$ANGBASE
 50
0.0
  9
$ANGDIR
 70
     0
  9
$PDMODE
 70
     0
  9
$PDSIZE
 40
0.0
  9
$PLINEWID
 40
0.0
  9
$SPLFRAME
 70
     0
  9
$SPLINETYPE
 70
     6
  9
$SPLINESEGS
 70
     8
  9
$HANDSEED
  5
60A
  9
$SURFTAB1
 70
     6
  9
$SURFTAB2
 70
     6
  9
$SURFTYPE
 70
     6
  9
$SURFU
 70
     6
  9
$SURFV
 70
     6
  9
$UCSBASE
  2

  9
$UCSNAME
  2

  9
$UCSORG
 10
0.0
 20
0.0
 30
0.0
  9
$UCSXDIR
 10
1.0
 20
0.0
 30
0.0
  9
$UCSYDIR
 10
0.0
 20
1.0
 30
0.0
  9
$UCSORTHOREF
  2

  9
$UCSORTHOVIEW
 70
     0
  9
$UCSORGTOP
 10
0.0
 20
0.0
 30
0.0
  9
$UCSORGBOTTOM
 10
0.0
 20
0.0
 30
0.0
  9
$UCSORGLEFT
 10
0.0
 20
0.0
 30
0.0
  9
$UCSORGRIGHT
 10
0.0
 20
0.0
 30
0.0
  9
$UCSORGFRONT
 10
0.0
 20
0.0
 30
0.0
  9
$UCSORGBACK
 10
0.0
 20
0.0
 30
0.0
  9
$PUCSBASE
  2

  9
$PUCSNAME
  2

  9
$PUCSORG
 10
0.0
 20
0.0
 30
0.0
  9
$PUCSXDIR
 10
1.0
 20
0.0
 30
0.0
  9
$PUCSYDIR
 10
0.0
 20
1.0
 30
0.0
  9
$PUCSORTHOREF
  2

  9
$PUCSORTHOVIEW
 70
     0
  9
$PUCSORGTOP
 10
0.0
 20
0.0
 30
0.0
  9
$PUCSORGBOTTOM
 10
0.0
 20
0.0
 30
0.0
  9
$PUCSORGLEFT
 10
0.0
 20
0.0
 30
0.0
  9
$PUCSORGRIGHT
 10
0.0
 20
0.0
 30
0.0
  9
$PUCSORGFRONT
 10
0.0
 20
0.0
 30
0.0
  9
$PUCSORGBACK
 10
0.0
 20
0.0
 30
0.0
  9
$USERI1
 70
     0
  9
$USERI2
 70
     0
  9
$USERI3
 70
     0
  9
$USERI4
 70
     0
  9
$USERI5
 70
     0
  9
$USERR1
 40
0.0
  9
$USERR2
 40
0.0
  9
$USERR3
 40
0.0
  9
$USERR4
 40
0.0
  9
$USERR5
 40
0.0
  9
$WORLDVIEW
 70
     1
  9
$SHADEDGE
 70
     3
  9
$SHADEDIF
 70
    70
  9
$TILEMODE
 70
     1
  9
$MAXACTVP
 70
    64
  9
$PINSBASE
 10
0.0
 20
0.0
 30
0.0
  9
$PLIMCHECK
 70
     0
  9
$PEXTMIN
 10
1.000000000000000E+20
 20
1.000000000000000E+20
 30
1.000000000000000E+20
  9
$PEXTMAX
 10
-1.000000000000000E+20
 20
-1.000000000000000E+20
 30
-1.000000000000000E+20
  9
$PLIMMIN
 10
0.0
 20
0.0
  9
$PLIMMAX
 10
12.0
 20
9.0
  9
$UNITMODE
 70
     0
  9
$VISRETAIN
 70
     1
  9
$PLINEGEN
 70
     0
  9
$PSLTSCALE
 70
     1
  9
$TREEDEPTH
 70
  3020
  9
$CMLSTYLE
  2
Standard
  9
$CMLJUST
 70
     0
  9
$CMLSCALE
 40
1.0
  9
$PROXYGRAPHICS
 70
     1
  9
$MEASUREMENT
 70
     0
  9
$CELWEIGHT
370
    -1
  9
$ENDCAPS
280
     0
  9
$JOINSTYLE
280
     0
  9
$LWDISPLAY
290
     0
  9
$INSUNITS
 70
     0
  9
$HYPERLINKBASE
  1

  9
$STYLESHEET
  1

  9
$XEDIT
290
     1
  9
$CEPSNTYPE
380
     0
  9
$PSTYLEMODE
290
     1
  9
$FINGERPRINTGUID
  2
{0733C1C1-30D9-409F-A7B7-DE2786D4F679}
  9
$VERSIONGUID
  2
{52009968-2818-4FE9-999C-A08C59B02CE0}
  9
$EXTNAMES
290
     1
  9
$PSVPSCALE
 40
0.0
  9
$OLESTARTUP
290
     0
  9
$SORTENTS
280
   127
  9
$INDEXCTL
280
     0
  9
$HIDETEXT
280
     0
  9
$XCLIPFRAME
290
     0
  9
$HALOGAP
280
     0
  9
$OBSCOLOR
 70
   257
  9
$OBSLTYPE
280
     0
  9
$INTERSECTIONDISPLAY
280
     0
  9
$INTERSECTIONCOLOR
 70
   257
  9
$DIMASSOC
280
     1
  9
$PROJECTNAME
  1

  9
$CAMERADISPLAY
290
     0
  9
$LENSLENGTH
 40
50.0
  9
$CAMERAHEIGHT
 40
0.0
  9
$STEPSPERSEC
 40
2.0
  9
$STEPSIZE
 40
6.0
  9
$3DDWFPREC
 40
2.0
  9
$PSOLWIDTH
 40
0.25
  9
$PSOLHEIGHT
 40
4.0
  9
$LOFTANG1
 40
1.570796326794896
  9
$LOFTANG2
 40
1.570796326794896
  9
$LOFTMAG1
 40
0.0
  9
$LOFTMAG2
 40
0.0
  9
$LOFTPARAM
 70
     7
  9
$LOFTNORMALS
280
     1
  9
$LATITUDE
 40
37.795
  9
$LONGITUDE
 40
-122.394
  9
$NORTHDIRECTION
 40
0.0
  9
$TIMEZONE
 70
 -8000
  9
$LIGHTGLYPHDISPLAY
280
     1
  9
$TILEMODELIGHTSYNCH
280
     1
  9
$CMATERIAL
347
11
  9
$SOLIDHIST
280
     0
  9
$SHOWHIST
280
     1
  9
$DWFFRAME
280
     2
  9
$DGNFRAME
280
     0
  9
$REALWORLDSCALE
290
     1
  9
$INTERFERECOLOR
 62
     1
  9
$INTERFEREOBJVS
345
33
  9
$INTERFEREVPVS
346
30
  9
$CSHADOW
280
     0
  9
$SHADOWPLANELOCATION
 40
0.0
  0
ENDSEC
  0
SECTION
  2
CLASSES
  0
CLASS
  1
ACDBDICTIONARYWDFLT
  2
AcDbDictionaryWithDefault
  3
ObjectDBX Classes
 90
        0
 91
        1
280
     0
281
     0
  0
CLASS
  1
MATERIAL
  2
AcDbMaterial
  3
ObjectDBX Classes
 90
     1153
 91
        3
280
     0
281
     0
  0
CLASS
  1
VISUALSTYLE
  2
AcDbVisualStyle
  3
ObjectDBX Classes
 90
     4095
 91
       24
280
     0
281
     0
  0
CLASS
  1
SCALE
  2
AcDbScale
  3
ObjectDBX Classes
 90
     1153
 91
       17
280
     0
281
     0
  0
CLASS
  1
TABLESTYLE
  2
AcDbTableStyle
  3
ObjectDBX Classes
 90
     4095
 91
        1
280
     0
281
     0
  0
CLASS
  1
MLEADERSTYLE
  2
AcDbMLeaderStyle
  3
ACDB_MLEADERSTYLE_CLASS
 90
     4095
 91
        1
280
     0
281
     0
  0
CLASS
  1
ACDBSECTIONVIEWSTYLE
  2
AcDbSectionViewStyle
  3
ObjectDBX Classes
 90
     1025
 91
        1
280
     0
281
     0
  0
CLASS
  1
ACDBDETAILVIEWSTYLE
  2
AcDbDetailViewStyle
  3
ObjectDBX Classes
 90
     1025
 91
        1
280
     0
281
     0
  0
CLASS
  1
DICTIONARYVAR
  2
AcDbDictionaryVar
  3
ObjectDBX Classes
 90
        0
 91
       11
280
     0
281
     0
  0
CLASS
  1
CELLSTYLEMAP
  2
AcDbCellStyleMap
  3
ObjectDBX Classes
 90
     1152
 91
        2
280
     0
281
     0
  0
ENDSEC
  0
SECTION
  2
TABLES
  0
TABLE
  2
VPORT
  5
8
330
0
100
AcDbSymbolTable
 70
     1
  0
VPORT
  5
88
330
8
100
AcDbSymbolTableRecord
100
AcDbViewportTableRecord
  2
*ACTIVE
 70
     0
 10
0.0
 20
0.0
 11
1.0
 21
1.0
 12
369.2311459637795
 22
905.3973899872067
 13
0.0
 23
0.0
 14
1.0
 24
1.0
 15
0.0
 25
0.0
 16
0.0
 26
0.0
 36
1.0
 17
0.0
 27
0.0
 37
0.0
 40
3732.361217822758
 41
2.232941176470588
 42
50.0
 43
0.0
 44
0.0
 50
0.0
 51
0.0
 71
     0
 72
   100
 73
     1
 74
     1
 75
     0
 76
     0
 77
     0
 78
     1
281
     0
 65
     1
110
0.0
120
0.0
130
0.0
111
1.0
121
0.0
131
0.0
112
0.0
122
1.0
132
0.0
 79
     0
146
0.0
348
2F
 60
     3
 61
     5
292
     1
282
     0
141
0.0
142
0.0
 63
   250
421
  3355443
1001
ACAD_NAV_VCDISPLAY
1070
     3
  0
ENDTAB
  0
TABLE
  2
LTYPE
  5
5
330
0
100
AcDbSymbolTable
 70
     5
  0
LTYPE
  5
5A
330
5
100
AcDbSymbolTableRecord
100
AcDbLinetypeTableRecord
  2
ByBlock
 70
     0
  3

 72
    65
 73
     0
 40
0.0
  0
LTYPE
  5
5B
330
5
100
AcDbSymbolTableRecord
100
AcDbLinetypeTableRecord
  2
ByLayer
 70
     0
  3

 72
    65
 73
     0
 40
0.0
  0
LTYPE
  5
5C
330
5
100
AcDbSymbolTableRecord
100
AcDbLinetypeTableRecord
  2
CONTINUOUS
 70
     0
  3
Solid line
 72
    65
 73
     0
 40
0.0
  0
LTYPE
  5
68
330
5
100
AcDbSymbolTableRecord
100
AcDbLinetypeTableRecord
  2
PHANTOM2
 70
     0
  3
___ _ _ ___ _ _ ___ _ _ ___ _ _
 72
    65
 73
     6
 40
1.25
 49
0.625
 74
     0
 49
-0.125
 74
     0
 49
0.125
 74
     0
 49
-0.125
 74
     0
 49
0.125
 74
     0
 49
-0.125
 74
     0
  0
LTYPE
  5
75
330
5
100
AcDbSymbolTableRecord
100
AcDbLinetypeTableRecord
  2
DASHED
 70
     0
  3
-- -- -- -- -- -- -- -- -- -- -- -- -- -- --
 72
    65
 73
     2
 40
0.75
 49
0.5
 74
     0
 49
-0.25
 74
     0
  0
LTYPE
  5
76
330
5
100
AcDbSymbolTableRecord
100
AcDbLinetypeTableRecord
  2
DASHDOT
 70
     0
  3
__ . __ . __ . __ . __ . __ . __ . __ . __ . __
 72
    65
 73
     4
 40
125.0
 49
80.0
 74
     0
 49
-20.0
 74
     0
 49
5.0
 74
     0
 49
-20.0
 74
     0
  0
LTYPE
  5
77
330
5
100
AcDbSymbolTableRecord
100
AcDbLinetypeTableRecord
  2
DIVIDE
 70
     0
  3
__ . . __ . . __ . . __ . . __ . . __ . . __
 72
    65
 73
     6
 40
1.25
 49
0.5
 74
     0
 49
-0.25
 74
     0
 49
0.0
 74
     0
 49
-0.25
 74
     0
 49
0.0
 74
     0
 49
-0.25
 74
     0
  0
ENDTAB
  0
TABLE
  2
LAYER
  5
2
330
0
100
AcDbSymbolTable
 70
    12
  0
LAYER
  5
54
102
{ACAD_XDICTIONARY
360
57D
102
}
330
2
100
AcDbSymbolTableRecord
100
AcDbLayerTableRecord
  2
0
 70
     0
 62
     3
  6
CONTINUOUS
370
    -3
390
F
347
21
  0
LAYER
  5
78
102
{ACAD_XDICTIONARY
360
57F
102
}
330
2
100
AcDbSymbolTableRecord
100
AcDbLayerTableRecord
  2
OUTLINE
 70
     0
 62
     3
  6
CONTINUOUS
370
    -3
390
F
347
21
  0
LAYER
  5
79
102
{ACAD_XDICTIONARY
360
581
102
}
330
2
100
AcDbSymbolTableRecord
100
AcDbLayerTableRecord
  2
DETAIL
 70
     0
 62
     5
  6
CONTINUOUS
370
    -3
390
F
347
21
  0
LAYER
  5
7A
102
{ACAD_XDICTIONARY
360
583
102
}
330
2
100
AcDbSymbolTableRecord
100
AcDbLayerTableRecord
  2
BASIS
 70
     0
 62
     6
  6
CONTINUOUS
370
    -3
390
F
347
21
  0
LAYER
  5
7B
102
{ACAD_XDICTIONARY
360
585
102
}
330
2
100
AcDbSymbolTableRecord
100
AcDbLayerTableRecord
  2
SIZE
 70
     0
 62
    30
  6
CONTINUOUS
370
    -3
390
F
347
21
  0
LAYER
  5
7C
102
{ACAD_XDICTIONARY
360
587
102
}
330
2
100
AcDbSymbolTableRecord
100
AcDbLayerTableRecord
  2
NOTE
 70
     0
 62
     4
  6
CONTINUOUS
370
    -3
390
F
347
21
  0
LAYER
  5
7D
102
{ACAD_XDICTIONARY
360
589
102
}
330
2
100
AcDbSymbolTableRecord
100
AcDbLayerTableRecord
  2
ARRANGE
 70
     0
 62
     1
  6
CONTINUOUS
370
    -3
390
F
347
21
  0
LAYER
  5
7E
102
{ACAD_XDICTIONARY
360
58B
102
}
330
2
100
AcDbSymbolTableRecord
100
AcDbLayerTableRecord
  2
FIX
 70
     0
 62
    11
  6
CONTINUOUS
370
    -3
390
F
347
21
  0
LAYER
  5
7F
102
{ACAD_XDICTIONARY
360
58D
102
}
330
2
100
AcDbSymbolTableRecord
100
AcDbLayerTableRecord
  2
SERVICESPACE
 70
     0
 62
     2
  6
CONTINUOUS
370
    -3
390
F
347
21
  0
LAYER
  5
80
102
{ACAD_XDICTIONARY
360
58F
102
}
330
2
100
AcDbSymbolTableRecord
100
AcDbLayerTableRecord
  2
ETC
 70
     0
 62
    61
  6
CONTINUOUS
370
    -3
390
F
347
21
  0
LAYER
  5
81
102
{ACAD_XDICTIONARY
360
591
102
}
330
2
100
AcDbSymbolTableRecord
100
AcDbLayerTableRecord
  2
SYMBOLLINE
 70
     0
 62
     7
  6
CONTINUOUS
370
    -3
390
F
347
21
  0
LAYER
  5
82
330
2
100
AcDbSymbolTableRecord
100
AcDbLayerTableRecord
  2
DEFPOINTS
 70
     0
 62
     7
  6
CONTINUOUS
290
     0
370
    -3
390
F
347
21
  0
ENDTAB
  0
TABLE
  2
STYLE
  5
3
330
0
100
AcDbSymbolTable
 70
     6
  0
STYLE
  5
55
330
3
100
AcDbSymbolTableRecord
100
AcDbTextStyleTableRecord
  2
STANDARD
 70
     0
 40
0.0
 41
1.0
 50
0.0
 71
     0
 42
0.2
  3
txt
  4

  0
STYLE
  5
59
330
3
100
AcDbSymbolTableRecord
100
AcDbTextStyleTableRecord
  2
ANNOTATIVE
 70
     0
 40
0.0
 41
1.0
 50
0.0
 71
     0
 42
0.2
  3
txt
  4

1001
ACADANNOTATIVE
1000
AnnotativeData
1002
{
1070
     1
1070
     1
1002
}
  0
STYLE
  5
74
330
3
100
AcDbSymbolTableRecord
100
AcDbTextStyleTableRecord
  2
STANDARD1
 70
     0
 40
0.0
 41
1.0
 50
0.0
 71
     0
 42
3.0
  3
MONOTXT
  4
BIGFONT
  0
STYLE
  5
83
330
3
100
AcDbSymbolTableRecord
100
AcDbTextStyleTableRecord
  2
STANDARD2
 70
     4
 40
0.0
 41
1.0
 50
0.0
 71
     0
 42
3.0
  3
MONOTXT
  4
BIGFONT
  0
STYLE
  5
84
330
3
100
AcDbSymbolTableRecord
100
AcDbTextStyleTableRecord
  2
STANDARD3
 70
     0
 40
0.0
 41
1.0
 50
0.0
 71
     0
 42
3.0
  3
MONOTXT
  4

  0
STYLE
  5
85
330
3
100
AcDbSymbolTableRecord
100
AcDbTextStyleTableRecord
  2
STANDARD4
 70
     4
 40
0.0
 41
1.0
 50
0.0
 71
     0
 42
3.0
  3
MONOTXT
  4

  0
ENDTAB
  0
TABLE
  2
VIEW
  5
6
330
0
100
AcDbSymbolTable
 70
     0
  0
ENDTAB
  0
TABLE
  2
UCS
  5
7
330
0
100
AcDbSymbolTable
 70
     0
  0
ENDTAB
  0
TABLE
  2
APPID
  5
9
330
0
100
AcDbSymbolTable
 70
     5
  0
APPID
  5
56
330
9
100
AcDbSymbolTableRecord
100
AcDbRegAppTableRecord
  2
ACAD
 70
     0
  0
APPID
  5
5D
330
9
100
AcDbSymbolTableRecord
100
AcDbRegAppTableRecord
  2
ACADANNOTATIVE
 70
     0
  0
APPID
  5
86
330
9
100
AcDbSymbolTableRecord
100
AcDbRegAppTableRecord
  2
ACAD_NAV_VCDISPLAY
 70
     0
  0
APPID
  5
87
330
9
100
AcDbSymbolTableRecord
100
AcDbRegAppTableRecord
  2
ACAD_MLEADERVER
 70
     0
  0
APPID
  5
576
330
9
100
AcDbSymbolTableRecord
100
AcDbRegAppTableRecord
  2
ACAD_EXEMPT_FROM_CAD_STANDARDS
 70
     0
  0
ENDTAB
  0
TABLE
  2
DIMSTYLE
  5
A
330
0
100
AcDbSymbolTable
 70
     2
100
AcDbDimStyleTable
 71
     1
340
57
  0
DIMSTYLE
105
57
330
A
100
AcDbSymbolTableRecord
100
AcDbDimStyleTableRecord
  2
STANDARD
 70
     0
271
     3
272
     3
274
     4
279
     2
284
    12
285
    12
286
    12
340
74
  0
DIMSTYLE
105
58
330
A
100
AcDbSymbolTableRecord
100
AcDbDimStyleTableRecord
  2
ANNOTATIVE
 70
     0
271
     3
272
     3
274
     4
279
     2
284
    12
285
    12
286
    12
340
74
1001
ACADANNOTATIVE
1000
AnnotativeData
1002
{
1070
     1
1070
     1
1002
}
  0
ENDTAB
  0
TABLE
  2
BLOCK_RECORD
  5
1
330
0
100
AcDbSymbolTable
 70
    39
  0
BLOCK_RECORD
  5
70
330
1
100
AcDbSymbolTableRecord
100
AcDbBlockTableRecord
  2
*Model_Space
340
73
 70
     0
280
     1
281
     0
  0
BLOCK_RECORD
  5
6C
330
1
100
AcDbSymbolTableRecord
100
AcDbBlockTableRecord
  2
*Paper_Space
340
6F
 70
     0
280
     1
281
     0
  0
BLOCK_RECORD
  5
8C
330
1
100
AcDbSymbolTableRecord
100
AcDbBlockTableRecord
  2
*D0
340
0
 70
     0
280
     1
281
     0
  0
BLOCK_RECORD
  5
98
330
1
100
AcDbSymbolTableRecord
100
AcDbBlockTableRecord
  2
*D1
340
0
 70
     0
280
     1
281
     0
  0
BLOCK_RECORD
  5
A6
330
1
100
AcDbSymbolTableRecord
100
AcDbBlockTableRecord
  2
*D2
340
0
 70
     0
280
     1
281
     0
  0
BLOCK_RECORD
  5
B2
330
1
100
AcDbSymbolTableRecord
100
AcDbBlockTableRecord
  2
*D3
340
0
 70
     0
280
     1
281
     0
  0
BLOCK_RECORD
  5
C6
330
1
100
AcDbSymbolTableRecord
100
AcDbBlockTableRecord
  2
*D4
340
0
 70
     0
280
     1
281
     0
  0
BLOCK_RECORD
  5
DB
330
1
100
AcDbSymbolTableRecord
100
AcDbBlockTableRecord
  2
*D5
340
0
 70
     0
280
     1
281
     0
  0
BLOCK_RECORD
  5
EF
330
1
100
AcDbSymbolTableRecord
100
AcDbBlockTableRecord
  2
*D6
340
0
 70
     0
280
     1
281
     0
  0
BLOCK_RECORD
  5
103
330
1
100
AcDbSymbolTableRecord
100
AcDbBlockTableRecord
  2
*D7
340
0
 70
     0
280
     1
281
     0
  0
BLOCK_RECORD
  5
117
330
1
100
AcDbSymbolTableRecord
100
AcDbBlockTableRecord
  2
*D8
340
0
 70
     0
280
     1
281
     0
  0
BLOCK_RECORD
  5
12B
330
1
100
AcDbSymbolTableRecord
100
AcDbBlockTableRecord
  2
*D9
340
0
 70
     0
280
     1
281
     0
  0
BLOCK_RECORD
  5
13F
330
1
100
AcDbSymbolTableRecord
100
AcDbBlockTableRecord
  2
*D10
340
0
 70
     0
280
     1
281
     0
  0
BLOCK_RECORD
  5
153
330
1
100
AcDbSymbolTableRecord
100
AcDbBlockTableRecord
  2
*D11
340
0
 70
     0
280
     1
281
     0
  0
BLOCK_RECORD
  5
167
330
1
100
AcDbSymbolTableRecord
100
AcDbBlockTableRecord
  2
*D12
340
0
 70
     0
280
     1
281
     0
  0
BLOCK_RECORD
  5
17B
330
1
100
AcDbSymbolTableRecord
100
AcDbBlockTableRecord
  2
*D13
340
0
 70
     0
280
     1
281
     0
  0
BLOCK_RECORD
  5
18F
330
1
100
AcDbSymbolTableRecord
100
AcDbBlockTableRecord
  2
*D14
340
0
 70
     0
280
     1
281
     0
  0
BLOCK_RECORD
  5
1A3
330
1
100
AcDbSymbolTableRecord
100
AcDbBlockTableRecord
  2
*D15
340
0
 70
     0
280
     1
281
     0
  0
BLOCK_RECORD
  5
1B7
330
1
100
AcDbSymbolTableRecord
100
AcDbBlockTableRecord
  2
*D16
340
0
 70
     0
280
     1
281
     0
  0
BLOCK_RECORD
  5
1CB
330
1
100
AcDbSymbolTableRecord
100
AcDbBlockTableRecord
  2
*D17
340
0
 70
     0
280
     1
281
     0
  0
BLOCK_RECORD
  5
1DF
330
1
100
AcDbSymbolTableRecord
100
AcDbBlockTableRecord
  2
*D18
340
0
 70
     0
280
     1
281
     0
  0
BLOCK_RECORD
  5
1F3
330
1
100
AcDbSymbolTableRecord
100
AcDbBlockTableRecord
  2
_ORIGIN
340
0
102
{BLKREFS
331
1FF
331
200
331
20D
331
20E
331
219
331
21A
331
225
331
226
331
231
331
232
331
23D
331
23E
331
249
331
24A
331
255
331
256
331
261
331
262
331
26D
331
26E
331
279
331
27A
331
285
331
286
331
293
331
294
331
29F
331
2A0
331
2AB
331
2AC
331
2B7
331
2B8
331
2C4
331
2C5
331
2D1
331
2D2
331
2DE
331
2DF
102
}
 70
     0
280
     1
281
     0
  0
BLOCK_RECORD
  5
1F8
330
1
100
AcDbSymbolTableRecord
100
AcDbBlockTableRecord
  2
*D20
340
0
 70
     0
280
     1
281
     0
  0
BLOCK_RECORD
  5
206
330
1
100
AcDbSymbolTableRecord
100
AcDbBlockTableRecord
  2
*D21
340
0
 70
     0
280
     1
281
     0
  0
BLOCK_RECORD
  5
214
330
1
100
AcDbSymbolTableRecord
100
AcDbBlockTableRecord
  2
*D22
340
0
 70
     0
280
     1
281
     0
  0
BLOCK_RECORD
  5
220
330
1
100
AcDbSymbolTableRecord
100
AcDbBlockTableRecord
  2
*D23
340
0
 70
     0
280
     1
281
     0
  0
BLOCK_RECORD
  5
22C
330
1
100
AcDbSymbolTableRecord
100
AcDbBlockTableRecord
  2
*D24
340
0
 70
     0
280
     1
281
     0
  0
BLOCK_RECORD
  5
238
330
1
100
AcDbSymbolTableRecord
100
AcDbBlockTableRecord
  2
*D25
340
0
 70
     0
280
     1
281
     0
  0
BLOCK_RECORD
  5
244
330
1
100
AcDbSymbolTableRecord
100
AcDbBlockTableRecord
  2
*D26
340
0
 70
     0
280
     1
281
     0
  0
BLOCK_RECORD
  5
250
330
1
100
AcDbSymbolTableRecord
100
AcDbBlockTableRecord
  2
*D27
340
0
 70
     0
280
     1
281
     0
  0
BLOCK_RECORD
  5
25C
330
1
100
AcDbSymbolTableRecord
100
AcDbBlockTableRecord
  2
*D28
340
0
 70
     0
280
     1
281
     0
  0
BLOCK_RECORD
  5
268
330
1
100
AcDbSymbolTableRecord
100
AcDbBlockTableRecord
  2
*D29
340
0
 70
     0
280
     1
281
     0
  0
BLOCK_RECORD
  5
274
330
1
100
AcDbSymbolTableRecord
100
AcDbBlockTableRecord
  2
*D30
340
0
 70
     0
280
     1
281
     0
  0
BLOCK_RECORD
  5
280
330
1
100
AcDbSymbolTableRecord
100
AcDbBlockTableRecord
  2
*D31
340
0
 70
     0
280
     1
281
     0
  0
BLOCK_RECORD
  5
28C
330
1
100
AcDbSymbolTableRecord
100
AcDbBlockTableRecord
  2
*D32
340
0
 70
     0
280
     1
281
     0
  0
BLOCK_RECORD
  5
29A
330
1
100
AcDbSymbolTableRecord
100
AcDbBlockTableRecord
  2
*D33
340
0
 70
     0
280
     1
281
     0
  0
BLOCK_RECORD
  5
2A6
330
1
100
AcDbSymbolTableRecord
100
AcDbBlockTableRecord
  2
*D34
340
0
 70
     0
280
     1
281
     0
  0
BLOCK_RECORD
  5
2B2
330
1
100
AcDbSymbolTableRecord
100
AcDbBlockTableRecord
  2
*D35
340
0
 70
     0
280
     1
281
     0
  0
BLOCK_RECORD
  5
2BE
330
1
100
AcDbSymbolTableRecord
100
AcDbBlockTableRecord
  2
*D36
340
0
 70
     0
280
     1
281
     0
  0
BLOCK_RECORD
  5
2CB
330
1
100
AcDbSymbolTableRecord
100
AcDbBlockTableRecord
  2
*D37
340
0
 70
     0
280
     1
281
     0
  0
BLOCK_RECORD
  5
2D8
330
1
100
AcDbSymbolTableRecord
100
AcDbBlockTableRecord
  2
*D38
340
0
 70
     0
280
     1
281
     0
  0
ENDTAB
  0
ENDSEC
  0
SECTION
  2
BLOCKS
  0
BLOCK
  5
71
330
70
100
AcDbEntity
  8
0
100
AcDbBlockBegin
  2
*Model_Space
 70
     0
 10
0.0
 20
0.0
 30
0.0
  3
*Model_Space
  1

  0
ENDBLK
  5
72
330
70
100
AcDbEntity
  8
0
100
AcDbBlockEnd
  0
BLOCK
  5
6D
330
6C
100
AcDbEntity
 67
     1
  8
0
100
AcDbBlockBegin
  2
*Paper_Space
 70
     0
 10
0.0
 20
0.0
 30
0.0
  3
*Paper_Space
  1

  0
ENDBLK
  5
6E
330
6C
100
AcDbEntity
 67
     1
  8
0
100
AcDbBlockEnd
  0
BLOCK
  5
8D
330
8C
100
AcDbEntity
  8
OUTLINE
100
AcDbBlockBegin
  2
*D0
 70
     1
 10
0.0
 20
0.0
 30
0.0
  3
*D0
  1

  0
TEXT
  5
8E
330
8C
100
AcDbEntity
  8
OUTLINE
  6
Continuous
100
AcDbText
 10
-330.9999939203262
 20
39.02000058015556
 30
0.0
 40
2.799999952316284
  1
0
 50
90.00000500895634
 41
0.6999999829701011
  7
STANDARD1
100
AcDbText
  0
LINE
  5
8F
330
8C
100
AcDbEntity
  8
OUTLINE
  6
Continuous
100
AcDbLine
 10
-330.0
 20
35.0
 30
0.0
 11
-330.0
 21
45.0
 31
0.0
  0
LINE
  5
90
330
8C
100
AcDbEntity
  8
OUTLINE
  6
Continuous
100
AcDbLine
 10
-330.0
 20
40.0
 30
0.0
 11
-331.0352762085581
 21
36.13629670238597
 31
0.0
  0
LINE
  5
91
330
8C
100
AcDbEntity
  8
OUTLINE
  6
Continuous
100
AcDbLine
 10
-330.0
 20
40.0
 30
0.0
 11
-328.964723791442
 21
36.13629670238597
 31
0.0
  0
LINE
  5
92
330
8C
100
AcDbEntity
  8
OUTLINE
  6
Continuous
100
AcDbLine
 10
-330.0
 20
40.0
 30
0.0
 11
-328.964723791442
 21
43.86370329761405
 31
0.0
  0
LINE
  5
93
330
8C
100
AcDbEntity
  8
OUTLINE
  6
Continuous
100
AcDbLine
 10
-330.0
 20
40.0
 30
0.0
 11
-331.0352762085581
 21
43.86370329761405
 31
0.0
  0
POINT
  5
94
330
8C
100
AcDbEntity
  8
DEFPOINTS
  6
ByBlock
100
AcDbPoint
 10
-330.0
 20
40.0
 30
0.0
  0
POINT
  5
95
330
8C
100
AcDbEntity
  8
DEFPOINTS
  6
ByBlock
100
AcDbPoint
 10
-330.0
 20
40.0
 30
0.0
  0
POINT
  5
96
330
8C
100
AcDbEntity
  8
DEFPOINTS
  6
ByBlock
100
AcDbPoint
 10
-330.0
 20
40.0
 30
0.0
  0
ENDBLK
  5
97
330
8C
100
AcDbEntity
  8
OUTLINE
100
AcDbBlockEnd
  0
BLOCK
  5
99
330
98
100
AcDbEntity
  8
OUTLINE
100
AcDbBlockBegin
  2
*D1
 70
     1
 10
0.0
 20
0.0
 30
0.0
  3
*D1
  1

  0
TEXT
  5
9A
330
98
100
AcDbEntity
  8
OUTLINE
  6
Continuous
100
AcDbText
 10
-330.9999939203262
 20
1291.111084106767
 30
0.0
 40
2.799999952316284
  1
0
 50
90.00000500895634
 41
0.6999999829701011
  7
STANDARD1
100
AcDbText
  0
LINE
  5
9B
330
98
100
AcDbEntity
  8
OUTLINE
  6
Continuous
100
AcDbLine
 10
-335.9702758789063
 20
1292.091064453124
 30
0.0
 11
-328.0
 21
1292.091064453124
 31
0.0
  0
LINE
  5
9C
330
98
100
AcDbEntity
  8
OUTLINE
  6
Continuous
100
AcDbLine
 10
-335.9702758789063
 20
1292.091064453124
 30
0.0
 11
-328.0
 21
1292.091064453124
 31
0.0
  0
LINE
  5
9D
330
98
100
AcDbEntity
  8
OUTLINE
  6
Continuous
100
AcDbLine
 10
-330.0
 20
1287.091064453125
 30
0.0
 11
-330.0
 21
1297.091064453125
 31
0.0
  0
LINE
  5
9E
330
98
100
AcDbEntity
  8
OUTLINE
  6
Continuous
100
AcDbLine
 10
-330.0
 20
1292.091064453124
 30
0.0
 11
-331.0352762085581
 21
1288.227361155511
 31
0.0
  0
LINE
  5
9F
330
98
100
AcDbEntity
  8
OUTLINE
  6
Continuous
100
AcDbLine
 10
-330.0
 20
1292.091064453124
 30
0.0
 11
-328.964723791442
 21
1288.227361155511
 31
0.0
  0
LINE
  5
A0
330
98
100
AcDbEntity
  8
OUTLINE
  6
Continuous
100
AcDbLine
 10
-330.0
 20
1292.091064453124
 30
0.0
 11
-328.964723791442
 21
1295.954767750739
 31
0.0
  0
LINE
  5
A1
330
98
100
AcDbEntity
  8
OUTLINE
  6
Continuous
100
AcDbLine
 10
-330.0
 20
1292.091064453124
 30
0.0
 11
-331.0352762085581
 21
1295.954767750739
 31
0.0
  0
POINT
  5
A2
330
98
100
AcDbEntity
  8
DEFPOINTS
  6
ByBlock
100
AcDbPoint
 10
-336.9702758789062
 20
1292.091064453124
 30
0.0
  0
POINT
  5
A3
330
98
100
AcDbEntity
  8
DEFPOINTS
  6
ByBlock
100
AcDbPoint
 10
-336.9702758789062
 20
1292.091064453124
 30
0.0
  0
POINT
  5
A4
330
98
100
AcDbEntity
  8
DEFPOINTS
  6
ByBlock
100
AcDbPoint
 10
-330.0
 20
1292.091064453124
 30
0.0
  0
ENDBLK
  5
A5
330
98
100
AcDbEntity
  8
OUTLINE
100
AcDbBlockEnd
  0
BLOCK
  5
A7
330
A6
100
AcDbEntity
  8
OUTLINE
100
AcDbBlockBegin
  2
*D2
 70
     1
 10
0.0
 20
0.0
 30
0.0
  3
*D2
  1

  0
TEXT
  5
A8
330
A6
100
AcDbEntity
  8
OUTLINE
  6
Continuous
100
AcDbText
 10
-330.9999939203262
 20
39.02000058015556
 30
0.0
 40
2.799999952316284
  1
0
 50
90.00000500895634
 41
0.6999999829701011
  7
STANDARD1
100
AcDbText
  0
LINE
  5
A9
330
A6
100
AcDbEntity
  8
OUTLINE
  6
Continuous
100
AcDbLine
 10
-330.0
 20
35.0
 30
0.0
 11
-330.0
 21
45.0
 31
0.0
  0
LINE
  5
AA
330
A6
100
AcDbEntity
  8
OUTLINE
  6
Continuous
100
AcDbLine
 10
-330.0
 20
40.0
 30
0.0
 11
-331.0352762085581
 21
36.13629670238597
 31
0.0
  0
LINE
  5
AB
330
A6
100
AcDbEntity
  8
OUTLINE
  6
Continuous
100
AcDbLine
 10
-330.0
 20
40.0
 30
0.0
 11
-328.964723791442
 21
36.13629670238597
 31
0.0
  0
LINE
  5
AC
330
A6
100
AcDbEntity
  8
OUTLINE
  6
Continuous
100
AcDbLine
 10
-330.0
 20
40.0
 30
0.0
 11
-328.964723791442
 21
43.86370329761405
 31
0.0
  0
LINE
  5
AD
330
A6
100
AcDbEntity
  8
OUTLINE
  6
Continuous
100
AcDbLine
 10
-330.0
 20
40.0
 30
0.0
 11
-331.0352762085581
 21
43.86370329761405
 31
0.0
  0
POINT
  5
AE
330
A6
100
AcDbEntity
  8
DEFPOINTS
  6
ByBlock
100
AcDbPoint
 10
-330.0
 20
40.0
 30
0.0
  0
POINT
  5
AF
330
A6
100
AcDbEntity
  8
DEFPOINTS
  6
ByBlock
100
AcDbPoint
 10
-330.0
 20
40.0
 30
0.0
  0
POINT
  5
B0
330
A6
100
AcDbEntity
  8
DEFPOINTS
  6
ByBlock
100
AcDbPoint
 10
-330.0
 20
40.0
 30
0.0
  0
ENDBLK
  5
B1
330
A6
100
AcDbEntity
  8
OUTLINE
100
AcDbBlockEnd
  0
BLOCK
  5
B3
330
B2
100
AcDbEntity
  8
SIZE
100
AcDbBlockBegin
  2
*D3
 70
     1
 10
0.0
 20
0.0
 30
0.0
  3
*D3
  1

  0
TEXT
  5
B4
330
B2
100
AcDbEntity
  8
SIZE
  6
Continuous
100
AcDbText
 10
479.0000060796737
 20
1648.35742199739
 30
0.0
 40
2.799999952316284
  1
500
 50
90.00000500895634
 41
0.6999999829701011
  7
STANDARD1
100
AcDbText
  0
LINE
  5
B5
330
B2
100
AcDbEntity
  8
SIZE
  6
Continuous
100
AcDbLine
 10
331.0
 20
1899.300048828125
 30
0.0
 11
482.0
 21
1899.300048828125
 31
0.0
  0
LINE
  5
B6
330
B2
100
AcDbEntity
  8
SIZE
  6
Continuous
100
AcDbLine
 10
331.0
 20
1399.300048828125
 30
0.0
 11
482.0
 21
1399.300048828125
 31
0.0
  0
LINE
  5
B7
330
B2
100
AcDbEntity
  8
SIZE
  6
Continuous
100
AcDbLine
 10
480.0
 20
1899.300048828125
 30
0.0
 11
480.0
 21
1399.300048828125
 31
0.0
  0
CIRCLE
  5
B8
330
B2
100
AcDbEntity
  8
SIZE
  6
Continuous
100
AcDbCircle
 10
480.0
 20
1899.300048828125
 30
0.0
 40
0.5
  0
CIRCLE
  5
B9
330
B2
100
AcDbEntity
  8
SIZE
  6
Continuous
100
AcDbCircle
 10
480.0
 20
1899.300048828125
 30
0.0
 40
0.4
  0
CIRCLE
  5
BA
330
B2
100
AcDbEntity
  8
SIZE
  6
Continuous
100
AcDbCircle
 10
480.0
 20
1899.300048828125
 30
0.0
 40
0.3
  0
CIRCLE
  5
BB
330
B2
100
AcDbEntity
  8
SIZE
  6
Continuous
100
AcDbCircle
 10
480.0
 20
1899.300048828125
 30
0.0
 40
0.2
  0
CIRCLE
  5
BC
330
B2
100
AcDbEntity
  8
SIZE
  6
Continuous
100
AcDbCircle
 10
480.0
 20
1899.300048828125
 30
0.0
 40
0.1
  0
CIRCLE
  5
BD
330
B2
100
AcDbEntity
  8
SIZE
  6
Continuous
100
AcDbCircle
 10
480.0
 20
1399.300048828125
 30
0.0
 40
0.5
  0
CIRCLE
  5
BE
330
B2
100
AcDbEntity
  8
SIZE
  6
Continuous
100
AcDbCircle
 10
480.0
 20
1399.300048828125
 30
0.0
 40
0.4
  0
CIRCLE
  5
BF
330
B2
100
AcDbEntity
  8
SIZE
  6
Continuous
100
AcDbCircle
 10
480.0
 20
1399.300048828125
 30
0.0
 40
0.3
  0
CIRCLE
  5
C0
330
B2
100
AcDbEntity
  8
SIZE
  6
Continuous
100
AcDbCircle
 10
480.0
 20
1399.300048828125
 30
0.0
 40
0.2
  0
CIRCLE
  5
C1
330
B2
100
AcDbEntity
  8
SIZE
  6
Continuous
100
AcDbCircle
 10
480.0
 20
1399.300048828125
 30
0.0
 40
0.1
  0
POINT
  5
C2
330
B2
100
AcDbEntity
  8
DEFPOINTS
  6
ByBlock
100
AcDbPoint
 10
330.0
 20
1399.300048828125
 30
0.0
  0
POINT
  5
C3
330
B2
100
AcDbEntity
  8
DEFPOINTS
  6
ByBlock
100
AcDbPoint
 10
330.0
 20
1899.300048828125
 30
0.0
  0
POINT
  5
C4
330
B2
100
AcDbEntity
  8
DEFPOINTS
  6
ByBlock
100
AcDbPoint
 10
480.0
 20
1899.300048828125
 30
0.0
  0
ENDBLK
  5
C5
330
B2
100
AcDbEntity
  8
SIZE
100
AcDbBlockEnd
  0
BLOCK
  5
C7
330
C6
100
AcDbEntity
  8
SIZE
100
AcDbBlockBegin
  2
*D4
 70
     1
 10
0.0
 20
0.0
 30
0.0
  3
*D4
  1

  0
TEXT
  5
C8
330
C6
100
AcDbEntity
  8
SIZE
  6
Continuous
100
AcDbText
 10
-13.73948186476841
 20
-349.0000060796738
 30
0.0
 40
2.799999952316284
  1
φ
 50
0.000002504478167
 41
0.583333319141751
  7
STANDARD1
100
AcDbText
  0
TEXT
  5
C9
330
C6
100
AcDbEntity
  8
SIZE
  6
Continuous
100
AcDbText
 10
-11.77948182662144
 20
-349.0000060796738
 30
0.0
 40
2.799999952316284
  1
660
 50
0.000002504478167
 41
0.6999999829701011
  7
STANDARD1
100
AcDbText
  0
LINE
  5
CA
330
C6
100
AcDbEntity
  8
SIZE
  6
Continuous
100
AcDbLine
 10
330.0
 20
39.0
 30
0.0
 11
330.0
 21
-352.0
 31
0.0
  0
LINE
  5
CB
330
C6
100
AcDbEntity
  8
SIZE
  6
Continuous
100
AcDbLine
 10
-330.0
 20
39.0
 30
0.0
 11
-330.0
 21
-352.0
 31
0.0
  0
LINE
  5
CC
330
C6
100
AcDbEntity
  8
SIZE
  6
Continuous
100
AcDbLine
 10
330.0
 20
-350.0
 30
0.0
 11
-330.0
 21
-350.0
 31
0.0
  0
CIRCLE
  5
CD
330
C6
100
AcDbEntity
  8
SIZE
  6
Continuous
100
AcDbCircle
 10
330.0
 20
-350.0
 30
0.0
 40
0.5
  0
CIRCLE
  5
CE
330
C6
100
AcDbEntity
  8
SIZE
  6
Continuous
100
AcDbCircle
 10
330.0
 20
-350.0
 30
0.0
 40
0.4
  0
CIRCLE
  5
CF
330
C6
100
AcDbEntity
  8
SIZE
  6
Continuous
100
AcDbCircle
 10
330.0
 20
-350.0
 30
0.0
 40
0.3
  0
CIRCLE
  5
D0
330
C6
100
AcDbEntity
  8
SIZE
  6
Continuous
100
AcDbCircle
 10
330.0
 20
-350.0
 30
0.0
 40
0.2
  0
CIRCLE
  5
D1
330
C6
100
AcDbEntity
  8
SIZE
  6
Continuous
100
AcDbCircle
 10
330.0
 20
-350.0
 30
0.0
 40
0.1
  0
CIRCLE
  5
D2
330
C6
100
AcDbEntity
  8
SIZE
  6
Continuous
100
AcDbCircle
 10
-330.0
 20
-350.0
 30
0.0
 40
0.5
  0
CIRCLE
  5
D3
330
C6
100
AcDbEntity
  8
SIZE
  6
Continuous
100
AcDbCircle
 10
-330.0
 20
-350.0
 30
0.0
 40
0.4
  0
CIRCLE
  5
D4
330
C6
100
AcDbEntity
  8
SIZE
  6
Continuous
100
AcDbCircle
 10
-330.0
 20
-350.0
 30
0.0
 40
0.3
  0
CIRCLE
  5
D5
330
C6
100
AcDbEntity
  8
SIZE
  6
Continuous
100
AcDbCircle
 10
-330.0
 20
-350.0
 30
0.0
 40
0.2
  0
CIRCLE
  5
D6
330
C6
100
AcDbEntity
  8
SIZE
  6
Continuous
100
AcDbCircle
 10
-330.0
 20
-350.0
 30
0.0
 40
0.1
  0
POINT
  5
D7
330
C6
100
AcDbEntity
  8
DEFPOINTS
  6
ByBlock
100
AcDbPoint
 10
-330.0
 20
40.0
 30
0.0
  0
POINT
  5
D8
330
C6
100
AcDbEntity
  8
DEFPOINTS
  6
ByBlock
100
AcDbPoint
 10
330.0
 20
40.0
 30
0.0
  0
POINT
  5
D9
330
C6
100
AcDbEntity
  8
DEFPOINTS
  6
ByBlock
100
AcDbPoint
 10
330.0
 20
-350.0
 30
0.0
  0
ENDBLK
  5
DA
330
C6
100
AcDbEntity
  8
SIZE
100
AcDbBlockEnd
  0
BLOCK
  5
DC
330
DB
100
AcDbEntity
  8
SIZE
100
AcDbBlockBegin
  2
*D5
 70
     1
 10
0.0
 20
0.0
 30
0.0
  3
*D5
  1

  0
TEXT
  5
DD
330
DB
100
AcDbEntity
  8
SIZE
  6
Continuous
100
AcDbText
 10
-205.5615691526712
 20
-449.0000060796737
 30
0.0
 40
2.799999952316284
  1
401
 50
0.000002504478167
 41
0.6999999829701011
  7
STANDARD1
100
AcDbText
  0
LINE
  5
DE
330
DB
100
AcDbEntity
  8
SIZE
  6
Continuous
100
AcDbLine
 10
0.0
 20
-43.21389389038085
 30
0.0
 11
-0.000000000000075
 21
-452.0
 31
0.0
  0
LINE
  5
DF
330
DB
100
AcDbEntity
  8
SIZE
  6
Continuous
100
AcDbLine
 10
-401.0
 20
-1.000000000000057
 30
0.0
 11
-401.0
 21
-452.0
 31
0.0
  0
LINE
  5
E0
330
DB
100
AcDbEntity
  8
SIZE
  6
Continuous
100
AcDbLine
 10
-0.000000000000075
 20
-450.0
 30
0.0
 11
-401.0
 21
-450.0
 31
0.0
  0
CIRCLE
  5
E1
330
DB
100
AcDbEntity
  8
SIZE
  6
Continuous
100
AcDbCircle
 10
-0.000000000000075
 20
-450.0
 30
0.0
 40
0.5
  0
CIRCLE
  5
E2
330
DB
100
AcDbEntity
  8
SIZE
  6
Continuous
100
AcDbCircle
 10
-0.000000000000075
 20
-450.0
 30
0.0
 40
0.4
  0
CIRCLE
  5
E3
330
DB
100
AcDbEntity
  8
SIZE
  6
Continuous
100
AcDbCircle
 10
-0.000000000000075
 20
-450.0
 30
0.0
 40
0.3
  0
CIRCLE
  5
E4
330
DB
100
AcDbEntity
  8
SIZE
  6
Continuous
100
AcDbCircle
 10
-0.000000000000075
 20
-450.0
 30
0.0
 40
0.2
  0
CIRCLE
  5
E5
330
DB
100
AcDbEntity
  8
SIZE
  6
Continuous
100
AcDbCircle
 10
-0.000000000000075
 20
-450.0
 30
0.0
 40
0.1
  0
CIRCLE
  5
E6
330
DB
100
AcDbEntity
  8
SIZE
  6
Continuous
100
AcDbCircle
 10
-401.0
 20
-450.0
 30
0.0
 40
0.5
  0
CIRCLE
  5
E7
330
DB
100
AcDbEntity
  8
SIZE
  6
Continuous
100
AcDbCircle
 10
-401.0
 20
-450.0
 30
0.0
 40
0.4
  0
CIRCLE
  5
E8
330
DB
100
AcDbEntity
  8
SIZE
  6
Continuous
100
AcDbCircle
 10
-401.0
 20
-450.0
 30
0.0
 40
0.3
  0
CIRCLE
  5
E9
330
DB
100
AcDbEntity
  8
SIZE
  6
Continuous
100
AcDbCircle
 10
-401.0
 20
-450.0
 30
0.0
 40
0.2
  0
CIRCLE
  5
EA
330
DB
100
AcDbEntity
  8
SIZE
  6
Continuous
100
AcDbCircle
 10
-401.0
 20
-450.0
 30
0.0
 40
0.1
  0
POINT
  5
EB
330
DB
100
AcDbEntity
  8
DEFPOINTS
  6
ByBlock
100
AcDbPoint
 10
-401.0
 20
-0.000000000000057
 30
0.0
  0
POINT
  5
EC
330
DB
100
AcDbEntity
  8
DEFPOINTS
  6
ByBlock
100
AcDbPoint
 10
0.0
 20
-42.21389389038085
 30
0.0
  0
POINT
  5
ED
330
DB
100
AcDbEntity
  8
DEFPOINTS
  6
ByBlock
100
AcDbPoint
 10
-0.000000000000075
 20
-450.0
 30
0.0
  0
ENDBLK
  5
EE
330
DB
100
AcDbEntity
  8
SIZE
100
AcDbBlockEnd
  0
BLOCK
  5
F0
330
EF
100
AcDbEntity
  8
SIZE
100
AcDbBlockBegin
  2
*D6
 70
     1
 10
0.0
 20
0.0
 30
0.0
  3
*D6
  1

  0
TEXT
  5
F1
330
EF
100
AcDbEntity
  8
SIZE
  6
Continuous
100
AcDbText
 10
479.0000060796737
 20
-69.19892108122138
 30
0.0
 40
2.799999952316284
  1
40
 50
90.00000500895634
 41
0.6999999829701011
  7
STANDARD1
100
AcDbText
  0
LINE
  5
F2
330
EF
100
AcDbEntity
  8
SIZE
  6
Continuous
100
AcDbLine
 10
366.7999877929688
 20
0.0
 30
0.0
 11
482.0
 21
0.0
 31
0.0
  0
LINE
  5
F3
330
EF
100
AcDbEntity
  8
SIZE
  6
Continuous
100
AcDbLine
 10
331.0
 20
40.0
 30
0.0
 11
482.0
 21
40.0
 31
0.0
  0
LINE
  5
F4
330
EF
100
AcDbEntity
  8
SIZE
  6
Continuous
100
AcDbLine
 10
480.0
 20
-70.59892272949219
 30
0.0
 11
480.0
 21
45.0
 31
0.0
  0
CIRCLE
  5
F5
330
EF
100
AcDbEntity
  8
SIZE
  6
Continuous
100
AcDbCircle
 10
480.0
 20
0.0
 30
0.0
 40
0.5
  0
CIRCLE
  5
F6
330
EF
100
AcDbEntity
  8
SIZE
  6
Continuous
100
AcDbCircle
 10
480.0
 20
0.0
 30
0.0
 40
0.4
  0
CIRCLE
  5
F7
330
EF
100
AcDbEntity
  8
SIZE
  6
Continuous
100
AcDbCircle
 10
480.0
 20
0.0
 30
0.0
 40
0.3
  0
CIRCLE
  5
F8
330
EF
100
AcDbEntity
  8
SIZE
  6
Continuous
100
AcDbCircle
 10
480.0
 20
0.0
 30
0.0
 40
0.2
  0
CIRCLE
  5
F9
330
EF
100
AcDbEntity
  8
SIZE
  6
Continuous
100
AcDbCircle
 10
480.0
 20
0.0
 30
0.0
 40
0.1
  0
CIRCLE
  5
FA
330
EF
100
AcDbEntity
  8
SIZE
  6
Continuous
100
AcDbCircle
 10
480.0
 20
40.0
 30
0.0
 40
0.5
  0
CIRCLE
  5
FB
330
EF
100
AcDbEntity
  8
SIZE
  6
Continuous
100
AcDbCircle
 10
480.0
 20
40.0
 30
0.0
 40
0.4
  0
CIRCLE
  5
FC
330
EF
100
AcDbEntity
  8
SIZE
  6
Continuous
100
AcDbCircle
 10
480.0
 20
40.0
 30
0.0
 40
0.3
  0
CIRCLE
  5
FD
330
EF
100
AcDbEntity
  8
SIZE
  6
Continuous
100
AcDbCircle
 10
480.0
 20
40.0
 30
0.0
 40
0.2
  0
CIRCLE
  5
FE
330
EF
100
AcDbEntity
  8
SIZE
  6
Continuous
100
AcDbCircle
 10
480.0
 20
40.0
 30
0.0
 40
0.1
  0
POINT
  5
FF
330
EF
100
AcDbEntity
  8
DEFPOINTS
  6
ByBlock
100
AcDbPoint
 10
330.0
 20
40.0
 30
0.0
  0
POINT
  5
100
330
EF
100
AcDbEntity
  8
DEFPOINTS
  6
ByBlock
100
AcDbPoint
 10
365.7999877929688
 20
0.0
 30
0.0
  0
POINT
  5
101
330
EF
100
AcDbEntity
  8
DEFPOINTS
  6
ByBlock
100
AcDbPoint
 10
480.0
 20
0.0
 30
0.0
  0
ENDBLK
  5
102
330
EF
100
AcDbEntity
  8
SIZE
100
AcDbBlockEnd
  0
BLOCK
  5
104
330
103
100
AcDbEntity
  8
SIZE
100
AcDbBlockBegin
  2
*D7
 70
     1
 10
0.0
 20
0.0
 30
0.0
  3
*D7
  1

  0
TEXT
  5
105
330
103
100
AcDbEntity
  8
SIZE
  6
Continuous
100
AcDbText
 10
678.9999755620956
 20
715.6791993411418
 30
0.0
 40
2.799999952316284
  1
1449
 50
90.00000500895634
 41
0.6999999829701011
  7
STANDARD1
100
AcDbText
  0
LINE
  5
106
330
103
100
AcDbEntity
  8
SIZE
  6
Continuous
100
AcDbLine
 10
366.7999877929688
 20
0.0
 30
0.0
 11
682.0
 21
0.0
 31
0.0
  0
LINE
  5
107
330
103
100
AcDbEntity
  8
SIZE
  6
Continuous
100
AcDbLine
 10
13.11269283294677
 20
1449.199951171875
 30
0.0
 11
682.0
 21
1449.199951171875
 31
0.0
  0
LINE
  5
108
330
103
100
AcDbEntity
  8
SIZE
  6
Continuous
100
AcDbLine
 10
680.0
 20
0.0
 30
0.0
 11
680.0
 21
1449.199951171875
 31
0.0
  0
CIRCLE
  5
109
330
103
100
AcDbEntity
  8
SIZE
  6
Continuous
100
AcDbCircle
 10
680.0
 20
0.0
 30
0.0
 40
0.5
  0
CIRCLE
  5
10A
330
103
100
AcDbEntity
  8
SIZE
  6
Continuous
100
AcDbCircle
 10
680.0
 20
0.0
 30
0.0
 40
0.4
  0
CIRCLE
  5
10B
330
103
100
AcDbEntity
  8
SIZE
  6
Continuous
100
AcDbCircle
 10
680.0
 20
0.0
 30
0.0
 40
0.3
  0
CIRCLE
  5
10C
330
103
100
AcDbEntity
  8
SIZE
  6
Continuous
100
AcDbCircle
 10
680.0
 20
0.0
 30
0.0
 40
0.2
  0
CIRCLE
  5
10D
330
103
100
AcDbEntity
  8
SIZE
  6
Continuous
100
AcDbCircle
 10
680.0
 20
0.0
 30
0.0
 40
0.1
  0
CIRCLE
  5
10E
330
103
100
AcDbEntity
  8
SIZE
  6
Continuous
100
AcDbCircle
 10
680.0
 20
1449.199951171875
 30
0.0
 40
0.5
  0
CIRCLE
  5
10F
330
103
100
AcDbEntity
  8
SIZE
  6
Continuous
100
AcDbCircle
 10
680.0
 20
1449.199951171875
 30
0.0
 40
0.4
  0
CIRCLE
  5
110
330
103
100
AcDbEntity
  8
SIZE
  6
Continuous
100
AcDbCircle
 10
680.0
 20
1449.199951171875
 30
0.0
 40
0.3
  0
CIRCLE
  5
111
330
103
100
AcDbEntity
  8
SIZE
  6
Continuous
100
AcDbCircle
 10
680.0
 20
1449.199951171875
 30
0.0
 40
0.2
  0
CIRCLE
  5
112
330
103
100
AcDbEntity
  8
SIZE
  6
Continuous
100
AcDbCircle
 10
680.0
 20
1449.199951171875
 30
0.0
 40
0.1
  0
POINT
  5
113
330
103
100
AcDbEntity
  8
DEFPOINTS
  6
ByBlock
100
AcDbPoint
 10
12.11269283294677
 20
1449.199951171875
 30
0.0
  0
POINT
  5
114
330
103
100
AcDbEntity
  8
DEFPOINTS
  6
ByBlock
100
AcDbPoint
 10
365.7999877929688
 20
0.0
 30
0.0
  0
POINT
  5
115
330
103
100
AcDbEntity
  8
DEFPOINTS
  6
ByBlock
100
AcDbPoint
 10
680.0
 20
0.0
 30
0.0
  0
ENDBLK
  5
116
330
103
100
AcDbEntity
  8
SIZE
100
AcDbBlockEnd
  0
BLOCK
  5
118
330
117
100
AcDbEntity
  8
SIZE
100
AcDbBlockBegin
  2
*D8
 70
     1
 10
0.0
 20
0.0
 30
0.0
  3
*D8
  1

  0
TEXT
  5
119
330
117
100
AcDbEntity
  8
SIZE
  6
Continuous
100
AcDbText
 10
578.9999755620956
 20
715.730041626298
 30
0.0
 40
2.799999952316284
  1
1359
 50
90.00000500895634
 41
0.6999999829701011
  7
STANDARD1
100
AcDbText
  0
LINE
  5
11A
330
117
100
AcDbEntity
  8
SIZE
  6
Continuous
100
AcDbLine
 10
45.55139541625977
 20
1399.300048828125
 30
0.0
 11
582.0
 21
1399.300048828125
 31
0.0
  0
LINE
  5
11B
330
117
100
AcDbEntity
  8
SIZE
  6
Continuous
100
AcDbLine
 10
331.0
 20
40.0
 30
0.0
 11
582.0
 21
40.0
 31
0.0
  0
LINE
  5
11C
330
117
100
AcDbEntity
  8
SIZE
  6
Continuous
100
AcDbLine
 10
580.0
 20
1399.300048828125
 30
0.0
 11
580.0
 21
40.0
 31
0.0
  0
CIRCLE
  5
11D
330
117
100
AcDbEntity
  8
SIZE
  6
Continuous
100
AcDbCircle
 10
580.0
 20
1399.300048828125
 30
0.0
 40
0.5
  0
CIRCLE
  5
11E
330
117
100
AcDbEntity
  8
SIZE
  6
Continuous
100
AcDbCircle
 10
580.0
 20
1399.300048828125
 30
0.0
 40
0.4
  0
CIRCLE
  5
11F
330
117
100
AcDbEntity
  8
SIZE
  6
Continuous
100
AcDbCircle
 10
580.0
 20
1399.300048828125
 30
0.0
 40
0.3
  0
CIRCLE
  5
120
330
117
100
AcDbEntity
  8
SIZE
  6
Continuous
100
AcDbCircle
 10
580.0
 20
1399.300048828125
 30
0.0
 40
0.2
  0
CIRCLE
  5
121
330
117
100
AcDbEntity
  8
SIZE
  6
Continuous
100
AcDbCircle
 10
580.0
 20
1399.300048828125
 30
0.0
 40
0.1
  0
CIRCLE
  5
122
330
117
100
AcDbEntity
  8
SIZE
  6
Continuous
100
AcDbCircle
 10
580.0
 20
40.0
 30
0.0
 40
0.5
  0
CIRCLE
  5
123
330
117
100
AcDbEntity
  8
SIZE
  6
Continuous
100
AcDbCircle
 10
580.0
 20
40.0
 30
0.0
 40
0.4
  0
CIRCLE
  5
124
330
117
100
AcDbEntity
  8
SIZE
  6
Continuous
100
AcDbCircle
 10
580.0
 20
40.0
 30
0.0
 40
0.3
  0
CIRCLE
  5
125
330
117
100
AcDbEntity
  8
SIZE
  6
Continuous
100
AcDbCircle
 10
580.0
 20
40.0
 30
0.0
 40
0.2
  0
CIRCLE
  5
126
330
117
100
AcDbEntity
  8
SIZE
  6
Continuous
100
AcDbCircle
 10
580.0
 20
40.0
 30
0.0
 40
0.1
  0
POINT
  5
127
330
117
100
AcDbEntity
  8
DEFPOINTS
  6
ByBlock
100
AcDbPoint
 10
330.0
 20
40.0
 30
0.0
  0
POINT
  5
128
330
117
100
AcDbEntity
  8
DEFPOINTS
  6
ByBlock
100
AcDbPoint
 10
44.55139541625977
 20
1399.300048828125
 30
0.0
  0
POINT
  5
129
330
117
100
AcDbEntity
  8
DEFPOINTS
  6
ByBlock
100
AcDbPoint
 10
580.0
 20
1399.300048828125
 30
0.0
  0
ENDBLK
  5
12A
330
117
100
AcDbEntity
  8
SIZE
100
AcDbBlockEnd
  0
BLOCK
  5
12C
330
12B
100
AcDbEntity
  8
SIZE
100
AcDbBlockBegin
  2
*D9
 70
     1
 10
0.0
 20
0.0
 30
0.0
  3
*D9
  1

  0
TEXT
  5
12D
330
12B
100
AcDbEntity
  8
SIZE
  6
Continuous
100
AcDbText
 10
578.9999755620956
 20
1423.346679809891
 30
0.0
 40
2.799999952316284
  1
50
 50
90.00000500895634
 41
0.6999999829701011
  7
STANDARD1
100
AcDbText
  0
LINE
  5
12E
330
12B
100
AcDbEntity
  8
SIZE
  6
Continuous
100
AcDbLine
 10
45.55139541625977
 20
1399.300048828125
 30
0.0
 11
582.0
 21
1399.300048828125
 31
0.0
  0
LINE
  5
12F
330
12B
100
AcDbEntity
  8
SIZE
  6
Continuous
100
AcDbLine
 10
13.11269283294677
 20
1449.199951171875
 30
0.0
 11
582.0
 21
1449.199951171875
 31
0.0
  0
LINE
  5
130
330
12B
100
AcDbEntity
  8
SIZE
  6
Continuous
100
AcDbLine
 10
580.0
 20
1399.300048828125
 30
0.0
 11
580.0
 21
1449.199951171875
 31
0.0
  0
CIRCLE
  5
131
330
12B
100
AcDbEntity
  8
SIZE
  6
Continuous
100
AcDbCircle
 10
580.0
 20
1399.300048828125
 30
0.0
 40
0.5
  0
CIRCLE
  5
132
330
12B
100
AcDbEntity
  8
SIZE
  6
Continuous
100
AcDbCircle
 10
580.0
 20
1399.300048828125
 30
0.0
 40
0.4
  0
CIRCLE
  5
133
330
12B
100
AcDbEntity
  8
SIZE
  6
Continuous
100
AcDbCircle
 10
580.0
 20
1399.300048828125
 30
0.0
 40
0.3
  0
CIRCLE
  5
134
330
12B
100
AcDbEntity
  8
SIZE
  6
Continuous
100
AcDbCircle
 10
580.0
 20
1399.300048828125
 30
0.0
 40
0.2
  0
CIRCLE
  5
135
330
12B
100
AcDbEntity
  8
SIZE
  6
Continuous
100
AcDbCircle
 10
580.0
 20
1399.300048828125
 30
0.0
 40
0.1
  0
CIRCLE
  5
136
330
12B
100
AcDbEntity
  8
SIZE
  6
Continuous
100
AcDbCircle
 10
580.0
 20
1449.199951171875
 30
0.0
 40
0.5
  0
CIRCLE
  5
137
330
12B
100
AcDbEntity
  8
SIZE
  6
Continuous
100
AcDbCircle
 10
580.0
 20
1449.199951171875
 30
0.0
 40
0.4
  0
CIRCLE
  5
138
330
12B
100
AcDbEntity
  8
SIZE
  6
Continuous
100
AcDbCircle
 10
580.0
 20
1449.199951171875
 30
0.0
 40
0.3
  0
CIRCLE
  5
139
330
12B
100
AcDbEntity
  8
SIZE
  6
Continuous
100
AcDbCircle
 10
580.0
 20
1449.199951171875
 30
0.0
 40
0.2
  0
CIRCLE
  5
13A
330
12B
100
AcDbEntity
  8
SIZE
  6
Continuous
100
AcDbCircle
 10
580.0
 20
1449.199951171875
 30
0.0
 40
0.1
  0
POINT
  5
13B
330
12B
100
AcDbEntity
  8
DEFPOINTS
  6
ByBlock
100
AcDbPoint
 10
12.11269283294677
 20
1449.199951171875
 30
0.0
  0
POINT
  5
13C
330
12B
100
AcDbEntity
  8
DEFPOINTS
  6
ByBlock
100
AcDbPoint
 10
44.55139541625977
 20
1399.300048828125
 30
0.0
  0
POINT
  5
13D
330
12B
100
AcDbEntity
  8
DEFPOINTS
  6
ByBlock
100
AcDbPoint
 10
580.0
 20
1399.300048828125
 30
0.0
  0
ENDBLK
  5
13E
330
12B
100
AcDbEntity
  8
SIZE
100
AcDbBlockEnd
  0
BLOCK
  5
140
330
13F
100
AcDbEntity
  8
SIZE
100
AcDbBlockBegin
  2
*D10
 70
     1
 10
0.0
 20
0.0
 30
0.0
  3
*D10
  1

  0
TEXT
  5
141
330
13F
100
AcDbEntity
  8
SIZE
  6
Continuous
100
AcDbText
 10
-350.3991333246231
 20
47.06000149568287
 30
0.0
 40
2.799999952316284
  1
100
 50
90.00000500895634
 41
0.6999999829701011
  7
STANDARD1
100
AcDbText
  0
LINE
  5
142
330
13F
100
AcDbEntity
  8
SIZE
  6
Continuous
100
AcDbLine
 10
-301.7288818359375
 20
100.0
 30
0.0
 11
-351.3991394042969
 21
100.0
 31
0.0
  0
LINE
  5
143
330
13F
100
AcDbEntity
  8
SIZE
  6
Continuous
100
AcDbLine
 10
-213.3003692626953
 20
-0.000000000000059
 30
0.0
 11
-351.3991394042969
 21
-0.000000000000042
 31
0.0
  0
LINE
  5
144
330
13F
100
AcDbEntity
  8
SIZE
  6
Continuous
100
AcDbLine
 10
-349.3991394042969
 20
100.0
 30
0.0
 11
-349.3991394042969
 21
-0.000000000000042
 31
0.0
  0
CIRCLE
  5
145
330
13F
100
AcDbEntity
  8
SIZE
  6
Continuous
100
AcDbCircle
 10
-349.3991394042969
 20
100.0
 30
0.0
 40
0.5
  0
CIRCLE
  5
146
330
13F
100
AcDbEntity
  8
SIZE
  6
Continuous
100
AcDbCircle
 10
-349.3991394042969
 20
100.0
 30
0.0
 40
0.4
  0
CIRCLE
  5
147
330
13F
100
AcDbEntity
  8
SIZE
  6
Continuous
100
AcDbCircle
 10
-349.3991394042969
 20
100.0
 30
0.0
 40
0.3
  0
CIRCLE
  5
148
330
13F
100
AcDbEntity
  8
SIZE
  6
Continuous
100
AcDbCircle
 10
-349.3991394042969
 20
100.0
 30
0.0
 40
0.2
  0
CIRCLE
  5
149
330
13F
100
AcDbEntity
  8
SIZE
  6
Continuous
100
AcDbCircle
 10
-349.3991394042969
 20
100.0
 30
0.0
 40
0.1
  0
CIRCLE
  5
14A
330
13F
100
AcDbEntity
  8
SIZE
  6
Continuous
100
AcDbCircle
 10
-349.3991394042969
 20
-0.000000000000042
 30
0.0
 40
0.5
  0
CIRCLE
  5
14B
330
13F
100
AcDbEntity
  8
SIZE
  6
Continuous
100
AcDbCircle
 10
-349.3991394042969
 20
-0.000000000000042
 30
0.0
 40
0.4
  0
CIRCLE
  5
14C
330
13F
100
AcDbEntity
  8
SIZE
  6
Continuous
100
AcDbCircle
 10
-349.3991394042969
 20
-0.000000000000042
 30
0.0
 40
0.3
  0
CIRCLE
  5
14D
330
13F
100
AcDbEntity
  8
SIZE
  6
Continuous
100
AcDbCircle
 10
-349.3991394042969
 20
-0.000000000000042
 30
0.0
 40
0.2
  0
CIRCLE
  5
14E
330
13F
100
AcDbEntity
  8
SIZE
  6
Continuous
100
AcDbCircle
 10
-349.3991394042969
 20
-0.000000000000042
 30
0.0
 40
0.1
  0
POINT
  5
14F
330
13F
100
AcDbEntity
  8
DEFPOINTS
  6
ByBlock
100
AcDbPoint
 10
-212.3003692626953
 20
-0.000000000000059
 30
0.0
  0
POINT
  5
150
330
13F
100
AcDbEntity
  8
DEFPOINTS
  6
ByBlock
100
AcDbPoint
 10
-300.7288818359375
 20
100.0
 30
0.0
  0
POINT
  5
151
330
13F
100
AcDbEntity
  8
DEFPOINTS
  6
ByBlock
100
AcDbPoint
 10
-349.3991394042969
 20
100.0
 30
0.0
  0
ENDBLK
  5
152
330
13F
100
AcDbEntity
  8
SIZE
100
AcDbBlockEnd
  0
BLOCK
  5
154
330
153
100
AcDbEntity
  8
SIZE
100
AcDbBlockBegin
  2
*D11
 70
     1
 10
0.0
 20
0.0
 30
0.0
  3
*D11
  1

  0
TEXT
  5
155
330
153
100
AcDbEntity
  8
SIZE
  6
Continuous
100
AcDbText
 10
-1852.000024437904
 20
945.7300416262981
 30
0.0
 40
2.799999952316284
  1
1899
 50
90.00000500895634
 41
0.6999999829701011
  7
STANDARD1
100
AcDbText
  0
LINE
  5
156
330
153
100
AcDbEntity
  8
SIZE
  6
Continuous
100
AcDbLine
 10
-1702.0
 20
-0.000000000000057
 30
0.0
 11
-1853.0
 21
-0.000000000000039
 31
0.0
  0
LINE
  5
157
330
153
100
AcDbEntity
  8
SIZE
  6
Continuous
100
AcDbLine
 10
-1702.0
 20
1899.300048828125
 30
0.0
 11
-1853.0
 21
1899.300048828125
 31
0.0
  0
LINE
  5
158
330
153
100
AcDbEntity
  8
SIZE
  6
Continuous
100
AcDbLine
 10
-1851.0
 20
-0.000000000000039
 30
0.0
 11
-1851.0
 21
1899.300048828125
 31
0.0
  0
CIRCLE
  5
159
330
153
100
AcDbEntity
  8
SIZE
  6
Continuous
100
AcDbCircle
 10
-1851.0
 20
-0.000000000000039
 30
0.0
 40
0.5
  0
CIRCLE
  5
15A
330
153
100
AcDbEntity
  8
SIZE
  6
Continuous
100
AcDbCircle
 10
-1851.0
 20
-0.000000000000039
 30
0.0
 40
0.4
  0
CIRCLE
  5
15B
330
153
100
AcDbEntity
  8
SIZE
  6
Continuous
100
AcDbCircle
 10
-1851.0
 20
-0.000000000000039
 30
0.0
 40
0.3
  0
CIRCLE
  5
15C
330
153
100
AcDbEntity
  8
SIZE
  6
Continuous
100
AcDbCircle
 10
-1851.0
 20
-0.000000000000039
 30
0.0
 40
0.2
  0
CIRCLE
  5
15D
330
153
100
AcDbEntity
  8
SIZE
  6
Continuous
100
AcDbCircle
 10
-1851.0
 20
-0.000000000000039
 30
0.0
 40
0.1
  0
CIRCLE
  5
15E
330
153
100
AcDbEntity
  8
SIZE
  6
Continuous
100
AcDbCircle
 10
-1851.0
 20
1899.300048828125
 30
0.0
 40
0.5
  0
CIRCLE
  5
15F
330
153
100
AcDbEntity
  8
SIZE
  6
Continuous
100
AcDbCircle
 10
-1851.0
 20
1899.300048828125
 30
0.0
 40
0.4
  0
CIRCLE
  5
160
330
153
100
AcDbEntity
  8
SIZE
  6
Continuous
100
AcDbCircle
 10
-1851.0
 20
1899.300048828125
 30
0.0
 40
0.3
  0
CIRCLE
  5
161
330
153
100
AcDbEntity
  8
SIZE
  6
Continuous
100
AcDbCircle
 10
-1851.0
 20
1899.300048828125
 30
0.0
 40
0.2
  0
CIRCLE
  5
162
330
153
100
AcDbEntity
  8
SIZE
  6
Continuous
100
AcDbCircle
 10
-1851.0
 20
1899.300048828125
 30
0.0
 40
0.1
  0
POINT
  5
163
330
153
100
AcDbEntity
  8
DEFPOINTS
  6
ByBlock
100
AcDbPoint
 10
-1701.0
 20
1899.300048828125
 30
0.0
  0
POINT
  5
164
330
153
100
AcDbEntity
  8
DEFPOINTS
  6
ByBlock
100
AcDbPoint
 10
-1701.0
 20
-0.000000000000057
 30
0.0
  0
POINT
  5
165
330
153
100
AcDbEntity
  8
DEFPOINTS
  6
ByBlock
100
AcDbPoint
 10
-1851.0
 20
-0.000000000000039
 30
0.0
  0
ENDBLK
  5
166
330
153
100
AcDbEntity
  8
SIZE
100
AcDbBlockEnd
  0
BLOCK
  5
168
330
167
100
AcDbEntity
  8
SIZE
100
AcDbBlockBegin
  2
*D12
 70
     1
 10
0.0
 20
0.0
 30
0.0
  3
*D12
  1

  0
TEXT
  5
169
330
167
100
AcDbEntity
  8
SIZE
  6
Continuous
100
AcDbText
 10
173.0599976197897
 20
-149.0000060796736
 30
0.0
 40
2.799999952316284
  1
352
 50
0.000002504478167
 41
0.6999999829701011
  7
STANDARD1
100
AcDbText
  0
LINE
  5
16A
330
167
100
AcDbEntity
  8
SIZE
  6
Continuous
100
AcDbLine
 10
352.0
 20
-21.0
 30
0.0
 11
352.0
 21
-152.0
 31
0.0
  0
LINE
  5
16B
330
167
100
AcDbEntity
  8
SIZE
  6
Continuous
100
AcDbLine
 10
0.0
 20
-43.21389389038085
 30
0.0
 11
-0.00000000000002
 21
-152.0
 31
0.0
  0
LINE
  5
16C
330
167
100
AcDbEntity
  8
SIZE
  6
Continuous
100
AcDbLine
 10
352.0
 20
-150.0
 30
0.0
 11
-0.00000000000002
 21
-150.0
 31
0.0
  0
CIRCLE
  5
16D
330
167
100
AcDbEntity
  8
SIZE
  6
Continuous
100
AcDbCircle
 10
352.0
 20
-150.0
 30
0.0
 40
0.5
  0
CIRCLE
  5
16E
330
167
100
AcDbEntity
  8
SIZE
  6
Continuous
100
AcDbCircle
 10
352.0
 20
-150.0
 30
0.0
 40
0.4
  0
CIRCLE
  5
16F
330
167
100
AcDbEntity
  8
SIZE
  6
Continuous
100
AcDbCircle
 10
352.0
 20
-150.0
 30
0.0
 40
0.3
  0
CIRCLE
  5
170
330
167
100
AcDbEntity
  8
SIZE
  6
Continuous
100
AcDbCircle
 10
352.0
 20
-150.0
 30
0.0
 40
0.2
  0
CIRCLE
  5
171
330
167
100
AcDbEntity
  8
SIZE
  6
Continuous
100
AcDbCircle
 10
352.0
 20
-150.0
 30
0.0
 40
0.1
  0
CIRCLE
  5
172
330
167
100
AcDbEntity
  8
SIZE
  6
Continuous
100
AcDbCircle
 10
-0.00000000000002
 20
-150.0
 30
0.0
 40
0.5
  0
CIRCLE
  5
173
330
167
100
AcDbEntity
  8
SIZE
  6
Continuous
100
AcDbCircle
 10
-0.00000000000002
 20
-150.0
 30
0.0
 40
0.4
  0
CIRCLE
  5
174
330
167
100
AcDbEntity
  8
SIZE
  6
Continuous
100
AcDbCircle
 10
-0.00000000000002
 20
-150.0
 30
0.0
 40
0.3
  0
CIRCLE
  5
175
330
167
100
AcDbEntity
  8
SIZE
  6
Continuous
100
AcDbCircle
 10
-0.00000000000002
 20
-150.0
 30
0.0
 40
0.2
  0
CIRCLE
  5
176
330
167
100
AcDbEntity
  8
SIZE
  6
Continuous
100
AcDbCircle
 10
-0.00000000000002
 20
-150.0
 30
0.0
 40
0.1
  0
POINT
  5
177
330
167
100
AcDbEntity
  8
DEFPOINTS
  6
ByBlock
100
AcDbPoint
 10
0.0
 20
-42.21389389038085
 30
0.0
  0
POINT
  5
178
330
167
100
AcDbEntity
  8
DEFPOINTS
  6
ByBlock
100
AcDbPoint
 10
352.0
 20
-20.0
 30
0.0
  0
POINT
  5
179
330
167
100
AcDbEntity
  8
DEFPOINTS
  6
ByBlock
100
AcDbPoint
 10
352.0
 20
-150.0
 30
0.0
  0
ENDBLK
  5
17A
330
167
100
AcDbEntity
  8
SIZE
100
AcDbBlockEnd
  0
BLOCK
  5
17C
330
17B
100
AcDbEntity
  8
SIZE
100
AcDbBlockBegin
  2
*D13
 70
     1
 10
0.0
 20
0.0
 30
0.0
  3
*D13
  1

  0
TEXT
  5
17D
330
17B
100
AcDbEntity
  8
SIZE
  6
Continuous
100
AcDbText
 10
-90.94000238021029
 20
-149.0000060796736
 30
0.0
 40
2.799999952316284
  1
176
 50
0.000002504478167
 41
0.6999999829701011
  7
STANDARD1
100
AcDbText
  0
LINE
  5
17E
330
17B
100
AcDbEntity
  8
SIZE
  6
Continuous
100
AcDbLine
 10
0.0
 20
-43.21389389038085
 30
0.0
 11
-0.00000000000002
 21
-152.0
 31
0.0
  0
LINE
  5
17F
330
17B
100
AcDbEntity
  8
SIZE
  6
Continuous
100
AcDbLine
 10
-176.0
 20
-21.0
 30
0.0
 11
-176.0
 21
-152.0
 31
0.0
  0
LINE
  5
180
330
17B
100
AcDbEntity
  8
SIZE
  6
Continuous
100
AcDbLine
 10
-0.00000000000002
 20
-150.0
 30
0.0
 11
-176.0
 21
-150.0
 31
0.0
  0
CIRCLE
  5
181
330
17B
100
AcDbEntity
  8
SIZE
  6
Continuous
100
AcDbCircle
 10
-0.00000000000002
 20
-150.0
 30
0.0
 40
0.5
  0
CIRCLE
  5
182
330
17B
100
AcDbEntity
  8
SIZE
  6
Continuous
100
AcDbCircle
 10
-0.00000000000002
 20
-150.0
 30
0.0
 40
0.4
  0
CIRCLE
  5
183
330
17B
100
AcDbEntity
  8
SIZE
  6
Continuous
100
AcDbCircle
 10
-0.00000000000002
 20
-150.0
 30
0.0
 40
0.3
  0
CIRCLE
  5
184
330
17B
100
AcDbEntity
  8
SIZE
  6
Continuous
100
AcDbCircle
 10
-0.00000000000002
 20
-150.0
 30
0.0
 40
0.2
  0
CIRCLE
  5
185
330
17B
100
AcDbEntity
  8
SIZE
  6
Continuous
100
AcDbCircle
 10
-0.00000000000002
 20
-150.0
 30
0.0
 40
0.1
  0
CIRCLE
  5
186
330
17B
100
AcDbEntity
  8
SIZE
  6
Continuous
100
AcDbCircle
 10
-176.0
 20
-150.0
 30
0.0
 40
0.5
  0
CIRCLE
  5
187
330
17B
100
AcDbEntity
  8
SIZE
  6
Continuous
100
AcDbCircle
 10
-176.0
 20
-150.0
 30
0.0
 40
0.4
  0
CIRCLE
  5
188
330
17B
100
AcDbEntity
  8
SIZE
  6
Continuous
100
AcDbCircle
 10
-176.0
 20
-150.0
 30
0.0
 40
0.3
  0
CIRCLE
  5
189
330
17B
100
AcDbEntity
  8
SIZE
  6
Continuous
100
AcDbCircle
 10
-176.0
 20
-150.0
 30
0.0
 40
0.2
  0
CIRCLE
  5
18A
330
17B
100
AcDbEntity
  8
SIZE
  6
Continuous
100
AcDbCircle
 10
-176.0
 20
-150.0
 30
0.0
 40
0.1
  0
POINT
  5
18B
330
17B
100
AcDbEntity
  8
DEFPOINTS
  6
ByBlock
100
AcDbPoint
 10
-176.0
 20
-20.0
 30
0.0
  0
POINT
  5
18C
330
17B
100
AcDbEntity
  8
DEFPOINTS
  6
ByBlock
100
AcDbPoint
 10
0.0
 20
-42.21389389038085
 30
0.0
  0
POINT
  5
18D
330
17B
100
AcDbEntity
  8
DEFPOINTS
  6
ByBlock
100
AcDbPoint
 10
-0.00000000000002
 20
-150.0
 30
0.0
  0
ENDBLK
  5
18E
330
17B
100
AcDbEntity
  8
SIZE
100
AcDbBlockEnd
  0
BLOCK
  5
190
330
18F
100
AcDbEntity
  8
SIZE
100
AcDbBlockBegin
  2
*D14
 70
     1
 10
0.0
 20
0.0
 30
0.0
  3
*D14
  1

  0
TEXT
  5
191
330
18F
100
AcDbEntity
  8
SIZE
  6
Continuous
100
AcDbText
 10
-121.8589171751321
 20
-249.0000060796738
 30
0.0
 40
2.799999952316284
  1
260
 50
0.000002504478167
 41
0.6999999829701011
  7
STANDARD1
100
AcDbText
  0
LINE
  5
192
330
18F
100
AcDbEntity
  8
SIZE
  6
Continuous
100
AcDbLine
 10
0.0
 20
-43.21389389038085
 30
0.0
 11
-0.000000000000038
 21
-252.0
 31
0.0
  0
LINE
  5
193
330
18F
100
AcDbEntity
  8
SIZE
  6
Continuous
100
AcDbLine
 10
-260.0
 20
2.0
 30
0.0
 11
-260.0
 21
-252.0
 31
0.0
  0
LINE
  5
194
330
18F
100
AcDbEntity
  8
SIZE
  6
Continuous
100
AcDbLine
 10
-0.000000000000038
 20
-250.0
 30
0.0
 11
-260.0
 21
-250.0
 31
0.0
  0
CIRCLE
  5
195
330
18F
100
AcDbEntity
  8
SIZE
  6
Continuous
100
AcDbCircle
 10
-0.000000000000038
 20
-250.0
 30
0.0
 40
0.5
  0
CIRCLE
  5
196
330
18F
100
AcDbEntity
  8
SIZE
  6
Continuous
100
AcDbCircle
 10
-0.000000000000038
 20
-250.0
 30
0.0
 40
0.4
  0
CIRCLE
  5
197
330
18F
100
AcDbEntity
  8
SIZE
  6
Continuous
100
AcDbCircle
 10
-0.000000000000038
 20
-250.0
 30
0.0
 40
0.3
  0
CIRCLE
  5
198
330
18F
100
AcDbEntity
  8
SIZE
  6
Continuous
100
AcDbCircle
 10
-0.000000000000038
 20
-250.0
 30
0.0
 40
0.2
  0
CIRCLE
  5
199
330
18F
100
AcDbEntity
  8
SIZE
  6
Continuous
100
AcDbCircle
 10
-0.000000000000038
 20
-250.0
 30
0.0
 40
0.1
  0
CIRCLE
  5
19A
330
18F
100
AcDbEntity
  8
SIZE
  6
Continuous
100
AcDbCircle
 10
-260.0
 20
-250.0
 30
0.0
 40
0.5
  0
CIRCLE
  5
19B
330
18F
100
AcDbEntity
  8
SIZE
  6
Continuous
100
AcDbCircle
 10
-260.0
 20
-250.0
 30
0.0
 40
0.4
  0
CIRCLE
  5
19C
330
18F
100
AcDbEntity
  8
SIZE
  6
Continuous
100
AcDbCircle
 10
-260.0
 20
-250.0
 30
0.0
 40
0.3
  0
CIRCLE
  5
19D
330
18F
100
AcDbEntity
  8
SIZE
  6
Continuous
100
AcDbCircle
 10
-260.0
 20
-250.0
 30
0.0
 40
0.2
  0
CIRCLE
  5
19E
330
18F
100
AcDbEntity
  8
SIZE
  6
Continuous
100
AcDbCircle
 10
-260.0
 20
-250.0
 30
0.0
 40
0.1
  0
POINT
  5
19F
330
18F
100
AcDbEntity
  8
DEFPOINTS
  6
ByBlock
100
AcDbPoint
 10
-260.0
 20
3.0
 30
0.0
  0
POINT
  5
1A0
330
18F
100
AcDbEntity
  8
DEFPOINTS
  6
ByBlock
100
AcDbPoint
 10
0.0
 20
-42.21389389038085
 30
0.0
  0
POINT
  5
1A1
330
18F
100
AcDbEntity
  8
DEFPOINTS
  6
ByBlock
100
AcDbPoint
 10
-0.000000000000038
 20
-250.0
 30
0.0
  0
ENDBLK
  5
1A2
330
18F
100
AcDbEntity
  8
SIZE
100
AcDbBlockEnd
  0
BLOCK
  5
1A4
330
1A3
100
AcDbEntity
  8
SIZE
100
AcDbBlockBegin
  2
*D15
 70
     1
 10
0.0
 20
0.0
 30
0.0
  3
*D15
  1

  0
TEXT
  5
1A5
330
1A3
100
AcDbEntity
  8
SIZE
  6
Continuous
100
AcDbText
 10
-38.43999856551304
 20
2050.299951195717
 30
0.0
 40
2.799999952316284
  1
731
 50
0.000002504478167
 41
0.6999999829701011
  7
STANDARD1
100
AcDbText
  0
LINE
  5
1A6
330
1A3
100
AcDbEntity
  8
SIZE
  6
Continuous
100
AcDbLine
 10
330.0
 20
1900.300048828125
 30
0.0
 11
330.0
 21
2051.300048828125
 31
0.0
  0
LINE
  5
1A7
330
1A3
100
AcDbEntity
  8
SIZE
  6
Continuous
100
AcDbLine
 10
-401.0
 20
1900.300048828125
 30
0.0
 11
-401.0
 21
2051.300048828125
 31
0.0
  0
LINE
  5
1A8
330
1A3
100
AcDbEntity
  8
SIZE
  6
Continuous
100
AcDbLine
 10
330.0
 20
2049.300048828125
 30
0.0
 11
-401.0
 21
2049.300048828125
 31
0.0
  0
CIRCLE
  5
1A9
330
1A3
100
AcDbEntity
  8
SIZE
  6
Continuous
100
AcDbCircle
 10
330.0
 20
2049.300048828125
 30
0.0
 40
0.5
  0
CIRCLE
  5
1AA
330
1A3
100
AcDbEntity
  8
SIZE
  6
Continuous
100
AcDbCircle
 10
330.0
 20
2049.300048828125
 30
0.0
 40
0.4
  0
CIRCLE
  5
1AB
330
1A3
100
AcDbEntity
  8
SIZE
  6
Continuous
100
AcDbCircle
 10
330.0
 20
2049.300048828125
 30
0.0
 40
0.3
  0
CIRCLE
  5
1AC
330
1A3
100
AcDbEntity
  8
SIZE
  6
Continuous
100
AcDbCircle
 10
330.0
 20
2049.300048828125
 30
0.0
 40
0.2
  0
CIRCLE
  5
1AD
330
1A3
100
AcDbEntity
  8
SIZE
  6
Continuous
100
AcDbCircle
 10
330.0
 20
2049.300048828125
 30
0.0
 40
0.1
  0
CIRCLE
  5
1AE
330
1A3
100
AcDbEntity
  8
SIZE
  6
Continuous
100
AcDbCircle
 10
-401.0
 20
2049.300048828125
 30
0.0
 40
0.5
  0
CIRCLE
  5
1AF
330
1A3
100
AcDbEntity
  8
SIZE
  6
Continuous
100
AcDbCircle
 10
-401.0
 20
2049.300048828125
 30
0.0
 40
0.4
  0
CIRCLE
  5
1B0
330
1A3
100
AcDbEntity
  8
SIZE
  6
Continuous
100
AcDbCircle
 10
-401.0
 20
2049.300048828125
 30
0.0
 40
0.3
  0
CIRCLE
  5
1B1
330
1A3
100
AcDbEntity
  8
SIZE
  6
Continuous
100
AcDbCircle
 10
-401.0
 20
2049.300048828125
 30
0.0
 40
0.2
  0
CIRCLE
  5
1B2
330
1A3
100
AcDbEntity
  8
SIZE
  6
Continuous
100
AcDbCircle
 10
-401.0
 20
2049.300048828125
 30
0.0
 40
0.1
  0
POINT
  5
1B3
330
1A3
100
AcDbEntity
  8
DEFPOINTS
  6
ByBlock
100
AcDbPoint
 10
-401.0
 20
1899.300048828125
 30
0.0
  0
POINT
  5
1B4
330
1A3
100
AcDbEntity
  8
DEFPOINTS
  6
ByBlock
100
AcDbPoint
 10
330.0
 20
1899.300048828125
 30
0.0
  0
POINT
  5
1B5
330
1A3
100
AcDbEntity
  8
DEFPOINTS
  6
ByBlock
100
AcDbPoint
 10
330.0
 20
2049.300048828125
 30
0.0
  0
ENDBLK
  5
1B6
330
1A3
100
AcDbEntity
  8
SIZE
100
AcDbBlockEnd
  0
BLOCK
  5
1B8
330
1B7
100
AcDbEntity
  8
SIZE
100
AcDbBlockBegin
  2
*D16
 70
     1
 10
0.0
 20
0.0
 30
0.0
  3
*D16
  1

  0
TEXT
  5
1B9
330
1B7
100
AcDbEntity
  8
SIZE
  6
Continuous
100
AcDbText
 10
-1054.920043884116
 20
2050.299951195717
 30
0.0
 40
2.799999952316284
  1
1300
 50
0.000002504478167
 41
0.6999999829701011
  7
STANDARD1
100
AcDbText
  0
LINE
  5
1BA
330
1B7
100
AcDbEntity
  8
SIZE
  6
Continuous
100
AcDbLine
 10
-401.0
 20
1900.300048828125
 30
0.0
 11
-401.0
 21
2051.300048828125
 31
0.0
  0
LINE
  5
1BB
330
1B7
100
AcDbEntity
  8
SIZE
  6
Continuous
100
AcDbLine
 10
-1701.0
 20
1900.300048828125
 30
0.0
 11
-1701.0
 21
2051.300048828125
 31
0.0
  0
LINE
  5
1BC
330
1B7
100
AcDbEntity
  8
SIZE
  6
Continuous
100
AcDbLine
 10
-401.0
 20
2049.300048828125
 30
0.0
 11
-1701.0
 21
2049.300048828125
 31
0.0
  0
CIRCLE
  5
1BD
330
1B7
100
AcDbEntity
  8
SIZE
  6
Continuous
100
AcDbCircle
 10
-401.0
 20
2049.300048828125
 30
0.0
 40
0.5
  0
CIRCLE
  5
1BE
330
1B7
100
AcDbEntity
  8
SIZE
  6
Continuous
100
AcDbCircle
 10
-401.0
 20
2049.300048828125
 30
0.0
 40
0.4
  0
CIRCLE
  5
1BF
330
1B7
100
AcDbEntity
  8
SIZE
  6
Continuous
100
AcDbCircle
 10
-401.0
 20
2049.300048828125
 30
0.0
 40
0.3
  0
CIRCLE
  5
1C0
330
1B7
100
AcDbEntity
  8
SIZE
  6
Continuous
100
AcDbCircle
 10
-401.0
 20
2049.300048828125
 30
0.0
 40
0.2
  0
CIRCLE
  5
1C1
330
1B7
100
AcDbEntity
  8
SIZE
  6
Continuous
100
AcDbCircle
 10
-401.0
 20
2049.300048828125
 30
0.0
 40
0.1
  0
CIRCLE
  5
1C2
330
1B7
100
AcDbEntity
  8
SIZE
  6
Continuous
100
AcDbCircle
 10
-1701.0
 20
2049.300048828125
 30
0.0
 40
0.5
  0
CIRCLE
  5
1C3
330
1B7
100
AcDbEntity
  8
SIZE
  6
Continuous
100
AcDbCircle
 10
-1701.0
 20
2049.300048828125
 30
0.0
 40
0.4
  0
CIRCLE
  5
1C4
330
1B7
100
AcDbEntity
  8
SIZE
  6
Continuous
100
AcDbCircle
 10
-1701.0
 20
2049.300048828125
 30
0.0
 40
0.3
  0
CIRCLE
  5
1C5
330
1B7
100
AcDbEntity
  8
SIZE
  6
Continuous
100
AcDbCircle
 10
-1701.0
 20
2049.300048828125
 30
0.0
 40
0.2
  0
CIRCLE
  5
1C6
330
1B7
100
AcDbEntity
  8
SIZE
  6
Continuous
100
AcDbCircle
 10
-1701.0
 20
2049.300048828125
 30
0.0
 40
0.1
  0
POINT
  5
1C7
330
1B7
100
AcDbEntity
  8
DEFPOINTS
  6
ByBlock
100
AcDbPoint
 10
-1701.0
 20
1899.300048828125
 30
0.0
  0
POINT
  5
1C8
330
1B7
100
AcDbEntity
  8
DEFPOINTS
  6
ByBlock
100
AcDbPoint
 10
-401.0
 20
1899.300048828125
 30
0.0
  0
POINT
  5
1C9
330
1B7
100
AcDbEntity
  8
DEFPOINTS
  6
ByBlock
100
AcDbPoint
 10
-401.0
 20
2049.300048828125
 30
0.0
  0
ENDBLK
  5
1CA
330
1B7
100
AcDbEntity
  8
SIZE
100
AcDbBlockEnd
  0
BLOCK
  5
1CC
330
1CB
100
AcDbEntity
  8
SIZE
100
AcDbBlockBegin
  2
*D17
 70
     1
 10
0.0
 20
0.0
 30
0.0
  3
*D17
  1

  0
TEXT
  5
1CD
330
1CB
100
AcDbEntity
  8
SIZE
  6
Continuous
100
AcDbText
 10
412.9077149049459
 20
-249.0000060796738
 30
0.0
 40
2.799999952316284
  1
39
 50
0.000002504478167
 41
0.6999999829701011
  7
STANDARD1
100
AcDbText
  0
LINE
  5
1CE
330
1CB
100
AcDbEntity
  8
SIZE
  6
Continuous
100
AcDbLine
 10
330.0
 20
39.0
 30
0.0
 11
330.0
 21
-252.0
 31
0.0
  0
LINE
  5
1CF
330
1CB
100
AcDbEntity
  8
SIZE
  6
Continuous
100
AcDbLine
 10
369.0
 20
2.200000047683712
 30
0.0
 11
369.0
 21
-252.0
 31
0.0
  0
LINE
  5
1D0
330
1CB
100
AcDbEntity
  8
SIZE
  6
Continuous
100
AcDbLine
 10
325.0
 20
-250.0
 30
0.0
 11
418.2277221679687
 21
-250.0
 31
0.0
  0
CIRCLE
  5
1D1
330
1CB
100
AcDbEntity
  8
SIZE
  6
Continuous
100
AcDbCircle
 10
330.0
 20
-250.0
 30
0.0
 40
0.5
  0
CIRCLE
  5
1D2
330
1CB
100
AcDbEntity
  8
SIZE
  6
Continuous
100
AcDbCircle
 10
330.0
 20
-250.0
 30
0.0
 40
0.4
  0
CIRCLE
  5
1D3
330
1CB
100
AcDbEntity
  8
SIZE
  6
Continuous
100
AcDbCircle
 10
330.0
 20
-250.0
 30
0.0
 40
0.3
  0
CIRCLE
  5
1D4
330
1CB
100
AcDbEntity
  8
SIZE
  6
Continuous
100
AcDbCircle
 10
330.0
 20
-250.0
 30
0.0
 40
0.2
  0
CIRCLE
  5
1D5
330
1CB
100
AcDbEntity
  8
SIZE
  6
Continuous
100
AcDbCircle
 10
330.0
 20
-250.0
 30
0.0
 40
0.1
  0
CIRCLE
  5
1D6
330
1CB
100
AcDbEntity
  8
SIZE
  6
Continuous
100
AcDbCircle
 10
369.0
 20
-250.0
 30
0.0
 40
0.5
  0
CIRCLE
  5
1D7
330
1CB
100
AcDbEntity
  8
SIZE
  6
Continuous
100
AcDbCircle
 10
369.0
 20
-250.0
 30
0.0
 40
0.4
  0
CIRCLE
  5
1D8
330
1CB
100
AcDbEntity
  8
SIZE
  6
Continuous
100
AcDbCircle
 10
369.0
 20
-250.0
 30
0.0
 40
0.3
  0
CIRCLE
  5
1D9
330
1CB
100
AcDbEntity
  8
SIZE
  6
Continuous
100
AcDbCircle
 10
369.0
 20
-250.0
 30
0.0
 40
0.2
  0
CIRCLE
  5
1DA
330
1CB
100
AcDbEntity
  8
SIZE
  6
Continuous
100
AcDbCircle
 10
369.0
 20
-250.0
 30
0.0
 40
0.1
  0
POINT
  5
1DB
330
1CB
100
AcDbEntity
  8
DEFPOINTS
  6
ByBlock
100
AcDbPoint
 10
369.0
 20
3.200000047683714
 30
0.0
  0
POINT
  5
1DC
330
1CB
100
AcDbEntity
  8
DEFPOINTS
  6
ByBlock
100
AcDbPoint
 10
330.0
 20
40.0
 30
0.0
  0
POINT
  5
1DD
330
1CB
100
AcDbEntity
  8
DEFPOINTS
  6
ByBlock
100
AcDbPoint
 10
330.0
 20
-250.0
 30
0.0
  0
ENDBLK
  5
1DE
330
1CB
100
AcDbEntity
  8
SIZE
100
AcDbBlockEnd
  0
BLOCK
  5
1E0
330
1DF
100
AcDbEntity
  8
SIZE
100
AcDbBlockBegin
  2
*D18
 70
     1
 10
0.0
 20
0.0
 30
0.0
  3
*D18
  1

  0
TEXT
  5
1E1
330
1DF
100
AcDbEntity
  8
SIZE
  6
Continuous
100
AcDbText
 10
-286.2771240472794
 20
-114.8367460934284
 30
0.0
 40
2.799999952316284
  1
23
 50
90.00000500895634
 41
0.6999999829701011
  7
STANDARD1
100
AcDbText
  0
LINE
  5
1E2
330
1DF
100
AcDbEntity
  8
SIZE
  6
Continuous
100
AcDbLine
 10
-281.0
 20
23.0
 30
0.0
 11
-287.2771301269531
 21
23.0
 31
0.0
  0
LINE
  5
1E3
330
1DF
100
AcDbEntity
  8
SIZE
  6
Continuous
100
AcDbLine
 10
-213.3003692626953
 20
-0.000000000000059
 30
0.0
 11
-287.2771301269531
 21
-0.00000000000005
 31
0.0
  0
LINE
  5
1E4
330
1DF
100
AcDbEntity
  8
SIZE
  6
Continuous
100
AcDbLine
 10
-285.2771301269531
 20
28.0
 30
0.0
 11
-285.2771301269531
 21
-116.2367477416992
 31
0.0
  0
CIRCLE
  5
1E5
330
1DF
100
AcDbEntity
  8
SIZE
  6
Continuous
100
AcDbCircle
 10
-285.2771301269531
 20
23.0
 30
0.0
 40
0.5
  0
CIRCLE
  5
1E6
330
1DF
100
AcDbEntity
  8
SIZE
  6
Continuous
100
AcDbCircle
 10
-285.2771301269531
 20
23.0
 30
0.0
 40
0.4
  0
CIRCLE
  5
1E7
330
1DF
100
AcDbEntity
  8
SIZE
  6
Continuous
100
AcDbCircle
 10
-285.2771301269531
 20
23.0
 30
0.0
 40
0.3
  0
CIRCLE
  5
1E8
330
1DF
100
AcDbEntity
  8
SIZE
  6
Continuous
100
AcDbCircle
 10
-285.2771301269531
 20
23.0
 30
0.0
 40
0.2
  0
CIRCLE
  5
1E9
330
1DF
100
AcDbEntity
  8
SIZE
  6
Continuous
100
AcDbCircle
 10
-285.2771301269531
 20
23.0
 30
0.0
 40
0.1
  0
CIRCLE
  5
1EA
330
1DF
100
AcDbEntity
  8
SIZE
  6
Continuous
100
AcDbCircle
 10
-285.2771301269531
 20
-0.00000000000005
 30
0.0
 40
0.5
  0
CIRCLE
  5
1EB
330
1DF
100
AcDbEntity
  8
SIZE
  6
Continuous
100
AcDbCircle
 10
-285.2771301269531
 20
-0.00000000000005
 30
0.0
 40
0.4
  0
CIRCLE
  5
1EC
330
1DF
100
AcDbEntity
  8
SIZE
  6
Continuous
100
AcDbCircle
 10
-285.2771301269531
 20
-0.00000000000005
 30
0.0
 40
0.3
  0
CIRCLE
  5
1ED
330
1DF
100
AcDbEntity
  8
SIZE
  6
Continuous
100
AcDbCircle
 10
-285.2771301269531
 20
-0.00000000000005
 30
0.0
 40
0.2
  0
CIRCLE
  5
1EE
330
1DF
100
AcDbEntity
  8
SIZE
  6
Continuous
100
AcDbCircle
 10
-285.2771301269531
 20
-0.00000000000005
 30
0.0
 40
0.1
  0
POINT
  5
1EF
330
1DF
100
AcDbEntity
  8
DEFPOINTS
  6
ByBlock
100
AcDbPoint
 10
-212.3003692626953
 20
-0.000000000000059
 30
0.0
  0
POINT
  5
1F0
330
1DF
100
AcDbEntity
  8
DEFPOINTS
  6
ByBlock
100
AcDbPoint
 10
-280.0
 20
23.0
 30
0.0
  0
POINT
  5
1F1
330
1DF
100
AcDbEntity
  8
DEFPOINTS
  6
ByBlock
100
AcDbPoint
 10
-285.2771301269531
 20
23.0
 30
0.0
  0
ENDBLK
  5
1F2
330
1DF
100
AcDbEntity
  8
SIZE
100
AcDbBlockEnd
  0
BLOCK
  5
1F4
330
1F3
100
AcDbEntity
  8
0
100
AcDbBlockBegin
  2
_ORIGIN
 70
     0
 10
0.0
 20
0.0
 30
0.0
  3
_ORIGIN
  1

  0
CIRCLE
  5
1F5
330
1F3
100
AcDbEntity
  8
0
  6
ByBlock
 62
     0
100
AcDbCircle
 10
0.0
 20
0.0
 30
0.0
 40
0.5
  0
LINE
  5
1F6
330
1F3
100
AcDbEntity
  8
0
  6
ByBlock
 62
     0
100
AcDbLine
 10
0.0
 20
0.0
 30
0.0
 11
-1.0
 21
0.0
 31
0.0
  0
ENDBLK
  5
1F7
330
1F3
100
AcDbEntity
  8
0
100
AcDbBlockEnd
  0
BLOCK
  5
1F9
330
1F8
100
AcDbEntity
  8
0
100
AcDbBlockBegin
  2
*D20
 70
     1
 10
0.0
 20
0.0
 30
0.0
  3
*D20
  1

  0
LINE
  5
1FA
330
1F8
100
AcDbEntity
  8
SIZE
 62
     0
100
AcDbLine
 10
-222.3003692626953
 20
-0.0000000000000562
 30
0.0
 11
-300.17713027446
 21
-0.0000000000000341
 31
0.0
  0
LINE
  5
1FB
330
1F8
100
AcDbEntity
  8
SIZE
 62
     0
100
AcDbLine
 10
-290.0
 20
23.0
 30
0.0
 11
-300.17713027446
 21
23.0
 31
0.0
  0
LINE
  5
1FC
330
1F8
100
AcDbEntity
  8
SIZE
 62
     0
100
AcDbLine
 10
-287.67713027446
 20
33.0
 30
0.0
 11
-287.67713027446
 21
43.0
 31
0.0
  0
LINE
  5
1FD
330
1F8
100
AcDbEntity
  8
SIZE
 62
     0
100
AcDbLine
 10
-287.67713027446
 20
-10.00000000000003
 30
0.0
 11
-287.6771302744601
 21
-147.8767464192744
 31
0.0
  0
LINE
  5
1FE
330
1F8
100
AcDbEntity
  8
SIZE
 62
     0
100
AcDbLine
 10
-287.67713027446
 20
23.0
 30
0.0
 11
-287.67713027446
 21
-0.0000000000000376
 31
0.0
  0
INSERT
  5
1FF
330
1F8
100
AcDbEntity
  8
SIZE
 62
     0
100
AcDbBlockReference
  2
_ORIGIN
 10
-287.67713027446
 20
23.0
 30
0.0
 41
10.0
 42
10.0
 43
10.0
 50
270.0
  0
INSERT
  5
200
330
1F8
100
AcDbEntity
  8
SIZE
 62
     0
100
AcDbBlockReference
  2
_ORIGIN
 10
-287.67713027446
 20
-0.0000000000000376
 30
0.0
 41
10.0
 42
10.0
 43
10.0
 50
90.0
  0
TEXT
  5
201
330
1F8
100
AcDbEntity
  8
SIZE
 62
     0
100
AcDbText
 10
-297.67713027446
 20
-137.8767464192745
 30
0.0
 40
30.0
  1
23
 50
90.0
 72
     1
 11
-297.67713027446
 21
-112.8767464192745
 31
0.0
100
AcDbText
  0
POINT
  5
202
330
1F8
100
AcDbEntity
  8
DEFPOINTS
 62
     0
100
AcDbPoint
 10
-212.3003692626953
 20
-0.000000000000059
 30
0.0
  0
POINT
  5
203
330
1F8
100
AcDbEntity
  8
DEFPOINTS
 62
     0
100
AcDbPoint
 10
-280.0
 20
23.0
 30
0.0
  0
POINT
  5
204
330
1F8
100
AcDbEntity
  8
DEFPOINTS
 62
     0
100
AcDbPoint
 10
-287.67713027446
 20
23.0
 30
0.0
  0
ENDBLK
  5
205
330
1F8
100
AcDbEntity
  8
0
100
AcDbBlockEnd
  0
BLOCK
  5
207
330
206
100
AcDbEntity
  8
0
100
AcDbBlockBegin
  2
*D21
 70
     1
 10
0.0
 20
0.0
 30
0.0
  3
*D21
  1

  0
LINE
  5
208
330
206
100
AcDbEntity
  8
SIZE
 62
     0
100
AcDbLine
 10
369.0
 20
-6.799999952316284
 30
0.0
 11
369.0
 21
-260.0999999381676
 31
0.0
  0
LINE
  5
209
330
206
100
AcDbEntity
  8
SIZE
 62
     0
100
AcDbLine
 10
330.0
 20
30.0
 30
0.0
 11
330.0
 21
-260.0999999381676
 31
0.0
  0
LINE
  5
20A
330
206
100
AcDbEntity
  8
SIZE
 62
     0
100
AcDbLine
 10
320.0
 20
-247.5999999381676
 30
0.0
 11
310.0
 21
-247.5999999381676
 31
0.0
  0
LINE
  5
20B
330
206
100
AcDbEntity
  8
SIZE
 62
     0
100
AcDbLine
 10
379.0
 20
-247.5999999381676
 30
0.0
 11
459.0
 21
-247.5999999381676
 31
0.0
  0
LINE
  5
20C
330
206
100
AcDbEntity
  8
SIZE
 62
     0
100
AcDbLine
 10
330.0
 20
-247.5999999381676
 30
0.0
 11
369.0
 21
-247.5999999381676
 31
0.0
  0
INSERT
  5
20D
330
206
100
AcDbEntity
  8
SIZE
 62
     0
100
AcDbBlockReference
  2
_ORIGIN
 10
330.0
 20
-247.5999999381676
 30
0.0
 41
10.0
 42
10.0
 43
10.0
  0
INSERT
  5
20E
330
206
100
AcDbEntity
  8
SIZE
 62
     0
100
AcDbBlockReference
  2
_ORIGIN
 10
369.0
 20
-247.5999999381676
 30
0.0
 41
10.0
 42
10.0
 43
10.0
 50
180.0
  0
TEXT
  5
20F
330
206
100
AcDbEntity
  8
SIZE
 62
     0
100
AcDbText
 10
399.0
 20
-237.5999999381676
 30
0.0
 40
30.0
  1
39
 72
     1
 11
424.0
 21
-237.5999999381676
 31
0.0
100
AcDbText
  0
POINT
  5
210
330
206
100
AcDbEntity
  8
DEFPOINTS
 62
     0
100
AcDbPoint
 10
369.0
 20
3.200000047683714
 30
0.0
  0
POINT
  5
211
330
206
100
AcDbEntity
  8
DEFPOINTS
 62
     0
100
AcDbPoint
 10
330.0
 20
40.0
 30
0.0
  0
POINT
  5
212
330
206
100
AcDbEntity
  8
DEFPOINTS
 62
     0
100
AcDbPoint
 10
330.0
 20
-247.5999999381676
 30
0.0
  0
ENDBLK
  5
213
330
206
100
AcDbEntity
  8
0
100
AcDbBlockEnd
  0
BLOCK
  5
215
330
214
100
AcDbEntity
  8
0
100
AcDbBlockBegin
  2
*D22
 70
     1
 10
0.0
 20
0.0
 30
0.0
  3
*D22
  1

  0
LINE
  5
216
330
214
100
AcDbEntity
  8
SIZE
 62
     0
100
AcDbLine
 10
-1701.0
 20
1909.300048828125
 30
0.0
 11
-1701.0
 21
2064.200048804283
 31
0.0
  0
LINE
  5
217
330
214
100
AcDbEntity
  8
SIZE
 62
     0
100
AcDbLine
 10
-401.0
 20
1909.300048828125
 30
0.0
 11
-401.0
 21
2064.200048804283
 31
0.0
  0
LINE
  5
218
330
214
100
AcDbEntity
  8
SIZE
 62
     0
100
AcDbLine
 10
-1691.0
 20
2051.700048804283
 30
0.0
 11
-411.0
 21
2051.700048804283
 31
0.0
  0
INSERT
  5
219
330
214
100
AcDbEntity
  8
SIZE
 62
     0
100
AcDbBlockReference
  2
_ORIGIN
 10
-1701.0
 20
2051.700048804283
 30
0.0
 41
10.0
 42
10.0
 43
10.0
 50
180.0
  0
INSERT
  5
21A
330
214
100
AcDbEntity
  8
SIZE
 62
     0
100
AcDbBlockReference
  2
_ORIGIN
 10
-401.0
 20
2051.700048804283
 30
0.0
 41
10.0
 42
10.0
 43
10.0
  0
TEXT
  5
21B
330
214
100
AcDbEntity
  8
SIZE
 62
     0
100
AcDbText
 10
-1096.000000061196
 20
2061.700048804283
 30
0.0
 40
30.0
  1
1300
 72
     1
 11
-1051.000000061196
 21
2061.700048804283
 31
0.0
100
AcDbText
  0
POINT
  5
21C
330
214
100
AcDbEntity
  8
DEFPOINTS
 62
     0
100
AcDbPoint
 10
-1701.0
 20
1899.300048828125
 30
0.0
  0
POINT
  5
21D
330
214
100
AcDbEntity
  8
DEFPOINTS
 62
     0
100
AcDbPoint
 10
-401.0
 20
1899.300048828125
 30
0.0
  0
POINT
  5
21E
330
214
100
AcDbEntity
  8
DEFPOINTS
 62
     0
100
AcDbPoint
 10
-401.0
 20
2051.700048804283
 30
0.0
  0
ENDBLK
  5
21F
330
214
100
AcDbEntity
  8
0
100
AcDbBlockEnd
  0
BLOCK
  5
221
330
220
100
AcDbEntity
  8
0
100
AcDbBlockBegin
  2
*D23
 70
     1
 10
0.0
 20
0.0
 30
0.0
  3
*D23
  1

  0
LINE
  5
222
330
220
100
AcDbEntity
  8
SIZE
 62
     0
100
AcDbLine
 10
-401.0
 20
1909.300048828125
 30
0.0
 11
-401.0
 21
2064.200048804283
 31
0.0
  0
LINE
  5
223
330
220
100
AcDbEntity
  8
SIZE
 62
     0
100
AcDbLine
 10
330.0
 20
1909.300048828125
 30
0.0
 11
330.0
 21
2064.200048804283
 31
0.0
  0
LINE
  5
224
330
220
100
AcDbEntity
  8
SIZE
 62
     0
100
AcDbLine
 10
-391.0
 20
2051.700048804283
 30
0.0
 11
320.0
 21
2051.700048804283
 31
0.0
  0
INSERT
  5
225
330
220
100
AcDbEntity
  8
SIZE
 62
     0
100
AcDbBlockReference
  2
_ORIGIN
 10
-401.0
 20
2051.700048804283
 30
0.0
 41
10.0
 42
10.0
 43
10.0
 50
180.0
  0
INSERT
  5
226
330
220
100
AcDbEntity
  8
SIZE
 62
     0
100
AcDbBlockReference
  2
_ORIGIN
 10
330.0
 20
2051.700048804283
 30
0.0
 41
10.0
 42
10.0
 43
10.0
  0
TEXT
  5
227
330
220
100
AcDbEntity
  8
SIZE
 62
     0
100
AcDbText
 10
-70.50000006119596
 20
2061.700048804283
 30
0.0
 40
30.0
  1
731
 72
     1
 11
-35.50000006119596
 21
2061.700048804283
 31
0.0
100
AcDbText
  0
POINT
  5
228
330
220
100
AcDbEntity
  8
DEFPOINTS
 62
     0
100
AcDbPoint
 10
-401.0
 20
1899.300048828125
 30
0.0
  0
POINT
  5
229
330
220
100
AcDbEntity
  8
DEFPOINTS
 62
     0
100
AcDbPoint
 10
330.0
 20
1899.300048828125
 30
0.0
  0
POINT
  5
22A
330
220
100
AcDbEntity
  8
DEFPOINTS
 62
     0
100
AcDbPoint
 10
330.0
 20
2051.700048804283
 30
0.0
  0
ENDBLK
  5
22B
330
220
100
AcDbEntity
  8
0
100
AcDbBlockEnd
  0
BLOCK
  5
22D
330
22C
100
AcDbEntity
  8
0
100
AcDbBlockBegin
  2
*D24
 70
     1
 10
0.0
 20
0.0
 30
0.0
  3
*D24
  1

  0
LINE
  5
22E
330
22C
100
AcDbEntity
  8
SIZE
 62
     0
100
AcDbLine
 10
-260.0
 20
-7.0
 30
0.0
 11
-260.0
 21
-260.1000000238419
 31
0.0
  0
LINE
  5
22F
330
22C
100
AcDbEntity
  8
SIZE
 62
     0
100
AcDbLine
 10
-0.0000000000000006
 20
-52.21389389038085
 30
0.0
 11
-0.0000000000000133
 21
-260.1000000238419
 31
0.0
  0
LINE
  5
230
330
22C
100
AcDbEntity
  8
SIZE
 62
     0
100
AcDbLine
 10
-250.0
 20
-247.6000000238419
 30
0.0
 11
-10.00000000000001
 21
-247.6000000238419
 31
0.0
  0
INSERT
  5
231
330
22C
100
AcDbEntity
  8
SIZE
 62
     0
100
AcDbBlockReference
  2
_ORIGIN
 10
-260.0
 20
-247.6000000238419
 30
0.0
 41
10.0
 42
10.0
 43
10.0
 50
180.0
  0
INSERT
  5
232
330
22C
100
AcDbEntity
  8
SIZE
 62
     0
100
AcDbBlockReference
  2
_ORIGIN
 10
-0.0000000000000126
 20
-247.6000000238419
 30
0.0
 41
10.0
 42
10.0
 43
10.0
  0
TEXT
  5
233
330
22C
100
AcDbEntity
  8
SIZE
 62
     0
100
AcDbText
 10
-156.4189148561178
 20
-237.6000000238418
 30
0.0
 40
30.0
  1
260
 72
     1
 11
-118.9189148561178
 21
-237.6000000238418
 31
0.0
100
AcDbText
  0
POINT
  5
234
330
22C
100
AcDbEntity
  8
DEFPOINTS
 62
     0
100
AcDbPoint
 10
-260.0
 20
3.0
 30
0.0
  0
POINT
  5
235
330
22C
100
AcDbEntity
  8
DEFPOINTS
 62
     0
100
AcDbPoint
 10
0.0
 20
-42.21389389038085
 30
0.0
  0
POINT
  5
236
330
22C
100
AcDbEntity
  8
DEFPOINTS
 62
     0
100
AcDbPoint
 10
-0.0000000000000126
 20
-247.6000000238419
 30
0.0
  0
ENDBLK
  5
237
330
22C
100
AcDbEntity
  8
0
100
AcDbBlockEnd
  0
BLOCK
  5
239
330
238
100
AcDbEntity
  8
0
100
AcDbBlockBegin
  2
*D25
 70
     1
 10
0.0
 20
0.0
 30
0.0
  3
*D25
  1

  0
LINE
  5
23A
330
238
100
AcDbEntity
  8
SIZE
 62
     0
100
AcDbLine
 10
-176.0
 20
-30.0
 30
0.0
 11
-176.0
 21
-160.1000000238419
 31
0.0
  0
LINE
  5
23B
330
238
100
AcDbEntity
  8
SIZE
 62
     0
100
AcDbLine
 10
-0.0000000000000006
 20
-52.21389389038085
 30
0.0
 11
-0.0000000000000072
 21
-160.1000000238419
 31
0.0
  0
LINE
  5
23C
330
238
100
AcDbEntity
  8
SIZE
 62
     0
100
AcDbLine
 10
-166.0
 20
-147.6000000238419
 30
0.0
 11
-10.0
 21
-147.6000000238419
 31
0.0
  0
INSERT
  5
23D
330
238
100
AcDbEntity
  8
SIZE
 62
     0
100
AcDbBlockReference
  2
_ORIGIN
 10
-176.0
 20
-147.6000000238419
 30
0.0
 41
10.0
 42
10.0
 43
10.0
 50
180.0
  0
INSERT
  5
23E
330
238
100
AcDbEntity
  8
SIZE
 62
     0
100
AcDbBlockReference
  2
_ORIGIN
 10
-0.0000000000000065
 20
-147.6000000238419
 30
0.0
 41
10.0
 42
10.0
 43
10.0
  0
TEXT
  5
23F
330
238
100
AcDbEntity
  8
SIZE
 62
     0
100
AcDbText
 10
-123.0000000611959
 20
-137.6000000238419
 30
0.0
 40
30.0
  1
176
 72
     1
 11
-88.00000006119594
 21
-137.6000000238419
 31
0.0
100
AcDbText
  0
POINT
  5
240
330
238
100
AcDbEntity
  8
DEFPOINTS
 62
     0
100
AcDbPoint
 10
-176.0
 20
-20.0
 30
0.0
  0
POINT
  5
241
330
238
100
AcDbEntity
  8
DEFPOINTS
 62
     0
100
AcDbPoint
 10
0.0
 20
-42.21389389038085
 30
0.0
  0
POINT
  5
242
330
238
100
AcDbEntity
  8
DEFPOINTS
 62
     0
100
AcDbPoint
 10
-0.0000000000000065
 20
-147.6000000238419
 30
0.0
  0
ENDBLK
  5
243
330
238
100
AcDbEntity
  8
0
100
AcDbBlockEnd
  0
BLOCK
  5
245
330
244
100
AcDbEntity
  8
0
100
AcDbBlockBegin
  2
*D26
 70
     1
 10
0.0
 20
0.0
 30
0.0
  3
*D26
  1

  0
LINE
  5
246
330
244
100
AcDbEntity
  8
SIZE
 62
     0
100
AcDbLine
 10
-0.0000000000000006
 20
-52.21389389038085
 30
0.0
 11
-0.0000000000000072
 21
-160.1000000238419
 31
0.0
  0
LINE
  5
247
330
244
100
AcDbEntity
  8
SIZE
 62
     0
100
AcDbLine
 10
352.0
 20
-30.0
 30
0.0
 11
352.0
 21
-160.1000000238419
 31
0.0
  0
LINE
  5
248
330
244
100
AcDbEntity
  8
SIZE
 62
     0
100
AcDbLine
 10
9.999999999999991
 20
-147.6000000238419
 30
0.0
 11
342.0
 21
-147.6000000238419
 31
0.0
  0
INSERT
  5
249
330
244
100
AcDbEntity
  8
SIZE
 62
     0
100
AcDbBlockReference
  2
_ORIGIN
 10
-0.0000000000000065
 20
-147.6000000238419
 30
0.0
 41
10.0
 42
10.0
 43
10.0
 50
180.0
  0
INSERT
  5
24A
330
244
100
AcDbEntity
  8
SIZE
 62
     0
100
AcDbBlockReference
  2
_ORIGIN
 10
352.0
 20
-147.6000000238419
 30
0.0
 41
10.0
 42
10.0
 43
10.0
  0
TEXT
  5
24B
330
244
100
AcDbEntity
  8
SIZE
 62
     0
100
AcDbText
 10
135.999999938804
 20
-137.6000000238419
 30
0.0
 40
30.0
  1
352
 72
     1
 11
175.999999938804
 21
-137.6000000238419
 31
0.0
100
AcDbText
  0
POINT
  5
24C
330
244
100
AcDbEntity
  8
DEFPOINTS
 62
     0
100
AcDbPoint
 10
0.0
 20
-42.21389389038085
 30
0.0
  0
POINT
  5
24D
330
244
100
AcDbEntity
  8
DEFPOINTS
 62
     0
100
AcDbPoint
 10
352.0
 20
-20.0
 30
0.0
  0
POINT
  5
24E
330
244
100
AcDbEntity
  8
DEFPOINTS
 62
     0
100
AcDbPoint
 10
352.0
 20
-147.6000000238419
 30
0.0
  0
ENDBLK
  5
24F
330
244
100
AcDbEntity
  8
0
100
AcDbBlockEnd
  0
BLOCK
  5
251
330
250
100
AcDbEntity
  8
0
100
AcDbBlockBegin
  2
*D27
 70
     1
 10
0.0
 20
0.0
 30
0.0
  3
*D27
  1

  0
LINE
  5
252
330
250
100
AcDbEntity
  8
SIZE
 62
     0
100
AcDbLine
 10
-1711.0
 20
1899.300048828125
 30
0.0
 11
-1865.899999976157
 21
1899.300048828125
 31
0.0
  0
LINE
  5
253
330
250
100
AcDbEntity
  8
SIZE
 62
     0
100
AcDbLine
 10
-1711.0
 20
-0.0000000000000542
 30
0.0
 11
-1865.899999976157
 21
-0.0000000000000103
 31
0.0
  0
LINE
  5
254
330
250
100
AcDbEntity
  8
SIZE
 62
     0
100
AcDbLine
 10
-1853.399999976157
 20
1889.300048828125
 30
0.0
 11
-1853.399999976157
 21
9.999999999999987
 31
0.0
  0
INSERT
  5
255
330
250
100
AcDbEntity
  8
SIZE
 62
     0
100
AcDbBlockReference
  2
_ORIGIN
 10
-1853.399999976157
 20
1899.300048828125
 30
0.0
 41
10.0
 42
10.0
 43
10.0
 50
90.0
  0
INSERT
  5
256
330
250
100
AcDbEntity
  8
SIZE
 62
     0
100
AcDbBlockReference
  2
_ORIGIN
 10
-1853.399999976157
 20
-0.0000000000000138
 30
0.0
 41
10.0
 42
10.0
 43
10.0
 50
270.0
  0
TEXT
  5
257
330
250
100
AcDbEntity
  8
SIZE
 62
     0
100
AcDbText
 10
-1863.399999976157
 20
899.6500242916704
 30
0.0
 40
30.0
  1
1899
 50
90.0
 72
     1
 11
-1863.399999976157
 21
949.6500242916704
 31
0.0
100
AcDbText
  0
POINT
  5
258
330
250
100
AcDbEntity
  8
DEFPOINTS
 62
     0
100
AcDbPoint
 10
-1701.0
 20
1899.300048828125
 30
0.0
  0
POINT
  5
259
330
250
100
AcDbEntity
  8
DEFPOINTS
 62
     0
100
AcDbPoint
 10
-1701.0
 20
-0.000000000000057
 30
0.0
  0
POINT
  5
25A
330
250
100
AcDbEntity
  8
DEFPOINTS
 62
     0
100
AcDbPoint
 10
-1853.399999976157
 20
-0.0000000000000138
 30
0.0
  0
ENDBLK
  5
25B
330
250
100
AcDbEntity
  8
0
100
AcDbBlockEnd
  0
BLOCK
  5
25D
330
25C
100
AcDbEntity
  8
0
100
AcDbBlockBegin
  2
*D28
 70
     1
 10
0.0
 20
0.0
 30
0.0
  3
*D28
  1

  0
LINE
  5
25E
330
25C
100
AcDbEntity
  8
SIZE
 62
     0
100
AcDbLine
 10
-222.3003692626953
 20
-0.0000000000000562
 30
0.0
 11
-364.2991393804551
 21
-0.0000000000000159
 31
0.0
  0
LINE
  5
25F
330
25C
100
AcDbEntity
  8
SIZE
 62
     0
100
AcDbLine
 10
-310.7288818359375
 20
100.0
 30
0.0
 11
-364.2991393804551
 21
100.0
 31
0.0
  0
LINE
  5
260
330
25C
100
AcDbEntity
  8
SIZE
 62
     0
100
AcDbLine
 10
-351.7991393804551
 20
9.99999999999998
 30
0.0
 11
-351.7991393804551
 21
90.0
 31
0.0
  0
INSERT
  5
261
330
25C
100
AcDbEntity
  8
SIZE
 62
     0
100
AcDbBlockReference
  2
_ORIGIN
 10
-351.7991393804551
 20
-0.0000000000000195
 30
0.0
 41
10.0
 42
10.0
 43
10.0
 50
270.0
  0
INSERT
  5
262
330
25C
100
AcDbEntity
  8
SIZE
 62
     0
100
AcDbBlockReference
  2
_ORIGIN
 10
-351.7991393804551
 20
100.0
 30
0.0
 41
10.0
 42
10.0
 43
10.0
 50
90.0
  0
TEXT
  5
263
330
25C
100
AcDbEntity
  8
SIZE
 62
     0
100
AcDbText
 10
-361.7991393804551
 20
19.99999987760811
 30
0.0
 40
30.0
  1
100
 50
90.0
 72
     1
 11
-361.7991393804551
 21
49.99999987760811
 31
0.0
100
AcDbText
  0
POINT
  5
264
330
25C
100
AcDbEntity
  8
DEFPOINTS
 62
     0
100
AcDbPoint
 10
-212.3003692626953
 20
-0.000000000000059
 30
0.0
  0
POINT
  5
265
330
25C
100
AcDbEntity
  8
DEFPOINTS
 62
     0
100
AcDbPoint
 10
-300.7288818359375
 20
100.0
 30
0.0
  0
POINT
  5
266
330
25C
100
AcDbEntity
  8
DEFPOINTS
 62
     0
100
AcDbPoint
 10
-351.7991393804551
 20
100.0
 30
0.0
  0
ENDBLK
  5
267
330
25C
100
AcDbEntity
  8
0
100
AcDbBlockEnd
  0
BLOCK
  5
269
330
268
100
AcDbEntity
  8
0
100
AcDbBlockBegin
  2
*D29
 70
     1
 10
0.0
 20
0.0
 30
0.0
  3
*D29
  1

  0
LINE
  5
26A
330
268
100
AcDbEntity
  8
SIZE
 62
     0
100
AcDbLine
 10
22.11269283294678
 20
1449.199951171875
 30
0.0
 11
590.1000000238417
 21
1449.199951171874
 31
0.0
  0
LINE
  5
26B
330
268
100
AcDbEntity
  8
SIZE
 62
     0
100
AcDbLine
 10
54.55139541625977
 20
1399.300048828125
 30
0.0
 11
590.1000000238417
 21
1399.300048828125
 31
0.0
  0
LINE
  5
26C
330
268
100
AcDbEntity
  8
SIZE
 62
     0
100
AcDbLine
 10
577.6000000238417
 20
1439.199951171875
 30
0.0
 11
577.6000000238417
 21
1409.300048828125
 31
0.0
  0
INSERT
  5
26D
330
268
100
AcDbEntity
  8
SIZE
 62
     0
100
AcDbBlockReference
  2
_ORIGIN
 10
577.6000000238417
 20
1449.199951171874
 30
0.0
 41
10.0
 42
10.0
 43
10.0
 50
90.0
  0
INSERT
  5
26E
330
268
100
AcDbEntity
  8
SIZE
 62
     0
100
AcDbBlockReference
  2
_ORIGIN
 10
577.6000000238417
 20
1399.300048828125
 30
0.0
 41
10.0
 42
10.0
 43
10.0
 50
270.0
  0
TEXT
  5
26F
330
268
100
AcDbEntity
  8
SIZE
 62
     0
100
AcDbText
 10
567.6000000238417
 20
1401.75
 30
0.0
 40
30.0
  1
50
 50
90.0
 72
     1
 11
567.6000000238417
 21
1424.25
 31
0.0
100
AcDbText
  0
POINT
  5
270
330
268
100
AcDbEntity
  8
DEFPOINTS
 62
     0
100
AcDbPoint
 10
12.11269283294677
 20
1449.199951171875
 30
0.0
  0
POINT
  5
271
330
268
100
AcDbEntity
  8
DEFPOINTS
 62
     0
100
AcDbPoint
 10
44.55139541625977
 20
1399.300048828125
 30
0.0
  0
POINT
  5
272
330
268
100
AcDbEntity
  8
DEFPOINTS
 62
     0
100
AcDbPoint
 10
577.6000000238417
 20
1399.300048828125
 30
0.0
  0
ENDBLK
  5
273
330
268
100
AcDbEntity
  8
0
100
AcDbBlockEnd
  0
BLOCK
  5
275
330
274
100
AcDbEntity
  8
0
100
AcDbBlockBegin
  2
*D30
 70
     1
 10
0.0
 20
0.0
 30
0.0
  3
*D30
  1

  0
LINE
  5
276
330
274
100
AcDbEntity
  8
SIZE
 62
     0
100
AcDbLine
 10
340.0
 20
40.0
 30
0.0
 11
590.1000000238417
 21
39.99999999999993
 31
0.0
  0
LINE
  5
277
330
274
100
AcDbEntity
  8
SIZE
 62
     0
100
AcDbLine
 10
54.55139541625977
 20
1399.300048828125
 30
0.0
 11
590.1000000238418
 21
1399.300048828125
 31
0.0
  0
LINE
  5
278
330
274
100
AcDbEntity
  8
SIZE
 62
     0
100
AcDbLine
 10
577.6000000238417
 20
49.99999999999992
 30
0.0
 11
577.6000000238418
 21
1389.300048828125
 31
0.0
  0
INSERT
  5
279
330
274
100
AcDbEntity
  8
SIZE
 62
     0
100
AcDbBlockReference
  2
_ORIGIN
 10
577.6000000238417
 20
39.99999999999993
 30
0.0
 41
10.0
 42
10.0
 43
10.0
 50
270.0
  0
INSERT
  5
27A
330
274
100
AcDbEntity
  8
SIZE
 62
     0
100
AcDbBlockReference
  2
_ORIGIN
 10
577.6000000238418
 20
1399.300048828125
 30
0.0
 41
10.0
 42
10.0
 43
10.0
 50
90.0
  0
TEXT
  5
27B
330
274
100
AcDbEntity
  8
SIZE
 62
     0
100
AcDbText
 10
567.6000000238417
 20
669.6500242916705
 30
0.0
 40
30.0
  1
1359
 50
90.0
 72
     1
 11
567.6000000238417
 21
719.6500242916705
 31
0.0
100
AcDbText
  0
POINT
  5
27C
330
274
100
AcDbEntity
  8
DEFPOINTS
 62
     0
100
AcDbPoint
 10
330.0
 20
40.0
 30
0.0
  0
POINT
  5
27D
330
274
100
AcDbEntity
  8
DEFPOINTS
 62
     0
100
AcDbPoint
 10
44.55139541625977
 20
1399.300048828125
 30
0.0
  0
POINT
  5
27E
330
274
100
AcDbEntity
  8
DEFPOINTS
 62
     0
100
AcDbPoint
 10
577.6000000238418
 20
1399.300048828125
 30
0.0
  0
ENDBLK
  5
27F
330
274
100
AcDbEntity
  8
0
100
AcDbBlockEnd
  0
BLOCK
  5
281
330
280
100
AcDbEntity
  8
0
100
AcDbBlockBegin
  2
*D31
 70
     1
 10
0.0
 20
0.0
 30
0.0
  3
*D31
  1

  0
LINE
  5
282
330
280
100
AcDbEntity
  8
SIZE
 62
     0
100
AcDbLine
 10
22.11269283294678
 20
1449.199951171875
 30
0.0
 11
690.1000000238418
 21
1449.199951171874
 31
0.0
  0
LINE
  5
283
330
280
100
AcDbEntity
  8
SIZE
 62
     0
100
AcDbLine
 10
375.7999877929688
 20
-0.0000000000000028
 30
0.0
 11
690.1000000238417
 21
-0.0000000000000919
 31
0.0
  0
LINE
  5
284
330
280
100
AcDbEntity
  8
SIZE
 62
     0
100
AcDbLine
 10
677.6000000238418
 20
1439.199951171875
 30
0.0
 11
677.6000000238417
 21
9.999999999999911
 31
0.0
  0
INSERT
  5
285
330
280
100
AcDbEntity
  8
SIZE
 62
     0
100
AcDbBlockReference
  2
_ORIGIN
 10
677.6000000238418
 20
1449.199951171874
 30
0.0
 41
10.0
 42
10.0
 43
10.0
 50
90.0
  0
INSERT
  5
286
330
280
100
AcDbEntity
  8
SIZE
 62
     0
100
AcDbBlockReference
  2
_ORIGIN
 10
677.6000000238417
 20
-0.0000000000000883
 30
0.0
 41
10.0
 42
10.0
 43
10.0
 50
270.0
  0
TEXT
  5
287
330
280
100
AcDbEntity
  8
SIZE
 62
     0
100
AcDbText
 10
667.6000000238417
 20
669.5991820065144
 30
0.0
 40
30.0
  1
1449
 50
90.0
 72
     1
 11
667.6000000238417
 21
719.5991820065144
 31
0.0
100
AcDbText
  0
POINT
  5
288
330
280
100
AcDbEntity
  8
DEFPOINTS
 62
     0
100
AcDbPoint
 10
12.11269283294677
 20
1449.199951171875
 30
0.0
  0
POINT
  5
289
330
280
100
AcDbEntity
  8
DEFPOINTS
 62
     0
100
AcDbPoint
 10
365.7999877929688
 20
0.0
 30
0.0
  0
POINT
  5
28A
330
280
100
AcDbEntity
  8
DEFPOINTS
 62
     0
100
AcDbPoint
 10
677.6000000238417
 20
-0.0000000000000883
 30
0.0
  0
ENDBLK
  5
28B
330
280
100
AcDbEntity
  8
0
100
AcDbBlockEnd
  0
BLOCK
  5
28D
330
28C
100
AcDbEntity
  8
0
100
AcDbBlockBegin
  2
*D32
 70
     1
 10
0.0
 20
0.0
 30
0.0
  3
*D32
  1

  0
LINE
  5
28E
330
28C
100
AcDbEntity
  8
SIZE
 62
     0
100
AcDbLine
 10
340.0
 20
40.0
 30
0.0
 11
490.0999998524932
 21
39.99999999999996
 31
0.0
  0
LINE
  5
28F
330
28C
100
AcDbEntity
  8
SIZE
 62
     0
100
AcDbLine
 10
375.7999877929688
 20
-0.0000000000000028
 30
0.0
 11
490.0999998524932
 21
-0.0000000000000352
 31
0.0
  0
LINE
  5
290
330
28C
100
AcDbEntity
  8
SIZE
 62
     0
100
AcDbLine
 10
477.5999998524932
 20
49.99999999999996
 30
0.0
 11
477.5999998524932
 21
59.99999999999996
 31
0.0
  0
LINE
  5
291
330
28C
100
AcDbEntity
  8
SIZE
 62
     0
100
AcDbLine
 10
477.5999998524932
 20
-10.00000000000003
 30
0.0
 11
477.5999998524932
 21
-99.73892140706757
 31
0.0
  0
LINE
  5
292
330
28C
100
AcDbEntity
  8
SIZE
 62
     0
100
AcDbLine
 10
477.5999998524932
 20
39.99999999999996
 30
0.0
 11
477.5999998524932
 21
-0.0000000000000317
 31
0.0
  0
INSERT
  5
293
330
28C
100
AcDbEntity
  8
SIZE
 62
     0
100
AcDbBlockReference
  2
_ORIGIN
 10
477.5999998524932
 20
39.99999999999996
 30
0.0
 41
10.0
 42
10.0
 43
10.0
 50
270.0
  0
INSERT
  5
294
330
28C
100
AcDbEntity
  8
SIZE
 62
     0
100
AcDbBlockReference
  2
_ORIGIN
 10
477.5999998524932
 20
-0.0000000000000317
 30
0.0
 41
10.0
 42
10.0
 43
10.0
 50
90.0
  0
TEXT
  5
295
330
28C
100
AcDbEntity
  8
SIZE
 62
     0
100
AcDbText
 10
467.5999998524932
 20
-89.7389214070675
 30
0.0
 40
30.0
  1
40
 50
90.0
 72
     1
 11
467.5999998524932
 21
-67.23892140706749
 31
0.0
100
AcDbText
  0
POINT
  5
296
330
28C
100
AcDbEntity
  8
DEFPOINTS
 62
     0
100
AcDbPoint
 10
330.0
 20
40.0
 30
0.0
  0
POINT
  5
297
330
28C
100
AcDbEntity
  8
DEFPOINTS
 62
     0
100
AcDbPoint
 10
365.7999877929688
 20
0.0
 30
0.0
  0
POINT
  5
298
330
28C
100
AcDbEntity
  8
DEFPOINTS
 62
     0
100
AcDbPoint
 10
477.5999998524932
 20
-0.0000000000000317
 30
0.0
  0
ENDBLK
  5
299
330
28C
100
AcDbEntity
  8
0
100
AcDbBlockEnd
  0
BLOCK
  5
29B
330
29A
100
AcDbEntity
  8
0
100
AcDbBlockBegin
  2
*D33
 70
     1
 10
0.0
 20
0.0
 30
0.0
  3
*D33
  1

  0
LINE
  5
29C
330
29A
100
AcDbEntity
  8
SIZE
 62
     0
100
AcDbLine
 10
-401.0
 20
-10.00000000000005
 30
0.0
 11
-401.0
 21
-460.1000000238418
 31
0.0
  0
LINE
  5
29D
330
29A
100
AcDbEntity
  8
SIZE
 62
     0
100
AcDbLine
 10
-0.0000000000000006
 20
-52.21389389038085
 30
0.0
 11
-0.0000000000000256
 21
-460.1000000238418
 31
0.0
  0
LINE
  5
29E
330
29A
100
AcDbEntity
  8
SIZE
 62
     0
100
AcDbLine
 10
-391.0
 20
-447.6000000238418
 30
0.0
 11
-10.00000000000002
 21
-447.6000000238418
 31
0.0
  0
INSERT
  5
29F
330
29A
100
AcDbEntity
  8
SIZE
 62
     0
100
AcDbBlockReference
  2
_ORIGIN
 10
-401.0
 20
-447.6000000238418
 30
0.0
 41
10.0
 42
10.0
 43
10.0
 50
180.0
  0
INSERT
  5
2A0
330
29A
100
AcDbEntity
  8
SIZE
 62
     0
100
AcDbBlockReference
  2
_ORIGIN
 10
-0.0000000000000248
 20
-447.6000000238418
 30
0.0
 41
10.0
 42
10.0
 43
10.0
  0
TEXT
  5
2A1
330
29A
100
AcDbEntity
  8
SIZE
 62
     0
100
AcDbText
 10
-235.1215668336569
 20
-437.6000000238418
 30
0.0
 40
30.0
  1
401
 72
     1
 11
-202.6215668336569
 21
-437.6000000238418
 31
0.0
100
AcDbText
  0
POINT
  5
2A2
330
29A
100
AcDbEntity
  8
DEFPOINTS
 62
     0
100
AcDbPoint
 10
-401.0
 20
-0.000000000000057
 30
0.0
  0
POINT
  5
2A3
330
29A
100
AcDbEntity
  8
DEFPOINTS
 62
     0
100
AcDbPoint
 10
0.0
 20
-42.21389389038085
 30
0.0
  0
POINT
  5
2A4
330
29A
100
AcDbEntity
  8
DEFPOINTS
 62
     0
100
AcDbPoint
 10
-0.0000000000000248
 20
-447.6000000238418
 30
0.0
  0
ENDBLK
  5
2A5
330
29A
100
AcDbEntity
  8
0
100
AcDbBlockEnd
  0
BLOCK
  5
2A7
330
2A6
100
AcDbEntity
  8
0
100
AcDbBlockBegin
  2
*D34
 70
     1
 10
0.0
 20
0.0
 30
0.0
  3
*D34
  1

  0
LINE
  5
2A8
330
2A6
100
AcDbEntity
  8
SIZE
 62
     0
100
AcDbLine
 10
-330.0
 20
30.0
 30
0.0
 11
-330.0
 21
-362.5
 31
0.0
  0
LINE
  5
2A9
330
2A6
100
AcDbEntity
  8
SIZE
 62
     0
100
AcDbLine
 10
330.0
 20
30.0
 30
0.0
 11
330.0
 21
-362.5
 31
0.0
  0
LINE
  5
2AA
330
2A6
100
AcDbEntity
  8
SIZE
 62
     0
100
AcDbLine
 10
-320.0
 20
-350.0
 30
0.0
 11
320.0
 21
-350.0
 31
0.0
  0
INSERT
  5
2AB
330
2A6
100
AcDbEntity
  8
SIZE
 62
     0
100
AcDbBlockReference
  2
_ORIGIN
 10
-330.0
 20
-350.0
 30
0.0
 41
10.0
 42
10.0
 43
10.0
 50
180.0
  0
INSERT
  5
2AC
330
2A6
100
AcDbEntity
  8
SIZE
 62
     0
100
AcDbBlockReference
  2
_ORIGIN
 10
330.0
 20
-350.0
 30
0.0
 41
10.0
 42
10.0
 43
10.0
  0
TEXT
  5
2AD
330
2A6
100
AcDbEntity
  8
SIZE
 62
     0
100
AcDbText
 10
-37.5
 20
-340.0
 30
0.0
 40
30.0
  1
660
 72
     1
 11
0.0
 21
-340.0
 31
0.0
100
AcDbText
  0
POINT
  5
2AE
330
2A6
100
AcDbEntity
  8
DEFPOINTS
 62
     0
100
AcDbPoint
 10
-330.0
 20
40.0
 30
0.0
  0
POINT
  5
2AF
330
2A6
100
AcDbEntity
  8
DEFPOINTS
 62
     0
100
AcDbPoint
 10
330.0
 20
40.0
 30
0.0
  0
POINT
  5
2B0
330
2A6
100
AcDbEntity
  8
DEFPOINTS
 62
     0
100
AcDbPoint
 10
330.0
 20
-350.0
 30
0.0
  0
ENDBLK
  5
2B1
330
2A6
100
AcDbEntity
  8
0
100
AcDbBlockEnd
  0
BLOCK
  5
2B3
330
2B2
100
AcDbEntity
  8
0
100
AcDbBlockBegin
  2
*D35
 70
     1
 10
0.0
 20
0.0
 30
0.0
  3
*D35
  1

  0
LINE
  5
2B4
330
2B2
100
AcDbEntity
  8
SIZE
 62
     0
100
AcDbLine
 10
340.0
 20
1399.300048828125
 30
0.0
 11
490.1000000238417
 21
1399.300048828125
 31
0.0
  0
LINE
  5
2B5
330
2B2
100
AcDbEntity
  8
SIZE
 62
     0
100
AcDbLine
 10
340.0
 20
1899.300048828125
 30
0.0
 11
490.1000000238417
 21
1899.300048828125
 31
0.0
  0
LINE
  5
2B6
330
2B2
100
AcDbEntity
  8
SIZE
 62
     0
100
AcDbLine
 10
477.6000000238417
 20
1409.300048828125
 30
0.0
 11
477.6000000238417
 21
1889.300048828125
 31
0.0
  0
INSERT
  5
2B7
330
2B2
100
AcDbEntity
  8
SIZE
 62
     0
100
AcDbBlockReference
  2
_ORIGIN
 10
477.6000000238417
 20
1399.300048828125
 30
0.0
 41
10.0
 42
10.0
 43
10.0
 50
270.0
  0
INSERT
  5
2B8
330
2B2
100
AcDbEntity
  8
SIZE
 62
     0
100
AcDbBlockReference
  2
_ORIGIN
 10
477.6000000238417
 20
1899.300048828125
 30
0.0
 41
10.0
 42
10.0
 43
10.0
 50
90.0
  0
TEXT
  5
2B9
330
2B2
100
AcDbEntity
  8
SIZE
 62
     0
100
AcDbText
 10
467.6000000238416
 20
1616.297363158858
 30
0.0
 40
30.0
  1
500
 50
90.0
 72
     1
 11
467.6000000238416
 21
1651.297363158858
 31
0.0
100
AcDbText
  0
POINT
  5
2BA
330
2B2
100
AcDbEntity
  8
DEFPOINTS
 62
     0
100
AcDbPoint
 10
330.0
 20
1399.300048828125
 30
0.0
  0
POINT
  5
2BB
330
2B2
100
AcDbEntity
  8
DEFPOINTS
 62
     0
100
AcDbPoint
 10
330.0
 20
1899.300048828125
 30
0.0
  0
POINT
  5
2BC
330
2B2
100
AcDbEntity
  8
DEFPOINTS
 62
     0
100
AcDbPoint
 10
477.6000000238417
 20
1899.300048828125
 30
0.0
  0
ENDBLK
  5
2BD
330
2B2
100
AcDbEntity
  8
0
100
AcDbBlockEnd
  0
BLOCK
  5
2BF
330
2BE
100
AcDbEntity
  8
0
100
AcDbBlockBegin
  2
*D36
 70
     1
 10
0.0
 20
0.0
 30
0.0
  3
*D36
  1

  0
LINE
  5
2C0
330
2BE
100
AcDbEntity
  8
OUTLINE
 62
     0
100
AcDbLine
 10
-330.0
 20
30.0
 30
0.0
 11
-330.0
 21
27.49999987760813
 31
0.0
  0
LINE
  5
2C1
330
2BE
100
AcDbEntity
  8
OUTLINE
 62
     0
100
AcDbLine
 10
-330.0
 20
30.0
 30
0.0
 11
-330.0
 21
27.49999987760813
 31
0.0
  0
LINE
  5
2C2
330
2BE
100
AcDbEntity
  8
OUTLINE
 62
     0
100
AcDbLine
 10
-340.0
 20
39.99999987760812
 30
0.0
 11
-350.0
 21
39.99999987760812
 31
0.0
  0
LINE
  5
2C3
330
2BE
100
AcDbEntity
  8
OUTLINE
 62
     0
100
AcDbLine
 10
-320.0
 20
39.99999987760812
 30
0.0
 11
-275.0
 21
39.99999987760812
 31
0.0
  0
INSERT
  5
2C4
330
2BE
100
AcDbEntity
  8
OUTLINE
 62
     0
100
AcDbBlockReference
  2
_ORIGIN
 10
-330.0
 20
39.99999987760812
 30
0.0
 41
10.0
 42
10.0
 43
10.0
  0
INSERT
  5
2C5
330
2BE
100
AcDbEntity
  8
OUTLINE
 62
     0
100
AcDbBlockReference
  2
_ORIGIN
 10
-330.0
 20
39.99999987760812
 30
0.0
 41
10.0
 42
10.0
 43
10.0
 50
180.0
  0
TEXT
  5
2C6
330
2BE
100
AcDbEntity
  8
OUTLINE
 62
     0
100
AcDbText
 10
-300.0
 20
49.99999987760812
 30
0.0
 40
30.0
  1
0
 72
     1
 11
-292.5
 21
49.99999987760812
 31
0.0
100
AcDbText
  0
POINT
  5
2C7
330
2BE
100
AcDbEntity
  8
DEFPOINTS
 62
     0
100
AcDbPoint
 10
-330.0
 20
40.0
 30
0.0
  0
POINT
  5
2C8
330
2BE
100
AcDbEntity
  8
DEFPOINTS
 62
     0
100
AcDbPoint
 10
-330.0
 20
40.0
 30
0.0
  0
POINT
  5
2C9
330
2BE
100
AcDbEntity
  8
DEFPOINTS
 62
     0
100
AcDbPoint
 10
-330.0
 20
39.99999987760812
 30
0.0
  0
ENDBLK
  5
2CA
330
2BE
100
AcDbEntity
  8
0
100
AcDbBlockEnd
  0
BLOCK
  5
2CC
330
2CB
100
AcDbEntity
  8
0
100
AcDbBlockBegin
  2
*D37
 70
     1
 10
0.0
 20
0.0
 30
0.0
  3
*D37
  1

  0
LINE
  5
2CD
330
2CB
100
AcDbEntity
  8
OUTLINE
 62
     0
100
AcDbLine
 10
-336.9702758789062
 20
1282.091064453124
 30
0.0
 11
-336.9702758789062
 21
1279.591064330732
 31
0.0
  0
LINE
  5
2CE
330
2CB
100
AcDbEntity
  8
OUTLINE
 62
     0
100
AcDbLine
 10
-336.9702758789062
 20
1282.091064453124
 30
0.0
 11
-336.9702758789062
 21
1279.591064330732
 31
0.0
  0
LINE
  5
2CF
330
2CB
100
AcDbEntity
  8
OUTLINE
 62
     0
100
AcDbLine
 10
-346.9702758789062
 20
1292.091064330733
 30
0.0
 11
-356.9702758789062
 21
1292.091064330733
 31
0.0
  0
LINE
  5
2D0
330
2CB
100
AcDbEntity
  8
OUTLINE
 62
     0
100
AcDbLine
 10
-326.9702758789062
 20
1292.091064330733
 30
0.0
 11
-281.9702758789062
 21
1292.091064330733
 31
0.0
  0
INSERT
  5
2D1
330
2CB
100
AcDbEntity
  8
OUTLINE
 62
     0
100
AcDbBlockReference
  2
_ORIGIN
 10
-336.9702758789062
 20
1292.091064330733
 30
0.0
 41
10.0
 42
10.0
 43
10.0
  0
INSERT
  5
2D2
330
2CB
100
AcDbEntity
  8
OUTLINE
 62
     0
100
AcDbBlockReference
  2
_ORIGIN
 10
-336.9702758789062
 20
1292.091064330733
 30
0.0
 41
10.0
 42
10.0
 43
10.0
 50
180.0
  0
TEXT
  5
2D3
330
2CB
100
AcDbEntity
  8
OUTLINE
 62
     0
100
AcDbText
 10
-306.9702758789062
 20
1302.091064330733
 30
0.0
 40
30.0
  1
0
 72
     1
 11
-299.4702758789062
 21
1302.091064330733
 31
0.0
100
AcDbText
  0
POINT
  5
2D4
330
2CB
100
AcDbEntity
  8
DEFPOINTS
 62
     0
100
AcDbPoint
 10
-336.9702758789062
 20
1292.091064453124
 30
0.0
  0
POINT
  5
2D5
330
2CB
100
AcDbEntity
  8
DEFPOINTS
 62
     0
100
AcDbPoint
 10
-336.9702758789062
 20
1292.091064453124
 30
0.0
  0
POINT
  5
2D6
330
2CB
100
AcDbEntity
  8
DEFPOINTS
 62
     0
100
AcDbPoint
 10
-336.9702758789062
 20
1292.091064330733
 30
0.0
  0
ENDBLK
  5
2D7
330
2CB
100
AcDbEntity
  8
0
100
AcDbBlockEnd
  0
BLOCK
  5
2D9
330
2D8
100
AcDbEntity
  8
0
100
AcDbBlockBegin
  2
*D38
 70
     1
 10
0.0
 20
0.0
 30
0.0
  3
*D38
  1

  0
LINE
  5
2DA
330
2D8
100
AcDbEntity
  8
OUTLINE
 62
     0
100
AcDbLine
 10
-330.0
 20
30.0
 30
0.0
 11
-330.0
 21
27.49999987760813
 31
0.0
  0
LINE
  5
2DB
330
2D8
100
AcDbEntity
  8
OUTLINE
 62
     0
100
AcDbLine
 10
-330.0
 20
30.0
 30
0.0
 11
-330.0
 21
27.49999987760813
 31
0.0
  0
LINE
  5
2DC
330
2D8
100
AcDbEntity
  8
OUTLINE
 62
     0
100
AcDbLine
 10
-340.0
 20
39.99999987760812
 30
0.0
 11
-350.0
 21
39.99999987760812
 31
0.0
  0
LINE
  5
2DD
330
2D8
100
AcDbEntity
  8
OUTLINE
 62
     0
100
AcDbLine
 10
-320.0
 20
39.99999987760812
 30
0.0
 11
-275.0
 21
39.99999987760812
 31
0.0
  0
INSERT
  5
2DE
330
2D8
100
AcDbEntity
  8
OUTLINE
 62
     0
100
AcDbBlockReference
  2
_ORIGIN
 10
-330.0
 20
39.99999987760812
 30
0.0
 41
10.0
 42
10.0
 43
10.0
  0
INSERT
  5
2DF
330
2D8
100
AcDbEntity
  8
OUTLINE
 62
     0
100
AcDbBlockReference
  2
_ORIGIN
 10
-330.0
 20
39.99999987760812
 30
0.0
 41
10.0
 42
10.0
 43
10.0
 50
180.0
  0
TEXT
  5
2E0
330
2D8
100
AcDbEntity
  8
OUTLINE
 62
     0
100
AcDbText
 10
-300.0
 20
49.99999987760812
 30
0.0
 40
30.0
  1
0
 72
     1
 11
-292.5
 21
49.99999987760812
 31
0.0
100
AcDbText
  0
POINT
  5
2E1
330
2D8
100
AcDbEntity
  8
DEFPOINTS
 62
     0
100
AcDbPoint
 10
-330.0
 20
40.0
 30
0.0
  0
POINT
  5
2E2
330
2D8
100
AcDbEntity
  8
DEFPOINTS
 62
     0
100
AcDbPoint
 10
-330.0
 20
40.0
 30
0.0
  0
POINT
  5
2E3
330
2D8
100
AcDbEntity
  8
DEFPOINTS
 62
     0
100
AcDbPoint
 10
-330.0
 20
39.99999987760812
 30
0.0
  0
ENDBLK
  5
2E4
330
2D8
100
AcDbEntity
  8
0
100
AcDbBlockEnd
  0
ENDSEC
  0
SECTION
  2
ENTITIES
  0
POINT
  5
2EE
330
70
100
AcDbEntity
  8
DEFPOINTS
  6
Continuous
 62
     3
100
AcDbPoint
 10
-330.0
 20
40.0
 30
0.0
  0
POINT
  5
2EF
330
70
100
AcDbEntity
  8
DEFPOINTS
  6
Continuous
 62
     3
100
AcDbPoint
 10
-330.0
 20
40.0
 30
0.0
  0
POINT
  5
2F0
330
70
100
AcDbEntity
  8
DEFPOINTS
  6
Continuous
 62
     3
100
AcDbPoint
 10
-330.0
 20
39.99999987760812
 30
0.0
  0
POINT
  5
2FA
330
70
100
AcDbEntity
  8
DEFPOINTS
  6
Continuous
 62
     3
100
AcDbPoint
 10
-336.9702758789062
 20
1292.091064453124
 30
0.0
  0
POINT
  5
2FB
330
70
100
AcDbEntity
  8
DEFPOINTS
  6
Continuous
 62
     3
100
AcDbPoint
 10
-336.9702758789062
 20
1292.091064453124
 30
0.0
  0
POINT
  5
2FC
330
70
100
AcDbEntity
  8
DEFPOINTS
  6
Continuous
 62
     3
100
AcDbPoint
 10
-336.9702758789062
 20
1292.091064330733
 30
0.0
  0
POINT
  5
306
330
70
100
AcDbEntity
  8
DEFPOINTS
  6
Continuous
 62
     3
100
AcDbPoint
 10
-330.0
 20
40.0
 30
0.0
  0
POINT
  5
307
330
70
100
AcDbEntity
  8
DEFPOINTS
  6
Continuous
 62
     3
100
AcDbPoint
 10
-330.0
 20
40.0
 30
0.0
  0
POINT
  5
308
330
70
100
AcDbEntity
  8
DEFPOINTS
  6
Continuous
 62
     3
100
AcDbPoint
 10
-330.0
 20
39.99999987760812
 30
0.0
  0
LINE
  5
309
330
70
100
AcDbEntity
  8
OUTLINE
  6
Continuous
100
AcDbLine
 10
-329.9999999999997
 20
200.6999999999996
 30
0.0
 11
-332.7843659290929
 21
200.6999999999996
 31
0.0
  0
LINE
  5
30A
330
70
100
AcDbEntity
  8
OUTLINE
  6
Continuous
100
AcDbLine
 10
-337.6544573611628
 20
202.3531732776697
 30
0.0
 11
-389.2628428702616
 21
241.9536802848234
 31
0.0
  0
ARC
  5
30B
330
70
100
AcDbEntity
  8
OUTLINE
  6
Continuous
100
AcDbCircle
 10
-371.0000000000002
 20
265.7542804935605
 30
0.0
 40
30.0
100
AcDbArc
 50
180.0
 51
232.5000000000002
  0
ARC
  5
30C
330
70
100
AcDbEntity
  8
OUTLINE
  6
Continuous
100
AcDbCircle
 10
-332.7843659290929
 20
208.6999999999996
 30
0.0
 40
7.999999999999857
100
AcDbArc
 50
232.5000000000011
 51
270.0
  0
LINE
  5
30D
330
70
100
AcDbEntity
  8
OUTLINE
  6
Continuous
100
AcDbLine
 10
266.1787138754271
 20
31.54376880273611
 30
0.0
 11
262.4999999999996
 21
8.0
 31
0.0
  0
ARC
  5
30E
330
70
100
AcDbEntity
  8
OUTLINE
  6
Continuous
100
AcDbCircle
 10
341.7085223437009
 20
13.59999999999999
 30
0.0
 40
9.999999999999943
100
AcDbArc
 50
194.596575525494
 51
214.0557977425681
  0
LINE
  5
30F
330
70
100
AcDbEntity
  8
OUTLINE
  6
Continuous
100
AcDbLine
 10
253.5999999999994
 20
0.0
 30
0.0
 11
365.7999999999995
 21
0.0
 31
0.0
  0
ARC
  5
310
330
70
100
AcDbEntity
  8
OUTLINE
  6
Continuous
100
AcDbCircle
 10
365.7999999999995
 20
3.199999999999988
 30
0.0
 40
3.199999999999988
100
AcDbArc
 50
270.0
 51
0.0
  0
LINE
  5
311
330
70
100
AcDbEntity
  8
OUTLINE
  6
Continuous
100
AcDbLine
 10
368.9999999999996
 20
8.0
 30
0.0
 11
368.9999999999996
 21
3.199999999999988
 31
0.0
  0
LINE
  5
312
330
70
100
AcDbEntity
  8
OUTLINE
  6
Continuous
100
AcDbLine
 10
368.9999999999996
 20
8.0
 30
0.0
 11
249.9999999999996
 21
8.0
 31
0.0
  0
LINE
  5
313
330
70
100
AcDbEntity
  8
OUTLINE
  6
Continuous
100
AcDbLine
 10
249.9999999999996
 20
8.0
 30
0.0
 11
249.9999999999996
 21
3.599999999999993
 31
0.0
  0
ARC
  5
314
330
70
100
AcDbEntity
  8
OUTLINE
  6
Continuous
100
AcDbCircle
 10
253.5999999999994
 20
3.599999999999993
 30
0.0
 40
3.599999999999908
100
AcDbArc
 50
180.0
 51
270.0
  0
LINE
  5
315
330
70
100
AcDbEntity
  8
OUTLINE
  6
Continuous
100
AcDbLine
 10
326.4478866682093
 20
32.52011519407413
 30
0.0
 11
332.0312799984563
 21
11.07988480592587
 31
0.0
  0
ARC
  5
316
330
70
100
AcDbEntity
  8
OUTLINE
  6
Continuous
100
AcDbCircle
 10
316.7706443229648
 20
30.0
 30
0.0
 40
9.999999999999943
100
AcDbArc
 50
14.59657552549418
 51
90.0
  0
ARC
  5
317
330
70
100
AcDbEntity
  8
OUTLINE
  6
Continuous
100
AcDbCircle
 10
276.0588342129381
 20
30.0
 30
0.0
 40
10.0
100
AcDbArc
 50
90.0
 51
171.1193408494797
  0
LINE
  5
318
330
70
100
AcDbEntity
  8
OUTLINE
  6
Continuous
100
AcDbLine
 10
-330.0
 20
39.99999999999992
 30
0.0
 11
330.0
 21
39.99999999999992
 31
0.0
  0
ARC
  5
319
330
70
100
AcDbEntity
  8
OUTLINE
  6
Continuous
100
AcDbCircle
 10
-201.0340057036564
 20
11.59999999999939
 30
0.0
 40
9.999999999999927
100
AcDbArc
 50
338.8998039759102
 51
347.2908553610452
  0
ARC
  5
31A
330
70
100
AcDbEntity
  8
OUTLINE
  6
Continuous
100
AcDbCircle
 10
-146.2686338992966
 20
11.59999999999938
 30
0.0
 40
9.999999999999927
100
AcDbArc
 50
338.8998039759102
 51
347.2908553610462
  0
ARC
  5
31B
330
70
100
AcDbEntity
  8
OUTLINE
  6
Continuous
100
AcDbCircle
 10
-146.2686338992966
 20
11.59999999999938
 30
0.0
 40
9.999999999999927
100
AcDbArc
 50
338.8998039759102
 51
347.2908553610462
  0
ARC
  5
31C
330
70
100
AcDbEntity
  8
OUTLINE
  6
Continuous
100
AcDbCircle
 10
-176.3819824314358
 20
29.99999999999993
 30
0.0
 40
10.0
100
AcDbArc
 50
90.0
 51
167.2908553610463
  0
ARC
  5
31D
330
70
100
AcDbEntity
  8
OUTLINE
  6
Continuous
100
AcDbCircle
 10
-121.6166106270752
 20
29.99999999999993
 30
0.0
 40
10.0
100
AcDbArc
 50
90.0
 51
167.2908553610464
  0
LINE
  5
31E
330
70
100
AcDbEntity
  8
OUTLINE
  6
Continuous
100
AcDbLine
 10
-186.1369768631801
 20
32.20001900824623
 30
0.0
 11
-191.2790112719129
 21
9.399980991753119
 31
0.0
  0
LINE
  5
31F
330
70
100
AcDbEntity
  8
OUTLINE
  6
Continuous
100
AcDbLine
 10
-106.6176013019938
 20
7.999999999999926
 30
0.0
 11
-108.3972010420664
 21
30.778876672929
 31
0.0
  0
LINE
  5
320
330
70
100
AcDbEntity
  8
OUTLINE
  6
Continuous
100
AcDbLine
 10
-131.3716050588195
 20
32.2000190082462
 30
0.0
 11
-136.5136394675523
 21
9.399980991753112
 31
0.0
  0
ARC
  5
321
330
70
100
AcDbEntity
  8
OUTLINE
  6
Continuous
100
AcDbCircle
 10
-118.3668224555583
 20
29.99999999999993
 30
0.0
 40
9.999999999999511
100
AcDbArc
 50
4.467159061389331
 51
90.0
  0
ARC
  5
322
330
70
100
AcDbEntity
  8
OUTLINE
  6
Continuous
100
AcDbCircle
 10
-212.3003699510786
 20
3.199999999999758
 30
0.0
 40
3.200000000000727
100
AcDbArc
 50
180.0
 51
270.0
  0
LINE
  5
323
330
70
100
AcDbEntity
  8
OUTLINE
  6
Continuous
100
AcDbLine
 10
-215.5003699510793
 20
3.199999999999758
 30
0.0
 11
-215.5003699510793
 21
7.999999999999943
 31
0.0
  0
LINE
  5
324
330
70
100
AcDbEntity
  8
OUTLINE
  6
Continuous
100
AcDbLine
 10
-95.10391663819879
 20
-0.000000000000074
 30
0.0
 11
-212.3003699510786
 21
-0.000000000000059
 31
0.0
  0
ARC
  5
325
330
70
100
AcDbEntity
  8
OUTLINE
  6
Continuous
100
AcDbCircle
 10
-95.10391663819879
 20
3.199999999999743
 30
0.0
 40
3.199999999999818
100
AcDbArc
 50
270.0
 51
0.0
  0
LINE
  5
326
330
70
100
AcDbEntity
  8
OUTLINE
  6
Continuous
100
AcDbLine
 10
-91.90391663819807
 20
7.999999999999926
 30
0.0
 11
-215.5003699510793
 21
7.999999999999943
 31
0.0
  0
LINE
  5
327
330
70
100
AcDbEntity
  8
OUTLINE
  6
Continuous
100
AcDbLine
 10
-91.90391663819807
 20
3.199999999999743
 30
0.0
 11
-91.90391663819807
 21
7.999999999999926
 31
0.0
  0
LINE
  5
328
330
70
100
AcDbEntity
  8
OUTLINE
  6
Continuous
100
AcDbLine
 10
-330.0000000000001
 20
39.99999999999992
 30
0.0
 11
-329.9999999999999
 21
1383.106114346954
 31
0.0
  0
LINE
  5
329
330
70
100
AcDbEntity
  8
OUTLINE
  6
Continuous
100
AcDbLine
 10
330.0
 20
39.9999999999997
 30
0.0
 11
330.0
 21
1383.106114346954
 31
0.0
  0
ARC
  5
32A
330
70
100
AcDbEntity
  8
OUTLINE
  6
Continuous
100
AcDbCircle
 10
-46.72577864188565
 20
-2601.299409095142
 30
0.0
 40
4000.6
100
AcDbArc
 50
90.0311410929328
 51
93.97220103892056
  0
LINE
  5
32B
330
70
100
AcDbEntity
  8
OUTLINE
  6
Continuous
100
AcDbLine
 10
330.0
 20
1363.7
 30
0.0
 11
-330.0
 21
1363.7
 31
0.0
  0
LINE
  5
32C
330
70
100
AcDbEntity
  8
OUTLINE
  6
Continuous
100
AcDbLine
 10
44.55139422257274
 20
1399.3
 30
0.0
 11
-48.90016306098051
 21
1399.3
 31
0.0
  0
LINE
  5
32D
330
70
100
AcDbEntity
  8
OUTLINE
  6
Continuous
100
AcDbLine
 10
325.679425479586
 20
1389.3
 30
0.0
 11
-325.6794254795914
 21
1389.3
 31
0.0
  0
ARC
  5
32E
330
70
100
AcDbEntity
  8
OUTLINE
  6
Continuous
100
AcDbCircle
 10
46.72577864188521
 20
-2601.299409095142
 30
0.0
 40
4000.599999999999
100
AcDbArc
 50
86.02779896107938
 51
90.03114109293591
  0
ARC
  5
32F
330
70
100
AcDbEntity
  8
OUTLINE
  6
Continuous
100
AcDbCircle
 10
323.4000000000001
 20
1383.106114346954
 30
0.0
 40
6.599999999999909
100
AcDbArc
 50
0.0
 51
86.02779896107914
  0
ARC
  5
330
330
70
100
AcDbEntity
  8
OUTLINE
  6
Continuous
100
AcDbCircle
 10
-323.4000000000001
 20
1383.106114346954
 30
0.0
 40
6.599999999999636
100
AcDbArc
 50
93.97220103892088
 51
180.0
  0
LINE
  5
331
330
70
100
AcDbEntity
  8
OUTLINE
  6
Continuous
100
AcDbLine
 10
-329.9999999999996
 20
1292.699999999999
 30
0.0
 11
-333.9088134765626
 21
1292.699999999999
 31
0.0
  0
ARC
  5
332
330
70
100
AcDbEntity
  8
OUTLINE
  6
Continuous
100
AcDbCircle
 10
-333.9088134765626
 20
1284.699969482421
 30
0.0
 40
7.999999999999937
100
AcDbArc
 50
90.0
 51
112.5001004607928
  0
LINE
  5
333
330
70
100
AcDbEntity
  8
OUTLINE
  6
Continuous
100
AcDbLine
 10
-401.0
 20
1235.699999999998
 30
0.0
 11
-401.0
 21
1245.523684692382
 31
0.0
  0
ARC
  5
334
330
70
100
AcDbEntity
  8
OUTLINE
  6
Continuous
100
AcDbCircle
 10
-371.0000152587892
 20
1245.523684692382
 30
0.0
 40
30.00000000000027
100
AcDbArc
 50
112.5000458192801
 51
180.0000186693348
  0
LINE
  5
335
330
70
100
AcDbEntity
  8
OUTLINE
  6
Continuous
100
AcDbLine
 10
-336.9702859856691
 20
1292.091024825969
 30
0.0
 11
-382.4805148013139
 21
1273.240069084738
 31
0.0
  0
LINE
  5
336
330
70
100
AcDbEntity
  8
OUTLINE
  6
Continuous
100
AcDbLine
 10
-401.0
 20
265.7542804935605
 30
0.0
 11
-401.0
 21
1235.699999999998
 31
0.0
  0
LINE
  5
337
330
70
100
AcDbEntity
  8
DETAIL
  6
Continuous
100
AcDbLine
 10
-233.0000000000008
 20
39.99999999999992
 30
0.0
 11
-223.0000000000009
 21
31.999999999999
 31
0.0
  0
LINE
  5
338
330
70
100
AcDbEntity
  8
DETAIL
  6
Continuous
100
AcDbLine
 10
-223.0000000000009
 20
31.999999999999
 30
0.0
 11
-186.1799414025687
 21
31.999999999999
 31
0.0
  0
LINE
  5
339
330
70
100
AcDbEntity
  8
DETAIL
  6
Continuous
100
AcDbLine
 10
-280.0000000000007
 20
37.99999999999992
 30
0.0
 11
-240.0000000000007
 21
37.99999999999992
 31
0.0
  0
LINE
  5
33A
330
70
100
AcDbEntity
  8
DETAIL
  6
Continuous
100
AcDbLine
 10
-240.0000000000007
 20
39.99999999999992
 30
0.0
 11
-240.0000000000007
 21
37.99999999999992
 31
0.0
  0
LINE
  5
33B
330
70
100
AcDbEntity
  8
DETAIL
  6
Continuous
100
AcDbLine
 10
-280.0000000000007
 20
39.99999999999992
 30
0.0
 11
-280.0000000000007
 21
37.99999999999992
 31
0.0
  0
LINE
  5
33C
330
70
100
AcDbEntity
  8
DETAIL
  6
Continuous
100
AcDbLine
 10
-251.0000000000007
 20
37.99999999999992
 30
0.0
 11
-251.0000000000007
 21
25.99999999999992
 31
0.0
  0
LINE
  5
33D
330
70
100
AcDbEntity
  8
DETAIL
  6
Continuous
100
AcDbLine
 10
-251.0000000000007
 20
25.99999999999992
 30
0.0
 11
-252.0000000000008
 21
22.99999999999991
 31
0.0
  0
LINE
  5
33E
330
70
100
AcDbEntity
  8
DETAIL
  6
Continuous
100
AcDbLine
 10
-269.0000000000007
 20
25.99999999999992
 30
0.0
 11
-268.0000000000007
 21
22.99999999999991
 31
0.0
  0
LINE
  5
33F
330
70
100
AcDbEntity
  8
DETAIL
  6
Continuous
100
AcDbLine
 10
-268.0000000000007
 20
22.99999999999991
 30
0.0
 11
-252.0000000000008
 21
22.99999999999991
 31
0.0
  0
LINE
  5
340
330
70
100
AcDbEntity
  8
DETAIL
  6
Continuous
100
AcDbLine
 10
-269.0000000000007
 20
25.99999999999992
 30
0.0
 11
-251.0000000000007
 21
25.99999999999992
 31
0.0
  0
LINE
  5
341
330
70
100
AcDbEntity
  8
DETAIL
  6
Continuous
100
AcDbLine
 10
-269.0000000000007
 20
37.99999999999992
 30
0.0
 11
-269.0000000000007
 21
25.99999999999992
 31
0.0
  0
LINE
  5
342
330
70
100
AcDbEntity
  8
DETAIL
  6
Continuous
100
AcDbLine
 10
-401.0
 20
340.6999999999996
 30
0.0
 11
-329.9999999999997
 21
340.6999999999996
 31
0.0
  0
ARC
  5
343
330
70
100
AcDbEntity
  8
DETAIL
  6
Continuous
100
AcDbCircle
 10
-409.4999999999997
 20
882.7702941459206
 30
0.0
 40
1.499999999999958
100
AcDbArc
 50
101.3099324740202
 51
180.0
  0
ARC
  5
344
330
70
100
AcDbEntity
  8
DETAIL
  6
Continuous
100
AcDbCircle
 10
-409.4999999999997
 20
694.7297058540764
 30
0.0
 40
1.5
100
AcDbArc
 50
180.0
 51
258.690067525984
  0
LINE
  5
345
330
70
100
AcDbEntity
  8
DETAIL
  6
Continuous
100
AcDbLine
 10
-411.0
 20
694.7297058540764
 30
0.0
 11
-411.0
 21
882.7702941459206
 31
0.0
  0
LINE
  5
346
330
70
100
AcDbEntity
  8
DETAIL
  6
Continuous
100
AcDbLine
 10
-401.0
 20
885.9999999999985
 30
0.0
 11
-409.7941742027074
 21
884.2411651594572
 31
0.0
  0
LINE
  5
347
330
70
100
AcDbEntity
  8
DETAIL
  6
Continuous
100
AcDbLine
 10
-401.0
 20
691.499999999999
 30
0.0
 11
-409.7941742027072
 21
693.2588348405397
 31
0.0
  0
LINE
  5
348
330
70
100
AcDbEntity
  8
DETAIL
  6
Continuous
100
AcDbLine
 10
-415.9999999999997
 20
698.749999999999
 30
0.0
 11
-415.9999999999997
 21
715.249999999999
 31
0.0
  0
LINE
  5
349
330
70
100
AcDbEntity
  8
DETAIL
  6
Continuous
100
AcDbLine
 10
-411.0
 20
698.749999999999
 30
0.0
 11
-415.9999999999997
 21
698.749999999999
 31
0.0
  0
LINE
  5
34A
330
70
100
AcDbEntity
  8
DETAIL
  6
Continuous
100
AcDbLine
 10
-411.0
 20
715.249999999999
 30
0.0
 11
-415.9999999999997
 21
715.249999999999
 31
0.0
  0
LINE
  5
34B
330
70
100
AcDbEntity
  8
DETAIL
  6
Continuous
100
AcDbLine
 10
9.999999999999314
 20
1399.3
 30
0.0
 11
9.999999999999314
 21
1434.3
 31
0.0
  0
LINE
  5
34C
330
70
100
AcDbEntity
  8
DETAIL
  6
Continuous
100
AcDbLine
 10
-10.00000000000068
 20
1399.3
 30
0.0
 11
-10.00000000000068
 21
1434.3
 31
0.0
  0
LINE
  5
34D
330
70
100
AcDbEntity
  8
DETAIL
  6
Continuous
100
AcDbLine
 10
-270.4136884209993
 20
113.5999999999999
 30
0.0
 11
-252.5978076611596
 21
113.5999999999999
 31
0.0
  0
LINE
  5
34E
330
70
100
AcDbEntity
  8
DETAIL
  6
Continuous
100
AcDbLine
 10
-270.4136884209993
 20
86.39999999999997
 30
0.0
 11
-252.5978076611596
 21
86.39999999999997
 31
0.0
  0
LINE
  5
34F
330
70
100
AcDbEntity
  8
DETAIL
  6
Continuous
100
AcDbLine
 10
-12.11269272005938
 20
1449.2
 30
0.0
 11
-13.5999999999999
 21
1432.2
 31
0.0
  0
LINE
  5
350
330
70
100
AcDbEntity
  8
DETAIL
  6
Continuous
100
AcDbLine
 10
-11.10887288251615
 20
1449.2
 30
0.0
 11
-12.59618016245668
 21
1432.2
 31
0.0
  0
LINE
  5
351
330
70
100
AcDbEntity
  8
DETAIL
  6
Continuous
100
AcDbLine
 10
-13.5999999999999
 20
1432.2
 30
0.0
 11
-10.00000000000068
 21
1432.2
 31
0.0
  0
LINE
  5
352
330
70
100
AcDbEntity
  8
DETAIL
  6
Continuous
100
AcDbLine
 10
-12.11269272005938
 20
1449.2
 30
0.0
 11
12.11269272005984
 21
1449.2
 31
0.0
  0
LINE
  5
353
330
70
100
AcDbEntity
  8
DETAIL
  6
Continuous
100
AcDbLine
 10
-13.5999999999999
 20
1399.3
 30
0.0
 11
-13.5999999999999
 21
1432.2
 31
0.0
  0
LINE
  5
354
330
70
100
AcDbEntity
  8
DETAIL
  6
Continuous
100
AcDbLine
 10
11.10887288251615
 20
1449.2
 30
0.0
 11
12.59618016245668
 21
1432.2
 31
0.0
  0
LINE
  5
355
330
70
100
AcDbEntity
  8
DETAIL
  6
Continuous
100
AcDbLine
 10
12.11269272005984
 20
1449.2
 30
0.0
 11
13.5999999999999
 21
1432.2
 31
0.0
  0
LINE
  5
356
330
70
100
AcDbEntity
  8
DETAIL
  6
Continuous
100
AcDbLine
 10
13.5999999999999
 20
1399.3
 30
0.0
 11
13.5999999999999
 21
1432.2
 31
0.0
  0
LINE
  5
357
330
70
100
AcDbEntity
  8
DETAIL
  6
Continuous
100
AcDbLine
 10
9.999999999999314
 20
1434.3
 30
0.0
 11
-10.00000000000068
 21
1434.3
 31
0.0
  0
LINE
  5
358
330
70
100
AcDbEntity
  8
DETAIL
  6
Continuous
100
AcDbLine
 10
9.999999999999314
 20
1432.2
 30
0.0
 11
13.5999999999999
 21
1432.2
 31
0.0
  0
LWPOLYLINE
  5
359
330
70
100
AcDbEntity
  8
DETAIL
  6
Continuous
100
AcDbPolyline
 90
       30
 70
     0
 43
0.0
 10
-273.4100320780123
 20
86.7086358143406
 10
-271.4244746842953
 20
80.83886889483258
 10
-268.7627563207184
 20
75.65727524443056
 10
-265.52047277532
 20
71.34995213588976
 10
-261.8140708723796
 20
68.07159735862725
 10
-257.7766662771559
 20
65.93995323755985
 10
-253.5532626381154
 20
65.03157790985148
 10
-249.2955437714734
 20
65.37909573444071
 10
-245.1564259270752
 20
66.97002558606897
 10
-241.2845657913426
 20
69.74722911570538
 10
-237.8190214727196
 20
73.61096287806621
 10
-234.8842582206681
 20
78.42246062393548
 10
-232.5856782481437
 20
84.00891709902534
 10
-231.0058352042662
 20
90.16969435591615
 10
-230.2014692546454
 20
96.68352767897914
 10
-230.2014692546454
 20
103.3164723210207
 10
-231.0058352042662
 20
109.8303056440837
 10
-232.5856782481437
 20
115.9910829009745
 10
-234.8842582206681
 20
121.5775393760644
 10
-237.8190214727196
 20
126.3890371219337
 10
-241.2845657913426
 20
130.2527708842944
 10
-245.1564259270752
 20
133.0299744139309
 10
-249.2955437714734
 20
134.6209042655592
 10
-253.5532626381154
 20
134.9684220901484
 10
-257.7766662771559
 20
134.06004676244
 10
-261.8140708723796
 20
131.9284026413725
 10
-265.52047277532
 20
128.6500478641102
 10
-268.7627563207184
 20
124.3427247555693
 10
-271.4244746842953
 20
119.1611311051673
 10
-273.4100320780123
 20
113.2913641856593
  0
LWPOLYLINE
  5
379
330
70
100
AcDbEntity
  8
DETAIL
  6
Continuous
100
AcDbPolyline
 90
       18
 70
     0
 43
0.0
 10
-271.060893801733
 20
86.43732301126259
 10
-269.3722527550986
 20
86.49685235141634
 10
-267.7224909034155
 20
87.06048533145184
 10
-266.1731976609456
 20
88.10718023249069
 10
-264.7822117170893
 20
89.59786152020638
 10
-263.6014617847341
 20
91.47687862462827
 10
-262.6750279816557
 20
93.67408350424856
 10
-262.0374962180725
 20
96.10744943417259
 10
-261.7126670248629
 20
98.68613325291216
 10
-261.7126670248629
 20
101.3138667470877
 10
-262.0374962180725
 20
103.8925505658273
 10
-262.6750279816557
 20
106.3259164957513
 10
-263.6014617847341
 20
108.5231213753716
 10
-264.7822117170893
 20
110.4021384797935
 10
-266.1731976609456
 20
111.8928197675092
 10
-267.7224909034155
 20
112.9395146685481
 10
-269.3722527550986
 20
113.5031476485835
 10
-271.0608938017328
 20
113.5626769887372
  0
LWPOLYLINE
  5
38D
330
70
100
AcDbEntity
  8
DETAIL
  6
Continuous
100
AcDbPolyline
 90
       17
 70
     0
 43
0.0
 10
-252.5978076611596
 20
86.39999999999997
 10
-250.8923453332001
 20
86.66132018651598
 10
-249.2524229660699
 20
87.43523835784641
 10
-247.7410618566586
 20
88.69201327268534
 10
-246.4163427648198
 20
90.38334777586291
 10
-245.329173902342
 20
92.44424483093336
 10
-244.5213345589187
 20
94.79550531983473
 10
-244.0238695474763
 20
97.3467716205806
 10
-243.8558961694227
 20
99.99999999999994
 10
-244.0238695474763
 20
102.6532283794193
 10
-244.5213345589187
 20
105.2044946801651
 10
-245.329173902342
 20
107.5557551690665
 10
-246.4163427648198
 20
109.616652224137
 10
-247.7410618566586
 20
111.3079867273145
 10
-249.2524229660699
 20
112.5647616421534
 10
-250.8923453332001
 20
113.3386798134838
 10
-252.5978076611596
 20
113.5999999999999
  0
LWPOLYLINE
  5
3A0
330
70
100
AcDbEntity
  8
DETAIL
  6
Continuous
100
AcDbPolyline
 90
       32
 70
     1
 43
0.0
 10
-283.4364439540228
 20
87.89999999999997
 10
-281.9174924007717
 20
88.13249810712083
 10
-280.4569133038743
 20
88.82105765661334
 10
-279.110835898922
 20
89.93921769113915
 10
-277.9309891856984
 20
91.44400794764273
 10
-276.9627140117268
 20
93.27760018046275
 10
-276.2432206489281
 20
95.36953046838236
 10
-275.800158823738
 20
97.63940710360479
 10
-275.6505551536268
 20
99.99999999999994
 10
-275.800158823738
 20
102.360592896395
 10
-276.2432206489281
 20
104.6304695316175
 10
-276.9627140117268
 20
106.7223998195371
 10
-277.9309891856984
 20
108.5559920523571
 10
-279.110835898922
 20
110.0607823088607
 10
-280.4569133038743
 20
111.1789423433865
 10
-281.9174924007717
 20
111.867501892879
 10
-283.4364439540228
 20
112.0999999999998
 10
-284.9553955072737
 20
111.867501892879
 10
-286.4159746041712
 20
111.1789423433865
 10
-287.7620520091233
 20
110.0607823088607
 10
-288.9418987223469
 20
108.5559920523571
 10
-289.9101738963186
 20
106.7223998195371
 10
-290.6296672591173
 20
104.6304695316175
 10
-291.0727290843074
 20
102.360592896395
 10
-291.2223327544186
 20
99.99999999999994
 10
-291.0727290843074
 20
97.63940710360479
 10
-290.6296672591173
 20
95.36953046838236
 10
-289.9101738963186
 20
93.27760018046275
 10
-288.9418987223469
 20
91.44400794764273
 10
-287.7620520091233
 20
89.93921769113915
 10
-286.4159746041712
 20
88.82105765661334
 10
-284.9553955072737
 20
88.13249810712083
  0
LINE
  5
3C2
330
70
100
AcDbEntity
  8
DETAIL
  6
Continuous
100
AcDbLine
 10
-271.0608938017325
 20
113.5626769887372
 30
0.0
 11
-284.0134717608768
 21
112.0667240818067
 31
0.0
  0
LINE
  5
3C3
330
70
100
AcDbEntity
  8
DETAIL
  6
Continuous
100
AcDbLine
 10
-284.013471760877
 20
87.93327591819318
 30
0.0
 11
-271.0608938017327
 21
86.43732301126259
 31
0.0
  0
LINE
  5
3C4
330
70
100
AcDbEntity
  8
DETAIL
  6
Continuous
100
AcDbLine
 10
-329.9999999999996
 20
1235.699999999998
 30
0.0
 11
-401.0
 21
1235.699999999998
 31
0.0
  0
LINE
  5
3C5
330
70
100
AcDbEntity
  8
DETAIL
  6
Continuous
100
AcDbLine
 10
-401.0
 20
340.6999999999996
 30
0.0
 11
-401.0
 21
1235.699999999998
 31
0.0
  0
LINE
  5
3C6
330
70
100
AcDbEntity
  8
DETAIL
  6
Continuous
100
AcDbLine
 10
-336.9702859856691
 20
1292.091024825969
 30
0.0
 11
-382.4805148013139
 21
1273.240069084738
 31
0.0
  0
ARC
  5
3C7
330
70
100
AcDbEntity
  8
DETAIL
  6
Continuous
100
AcDbCircle
 10
-371.0000152587892
 20
1245.523684692382
 30
0.0
 40
30.00000000000027
100
AcDbArc
 50
112.5000458192801
 51
180.0000186693348
  0
LINE
  5
3C8
330
70
100
AcDbEntity
  8
DETAIL
  6
Continuous
100
AcDbLine
 10
-401.0
 20
1235.699999999998
 30
0.0
 11
-401.0
 21
1245.523684692382
 31
0.0
  0
ARC
  5
3C9
330
70
100
AcDbEntity
  8
DETAIL
  6
Continuous
100
AcDbCircle
 10
-333.9088134765626
 20
1284.699969482421
 30
0.0
 40
7.999999999999937
100
AcDbArc
 50
90.0
 51
112.5001004607928
  0
LINE
  5
3CA
330
70
100
AcDbEntity
  8
DETAIL
  6
Continuous
100
AcDbLine
 10
-329.9999999999996
 20
1292.699999999999
 30
0.0
 11
-333.9088134765626
 21
1292.699999999999
 31
0.0
  0
ARC
  5
3CB
330
70
100
AcDbEntity
  8
DETAIL
  6
Continuous
100
AcDbCircle
 10
-323.4000000000001
 20
1383.106114346954
 30
0.0
 40
6.599999999999636
100
AcDbArc
 50
93.97220103892088
 51
180.0
  0
ARC
  5
3CC
330
70
100
AcDbEntity
  8
DETAIL
  6
Continuous
100
AcDbCircle
 10
323.4000000000001
 20
1383.106114346954
 30
0.0
 40
6.599999999999909
100
AcDbArc
 50
0.0
 51
86.02779896107914
  0
ARC
  5
3CD
330
70
100
AcDbEntity
  8
DETAIL
  6
Continuous
100
AcDbCircle
 10
46.72577864188521
 20
-2601.299409095142
 30
0.0
 40
4000.599999999999
100
AcDbArc
 50
86.02779896107938
 51
90.03114109293591
  0
LINE
  5
3CE
330
70
100
AcDbEntity
  8
DETAIL
  6
Continuous
100
AcDbLine
 10
325.679425479586
 20
1389.3
 30
0.0
 11
-325.6794254795914
 21
1389.3
 31
0.0
  0
LINE
  5
3CF
330
70
100
AcDbEntity
  8
DETAIL
  6
Continuous
100
AcDbLine
 10
44.55139422257274
 20
1399.3
 30
0.0
 11
-48.90016306098051
 21
1399.3
 31
0.0
  0
LINE
  5
3D0
330
70
100
AcDbEntity
  8
DETAIL
  6
Continuous
100
AcDbLine
 10
330.0
 20
1363.7
 30
0.0
 11
-330.0
 21
1363.7
 31
0.0
  0
ARC
  5
3D1
330
70
100
AcDbEntity
  8
DETAIL
  6
Continuous
100
AcDbCircle
 10
-46.72577864188565
 20
-2601.299409095142
 30
0.0
 40
4000.6
100
AcDbArc
 50
90.0311410929328
 51
93.97220103892056
  0
LINE
  5
3D2
330
70
100
AcDbEntity
  8
DETAIL
  6
Continuous
100
AcDbLine
 10
330.0
 20
39.9999999999997
 30
0.0
 11
330.0
 21
1383.106114346954
 31
0.0
  0
LINE
  5
3D3
330
70
100
AcDbEntity
  8
DETAIL
  6
Continuous
100
AcDbLine
 10
-330.0
 20
39.99999999999983
 30
0.0
 11
-329.9999999999997
 21
1383.106114346954
 31
0.0
  0
LINE
  5
3D4
330
70
100
AcDbEntity
  8
DETAIL
  6
Continuous
100
AcDbLine
 10
-91.90391663819807
 20
3.199999999999743
 30
0.0
 11
-91.90391663819807
 21
7.999999999999926
 31
0.0
  0
LINE
  5
3D5
330
70
100
AcDbEntity
  8
DETAIL
  6
Continuous
100
AcDbLine
 10
-91.90391663819807
 20
7.999999999999926
 30
0.0
 11
-215.5003699510793
 21
7.999999999999943
 31
0.0
  0
ARC
  5
3D6
330
70
100
AcDbEntity
  8
DETAIL
  6
Continuous
100
AcDbCircle
 10
-95.10391663819879
 20
3.199999999999743
 30
0.0
 40
3.199999999999818
100
AcDbArc
 50
270.0
 51
0.0
  0
LINE
  5
3D7
330
70
100
AcDbEntity
  8
DETAIL
  6
Continuous
100
AcDbLine
 10
-95.10391663819879
 20
-0.000000000000074
 30
0.0
 11
-212.3003699510786
 21
-0.000000000000059
 31
0.0
  0
LINE
  5
3D8
330
70
100
AcDbEntity
  8
DETAIL
  6
Continuous
100
AcDbLine
 10
-215.5003699510793
 20
3.199999999999758
 30
0.0
 11
-215.5003699510793
 21
7.999999999999943
 31
0.0
  0
ARC
  5
3D9
330
70
100
AcDbEntity
  8
DETAIL
  6
Continuous
100
AcDbCircle
 10
-212.3003699510786
 20
3.199999999999758
 30
0.0
 40
3.200000000000727
100
AcDbArc
 50
180.0
 51
270.0
  0
ARC
  5
3DA
330
70
100
AcDbEntity
  8
DETAIL
  6
Continuous
100
AcDbCircle
 10
-118.3668224555583
 20
29.99999999999993
 30
0.0
 40
9.999999999999511
100
AcDbArc
 50
4.467159061389331
 51
90.0
  0
LINE
  5
3DB
330
70
100
AcDbEntity
  8
DETAIL
  6
Continuous
100
AcDbLine
 10
-131.3716050588195
 20
32.2000190082462
 30
0.0
 11
-136.5136394675523
 21
9.399980991753112
 31
0.0
  0
LINE
  5
3DC
330
70
100
AcDbEntity
  8
DETAIL
  6
Continuous
100
AcDbLine
 10
-106.6176013019938
 20
7.999999999999926
 30
0.0
 11
-108.3972010420664
 21
30.778876672929
 31
0.0
  0
LINE
  5
3DD
330
70
100
AcDbEntity
  8
DETAIL
  6
Continuous
100
AcDbLine
 10
-186.1369768631801
 20
32.20001900824623
 30
0.0
 11
-191.2790112719129
 21
9.399980991753119
 31
0.0
  0
ARC
  5
3DE
330
70
100
AcDbEntity
  8
DETAIL
  6
Continuous
100
AcDbCircle
 10
-121.6166106270752
 20
29.99999999999993
 30
0.0
 40
10.0
100
AcDbArc
 50
90.0
 51
167.2908553610464
  0
ARC
  5
3DF
330
70
100
AcDbEntity
  8
DETAIL
  6
Continuous
100
AcDbCircle
 10
-176.3819824314358
 20
29.99999999999993
 30
0.0
 40
10.0
100
AcDbArc
 50
90.0
 51
167.2908553610463
  0
ARC
  5
3E0
330
70
100
AcDbEntity
  8
DETAIL
  6
Continuous
100
AcDbCircle
 10
-146.2686338992966
 20
11.59999999999938
 30
0.0
 40
9.999999999999927
100
AcDbArc
 50
338.8998039759102
 51
347.2908553610462
  0
ARC
  5
3E1
330
70
100
AcDbEntity
  8
DETAIL
  6
Continuous
100
AcDbCircle
 10
-146.2686338992966
 20
11.59999999999938
 30
0.0
 40
9.999999999999927
100
AcDbArc
 50
338.8998039759102
 51
347.2908553610462
  0
ARC
  5
3E2
330
70
100
AcDbEntity
  8
DETAIL
  6
Continuous
100
AcDbCircle
 10
-201.0340057036564
 20
11.59999999999939
 30
0.0
 40
9.999999999999927
100
AcDbArc
 50
338.8998039759102
 51
347.2908553610452
  0
LINE
  5
3E3
330
70
100
AcDbEntity
  8
DETAIL
  6
Continuous
100
AcDbLine
 10
-330.0
 20
39.99999999999992
 30
0.0
 11
330.0
 21
39.99999999999992
 31
0.0
  0
ARC
  5
3E4
330
70
100
AcDbEntity
  8
DETAIL
  6
Continuous
100
AcDbCircle
 10
276.0588342129381
 20
30.0
 30
0.0
 40
10.0
100
AcDbArc
 50
90.0
 51
171.1193408494797
  0
ARC
  5
3E5
330
70
100
AcDbEntity
  8
DETAIL
  6
Continuous
100
AcDbCircle
 10
316.7706443229648
 20
30.0
 30
0.0
 40
9.999999999999943
100
AcDbArc
 50
14.59657552549418
 51
90.0
  0
LINE
  5
3E6
330
70
100
AcDbEntity
  8
DETAIL
  6
Continuous
100
AcDbLine
 10
326.4478866682093
 20
32.52011519407413
 30
0.0
 11
332.0312799984563
 21
11.07988480592587
 31
0.0
  0
ARC
  5
3E7
330
70
100
AcDbEntity
  8
DETAIL
  6
Continuous
100
AcDbCircle
 10
253.5999999999994
 20
3.599999999999993
 30
0.0
 40
3.599999999999908
100
AcDbArc
 50
180.0
 51
270.0
  0
LINE
  5
3E8
330
70
100
AcDbEntity
  8
DETAIL
  6
Continuous
100
AcDbLine
 10
249.9999999999996
 20
8.0
 30
0.0
 11
249.9999999999996
 21
3.599999999999993
 31
0.0
  0
LINE
  5
3E9
330
70
100
AcDbEntity
  8
DETAIL
  6
Continuous
100
AcDbLine
 10
368.9999999999996
 20
8.0
 30
0.0
 11
249.9999999999996
 21
8.0
 31
0.0
  0
LINE
  5
3EA
330
70
100
AcDbEntity
  8
DETAIL
  6
Continuous
100
AcDbLine
 10
368.9999999999996
 20
8.0
 30
0.0
 11
368.9999999999996
 21
3.199999999999988
 31
0.0
  0
ARC
  5
3EB
330
70
100
AcDbEntity
  8
DETAIL
  6
Continuous
100
AcDbCircle
 10
365.7999999999995
 20
3.199999999999988
 30
0.0
 40
3.199999999999988
100
AcDbArc
 50
270.0
 51
0.0
  0
LINE
  5
3EC
330
70
100
AcDbEntity
  8
DETAIL
  6
Continuous
100
AcDbLine
 10
253.5999999999994
 20
0.0
 30
0.0
 11
365.7999999999995
 21
0.0
 31
0.0
  0
ARC
  5
3ED
330
70
100
AcDbEntity
  8
DETAIL
  6
Continuous
100
AcDbCircle
 10
341.7085223437009
 20
13.59999999999999
 30
0.0
 40
9.999999999999943
100
AcDbArc
 50
194.596575525494
 51
214.0557977425681
  0
LINE
  5
3EE
330
70
100
AcDbEntity
  8
DETAIL
  6
Continuous
100
AcDbLine
 10
266.1787138754271
 20
31.54376880273611
 30
0.0
 11
262.4999999999996
 21
8.0
 31
0.0
  0
ARC
  5
3EF
330
70
100
AcDbEntity
  8
DETAIL
  6
Continuous
100
AcDbCircle
 10
-332.7843659290929
 20
208.6999999999996
 30
0.0
 40
7.999999999999857
100
AcDbArc
 50
232.5000000000011
 51
270.0
  0
ARC
  5
3F0
330
70
100
AcDbEntity
  8
DETAIL
  6
Continuous
100
AcDbCircle
 10
-371.0000000000002
 20
265.7542804935605
 30
0.0
 40
30.0
100
AcDbArc
 50
180.0
 51
232.5000000000002
  0
LINE
  5
3F1
330
70
100
AcDbEntity
  8
DETAIL
  6
Continuous
100
AcDbLine
 10
-337.6544573611628
 20
202.3531732776697
 30
0.0
 11
-389.2628428702616
 21
241.9536802848234
 31
0.0
  0
LINE
  5
3F2
330
70
100
AcDbEntity
  8
DETAIL
  6
Continuous
100
AcDbLine
 10
-401.0
 20
340.6999999999996
 30
0.0
 11
-401.0
 21
265.7542804935605
 31
0.0
  0
LINE
  5
3F3
330
70
100
AcDbEntity
  8
DETAIL
  6
Continuous
100
AcDbLine
 10
-329.9999999999997
 20
200.6999999999996
 30
0.0
 11
-332.7843659290929
 21
200.6999999999996
 31
0.0
  0
LINE
  5
3F4
330
70
100
AcDbEntity
  8
DETAIL
  6
Continuous
100
AcDbLine
 10
-329.9999999999996
 20
1235.699999999998
 30
0.0
 11
-401.0
 21
1235.699999999998
 31
0.0
  0
LINE
  5
3F5
330
70
100
AcDbEntity
  8
DETAIL
  6
Continuous
100
AcDbLine
 10
-284.013471760877
 20
87.93327591819318
 30
0.0
 11
-271.0608938017327
 21
86.43732301126259
 31
0.0
  0
LINE
  5
3F6
330
70
100
AcDbEntity
  8
DETAIL
  6
Continuous
100
AcDbLine
 10
-271.0608938017325
 20
113.5626769887372
 30
0.0
 11
-284.0134717608768
 21
112.0667240818067
 31
0.0
  0
LWPOLYLINE
  5
3F7
330
70
100
AcDbEntity
  8
DETAIL
  6
Continuous
100
AcDbPolyline
 90
       32
 70
     1
 43
0.0
 10
-283.4364439540228
 20
87.89999999999997
 10
-281.9174924007717
 20
88.13249810712083
 10
-280.4569133038743
 20
88.82105765661334
 10
-279.110835898922
 20
89.93921769113915
 10
-277.9309891856984
 20
91.44400794764273
 10
-276.9627140117268
 20
93.27760018046275
 10
-276.2432206489281
 20
95.36953046838236
 10
-275.800158823738
 20
97.63940710360479
 10
-275.6505551536268
 20
99.99999999999994
 10
-275.800158823738
 20
102.360592896395
 10
-276.2432206489281
 20
104.6304695316175
 10
-276.9627140117268
 20
106.7223998195371
 10
-277.9309891856984
 20
108.5559920523571
 10
-279.110835898922
 20
110.0607823088607
 10
-280.4569133038743
 20
111.1789423433865
 10
-281.9174924007717
 20
111.867501892879
 10
-283.4364439540228
 20
112.0999999999998
 10
-284.9553955072737
 20
111.867501892879
 10
-286.4159746041712
 20
111.1789423433865
 10
-287.7620520091233
 20
110.0607823088607
 10
-288.9418987223469
 20
108.5559920523571
 10
-289.9101738963186
 20
106.7223998195371
 10
-290.6296672591173
 20
104.6304695316175
 10
-291.0727290843074
 20
102.360592896395
 10
-291.2223327544186
 20
99.99999999999994
 10
-291.0727290843074
 20
97.63940710360479
 10
-290.6296672591173
 20
95.36953046838236
 10
-289.9101738963186
 20
93.27760018046275
 10
-288.9418987223469
 20
91.44400794764273
 10
-287.7620520091233
 20
89.93921769113915
 10
-286.4159746041712
 20
88.82105765661334
 10
-284.9553955072737
 20
88.13249810712083
  0
LWPOLYLINE
  5
419
330
70
100
AcDbEntity
  8
DETAIL
  6
Continuous
100
AcDbPolyline
 90
       17
 70
     0
 43
0.0
 10
-252.5978076611596
 20
86.39999999999997
 10
-250.8923453332001
 20
86.66132018651598
 10
-249.2524229660699
 20
87.43523835784641
 10
-247.7410618566586
 20
88.69201327268534
 10
-246.4163427648198
 20
90.38334777586291
 10
-245.329173902342
 20
92.44424483093336
 10
-244.5213345589187
 20
94.79550531983473
 10
-244.0238695474763
 20
97.3467716205806
 10
-243.8558961694227
 20
99.99999999999994
 10
-244.0238695474763
 20
102.6532283794193
 10
-244.5213345589187
 20
105.2044946801651
 10
-245.329173902342
 20
107.5557551690665
 10
-246.4163427648198
 20
109.616652224137
 10
-247.7410618566586
 20
111.3079867273145
 10
-249.2524229660699
 20
112.5647616421534
 10
-250.8923453332001
 20
113.3386798134838
 10
-252.5978076611596
 20
113.5999999999999
  0
LWPOLYLINE
  5
42C
330
70
100
AcDbEntity
  8
DETAIL
  6
Continuous
100
AcDbPolyline
 90
       18
 70
     0
 43
0.0
 10
-271.060893801733
 20
86.43732301126259
 10
-269.3722527550986
 20
86.49685235141634
 10
-267.7224909034155
 20
87.06048533145184
 10
-266.1731976609456
 20
88.10718023249069
 10
-264.7822117170893
 20
89.59786152020638
 10
-263.6014617847341
 20
91.47687862462827
 10
-262.6750279816557
 20
93.67408350424856
 10
-262.0374962180725
 20
96.10744943417259
 10
-261.7126670248629
 20
98.68613325291216
 10
-261.7126670248629
 20
101.3138667470877
 10
-262.0374962180725
 20
103.8925505658273
 10
-262.6750279816557
 20
106.3259164957513
 10
-263.6014617847341
 20
108.5231213753716
 10
-264.7822117170893
 20
110.4021384797935
 10
-266.1731976609456
 20
111.8928197675092
 10
-267.7224909034155
 20
112.9395146685481
 10
-269.3722527550986
 20
113.5031476485835
 10
-271.0608938017328
 20
113.5626769887372
  0
LWPOLYLINE
  5
440
330
70
100
AcDbEntity
  8
DETAIL
  6
Continuous
100
AcDbPolyline
 90
       30
 70
     0
 43
0.0
 10
-273.4100320780123
 20
86.7086358143406
 10
-271.4244746842953
 20
80.83886889483258
 10
-268.7627563207184
 20
75.65727524443056
 10
-265.52047277532
 20
71.34995213588976
 10
-261.8140708723796
 20
68.07159735862725
 10
-257.7766662771559
 20
65.93995323755985
 10
-253.5532626381154
 20
65.03157790985148
 10
-249.2955437714734
 20
65.37909573444071
 10
-245.1564259270752
 20
66.97002558606897
 10
-241.2845657913426
 20
69.74722911570538
 10
-237.8190214727196
 20
73.61096287806621
 10
-234.8842582206681
 20
78.42246062393548
 10
-232.5856782481437
 20
84.00891709902534
 10
-231.0058352042662
 20
90.16969435591615
 10
-230.2014692546454
 20
96.68352767897914
 10
-230.2014692546454
 20
103.3164723210207
 10
-231.0058352042662
 20
109.8303056440837
 10
-232.5856782481437
 20
115.9910829009745
 10
-234.8842582206681
 20
121.5775393760644
 10
-237.8190214727196
 20
126.3890371219337
 10
-241.2845657913426
 20
130.2527708842944
 10
-245.1564259270752
 20
133.0299744139309
 10
-249.2955437714734
 20
134.6209042655592
 10
-253.5532626381154
 20
134.9684220901484
 10
-257.7766662771559
 20
134.06004676244
 10
-261.8140708723796
 20
131.9284026413725
 10
-265.52047277532
 20
128.6500478641102
 10
-268.7627563207184
 20
124.3427247555693
 10
-271.4244746842953
 20
119.1611311051673
 10
-273.4100320780123
 20
113.2913641856593
  0
LINE
  5
460
330
70
100
AcDbEntity
  8
DETAIL
  6
Continuous
100
AcDbLine
 10
9.999999999999314
 20
1432.2
 30
0.0
 11
13.5999999999999
 21
1432.2
 31
0.0
  0
LINE
  5
461
330
70
100
AcDbEntity
  8
DETAIL
  6
Continuous
100
AcDbLine
 10
9.999999999999314
 20
1434.3
 30
0.0
 11
-10.00000000000068
 21
1434.3
 31
0.0
  0
LINE
  5
462
330
70
100
AcDbEntity
  8
DETAIL
  6
Continuous
100
AcDbLine
 10
13.5999999999999
 20
1399.3
 30
0.0
 11
13.5999999999999
 21
1432.2
 31
0.0
  0
LINE
  5
463
330
70
100
AcDbEntity
  8
DETAIL
  6
Continuous
100
AcDbLine
 10
12.11269272005984
 20
1449.2
 30
0.0
 11
13.5999999999999
 21
1432.2
 31
0.0
  0
LINE
  5
464
330
70
100
AcDbEntity
  8
DETAIL
  6
Continuous
100
AcDbLine
 10
11.10887288251615
 20
1449.2
 30
0.0
 11
12.59618016245668
 21
1432.2
 31
0.0
  0
LINE
  5
465
330
70
100
AcDbEntity
  8
DETAIL
  6
Continuous
100
AcDbLine
 10
-13.5999999999999
 20
1399.3
 30
0.0
 11
-13.5999999999999
 21
1432.2
 31
0.0
  0
LINE
  5
466
330
70
100
AcDbEntity
  8
DETAIL
  6
Continuous
100
AcDbLine
 10
-12.11269272005938
 20
1449.2
 30
0.0
 11
12.11269272005984
 21
1449.2
 31
0.0
  0
LINE
  5
467
330
70
100
AcDbEntity
  8
DETAIL
  6
Continuous
100
AcDbLine
 10
-13.5999999999999
 20
1432.2
 30
0.0
 11
-10.00000000000068
 21
1432.2
 31
0.0
  0
LINE
  5
468
330
70
100
AcDbEntity
  8
DETAIL
  6
Continuous
100
AcDbLine
 10
-11.10887288251615
 20
1449.2
 30
0.0
 11
-12.59618016245668
 21
1432.2
 31
0.0
  0
LINE
  5
469
330
70
100
AcDbEntity
  8
DETAIL
  6
Continuous
100
AcDbLine
 10
-12.11269272005938
 20
1449.2
 30
0.0
 11
-13.5999999999999
 21
1432.2
 31
0.0
  0
LINE
  5
46A
330
70
100
AcDbEntity
  8
DETAIL
  6
Continuous
100
AcDbLine
 10
-270.4136884209993
 20
86.39999999999997
 30
0.0
 11
-252.5978076611596
 21
86.39999999999997
 31
0.0
  0
LINE
  5
46B
330
70
100
AcDbEntity
  8
DETAIL
  6
Continuous
100
AcDbLine
 10
-270.4136884209993
 20
113.5999999999999
 30
0.0
 11
-252.5978076611596
 21
113.5999999999999
 31
0.0
  0
LINE
  5
46C
330
70
100
AcDbEntity
  8
DETAIL
  6
Continuous
100
AcDbLine
 10
-10.00000000000068
 20
1399.3
 30
0.0
 11
-10.00000000000068
 21
1434.3
 31
0.0
  0
LINE
  5
46D
330
70
100
AcDbEntity
  8
DETAIL
  6
Continuous
100
AcDbLine
 10
9.999999999999314
 20
1399.3
 30
0.0
 11
9.999999999999314
 21
1434.3
 31
0.0
  0
LINE
  5
46E
330
70
100
AcDbEntity
  8
DETAIL
  6
Continuous
100
AcDbLine
 10
-411.0
 20
715.249999999999
 30
0.0
 11
-415.9999999999997
 21
715.249999999999
 31
0.0
  0
LINE
  5
46F
330
70
100
AcDbEntity
  8
DETAIL
  6
Continuous
100
AcDbLine
 10
-411.0
 20
698.749999999999
 30
0.0
 11
-415.9999999999997
 21
698.749999999999
 31
0.0
  0
LINE
  5
470
330
70
100
AcDbEntity
  8
DETAIL
  6
Continuous
100
AcDbLine
 10
-415.9999999999997
 20
698.749999999999
 30
0.0
 11
-415.9999999999997
 21
715.249999999999
 31
0.0
  0
LINE
  5
471
330
70
100
AcDbEntity
  8
DETAIL
  6
Continuous
100
AcDbLine
 10
-401.0
 20
691.499999999999
 30
0.0
 11
-409.7941742027072
 21
693.2588348405397
 31
0.0
  0
LINE
  5
472
330
70
100
AcDbEntity
  8
DETAIL
  6
Continuous
100
AcDbLine
 10
-401.0
 20
885.9999999999985
 30
0.0
 11
-409.7941742027074
 21
884.2411651594572
 31
0.0
  0
LINE
  5
473
330
70
100
AcDbEntity
  8
DETAIL
  6
Continuous
100
AcDbLine
 10
-411.0
 20
694.7297058540764
 30
0.0
 11
-411.0
 21
882.7702941459206
 31
0.0
  0
ARC
  5
474
330
70
100
AcDbEntity
  8
DETAIL
  6
Continuous
100
AcDbCircle
 10
-409.4999999999997
 20
694.7297058540764
 30
0.0
 40
1.5
100
AcDbArc
 50
180.0
 51
258.690067525984
  0
ARC
  5
475
330
70
100
AcDbEntity
  8
DETAIL
  6
Continuous
100
AcDbCircle
 10
-409.4999999999997
 20
882.7702941459206
 30
0.0
 40
1.499999999999958
100
AcDbArc
 50
101.3099324740202
 51
180.0
  0
LINE
  5
476
330
70
100
AcDbEntity
  8
DETAIL
  6
Continuous
100
AcDbLine
 10
-401.0
 20
340.6999999999996
 30
0.0
 11
-329.9999999999997
 21
340.6999999999996
 31
0.0
  0
LINE
  5
477
330
70
100
AcDbEntity
  8
DETAIL
  6
Continuous
100
AcDbLine
 10
-269.0000000000007
 20
37.99999999999992
 30
0.0
 11
-269.0000000000007
 21
25.99999999999992
 31
0.0
  0
LINE
  5
478
330
70
100
AcDbEntity
  8
DETAIL
  6
Continuous
100
AcDbLine
 10
-269.0000000000007
 20
25.99999999999992
 30
0.0
 11
-251.0000000000007
 21
25.99999999999992
 31
0.0
  0
LINE
  5
479
330
70
100
AcDbEntity
  8
DETAIL
  6
Continuous
100
AcDbLine
 10
-268.0000000000007
 20
22.99999999999991
 30
0.0
 11
-252.0000000000008
 21
22.99999999999991
 31
0.0
  0
LINE
  5
47A
330
70
100
AcDbEntity
  8
DETAIL
  6
Continuous
100
AcDbLine
 10
-269.0000000000007
 20
25.99999999999992
 30
0.0
 11
-268.0000000000007
 21
22.99999999999991
 31
0.0
  0
LINE
  5
47B
330
70
100
AcDbEntity
  8
DETAIL
  6
Continuous
100
AcDbLine
 10
-251.0000000000007
 20
25.99999999999992
 30
0.0
 11
-252.0000000000008
 21
22.99999999999991
 31
0.0
  0
LINE
  5
47C
330
70
100
AcDbEntity
  8
DETAIL
  6
Continuous
100
AcDbLine
 10
-251.0000000000007
 20
37.99999999999992
 30
0.0
 11
-251.0000000000007
 21
25.99999999999992
 31
0.0
  0
LINE
  5
47D
330
70
100
AcDbEntity
  8
DETAIL
  6
Continuous
100
AcDbLine
 10
-280.0000000000007
 20
39.99999999999992
 30
0.0
 11
-280.0000000000007
 21
37.99999999999992
 31
0.0
  0
LINE
  5
47E
330
70
100
AcDbEntity
  8
DETAIL
  6
Continuous
100
AcDbLine
 10
-240.0000000000007
 20
39.99999999999992
 30
0.0
 11
-240.0000000000007
 21
37.99999999999992
 31
0.0
  0
LINE
  5
47F
330
70
100
AcDbEntity
  8
DETAIL
  6
Continuous
100
AcDbLine
 10
-280.0000000000007
 20
37.99999999999992
 30
0.0
 11
-240.0000000000007
 21
37.99999999999992
 31
0.0
  0
LINE
  5
480
330
70
100
AcDbEntity
  8
DETAIL
  6
Continuous
100
AcDbLine
 10
-223.0000000000009
 20
31.999999999999
 30
0.0
 11
-186.1799414025687
 21
31.999999999999
 31
0.0
  0
LINE
  5
481
330
70
100
AcDbEntity
  8
DETAIL
  6
Continuous
100
AcDbLine
 10
-233.0000000000008
 20
39.99999999999992
 30
0.0
 11
-223.0000000000009
 21
31.999999999999
 31
0.0
  0
LINE
  5
482
330
70
100
AcDbEntity
  8
BASIS
  6
DASHDOT
100
AcDbLine
 10
0.0
 20
-42.21389499253027
 30
0.0
 11
0.0
 21
1499.966692366566
 31
0.0
  0
LINE
  5
483
330
70
100
AcDbEntity
  8
SIZE
  6
Continuous
 62
    30
100
AcDbLine
 10
340.0
 20
1399.300048828125
 30
0.0
 11
490.1000000238417
 21
1399.300048828125
 31
0.0
  0
LINE
  5
484
330
70
100
AcDbEntity
  8
SIZE
  6
Continuous
 62
    30
100
AcDbLine
 10
340.0
 20
1899.300048828125
 30
0.0
 11
490.1000000238417
 21
1899.300048828125
 31
0.0
  0
LINE
  5
485
330
70
100
AcDbEntity
  8
SIZE
  6
Continuous
 62
    30
100
AcDbLine
 10
477.6000000238417
 20
1409.300048828125
 30
0.0
 11
477.6000000238417
 21
1889.300048828125
 31
0.0
  0
CIRCLE
  5
486
330
70
100
AcDbEntity
  8
SIZE
  6
Continuous
 62
    30
100
AcDbCircle
 10
477.6000000238417
 20
1399.300048828125
 30
0.0
 40
5.0
  0
LINE
  5
487
330
70
100
AcDbEntity
  8
SIZE
  6
Continuous
 62
    30
100
AcDbLine
 10
477.6000000238417
 20
1399.300048828125
 30
0.0
 11
477.6000000238417
 21
1409.300048828125
 31
0.0
  0
CIRCLE
  5
488
330
70
100
AcDbEntity
  8
SIZE
  6
Continuous
 62
    30
100
AcDbCircle
 10
477.6000000238417
 20
1899.300048828125
 30
0.0
 40
5.0
  0
LINE
  5
489
330
70
100
AcDbEntity
  8
SIZE
  6
Continuous
 62
    30
100
AcDbLine
 10
477.6000000238417
 20
1899.300048828125
 30
0.0
 11
477.6000000238417
 21
1889.300048828125
 31
0.0
  0
TEXT
  5
48A
330
70
100
AcDbEntity
  8
SIZE
  6
Continuous
 62
    30
100
AcDbText
 10
467.6000000238416
 20
1616.297363158858
 30
0.0
 40
30.0
  1
500
 50
90.0
 72
     1
 11
467.6000000238416
 21
1651.297363158858
 31
0.0
100
AcDbText
  0
POINT
  5
48B
330
70
100
AcDbEntity
  8
DEFPOINTS
  6
Continuous
 62
    30
100
AcDbPoint
 10
330.0
 20
1399.300048828125
 30
0.0
  0
POINT
  5
48C
330
70
100
AcDbEntity
  8
DEFPOINTS
  6
Continuous
 62
    30
100
AcDbPoint
 10
330.0
 20
1899.300048828125
 30
0.0
  0
POINT
  5
48D
330
70
100
AcDbEntity
  8
DEFPOINTS
  6
Continuous
 62
    30
100
AcDbPoint
 10
477.6000000238417
 20
1899.300048828125
 30
0.0
  0
LINE
  5
48E
330
70
100
AcDbEntity
  8
SIZE
  6
Continuous
 62
    30
100
AcDbLine
 10
-330.0
 20
30.0
 30
0.0
 11
-330.0
 21
-362.5
 31
0.0
  0
LINE
  5
48F
330
70
100
AcDbEntity
  8
SIZE
  6
Continuous
 62
    30
100
AcDbLine
 10
330.0
 20
30.0
 30
0.0
 11
330.0
 21
-362.5
 31
0.0
  0
LINE
  5
490
330
70
100
AcDbEntity
  8
SIZE
  6
Continuous
 62
    30
100
AcDbLine
 10
-320.0
 20
-350.0
 30
0.0
 11
320.0
 21
-350.0
 31
0.0
  0
CIRCLE
  5
491
330
70
100
AcDbEntity
  8
SIZE
  6
Continuous
 62
    30
100
AcDbCircle
 10
-330.0
 20
-350.0
 30
0.0
 40
5.0
  0
LINE
  5
492
330
70
100
AcDbEntity
  8
SIZE
  6
Continuous
 62
    30
100
AcDbLine
 10
-330.0
 20
-350.0
 30
0.0
 11
-320.0
 21
-350.0
 31
0.0
  0
CIRCLE
  5
493
330
70
100
AcDbEntity
  8
SIZE
  6
Continuous
 62
    30
100
AcDbCircle
 10
330.0
 20
-350.0
 30
0.0
 40
5.0
  0
LINE
  5
494
330
70
100
AcDbEntity
  8
SIZE
  6
Continuous
 62
    30
100
AcDbLine
 10
330.0
 20
-350.0
 30
0.0
 11
320.0
 21
-350.0
 31
0.0
  0
TEXT
  5
495
330
70
100
AcDbEntity
  8
SIZE
  6
Continuous
 62
    30
100
AcDbText
 10
-37.5
 20
-340.0
 30
0.0
 40
30.0
  1
660
 72
     1
 11
0.0
 21
-340.0
 31
0.0
100
AcDbText
  0
POINT
  5
496
330
70
100
AcDbEntity
  8
DEFPOINTS
  6
Continuous
 62
    30
100
AcDbPoint
 10
-330.0
 20
40.0
 30
0.0
  0
POINT
  5
497
330
70
100
AcDbEntity
  8
DEFPOINTS
  6
Continuous
 62
    30
100
AcDbPoint
 10
330.0
 20
40.0
 30
0.0
  0
POINT
  5
498
330
70
100
AcDbEntity
  8
DEFPOINTS
  6
Continuous
 62
    30
100
AcDbPoint
 10
330.0
 20
-350.0
 30
0.0
  0
LINE
  5
499
330
70
100
AcDbEntity
  8
SIZE
  6
Continuous
 62
    30
100
AcDbLine
 10
-401.0
 20
-10.00000000000005
 30
0.0
 11
-401.0
 21
-460.1000000238418
 31
0.0
  0
LINE
  5
49A
330
70
100
AcDbEntity
  8
SIZE
  6
Continuous
 62
    30
100
AcDbLine
 10
-0.0000000000000006
 20
-52.21389389038085
 30
0.0
 11
-0.0000000000000256
 21
-460.1000000238418
 31
0.0
  0
LINE
  5
49B
330
70
100
AcDbEntity
  8
SIZE
  6
Continuous
 62
    30
100
AcDbLine
 10
-391.0
 20
-447.6000000238418
 30
0.0
 11
-10.00000000000002
 21
-447.6000000238418
 31
0.0
  0
CIRCLE
  5
49C
330
70
100
AcDbEntity
  8
SIZE
  6
Continuous
 62
    30
100
AcDbCircle
 10
-401.0
 20
-447.6000000238418
 30
0.0
 40
5.0
  0
LINE
  5
49D
330
70
100
AcDbEntity
  8
SIZE
  6
Continuous
 62
    30
100
AcDbLine
 10
-401.0
 20
-447.6000000238418
 30
0.0
 11
-391.0
 21
-447.6000000238418
 31
0.0
  0
CIRCLE
  5
49E
330
70
100
AcDbEntity
  8
SIZE
  6
Continuous
 62
    30
100
AcDbCircle
 10
-0.0000000000000248
 20
-447.6000000238418
 30
0.0
 40
5.0
  0
LINE
  5
49F
330
70
100
AcDbEntity
  8
SIZE
  6
Continuous
 62
    30
100
AcDbLine
 10
-0.0000000000000248
 20
-447.6000000238418
 30
0.0
 11
-10.00000000000002
 21
-447.6000000238418
 31
0.0
  0
TEXT
  5
4A0
330
70
100
AcDbEntity
  8
SIZE
  6
Continuous
 62
    30
100
AcDbText
 10
-235.1215668336569
 20
-437.6000000238418
 30
0.0
 40
30.0
  1
401
 72
     1
 11
-202.6215668336569
 21
-437.6000000238418
 31
0.0
100
AcDbText
  0
POINT
  5
4A1
330
70
100
AcDbEntity
  8
DEFPOINTS
  6
Continuous
 62
    30
100
AcDbPoint
 10
-401.0
 20
-0.000000000000057
 30
0.0
  0
POINT
  5
4A2
330
70
100
AcDbEntity
  8
DEFPOINTS
  6
Continuous
 62
    30
100
AcDbPoint
 10
0.0
 20
-42.21389389038085
 30
0.0
  0
POINT
  5
4A3
330
70
100
AcDbEntity
  8
DEFPOINTS
  6
Continuous
 62
    30
100
AcDbPoint
 10
-0.0000000000000248
 20
-447.6000000238418
 30
0.0
  0
LINE
  5
4A4
330
70
100
AcDbEntity
  8
SIZE
  6
Continuous
 62
    30
100
AcDbLine
 10
340.0
 20
40.0
 30
0.0
 11
490.0999998524932
 21
39.99999999999996
 31
0.0
  0
LINE
  5
4A5
330
70
100
AcDbEntity
  8
SIZE
  6
Continuous
 62
    30
100
AcDbLine
 10
375.7999877929688
 20
-0.0000000000000028
 30
0.0
 11
490.0999998524932
 21
-0.0000000000000352
 31
0.0
  0
LINE
  5
4A6
330
70
100
AcDbEntity
  8
SIZE
  6
Continuous
 62
    30
100
AcDbLine
 10
477.5999998524932
 20
49.99999999999996
 30
0.0
 11
477.5999998524932
 21
59.99999999999996
 31
0.0
  0
LINE
  5
4A7
330
70
100
AcDbEntity
  8
SIZE
  6
Continuous
 62
    30
100
AcDbLine
 10
477.5999998524932
 20
-10.00000000000003
 30
0.0
 11
477.5999998524932
 21
-99.73892140706757
 31
0.0
  0
LINE
  5
4A8
330
70
100
AcDbEntity
  8
SIZE
  6
Continuous
 62
    30
100
AcDbLine
 10
477.5999998524932
 20
39.99999999999996
 30
0.0
 11
477.5999998524932
 21
-0.0000000000000317
 31
0.0
  0
CIRCLE
  5
4A9
330
70
100
AcDbEntity
  8
SIZE
  6
Continuous
 62
    30
100
AcDbCircle
 10
477.5999998524932
 20
39.99999999999996
 30
0.0
 40
5.0
  0
LINE
  5
4AA
330
70
100
AcDbEntity
  8
SIZE
  6
Continuous
 62
    30
100
AcDbLine
 10
477.5999998524932
 20
39.99999999999996
 30
0.0
 11
477.5999998524932
 21
49.99999999999996
 31
0.0
  0
CIRCLE
  5
4AB
330
70
100
AcDbEntity
  8
SIZE
  6
Continuous
 62
    30
100
AcDbCircle
 10
477.5999998524932
 20
-0.0000000000000317
 30
0.0
 40
5.0
  0
LINE
  5
4AC
330
70
100
AcDbEntity
  8
SIZE
  6
Continuous
 62
    30
100
AcDbLine
 10
477.5999998524932
 20
-0.0000000000000317
 30
0.0
 11
477.5999998524932
 21
-10.00000000000003
 31
0.0
  0
TEXT
  5
4AD
330
70
100
AcDbEntity
  8
SIZE
  6
Continuous
 62
    30
100
AcDbText
 10
467.5999998524932
 20
-89.7389214070675
 30
0.0
 40
30.0
  1
40
 50
90.0
 72
     1
 11
467.5999998524932
 21
-67.23892140706749
 31
0.0
100
AcDbText
  0
POINT
  5
4AE
330
70
100
AcDbEntity
  8
DEFPOINTS
  6
Continuous
 62
    30
100
AcDbPoint
 10
330.0
 20
40.0
 30
0.0
  0
POINT
  5
4AF
330
70
100
AcDbEntity
  8
DEFPOINTS
  6
Continuous
 62
    30
100
AcDbPoint
 10
365.7999877929688
 20
0.0
 30
0.0
  0
POINT
  5
4B0
330
70
100
AcDbEntity
  8
DEFPOINTS
  6
Continuous
 62
    30
100
AcDbPoint
 10
477.5999998524932
 20
-0.0000000000000317
 30
0.0
  0
LINE
  5
4B1
330
70
100
AcDbEntity
  8
SIZE
  6
Continuous
 62
    30
100
AcDbLine
 10
22.11269283294678
 20
1449.199951171875
 30
0.0
 11
690.1000000238418
 21
1449.199951171874
 31
0.0
  0
LINE
  5
4B2
330
70
100
AcDbEntity
  8
SIZE
  6
Continuous
 62
    30
100
AcDbLine
 10
375.7999877929688
 20
-0.0000000000000028
 30
0.0
 11
690.1000000238417
 21
-0.0000000000000919
 31
0.0
  0
LINE
  5
4B3
330
70
100
AcDbEntity
  8
SIZE
  6
Continuous
 62
    30
100
AcDbLine
 10
677.6000000238418
 20
1439.199951171875
 30
0.0
 11
677.6000000238417
 21
9.999999999999911
 31
0.0
  0
CIRCLE
  5
4B4
330
70
100
AcDbEntity
  8
SIZE
  6
Continuous
 62
    30
100
AcDbCircle
 10
677.6000000238418
 20
1449.199951171874
 30
0.0
 40
5.0
  0
LINE
  5
4B5
330
70
100
AcDbEntity
  8
SIZE
  6
Continuous
 62
    30
100
AcDbLine
 10
677.6000000238418
 20
1449.199951171874
 30
0.0
 11
677.6000000238418
 21
1439.199951171874
 31
0.0
  0
CIRCLE
  5
4B6
330
70
100
AcDbEntity
  8
SIZE
  6
Continuous
 62
    30
100
AcDbCircle
 10
677.6000000238417
 20
-0.0000000000000883
 30
0.0
 40
5.0
  0
LINE
  5
4B7
330
70
100
AcDbEntity
  8
SIZE
  6
Continuous
 62
    30
100
AcDbLine
 10
677.6000000238417
 20
-0.0000000000000883
 30
0.0
 11
677.6000000238417
 21
9.999999999999911
 31
0.0
  0
TEXT
  5
4B8
330
70
100
AcDbEntity
  8
SIZE
  6
Continuous
 62
    30
100
AcDbText
 10
667.6000000238417
 20
669.5991820065144
 30
0.0
 40
30.0
  1
1449
 50
90.0
 72
     1
 11
667.6000000238417
 21
719.5991820065144
 31
0.0
100
AcDbText
  0
POINT
  5
4B9
330
70
100
AcDbEntity
  8
DEFPOINTS
  6
Continuous
 62
    30
100
AcDbPoint
 10
12.11269283294677
 20
1449.199951171875
 30
0.0
  0
POINT
  5
4BA
330
70
100
AcDbEntity
  8
DEFPOINTS
  6
Continuous
 62
    30
100
AcDbPoint
 10
365.7999877929688
 20
0.0
 30
0.0
  0
POINT
  5
4BB
330
70
100
AcDbEntity
  8
DEFPOINTS
  6
Continuous
 62
    30
100
AcDbPoint
 10
677.6000000238417
 20
-0.0000000000000883
 30
0.0
  0
LINE
  5
4BC
330
70
100
AcDbEntity
  8
SIZE
  6
Continuous
 62
    30
100
AcDbLine
 10
340.0
 20
40.0
 30
0.0
 11
590.1000000238417
 21
39.99999999999993
 31
0.0
  0
LINE
  5
4BD
330
70
100
AcDbEntity
  8
SIZE
  6
Continuous
 62
    30
100
AcDbLine
 10
54.55139541625977
 20
1399.300048828125
 30
0.0
 11
590.1000000238418
 21
1399.300048828125
 31
0.0
  0
LINE
  5
4BE
330
70
100
AcDbEntity
  8
SIZE
  6
Continuous
 62
    30
100
AcDbLine
 10
577.6000000238417
 20
49.99999999999992
 30
0.0
 11
577.6000000238418
 21
1389.300048828125
 31
0.0
  0
CIRCLE
  5
4BF
330
70
100
AcDbEntity
  8
SIZE
  6
Continuous
 62
    30
100
AcDbCircle
 10
577.6000000238417
 20
39.99999999999993
 30
0.0
 40
5.0
  0
LINE
  5
4C0
330
70
100
AcDbEntity
  8
SIZE
  6
Continuous
 62
    30
100
AcDbLine
 10
577.6000000238417
 20
39.99999999999993
 30
0.0
 11
577.6000000238417
 21
49.99999999999993
 31
0.0
  0
CIRCLE
  5
4C1
330
70
100
AcDbEntity
  8
SIZE
  6
Continuous
 62
    30
100
AcDbCircle
 10
577.6000000238418
 20
1399.300048828125
 30
0.0
 40
5.0
  0
LINE
  5
4C2
330
70
100
AcDbEntity
  8
SIZE
  6
Continuous
 62
    30
100
AcDbLine
 10
577.6000000238418
 20
1399.300048828125
 30
0.0
 11
577.6000000238418
 21
1389.300048828125
 31
0.0
  0
TEXT
  5
4C3
330
70
100
AcDbEntity
  8
SIZE
  6
Continuous
 62
    30
100
AcDbText
 10
567.6000000238417
 20
669.6500242916705
 30
0.0
 40
30.0
  1
1359
 50
90.0
 72
     1
 11
567.6000000238417
 21
719.6500242916705
 31
0.0
100
AcDbText
  0
POINT
  5
4C4
330
70
100
AcDbEntity
  8
DEFPOINTS
  6
Continuous
 62
    30
100
AcDbPoint
 10
330.0
 20
40.0
 30
0.0
  0
POINT
  5
4C5
330
70
100
AcDbEntity
  8
DEFPOINTS
  6
Continuous
 62
    30
100
AcDbPoint
 10
44.55139541625977
 20
1399.300048828125
 30
0.0
  0
POINT
  5
4C6
330
70
100
AcDbEntity
  8
DEFPOINTS
  6
Continuous
 62
    30
100
AcDbPoint
 10
577.6000000238418
 20
1399.300048828125
 30
0.0
  0
LINE
  5
4C7
330
70
100
AcDbEntity
  8
SIZE
  6
Continuous
 62
    30
100
AcDbLine
 10
22.11269283294678
 20
1449.199951171875
 30
0.0
 11
590.1000000238417
 21
1449.199951171874
 31
0.0
  0
LINE
  5
4C8
330
70
100
AcDbEntity
  8
SIZE
  6
Continuous
 62
    30
100
AcDbLine
 10
54.55139541625977
 20
1399.300048828125
 30
0.0
 11
590.1000000238417
 21
1399.300048828125
 31
0.0
  0
LINE
  5
4C9
330
70
100
AcDbEntity
  8
SIZE
  6
Continuous
 62
    30
100
AcDbLine
 10
577.6000000238417
 20
1439.199951171875
 30
0.0
 11
577.6000000238417
 21
1409.300048828125
 31
0.0
  0
CIRCLE
  5
4CA
330
70
100
AcDbEntity
  8
SIZE
  6
Continuous
 62
    30
100
AcDbCircle
 10
577.6000000238417
 20
1449.199951171874
 30
0.0
 40
5.0
  0
LINE
  5
4CB
330
70
100
AcDbEntity
  8
SIZE
  6
Continuous
 62
    30
100
AcDbLine
 10
577.6000000238417
 20
1449.199951171874
 30
0.0
 11
577.6000000238417
 21
1439.199951171874
 31
0.0
  0
CIRCLE
  5
4CC
330
70
100
AcDbEntity
  8
SIZE
  6
Continuous
 62
    30
100
AcDbCircle
 10
577.6000000238417
 20
1399.300048828125
 30
0.0
 40
5.0
  0
LINE
  5
4CD
330
70
100
AcDbEntity
  8
SIZE
  6
Continuous
 62
    30
100
AcDbLine
 10
577.6000000238417
 20
1399.300048828125
 30
0.0
 11
577.6000000238417
 21
1409.300048828125
 31
0.0
  0
TEXT
  5
4CE
330
70
100
AcDbEntity
  8
SIZE
  6
Continuous
 62
    30
100
AcDbText
 10
567.6000000238417
 20
1401.75
 30
0.0
 40
30.0
  1
50
 50
90.0
 72
     1
 11
567.6000000238417
 21
1424.25
 31
0.0
100
AcDbText
  0
POINT
  5
4CF
330
70
100
AcDbEntity
  8
DEFPOINTS
  6
Continuous
 62
    30
100
AcDbPoint
 10
12.11269283294677
 20
1449.199951171875
 30
0.0
  0
POINT
  5
4D0
330
70
100
AcDbEntity
  8
DEFPOINTS
  6
Continuous
 62
    30
100
AcDbPoint
 10
44.55139541625977
 20
1399.300048828125
 30
0.0
  0
POINT
  5
4D1
330
70
100
AcDbEntity
  8
DEFPOINTS
  6
Continuous
 62
    30
100
AcDbPoint
 10
577.6000000238417
 20
1399.300048828125
 30
0.0
  0
LINE
  5
4D3
330
70
100
AcDbEntity
  8
SIZE
  6
Continuous
 62
    30
100
AcDbLine
 10
-310.7288818359375
 20
100.0
 30
0.0
 11
-637.4785983950751
 21
100.0
 31
0.0
  0
LINE
  5
4D4
330
70
100
AcDbEntity
  8
SIZE
  6
Continuous
 62
    30
100
AcDbLine
 10
-618.5259979600195
 20
9.99999999999998
 30
0.0
 11
-618.5259979600195
 21
90.0
 31
0.0
  0
CIRCLE
  5
4D5
330
70
100
AcDbEntity
  8
SIZE
  6
Continuous
 62
    30
100
AcDbCircle
 10
-618.5259979600195
 20
-0.0000000000000195
 30
0.0
 40
5.0
  0
LINE
  5
4D6
330
70
100
AcDbEntity
  8
SIZE
  6
Continuous
 62
    30
100
AcDbLine
 10
-618.5259979600195
 20
-0.0000000000000195
 30
0.0
 11
-618.5259979600195
 21
9.99999999999998
 31
0.0
  0
CIRCLE
  5
4D7
330
70
100
AcDbEntity
  8
SIZE
  6
Continuous
 62
    30
100
AcDbCircle
 10
-618.5259979600195
 20
100.0
 30
0.0
 40
5.0
  0
LINE
  5
4D8
330
70
100
AcDbEntity
  8
SIZE
  6
Continuous
 62
    30
100
AcDbLine
 10
-618.5259979600195
 20
100.0
 30
0.0
 11
-618.5259979600195
 21
90.0
 31
0.0
  0
TEXT
  5
4D9
330
70
100
AcDbEntity
  8
SIZE
  6
Continuous
 62
    30
100
AcDbText
 10
-628.5259979600196
 20
19.99999987760811
 30
0.0
 40
30.0
  1
100
 50
90.0
 72
     1
 11
-628.5259979600196
 21
49.99999987760811
 31
0.0
100
AcDbText
  0
POINT
  5
4DA
330
70
100
AcDbEntity
  8
DEFPOINTS
  6
Continuous
 62
    30
100
AcDbPoint
 10
-212.3003692626953
 20
-0.000000000000059
 30
0.0
  0
POINT
  5
4DB
330
70
100
AcDbEntity
  8
DEFPOINTS
  6
Continuous
 62
    30
100
AcDbPoint
 10
-300.7288818359375
 20
100.0
 30
0.0
  0
POINT
  5
4DC
330
70
100
AcDbEntity
  8
DEFPOINTS
  6
Continuous
 62
    30
100
AcDbPoint
 10
-351.7991393804551
 20
100.0
 30
0.0
  0
LINE
  5
4DD
330
70
100
AcDbEntity
  8
SIZE
  6
Continuous
 62
    30
100
AcDbLine
 10
-1711.0
 20
1899.300048828125
 30
0.0
 11
-1865.899999976157
 21
1899.300048828125
 31
0.0
  0
LINE
  5
4DE
330
70
100
AcDbEntity
  8
SIZE
  6
Continuous
 62
    30
100
AcDbLine
 10
-1711.0
 20
-0.0000000000000542
 30
0.0
 11
-1865.899999976157
 21
-0.0000000000000103
 31
0.0
  0
LINE
  5
4DF
330
70
100
AcDbEntity
  8
SIZE
  6
Continuous
 62
    30
100
AcDbLine
 10
-1853.399999976157
 20
1889.300048828125
 30
0.0
 11
-1853.399999976157
 21
9.999999999999987
 31
0.0
  0
CIRCLE
  5
4E0
330
70
100
AcDbEntity
  8
SIZE
  6
Continuous
 62
    30
100
AcDbCircle
 10
-1853.399999976157
 20
1899.300048828125
 30
0.0
 40
5.0
  0
LINE
  5
4E1
330
70
100
AcDbEntity
  8
SIZE
  6
Continuous
 62
    30
100
AcDbLine
 10
-1853.399999976157
 20
1899.300048828125
 30
0.0
 11
-1853.399999976157
 21
1889.300048828125
 31
0.0
  0
CIRCLE
  5
4E2
330
70
100
AcDbEntity
  8
SIZE
  6
Continuous
 62
    30
100
AcDbCircle
 10
-1853.399999976157
 20
-0.0000000000000138
 30
0.0
 40
5.0
  0
LINE
  5
4E3
330
70
100
AcDbEntity
  8
SIZE
  6
Continuous
 62
    30
100
AcDbLine
 10
-1853.399999976157
 20
-0.0000000000000138
 30
0.0
 11
-1853.399999976157
 21
9.999999999999984
 31
0.0
  0
TEXT
  5
4E4
330
70
100
AcDbEntity
  8
SIZE
  6
Continuous
 62
    30
100
AcDbText
 10
-1863.399999976157
 20
899.6500242916704
 30
0.0
 40
30.0
  1
1899
 50
90.0
 72
     1
 11
-1863.399999976157
 21
949.6500242916704
 31
0.0
100
AcDbText
  0
POINT
  5
4E5
330
70
100
AcDbEntity
  8
DEFPOINTS
  6
Continuous
 62
    30
100
AcDbPoint
 10
-1701.0
 20
1899.300048828125
 30
0.0
  0
POINT
  5
4E6
330
70
100
AcDbEntity
  8
DEFPOINTS
  6
Continuous
 62
    30
100
AcDbPoint
 10
-1701.0
 20
-0.000000000000057
 30
0.0
  0
POINT
  5
4E7
330
70
100
AcDbEntity
  8
DEFPOINTS
  6
Continuous
 62
    30
100
AcDbPoint
 10
-1853.399999976157
 20
-0.0000000000000138
 30
0.0
  0
LINE
  5
4E8
330
70
100
AcDbEntity
  8
SIZE
  6
Continuous
 62
    30
100
AcDbLine
 10
-0.0000000000000006
 20
-52.21389389038085
 30
0.0
 11
-0.0000000000000072
 21
-160.1000000238419
 31
0.0
  0
LINE
  5
4E9
330
70
100
AcDbEntity
  8
SIZE
  6
Continuous
 62
    30
100
AcDbLine
 10
352.0
 20
-30.0
 30
0.0
 11
352.0
 21
-160.1000000238419
 31
0.0
  0
LINE
  5
4EA
330
70
100
AcDbEntity
  8
SIZE
  6
Continuous
 62
    30
100
AcDbLine
 10
9.999999999999991
 20
-147.6000000238419
 30
0.0
 11
342.0
 21
-147.6000000238419
 31
0.0
  0
CIRCLE
  5
4EB
330
70
100
AcDbEntity
  8
SIZE
  6
Continuous
 62
    30
100
AcDbCircle
 10
-0.0000000000000065
 20
-147.6000000238419
 30
0.0
 40
5.0
  0
LINE
  5
4EC
330
70
100
AcDbEntity
  8
SIZE
  6
Continuous
 62
    30
100
AcDbLine
 10
-0.0000000000000065
 20
-147.6000000238419
 30
0.0
 11
9.999999999999991
 21
-147.6000000238419
 31
0.0
  0
CIRCLE
  5
4ED
330
70
100
AcDbEntity
  8
SIZE
  6
Continuous
 62
    30
100
AcDbCircle
 10
352.0
 20
-147.6000000238419
 30
0.0
 40
5.0
  0
LINE
  5
4EE
330
70
100
AcDbEntity
  8
SIZE
  6
Continuous
 62
    30
100
AcDbLine
 10
352.0
 20
-147.6000000238419
 30
0.0
 11
342.0
 21
-147.6000000238419
 31
0.0
  0
TEXT
  5
4EF
330
70
100
AcDbEntity
  8
SIZE
  6
Continuous
 62
    30
100
AcDbText
 10
135.999999938804
 20
-137.6000000238419
 30
0.0
 40
30.0
  1
352
 72
     1
 11
175.999999938804
 21
-137.6000000238419
 31
0.0
100
AcDbText
  0
POINT
  5
4F0
330
70
100
AcDbEntity
  8
DEFPOINTS
  6
Continuous
 62
    30
100
AcDbPoint
 10
0.0
 20
-42.21389389038085
 30
0.0
  0
POINT
  5
4F1
330
70
100
AcDbEntity
  8
DEFPOINTS
  6
Continuous
 62
    30
100
AcDbPoint
 10
352.0
 20
-20.0
 30
0.0
  0
POINT
  5
4F2
330
70
100
AcDbEntity
  8
DEFPOINTS
  6
Continuous
 62
    30
100
AcDbPoint
 10
352.0
 20
-147.6000000238419
 30
0.0
  0
LINE
  5
4F3
330
70
100
AcDbEntity
  8
SIZE
  6
Continuous
 62
    30
100
AcDbLine
 10
-176.0
 20
-30.0
 30
0.0
 11
-176.0
 21
-160.1000000238419
 31
0.0
  0
LINE
  5
4F4
330
70
100
AcDbEntity
  8
SIZE
  6
Continuous
 62
    30
100
AcDbLine
 10
-0.0000000000000006
 20
-52.21389389038085
 30
0.0
 11
-0.0000000000000072
 21
-160.1000000238419
 31
0.0
  0
LINE
  5
4F5
330
70
100
AcDbEntity
  8
SIZE
  6
Continuous
 62
    30
100
AcDbLine
 10
-166.0
 20
-147.6000000238419
 30
0.0
 11
-10.0
 21
-147.6000000238419
 31
0.0
  0
CIRCLE
  5
4F6
330
70
100
AcDbEntity
  8
SIZE
  6
Continuous
 62
    30
100
AcDbCircle
 10
-176.0
 20
-147.6000000238419
 30
0.0
 40
5.0
  0
LINE
  5
4F7
330
70
100
AcDbEntity
  8
SIZE
  6
Continuous
 62
    30
100
AcDbLine
 10
-176.0
 20
-147.6000000238419
 30
0.0
 11
-166.0
 21
-147.6000000238419
 31
0.0
  0
CIRCLE
  5
4F8
330
70
100
AcDbEntity
  8
SIZE
  6
Continuous
 62
    30
100
AcDbCircle
 10
-0.0000000000000065
 20
-147.6000000238419
 30
0.0
 40
5.0
  0
LINE
  5
4F9
330
70
100
AcDbEntity
  8
SIZE
  6
Continuous
 62
    30
100
AcDbLine
 10
-0.0000000000000065
 20
-147.6000000238419
 30
0.0
 11
-10.00000000000001
 21
-147.6000000238419
 31
0.0
  0
TEXT
  5
4FA
330
70
100
AcDbEntity
  8
SIZE
  6
Continuous
 62
    30
100
AcDbText
 10
-123.0000000611959
 20
-137.6000000238419
 30
0.0
 40
30.0
  1
176
 72
     1
 11
-88.00000006119594
 21
-137.6000000238419
 31
0.0
100
AcDbText
  0
POINT
  5
4FB
330
70
100
AcDbEntity
  8
DEFPOINTS
  6
Continuous
 62
    30
100
AcDbPoint
 10
-176.0
 20
-20.0
 30
0.0
  0
POINT
  5
4FC
330
70
100
AcDbEntity
  8
DEFPOINTS
  6
Continuous
 62
    30
100
AcDbPoint
 10
0.0
 20
-42.21389389038085
 30
0.0
  0
POINT
  5
4FD
330
70
100
AcDbEntity
  8
DEFPOINTS
  6
Continuous
 62
    30
100
AcDbPoint
 10
-0.0000000000000065
 20
-147.6000000238419
 30
0.0
  0
LINE
  5
4FE
330
70
100
AcDbEntity
  8
SIZE
  6
Continuous
 62
    30
100
AcDbLine
 10
-260.0
 20
-7.0
 30
0.0
 11
-260.0
 21
-260.1000000238419
 31
0.0
  0
LINE
  5
4FF
330
70
100
AcDbEntity
  8
SIZE
  6
Continuous
 62
    30
100
AcDbLine
 10
-0.0000000000000006
 20
-52.21389389038085
 30
0.0
 11
-0.0000000000000133
 21
-260.1000000238419
 31
0.0
  0
LINE
  5
500
330
70
100
AcDbEntity
  8
SIZE
  6
Continuous
 62
    30
100
AcDbLine
 10
-250.0
 20
-247.6000000238419
 30
0.0
 11
-10.00000000000001
 21
-247.6000000238419
 31
0.0
  0
CIRCLE
  5
501
330
70
100
AcDbEntity
  8
SIZE
  6
Continuous
 62
    30
100
AcDbCircle
 10
-260.0
 20
-247.6000000238419
 30
0.0
 40
5.0
  0
LINE
  5
502
330
70
100
AcDbEntity
  8
SIZE
  6
Continuous
 62
    30
100
AcDbLine
 10
-260.0
 20
-247.6000000238419
 30
0.0
 11
-250.0
 21
-247.6000000238419
 31
0.0
  0
CIRCLE
  5
503
330
70
100
AcDbEntity
  8
SIZE
  6
Continuous
 62
    30
100
AcDbCircle
 10
-0.0000000000000126
 20
-247.6000000238419
 30
0.0
 40
5.0
  0
LINE
  5
504
330
70
100
AcDbEntity
  8
SIZE
  6
Continuous
 62
    30
100
AcDbLine
 10
-0.0000000000000126
 20
-247.6000000238419
 30
0.0
 11
-10.00000000000001
 21
-247.6000000238419
 31
0.0
  0
TEXT
  5
505
330
70
100
AcDbEntity
  8
SIZE
  6
Continuous
 62
    30
100
AcDbText
 10
-156.4189148561178
 20
-237.6000000238418
 30
0.0
 40
30.0
  1
260
 72
     1
 11
-118.9189148561178
 21
-237.6000000238418
 31
0.0
100
AcDbText
  0
POINT
  5
506
330
70
100
AcDbEntity
  8
DEFPOINTS
  6
Continuous
 62
    30
100
AcDbPoint
 10
-260.0
 20
3.0
 30
0.0
  0
POINT
  5
507
330
70
100
AcDbEntity
  8
DEFPOINTS
  6
Continuous
 62
    30
100
AcDbPoint
 10
0.0
 20
-42.21389389038085
 30
0.0
  0
POINT
  5
508
330
70
100
AcDbEntity
  8
DEFPOINTS
  6
Continuous
 62
    30
100
AcDbPoint
 10
-0.0000000000000126
 20
-247.6000000238419
 30
0.0
  0
LINE
  5
509
330
70
100
AcDbEntity
  8
SIZE
  6
Continuous
 62
    30
100
AcDbLine
 10
-401.0
 20
1909.300048828125
 30
0.0
 11
-401.0
 21
2064.200048804283
 31
0.0
  0
LINE
  5
50A
330
70
100
AcDbEntity
  8
SIZE
  6
Continuous
 62
    30
100
AcDbLine
 10
330.0
 20
1909.300048828125
 30
0.0
 11
330.0
 21
2064.200048804283
 31
0.0
  0
LINE
  5
50B
330
70
100
AcDbEntity
  8
SIZE
  6
Continuous
 62
    30
100
AcDbLine
 10
-391.0
 20
2051.700048804283
 30
0.0
 11
320.0
 21
2051.700048804283
 31
0.0
  0
CIRCLE
  5
50C
330
70
100
AcDbEntity
  8
SIZE
  6
Continuous
 62
    30
100
AcDbCircle
 10
-401.0
 20
2051.700048804283
 30
0.0
 40
5.0
  0
LINE
  5
50D
330
70
100
AcDbEntity
  8
SIZE
  6
Continuous
 62
    30
100
AcDbLine
 10
-401.0
 20
2051.700048804283
 30
0.0
 11
-391.0
 21
2051.700048804283
 31
0.0
  0
CIRCLE
  5
50E
330
70
100
AcDbEntity
  8
SIZE
  6
Continuous
 62
    30
100
AcDbCircle
 10
330.0
 20
2051.700048804283
 30
0.0
 40
5.0
  0
LINE
  5
50F
330
70
100
AcDbEntity
  8
SIZE
  6
Continuous
 62
    30
100
AcDbLine
 10
330.0
 20
2051.700048804283
 30
0.0
 11
320.0
 21
2051.700048804283
 31
0.0
  0
TEXT
  5
510
330
70
100
AcDbEntity
  8
SIZE
  6
Continuous
 62
    30
100
AcDbText
 10
-70.50000006119596
 20
2061.700048804283
 30
0.0
 40
30.0
  1
731
 72
     1
 11
-35.50000006119596
 21
2061.700048804283
 31
0.0
100
AcDbText
  0
POINT
  5
511
330
70
100
AcDbEntity
  8
DEFPOINTS
  6
Continuous
 62
    30
100
AcDbPoint
 10
-401.0
 20
1899.300048828125
 30
0.0
  0
POINT
  5
512
330
70
100
AcDbEntity
  8
DEFPOINTS
  6
Continuous
 62
    30
100
AcDbPoint
 10
330.0
 20
1899.300048828125
 30
0.0
  0
POINT
  5
513
330
70
100
AcDbEntity
  8
DEFPOINTS
  6
Continuous
 62
    30
100
AcDbPoint
 10
330.0
 20
2051.700048804283
 30
0.0
  0
LINE
  5
514
330
70
100
AcDbEntity
  8
SIZE
  6
Continuous
 62
    30
100
AcDbLine
 10
-1701.0
 20
1909.300048828125
 30
0.0
 11
-1701.0
 21
2064.200048804283
 31
0.0
  0
LINE
  5
515
330
70
100
AcDbEntity
  8
SIZE
  6
Continuous
 62
    30
100
AcDbLine
 10
-401.0
 20
1909.300048828125
 30
0.0
 11
-401.0
 21
2064.200048804283
 31
0.0
  0
LINE
  5
516
330
70
100
AcDbEntity
  8
SIZE
  6
Continuous
 62
    30
100
AcDbLine
 10
-1691.0
 20
2051.700048804283
 30
0.0
 11
-411.0
 21
2051.700048804283
 31
0.0
  0
CIRCLE
  5
517
330
70
100
AcDbEntity
  8
SIZE
  6
Continuous
 62
    30
100
AcDbCircle
 10
-1701.0
 20
2051.700048804283
 30
0.0
 40
5.0
  0
LINE
  5
518
330
70
100
AcDbEntity
  8
SIZE
  6
Continuous
 62
    30
100
AcDbLine
 10
-1701.0
 20
2051.700048804283
 30
0.0
 11
-1691.0
 21
2051.700048804283
 31
0.0
  0
CIRCLE
  5
519
330
70
100
AcDbEntity
  8
SIZE
  6
Continuous
 62
    30
100
AcDbCircle
 10
-401.0
 20
2051.700048804283
 30
0.0
 40
5.0
  0
LINE
  5
51A
330
70
100
AcDbEntity
  8
SIZE
  6
Continuous
 62
    30
100
AcDbLine
 10
-401.0
 20
2051.700048804283
 30
0.0
 11
-411.0
 21
2051.700048804283
 31
0.0
  0
TEXT
  5
51B
330
70
100
AcDbEntity
  8
SIZE
  6
Continuous
 62
    30
100
AcDbText
 10
-1096.000000061196
 20
2061.700048804283
 30
0.0
 40
30.0
  1
1300
 72
     1
 11
-1051.000000061196
 21
2061.700048804283
 31
0.0
100
AcDbText
  0
POINT
  5
51C
330
70
100
AcDbEntity
  8
DEFPOINTS
  6
Continuous
 62
    30
100
AcDbPoint
 10
-1701.0
 20
1899.300048828125
 30
0.0
  0
POINT
  5
51D
330
70
100
AcDbEntity
  8
DEFPOINTS
  6
Continuous
 62
    30
100
AcDbPoint
 10
-401.0
 20
1899.300048828125
 30
0.0
  0
POINT
  5
51E
330
70
100
AcDbEntity
  8
DEFPOINTS
  6
Continuous
 62
    30
100
AcDbPoint
 10
-401.0
 20
2051.700048804283
 30
0.0
  0
LINE
  5
51F
330
70
100
AcDbEntity
  8
SIZE
  6
Continuous
 62
    30
100
AcDbLine
 10
369.0
 20
-6.799999952316284
 30
0.0
 11
369.0
 21
-260.0999999381676
 31
0.0
  0
LINE
  5
520
330
70
100
AcDbEntity
  8
SIZE
  6
Continuous
 62
    30
100
AcDbLine
 10
330.0
 20
30.0
 30
0.0
 11
330.0
 21
-260.0999999381676
 31
0.0
  0
LINE
  5
521
330
70
100
AcDbEntity
  8
SIZE
  6
Continuous
 62
    30
100
AcDbLine
 10
320.0
 20
-247.5999999381676
 30
0.0
 11
310.0
 21
-247.5999999381676
 31
0.0
  0
LINE
  5
522
330
70
100
AcDbEntity
  8
SIZE
  6
Continuous
 62
    30
100
AcDbLine
 10
379.0
 20
-247.5999999381676
 30
0.0
 11
459.0
 21
-247.5999999381676
 31
0.0
  0
LINE
  5
523
330
70
100
AcDbEntity
  8
SIZE
  6
Continuous
 62
    30
100
AcDbLine
 10
330.0
 20
-247.5999999381676
 30
0.0
 11
369.0
 21
-247.5999999381676
 31
0.0
  0
CIRCLE
  5
524
330
70
100
AcDbEntity
  8
SIZE
  6
Continuous
 62
    30
100
AcDbCircle
 10
330.0
 20
-247.5999999381676
 30
0.0
 40
5.0
  0
LINE
  5
525
330
70
100
AcDbEntity
  8
SIZE
  6
Continuous
 62
    30
100
AcDbLine
 10
330.0
 20
-247.5999999381676
 30
0.0
 11
320.0
 21
-247.5999999381676
 31
0.0
  0
CIRCLE
  5
526
330
70
100
AcDbEntity
  8
SIZE
  6
Continuous
 62
    30
100
AcDbCircle
 10
369.0
 20
-247.5999999381676
 30
0.0
 40
5.0
  0
LINE
  5
527
330
70
100
AcDbEntity
  8
SIZE
  6
Continuous
 62
    30
100
AcDbLine
 10
369.0
 20
-247.5999999381676
 30
0.0
 11
379.0
 21
-247.5999999381676
 31
0.0
  0
TEXT
  5
528
330
70
100
AcDbEntity
  8
SIZE
  6
Continuous
 62
    30
100
AcDbText
 10
399.0
 20
-237.5999999381676
 30
0.0
 40
30.0
  1
39
 72
     1
 11
424.0
 21
-237.5999999381676
 31
0.0
100
AcDbText
  0
POINT
  5
529
330
70
100
AcDbEntity
  8
DEFPOINTS
  6
Continuous
 62
    30
100
AcDbPoint
 10
369.0
 20
3.200000047683714
 30
0.0
  0
POINT
  5
52A
330
70
100
AcDbEntity
  8
DEFPOINTS
  6
Continuous
 62
    30
100
AcDbPoint
 10
330.0
 20
40.0
 30
0.0
  0
POINT
  5
52B
330
70
100
AcDbEntity
  8
DEFPOINTS
  6
Continuous
 62
    30
100
AcDbPoint
 10
330.0
 20
-247.5999999381676
 30
0.0
  0
LINE
  5
52D
330
70
100
AcDbEntity
  8
SIZE
  6
Continuous
 62
    30
100
AcDbLine
 10
-287.67713027446
 20
23.0
 30
0.0
 11
-520.7228474016955
 21
23.0
 31
0.0
  0
LINE
  5
52E
330
70
100
AcDbEntity
  8
SIZE
  6
Continuous
 62
    30
100
AcDbLine
 10
-508.2228474016955
 20
33.0
 30
0.0
 11
-508.2228474016955
 21
43.0
 31
0.0
  0
LINE
  5
52F
330
70
100
AcDbEntity
  8
SIZE
  6
Continuous
 62
    30
100
AcDbLine
 10
-508.2228474016955
 20
-10.00000000000003
 30
0.0
 11
-508.2228474016956
 21
-97.83072383968194
 31
0.0
  0
LINE
  5
530
330
70
100
AcDbEntity
  8
SIZE
  6
Continuous
 62
    30
100
AcDbLine
 10
-508.2228474016955
 20
23.0
 30
0.0
 11
-508.2228474016955
 21
-0.0000000000000376
 31
0.0
  0
CIRCLE
  5
531
330
70
100
AcDbEntity
  8
SIZE
  6
Continuous
 62
    30
100
AcDbCircle
 10
-508.2228474016955
 20
23.0
 30
0.0
 40
5.0
  0
LINE
  5
532
330
70
100
AcDbEntity
  8
SIZE
  6
Continuous
 62
    30
100
AcDbLine
 10
-508.2228474016955
 20
23.0
 30
0.0
 11
-508.2228474016955
 21
33.0
 31
0.0
  0
CIRCLE
  5
533
330
70
100
AcDbEntity
  8
SIZE
  6
Continuous
 62
    30
100
AcDbCircle
 10
-508.2228474016955
 20
-0.0000000000000376
 30
0.0
 40
5.0
  0
LINE
  5
534
330
70
100
AcDbEntity
  8
SIZE
  6
Continuous
 62
    30
100
AcDbLine
 10
-508.2228474016955
 20
-0.0000000000000376
 30
0.0
 11
-508.2228474016955
 21
-10.00000000000003
 31
0.0
  0
TEXT
  5
535
330
70
100
AcDbEntity
  8
SIZE
  6
Continuous
 62
    30
100
AcDbText
 10
-518.2228474016953
 20
-81.83376044465422
 30
0.0
 40
30.0
  1
23
 50
90.0
 72
     1
 11
-518.2228474016953
 21
-56.83376044465422
 31
0.0
100
AcDbText
  0
POINT
  5
536
330
70
100
AcDbEntity
  8
DEFPOINTS
  6
Continuous
 62
    30
100
AcDbPoint
 10
-212.3003692626953
 20
-0.000000000000059
 30
0.0
  0
POINT
  5
537
330
70
100
AcDbEntity
  8
DEFPOINTS
  6
Continuous
 62
    30
100
AcDbPoint
 10
-280.0
 20
23.0
 30
0.0
  0
POINT
  5
538
330
70
100
AcDbEntity
  8
DEFPOINTS
  6
Continuous
 62
    30
100
AcDbPoint
 10
-287.67713027446
 20
23.0
 30
0.0
  0
LINE
  5
539
330
70
100
AcDbEntity
  8
NOTE
  6
Continuous
100
AcDbLine
 10
749.9844970703125
 20
-198.1264495849608
 30
0.0
 11
497.9844665527344
 21
-198.1264495849608
 31
0.0
  0
LINE
  5
53A
330
70
100
AcDbEntity
  8
NOTE
  6
Continuous
100
AcDbLine
 10
497.9844665527344
 20
-198.1264495849608
 30
0.0
 11
352.0
 21
0.0
 31
0.0
  0
LINE
  5
53B
330
70
100
AcDbEntity
  8
NOTE
  6
Continuous
100
AcDbLine
 10
352.0
 20
0.0
 30
0.0
 11
353.5626860561952
 21
-1.24820362512403
 31
0.0
  0
LINE
  5
53C
330
70
100
AcDbEntity
  8
NOTE
  6
Continuous
100
AcDbLine
 10
352.0
 20
0.0
 30
0.0
 11
352.7292239831079
 21
-1.862319087176022
 31
0.0
  0
TEXT
  5
53D
330
70
100
AcDbEntity
  8
NOTE
  6
Continuous
100
AcDbText
 10
557.9844970703125
 20
-197.1264495849608
 30
0.0
 40
40.0
  1
AH 3-M12
 50
0.000002504478167
 41
0.631578972465114
  7
STANDARD1
100
AcDbText
  0
TEXT
  5
53E
330
70
100
AcDbEntity
  8
NOTE
  6
Continuous
100
AcDbText
 10
533.7053833007811
 20
1480.755859375
 30
0.0
 40
40.0
  1
メンテナンススペ－ス
 50
90.00000500895634
 41
0.833333333333333
  7
STANDARD1
100
AcDbText
  0
TEXT
  5
53F
330
70
100
AcDbEntity
  8
NOTE
  6
Continuous
100
AcDbText
 10
-1793.256225585938
 20
751.0289306640625
 30
0.0
 40
40.0
  1
メンテナンススペ－ス
 50
90.00000500895634
 41
0.833333333333333
  7
STANDARD1
100
AcDbText
  0
TEXT
  5
540
330
70
100
AcDbEntity
  8
NOTE
  6
Continuous
100
AcDbText
 10
-1247.236694335937
 20
1991.054443359375
 30
0.0
 40
40.0
  1
メンテナンススペ－ス
 50
0.000002504478167
 41
0.833333333333333
  7
STANDARD1
100
AcDbText
  0
LINE
  5
541
330
70
100
AcDbEntity
  8
NOTE
  6
Continuous
100
AcDbLine
 10
331.9999999999996
 20
0.000000000000007
 30
0.0
 11
371.9999999999996
 21
0.000000000000007
 31
0.0
  0
LINE
  5
542
330
70
100
AcDbEntity
  8
NOTE
  6
Continuous
100
AcDbLine
 10
351.9999999999996
 20
-20.0
 30
0.0
 11
351.9999999999996
 21
20.00000000000001
 31
0.0
  0
LINE
  5
543
330
70
100
AcDbEntity
  8
NOTE
  6
Continuous
100
AcDbLine
 10
-195.9999999999992
 20
-0.000000000000057
 30
0.0
 11
-155.9999999999992
 21
-0.000000000000057
 31
0.0
  0
LINE
  5
544
330
70
100
AcDbEntity
  8
NOTE
  6
Continuous
100
AcDbLine
 10
-175.9999999999992
 20
-20.00000000000005
 30
0.0
 11
-175.9999999999992
 21
19.99999999999994
 31
0.0
  0
LINE
  5
545
330
70
100
AcDbEntity
  8
NOTE
  6
Continuous
100
AcDbLine
 10
-303.4364439540228
 20
100.0
 30
0.0
 11
-263.4364439540227
 21
100.0
 31
0.0
  0
LINE
  5
546
330
70
100
AcDbEntity
  8
NOTE
  6
Continuous
100
AcDbLine
 10
-283.4364439540228
 20
80.0
 30
0.0
 11
-283.4364439540228
 21
120.0
 31
0.0
  0
LINE
  5
547
330
70
100
AcDbEntity
  8
NOTE
  6
Continuous
100
AcDbLine
 10
-20.0
 20
1449.2
 30
0.0
 11
20.0
 21
1449.2
 31
0.0
  0
LINE
  5
548
330
70
100
AcDbEntity
  8
NOTE
  6
Continuous
100
AcDbLine
 10
0.000000000000002
 20
1429.2
 30
0.0
 11
0.000000000000002
 21
1469.2
 31
0.0
  0
LINE
  5
549
330
70
100
AcDbEntity
  8
NOTE
  6
Continuous
100
AcDbLine
 10
-1015.532592773437
 20
-149.8998565673828
 30
0.0
 11
-507.5325622558592
 21
-149.8998565673828
 31
0.0
  0
LINE
  5
54A
330
70
100
AcDbEntity
  8
NOTE
  6
Continuous
100
AcDbLine
 10
-507.5325622558592
 20
-149.8998565673828
 30
0.0
 11
-283.4364318847656
 21
100.0
 31
0.0
  0
LINE
  5
54B
330
70
100
AcDbEntity
  8
NOTE
  6
Continuous
100
AcDbLine
 10
-283.4364318847656
 20
100.0
 30
0.0
 11
-284.3408021823308
 21
98.21615181002373
 31
0.0
  0
LINE
  5
54C
330
70
100
AcDbEntity
  8
NOTE
  6
Continuous
100
AcDbLine
 10
-283.4364318847656
 20
100.0
 30
0.0
 11
-285.111563647794
 21
98.90732732417568
 31
0.0
  0
TEXT
  5
54D
330
70
100
AcDbEntity
  8
NOTE
  6
Continuous
100
AcDbText
 10
-1015.532592773437
 20
-148.8998260498047
 30
0.0
 40
40.0
  1
CW(WD) R3/4(φ27.2)
 50
359.9999956742889
 41
0.6292135059163809
  7
STANDARD1
100
AcDbText
  0
LINE
  5
54E
330
70
100
AcDbEntity
  8
NOTE
  6
Continuous
100
AcDbLine
 10
-1057.084350585937
 20
1613.43359375
 30
0.0
 11
-645.0843505859372
 21
1613.43359375
 31
0.0
  0
LINE
  5
54F
330
70
100
AcDbEntity
  8
NOTE
  6
Continuous
100
AcDbLine
 10
-645.0843505859372
 20
1613.43359375
 30
0.0
 11
0.000000000000181
 21
1449.199951171875
 31
0.0
  0
LINE
  5
550
330
70
100
AcDbEntity
  8
NOTE
  6
Continuous
100
AcDbLine
 10
0.000000000000181
 20
1449.199951171875
 30
0.0
 11
-1.999843675423551
 21
1449.174945695121
 31
0.0
  0
LINE
  5
551
330
70
100
AcDbEntity
  8
NOTE
  6
Continuous
100
AcDbLine
 10
0.000000000000181
 20
1449.199951171875
 30
0.0
 11
-1.74441815063755
 21
1450.178217656901
 31
0.0
  0
TEXT
  5
552
330
70
100
AcDbEntity
  8
NOTE
  6
Continuous
100
AcDbText
 10
-1057.084350585937
 20
1614.43359375
 30
0.0
 40
40.0
  1
HW R3/4(φ27.2)
 50
359.9999956742889
 41
0.6376811818800113
  7
STANDARD1
100
AcDbText
  0
LINE
  5
553
330
70
100
AcDbEntity
  8
NOTE
  6
Continuous
100
AcDbLine
 10
-891.8148193359375
 20
-272.6573181152344
 30
0.0
 11
-511.8148193359375
 21
-272.6573181152344
 31
0.0
  0
LINE
  5
554
330
70
100
AcDbEntity
  8
NOTE
  6
Continuous
100
AcDbLine
 10
-511.8148193359375
 20
-272.6573181152344
 30
0.0
 11
-260.0
 21
23.0
 31
0.0
  0
LINE
  5
555
330
70
100
AcDbEntity
  8
NOTE
  6
Continuous
100
AcDbLine
 10
-260.0
 20
23.0
 30
0.0
 11
-260.8585458544997
 21
21.19365036171799
 31
0.0
  0
LINE
  5
556
330
70
100
AcDbEntity
  8
NOTE
  6
Continuous
100
AcDbLine
 10
-260.0
 20
23.0
 30
0.0
 11
-261.64669735599
 21
21.86492827637389
 31
0.0
  0
TEXT
  5
557
330
70
100
AcDbEntity
  8
NOTE
  6
Continuous
100
AcDbText
 10
-891.8148193359375
 20
-271.6572875976563
 30
0.0
 40
40.0
  1
缶体保護弁排水口
 50
359.9999956742889
 41
0.833333333333333
  7
STANDARD1
100
AcDbText
  0
LINE
  5
558
330
70
100
AcDbEntity
  8
NOTE
  6
Continuous
100
AcDbLine
 10
-280.0000000000007
 20
22.99999999999991
 30
0.0
 11
-240.0000000000007
 21
22.99999999999991
 31
0.0
  0
LINE
  5
559
330
70
100
AcDbEntity
  8
NOTE
  6
Continuous
100
AcDbLine
 10
-260.0000000000007
 20
2.999999999999912
 30
0.0
 11
-260.0000000000007
 21
42.99999999999992
 31
0.0
  0
TEXT
  5
55A
330
70
100
AcDbEntity
  8
NOTE
  6
Continuous
100
AcDbText
 10
-236.8454895019531
 20
1991.054443359375
 30
0.0
 40
40.0
  1
メンテナンススペ－ス
 50
0.000002504478167
 41
0.833333333333333
  7
STANDARD1
100
AcDbText
  0
CIRCLE
  5
55B
330
70
100
AcDbEntity
  8
ARRANGE
  6
Continuous
100
AcDbCircle
 10
0.0
 20
0.0
 30
0.0
 40
15.0
  0
CIRCLE
  5
55C
330
70
100
AcDbEntity
  8
FIX
  6
Continuous
100
AcDbCircle
 10
-175.9999999999992
 20
-0.000000000000064
 30
0.0
 40
6.0
  0
CIRCLE
  5
55D
330
70
100
AcDbEntity
  8
FIX
  6
Continuous
100
AcDbCircle
 10
351.9999999999996
 20
0.000000000000007
 30
0.0
 40
6.0
  0
LINE
  5
55E
330
70
100
AcDbEntity
  8
SERVICESPACE
  6
DASHDOT
100
AcDbLine
 10
-401.0000000000005
 20
-0.000000000000057
 30
0.0
 11
-1701.0
 21
-0.000000000000057
 31
0.0
  0
LINE
  5
55F
330
70
100
AcDbEntity
  8
SERVICESPACE
  6
DASHDOT
100
AcDbLine
 10
-1701.0
 20
-0.000000000000057
 30
0.0
 11
-1701.0
 21
1899.299999999999
 31
0.0
  0
LINE
  5
560
330
70
100
AcDbEntity
  8
SERVICESPACE
  6
DASHDOT
100
AcDbLine
 10
330.0
 20
1399.3
 30
0.0
 11
330.0
 21
1899.3
 31
0.0
  0
LINE
  5
561
330
70
100
AcDbEntity
  8
SERVICESPACE
  6
DASHDOT
100
AcDbLine
 10
-401.0000000000005
 20
1399.299999999999
 30
0.0
 11
330.0
 21
1399.3
 31
0.0
  0
LINE
  5
562
330
70
100
AcDbEntity
  8
SERVICESPACE
  6
DASHDOT
100
AcDbLine
 10
-401.0000000000005
 20
1899.3
 30
0.0
 11
-401.0000000000005
 21
-0.000000000000057
 31
0.0
  0
LINE
  5
563
330
70
100
AcDbEntity
  8
SERVICESPACE
  6
DASHDOT
100
AcDbLine
 10
-1701.0
 20
1899.299999999999
 30
0.0
 11
330.0
 21
1899.3
 31
0.0
  0
LINE
  5
564
330
70
100
AcDbEntity
  8
SERVICESPACE
  6
DASHDOT
100
AcDbLine
 10
330.0
 20
1899.3
 30
0.0
 11
-401.0000000000005
 21
1399.299999999999
 31
0.0
  0
LINE
  5
565
330
70
100
AcDbEntity
  8
SERVICESPACE
  6
DASHDOT
100
AcDbLine
 10
-401.0000000000005
 20
1899.3
 30
0.0
 11
-1701.0
 21
-0.000000000000057
 31
0.0
  0
LINE
  5
566
330
70
100
AcDbEntity
  8
SERVICESPACE
  6
DASHDOT
100
AcDbLine
 10
-1701.0
 20
1899.299999999999
 30
0.0
 11
-401.0000000000005
 21
0.0
 31
0.0
  0
LINE
  5
567
330
70
100
AcDbEntity
  8
SERVICESPACE
  6
DASHDOT
100
AcDbLine
 10
-401.0000000000005
 20
1899.3
 30
0.0
 11
330.0
 21
1399.3
 31
0.0
  0
TEXT
  5
568
330
70
100
AcDbEntity
  8
ETC
  6
Continuous
100
AcDbText
 10
594.9412231445314
 20
2025.333618164063
 30
0.0
 40
40.0
  1
TG305E4
 50
0.000002504478167
 41
0.6000000238418579
  7
STANDARD1
100
AcDbText
  0
TEXT
  5
569
330
70
100
AcDbEntity
  8
ETC
  6
Continuous
100
AcDbText
 10
594.9412231445314
 20
1955.33361816406
 30
0.0
 40
40.0
  1
電気温水器
 50
0.000002504478167
 41
0.833333333333333
  7
STANDARD1
100
AcDbText
  0
ENDSEC
  0
SECTION
  2
OBJECTS
  0
DICTIONARY
  5
C
330
0
100
AcDbDictionary
281
     1
  3
ACAD_CIP_PREVIOUS_PRODUCT_INFO
350
56B
  3
ACAD_COLOR
350
62
  3
ACAD_DETAILVIEWSTYLE
350
6A
  3
ACAD_GROUP
350
D
  3
ACAD_LAYOUT
350
61
  3
ACAD_MATERIAL
350
10
  3
ACAD_MLEADERSTYLE
350
65
  3
ACAD_MLINESTYLE
350
5E
  3
ACAD_PLOTSETTINGS
350
60
  3
ACAD_PLOTSTYLENAME
350
E
  3
ACAD_SCALELIST
350
42
  3
ACAD_SECTIONVIEWSTYLE
350
67
  3
ACAD_TABLESTYLE
350
63
  3
ACAD_VISUALSTYLE
350
29
  3
ACDB_RECOMPOSE_DATA
350
5D9
  3
AcDbVariableDictionary
350
593
  0
DICTIONARY
  5
57D
330
54
100
AcDbDictionary
280
     1
281
     1
  3
ADSK_XREC_LAYER_RECONCILED
360
57E
  0
DICTIONARY
  5
57F
330
78
100
AcDbDictionary
280
     1
281
     1
  3
ADSK_XREC_LAYER_RECONCILED
360
580
  0
DICTIONARY
  5
581
330
79
100
AcDbDictionary
280
     1
281
     1
  3
ADSK_XREC_LAYER_RECONCILED
360
582
  0
DICTIONARY
  5
583
330
7A
100
AcDbDictionary
280
     1
281
     1
  3
ADSK_XREC_LAYER_RECONCILED
360
584
  0
DICTIONARY
  5
585
330
7B
100
AcDbDictionary
280
     1
281
     1
  3
ADSK_XREC_LAYER_RECONCILED
360
586
  0
DICTIONARY
  5
587
330
7C
100
AcDbDictionary
280
     1
281
     1
  3
ADSK_XREC_LAYER_RECONCILED
360
588
  0
DICTIONARY
  5
589
330
7D
100
AcDbDictionary
280
     1
281
     1
  3
ADSK_XREC_LAYER_RECONCILED
360
58A
  0
DICTIONARY
  5
58B
330
7E
100
AcDbDictionary
280
     1
281
     1
  3
ADSK_XREC_LAYER_RECONCILED
360
58C
  0
DICTIONARY
  5
58D
330
7F
100
AcDbDictionary
280
     1
281
     1
  3
ADSK_XREC_LAYER_RECONCILED
360
58E
  0
DICTIONARY
  5
58F
330
80
100
AcDbDictionary
280
     1
281
     1
  3
ADSK_XREC_LAYER_RECONCILED
360
590
  0
DICTIONARY
  5
591
330
81
100
AcDbDictionary
280
     1
281
     1
  3
ADSK_XREC_LAYER_RECONCILED
360
592
  0
XRECORD
  5
56B
102
{ACAD_REACTORS
330
C
102
}
330
C
100
AcDbXrecord
280
     1
300
ACDLT
300
2013
300
ACDLT_F_S
  0
DICTIONARY
  5
62
102
{ACAD_REACTORS
330
C
102
}
330
C
100
AcDbDictionary
281
     1
  0
DICTIONARY
  5
6A
102
{ACAD_REACTORS
330
C
102
}
330
C
100
AcDbDictionary
281
     1
  3
Imperial24
350
6B
  0
DICTIONARY
  5
D
102
{ACAD_REACTORS
330
C
102
}
330
C
100
AcDbDictionary
281
     1
  0
DICTIONARY
  5
61
102
{ACAD_REACTORS
330
C
102
}
330
C
100
AcDbDictionary
281
     1
  3
Model
350
73
  3
レイアウト1
350
6F
  0
DICTIONARY
  5
10
102
{ACAD_REACTORS
330
C
102
}
330
C
100
AcDbDictionary
281
     1
  3
ByBlock
350
19
  3
ByLayer
350
11
  3
Global
350
21
  0
DICTIONARY
  5
65
102
{ACAD_REACTORS
330
C
102
}
330
C
100
AcDbDictionary
281
     1
  3
Standard
350
66
  0
DICTIONARY
  5
5E
102
{ACAD_REACTORS
330
C
102
}
330
C
100
AcDbDictionary
281
     1
  3
Standard
350
5F
  0
DICTIONARY
  5
60
102
{ACAD_REACTORS
330
C
102
}
330
C
100
AcDbDictionary
281
     1
  0
ACDBDICTIONARYWDFLT
  5
E
102
{ACAD_REACTORS
330
C
102
}
330
C
100
AcDbDictionary
281
     1
  3
Normal
350
F
100
AcDbDictionaryWithDefault
340
F
  0
DICTIONARY
  5
42
102
{ACAD_REACTORS
330
C
102
}
330
C
100
AcDbDictionary
281
     1
  3
A0
350
43
  3
A1
350
44
  3
A2
350
45
  3
A3
350
46
  3
A4
350
47
  3
A5
350
48
  3
A6
350
49
  3
A7
350
4A
  3
A8
350
4B
  3
A9
350
4C
  3
B0
350
4D
  3
B1
350
4E
  3
B2
350
4F
  3
B3
350
50
  3
B4
350
51
  3
B5
350
52
  3
B6
350
53
  0
DICTIONARY
  5
67
102
{ACAD_REACTORS
330
C
102
}
330
C
100
AcDbDictionary
281
     1
  3
Imperial24
350
69
  0
DICTIONARY
  5
63
102
{ACAD_REACTORS
330
C
102
}
330
C
100
AcDbDictionary
281
     1
  3
Standard
350
64
  0
DICTIONARY
  5
29
102
{ACAD_REACTORS
330
C
102
}
330
C
100
AcDbDictionary
281
     1
  3
2dWireframe
350
2F
  3
Basic
350
2E
  3
Brighten
350
35
  3
ColorChange
350
39
  3
Conceptual
350
32
  3
Dim
350
34
  3
EdgeColorOff
350
41
  3
Facepattern
350
38
  3
Flat
350
2A
  3
FlatWithEdges
350
2B
  3
Gouraud
350
2C
  3
GouraudWithEdges
350
2D
  3
Hidden
350
31
  3
JitterOff
350
3F
  3
Linepattern
350
37
  3
OverhangOff
350
40
  3
Realistic
350
33
  3
Shaded
350
3E
  3
Shaded with edges
350
3D
  3
Shades of Gray
350
3A
  3
Sketchy
350
3B
  3
Thicken
350
36
  3
Wireframe
350
30
  3
X-Ray
350
3C
  0
XRECORD
  5
5D9
102
{ACAD_REACTORS
330
C
102
}
330
C
100
AcDbXrecord
280
     1
 90
        1
330
64
  0
DICTIONARY
  5
593
102
{ACAD_REACTORS
330
C
102
}
330
C
100
AcDbDictionary
281
     1
  3
CANNOSCALE
350
599
  3
CMLEADERSTYLE
350
595
  3
CTABLESTYLE
350
594
  3
CVIEWDETAILSTYLE
350
596
  3
CVIEWSECTIONSTYLE
350
597
  3
LAYEREVAL
350
59B
  3
LAYERNOTIFY
350
59C
  3
LIGHTINGUNITS
350
59A
  3
MSLTSCALE
350
598
  3
XCLIPFRAME
350
5D7
  0
XRECORD
  5
57E
102
{ACAD_REACTORS
330
57D
102
}
330
57D
100
AcDbXrecord
280
     1
290
     1
  0
XRECORD
  5
580
102
{ACAD_REACTORS
330
57F
102
}
330
57F
100
AcDbXrecord
280
     1
290
     1
  0
XRECORD
  5
582
102
{ACAD_REACTORS
330
581
102
}
330
581
100
AcDbXrecord
280
     1
290
     1
  0
XRECORD
  5
584
102
{ACAD_REACTORS
330
583
102
}
330
583
100
AcDbXrecord
280
     1
290
     1
  0
XRECORD
  5
586
102
{ACAD_REACTORS
330
585
102
}
330
585
100
AcDbXrecord
280
     1
290
     1
  0
XRECORD
  5
588
102
{ACAD_REACTORS
330
587
102
}
330
587
100
AcDbXrecord
280
     1
290
     1
  0
XRECORD
  5
58A
102
{ACAD_REACTORS
330
589
102
}
330
589
100
AcDbXrecord
280
     1
290
     1
  0
XRECORD
  5
58C
102
{ACAD_REACTORS
330
58B
102
}
330
58B
100
AcDbXrecord
280
     1
290
     1
  0
XRECORD
  5
58E
102
{ACAD_REACTORS
330
58D
102
}
330
58D
100
AcDbXrecord
280
     1
290
     1
  0
XRECORD
  5
590
102
{ACAD_REACTORS
330
58F
102
}
330
58F
100
AcDbXrecord
280
     1
290
     1
  0
XRECORD
  5
592
102
{ACAD_REACTORS
330
591
102
}
330
591
100
AcDbXrecord
280
     1
290
     1
  0
ACDBDETAILVIEWSTYLE
  5
6B
102
{ACAD_REACTORS
330
6A
102
}
330
6A
100
AcDbModelDocViewStyle
 70
     0
  3
Imperial24
290
     0
100
AcDbDetailViewStyle
 70
     0
 71
     0
 90
        3
 71
     1
340
55
 62
   256
 40
0.24
340
0
 62
   256
 40
0.24
300

 40
0.36
280
     3
 71
     2
340
5C
 90
       25
 62
   256
 71
     3
340
55
 62
   256
 40
0.24
 90
        1
 40
0.75
 90
        1
300
%<\AcVar ViewType \f "%tc1">% %<\AcVar ViewDetailId>%\PSCALE %<\AcVar ViewScale \f "%sn">%
 71
     4
340
5C
 90
       25
 62
   256
340
5C
 90
       25
 62
   256
280
     0
  0
LAYOUT
  5
73
102
{ACAD_REACTORS
330
61
102
}
330
61
100
AcDbPlotSettings
  1

  2
C:\Users\WV49162\appdata\roaming\autodesk\autocad lt 2013 - japanese\r18\jpn\plotters\dwg to pdf.pc3
  4

  6

 40
0.0
 41
0.0
 42
0.0
 43
0.0
 44
0.0
 45
0.0
 46
0.0
 47
0.0
 48
0.0
 49
0.0
140
0.0
141
0.0
142
1.0
143
1.0
 70
  1712
 72
     0
 73
     0
 74
     0
  7

 75
     0
147
1.0
 76
     0
 77
     2
 78
   300
148
0.0
149
0.0
100
AcDbLayout
  1
Model
 70
     1
 71
     0
 10
0.0
 20
0.0
 11
12.0
 21
9.0
 12
0.0
 22
0.0
 32
0.0
 14
0.0
 24
0.0
 34
0.0
 15
0.0
 25
0.0
 35
0.0
146
0.0
 13
0.0
 23
0.0
 33
0.0
 16
1.0
 26
0.0
 36
0.0
 17
0.0
 27
1.0
 37
0.0
 76
     0
330
70
331
88
  0
LAYOUT
  5
6F
102
{ACAD_REACTORS
330
61
102
}
330
61
100
AcDbPlotSettings
  1

  2
C:\Users\WV49162\appdata\roaming\autodesk\autocad lt 2013 - japanese\r18\jpn\plotters\dwg to pdf.pc3
  4

  6

 40
0.0
 41
0.0
 42
0.0
 43
0.0
 44
0.0
 45
0.0
 46
0.0
 47
0.0
 48
0.0
 49
0.0
140
0.0
141
0.0
142
1.0
143
1.0
 70
   688
 72
     0
 73
     0
 74
     5
  7

 75
    16
147
1.0
 76
     0
 77
     2
 78
   300
148
0.0
149
0.0
100
AcDbLayout
  1
レイアウト1
 70
     1
 71
     1
 10
0.0
 20
0.0
 11
12.0
 21
9.0
 12
0.0
 22
0.0
 32
0.0
 14
1.000000000000000E+20
 24
1.000000000000000E+20
 34
1.000000000000000E+20
 15
-1.000000000000000E+20
 25
-1.000000000000000E+20
 35
-1.000000000000000E+20
146
0.0
 13
0.0
 23
0.0
 33
0.0
 16
1.0
 26
0.0
 36
0.0
 17
0.0
 27
1.0
 37
0.0
 76
     0
330
6C
  0
MATERIAL
  5
19
102
{ACAD_XDICTIONARY
360
1A
102
}
102
{ACAD_REACTORS
330
10
102
}
330
10
100
AcDbMaterial
  1
ByBlock
 72
     0
 43
0.0208333333333333
 43
0.0
 43
0.0
 43
0.0
 43
0.0
 43
0.0208333333333333
 43
0.0
 43
0.0
 43
0.0
 43
0.0
 43
1.0
 43
0.0
 43
0.0
 43
0.0
 43
0.0
 43
1.0
 77
     0
 47
0.0208333333333333
 47
0.0
 47
0.0
 47
0.0
 47
0.0
 47
0.0208333333333333
 47
0.0
 47
0.0
 47
0.0
 47
0.0
 47
1.0
 47
0.0
 47
0.0
 47
0.0
 47
0.0
 47
1.0
171
     0
 49
0.0208333333333333
 49
0.0
 49
0.0
 49
0.0
 49
0.0
 49
0.0208333333333333
 49
0.0
 49
0.0
 49
0.0
 49
0.0
 49
1.0
 49
0.0
 49
0.0
 49
0.0
 49
0.0
 49
1.0
175
     0
142
0.0208333333333333
142
0.0
142
0.0
142
0.0
142
0.0
142
0.0208333333333333
142
0.0
142
0.0
142
0.0
142
0.0
142
1.0
142
0.0
142
0.0
142
0.0
142
0.0
142
1.0
179
     0
144
0.0208333333333333
144
0.0
144
0.0
144
0.0
144
0.0
144
0.0208333333333333
144
0.0
144
0.0
144
0.0
144
0.0
144
1.0
144
0.0
144
0.0
144
0.0
144
0.0
144
1.0
147
0.0208333333333333
147
0.0
147
0.0
147
0.0
147
0.0
147
0.0208333333333333
147
0.0
147
0.0
147
0.0
147
0.0
147
1.0
147
0.0
147
0.0
147
0.0
147
0.0
147
1.0
  0
MATERIAL
  5
11
102
{ACAD_XDICTIONARY
360
12
102
}
102
{ACAD_REACTORS
330
10
102
}
330
10
100
AcDbMaterial
  1
ByLayer
 72
     0
 43
0.0208333333333333
 43
0.0
 43
0.0
 43
0.0
 43
0.0
 43
0.0208333333333333
 43
0.0
 43
0.0
 43
0.0
 43
0.0
 43
1.0
 43
0.0
 43
0.0
 43
0.0
 43
0.0
 43
1.0
 77
     0
 47
0.0208333333333333
 47
0.0
 47
0.0
 47
0.0
 47
0.0
 47
0.0208333333333333
 47
0.0
 47
0.0
 47
0.0
 47
0.0
 47
1.0
 47
0.0
 47
0.0
 47
0.0
 47
0.0
 47
1.0
171
     0
 49
0.0208333333333333
 49
0.0
 49
0.0
 49
0.0
 49
0.0
 49
0.0208333333333333
 49
0.0
 49
0.0
 49
0.0
 49
0.0
 49
1.0
 49
0.0
 49
0.0
 49
0.0
 49
0.0
 49
1.0
175
     0
142
0.0208333333333333
142
0.0
142
0.0
142
0.0
142
0.0
142
0.0208333333333333
142
0.0
142
0.0
142
0.0
142
0.0
142
1.0
142
0.0
142
0.0
142
0.0
142
0.0
142
1.0
179
     0
144
0.0208333333333333
144
0.0
144
0.0
144
0.0
144
0.0
144
0.0208333333333333
144
0.0
144
0.0
144
0.0
144
0.0
144
1.0
144
0.0
144
0.0
144
0.0
144
0.0
144
1.0
147
0.0208333333333333
147
0.0
147
0.0
147
0.0
147
0.0
147
0.0208333333333333
147
0.0
147
0.0
147
0.0
147
0.0
147
1.0
147
0.0
147
0.0
147
0.0
147
0.0
147
1.0
  0
MATERIAL
  5
21
102
{ACAD_XDICTIONARY
360
22
102
}
102
{ACAD_REACTORS
330
10
102
}
330
10
100
AcDbMaterial
  1
Global
 72
     0
 43
0.0208333333333333
 43
0.0
 43
0.0
 43
0.0
 43
0.0
 43
0.0208333333333333
 43
0.0
 43
0.0
 43
0.0
 43
0.0
 43
1.0
 43
0.0
 43
0.0
 43
0.0
 43
0.0
 43
1.0
 77
     0
 47
0.0208333333333333
 47
0.0
 47
0.0
 47
0.0
 47
0.0
 47
0.0208333333333333
 47
0.0
 47
0.0
 47
0.0
 47
0.0
 47
1.0
 47
0.0
 47
0.0
 47
0.0
 47
0.0
 47
1.0
171
     0
 49
0.0208333333333333
 49
0.0
 49
0.0
 49
0.0
 49
0.0
 49
0.0208333333333333
 49
0.0
 49
0.0
 49
0.0
 49
0.0
 49
1.0
 49
0.0
 49
0.0
 49
0.0
 49
0.0
 49
1.0
175
     0
142
0.0208333333333333
142
0.0
142
0.0
142
0.0
142
0.0
142
0.0208333333333333
142
0.0
142
0.0
142
0.0
142
0.0
142
1.0
142
0.0
142
0.0
142
0.0
142
0.0
142
1.0
179
     0
144
0.0208333333333333
144
0.0
144
0.0
144
0.0
144
0.0
144
0.0208333333333333
144
0.0
144
0.0
144
0.0
144
0.0
144
1.0
144
0.0
144
0.0
144
0.0
144
0.0
144
1.0
147
0.0208333333333333
147
0.0
147
0.0
147
0.0
147
0.0
147
0.0208333333333333
147
0.0
147
0.0
147
0.0
147
0.0
147
1.0
147
0.0
147
0.0
147
0.0
147
0.0
147
1.0
  0
MLEADERSTYLE
  5
66
102
{ACAD_REACTORS
330
65
102
}
330
65
100
AcDbMLeaderStyle
170
     2
171
     1
172
     0
 90
        2
 40
0.0
 41
0.0
173
     1
 91
-1056964608
340
5A
 92
       -2
290
     1
 42
0.09
291
     1
 43
0.36
  3
Standard
 44
0.18
300

342
55
174
     1
178
     6
175
     1
176
     0
 93
-1056964608
 45
0.18
292
     0
297
     0
 46
0.18
 94
-1056964608
 47
1.0
 49
1.0
140
1.0
293
     1
141
0.0
294
     1
177
     0
142
1.0
295
     0
296
     0
143
0.125
1001
ACAD_MLEADERVER
1070
     2
  0
MLINESTYLE
  5
5F
102
{ACAD_REACTORS
330
5E
102
}
330
5E
100
AcDbMlineStyle
  2
STANDARD
 70
     0
  3

 62
   256
 51
90.0
 52
90.0
 71
     2
 49
0.5
 62
   256
  6
BYLAYER
 49
-0.5
 62
   256
  6
BYLAYER
  0
ACDBPLACEHOLDER
  5
F
102
{ACAD_REACTORS
330
E
102
}
330
E
  0
SCALE
  5
43
102
{ACAD_REACTORS
330
42
102
}
330
42
100
AcDbScale
 70
     0
300
1:1
140
1.0
141
1.0
290
     1
  0
SCALE
  5
44
102
{ACAD_REACTORS
330
42
102
}
330
42
100
AcDbScale
 70
     0
300
1/128" = 1'-0"
140
0.0078125
141
12.0
290
     0
  0
SCALE
  5
45
102
{ACAD_REACTORS
330
42
102
}
330
42
100
AcDbScale
 70
     0
300
1/64" = 1'-0"
140
0.015625
141
12.0
290
     0
  0
SCALE
  5
46
102
{ACAD_REACTORS
330
42
102
}
330
42
100
AcDbScale
 70
     0
300
1/32" = 1'-0"
140
0.03125
141
12.0
290
     0
  0
SCALE
  5
47
102
{ACAD_REACTORS
330
42
102
}
330
42
100
AcDbScale
 70
     0
300
1/16" = 1'-0"
140
0.0625
141
12.0
290
     0
  0
SCALE
  5
48
102
{ACAD_REACTORS
330
42
102
}
330
42
100
AcDbScale
 70
     0
300
3/32" = 1'-0"
140
0.09375
141
12.0
290
     0
  0
SCALE
  5
49
102
{ACAD_REACTORS
330
42
102
}
330
42
100
AcDbScale
 70
     0
300
1/8" = 1'-0"
140
0.125
141
12.0
290
     0
  0
SCALE
  5
4A
102
{ACAD_REACTORS
330
42
102
}
330
42
100
AcDbScale
 70
     0
300
3/16" = 1'-0"
140
0.1875
141
12.0
290
     0
  0
SCALE
  5
4B
102
{ACAD_REACTORS
330
42
102
}
330
42
100
AcDbScale
 70
     0
300
1/4" = 1'-0"
140
0.25
141
12.0
290
     0
  0
SCALE
  5
4C
102
{ACAD_REACTORS
330
42
102
}
330
42
100
AcDbScale
 70
     0
300
3/8" = 1'-0"
140
0.375
141
12.0
290
     0
  0
SCALE
  5
4D
102
{ACAD_REACTORS
330
42
102
}
330
42
100
AcDbScale
 70
     0
300
1/2" = 1'-0"
140
0.5
141
12.0
290
     0
  0
SCALE
  5
4E
102
{ACAD_REACTORS
330
42
102
}
330
42
100
AcDbScale
 70
     0
300
3/4" = 1'-0"
140
0.75
141
12.0
290
     0
  0
SCALE
  5
4F
102
{ACAD_REACTORS
330
42
102
}
330
42
100
AcDbScale
 70
     0
300
1" = 1'-0"
140
1.0
141
12.0
290
     0
  0
SCALE
  5
50
102
{ACAD_REACTORS
330
42
102
}
330
42
100
AcDbScale
 70
     0
300
1-1/2" = 1'-0"
140
1.5
141
12.0
290
     0
  0
SCALE
  5
51
102
{ACAD_REACTORS
330
42
102
}
330
42
100
AcDbScale
 70
     0
300
3" = 1'-0"
140
3.0
141
12.0
290
     0
  0
SCALE
  5
52
102
{ACAD_REACTORS
330
42
102
}
330
42
100
AcDbScale
 70
     0
300
6" = 1'-0"
140
6.0
141
12.0
290
     0
  0
SCALE
  5
53
102
{ACAD_REACTORS
330
42
102
}
330
42
100
AcDbScale
 70
     0
300
1'-0" = 1'-0"
140
12.0
141
12.0
290
     0
  0
ACDBSECTIONVIEWSTYLE
  5
69
102
{ACAD_REACTORS
330
67
102
}
330
67
100
AcDbModelDocViewStyle
 70
     0
  3
Imperial24
290
     0
100
AcDbSectionViewStyle
 70
     0
 71
     0
 90
       78
 71
     1
340
55
 62
   256
 40
0.24
340
0
340
0
 62
   256
 40
0.24
300
I, O, Q, S, X, Z
 40
0.48
 90
        3
 40
0.18
 90
        1
 71
     2
340
68
 90
       25
 62
   256
340
5C
 90
       50
 62
   256
 40
0.24
 40
0.0
 40
0.24
 71
     3
340
55
 62
   256
 40
0.24
 90
        1
 40
0.75
 90
        1
300
%<\AcVar ViewType \f "%tc1">% %<\AcVar ViewSectionStartId>%-%<\AcVar ViewSectionEndId>%\PSCALE %<\AcVar ViewScale \f "%sn">%
 71
     4
 62
   256
 62
   257
300
ANSI31
 40
1.0
 90
        0
290
     0
290
     0
 90
        6
 40
0.0
 40
1.570796326794896
 40
0.2617993877991494
 40
1.308996938995747
 40
-0.2617993877991494
 40
1.832595714594045
  0
TABLESTYLE
  5
64
102
{ACAD_XDICTIONARY
360
59E
102
}
102
{ACAD_REACTORS
330
63
102
}
330
63
100
AcDbTableStyle
  3
Standard
 70
     0
 71
     0
 40
0.06
 41
0.06
280
     0
281
     0
  7
STANDARD
140
0.18
170
     2
 62
     0
 63
     7
283
     0
 90
      512
 91
        0
  1

274
    -2
284
     1
 64
     0
275
    -2
285
     1
 65
     0
276
    -2
286
     1
 66
     0
277
    -2
287
     1
 67
     0
278
    -2
288
     1
 68
     0
279
    -2
289
     1
 69
     0
  7
STANDARD
140
0.25
170
     5
 62
     0
 63
     7
283
     0
 90
      512
 91
        0
  1

274
    -2
284
     1
 64
     0
275
    -2
285
     1
 65
     0
276
    -2
286
     1
 66
     0
277
    -2
287
     1
 67
     0
278
    -2
288
     1
 68
     0
279
    -2
289
     1
 69
     0
  7
STANDARD
140
0.18
170
     5
 62
     0
 63
     7
283
     0
 90
      512
 91
        0
  1

274
    -2
284
     1
 64
     0
275
    -2
285
     1
 65
     0
276
    -2
286
     1
 66
     0
277
    -2
287
     1
 67
     0
278
    -2
288
     1
 68
     0
279
    -2
289
     1
 69
     0
  0
VISUALSTYLE
  5
2F
102
{ACAD_XDICTIONARY
360
5E4
102
}
102
{ACAD_REACTORS
330
29
102
}
330
29
100
AcDbVisualStyle
  2

 70
     4
 71
     0
 72
     2
 73
     0
 90
        0
 40
-0.6
 41
-30.0
 62
     5
 63
     7
421
 16777215
 74
     1
 91
        4
 64
     7
 65
   257
 75
     1
175
     1
 42
1.0
 92
        0
 66
   257
 43
1.0
 76
     1
 77
     6
 78
     2
 67
     7
 79
     5
170
     0
171
     0
290
     0
174
     0
 93
        1
 44
0.0
173
     0
291
     0
 45
0.0
1001
ACAD
1000
AcDbSavedByObjectVersion
1070
     0
  0
VISUALSTYLE
  5
2E
102
{ACAD_XDICTIONARY
360
5E2
102
}
102
{ACAD_REACTORS
330
29
102
}
330
29
100
AcDbVisualStyle
  2

 70
     7
 71
     1
 72
     0
 73
     1
 90
        0
 40
-0.6
 41
-30.0
 62
     5
 63
     7
421
 16777215
 74
     0
 91
        4
 64
     7
 65
   257
 75
     1
175
     1
 42
1.0
 92
        8
 66
     7
 43
1.0
 76
     1
 77
     6
 78
     2
 67
     7
 79
     5
170
     0
171
     0
290
     0
174
     0
 93
        1
 44
0.0
173
     0
291
     1
 45
0.0
1001
ACAD
1000
AcDbSavedByObjectVersion
1070
     0
  0
VISUALSTYLE
  5
35
102
{ACAD_XDICTIONARY
360
5F0
102
}
102
{ACAD_REACTORS
330
29
102
}
330
29
100
AcDbVisualStyle
  2

 70
    12
 71
     2
 72
     2
 73
     0
 90
        0
 40
-0.6
 41
-30.0
 62
     5
 63
     7
421
 16777215
 74
     1
 91
        4
 64
     7
 65
   257
 75
     1
175
     1
 42
1.0
 92
        8
 66
     7
 43
1.0
 76
     1
 77
     6
 78
     2
 67
     7
 79
     5
170
     0
171
     0
290
     0
174
     0
 93
        1
 44
50.0
173
     0
291
     1
 45
0.0
1001
ACAD
1000
AcDbSavedByObjectVersion
1070
     0
  0
VISUALSTYLE
  5
39
102
{ACAD_XDICTIONARY
360
5F8
102
}
102
{ACAD_REACTORS
330
29
102
}
330
29
100
AcDbVisualStyle
  2

 70
    16
 71
     2
 72
     2
 73
     3
 90
        0
 40
-0.6
 41
-30.0
 62
     5
 63
     8
421
  8421504
 74
     1
 91
        4
 64
     7
 65
   257
 75
     1
175
     1
 42
1.0
 92
        8
 66
     8
424
  8421504
 43
1.0
 76
     1
 77
     6
 78
     2
 67
     7
 79
     5
170
     0
171
     0
290
     0
174
     0
 93
        1
 44
0.0
173
     0
291
     1
 45
0.0
1001
ACAD
1000
AcDbSavedByObjectVersion
1070
     0
  0
VISUALSTYLE
  5
32
102
{ACAD_XDICTIONARY
360
5EA
102
}
102
{ACAD_REACTORS
330
29
102
}
330
29
100
AcDbVisualStyle
  2

 70
     9
 71
     3
 72
     2
 73
     0
 90
        0
 40
-0.6
 41
-30.0
 62
     5
 63
     7
421
 16777215
 74
     2
 91
        2
 64
     7
 65
   257
 75
     1
175
     1
 42
179.0
 92
        8
 66
     7
 43
1.0
 76
     1
 77
     6
 78
     2
 67
     7
 79
     3
170
     0
171
     0
290
     0
174
     0
 93
        1
 44
0.0
173
     0
291
     0
 45
0.0
1001
ACAD
1000
AcDbSavedByObjectVersion
1070
     0
  0
VISUALSTYLE
  5
34
102
{ACAD_XDICTIONARY
360
5EE
102
}
102
{ACAD_REACTORS
330
29
102
}
330
29
100
AcDbVisualStyle
  2

 70
    11
 71
     2
 72
     2
 73
     0
 90
        0
 40
-0.6
 41
-30.0
 62
     5
 63
     7
421
 16777215
 74
     1
 91
        4
 64
     7
 65
   257
 75
     1
175
     1
 42
1.0
 92
        8
 66
     7
 43
1.0
 76
     1
 77
     6
 78
     2
 67
     7
 79
     5
170
     0
171
     0
290
     0
174
     0
 93
        1
 44
-50.0
173
     0
291
     1
 45
0.0
1001
ACAD
1000
AcDbSavedByObjectVersion
1070
     0
  0
VISUALSTYLE
  5
41
102
{ACAD_XDICTIONARY
360
608
102
}
102
{ACAD_REACTORS
330
29
102
}
330
29
100
AcDbVisualStyle
  2

 70
    22
 71
     2
 72
     2
 73
     0
 90
        0
 40
-0.6
 41
-30.0
 62
     5
 63
     7
421
 16777215
 74
     1
 91
        4
 64
     7
 65
   257
 75
     1
175
     1
 42
1.0
 92
        8
 66
     7
 43
1.0
 76
     1
 77
     6
 78
     2
 67
     7
 79
     5
170
     0
171
     0
290
     0
174
     0
 93
        1
 44
0.0
173
     0
291
     1
 45
0.0
1001
ACAD
1000
AcDbSavedByObjectVersion
1070
     0
  0
VISUALSTYLE
  5
38
102
{ACAD_XDICTIONARY
360
5F6
102
}
102
{ACAD_REACTORS
330
29
102
}
330
29
100
AcDbVisualStyle
  2

 70
    15
 71
     2
 72
     2
 73
     0
 90
        0
 40
-0.6
 41
-30.0
 62
     5
 63
     7
421
 16777215
 74
     1
 91
        4
 64
     7
 65
   257
 75
     1
175
     1
 42
1.0
 92
        8
 66
     7
 43
1.0
 76
     1
 77
     6
 78
     2
 67
     7
 79
     5
170
     0
171
     0
290
     0
174
     0
 93
        1
 44
0.0
173
     0
291
     1
 45
0.0
1001
ACAD
1000
AcDbSavedByObjectVersion
1070
     0
  0
VISUALSTYLE
  5
2A
102
{ACAD_XDICTIONARY
360
5DA
102
}
102
{ACAD_REACTORS
330
29
102
}
330
29
100
AcDbVisualStyle
  2

 70
     0
 71
     2
 72
     1
 73
     1
 90
        2
 40
-0.6
 41
30.0
 62
     5
 63
     7
421
 16777215
 74
     0
 91
        0
 64
     7
 65
   257
 75
     1
175
     1
 42
1.0
 92
        8
 66
     7
 43
1.0
 76
     1
 77
     6
 78
     2
 67
     7
 79
     5
170
     0
171
     0
290
     0
174
     0
 93
       13
 44
0.0
173
     0
291
     1
 45
0.0
1001
ACAD
1000
AcDbSavedByObjectVersion
1070
     0
  0
VISUALSTYLE
  5
2B
102
{ACAD_XDICTIONARY
360
5DC
102
}
102
{ACAD_REACTORS
330
29
102
}
330
29
100
AcDbVisualStyle
  2

 70
     1
 71
     2
 72
     1
 73
     1
 90
        2
 40
-0.6
 41
30.0
 62
     5
 63
     7
421
 16777215
 74
     1
 91
        0
 64
     7
 65
   257
 75
     1
175
     1
 42
1.0
 92
        0
 66
   257
 43
1.0
 76
     1
 77
     6
 78
     2
 67
     7
 79
     5
170
     0
171
     0
290
     0
174
     0
 93
       13
 44
0.0
173
     0
291
     1
 45
0.0
1001
ACAD
1000
AcDbSavedByObjectVersion
1070
     0
  0
VISUALSTYLE
  5
2C
102
{ACAD_XDICTIONARY
360
5DE
102
}
102
{ACAD_REACTORS
330
29
102
}
330
29
100
AcDbVisualStyle
  2

 70
     2
 71
     2
 72
     2
 73
     1
 90
        2
 40
-0.6
 41
30.0
 62
     5
 63
     7
421
 16777215
 74
     0
 91
        0
 64
     7
 65
   257
 75
     1
175
     1
 42
1.0
 92
        0
 66
     7
 43
1.0
 76
     1
 77
     6
 78
     2
 67
     7
 79
     5
170
     0
171
     0
290
     0
174
     0
 93
       13
 44
0.0
173
     0
291
     1
 45
0.0
1001
ACAD
1000
AcDbSavedByObjectVersion
1070
     0
  0
VISUALSTYLE
  5
2D
102
{ACAD_XDICTIONARY
360
5E0
102
}
102
{ACAD_REACTORS
330
29
102
}
330
29
100
AcDbVisualStyle
  2

 70
     3
 71
     2
 72
     2
 73
     1
 90
        2
 40
-0.6
 41
30.0
 62
     5
 63
     7
421
 16777215
 74
     1
 91
        0
 64
     7
 65
   257
 75
     1
175
     1
 42
1.0
 92
        0
 66
   257
 43
1.0
 76
     1
 77
     6
 78
     2
 67
     7
 79
     5
170
     0
171
     0
290
     0
174
     0
 93
       13
 44
0.0
173
     0
291
     1
 45
0.0
1001
ACAD
1000
AcDbSavedByObjectVersion
1070
     0
  0
VISUALSTYLE
  5
31
102
{ACAD_XDICTIONARY
360
5E8
102
}
102
{ACAD_REACTORS
330
29
102
}
330
29
100
AcDbVisualStyle
  2

 70
     6
 71
     1
 72
     2
 73
     2
 90
        0
 40
-0.6
 41
-30.0
 62
     5
 63
     7
421
 16777215
 74
     2
 91
        2
 64
     7
 65
   257
 75
     2
175
     1
 42
40.0
 92
        0
 66
   257
 43
1.0
 76
     1
 77
     6
 78
     2
 67
     7
 79
     3
170
     0
171
     0
290
     0
174
     0
 93
        1
 44
0.0
173
     0
291
     0
 45
0.0
1001
ACAD
1000
AcDbSavedByObjectVersion
1070
     0
  0
VISUALSTYLE
  5
3F
102
{ACAD_XDICTIONARY
360
604
102
}
102
{ACAD_REACTORS
330
29
102
}
330
29
100
AcDbVisualStyle
  2

 70
    20
 71
     2
 72
     2
 73
     0
 90
        0
 40
-0.6
 41
-30.0
 62
     5
 63
     7
421
 16777215
 74
     1
 91
        4
 64
     7
 65
   257
 75
     1
175
     1
 42
1.0
 92
       10
 66
     7
 43
1.0
 76
     1
 77
     6
 78
     2
 67
     7
 79
     5
170
     0
171
     0
290
     0
174
     0
 93
        1
 44
0.0
173
     0
291
     1
 45
0.0
1001
ACAD
1000
AcDbSavedByObjectVersion
1070
     0
  0
VISUALSTYLE
  5
37
102
{ACAD_XDICTIONARY
360
5F4
102
}
102
{ACAD_REACTORS
330
29
102
}
330
29
100
AcDbVisualStyle
  2

 70
    14
 71
     2
 72
     2
 73
     0
 90
        0
 40
-0.6
 41
-30.0
 62
     5
 63
     7
421
 16777215
 74
     1
 91
        4
 64
     7
 65
   257
 75
     7
175
     7
 42
1.0
 92
        8
 66
     7
 43
1.0
 76
     1
 77
     6
 78
     2
 67
     7
 79
     5
170
     0
171
     0
290
     0
174
     0
 93
        1
 44
0.0
173
     0
291
     1
 45
0.0
1001
ACAD
1000
AcDbSavedByObjectVersion
1070
     0
  0
VISUALSTYLE
  5
40
102
{ACAD_XDICTIONARY
360
606
102
}
102
{ACAD_REACTORS
330
29
102
}
330
29
100
AcDbVisualStyle
  2

 70
    21
 71
     2
 72
     2
 73
     0
 90
        0
 40
-0.6
 41
-30.0
 62
     5
 63
     7
421
 16777215
 74
     1
 91
        4
 64
     7
 65
   257
 75
     1
175
     1
 42
1.0
 92
        9
 66
     7
 43
1.0
 76
     1
 77
     6
 78
     2
 67
     7
 79
     5
170
     0
171
     0
290
     0
174
     0
 93
        1
 44
0.0
173
     0
291
     1
 45
0.0
1001
ACAD
1000
AcDbSavedByObjectVersion
1070
     0
  0
VISUALSTYLE
  5
33
102
{ACAD_XDICTIONARY
360
5EC
102
}
102
{ACAD_REACTORS
330
29
102
}
330
29
100
AcDbVisualStyle
  2

 70
     8
 71
     2
 72
     3
 73
     0
 90
        2
 40
-0.6
 41
30.0
 62
     5
 63
     7
421
 16777215
 74
     0
 91
        0
 64
     7
 65
   257
 75
     1
175
     1
 42
1.0
 92
        8
 66
   257
 43
1.0
 76
     1
 77
     6
 78
     2
 67
     7
 79
     3
170
     0
171
     0
290
     0
174
     0
 93
       13
 44
0.0
173
     0
291
     0
 45
0.0
1001
ACAD
1000
AcDbSavedByObjectVersion
1070
     0
  0
VISUALSTYLE
  5
3E
102
{ACAD_XDICTIONARY
360
602
102
}
102
{ACAD_REACTORS
330
29
102
}
330
29
100
AcDbVisualStyle
  2

 70
    27
 71
     2
 72
     2
 73
     1
 90
        2
 40
-0.6
 41
30.0
 62
     5
 63
     7
421
 16777215
 74
     0
 91
        4
 64
     7
 65
   257
 75
     1
175
     1
 42
1.0
 92
        8
 66
   257
 43
1.0
 76
     1
 77
     6
 78
     2
 67
     8
425
  7895160
 79
     3
170
     0
171
     0
290
     0
174
     0
 93
        5
 44
0.0
173
     0
291
     0
 45
0.0
1001
ACAD
1000
AcDbSavedByObjectVersion
1070
     0
  0
VISUALSTYLE
  5
3D
102
{ACAD_XDICTIONARY
360
600
102
}
102
{ACAD_REACTORS
330
29
102
}
330
29
100
AcDbVisualStyle
  2

 70
    26
 71
     2
 72
     2
 73
     1
 90
        2
 40
-0.6
 41
30.0
 62
     5
 63
     7
421
 16777215
 74
     1
 91
       10
 64
     7
 65
   257
 75
     2
175
     1
 42
1.0
 92
        8
 66
   257
 43
1.0
 76
     1
 77
     6
 78
     2
 67
     7
 79
     3
170
     0
171
     0
290
     0
174
     0
 93
        5
 44
0.0
173
     0
291
     0
 45
0.0
1001
ACAD
1000
AcDbSavedByObjectVersion
1070
     0
  0
VISUALSTYLE
  5
3A
102
{ACAD_XDICTIONARY
360
5FA
102
}
102
{ACAD_REACTORS
330
29
102
}
330
29
100
AcDbVisualStyle
  2

 70
    23
 71
     2
 72
     2
 73
     3
 90
        0
 40
-0.6
 41
-30.0
 62
     5
 63
     7
421
 16777215
 74
     2
 91
        2
 64
     7
 65
     7
 75
     1
175
     1
 42
40.0
 92
        8
 66
     7
 43
1.0
 76
     1
 77
     6
 78
     2
 67
     7
 79
     3
170
     0
171
     0
290
     0
174
     0
 93
        1
 44
0.0
173
     0
291
     0
 45
0.0
1001
ACAD
1000
AcDbSavedByObjectVersion
1070
     0
  0
VISUALSTYLE
  5
3B
102
{ACAD_XDICTIONARY
360
5FC
102
}
102
{ACAD_REACTORS
330
29
102
}
330
29
100
AcDbVisualStyle
  2

 70
    24
 71
     1
 72
     2
 73
     2
 90
        0
 40
-0.6
 41
-30.0
 62
     5
 63
     7
421
 16777215
 74
     2
 91
        2
 64
     7
 65
     7
 75
     1
175
     1
 42
40.0
 92
       11
 66
     7
 43
1.0
 76
     1
 77
     6
 78
     2
 67
     7
 79
     6
170
     0
171
     0
290
     0
174
     0
 93
        1
 44
0.0
173
     0
291
     0
 45
0.0
1001
ACAD
1000
AcDbSavedByObjectVersion
1070
     0
  0
VISUALSTYLE
  5
36
102
{ACAD_XDICTIONARY
360
5F2
102
}
102
{ACAD_REACTORS
330
29
102
}
330
29
100
AcDbVisualStyle
  2

 70
    13
 71
     2
 72
     2
 73
     0
 90
        0
 40
-0.6
 41
-30.0
 62
     5
 63
     7
421
 16777215
 74
     1
 91
        4
 64
     7
 65
   257
 75
     1
175
     1
 42
1.0
 92
       12
 66
     7
 43
1.0
 76
     1
 77
     6
 78
     2
 67
     7
 79
     5
170
     0
171
     0
290
     0
174
     0
 93
        1
 44
0.0
173
     0
291
     1
 45
0.0
1001
ACAD
1000
AcDbSavedByObjectVersion
1070
     0
  0
VISUALSTYLE
  5
30
102
{ACAD_XDICTIONARY
360
5E6
102
}
102
{ACAD_REACTORS
330
29
102
}
330
29
100
AcDbVisualStyle
  2

 70
     5
 71
     0
 72
     2
 73
     0
 90
        0
 40
-0.6
 41
-30.0
 62
     5
 63
     7
421
 16777215
 74
     1
 91
        4
 64
     7
 65
   257
 75
     1
175
     1
 42
1.0
 92
        0
 66
   257
 43
1.0
 76
     1
 77
     6
 78
     2
 67
     7
 79
     3
170
     0
171
     0
290
     0
174
     0
 93
        1
 44
0.0
173
     0
291
     0
 45
0.0
1001
ACAD
1000
AcDbSavedByObjectVersion
1070
     0
  0
VISUALSTYLE
  5
3C
102
{ACAD_XDICTIONARY
360
5FE
102
}
102
{ACAD_REACTORS
330
29
102
}
330
29
100
AcDbVisualStyle
  2

 70
    25
 71
     2
 72
     2
 73
     1
 90
        1
 40
0.5
 41
-30.0
 62
     5
 63
     7
421
 16777215
 74
     1
 91
        0
 64
     7
 65
   257
 75
     1
175
     1
 42
1.0
 92
        8
 66
     7
 43
1.0
 76
     1
 77
     6
 78
     2
 67
     7
 79
     3
170
     0
171
     0
290
     0
174
     0
 93
       13
 44
0.0
173
     0
291
     0
 45
0.0
1001
ACAD
1000
AcDbSavedByObjectVersion
1070
     0
  0
DICTIONARYVAR
  5
599
102
{ACAD_REACTORS
330
593
102
}
330
593
100
DictionaryVariables
280
     0
  1
1:1
  0
DICTIONARYVAR
  5
595
102
{ACAD_REACTORS
330
593
102
}
330
593
100
DictionaryVariables
280
     0
  1
STANDARD
  0
DICTIONARYVAR
  5
594
102
{ACAD_REACTORS
330
593
102
}
330
593
100
DictionaryVariables
280
     0
  1
STANDARD
  0
DICTIONARYVAR
  5
596
102
{ACAD_REACTORS
330
593
102
}
330
593
100
DictionaryVariables
280
     0
  1
Imperial24
  0
DICTIONARYVAR
  5
597
102
{ACAD_REACTORS
330
593
102
}
330
593
100
DictionaryVariables
280
     0
  1
Imperial24
  0
DICTIONARYVAR
  5
59B
102
{ACAD_REACTORS
330
593
102
}
330
593
100
DictionaryVariables
280
     0
  1
1
  0
DICTIONARYVAR
  5
59C
102
{ACAD_REACTORS
330
593
102
}
330
593
100
DictionaryVariables
280
     0
  1
15
  0
DICTIONARYVAR
  5
59A
102
{ACAD_REACTORS
330
593
102
}
330
593
100
DictionaryVariables
280
     0
  1
0
  0
DICTIONARYVAR
  5
598
102
{ACAD_REACTORS
330
593
102
}
330
593
100
DictionaryVariables
280
     0
  1
0
  0
DICTIONARYVAR
  5
5D7
102
{ACAD_REACTORS
330
593
102
}
330
593
100
DictionaryVariables
280
     0
  1
2
  0
DICTIONARY
  5
1A
330
19
100
AcDbDictionary
280
     1
281
     1
  3
BUMPTILE
360
1C
  3
DIFFUSETILE
360
1B
  3
OPACITYTILE
360
1F
  3
REFLECTIONTILE
360
1E
  3
REFRACTIONTILE
360
20
  3
SPECULARTILE
360
1D
  0
DICTIONARY
  5
12
330
11
100
AcDbDictionary
280
     1
281
     1
  3
BUMPTILE
360
14
  3
DIFFUSETILE
360
13
  3
OPACITYTILE
360
17
  3
REFLECTIONTILE
360
16
  3
REFRACTIONTILE
360
18
  3
SPECULARTILE
360
15
  0
DICTIONARY
  5
22
330
21
100
AcDbDictionary
280
     1
281
     1
  3
BUMPTILE
360
24
  3
DIFFUSETILE
360
23
  3
OPACITYTILE
360
27
  3
REFLECTIONTILE
360
26
  3
REFRACTIONTILE
360
28
  3
SPECULARTILE
360
25
  0
DICTIONARY
  5
59E
330
64
100
AcDbDictionary
280
     1
281
     1
  3
ACAD_ROUNDTRIP_2008_TABLESTYLE_CELLSTYLEMAP
360
5D8
  0
DICTIONARY
  5
5E4
330
2F
100
AcDbDictionary
280
     1
281
     1
  3
ACAD_XREC_ROUNDTRIP
360
5E5
  0
DICTIONARY
  5
5E2
330
2E
100
AcDbDictionary
280
     1
281
     1
  3
ACAD_XREC_ROUNDTRIP
360
5E3
  0
DICTIONARY
  5
5F0
330
35
100
AcDbDictionary
280
     1
281
     1
  3
ACAD_XREC_ROUNDTRIP
360
5F1
  0
DICTIONARY
  5
5F8
330
39
100
AcDbDictionary
280
     1
281
     1
  3
ACAD_XREC_ROUNDTRIP
360
5F9
  0
DICTIONARY
  5
5EA
330
32
100
AcDbDictionary
280
     1
281
     1
  3
ACAD_XREC_ROUNDTRIP
360
5EB
  0
DICTIONARY
  5
5EE
330
34
100
AcDbDictionary
280
     1
281
     1
  3
ACAD_XREC_ROUNDTRIP
360
5EF
  0
DICTIONARY
  5
608
330
41
100
AcDbDictionary
280
     1
281
     1
  3
ACAD_XREC_ROUNDTRIP
360
609
  0
DICTIONARY
  5
5F6
330
38
100
AcDbDictionary
280
     1
281
     1
  3
ACAD_XREC_ROUNDTRIP
360
5F7
  0
DICTIONARY
  5
5DA
330
2A
100
AcDbDictionary
280
     1
281
     1
  3
ACAD_XREC_ROUNDTRIP
360
5DB
  0
DICTIONARY
  5
5DC
330
2B
100
AcDbDictionary
280
     1
281
     1
  3
ACAD_XREC_ROUNDTRIP
360
5DD
  0
DICTIONARY
  5
5DE
330
2C
100
AcDbDictionary
280
     1
281
     1
  3
ACAD_XREC_ROUNDTRIP
360
5DF
  0
DICTIONARY
  5
5E0
330
2D
100
AcDbDictionary
280
     1
281
     1
  3
ACAD_XREC_ROUNDTRIP
360
5E1
  0
DICTIONARY
  5
5E8
330
31
100
AcDbDictionary
280
     1
281
     1
  3
ACAD_XREC_ROUNDTRIP
360
5E9
  0
DICTIONARY
  5
604
330
3F
100
AcDbDictionary
280
     1
281
     1
  3
ACAD_XREC_ROUNDTRIP
360
605
  0
DICTIONARY
  5
5F4
330
37
100
AcDbDictionary
280
     1
281
     1
  3
ACAD_XREC_ROUNDTRIP
360
5F5
  0
DICTIONARY
  5
606
330
40
100
AcDbDictionary
280
     1
281
     1
  3
ACAD_XREC_ROUNDTRIP
360
607
  0
DICTIONARY
  5
5EC
330
33
100
AcDbDictionary
280
     1
281
     1
  3
ACAD_XREC_ROUNDTRIP
360
5ED
  0
DICTIONARY
  5
602
330
3E
100
AcDbDictionary
280
     1
281
     1
  3
ACAD_XREC_ROUNDTRIP
360
603
  0
DICTIONARY
  5
600
330
3D
100
AcDbDictionary
280
     1
281
     1
  3
ACAD_XREC_ROUNDTRIP
360
601
  0
DICTIONARY
  5
5FA
330
3A
100
AcDbDictionary
280
     1
281
     1
  3
ACAD_XREC_ROUNDTRIP
360
5FB
  0
DICTIONARY
  5
5FC
330
3B
100
AcDbDictionary
280
     1
281
     1
  3
ACAD_XREC_ROUNDTRIP
360
5FD
  0
DICTIONARY
  5
5F2
330
36
100
AcDbDictionary
280
     1
281
     1
  3
ACAD_XREC_ROUNDTRIP
360
5F3
  0
DICTIONARY
  5
5E6
330
30
100
AcDbDictionary
280
     1
281
     1
  3
ACAD_XREC_ROUNDTRIP
360
5E7
  0
DICTIONARY
  5
5FE
330
3C
100
AcDbDictionary
280
     1
281
     1
  3
ACAD_XREC_ROUNDTRIP
360
5FF
  0
XRECORD
  5
1C
102
{ACAD_REACTORS
330
1A
102
}
330
1A
100
AcDbXrecord
280
     1
270
     1
271
     1
  0
XRECORD
  5
1B
102
{ACAD_REACTORS
330
1A
102
}
330
1A
100
AcDbXrecord
280
     1
270
     1
271
     1
  0
XRECORD
  5
1F
102
{ACAD_REACTORS
330
1A
102
}
330
1A
100
AcDbXrecord
280
     1
270
     1
271
     1
  0
XRECORD
  5
1E
102
{ACAD_REACTORS
330
1A
102
}
330
1A
100
AcDbXrecord
280
     1
270
     1
271
     1
  0
XRECORD
  5
20
102
{ACAD_REACTORS
330
1A
102
}
330
1A
100
AcDbXrecord
280
     1
270
     1
271
     1
  0
XRECORD
  5
1D
102
{ACAD_REACTORS
330
1A
102
}
330
1A
100
AcDbXrecord
280
     1
270
     1
271
     1
  0
XRECORD
  5
14
102
{ACAD_REACTORS
330
12
102
}
330
12
100
AcDbXrecord
280
     1
270
     1
271
     1
  0
XRECORD
  5
13
102
{ACAD_REACTORS
330
12
102
}
330
12
100
AcDbXrecord
280
     1
270
     1
271
     1
  0
XRECORD
  5
17
102
{ACAD_REACTORS
330
12
102
}
330
12
100
AcDbXrecord
280
     1
270
     1
271
     1
  0
XRECORD
  5
16
102
{ACAD_REACTORS
330
12
102
}
330
12
100
AcDbXrecord
280
     1
270
     1
271
     1
  0
XRECORD
  5
18
102
{ACAD_REACTORS
330
12
102
}
330
12
100
AcDbXrecord
280
     1
270
     1
271
     1
  0
XRECORD
  5
15
102
{ACAD_REACTORS
330
12
102
}
330
12
100
AcDbXrecord
280
     1
270
     1
271
     1
  0
XRECORD
  5
24
102
{ACAD_REACTORS
330
22
102
}
330
22
100
AcDbXrecord
280
     1
270
     1
271
     1
  0
XRECORD
  5
23
102
{ACAD_REACTORS
330
22
102
}
330
22
100
AcDbXrecord
280
     1
270
     1
271
     1
  0
XRECORD
  5
27
102
{ACAD_REACTORS
330
22
102
}
330
22
100
AcDbXrecord
280
     1
270
     1
271
     1
  0
XRECORD
  5
26
102
{ACAD_REACTORS
330
22
102
}
330
22
100
AcDbXrecord
280
     1
270
     1
271
     1
  0
XRECORD
  5
28
102
{ACAD_REACTORS
330
22
102
}
330
22
100
AcDbXrecord
280
     1
270
     1
271
     1
  0
XRECORD
  5
25
102
{ACAD_REACTORS
330
22
102
}
330
22
100
AcDbXrecord
280
     1
270
     1
271
     1
  0
CELLSTYLEMAP
  5
5D8
102
{ACAD_REACTORS
330
59E
102
}
330
59E
100
AcDbCellStyleMap
 90
        3
300
CELLSTYLE
  1
TABLEFORMAT_BEGIN
 90
        5
170
     1
 91
        0
 92
    32768
 62
   257
 93
        1
300
CONTENTFORMAT
  1
CONTENTFORMAT_BEGIN
 90
        0
 91
        0
 92
      512
 93
        0
300

 40
0.0
140
1.0
 94
        5
 62
     0
340
55
144
0.25
309
CONTENTFORMAT_END
171
     1
301
MARGIN
  1
CELLMARGIN_BEGIN
 40
0.06
 40
0.06
 40
0.06
 40
0.06
 40
0.18
 40
0.18
309
CELLMARGIN_END
 94
        6
 95
        1
302
GRIDFORMAT
  1
GRIDFORMAT_BEGIN
 90
        0
 91
        1
 62
     0
 92
       -2
340
0
 93
        0
 40
0.045
309
GRIDFORMAT_END
 95
        2
302
GRIDFORMAT
  1
GRIDFORMAT_BEGIN
 90
        0
 91
        1
 62
     0
 92
       -2
340
0
 93
        0
 40
0.045
309
GRIDFORMAT_END
 95
        4
302
GRIDFORMAT
  1
GRIDFORMAT_BEGIN
 90
        0
 91
        1
 62
     0
 92
       -2
340
0
 93
        0
 40
0.045
309
GRIDFORMAT_END
 95
        8
302
GRIDFORMAT
  1
GRIDFORMAT_BEGIN
 90
        0
 91
        1
 62
     0
 92
       -2
340
0
 93
        0
 40
0.045
309
GRIDFORMAT_END
 95
       16
302
GRIDFORMAT
  1
GRIDFORMAT_BEGIN
 90
        0
 91
        1
 62
     0
 92
       -2
340
0
 93
        0
 40
0.045
309
GRIDFORMAT_END
 95
       32
302
GRIDFORMAT
  1
GRIDFORMAT_BEGIN
 90
        0
 91
        1
 62
     0
 92
       -2
340
0
 93
        0
 40
0.045
309
GRIDFORMAT_END
309
TABLEFORMAT_END
  1
CELLSTYLE_BEGIN
 90
        1
 91
        1
300
_TITLE
309
CELLSTYLE_END
300
CELLSTYLE
  1
TABLEFORMAT_BEGIN
 90
        5
170
     1
 91
        0
 92
        0
 62
   257
 93
        1
300
CONTENTFORMAT
  1
CONTENTFORMAT_BEGIN
 90
        0
 91
        0
 92
      512
 93
        0
300

 40
0.0
140
1.0
 94
        5
 62
     0
340
55
144
0.18
309
CONTENTFORMAT_END
171
     1
301
MARGIN
  1
CELLMARGIN_BEGIN
 40
0.06
 40
0.06
 40
0.06
 40
0.06
 40
0.18
 40
0.18
309
CELLMARGIN_END
 94
        6
 95
        1
302
GRIDFORMAT
  1
GRIDFORMAT_BEGIN
 90
        0
 91
        1
 62
     0
 92
       -2
340
0
 93
        0
 40
0.045
309
GRIDFORMAT_END
 95
        2
302
GRIDFORMAT
  1
GRIDFORMAT_BEGIN
 90
        0
 91
        1
 62
     0
 92
       -2
340
0
 93
        0
 40
0.045
309
GRIDFORMAT_END
 95
        4
302
GRIDFORMAT
  1
GRIDFORMAT_BEGIN
 90
        0
 91
        1
 62
     0
 92
       -2
340
0
 93
        0
 40
0.045
309
GRIDFORMAT_END
 95
        8
302
GRIDFORMAT
  1
GRIDFORMAT_BEGIN
 90
        0
 91
        1
 62
     0
 92
       -2
340
0
 93
        0
 40
0.045
309
GRIDFORMAT_END
 95
       16
302
GRIDFORMAT
  1
GRIDFORMAT_BEGIN
 90
        0
 91
        1
 62
     0
 92
       -2
340
0
 93
        0
 40
0.045
309
GRIDFORMAT_END
 95
       32
302
GRIDFORMAT
  1
GRIDFORMAT_BEGIN
 90
        0
 91
        1
 62
     0
 92
       -2
340
0
 93
        0
 40
0.045
309
GRIDFORMAT_END
309
TABLEFORMAT_END
  1
CELLSTYLE_BEGIN
 90
        2
 91
        1
300
_HEADER
309
CELLSTYLE_END
300
CELLSTYLE
  1
TABLEFORMAT_BEGIN
 90
        5
170
     1
 91
        0
 92
        0
 62
   257
 93
        1
300
CONTENTFORMAT
  1
CONTENTFORMAT_BEGIN
 90
        0
 91
        0
 92
      512
 93
        0
300

 40
0.0
140
1.0
 94
        2
 62
     0
340
55
144
0.18
309
CONTENTFORMAT_END
171
     1
301
MARGIN
  1
CELLMARGIN_BEGIN
 40
0.06
 40
0.06
 40
0.06
 40
0.06
 40
0.18
 40
0.18
309
CELLMARGIN_END
 94
        6
 95
        1
302
GRIDFORMAT
  1
GRIDFORMAT_BEGIN
 90
        0
 91
        1
 62
     0
 92
       -2
340
0
 93
        0
 40
0.045
309
GRIDFORMAT_END
 95
        2
302
GRIDFORMAT
  1
GRIDFORMAT_BEGIN
 90
        0
 91
        1
 62
     0
 92
       -2
340
0
 93
        0
 40
0.045
309
GRIDFORMAT_END
 95
        4
302
GRIDFORMAT
  1
GRIDFORMAT_BEGIN
 90
        0
 91
        1
 62
     0
 92
       -2
340
0
 93
        0
 40
0.045
309
GRIDFORMAT_END
 95
        8
302
GRIDFORMAT
  1
GRIDFORMAT_BEGIN
 90
        0
 91
        1
 62
     0
 92
       -2
340
0
 93
        0
 40
0.045
309
GRIDFORMAT_END
 95
       16
302
GRIDFORMAT
  1
GRIDFORMAT_BEGIN
 90
        0
 91
        1
 62
     0
 92
       -2
340
0
 93
        0
 40
0.045
309
GRIDFORMAT_END
 95
       32
302
GRIDFORMAT
  1
GRIDFORMAT_BEGIN
 90
        0
 91
        1
 62
     0
 92
       -2
340
0
 93
        0
 40
0.045
309
GRIDFORMAT_END
309
TABLEFORMAT_END
  1
CELLSTYLE_BEGIN
 90
        3
 91
        2
300
_DATA
309
CELLSTYLE_END
  0
XRECORD
  5
5E5
102
{ACAD_REACTORS
330
5E4
102
}
330
5E4
100
AcDbXrecord
280
     1
102
RTVSPost2010Prop28
280
     1
102
RTVSPost2010PropOp28
 70
     1
102
RTVSPost2010Prop29
280
     1
102
RTVSPost2010PropOp29
 70
     1
102
RTVSPost2010Prop30
280
     0
102
RTVSPost2010PropOp30
 70
     1
102
RTVSPost2010Prop31
280
     0
102
RTVSPost2010PropOp31
 70
     1
102
RTVSPost2010Prop32
280
     0
102
RTVSPost2010PropOp32
 70
     1
102
RTVSPost2010Prop33
280
     0
102
RTVSPost2010PropOp33
 70
     1
102
RTVSPost2010Prop34
280
     0
102
RTVSPost2010PropOp34
 70
     1
102
RTVSPost2010Prop35
280
     0
102
RTVSPost2010PropOp35
 70
     1
102
RTVSPost2010Prop36
280
     0
102
RTVSPost2010PropOp36
 70
     1
102
RTVSPost2010Prop37
 90
       50
102
RTVSPost2010PropOp37
 70
     1
102
RTVSPost2010Prop38
140
0.0
102
RTVSPost2010PropOp38
 70
     1
102
RTVSPost2010Prop39
140
1.0
102
RTVSPost2010PropOp39
 70
     1
102
RTVSPost2010Prop40
 90
        0
102
RTVSPost2010PropOp40
 70
     1
102
RTVSPost2010Prop41ColorIndex
 90
       18
102
RTVSPost2010Prop41ColorRGB
 90
        0
102
RTVSPost2010PropOp41
 70
     1
102
RTVSPost2010Prop42
 90
       50
102
RTVSPost2010PropOp42
 70
     1
102
RTVSPost2010Prop43
 90
        3
102
RTVSPost2010PropOp43
 70
     1
102
RTVSPost2010Prop44ColorIndex
 90
        5
102
RTVSPost2010Prop44ColorRGB
 90
      255
102
RTVSPost2010PropOp44
 70
     1
102
RTVSPost2010Prop45
280
     0
102
RTVSPost2010PropOp45
 70
     1
102
RTVSPost2010Prop46
 90
       50
102
RTVSPost2010PropOp46
 70
     1
102
RTVSPost2010Prop47
 90
       50
102
RTVSPost2010PropOp47
 70
     1
102
RTVSPost2010Prop48
 90
       50
102
RTVSPost2010PropOp48
 70
     1
102
RTVSPost2010Prop49
280
     0
102
RTVSPost2010PropOp49
 70
     1
102
RTVSPost2010Prop50
 90
       50
102
RTVSPost2010PropOp50
 70
     1
102
RTVSPost2010Prop51ColorIndex
 90
      256
102
RTVSPost2010Prop51ColorRGB
 90
-16777216
102
RTVSPost2010PropOp51
 70
     0
102
RTVSPost2010Prop52
140
1.0
102
RTVSPost2010PropOp52
 70
     0
102
RTVSPost2010Prop53
 90
        2
102
RTVSPost2010PropOp53
 70
     1
102
RTVSPost2010Prop54
  1
strokes_ogs.tif
102
RTVSPost2010PropOp54
 70
     1
102
RTVSPost2010Prop55
280
     0
102
RTVSPost2010PropOp55
 70
     1
102
RTVSPost2010Prop56
140
1.0
102
RTVSPost2010PropOp56
 70
     1
102
RTVSPost2010Prop57
140
1.0
102
RTVSPost2010PropOp57
 70
     1
102
RTVSPropertyOp0
 70
     1
102
RTVSPropertyOp1
 70
     1
102
RTVSPropertyOp2
 70
     1
102
RTVSPropertyOp3
 70
     1
102
RTVSPropertyOp4
 70
     1
102
RTVSPropertyOp5
 70
     1
102
RTVSPropertyOp6
 70
     1
102
RTVSPropertyOp7
 70
     1
102
RTVSPropertyOp8
 70
     1
102
RTVSPropertyOp9
 70
     1
102
RTVSPropertyOp10
 70
     1
102
RTVSPropertyOp11
 70
     1
102
RTVSPropertyOp12
 70
     1
102
RTVSPropertyOp13
 70
     1
102
RTVSPropertyOp14
 70
     1
102
RTVSPropertyOp15
 70
     1
102
RTVSPropertyOp16
 70
     1
102
RTVSPropertyOp17
 70
     1
102
RTVSPropertyOp18
 70
     1
102
RTVSPropertyOp19
 70
     1
102
RTVSPropertyOp20
 70
     1
102
RTVSPropertyOp21
 70
     1
102
RTVSPropertyOp22
 70
     1
102
RTVSPropertyOp23
 70
     1
102
RTVSPropertyOp24
 70
     1
102
RTVSPropertyOp25
 70
     1
102
RTVSPropertyOp26
 70
     1
102
RTVSPropertyOp27
 70
     1
102
RTVSPropertyOp28
 70
     1
102
RTVSPropertyOp29
 70
     1
102
RTVSPropertyOp30
 70
     1
102
RTVSPropertyOp31
 70
     1
102
RTVSPropertyOp32
 70
     1
102
RTVSPropertyOp33
 70
     1
102
RTVSPropertyOp34
 70
     1
102
RTVSPropertyOp35
 70
     1
102
RTVSPropertyOp36
 70
     1
102
RTVSPropertyOp37
 70
     1
102
RTVSPropertyOp38
 70
     1
102
RTVSPropertyOp39
 70
     1
102
RTVSPropertyOp40
 70
     1
102
RTVSPropertyOp41
 70
     1
102
RTVSPropertyOp42
 70
     1
102
RTVSPropertyOp43
 70
     1
102
RTVSPropertyOp44
 70
     1
102
RTVSPropertyOp45
 70
     1
102
RTVSPropertyOp46
 70
     1
102
RTVSPropertyOp47
 70
     1
102
RTVSPropertyOp48
 70
     1
102
RTVSPropertyOp49
 70
     1
102
RTVSPropertyOp50
 70
     1
102
RTVSPropertyOp51
 70
     0
102
RTVSPropertyOp52
 70
     0
102
RTVSPropertyOp53
 70
     1
102
RTVSPropertyOp54
 70
     1
102
RTVSPropertyOp55
 70
     1
102
RTVSPropertyOp56
 70
     1
102
RTVSPropertyOp57
 70
     1
102
RTVSPropertyOp58
 70
     1
102
RTVSPropertyOp59
 70
     1
102
RTVSPropertyOp60
 70
     1
102
RTVSPropertyOp61
 70
     1
102
RTVSPropertyOp62
 70
     1
  0
XRECORD
  5
5E3
102
{ACAD_REACTORS
330
5E2
102
}
330
5E2
100
AcDbXrecord
280
     1
102
RTVSPost2010Prop28
280
     0
102
RTVSPost2010PropOp28
 70
     1
102
RTVSPost2010Prop29
280
     1
102
RTVSPost2010PropOp29
 70
     1
102
RTVSPost2010Prop30
280
     1
102
RTVSPost2010PropOp30
 70
     1
102
RTVSPost2010Prop31
280
     0
102
RTVSPost2010PropOp31
 70
     1
102
RTVSPost2010Prop32
280
     0
102
RTVSPost2010PropOp32
 70
     1
102
RTVSPost2010Prop33
280
     0
102
RTVSPost2010PropOp33
 70
     1
102
RTVSPost2010Prop34
280
     0
102
RTVSPost2010PropOp34
 70
     1
102
RTVSPost2010Prop35
280
     0
102
RTVSPost2010PropOp35
 70
     1
102
RTVSPost2010Prop36
280
     0
102
RTVSPost2010PropOp36
 70
     1
102
RTVSPost2010Prop37
 90
       50
102
RTVSPost2010PropOp37
 70
     1
102
RTVSPost2010Prop38
140
0.0
102
RTVSPost2010PropOp38
 70
     1
102
RTVSPost2010Prop39
140
1.0
102
RTVSPost2010PropOp39
 70
     1
102
RTVSPost2010Prop40
 90
        0
102
RTVSPost2010PropOp40
 70
     1
102
RTVSPost2010Prop41ColorIndex
 90
       18
102
RTVSPost2010Prop41ColorRGB
 90
        0
102
RTVSPost2010PropOp41
 70
     1
102
RTVSPost2010Prop42
 90
       50
102
RTVSPost2010PropOp42
 70
     1
102
RTVSPost2010Prop43
 90
        3
102
RTVSPost2010PropOp43
 70
     1
102
RTVSPost2010Prop44ColorIndex
 90
        5
102
RTVSPost2010Prop44ColorRGB
 90
      255
102
RTVSPost2010PropOp44
 70
     1
102
RTVSPost2010Prop45
280
     0
102
RTVSPost2010PropOp45
 70
     1
102
RTVSPost2010Prop46
 90
       50
102
RTVSPost2010PropOp46
 70
     1
102
RTVSPost2010Prop47
 90
       50
102
RTVSPost2010PropOp47
 70
     1
102
RTVSPost2010Prop48
 90
       50
102
RTVSPost2010PropOp48
 70
     1
102
RTVSPost2010Prop49
280
     0
102
RTVSPost2010PropOp49
 70
     1
102
RTVSPost2010Prop50
 90
       50
102
RTVSPost2010PropOp50
 70
     1
102
RTVSPost2010Prop51ColorIndex
 90
      256
102
RTVSPost2010Prop51ColorRGB
 90
-16777216
102
RTVSPost2010PropOp51
 70
     0
102
RTVSPost2010Prop52
140
1.0
102
RTVSPost2010PropOp52
 70
     0
102
RTVSPost2010Prop53
 90
        2
102
RTVSPost2010PropOp53
 70
     1
102
RTVSPost2010Prop54
  1
strokes_ogs.tif
102
RTVSPost2010PropOp54
 70
     1
102
RTVSPost2010Prop55
280
     0
102
RTVSPost2010PropOp55
 70
     1
102
RTVSPost2010Prop56
140
1.0
102
RTVSPost2010PropOp56
 70
     1
102
RTVSPost2010Prop57
140
1.0
102
RTVSPost2010PropOp57
 70
     1
102
RTVSPropertyOp0
 70
     1
102
RTVSPropertyOp1
 70
     1
102
RTVSPropertyOp2
 70
     1
102
RTVSPropertyOp3
 70
     1
102
RTVSPropertyOp4
 70
     1
102
RTVSPropertyOp5
 70
     1
102
RTVSPropertyOp6
 70
     1
102
RTVSPropertyOp7
 70
     1
102
RTVSPropertyOp8
 70
     1
102
RTVSPropertyOp9
 70
     1
102
RTVSPropertyOp10
 70
     1
102
RTVSPropertyOp11
 70
     1
102
RTVSPropertyOp12
 70
     1
102
RTVSPropertyOp13
 70
     1
102
RTVSPropertyOp14
 70
     1
102
RTVSPropertyOp15
 70
     1
102
RTVSPropertyOp16
 70
     1
102
RTVSPropertyOp17
 70
     1
102
RTVSPropertyOp18
 70
     1
102
RTVSPropertyOp19
 70
     1
102
RTVSPropertyOp20
 70
     1
102
RTVSPropertyOp21
 70
     1
102
RTVSPropertyOp22
 70
     1
102
RTVSPropertyOp23
 70
     1
102
RTVSPropertyOp24
 70
     1
102
RTVSPropertyOp25
 70
     1
102
RTVSPropertyOp26
 70
     1
102
RTVSPropertyOp27
 70
     1
102
RTVSPropertyOp28
 70
     1
102
RTVSPropertyOp29
 70
     1
102
RTVSPropertyOp30
 70
     1
102
RTVSPropertyOp31
 70
     1
102
RTVSPropertyOp32
 70
     1
102
RTVSPropertyOp33
 70
     1
102
RTVSPropertyOp34
 70
     1
102
RTVSPropertyOp35
 70
     1
102
RTVSPropertyOp36
 70
     1
102
RTVSPropertyOp37
 70
     1
102
RTVSPropertyOp38
 70
     1
102
RTVSPropertyOp39
 70
     1
102
RTVSPropertyOp40
 70
     1
102
RTVSPropertyOp41
 70
     1
102
RTVSPropertyOp42
 70
     1
102
RTVSPropertyOp43
 70
     1
102
RTVSPropertyOp44
 70
     1
102
RTVSPropertyOp45
 70
     1
102
RTVSPropertyOp46
 70
     1
102
RTVSPropertyOp47
 70
     1
102
RTVSPropertyOp48
 70
     1
102
RTVSPropertyOp49
 70
     1
102
RTVSPropertyOp50
 70
     1
102
RTVSPropertyOp51
 70
     0
102
RTVSPropertyOp52
 70
     0
102
RTVSPropertyOp53
 70
     1
102
RTVSPropertyOp54
 70
     1
102
RTVSPropertyOp55
 70
     1
102
RTVSPropertyOp56
 70
     1
102
RTVSPropertyOp57
 70
     1
102
RTVSPropertyOp58
 70
     1
102
RTVSPropertyOp59
 70
     1
102
RTVSPropertyOp60
 70
     1
102
RTVSPropertyOp61
 70
     1
102
RTVSPropertyOp62
 70
     1
  0
XRECORD
  5
5F1
102
{ACAD_REACTORS
330
5F0
102
}
330
5F0
100
AcDbXrecord
280
     1
102
RTVSPost2010Prop28
280
     0
102
RTVSPost2010PropOp28
 70
     1
102
RTVSPost2010Prop29
280
     1
102
RTVSPost2010PropOp29
 70
     1
102
RTVSPost2010Prop30
280
     1
102
RTVSPost2010PropOp30
 70
     1
102
RTVSPost2010Prop31
280
     0
102
RTVSPost2010PropOp31
 70
     1
102
RTVSPost2010Prop32
280
     0
102
RTVSPost2010PropOp32
 70
     1
102
RTVSPost2010Prop33
280
     0
102
RTVSPost2010PropOp33
 70
     1
102
RTVSPost2010Prop34
280
     0
102
RTVSPost2010PropOp34
 70
     1
102
RTVSPost2010Prop35
280
     0
102
RTVSPost2010PropOp35
 70
     1
102
RTVSPost2010Prop36
280
     0
102
RTVSPost2010PropOp36
 70
     1
102
RTVSPost2010Prop37
 90
       50
102
RTVSPost2010PropOp37
 70
     1
102
RTVSPost2010Prop38
140
0.0
102
RTVSPost2010PropOp38
 70
     1
102
RTVSPost2010Prop39
140
1.0
102
RTVSPost2010PropOp39
 70
     1
102
RTVSPost2010Prop40
 90
        0
102
RTVSPost2010PropOp40
 70
     1
102
RTVSPost2010Prop41ColorIndex
 90
       18
102
RTVSPost2010Prop41ColorRGB
 90
        0
102
RTVSPost2010PropOp41
 70
     1
102
RTVSPost2010Prop42
 90
       50
102
RTVSPost2010PropOp42
 70
     1
102
RTVSPost2010Prop43
 90
        3
102
RTVSPost2010PropOp43
 70
     1
102
RTVSPost2010Prop44ColorIndex
 90
        5
102
RTVSPost2010Prop44ColorRGB
 90
      255
102
RTVSPost2010PropOp44
 70
     1
102
RTVSPost2010Prop45
280
     0
102
RTVSPost2010PropOp45
 70
     1
102
RTVSPost2010Prop46
 90
       50
102
RTVSPost2010PropOp46
 70
     1
102
RTVSPost2010Prop47
 90
       50
102
RTVSPost2010PropOp47
 70
     1
102
RTVSPost2010Prop48
 90
       50
102
RTVSPost2010PropOp48
 70
     1
102
RTVSPost2010Prop49
280
     0
102
RTVSPost2010PropOp49
 70
     1
102
RTVSPost2010Prop50
 90
       50
102
RTVSPost2010PropOp50
 70
     1
102
RTVSPost2010Prop51ColorIndex
 90
      256
102
RTVSPost2010Prop51ColorRGB
 90
-16777216
102
RTVSPost2010PropOp51
 70
     0
102
RTVSPost2010Prop52
140
1.0
102
RTVSPost2010PropOp52
 70
     0
102
RTVSPost2010Prop53
 90
        2
102
RTVSPost2010PropOp53
 70
     1
102
RTVSPost2010Prop54
  1
strokes_ogs.tif
102
RTVSPost2010PropOp54
 70
     1
102
RTVSPost2010Prop55
280
     0
102
RTVSPost2010PropOp55
 70
     1
102
RTVSPost2010Prop56
140
1.0
102
RTVSPost2010PropOp56
 70
     1
102
RTVSPost2010Prop57
140
1.0
102
RTVSPost2010PropOp57
 70
     1
102
RTVSPropertyOp0
 70
     1
102
RTVSPropertyOp1
 70
     1
102
RTVSPropertyOp2
 70
     1
102
RTVSPropertyOp3
 70
     1
102
RTVSPropertyOp4
 70
     1
102
RTVSPropertyOp5
 70
     1
102
RTVSPropertyOp6
 70
     1
102
RTVSPropertyOp7
 70
     1
102
RTVSPropertyOp8
 70
     1
102
RTVSPropertyOp9
 70
     1
102
RTVSPropertyOp10
 70
     1
102
RTVSPropertyOp11
 70
     1
102
RTVSPropertyOp12
 70
     1
102
RTVSPropertyOp13
 70
     1
102
RTVSPropertyOp14
 70
     1
102
RTVSPropertyOp15
 70
     1
102
RTVSPropertyOp16
 70
     1
102
RTVSPropertyOp17
 70
     1
102
RTVSPropertyOp18
 70
     1
102
RTVSPropertyOp19
 70
     1
102
RTVSPropertyOp20
 70
     1
102
RTVSPropertyOp21
 70
     1
102
RTVSPropertyOp22
 70
     1
102
RTVSPropertyOp23
 70
     1
102
RTVSPropertyOp24
 70
     1
102
RTVSPropertyOp25
 70
     1
102
RTVSPropertyOp26
 70
     1
102
RTVSPropertyOp27
 70
     1
102
RTVSPropertyOp28
 70
     1
102
RTVSPropertyOp29
 70
     1
102
RTVSPropertyOp30
 70
     1
102
RTVSPropertyOp31
 70
     1
102
RTVSPropertyOp32
 70
     1
102
RTVSPropertyOp33
 70
     1
102
RTVSPropertyOp34
 70
     1
102
RTVSPropertyOp35
 70
     1
102
RTVSPropertyOp36
 70
     1
102
RTVSPropertyOp37
 70
     1
102
RTVSPropertyOp38
 70
     1
102
RTVSPropertyOp39
 70
     1
102
RTVSPropertyOp40
 70
     1
102
RTVSPropertyOp41
 70
     1
102
RTVSPropertyOp42
 70
     1
102
RTVSPropertyOp43
 70
     1
102
RTVSPropertyOp44
 70
     1
102
RTVSPropertyOp45
 70
     1
102
RTVSPropertyOp46
 70
     1
102
RTVSPropertyOp47
 70
     1
102
RTVSPropertyOp48
 70
     1
102
RTVSPropertyOp49
 70
     1
102
RTVSPropertyOp50
 70
     1
102
RTVSPropertyOp51
 70
     0
102
RTVSPropertyOp52
 70
     0
102
RTVSPropertyOp53
 70
     1
102
RTVSPropertyOp54
 70
     1
102
RTVSPropertyOp55
 70
     1
102
RTVSPropertyOp56
 70
     1
102
RTVSPropertyOp57
 70
     1
102
RTVSPropertyOp58
 70
     1
102
RTVSPropertyOp59
 70
     1
102
RTVSPropertyOp60
 70
     1
102
RTVSPropertyOp61
 70
     1
102
RTVSPropertyOp62
 70
     1
  0
XRECORD
  5
5F9
102
{ACAD_REACTORS
330
5F8
102
}
330
5F8
100
AcDbXrecord
280
     1
102
RTVSPost2010Prop28
280
     0
102
RTVSPost2010PropOp28
 70
     1
102
RTVSPost2010Prop29
280
     1
102
RTVSPost2010PropOp29
 70
     1
102
RTVSPost2010Prop30
280
     1
102
RTVSPost2010PropOp30
 70
     1
102
RTVSPost2010Prop31
280
     0
102
RTVSPost2010PropOp31
 70
     1
102
RTVSPost2010Prop32
280
     0
102
RTVSPost2010PropOp32
 70
     1
102
RTVSPost2010Prop33
280
     0
102
RTVSPost2010PropOp33
 70
     1
102
RTVSPost2010Prop34
280
     0
102
RTVSPost2010PropOp34
 70
     1
102
RTVSPost2010Prop35
280
     0
102
RTVSPost2010PropOp35
 70
     1
102
RTVSPost2010Prop36
280
     0
102
RTVSPost2010PropOp36
 70
     1
102
RTVSPost2010Prop37
 90
       50
102
RTVSPost2010PropOp37
 70
     1
102
RTVSPost2010Prop38
140
0.0
102
RTVSPost2010PropOp38
 70
     1
102
RTVSPost2010Prop39
140
1.0
102
RTVSPost2010PropOp39
 70
     1
102
RTVSPost2010Prop40
 90
        0
102
RTVSPost2010PropOp40
 70
     1
102
RTVSPost2010Prop41ColorIndex
 90
       18
102
RTVSPost2010Prop41ColorRGB
 90
        0
102
RTVSPost2010PropOp41
 70
     1
102
RTVSPost2010Prop42
 90
       50
102
RTVSPost2010PropOp42
 70
     1
102
RTVSPost2010Prop43
 90
        3
102
RTVSPost2010PropOp43
 70
     1
102
RTVSPost2010Prop44ColorIndex
 90
        5
102
RTVSPost2010Prop44ColorRGB
 90
      255
102
RTVSPost2010PropOp44
 70
     1
102
RTVSPost2010Prop45
280
     0
102
RTVSPost2010PropOp45
 70
     1
102
RTVSPost2010Prop46
 90
       50
102
RTVSPost2010PropOp46
 70
     1
102
RTVSPost2010Prop47
 90
       50
102
RTVSPost2010PropOp47
 70
     1
102
RTVSPost2010Prop48
 90
       50
102
RTVSPost2010PropOp48
 70
     1
102
RTVSPost2010Prop49
280
     0
102
RTVSPost2010PropOp49
 70
     1
102
RTVSPost2010Prop50
 90
       50
102
RTVSPost2010PropOp50
 70
     1
102
RTVSPost2010Prop51ColorIndex
 90
      256
102
RTVSPost2010Prop51ColorRGB
 90
-16777216
102
RTVSPost2010PropOp51
 70
     0
102
RTVSPost2010Prop52
140
1.0
102
RTVSPost2010PropOp52
 70
     0
102
RTVSPost2010Prop53
 90
        2
102
RTVSPost2010PropOp53
 70
     1
102
RTVSPost2010Prop54
  1
strokes_ogs.tif
102
RTVSPost2010PropOp54
 70
     1
102
RTVSPost2010Prop55
280
     0
102
RTVSPost2010PropOp55
 70
     1
102
RTVSPost2010Prop56
140
1.0
102
RTVSPost2010PropOp56
 70
     1
102
RTVSPost2010Prop57
140
1.0
102
RTVSPost2010PropOp57
 70
     1
102
RTVSPropertyOp0
 70
     1
102
RTVSPropertyOp1
 70
     1
102
RTVSPropertyOp2
 70
     1
102
RTVSPropertyOp3
 70
     1
102
RTVSPropertyOp4
 70
     1
102
RTVSPropertyOp5
 70
     1
102
RTVSPropertyOp6
 70
     1
102
RTVSPropertyOp7
 70
     1
102
RTVSPropertyOp8
 70
     1
102
RTVSPropertyOp9
 70
     1
102
RTVSPropertyOp10
 70
     1
102
RTVSPropertyOp11
 70
     1
102
RTVSPropertyOp12
 70
     1
102
RTVSPropertyOp13
 70
     1
102
RTVSPropertyOp14
 70
     1
102
RTVSPropertyOp15
 70
     1
102
RTVSPropertyOp16
 70
     1
102
RTVSPropertyOp17
 70
     1
102
RTVSPropertyOp18
 70
     1
102
RTVSPropertyOp19
 70
     1
102
RTVSPropertyOp20
 70
     1
102
RTVSPropertyOp21
 70
     1
102
RTVSPropertyOp22
 70
     1
102
RTVSPropertyOp23
 70
     1
102
RTVSPropertyOp24
 70
     1
102
RTVSPropertyOp25
 70
     1
102
RTVSPropertyOp26
 70
     1
102
RTVSPropertyOp27
 70
     1
102
RTVSPropertyOp28
 70
     1
102
RTVSPropertyOp29
 70
     1
102
RTVSPropertyOp30
 70
     1
102
RTVSPropertyOp31
 70
     1
102
RTVSPropertyOp32
 70
     1
102
RTVSPropertyOp33
 70
     1
102
RTVSPropertyOp34
 70
     1
102
RTVSPropertyOp35
 70
     1
102
RTVSPropertyOp36
 70
     1
102
RTVSPropertyOp37
 70
     1
102
RTVSPropertyOp38
 70
     1
102
RTVSPropertyOp39
 70
     1
102
RTVSPropertyOp40
 70
     1
102
RTVSPropertyOp41
 70
     1
102
RTVSPropertyOp42
 70
     1
102
RTVSPropertyOp43
 70
     1
102
RTVSPropertyOp44
 70
     1
102
RTVSPropertyOp45
 70
     1
102
RTVSPropertyOp46
 70
     1
102
RTVSPropertyOp47
 70
     1
102
RTVSPropertyOp48
 70
     1
102
RTVSPropertyOp49
 70
     1
102
RTVSPropertyOp50
 70
     1
102
RTVSPropertyOp51
 70
     0
102
RTVSPropertyOp52
 70
     0
102
RTVSPropertyOp53
 70
     1
102
RTVSPropertyOp54
 70
     1
102
RTVSPropertyOp55
 70
     1
102
RTVSPropertyOp56
 70
     1
102
RTVSPropertyOp57
 70
     1
102
RTVSPropertyOp58
 70
     1
102
RTVSPropertyOp59
 70
     1
102
RTVSPropertyOp60
 70
     1
102
RTVSPropertyOp61
 70
     1
102
RTVSPropertyOp62
 70
     1
  0
XRECORD
  5
5EB
102
{ACAD_REACTORS
330
5EA
102
}
330
5EA
100
AcDbXrecord
280
     1
102
RTVSPost2010Prop28
280
     0
102
RTVSPost2010PropOp28
 70
     1
102
RTVSPost2010Prop29
280
     1
102
RTVSPost2010PropOp29
 70
     1
102
RTVSPost2010Prop30
280
     1
102
RTVSPost2010PropOp30
 70
     1
102
RTVSPost2010Prop31
280
     0
102
RTVSPost2010PropOp31
 70
     1
102
RTVSPost2010Prop32
280
     0
102
RTVSPost2010PropOp32
 70
     1
102
RTVSPost2010Prop33
280
     0
102
RTVSPost2010PropOp33
 70
     1
102
RTVSPost2010Prop34
280
     0
102
RTVSPost2010PropOp34
 70
     1
102
RTVSPost2010Prop35
280
     0
102
RTVSPost2010PropOp35
 70
     1
102
RTVSPost2010Prop36
280
     0
102
RTVSPost2010PropOp36
 70
     1
102
RTVSPost2010Prop37
 90
       50
102
RTVSPost2010PropOp37
 70
     1
102
RTVSPost2010Prop38
140
0.0
102
RTVSPost2010PropOp38
 70
     1
102
RTVSPost2010Prop39
140
1.0
102
RTVSPost2010PropOp39
 70
     1
102
RTVSPost2010Prop40
 90
        0
102
RTVSPost2010PropOp40
 70
     1
102
RTVSPost2010Prop41ColorIndex
 90
       18
102
RTVSPost2010Prop41ColorRGB
 90
        0
102
RTVSPost2010PropOp41
 70
     1
102
RTVSPost2010Prop42
 90
       50
102
RTVSPost2010PropOp42
 70
     1
102
RTVSPost2010Prop43
 90
        3
102
RTVSPost2010PropOp43
 70
     1
102
RTVSPost2010Prop44ColorIndex
 90
        5
102
RTVSPost2010Prop44ColorRGB
 90
      255
102
RTVSPost2010PropOp44
 70
     1
102
RTVSPost2010Prop45
280
     0
102
RTVSPost2010PropOp45
 70
     1
102
RTVSPost2010Prop46
 90
       50
102
RTVSPost2010PropOp46
 70
     1
102
RTVSPost2010Prop47
 90
       50
102
RTVSPost2010PropOp47
 70
     1
102
RTVSPost2010Prop48
 90
       50
102
RTVSPost2010PropOp48
 70
     1
102
RTVSPost2010Prop49
280
     0
102
RTVSPost2010PropOp49
 70
     1
102
RTVSPost2010Prop50
 90
       50
102
RTVSPost2010PropOp50
 70
     1
102
RTVSPost2010Prop51ColorIndex
 90
      256
102
RTVSPost2010Prop51ColorRGB
 90
-16777216
102
RTVSPost2010PropOp51
 70
     0
102
RTVSPost2010Prop52
140
1.0
102
RTVSPost2010PropOp52
 70
     0
102
RTVSPost2010Prop53
 90
        2
102
RTVSPost2010PropOp53
 70
     1
102
RTVSPost2010Prop54
  1
strokes_ogs.tif
102
RTVSPost2010PropOp54
 70
     1
102
RTVSPost2010Prop55
280
     0
102
RTVSPost2010PropOp55
 70
     1
102
RTVSPost2010Prop56
140
1.0
102
RTVSPost2010PropOp56
 70
     1
102
RTVSPost2010Prop57
140
1.0
102
RTVSPost2010PropOp57
 70
     1
102
RTVSPropertyOp0
 70
     1
102
RTVSPropertyOp1
 70
     1
102
RTVSPropertyOp2
 70
     1
102
RTVSPropertyOp3
 70
     1
102
RTVSPropertyOp4
 70
     1
102
RTVSPropertyOp5
 70
     1
102
RTVSPropertyOp6
 70
     1
102
RTVSPropertyOp7
 70
     1
102
RTVSPropertyOp8
 70
     1
102
RTVSPropertyOp9
 70
     1
102
RTVSPropertyOp10
 70
     1
102
RTVSPropertyOp11
 70
     1
102
RTVSPropertyOp12
 70
     1
102
RTVSPropertyOp13
 70
     1
102
RTVSPropertyOp14
 70
     1
102
RTVSPropertyOp15
 70
     1
102
RTVSPropertyOp16
 70
     1
102
RTVSPropertyOp17
 70
     1
102
RTVSPropertyOp18
 70
     1
102
RTVSPropertyOp19
 70
     1
102
RTVSPropertyOp20
 70
     1
102
RTVSPropertyOp21
 70
     1
102
RTVSPropertyOp22
 70
     1
102
RTVSPropertyOp23
 70
     1
102
RTVSPropertyOp24
 70
     1
102
RTVSPropertyOp25
 70
     1
102
RTVSPropertyOp26
 70
     1
102
RTVSPropertyOp27
 70
     1
102
RTVSPropertyOp28
 70
     1
102
RTVSPropertyOp29
 70
     1
102
RTVSPropertyOp30
 70
     1
102
RTVSPropertyOp31
 70
     1
102
RTVSPropertyOp32
 70
     1
102
RTVSPropertyOp33
 70
     1
102
RTVSPropertyOp34
 70
     1
102
RTVSPropertyOp35
 70
     1
102
RTVSPropertyOp36
 70
     1
102
RTVSPropertyOp37
 70
     1
102
RTVSPropertyOp38
 70
     1
102
RTVSPropertyOp39
 70
     1
102
RTVSPropertyOp40
 70
     1
102
RTVSPropertyOp41
 70
     1
102
RTVSPropertyOp42
 70
     1
102
RTVSPropertyOp43
 70
     1
102
RTVSPropertyOp44
 70
     1
102
RTVSPropertyOp45
 70
     1
102
RTVSPropertyOp46
 70
     1
102
RTVSPropertyOp47
 70
     1
102
RTVSPropertyOp48
 70
     1
102
RTVSPropertyOp49
 70
     1
102
RTVSPropertyOp50
 70
     1
102
RTVSPropertyOp51
 70
     0
102
RTVSPropertyOp52
 70
     0
102
RTVSPropertyOp53
 70
     1
102
RTVSPropertyOp54
 70
     1
102
RTVSPropertyOp55
 70
     1
102
RTVSPropertyOp56
 70
     1
102
RTVSPropertyOp57
 70
     1
102
RTVSPropertyOp58
 70
     1
102
RTVSPropertyOp59
 70
     1
102
RTVSPropertyOp60
 70
     1
102
RTVSPropertyOp61
 70
     1
102
RTVSPropertyOp62
 70
     1
  0
XRECORD
  5
5EF
102
{ACAD_REACTORS
330
5EE
102
}
330
5EE
100
AcDbXrecord
280
     1
102
RTVSPost2010Prop28
280
     0
102
RTVSPost2010PropOp28
 70
     1
102
RTVSPost2010Prop29
280
     1
102
RTVSPost2010PropOp29
 70
     1
102
RTVSPost2010Prop30
280
     1
102
RTVSPost2010PropOp30
 70
     1
102
RTVSPost2010Prop31
280
     0
102
RTVSPost2010PropOp31
 70
     1
102
RTVSPost2010Prop32
280
     0
102
RTVSPost2010PropOp32
 70
     1
102
RTVSPost2010Prop33
280
     0
102
RTVSPost2010PropOp33
 70
     1
102
RTVSPost2010Prop34
280
     0
102
RTVSPost2010PropOp34
 70
     1
102
RTVSPost2010Prop35
280
     0
102
RTVSPost2010PropOp35
 70
     1
102
RTVSPost2010Prop36
280
     0
102
RTVSPost2010PropOp36
 70
     1
102
RTVSPost2010Prop37
 90
       50
102
RTVSPost2010PropOp37
 70
     1
102
RTVSPost2010Prop38
140
0.0
102
RTVSPost2010PropOp38
 70
     1
102
RTVSPost2010Prop39
140
1.0
102
RTVSPost2010PropOp39
 70
     1
102
RTVSPost2010Prop40
 90
        0
102
RTVSPost2010PropOp40
 70
     1
102
RTVSPost2010Prop41ColorIndex
 90
       18
102
RTVSPost2010Prop41ColorRGB
 90
        0
102
RTVSPost2010PropOp41
 70
     1
102
RTVSPost2010Prop42
 90
       50
102
RTVSPost2010PropOp42
 70
     1
102
RTVSPost2010Prop43
 90
        3
102
RTVSPost2010PropOp43
 70
     1
102
RTVSPost2010Prop44ColorIndex
 90
        5
102
RTVSPost2010Prop44ColorRGB
 90
      255
102
RTVSPost2010PropOp44
 70
     1
102
RTVSPost2010Prop45
280
     0
102
RTVSPost2010PropOp45
 70
     1
102
RTVSPost2010Prop46
 90
       50
102
RTVSPost2010PropOp46
 70
     1
102
RTVSPost2010Prop47
 90
       50
102
RTVSPost2010PropOp47
 70
     1
102
RTVSPost2010Prop48
 90
       50
102
RTVSPost2010PropOp48
 70
     1
102
RTVSPost2010Prop49
280
     0
102
RTVSPost2010PropOp49
 70
     1
102
RTVSPost2010Prop50
 90
       50
102
RTVSPost2010PropOp50
 70
     1
102
RTVSPost2010Prop51ColorIndex
 90
      256
102
RTVSPost2010Prop51ColorRGB
 90
-16777216
102
RTVSPost2010PropOp51
 70
     0
102
RTVSPost2010Prop52
140
1.0
102
RTVSPost2010PropOp52
 70
     0
102
RTVSPost2010Prop53
 90
        2
102
RTVSPost2010PropOp53
 70
     1
102
RTVSPost2010Prop54
  1
strokes_ogs.tif
102
RTVSPost2010PropOp54
 70
     1
102
RTVSPost2010Prop55
280
     0
102
RTVSPost2010PropOp55
 70
     1
102
RTVSPost2010Prop56
140
1.0
102
RTVSPost2010PropOp56
 70
     1
102
RTVSPost2010Prop57
140
1.0
102
RTVSPost2010PropOp57
 70
     1
102
RTVSPropertyOp0
 70
     1
102
RTVSPropertyOp1
 70
     1
102
RTVSPropertyOp2
 70
     1
102
RTVSPropertyOp3
 70
     1
102
RTVSPropertyOp4
 70
     1
102
RTVSPropertyOp5
 70
     1
102
RTVSPropertyOp6
 70
     1
102
RTVSPropertyOp7
 70
     1
102
RTVSPropertyOp8
 70
     1
102
RTVSPropertyOp9
 70
     1
102
RTVSPropertyOp10
 70
     1
102
RTVSPropertyOp11
 70
     1
102
RTVSPropertyOp12
 70
     1
102
RTVSPropertyOp13
 70
     1
102
RTVSPropertyOp14
 70
     1
102
RTVSPropertyOp15
 70
     1
102
RTVSPropertyOp16
 70
     1
102
RTVSPropertyOp17
 70
     1
102
RTVSPropertyOp18
 70
     1
102
RTVSPropertyOp19
 70
     1
102
RTVSPropertyOp20
 70
     1
102
RTVSPropertyOp21
 70
     1
102
RTVSPropertyOp22
 70
     1
102
RTVSPropertyOp23
 70
     1
102
RTVSPropertyOp24
 70
     1
102
RTVSPropertyOp25
 70
     1
102
RTVSPropertyOp26
 70
     1
102
RTVSPropertyOp27
 70
     1
102
RTVSPropertyOp28
 70
     1
102
RTVSPropertyOp29
 70
     1
102
RTVSPropertyOp30
 70
     1
102
RTVSPropertyOp31
 70
     1
102
RTVSPropertyOp32
 70
     1
102
RTVSPropertyOp33
 70
     1
102
RTVSPropertyOp34
 70
     1
102
RTVSPropertyOp35
 70
     1
102
RTVSPropertyOp36
 70
     1
102
RTVSPropertyOp37
 70
     1
102
RTVSPropertyOp38
 70
     1
102
RTVSPropertyOp39
 70
     1
102
RTVSPropertyOp40
 70
     1
102
RTVSPropertyOp41
 70
     1
102
RTVSPropertyOp42
 70
     1
102
RTVSPropertyOp43
 70
     1
102
RTVSPropertyOp44
 70
     1
102
RTVSPropertyOp45
 70
     1
102
RTVSPropertyOp46
 70
     1
102
RTVSPropertyOp47
 70
     1
102
RTVSPropertyOp48
 70
     1
102
RTVSPropertyOp49
 70
     1
102
RTVSPropertyOp50
 70
     1
102
RTVSPropertyOp51
 70
     0
102
RTVSPropertyOp52
 70
     0
102
RTVSPropertyOp53
 70
     1
102
RTVSPropertyOp54
 70
     1
102
RTVSPropertyOp55
 70
     1
102
RTVSPropertyOp56
 70
     1
102
RTVSPropertyOp57
 70
     1
102
RTVSPropertyOp58
 70
     1
102
RTVSPropertyOp59
 70
     1
102
RTVSPropertyOp60
 70
     1
102
RTVSPropertyOp61
 70
     1
102
RTVSPropertyOp62
 70
     1
  0
XRECORD
  5
609
102
{ACAD_REACTORS
330
608
102
}
330
608
100
AcDbXrecord
280
     1
102
RTVSPost2010Prop28
280
     0
102
RTVSPost2010PropOp28
 70
     1
102
RTVSPost2010Prop29
280
     1
102
RTVSPost2010PropOp29
 70
     1
102
RTVSPost2010Prop30
280
     1
102
RTVSPost2010PropOp30
 70
     1
102
RTVSPost2010Prop31
280
     0
102
RTVSPost2010PropOp31
 70
     1
102
RTVSPost2010Prop32
280
     0
102
RTVSPost2010PropOp32
 70
     1
102
RTVSPost2010Prop33
280
     0
102
RTVSPost2010PropOp33
 70
     1
102
RTVSPost2010Prop34
280
     0
102
RTVSPost2010PropOp34
 70
     1
102
RTVSPost2010Prop35
280
     0
102
RTVSPost2010PropOp35
 70
     1
102
RTVSPost2010Prop36
280
     0
102
RTVSPost2010PropOp36
 70
     1
102
RTVSPost2010Prop37
 90
       50
102
RTVSPost2010PropOp37
 70
     0
102
RTVSPost2010Prop38
140
0.0
102
RTVSPost2010PropOp38
 70
     0
102
RTVSPost2010Prop39
140
1.0
102
RTVSPost2010PropOp39
 70
     0
102
RTVSPost2010Prop40
 90
        0
102
RTVSPost2010PropOp40
 70
     0
102
RTVSPost2010Prop41ColorIndex
 90
       18
102
RTVSPost2010Prop41ColorRGB
 90
        0
102
RTVSPost2010PropOp41
 70
     0
102
RTVSPost2010Prop42
 90
       50
102
RTVSPost2010PropOp42
 70
     0
102
RTVSPost2010Prop43
 90
        3
102
RTVSPost2010PropOp43
 70
     0
102
RTVSPost2010Prop44ColorIndex
 90
        5
102
RTVSPost2010Prop44ColorRGB
 90
      255
102
RTVSPost2010PropOp44
 70
     0
102
RTVSPost2010Prop45
280
     0
102
RTVSPost2010PropOp45
 70
     1
102
RTVSPost2010Prop46
 90
       50
102
RTVSPost2010PropOp46
 70
     0
102
RTVSPost2010Prop47
 90
       50
102
RTVSPost2010PropOp47
 70
     0
102
RTVSPost2010Prop48
 90
       50
102
RTVSPost2010PropOp48
 70
     0
102
RTVSPost2010Prop49
280
     0
102
RTVSPost2010PropOp49
 70
     1
102
RTVSPost2010Prop50
 90
       50
102
RTVSPost2010PropOp50
 70
     0
102
RTVSPost2010Prop51ColorIndex
 90
      256
102
RTVSPost2010Prop51ColorRGB
 90
-16777216
102
RTVSPost2010PropOp51
 70
     0
102
RTVSPost2010Prop52
140
1.0
102
RTVSPost2010PropOp52
 70
     0
102
RTVSPost2010Prop53
 90
        2
102
RTVSPost2010PropOp53
 70
     0
102
RTVSPost2010Prop54
  1
strokes_ogs.tif
102
RTVSPost2010PropOp54
 70
     0
102
RTVSPost2010Prop55
280
     0
102
RTVSPost2010PropOp55
 70
     1
102
RTVSPost2010Prop56
140
1.0
102
RTVSPost2010PropOp56
 70
     0
102
RTVSPost2010Prop57
140
1.0
102
RTVSPost2010PropOp57
 70
     0
102
RTVSPropertyOp0
 70
     0
102
RTVSPropertyOp1
 70
     0
102
RTVSPropertyOp2
 70
     0
102
RTVSPropertyOp3
 70
     0
102
RTVSPropertyOp4
 70
     0
102
RTVSPropertyOp5
 70
     0
102
RTVSPropertyOp6
 70
     0
102
RTVSPropertyOp7
 70
     0
102
RTVSPropertyOp8
 70
     0
102
RTVSPropertyOp9
 70
     0
102
RTVSPropertyOp10
 70
     0
102
RTVSPropertyOp11
 70
     0
102
RTVSPropertyOp12
 70
     0
102
RTVSPropertyOp13
 70
     0
102
RTVSPropertyOp14
 70
     2
102
RTVSPropertyOp15
 70
     0
102
RTVSPropertyOp16
 70
     0
102
RTVSPropertyOp17
 70
     0
102
RTVSPropertyOp18
 70
     0
102
RTVSPropertyOp19
 70
     0
102
RTVSPropertyOp20
 70
     0
102
RTVSPropertyOp21
 70
     0
102
RTVSPropertyOp22
 70
     0
102
RTVSPropertyOp23
 70
     0
102
RTVSPropertyOp24
 70
     0
102
RTVSPropertyOp25
 70
     0
102
RTVSPropertyOp26
 70
     0
102
RTVSPropertyOp27
 70
     0
102
RTVSPropertyOp28
 70
     1
102
RTVSPropertyOp29
 70
     1
102
RTVSPropertyOp30
 70
     1
102
RTVSPropertyOp31
 70
     1
102
RTVSPropertyOp32
 70
     1
102
RTVSPropertyOp33
 70
     1
102
RTVSPropertyOp34
 70
     1
102
RTVSPropertyOp35
 70
     1
102
RTVSPropertyOp36
 70
     1
102
RTVSPropertyOp37
 70
     0
102
RTVSPropertyOp38
 70
     0
102
RTVSPropertyOp39
 70
     0
102
RTVSPropertyOp40
 70
     0
102
RTVSPropertyOp41
 70
     0
102
RTVSPropertyOp42
 70
     0
102
RTVSPropertyOp43
 70
     0
102
RTVSPropertyOp44
 70
     0
102
RTVSPropertyOp45
 70
     1
102
RTVSPropertyOp46
 70
     0
102
RTVSPropertyOp47
 70
     0
102
RTVSPropertyOp48
 70
     0
102
RTVSPropertyOp49
 70
     1
102
RTVSPropertyOp50
 70
     0
102
RTVSPropertyOp51
 70
     0
102
RTVSPropertyOp52
 70
     0
102
RTVSPropertyOp53
 70
     0
102
RTVSPropertyOp54
 70
     0
102
RTVSPropertyOp55
 70
     1
102
RTVSPropertyOp56
 70
     0
102
RTVSPropertyOp57
 70
     0
102
RTVSPropertyOp58
 70
     0
102
RTVSPropertyOp59
 70
     0
102
RTVSPropertyOp60
 70
     0
102
RTVSPropertyOp61
 70
     0
102
RTVSPropertyOp62
 70
     0
  0
XRECORD
  5
5F7
102
{ACAD_REACTORS
330
5F6
102
}
330
5F6
100
AcDbXrecord
280
     1
102
RTVSPost2010Prop28
280
     0
102
RTVSPost2010PropOp28
 70
     1
102
RTVSPost2010Prop29
280
     1
102
RTVSPost2010PropOp29
 70
     1
102
RTVSPost2010Prop30
280
     1
102
RTVSPost2010PropOp30
 70
     1
102
RTVSPost2010Prop31
280
     0
102
RTVSPost2010PropOp31
 70
     1
102
RTVSPost2010Prop32
280
     0
102
RTVSPost2010PropOp32
 70
     1
102
RTVSPost2010Prop33
280
     0
102
RTVSPost2010PropOp33
 70
     1
102
RTVSPost2010Prop34
280
     0
102
RTVSPost2010PropOp34
 70
     1
102
RTVSPost2010Prop35
280
     0
102
RTVSPost2010PropOp35
 70
     1
102
RTVSPost2010Prop36
280
     0
102
RTVSPost2010PropOp36
 70
     1
102
RTVSPost2010Prop37
 90
       50
102
RTVSPost2010PropOp37
 70
     1
102
RTVSPost2010Prop38
140
0.0
102
RTVSPost2010PropOp38
 70
     1
102
RTVSPost2010Prop39
140
1.0
102
RTVSPost2010PropOp39
 70
     1
102
RTVSPost2010Prop40
 90
        0
102
RTVSPost2010PropOp40
 70
     1
102
RTVSPost2010Prop41ColorIndex
 90
       18
102
RTVSPost2010Prop41ColorRGB
 90
        0
102
RTVSPost2010PropOp41
 70
     1
102
RTVSPost2010Prop42
 90
       50
102
RTVSPost2010PropOp42
 70
     1
102
RTVSPost2010Prop43
 90
        3
102
RTVSPost2010PropOp43
 70
     1
102
RTVSPost2010Prop44ColorIndex
 90
        5
102
RTVSPost2010Prop44ColorRGB
 90
      255
102
RTVSPost2010PropOp44
 70
     1
102
RTVSPost2010Prop45
280
     0
102
RTVSPost2010PropOp45
 70
     1
102
RTVSPost2010Prop46
 90
       50
102
RTVSPost2010PropOp46
 70
     1
102
RTVSPost2010Prop47
 90
       50
102
RTVSPost2010PropOp47
 70
     1
102
RTVSPost2010Prop48
 90
       50
102
RTVSPost2010PropOp48
 70
     1
102
RTVSPost2010Prop49
280
     0
102
RTVSPost2010PropOp49
 70
     1
102
RTVSPost2010Prop50
 90
       50
102
RTVSPost2010PropOp50
 70
     1
102
RTVSPost2010Prop51ColorIndex
 90
      256
102
RTVSPost2010Prop51ColorRGB
 90
-16777216
102
RTVSPost2010PropOp51
 70
     0
102
RTVSPost2010Prop52
140
1.0
102
RTVSPost2010PropOp52
 70
     0
102
RTVSPost2010Prop53
 90
        2
102
RTVSPost2010PropOp53
 70
     1
102
RTVSPost2010Prop54
  1
strokes_ogs.tif
102
RTVSPost2010PropOp54
 70
     1
102
RTVSPost2010Prop55
280
     0
102
RTVSPost2010PropOp55
 70
     1
102
RTVSPost2010Prop56
140
1.0
102
RTVSPost2010PropOp56
 70
     1
102
RTVSPost2010Prop57
140
1.0
102
RTVSPost2010PropOp57
 70
     1
102
RTVSPropertyOp0
 70
     1
102
RTVSPropertyOp1
 70
     1
102
RTVSPropertyOp2
 70
     1
102
RTVSPropertyOp3
 70
     1
102
RTVSPropertyOp4
 70
     1
102
RTVSPropertyOp5
 70
     1
102
RTVSPropertyOp6
 70
     1
102
RTVSPropertyOp7
 70
     1
102
RTVSPropertyOp8
 70
     1
102
RTVSPropertyOp9
 70
     1
102
RTVSPropertyOp10
 70
     1
102
RTVSPropertyOp11
 70
     1
102
RTVSPropertyOp12
 70
     1
102
RTVSPropertyOp13
 70
     1
102
RTVSPropertyOp14
 70
     1
102
RTVSPropertyOp15
 70
     1
102
RTVSPropertyOp16
 70
     1
102
RTVSPropertyOp17
 70
     1
102
RTVSPropertyOp18
 70
     1
102
RTVSPropertyOp19
 70
     1
102
RTVSPropertyOp20
 70
     1
102
RTVSPropertyOp21
 70
     1
102
RTVSPropertyOp22
 70
     1
102
RTVSPropertyOp23
 70
     1
102
RTVSPropertyOp24
 70
     1
102
RTVSPropertyOp25
 70
     1
102
RTVSPropertyOp26
 70
     1
102
RTVSPropertyOp27
 70
     1
102
RTVSPropertyOp28
 70
     1
102
RTVSPropertyOp29
 70
     1
102
RTVSPropertyOp30
 70
     1
102
RTVSPropertyOp31
 70
     1
102
RTVSPropertyOp32
 70
     1
102
RTVSPropertyOp33
 70
     1
102
RTVSPropertyOp34
 70
     1
102
RTVSPropertyOp35
 70
     1
102
RTVSPropertyOp36
 70
     1
102
RTVSPropertyOp37
 70
     1
102
RTVSPropertyOp38
 70
     1
102
RTVSPropertyOp39
 70
     1
102
RTVSPropertyOp40
 70
     1
102
RTVSPropertyOp41
 70
     1
102
RTVSPropertyOp42
 70
     1
102
RTVSPropertyOp43
 70
     1
102
RTVSPropertyOp44
 70
     1
102
RTVSPropertyOp45
 70
     1
102
RTVSPropertyOp46
 70
     1
102
RTVSPropertyOp47
 70
     1
102
RTVSPropertyOp48
 70
     1
102
RTVSPropertyOp49
 70
     1
102
RTVSPropertyOp50
 70
     1
102
RTVSPropertyOp51
 70
     0
102
RTVSPropertyOp52
 70
     0
102
RTVSPropertyOp53
 70
     1
102
RTVSPropertyOp54
 70
     1
102
RTVSPropertyOp55
 70
     1
102
RTVSPropertyOp56
 70
     1
102
RTVSPropertyOp57
 70
     1
102
RTVSPropertyOp58
 70
     1
102
RTVSPropertyOp59
 70
     1
102
RTVSPropertyOp60
 70
     1
102
RTVSPropertyOp61
 70
     1
102
RTVSPropertyOp62
 70
     1
  0
XRECORD
  5
5DB
102
{ACAD_REACTORS
330
5DA
102
}
330
5DA
100
AcDbXrecord
280
     1
102
RTVSPost2010Prop28
280
     0
102
RTVSPost2010PropOp28
 70
     1
102
RTVSPost2010Prop29
280
     1
102
RTVSPost2010PropOp29
 70
     1
102
RTVSPost2010Prop30
280
     1
102
RTVSPost2010PropOp30
 70
     1
102
RTVSPost2010Prop31
280
     0
102
RTVSPost2010PropOp31
 70
     1
102
RTVSPost2010Prop32
280
     0
102
RTVSPost2010PropOp32
 70
     1
102
RTVSPost2010Prop33
280
     0
102
RTVSPost2010PropOp33
 70
     1
102
RTVSPost2010Prop34
280
     0
102
RTVSPost2010PropOp34
 70
     1
102
RTVSPost2010Prop35
280
     0
102
RTVSPost2010PropOp35
 70
     1
102
RTVSPost2010Prop36
280
     0
102
RTVSPost2010PropOp36
 70
     1
102
RTVSPost2010Prop37
 90
       50
102
RTVSPost2010PropOp37
 70
     1
102
RTVSPost2010Prop38
140
0.0
102
RTVSPost2010PropOp38
 70
     1
102
RTVSPost2010Prop39
140
1.0
102
RTVSPost2010PropOp39
 70
     1
102
RTVSPost2010Prop40
 90
        0
102
RTVSPost2010PropOp40
 70
     1
102
RTVSPost2010Prop41ColorIndex
 90
       18
102
RTVSPost2010Prop41ColorRGB
 90
        0
102
RTVSPost2010PropOp41
 70
     1
102
RTVSPost2010Prop42
 90
       50
102
RTVSPost2010PropOp42
 70
     1
102
RTVSPost2010Prop43
 90
        3
102
RTVSPost2010PropOp43
 70
     1
102
RTVSPost2010Prop44ColorIndex
 90
        5
102
RTVSPost2010Prop44ColorRGB
 90
      255
102
RTVSPost2010PropOp44
 70
     1
102
RTVSPost2010Prop45
280
     0
102
RTVSPost2010PropOp45
 70
     1
102
RTVSPost2010Prop46
 90
       50
102
RTVSPost2010PropOp46
 70
     1
102
RTVSPost2010Prop47
 90
       50
102
RTVSPost2010PropOp47
 70
     1
102
RTVSPost2010Prop48
 90
       50
102
RTVSPost2010PropOp48
 70
     1
102
RTVSPost2010Prop49
280
     0
102
RTVSPost2010PropOp49
 70
     1
102
RTVSPost2010Prop50
 90
       50
102
RTVSPost2010PropOp50
 70
     1
102
RTVSPost2010Prop51ColorIndex
 90
      256
102
RTVSPost2010Prop51ColorRGB
 90
-16777216
102
RTVSPost2010PropOp51
 70
     0
102
RTVSPost2010Prop52
140
1.0
102
RTVSPost2010PropOp52
 70
     0
102
RTVSPost2010Prop53
 90
        2
102
RTVSPost2010PropOp53
 70
     1
102
RTVSPost2010Prop54
  1
strokes_ogs.tif
102
RTVSPost2010PropOp54
 70
     1
102
RTVSPost2010Prop55
280
     0
102
RTVSPost2010PropOp55
 70
     1
102
RTVSPost2010Prop56
140
1.0
102
RTVSPost2010PropOp56
 70
     1
102
RTVSPost2010Prop57
140
1.0
102
RTVSPost2010PropOp57
 70
     1
102
RTVSPropertyOp0
 70
     1
102
RTVSPropertyOp1
 70
     1
102
RTVSPropertyOp2
 70
     1
102
RTVSPropertyOp3
 70
     1
102
RTVSPropertyOp4
 70
     1
102
RTVSPropertyOp5
 70
     1
102
RTVSPropertyOp6
 70
     1
102
RTVSPropertyOp7
 70
     1
102
RTVSPropertyOp8
 70
     1
102
RTVSPropertyOp9
 70
     1
102
RTVSPropertyOp10
 70
     1
102
RTVSPropertyOp11
 70
     1
102
RTVSPropertyOp12
 70
     1
102
RTVSPropertyOp13
 70
     1
102
RTVSPropertyOp14
 70
     1
102
RTVSPropertyOp15
 70
     1
102
RTVSPropertyOp16
 70
     1
102
RTVSPropertyOp17
 70
     1
102
RTVSPropertyOp18
 70
     1
102
RTVSPropertyOp19
 70
     1
102
RTVSPropertyOp20
 70
     1
102
RTVSPropertyOp21
 70
     1
102
RTVSPropertyOp22
 70
     1
102
RTVSPropertyOp23
 70
     1
102
RTVSPropertyOp24
 70
     1
102
RTVSPropertyOp25
 70
     1
102
RTVSPropertyOp26
 70
     1
102
RTVSPropertyOp27
 70
     1
102
RTVSPropertyOp28
 70
     1
102
RTVSPropertyOp29
 70
     1
102
RTVSPropertyOp30
 70
     1
102
RTVSPropertyOp31
 70
     1
102
RTVSPropertyOp32
 70
     1
102
RTVSPropertyOp33
 70
     1
102
RTVSPropertyOp34
 70
     1
102
RTVSPropertyOp35
 70
     1
102
RTVSPropertyOp36
 70
     1
102
RTVSPropertyOp37
 70
     1
102
RTVSPropertyOp38
 70
     1
102
RTVSPropertyOp39
 70
     1
102
RTVSPropertyOp40
 70
     1
102
RTVSPropertyOp41
 70
     1
102
RTVSPropertyOp42
 70
     1
102
RTVSPropertyOp43
 70
     1
102
RTVSPropertyOp44
 70
     1
102
RTVSPropertyOp45
 70
     1
102
RTVSPropertyOp46
 70
     1
102
RTVSPropertyOp47
 70
     1
102
RTVSPropertyOp48
 70
     1
102
RTVSPropertyOp49
 70
     1
102
RTVSPropertyOp50
 70
     1
102
RTVSPropertyOp51
 70
     0
102
RTVSPropertyOp52
 70
     0
102
RTVSPropertyOp53
 70
     1
102
RTVSPropertyOp54
 70
     1
102
RTVSPropertyOp55
 70
     1
102
RTVSPropertyOp56
 70
     1
102
RTVSPropertyOp57
 70
     1
102
RTVSPropertyOp58
 70
     1
102
RTVSPropertyOp59
 70
     1
102
RTVSPropertyOp60
 70
     1
102
RTVSPropertyOp61
 70
     1
102
RTVSPropertyOp62
 70
     1
  0
XRECORD
  5
5DD
102
{ACAD_REACTORS
330
5DC
102
}
330
5DC
100
AcDbXrecord
280
     1
102
RTVSPost2010Prop28
280
     0
102
RTVSPost2010PropOp28
 70
     1
102
RTVSPost2010Prop29
280
     1
102
RTVSPost2010PropOp29
 70
     1
102
RTVSPost2010Prop30
280
     1
102
RTVSPost2010PropOp30
 70
     1
102
RTVSPost2010Prop31
280
     0
102
RTVSPost2010PropOp31
 70
     1
102
RTVSPost2010Prop32
280
     0
102
RTVSPost2010PropOp32
 70
     1
102
RTVSPost2010Prop33
280
     0
102
RTVSPost2010PropOp33
 70
     1
102
RTVSPost2010Prop34
280
     0
102
RTVSPost2010PropOp34
 70
     1
102
RTVSPost2010Prop35
280
     0
102
RTVSPost2010PropOp35
 70
     1
102
RTVSPost2010Prop36
280
     0
102
RTVSPost2010PropOp36
 70
     1
102
RTVSPost2010Prop37
 90
       50
102
RTVSPost2010PropOp37
 70
     1
102
RTVSPost2010Prop38
140
0.0
102
RTVSPost2010PropOp38
 70
     1
102
RTVSPost2010Prop39
140
1.0
102
RTVSPost2010PropOp39
 70
     1
102
RTVSPost2010Prop40
 90
        0
102
RTVSPost2010PropOp40
 70
     1
102
RTVSPost2010Prop41ColorIndex
 90
       18
102
RTVSPost2010Prop41ColorRGB
 90
        0
102
RTVSPost2010PropOp41
 70
     1
102
RTVSPost2010Prop42
 90
       50
102
RTVSPost2010PropOp42
 70
     1
102
RTVSPost2010Prop43
 90
        3
102
RTVSPost2010PropOp43
 70
     1
102
RTVSPost2010Prop44ColorIndex
 90
        5
102
RTVSPost2010Prop44ColorRGB
 90
      255
102
RTVSPost2010PropOp44
 70
     1
102
RTVSPost2010Prop45
280
     0
102
RTVSPost2010PropOp45
 70
     1
102
RTVSPost2010Prop46
 90
       50
102
RTVSPost2010PropOp46
 70
     1
102
RTVSPost2010Prop47
 90
       50
102
RTVSPost2010PropOp47
 70
     1
102
RTVSPost2010Prop48
 90
       50
102
RTVSPost2010PropOp48
 70
     1
102
RTVSPost2010Prop49
280
     0
102
RTVSPost2010PropOp49
 70
     1
102
RTVSPost2010Prop50
 90
       50
102
RTVSPost2010PropOp50
 70
     1
102
RTVSPost2010Prop51ColorIndex
 90
      256
102
RTVSPost2010Prop51ColorRGB
 90
-16777216
102
RTVSPost2010PropOp51
 70
     0
102
RTVSPost2010Prop52
140
1.0
102
RTVSPost2010PropOp52
 70
     0
102
RTVSPost2010Prop53
 90
        2
102
RTVSPost2010PropOp53
 70
     1
102
RTVSPost2010Prop54
  1
strokes_ogs.tif
102
RTVSPost2010PropOp54
 70
     1
102
RTVSPost2010Prop55
280
     0
102
RTVSPost2010PropOp55
 70
     1
102
RTVSPost2010Prop56
140
1.0
102
RTVSPost2010PropOp56
 70
     1
102
RTVSPost2010Prop57
140
1.0
102
RTVSPost2010PropOp57
 70
     1
102
RTVSPropertyOp0
 70
     1
102
RTVSPropertyOp1
 70
     1
102
RTVSPropertyOp2
 70
     1
102
RTVSPropertyOp3
 70
     1
102
RTVSPropertyOp4
 70
     1
102
RTVSPropertyOp5
 70
     1
102
RTVSPropertyOp6
 70
     1
102
RTVSPropertyOp7
 70
     1
102
RTVSPropertyOp8
 70
     1
102
RTVSPropertyOp9
 70
     1
102
RTVSPropertyOp10
 70
     1
102
RTVSPropertyOp11
 70
     1
102
RTVSPropertyOp12
 70
     1
102
RTVSPropertyOp13
 70
     1
102
RTVSPropertyOp14
 70
     1
102
RTVSPropertyOp15
 70
     1
102
RTVSPropertyOp16
 70
     1
102
RTVSPropertyOp17
 70
     1
102
RTVSPropertyOp18
 70
     1
102
RTVSPropertyOp19
 70
     1
102
RTVSPropertyOp20
 70
     1
102
RTVSPropertyOp21
 70
     1
102
RTVSPropertyOp22
 70
     1
102
RTVSPropertyOp23
 70
     1
102
RTVSPropertyOp24
 70
     1
102
RTVSPropertyOp25
 70
     1
102
RTVSPropertyOp26
 70
     1
102
RTVSPropertyOp27
 70
     1
102
RTVSPropertyOp28
 70
     1
102
RTVSPropertyOp29
 70
     1
102
RTVSPropertyOp30
 70
     1
102
RTVSPropertyOp31
 70
     1
102
RTVSPropertyOp32
 70
     1
102
RTVSPropertyOp33
 70
     1
102
RTVSPropertyOp34
 70
     1
102
RTVSPropertyOp35
 70
     1
102
RTVSPropertyOp36
 70
     1
102
RTVSPropertyOp37
 70
     1
102
RTVSPropertyOp38
 70
     1
102
RTVSPropertyOp39
 70
     1
102
RTVSPropertyOp40
 70
     1
102
RTVSPropertyOp41
 70
     1
102
RTVSPropertyOp42
 70
     1
102
RTVSPropertyOp43
 70
     1
102
RTVSPropertyOp44
 70
     1
102
RTVSPropertyOp45
 70
     1
102
RTVSPropertyOp46
 70
     1
102
RTVSPropertyOp47
 70
     1
102
RTVSPropertyOp48
 70
     1
102
RTVSPropertyOp49
 70
     1
102
RTVSPropertyOp50
 70
     1
102
RTVSPropertyOp51
 70
     0
102
RTVSPropertyOp52
 70
     0
102
RTVSPropertyOp53
 70
     1
102
RTVSPropertyOp54
 70
     1
102
RTVSPropertyOp55
 70
     1
102
RTVSPropertyOp56
 70
     1
102
RTVSPropertyOp57
 70
     1
102
RTVSPropertyOp58
 70
     1
102
RTVSPropertyOp59
 70
     1
102
RTVSPropertyOp60
 70
     1
102
RTVSPropertyOp61
 70
     1
102
RTVSPropertyOp62
 70
     1
  0
XRECORD
  5
5DF
102
{ACAD_REACTORS
330
5DE
102
}
330
5DE
100
AcDbXrecord
280
     1
102
RTVSPost2010Prop28
280
     0
102
RTVSPost2010PropOp28
 70
     1
102
RTVSPost2010Prop29
280
     1
102
RTVSPost2010PropOp29
 70
     1
102
RTVSPost2010Prop30
280
     1
102
RTVSPost2010PropOp30
 70
     1
102
RTVSPost2010Prop31
280
     0
102
RTVSPost2010PropOp31
 70
     1
102
RTVSPost2010Prop32
280
     0
102
RTVSPost2010PropOp32
 70
     1
102
RTVSPost2010Prop33
280
     0
102
RTVSPost2010PropOp33
 70
     1
102
RTVSPost2010Prop34
280
     0
102
RTVSPost2010PropOp34
 70
     1
102
RTVSPost2010Prop35
280
     0
102
RTVSPost2010PropOp35
 70
     1
102
RTVSPost2010Prop36
280
     0
102
RTVSPost2010PropOp36
 70
     1
102
RTVSPost2010Prop37
 90
       50
102
RTVSPost2010PropOp37
 70
     1
102
RTVSPost2010Prop38
140
0.0
102
RTVSPost2010PropOp38
 70
     1
102
RTVSPost2010Prop39
140
1.0
102
RTVSPost2010PropOp39
 70
     1
102
RTVSPost2010Prop40
 90
        0
102
RTVSPost2010PropOp40
 70
     1
102
RTVSPost2010Prop41ColorIndex
 90
       18
102
RTVSPost2010Prop41ColorRGB
 90
        0
102
RTVSPost2010PropOp41
 70
     1
102
RTVSPost2010Prop42
 90
       50
102
RTVSPost2010PropOp42
 70
     1
102
RTVSPost2010Prop43
 90
        3
102
RTVSPost2010PropOp43
 70
     1
102
RTVSPost2010Prop44ColorIndex
 90
        5
102
RTVSPost2010Prop44ColorRGB
 90
      255
102
RTVSPost2010PropOp44
 70
     1
102
RTVSPost2010Prop45
280
     0
102
RTVSPost2010PropOp45
 70
     1
102
RTVSPost2010Prop46
 90
       50
102
RTVSPost2010PropOp46
 70
     1
102
RTVSPost2010Prop47
 90
       50
102
RTVSPost2010PropOp47
 70
     1
102
RTVSPost2010Prop48
 90
       50
102
RTVSPost2010PropOp48
 70
     1
102
RTVSPost2010Prop49
280
     0
102
RTVSPost2010PropOp49
 70
     1
102
RTVSPost2010Prop50
 90
       50
102
RTVSPost2010PropOp50
 70
     1
102
RTVSPost2010Prop51ColorIndex
 90
      256
102
RTVSPost2010Prop51ColorRGB
 90
-16777216
102
RTVSPost2010PropOp51
 70
     0
102
RTVSPost2010Prop52
140
1.0
102
RTVSPost2010PropOp52
 70
     0
102
RTVSPost2010Prop53
 90
        2
102
RTVSPost2010PropOp53
 70
     1
102
RTVSPost2010Prop54
  1
strokes_ogs.tif
102
RTVSPost2010PropOp54
 70
     1
102
RTVSPost2010Prop55
280
     0
102
RTVSPost2010PropOp55
 70
     1
102
RTVSPost2010Prop56
140
1.0
102
RTVSPost2010PropOp56
 70
     1
102
RTVSPost2010Prop57
140
1.0
102
RTVSPost2010PropOp57
 70
     1
102
RTVSPropertyOp0
 70
     1
102
RTVSPropertyOp1
 70
     1
102
RTVSPropertyOp2
 70
     1
102
RTVSPropertyOp3
 70
     1
102
RTVSPropertyOp4
 70
     1
102
RTVSPropertyOp5
 70
     1
102
RTVSPropertyOp6
 70
     1
102
RTVSPropertyOp7
 70
     1
102
RTVSPropertyOp8
 70
     1
102
RTVSPropertyOp9
 70
     1
102
RTVSPropertyOp10
 70
     1
102
RTVSPropertyOp11
 70
     1
102
RTVSPropertyOp12
 70
     1
102
RTVSPropertyOp13
 70
     1
102
RTVSPropertyOp14
 70
     1
102
RTVSPropertyOp15
 70
     1
102
RTVSPropertyOp16
 70
     1
102
RTVSPropertyOp17
 70
     1
102
RTVSPropertyOp18
 70
     1
102
RTVSPropertyOp19
 70
     1
102
RTVSPropertyOp20
 70
     1
102
RTVSPropertyOp21
 70
     1
102
RTVSPropertyOp22
 70
     1
102
RTVSPropertyOp23
 70
     1
102
RTVSPropertyOp24
 70
     1
102
RTVSPropertyOp25
 70
     1
102
RTVSPropertyOp26
 70
     1
102
RTVSPropertyOp27
 70
     1
102
RTVSPropertyOp28
 70
     1
102
RTVSPropertyOp29
 70
     1
102
RTVSPropertyOp30
 70
     1
102
RTVSPropertyOp31
 70
     1
102
RTVSPropertyOp32
 70
     1
102
RTVSPropertyOp33
 70
     1
102
RTVSPropertyOp34
 70
     1
102
RTVSPropertyOp35
 70
     1
102
RTVSPropertyOp36
 70
     1
102
RTVSPropertyOp37
 70
     1
102
RTVSPropertyOp38
 70
     1
102
RTVSPropertyOp39
 70
     1
102
RTVSPropertyOp40
 70
     1
102
RTVSPropertyOp41
 70
     1
102
RTVSPropertyOp42
 70
     1
102
RTVSPropertyOp43
 70
     1
102
RTVSPropertyOp44
 70
     1
102
RTVSPropertyOp45
 70
     1
102
RTVSPropertyOp46
 70
     1
102
RTVSPropertyOp47
 70
     1
102
RTVSPropertyOp48
 70
     1
102
RTVSPropertyOp49
 70
     1
102
RTVSPropertyOp50
 70
     1
102
RTVSPropertyOp51
 70
     0
102
RTVSPropertyOp52
 70
     0
102
RTVSPropertyOp53
 70
     1
102
RTVSPropertyOp54
 70
     1
102
RTVSPropertyOp55
 70
     1
102
RTVSPropertyOp56
 70
     1
102
RTVSPropertyOp57
 70
     1
102
RTVSPropertyOp58
 70
     1
102
RTVSPropertyOp59
 70
     1
102
RTVSPropertyOp60
 70
     1
102
RTVSPropertyOp61
 70
     1
102
RTVSPropertyOp62
 70
     1
  0
XRECORD
  5
5E1
102
{ACAD_REACTORS
330
5E0
102
}
330
5E0
100
AcDbXrecord
280
     1
102
RTVSPost2010Prop28
280
     0
102
RTVSPost2010PropOp28
 70
     1
102
RTVSPost2010Prop29
280
     1
102
RTVSPost2010PropOp29
 70
     1
102
RTVSPost2010Prop30
280
     1
102
RTVSPost2010PropOp30
 70
     1
102
RTVSPost2010Prop31
280
     0
102
RTVSPost2010PropOp31
 70
     1
102
RTVSPost2010Prop32
280
     0
102
RTVSPost2010PropOp32
 70
     1
102
RTVSPost2010Prop33
280
     0
102
RTVSPost2010PropOp33
 70
     1
102
RTVSPost2010Prop34
280
     0
102
RTVSPost2010PropOp34
 70
     1
102
RTVSPost2010Prop35
280
     0
102
RTVSPost2010PropOp35
 70
     1
102
RTVSPost2010Prop36
280
     0
102
RTVSPost2010PropOp36
 70
     1
102
RTVSPost2010Prop37
 90
       50
102
RTVSPost2010PropOp37
 70
     1
102
RTVSPost2010Prop38
140
0.0
102
RTVSPost2010PropOp38
 70
     1
102
RTVSPost2010Prop39
140
1.0
102
RTVSPost2010PropOp39
 70
     1
102
RTVSPost2010Prop40
 90
        0
102
RTVSPost2010PropOp40
 70
     1
102
RTVSPost2010Prop41ColorIndex
 90
       18
102
RTVSPost2010Prop41ColorRGB
 90
        0
102
RTVSPost2010PropOp41
 70
     1
102
RTVSPost2010Prop42
 90
       50
102
RTVSPost2010PropOp42
 70
     1
102
RTVSPost2010Prop43
 90
        3
102
RTVSPost2010PropOp43
 70
     1
102
RTVSPost2010Prop44ColorIndex
 90
        5
102
RTVSPost2010Prop44ColorRGB
 90
      255
102
RTVSPost2010PropOp44
 70
     1
102
RTVSPost2010Prop45
280
     0
102
RTVSPost2010PropOp45
 70
     1
102
RTVSPost2010Prop46
 90
       50
102
RTVSPost2010PropOp46
 70
     1
102
RTVSPost2010Prop47
 90
       50
102
RTVSPost2010PropOp47
 70
     1
102
RTVSPost2010Prop48
 90
       50
102
RTVSPost2010PropOp48
 70
     1
102
RTVSPost2010Prop49
280
     0
102
RTVSPost2010PropOp49
 70
     1
102
RTVSPost2010Prop50
 90
       50
102
RTVSPost2010PropOp50
 70
     1
102
RTVSPost2010Prop51ColorIndex
 90
      256
102
RTVSPost2010Prop51ColorRGB
 90
-16777216
102
RTVSPost2010PropOp51
 70
     0
102
RTVSPost2010Prop52
140
1.0
102
RTVSPost2010PropOp52
 70
     0
102
RTVSPost2010Prop53
 90
        2
102
RTVSPost2010PropOp53
 70
     1
102
RTVSPost2010Prop54
  1
strokes_ogs.tif
102
RTVSPost2010PropOp54
 70
     1
102
RTVSPost2010Prop55
280
     0
102
RTVSPost2010PropOp55
 70
     1
102
RTVSPost2010Prop56
140
1.0
102
RTVSPost2010PropOp56
 70
     1
102
RTVSPost2010Prop57
140
1.0
102
RTVSPost2010PropOp57
 70
     1
102
RTVSPropertyOp0
 70
     1
102
RTVSPropertyOp1
 70
     1
102
RTVSPropertyOp2
 70
     1
102
RTVSPropertyOp3
 70
     1
102
RTVSPropertyOp4
 70
     1
102
RTVSPropertyOp5
 70
     1
102
RTVSPropertyOp6
 70
     1
102
RTVSPropertyOp7
 70
     1
102
RTVSPropertyOp8
 70
     1
102
RTVSPropertyOp9
 70
     1
102
RTVSPropertyOp10
 70
     1
102
RTVSPropertyOp11
 70
     1
102
RTVSPropertyOp12
 70
     1
102
RTVSPropertyOp13
 70
     1
102
RTVSPropertyOp14
 70
     1
102
RTVSPropertyOp15
 70
     1
102
RTVSPropertyOp16
 70
     1
102
RTVSPropertyOp17
 70
     1
102
RTVSPropertyOp18
 70
     1
102
RTVSPropertyOp19
 70
     1
102
RTVSPropertyOp20
 70
     1
102
RTVSPropertyOp21
 70
     1
102
RTVSPropertyOp22
 70
     1
102
RTVSPropertyOp23
 70
     1
102
RTVSPropertyOp24
 70
     1
102
RTVSPropertyOp25
 70
     1
102
RTVSPropertyOp26
 70
     1
102
RTVSPropertyOp27
 70
     1
102
RTVSPropertyOp28
 70
     1
102
RTVSPropertyOp29
 70
     1
102
RTVSPropertyOp30
 70
     1
102
RTVSPropertyOp31
 70
     1
102
RTVSPropertyOp32
 70
     1
102
RTVSPropertyOp33
 70
     1
102
RTVSPropertyOp34
 70
     1
102
RTVSPropertyOp35
 70
     1
102
RTVSPropertyOp36
 70
     1
102
RTVSPropertyOp37
 70
     1
102
RTVSPropertyOp38
 70
     1
102
RTVSPropertyOp39
 70
     1
102
RTVSPropertyOp40
 70
     1
102
RTVSPropertyOp41
 70
     1
102
RTVSPropertyOp42
 70
     1
102
RTVSPropertyOp43
 70
     1
102
RTVSPropertyOp44
 70
     1
102
RTVSPropertyOp45
 70
     1
102
RTVSPropertyOp46
 70
     1
102
RTVSPropertyOp47
 70
     1
102
RTVSPropertyOp48
 70
     1
102
RTVSPropertyOp49
 70
     1
102
RTVSPropertyOp50
 70
     1
102
RTVSPropertyOp51
 70
     0
102
RTVSPropertyOp52
 70
     0
102
RTVSPropertyOp53
 70
     1
102
RTVSPropertyOp54
 70
     1
102
RTVSPropertyOp55
 70
     1
102
RTVSPropertyOp56
 70
     1
102
RTVSPropertyOp57
 70
     1
102
RTVSPropertyOp58
 70
     1
102
RTVSPropertyOp59
 70
     1
102
RTVSPropertyOp60
 70
     1
102
RTVSPropertyOp61
 70
     1
102
RTVSPropertyOp62
 70
     1
  0
XRECORD
  5
5E9
102
{ACAD_REACTORS
330
5E8
102
}
330
5E8
100
AcDbXrecord
280
     1
102
RTVSPost2010Prop28
280
     0
102
RTVSPost2010PropOp28
 70
     1
102
RTVSPost2010Prop29
280
     1
102
RTVSPost2010PropOp29
 70
     1
102
RTVSPost2010Prop30
280
     1
102
RTVSPost2010PropOp30
 70
     1
102
RTVSPost2010Prop31
280
     0
102
RTVSPost2010PropOp31
 70
     1
102
RTVSPost2010Prop32
280
     0
102
RTVSPost2010PropOp32
 70
     1
102
RTVSPost2010Prop33
280
     0
102
RTVSPost2010PropOp33
 70
     1
102
RTVSPost2010Prop34
280
     0
102
RTVSPost2010PropOp34
 70
     1
102
RTVSPost2010Prop35
280
     0
102
RTVSPost2010PropOp35
 70
     1
102
RTVSPost2010Prop36
280
     0
102
RTVSPost2010PropOp36
 70
     1
102
RTVSPost2010Prop37
 90
       50
102
RTVSPost2010PropOp37
 70
     1
102
RTVSPost2010Prop38
140
0.0
102
RTVSPost2010PropOp38
 70
     1
102
RTVSPost2010Prop39
140
1.0
102
RTVSPost2010PropOp39
 70
     1
102
RTVSPost2010Prop40
 90
        0
102
RTVSPost2010PropOp40
 70
     1
102
RTVSPost2010Prop41ColorIndex
 90
       18
102
RTVSPost2010Prop41ColorRGB
 90
        0
102
RTVSPost2010PropOp41
 70
     1
102
RTVSPost2010Prop42
 90
       50
102
RTVSPost2010PropOp42
 70
     1
102
RTVSPost2010Prop43
 90
        3
102
RTVSPost2010PropOp43
 70
     1
102
RTVSPost2010Prop44ColorIndex
 90
        5
102
RTVSPost2010Prop44ColorRGB
 90
      255
102
RTVSPost2010PropOp44
 70
     1
102
RTVSPost2010Prop45
280
     0
102
RTVSPost2010PropOp45
 70
     1
102
RTVSPost2010Prop46
 90
       50
102
RTVSPost2010PropOp46
 70
     1
102
RTVSPost2010Prop47
 90
       50
102
RTVSPost2010PropOp47
 70
     1
102
RTVSPost2010Prop48
 90
       50
102
RTVSPost2010PropOp48
 70
     1
102
RTVSPost2010Prop49
280
     0
102
RTVSPost2010PropOp49
 70
     1
102
RTVSPost2010Prop50
 90
       50
102
RTVSPost2010PropOp50
 70
     1
102
RTVSPost2010Prop51ColorIndex
 90
      256
102
RTVSPost2010Prop51ColorRGB
 90
-16777216
102
RTVSPost2010PropOp51
 70
     0
102
RTVSPost2010Prop52
140
1.0
102
RTVSPost2010PropOp52
 70
     0
102
RTVSPost2010Prop53
 90
        2
102
RTVSPost2010PropOp53
 70
     1
102
RTVSPost2010Prop54
  1
strokes_ogs.tif
102
RTVSPost2010PropOp54
 70
     1
102
RTVSPost2010Prop55
280
     0
102
RTVSPost2010PropOp55
 70
     1
102
RTVSPost2010Prop56
140
1.0
102
RTVSPost2010PropOp56
 70
     1
102
RTVSPost2010Prop57
140
1.0
102
RTVSPost2010PropOp57
 70
     1
102
RTVSPropertyOp0
 70
     1
102
RTVSPropertyOp1
 70
     1
102
RTVSPropertyOp2
 70
     1
102
RTVSPropertyOp3
 70
     1
102
RTVSPropertyOp4
 70
     1
102
RTVSPropertyOp5
 70
     1
102
RTVSPropertyOp6
 70
     1
102
RTVSPropertyOp7
 70
     1
102
RTVSPropertyOp8
 70
     1
102
RTVSPropertyOp9
 70
     1
102
RTVSPropertyOp10
 70
     1
102
RTVSPropertyOp11
 70
     1
102
RTVSPropertyOp12
 70
     1
102
RTVSPropertyOp13
 70
     1
102
RTVSPropertyOp14
 70
     1
102
RTVSPropertyOp15
 70
     1
102
RTVSPropertyOp16
 70
     1
102
RTVSPropertyOp17
 70
     1
102
RTVSPropertyOp18
 70
     1
102
RTVSPropertyOp19
 70
     1
102
RTVSPropertyOp20
 70
     1
102
RTVSPropertyOp21
 70
     1
102
RTVSPropertyOp22
 70
     1
102
RTVSPropertyOp23
 70
     1
102
RTVSPropertyOp24
 70
     1
102
RTVSPropertyOp25
 70
     1
102
RTVSPropertyOp26
 70
     1
102
RTVSPropertyOp27
 70
     1
102
RTVSPropertyOp28
 70
     1
102
RTVSPropertyOp29
 70
     1
102
RTVSPropertyOp30
 70
     1
102
RTVSPropertyOp31
 70
     1
102
RTVSPropertyOp32
 70
     1
102
RTVSPropertyOp33
 70
     1
102
RTVSPropertyOp34
 70
     1
102
RTVSPropertyOp35
 70
     1
102
RTVSPropertyOp36
 70
     1
102
RTVSPropertyOp37
 70
     1
102
RTVSPropertyOp38
 70
     1
102
RTVSPropertyOp39
 70
     1
102
RTVSPropertyOp40
 70
     1
102
RTVSPropertyOp41
 70
     1
102
RTVSPropertyOp42
 70
     1
102
RTVSPropertyOp43
 70
     1
102
RTVSPropertyOp44
 70
     1
102
RTVSPropertyOp45
 70
     1
102
RTVSPropertyOp46
 70
     1
102
RTVSPropertyOp47
 70
     1
102
RTVSPropertyOp48
 70
     1
102
RTVSPropertyOp49
 70
     1
102
RTVSPropertyOp50
 70
     1
102
RTVSPropertyOp51
 70
     0
102
RTVSPropertyOp52
 70
     0
102
RTVSPropertyOp53
 70
     1
102
RTVSPropertyOp54
 70
     1
102
RTVSPropertyOp55
 70
     1
102
RTVSPropertyOp56
 70
     1
102
RTVSPropertyOp57
 70
     1
102
RTVSPropertyOp58
 70
     1
102
RTVSPropertyOp59
 70
     1
102
RTVSPropertyOp60
 70
     1
102
RTVSPropertyOp61
 70
     1
102
RTVSPropertyOp62
 70
     1
  0
XRECORD
  5
605
102
{ACAD_REACTORS
330
604
102
}
330
604
100
AcDbXrecord
280
     1
102
RTVSPost2010Prop28
280
     0
102
RTVSPost2010PropOp28
 70
     1
102
RTVSPost2010Prop29
280
     1
102
RTVSPost2010PropOp29
 70
     1
102
RTVSPost2010Prop30
280
     1
102
RTVSPost2010PropOp30
 70
     1
102
RTVSPost2010Prop31
280
     0
102
RTVSPost2010PropOp31
 70
     1
102
RTVSPost2010Prop32
280
     0
102
RTVSPost2010PropOp32
 70
     1
102
RTVSPost2010Prop33
280
     0
102
RTVSPost2010PropOp33
 70
     1
102
RTVSPost2010Prop34
280
     0
102
RTVSPost2010PropOp34
 70
     1
102
RTVSPost2010Prop35
280
     0
102
RTVSPost2010PropOp35
 70
     1
102
RTVSPost2010Prop36
280
     0
102
RTVSPost2010PropOp36
 70
     1
102
RTVSPost2010Prop37
 90
       50
102
RTVSPost2010PropOp37
 70
     0
102
RTVSPost2010Prop38
140
0.0
102
RTVSPost2010PropOp38
 70
     0
102
RTVSPost2010Prop39
140
1.0
102
RTVSPost2010PropOp39
 70
     0
102
RTVSPost2010Prop40
 90
        0
102
RTVSPost2010PropOp40
 70
     0
102
RTVSPost2010Prop41ColorIndex
 90
       18
102
RTVSPost2010Prop41ColorRGB
 90
        0
102
RTVSPost2010PropOp41
 70
     0
102
RTVSPost2010Prop42
 90
       50
102
RTVSPost2010PropOp42
 70
     0
102
RTVSPost2010Prop43
 90
        3
102
RTVSPost2010PropOp43
 70
     0
102
RTVSPost2010Prop44ColorIndex
 90
        5
102
RTVSPost2010Prop44ColorRGB
 90
      255
102
RTVSPost2010PropOp44
 70
     0
102
RTVSPost2010Prop45
280
     0
102
RTVSPost2010PropOp45
 70
     1
102
RTVSPost2010Prop46
 90
       50
102
RTVSPost2010PropOp46
 70
     0
102
RTVSPost2010Prop47
 90
       50
102
RTVSPost2010PropOp47
 70
     0
102
RTVSPost2010Prop48
 90
       50
102
RTVSPost2010PropOp48
 70
     0
102
RTVSPost2010Prop49
280
     0
102
RTVSPost2010PropOp49
 70
     1
102
RTVSPost2010Prop50
 90
       50
102
RTVSPost2010PropOp50
 70
     0
102
RTVSPost2010Prop51ColorIndex
 90
      256
102
RTVSPost2010Prop51ColorRGB
 90
-16777216
102
RTVSPost2010PropOp51
 70
     0
102
RTVSPost2010Prop52
140
1.0
102
RTVSPost2010PropOp52
 70
     0
102
RTVSPost2010Prop53
 90
        2
102
RTVSPost2010PropOp53
 70
     0
102
RTVSPost2010Prop54
  1
strokes_ogs.tif
102
RTVSPost2010PropOp54
 70
     0
102
RTVSPost2010Prop55
280
     0
102
RTVSPost2010PropOp55
 70
     1
102
RTVSPost2010Prop56
140
1.0
102
RTVSPost2010PropOp56
 70
     0
102
RTVSPost2010Prop57
140
1.0
102
RTVSPost2010PropOp57
 70
     0
102
RTVSPropertyOp0
 70
     0
102
RTVSPropertyOp1
 70
     0
102
RTVSPropertyOp2
 70
     0
102
RTVSPropertyOp3
 70
     0
102
RTVSPropertyOp4
 70
     0
102
RTVSPropertyOp5
 70
     0
102
RTVSPropertyOp6
 70
     0
102
RTVSPropertyOp7
 70
     0
102
RTVSPropertyOp8
 70
     0
102
RTVSPropertyOp9
 70
     0
102
RTVSPropertyOp10
 70
     0
102
RTVSPropertyOp11
 70
     0
102
RTVSPropertyOp12
 70
     0
102
RTVSPropertyOp13
 70
     0
102
RTVSPropertyOp14
 70
     2
102
RTVSPropertyOp15
 70
     0
102
RTVSPropertyOp16
 70
     0
102
RTVSPropertyOp17
 70
     0
102
RTVSPropertyOp18
 70
     0
102
RTVSPropertyOp19
 70
     0
102
RTVSPropertyOp20
 70
     0
102
RTVSPropertyOp21
 70
     0
102
RTVSPropertyOp22
 70
     0
102
RTVSPropertyOp23
 70
     0
102
RTVSPropertyOp24
 70
     0
102
RTVSPropertyOp25
 70
     0
102
RTVSPropertyOp26
 70
     0
102
RTVSPropertyOp27
 70
     0
102
RTVSPropertyOp28
 70
     1
102
RTVSPropertyOp29
 70
     1
102
RTVSPropertyOp30
 70
     1
102
RTVSPropertyOp31
 70
     1
102
RTVSPropertyOp32
 70
     1
102
RTVSPropertyOp33
 70
     1
102
RTVSPropertyOp34
 70
     1
102
RTVSPropertyOp35
 70
     1
102
RTVSPropertyOp36
 70
     1
102
RTVSPropertyOp37
 70
     0
102
RTVSPropertyOp38
 70
     0
102
RTVSPropertyOp39
 70
     0
102
RTVSPropertyOp40
 70
     0
102
RTVSPropertyOp41
 70
     0
102
RTVSPropertyOp42
 70
     0
102
RTVSPropertyOp43
 70
     0
102
RTVSPropertyOp44
 70
     0
102
RTVSPropertyOp45
 70
     1
102
RTVSPropertyOp46
 70
     0
102
RTVSPropertyOp47
 70
     0
102
RTVSPropertyOp48
 70
     0
102
RTVSPropertyOp49
 70
     1
102
RTVSPropertyOp50
 70
     0
102
RTVSPropertyOp51
 70
     0
102
RTVSPropertyOp52
 70
     0
102
RTVSPropertyOp53
 70
     0
102
RTVSPropertyOp54
 70
     0
102
RTVSPropertyOp55
 70
     1
102
RTVSPropertyOp56
 70
     0
102
RTVSPropertyOp57
 70
     0
102
RTVSPropertyOp58
 70
     0
102
RTVSPropertyOp59
 70
     0
102
RTVSPropertyOp60
 70
     0
102
RTVSPropertyOp61
 70
     0
102
RTVSPropertyOp62
 70
     0
  0
XRECORD
  5
5F5
102
{ACAD_REACTORS
330
5F4
102
}
330
5F4
100
AcDbXrecord
280
     1
102
RTVSPost2010Prop28
280
     0
102
RTVSPost2010PropOp28
 70
     1
102
RTVSPost2010Prop29
280
     1
102
RTVSPost2010PropOp29
 70
     1
102
RTVSPost2010Prop30
280
     1
102
RTVSPost2010PropOp30
 70
     1
102
RTVSPost2010Prop31
280
     0
102
RTVSPost2010PropOp31
 70
     1
102
RTVSPost2010Prop32
280
     0
102
RTVSPost2010PropOp32
 70
     1
102
RTVSPost2010Prop33
280
     0
102
RTVSPost2010PropOp33
 70
     1
102
RTVSPost2010Prop34
280
     0
102
RTVSPost2010PropOp34
 70
     1
102
RTVSPost2010Prop35
280
     0
102
RTVSPost2010PropOp35
 70
     1
102
RTVSPost2010Prop36
280
     0
102
RTVSPost2010PropOp36
 70
     1
102
RTVSPost2010Prop37
 90
       50
102
RTVSPost2010PropOp37
 70
     1
102
RTVSPost2010Prop38
140
0.0
102
RTVSPost2010PropOp38
 70
     1
102
RTVSPost2010Prop39
140
1.0
102
RTVSPost2010PropOp39
 70
     1
102
RTVSPost2010Prop40
 90
        0
102
RTVSPost2010PropOp40
 70
     1
102
RTVSPost2010Prop41ColorIndex
 90
       18
102
RTVSPost2010Prop41ColorRGB
 90
        0
102
RTVSPost2010PropOp41
 70
     1
102
RTVSPost2010Prop42
 90
       50
102
RTVSPost2010PropOp42
 70
     1
102
RTVSPost2010Prop43
 90
        3
102
RTVSPost2010PropOp43
 70
     1
102
RTVSPost2010Prop44ColorIndex
 90
        5
102
RTVSPost2010Prop44ColorRGB
 90
      255
102
RTVSPost2010PropOp44
 70
     1
102
RTVSPost2010Prop45
280
     0
102
RTVSPost2010PropOp45
 70
     1
102
RTVSPost2010Prop46
 90
       50
102
RTVSPost2010PropOp46
 70
     1
102
RTVSPost2010Prop47
 90
       50
102
RTVSPost2010PropOp47
 70
     1
102
RTVSPost2010Prop48
 90
       50
102
RTVSPost2010PropOp48
 70
     1
102
RTVSPost2010Prop49
280
     0
102
RTVSPost2010PropOp49
 70
     1
102
RTVSPost2010Prop50
 90
       50
102
RTVSPost2010PropOp50
 70
     1
102
RTVSPost2010Prop51ColorIndex
 90
      256
102
RTVSPost2010Prop51ColorRGB
 90
-16777216
102
RTVSPost2010PropOp51
 70
     0
102
RTVSPost2010Prop52
140
1.0
102
RTVSPost2010PropOp52
 70
     0
102
RTVSPost2010Prop53
 90
        2
102
RTVSPost2010PropOp53
 70
     1
102
RTVSPost2010Prop54
  1
strokes_ogs.tif
102
RTVSPost2010PropOp54
 70
     1
102
RTVSPost2010Prop55
280
     0
102
RTVSPost2010PropOp55
 70
     1
102
RTVSPost2010Prop56
140
1.0
102
RTVSPost2010PropOp56
 70
     1
102
RTVSPost2010Prop57
140
1.0
102
RTVSPost2010PropOp57
 70
     1
102
RTVSPropertyOp0
 70
     1
102
RTVSPropertyOp1
 70
     1
102
RTVSPropertyOp2
 70
     1
102
RTVSPropertyOp3
 70
     1
102
RTVSPropertyOp4
 70
     1
102
RTVSPropertyOp5
 70
     1
102
RTVSPropertyOp6
 70
     1
102
RTVSPropertyOp7
 70
     1
102
RTVSPropertyOp8
 70
     1
102
RTVSPropertyOp9
 70
     1
102
RTVSPropertyOp10
 70
     1
102
RTVSPropertyOp11
 70
     1
102
RTVSPropertyOp12
 70
     1
102
RTVSPropertyOp13
 70
     1
102
RTVSPropertyOp14
 70
     1
102
RTVSPropertyOp15
 70
     1
102
RTVSPropertyOp16
 70
     1
102
RTVSPropertyOp17
 70
     1
102
RTVSPropertyOp18
 70
     1
102
RTVSPropertyOp19
 70
     1
102
RTVSPropertyOp20
 70
     1
102
RTVSPropertyOp21
 70
     1
102
RTVSPropertyOp22
 70
     1
102
RTVSPropertyOp23
 70
     1
102
RTVSPropertyOp24
 70
     1
102
RTVSPropertyOp25
 70
     1
102
RTVSPropertyOp26
 70
     1
102
RTVSPropertyOp27
 70
     1
102
RTVSPropertyOp28
 70
     1
102
RTVSPropertyOp29
 70
     1
102
RTVSPropertyOp30
 70
     1
102
RTVSPropertyOp31
 70
     1
102
RTVSPropertyOp32
 70
     1
102
RTVSPropertyOp33
 70
     1
102
RTVSPropertyOp34
 70
     1
102
RTVSPropertyOp35
 70
     1
102
RTVSPropertyOp36
 70
     1
102
RTVSPropertyOp37
 70
     1
102
RTVSPropertyOp38
 70
     1
102
RTVSPropertyOp39
 70
     1
102
RTVSPropertyOp40
 70
     1
102
RTVSPropertyOp41
 70
     1
102
RTVSPropertyOp42
 70
     1
102
RTVSPropertyOp43
 70
     1
102
RTVSPropertyOp44
 70
     1
102
RTVSPropertyOp45
 70
     1
102
RTVSPropertyOp46
 70
     1
102
RTVSPropertyOp47
 70
     1
102
RTVSPropertyOp48
 70
     1
102
RTVSPropertyOp49
 70
     1
102
RTVSPropertyOp50
 70
     1
102
RTVSPropertyOp51
 70
     0
102
RTVSPropertyOp52
 70
     0
102
RTVSPropertyOp53
 70
     1
102
RTVSPropertyOp54
 70
     1
102
RTVSPropertyOp55
 70
     1
102
RTVSPropertyOp56
 70
     1
102
RTVSPropertyOp57
 70
     1
102
RTVSPropertyOp58
 70
     1
102
RTVSPropertyOp59
 70
     1
102
RTVSPropertyOp60
 70
     1
102
RTVSPropertyOp61
 70
     1
102
RTVSPropertyOp62
 70
     1
  0
XRECORD
  5
607
102
{ACAD_REACTORS
330
606
102
}
330
606
100
AcDbXrecord
280
     1
102
RTVSPost2010Prop28
280
     0
102
RTVSPost2010PropOp28
 70
     1
102
RTVSPost2010Prop29
280
     1
102
RTVSPost2010PropOp29
 70
     1
102
RTVSPost2010Prop30
280
     1
102
RTVSPost2010PropOp30
 70
     1
102
RTVSPost2010Prop31
280
     0
102
RTVSPost2010PropOp31
 70
     1
102
RTVSPost2010Prop32
280
     0
102
RTVSPost2010PropOp32
 70
     1
102
RTVSPost2010Prop33
280
     0
102
RTVSPost2010PropOp33
 70
     1
102
RTVSPost2010Prop34
280
     0
102
RTVSPost2010PropOp34
 70
     1
102
RTVSPost2010Prop35
280
     0
102
RTVSPost2010PropOp35
 70
     1
102
RTVSPost2010Prop36
280
     0
102
RTVSPost2010PropOp36
 70
     1
102
RTVSPost2010Prop37
 90
       50
102
RTVSPost2010PropOp37
 70
     0
102
RTVSPost2010Prop38
140
0.0
102
RTVSPost2010PropOp38
 70
     0
102
RTVSPost2010Prop39
140
1.0
102
RTVSPost2010PropOp39
 70
     0
102
RTVSPost2010Prop40
 90
        0
102
RTVSPost2010PropOp40
 70
     0
102
RTVSPost2010Prop41ColorIndex
 90
       18
102
RTVSPost2010Prop41ColorRGB
 90
        0
102
RTVSPost2010PropOp41
 70
     0
102
RTVSPost2010Prop42
 90
       50
102
RTVSPost2010PropOp42
 70
     0
102
RTVSPost2010Prop43
 90
        3
102
RTVSPost2010PropOp43
 70
     0
102
RTVSPost2010Prop44ColorIndex
 90
        5
102
RTVSPost2010Prop44ColorRGB
 90
      255
102
RTVSPost2010PropOp44
 70
     0
102
RTVSPost2010Prop45
280
     0
102
RTVSPost2010PropOp45
 70
     1
102
RTVSPost2010Prop46
 90
       50
102
RTVSPost2010PropOp46
 70
     0
102
RTVSPost2010Prop47
 90
       50
102
RTVSPost2010PropOp47
 70
     0
102
RTVSPost2010Prop48
 90
       50
102
RTVSPost2010PropOp48
 70
     0
102
RTVSPost2010Prop49
280
     0
102
RTVSPost2010PropOp49
 70
     1
102
RTVSPost2010Prop50
 90
       50
102
RTVSPost2010PropOp50
 70
     0
102
RTVSPost2010Prop51ColorIndex
 90
      256
102
RTVSPost2010Prop51ColorRGB
 90
-16777216
102
RTVSPost2010PropOp51
 70
     0
102
RTVSPost2010Prop52
140
1.0
102
RTVSPost2010PropOp52
 70
     0
102
RTVSPost2010Prop53
 90
        2
102
RTVSPost2010PropOp53
 70
     0
102
RTVSPost2010Prop54
  1
strokes_ogs.tif
102
RTVSPost2010PropOp54
 70
     0
102
RTVSPost2010Prop55
280
     0
102
RTVSPost2010PropOp55
 70
     1
102
RTVSPost2010Prop56
140
1.0
102
RTVSPost2010PropOp56
 70
     0
102
RTVSPost2010Prop57
140
1.0
102
RTVSPost2010PropOp57
 70
     0
102
RTVSPropertyOp0
 70
     0
102
RTVSPropertyOp1
 70
     0
102
RTVSPropertyOp2
 70
     0
102
RTVSPropertyOp3
 70
     0
102
RTVSPropertyOp4
 70
     0
102
RTVSPropertyOp5
 70
     0
102
RTVSPropertyOp6
 70
     0
102
RTVSPropertyOp7
 70
     0
102
RTVSPropertyOp8
 70
     0
102
RTVSPropertyOp9
 70
     0
102
RTVSPropertyOp10
 70
     0
102
RTVSPropertyOp11
 70
     0
102
RTVSPropertyOp12
 70
     0
102
RTVSPropertyOp13
 70
     0
102
RTVSPropertyOp14
 70
     2
102
RTVSPropertyOp15
 70
     0
102
RTVSPropertyOp16
 70
     0
102
RTVSPropertyOp17
 70
     0
102
RTVSPropertyOp18
 70
     0
102
RTVSPropertyOp19
 70
     0
102
RTVSPropertyOp20
 70
     0
102
RTVSPropertyOp21
 70
     0
102
RTVSPropertyOp22
 70
     0
102
RTVSPropertyOp23
 70
     0
102
RTVSPropertyOp24
 70
     0
102
RTVSPropertyOp25
 70
     0
102
RTVSPropertyOp26
 70
     0
102
RTVSPropertyOp27
 70
     0
102
RTVSPropertyOp28
 70
     1
102
RTVSPropertyOp29
 70
     1
102
RTVSPropertyOp30
 70
     1
102
RTVSPropertyOp31
 70
     1
102
RTVSPropertyOp32
 70
     1
102
RTVSPropertyOp33
 70
     1
102
RTVSPropertyOp34
 70
     1
102
RTVSPropertyOp35
 70
     1
102
RTVSPropertyOp36
 70
     1
102
RTVSPropertyOp37
 70
     0
102
RTVSPropertyOp38
 70
     0
102
RTVSPropertyOp39
 70
     0
102
RTVSPropertyOp40
 70
     0
102
RTVSPropertyOp41
 70
     0
102
RTVSPropertyOp42
 70
     0
102
RTVSPropertyOp43
 70
     0
102
RTVSPropertyOp44
 70
     0
102
RTVSPropertyOp45
 70
     1
102
RTVSPropertyOp46
 70
     0
102
RTVSPropertyOp47
 70
     0
102
RTVSPropertyOp48
 70
     0
102
RTVSPropertyOp49
 70
     1
102
RTVSPropertyOp50
 70
     0
102
RTVSPropertyOp51
 70
     0
102
RTVSPropertyOp52
 70
     0
102
RTVSPropertyOp53
 70
     0
102
RTVSPropertyOp54
 70
     0
102
RTVSPropertyOp55
 70
     1
102
RTVSPropertyOp56
 70
     0
102
RTVSPropertyOp57
 70
     0
102
RTVSPropertyOp58
 70
     0
102
RTVSPropertyOp59
 70
     0
102
RTVSPropertyOp60
 70
     0
102
RTVSPropertyOp61
 70
     0
102
RTVSPropertyOp62
 70
     0
  0
XRECORD
  5
5ED
102
{ACAD_REACTORS
330
5EC
102
}
330
5EC
100
AcDbXrecord
280
     1
102
RTVSPost2010Prop28
280
     0
102
RTVSPost2010PropOp28
 70
     1
102
RTVSPost2010Prop29
280
     1
102
RTVSPost2010PropOp29
 70
     1
102
RTVSPost2010Prop30
280
     1
102
RTVSPost2010PropOp30
 70
     1
102
RTVSPost2010Prop31
280
     0
102
RTVSPost2010PropOp31
 70
     1
102
RTVSPost2010Prop32
280
     0
102
RTVSPost2010PropOp32
 70
     1
102
RTVSPost2010Prop33
280
     0
102
RTVSPost2010PropOp33
 70
     1
102
RTVSPost2010Prop34
280
     0
102
RTVSPost2010PropOp34
 70
     1
102
RTVSPost2010Prop35
280
     0
102
RTVSPost2010PropOp35
 70
     1
102
RTVSPost2010Prop36
280
     0
102
RTVSPost2010PropOp36
 70
     1
102
RTVSPost2010Prop37
 90
       50
102
RTVSPost2010PropOp37
 70
     1
102
RTVSPost2010Prop38
140
0.0
102
RTVSPost2010PropOp38
 70
     1
102
RTVSPost2010Prop39
140
1.0
102
RTVSPost2010PropOp39
 70
     1
102
RTVSPost2010Prop40
 90
        0
102
RTVSPost2010PropOp40
 70
     1
102
RTVSPost2010Prop41ColorIndex
 90
       18
102
RTVSPost2010Prop41ColorRGB
 90
        0
102
RTVSPost2010PropOp41
 70
     1
102
RTVSPost2010Prop42
 90
       50
102
RTVSPost2010PropOp42
 70
     1
102
RTVSPost2010Prop43
 90
        3
102
RTVSPost2010PropOp43
 70
     1
102
RTVSPost2010Prop44ColorIndex
 90
        5
102
RTVSPost2010Prop44ColorRGB
 90
      255
102
RTVSPost2010PropOp44
 70
     1
102
RTVSPost2010Prop45
280
     0
102
RTVSPost2010PropOp45
 70
     1
102
RTVSPost2010Prop46
 90
       50
102
RTVSPost2010PropOp46
 70
     1
102
RTVSPost2010Prop47
 90
       50
102
RTVSPost2010PropOp47
 70
     1
102
RTVSPost2010Prop48
 90
       50
102
RTVSPost2010PropOp48
 70
     1
102
RTVSPost2010Prop49
280
     0
102
RTVSPost2010PropOp49
 70
     1
102
RTVSPost2010Prop50
 90
       50
102
RTVSPost2010PropOp50
 70
     1
102
RTVSPost2010Prop51ColorIndex
 90
      256
102
RTVSPost2010Prop51ColorRGB
 90
-16777216
102
RTVSPost2010PropOp51
 70
     0
102
RTVSPost2010Prop52
140
1.0
102
RTVSPost2010PropOp52
 70
     0
102
RTVSPost2010Prop53
 90
        2
102
RTVSPost2010PropOp53
 70
     1
102
RTVSPost2010Prop54
  1
strokes_ogs.tif
102
RTVSPost2010PropOp54
 70
     1
102
RTVSPost2010Prop55
280
     0
102
RTVSPost2010PropOp55
 70
     1
102
RTVSPost2010Prop56
140
1.0
102
RTVSPost2010PropOp56
 70
     1
102
RTVSPost2010Prop57
140
1.0
102
RTVSPost2010PropOp57
 70
     1
102
RTVSPropertyOp0
 70
     1
102
RTVSPropertyOp1
 70
     1
102
RTVSPropertyOp2
 70
     1
102
RTVSPropertyOp3
 70
     1
102
RTVSPropertyOp4
 70
     1
102
RTVSPropertyOp5
 70
     1
102
RTVSPropertyOp6
 70
     1
102
RTVSPropertyOp7
 70
     1
102
RTVSPropertyOp8
 70
     1
102
RTVSPropertyOp9
 70
     1
102
RTVSPropertyOp10
 70
     1
102
RTVSPropertyOp11
 70
     1
102
RTVSPropertyOp12
 70
     1
102
RTVSPropertyOp13
 70
     1
102
RTVSPropertyOp14
 70
     1
102
RTVSPropertyOp15
 70
     1
102
RTVSPropertyOp16
 70
     1
102
RTVSPropertyOp17
 70
     1
102
RTVSPropertyOp18
 70
     1
102
RTVSPropertyOp19
 70
     1
102
RTVSPropertyOp20
 70
     1
102
RTVSPropertyOp21
 70
     1
102
RTVSPropertyOp22
 70
     1
102
RTVSPropertyOp23
 70
     1
102
RTVSPropertyOp24
 70
     1
102
RTVSPropertyOp25
 70
     1
102
RTVSPropertyOp26
 70
     1
102
RTVSPropertyOp27
 70
     1
102
RTVSPropertyOp28
 70
     1
102
RTVSPropertyOp29
 70
     1
102
RTVSPropertyOp30
 70
     1
102
RTVSPropertyOp31
 70
     1
102
RTVSPropertyOp32
 70
     1
102
RTVSPropertyOp33
 70
     1
102
RTVSPropertyOp34
 70
     1
102
RTVSPropertyOp35
 70
     1
102
RTVSPropertyOp36
 70
     1
102
RTVSPropertyOp37
 70
     1
102
RTVSPropertyOp38
 70
     1
102
RTVSPropertyOp39
 70
     1
102
RTVSPropertyOp40
 70
     1
102
RTVSPropertyOp41
 70
     1
102
RTVSPropertyOp42
 70
     1
102
RTVSPropertyOp43
 70
     1
102
RTVSPropertyOp44
 70
     1
102
RTVSPropertyOp45
 70
     1
102
RTVSPropertyOp46
 70
     1
102
RTVSPropertyOp47
 70
     1
102
RTVSPropertyOp48
 70
     1
102
RTVSPropertyOp49
 70
     1
102
RTVSPropertyOp50
 70
     1
102
RTVSPropertyOp51
 70
     0
102
RTVSPropertyOp52
 70
     0
102
RTVSPropertyOp53
 70
     1
102
RTVSPropertyOp54
 70
     1
102
RTVSPropertyOp55
 70
     1
102
RTVSPropertyOp56
 70
     1
102
RTVSPropertyOp57
 70
     1
102
RTVSPropertyOp58
 70
     1
102
RTVSPropertyOp59
 70
     1
102
RTVSPropertyOp60
 70
     1
102
RTVSPropertyOp61
 70
     1
102
RTVSPropertyOp62
 70
     1
  0
XRECORD
  5
603
102
{ACAD_REACTORS
330
602
102
}
330
602
100
AcDbXrecord
280
     1
102
RTVSPost2010Prop28
280
     0
102
RTVSPost2010PropOp28
 70
     1
102
RTVSPost2010Prop29
280
     1
102
RTVSPost2010PropOp29
 70
     1
102
RTVSPost2010Prop30
280
     1
102
RTVSPost2010PropOp30
 70
     1
102
RTVSPost2010Prop31
280
     0
102
RTVSPost2010PropOp31
 70
     1
102
RTVSPost2010Prop32
280
     0
102
RTVSPost2010PropOp32
 70
     1
102
RTVSPost2010Prop33
280
     0
102
RTVSPost2010PropOp33
 70
     1
102
RTVSPost2010Prop34
280
     0
102
RTVSPost2010PropOp34
 70
     1
102
RTVSPost2010Prop35
280
     0
102
RTVSPost2010PropOp35
 70
     1
102
RTVSPost2010Prop36
280
     0
102
RTVSPost2010PropOp36
 70
     1
102
RTVSPost2010Prop37
 90
       50
102
RTVSPost2010PropOp37
 70
     1
102
RTVSPost2010Prop38
140
0.0
102
RTVSPost2010PropOp38
 70
     1
102
RTVSPost2010Prop39
140
1.0
102
RTVSPost2010PropOp39
 70
     1
102
RTVSPost2010Prop40
 90
        0
102
RTVSPost2010PropOp40
 70
     1
102
RTVSPost2010Prop41ColorIndex
 90
       18
102
RTVSPost2010Prop41ColorRGB
 90
        0
102
RTVSPost2010PropOp41
 70
     1
102
RTVSPost2010Prop42
 90
       50
102
RTVSPost2010PropOp42
 70
     1
102
RTVSPost2010Prop43
 90
        3
102
RTVSPost2010PropOp43
 70
     1
102
RTVSPost2010Prop44ColorIndex
 90
        5
102
RTVSPost2010Prop44ColorRGB
 90
      255
102
RTVSPost2010PropOp44
 70
     1
102
RTVSPost2010Prop45
280
     0
102
RTVSPost2010PropOp45
 70
     1
102
RTVSPost2010Prop46
 90
       50
102
RTVSPost2010PropOp46
 70
     1
102
RTVSPost2010Prop47
 90
       50
102
RTVSPost2010PropOp47
 70
     1
102
RTVSPost2010Prop48
 90
       50
102
RTVSPost2010PropOp48
 70
     1
102
RTVSPost2010Prop49
280
     0
102
RTVSPost2010PropOp49
 70
     1
102
RTVSPost2010Prop50
 90
       50
102
RTVSPost2010PropOp50
 70
     1
102
RTVSPost2010Prop51ColorIndex
 90
      256
102
RTVSPost2010Prop51ColorRGB
 90
-16777216
102
RTVSPost2010PropOp51
 70
     0
102
RTVSPost2010Prop52
140
1.0
102
RTVSPost2010PropOp52
 70
     0
102
RTVSPost2010Prop53
 90
        2
102
RTVSPost2010PropOp53
 70
     1
102
RTVSPost2010Prop54
  1
strokes_ogs.tif
102
RTVSPost2010PropOp54
 70
     1
102
RTVSPost2010Prop55
280
     0
102
RTVSPost2010PropOp55
 70
     1
102
RTVSPost2010Prop56
140
1.0
102
RTVSPost2010PropOp56
 70
     1
102
RTVSPost2010Prop57
140
1.0
102
RTVSPost2010PropOp57
 70
     1
102
RTVSPropertyOp0
 70
     1
102
RTVSPropertyOp1
 70
     1
102
RTVSPropertyOp2
 70
     1
102
RTVSPropertyOp3
 70
     1
102
RTVSPropertyOp4
 70
     1
102
RTVSPropertyOp5
 70
     1
102
RTVSPropertyOp6
 70
     1
102
RTVSPropertyOp7
 70
     1
102
RTVSPropertyOp8
 70
     1
102
RTVSPropertyOp9
 70
     1
102
RTVSPropertyOp10
 70
     1
102
RTVSPropertyOp11
 70
     1
102
RTVSPropertyOp12
 70
     1
102
RTVSPropertyOp13
 70
     1
102
RTVSPropertyOp14
 70
     1
102
RTVSPropertyOp15
 70
     1
102
RTVSPropertyOp16
 70
     1
102
RTVSPropertyOp17
 70
     1
102
RTVSPropertyOp18
 70
     1
102
RTVSPropertyOp19
 70
     1
102
RTVSPropertyOp20
 70
     1
102
RTVSPropertyOp21
 70
     1
102
RTVSPropertyOp22
 70
     1
102
RTVSPropertyOp23
 70
     1
102
RTVSPropertyOp24
 70
     1
102
RTVSPropertyOp25
 70
     1
102
RTVSPropertyOp26
 70
     1
102
RTVSPropertyOp27
 70
     1
102
RTVSPropertyOp28
 70
     1
102
RTVSPropertyOp29
 70
     1
102
RTVSPropertyOp30
 70
     1
102
RTVSPropertyOp31
 70
     1
102
RTVSPropertyOp32
 70
     1
102
RTVSPropertyOp33
 70
     1
102
RTVSPropertyOp34
 70
     1
102
RTVSPropertyOp35
 70
     1
102
RTVSPropertyOp36
 70
     1
102
RTVSPropertyOp37
 70
     1
102
RTVSPropertyOp38
 70
     1
102
RTVSPropertyOp39
 70
     1
102
RTVSPropertyOp40
 70
     1
102
RTVSPropertyOp41
 70
     1
102
RTVSPropertyOp42
 70
     1
102
RTVSPropertyOp43
 70
     1
102
RTVSPropertyOp44
 70
     1
102
RTVSPropertyOp45
 70
     1
102
RTVSPropertyOp46
 70
     1
102
RTVSPropertyOp47
 70
     1
102
RTVSPropertyOp48
 70
     1
102
RTVSPropertyOp49
 70
     1
102
RTVSPropertyOp50
 70
     1
102
RTVSPropertyOp51
 70
     0
102
RTVSPropertyOp52
 70
     0
102
RTVSPropertyOp53
 70
     1
102
RTVSPropertyOp54
 70
     1
102
RTVSPropertyOp55
 70
     1
102
RTVSPropertyOp56
 70
     1
102
RTVSPropertyOp57
 70
     1
102
RTVSPropertyOp58
 70
     1
102
RTVSPropertyOp59
 70
     1
102
RTVSPropertyOp60
 70
     1
102
RTVSPropertyOp61
 70
     1
102
RTVSPropertyOp62
 70
     1
  0
XRECORD
  5
601
102
{ACAD_REACTORS
330
600
102
}
330
600
100
AcDbXrecord
280
     1
102
RTVSPost2010Prop28
280
     0
102
RTVSPost2010PropOp28
 70
     1
102
RTVSPost2010Prop29
280
     1
102
RTVSPost2010PropOp29
 70
     1
102
RTVSPost2010Prop30
280
     1
102
RTVSPost2010PropOp30
 70
     1
102
RTVSPost2010Prop31
280
     0
102
RTVSPost2010PropOp31
 70
     1
102
RTVSPost2010Prop32
280
     0
102
RTVSPost2010PropOp32
 70
     1
102
RTVSPost2010Prop33
280
     0
102
RTVSPost2010PropOp33
 70
     1
102
RTVSPost2010Prop34
280
     0
102
RTVSPost2010PropOp34
 70
     1
102
RTVSPost2010Prop35
280
     0
102
RTVSPost2010PropOp35
 70
     1
102
RTVSPost2010Prop36
280
     0
102
RTVSPost2010PropOp36
 70
     1
102
RTVSPost2010Prop37
 90
       50
102
RTVSPost2010PropOp37
 70
     1
102
RTVSPost2010Prop38
140
0.0
102
RTVSPost2010PropOp38
 70
     1
102
RTVSPost2010Prop39
140
1.0
102
RTVSPost2010PropOp39
 70
     1
102
RTVSPost2010Prop40
 90
        0
102
RTVSPost2010PropOp40
 70
     1
102
RTVSPost2010Prop41ColorIndex
 90
       18
102
RTVSPost2010Prop41ColorRGB
 90
        0
102
RTVSPost2010PropOp41
 70
     1
102
RTVSPost2010Prop42
 90
       50
102
RTVSPost2010PropOp42
 70
     1
102
RTVSPost2010Prop43
 90
        3
102
RTVSPost2010PropOp43
 70
     1
102
RTVSPost2010Prop44ColorIndex
 90
        5
102
RTVSPost2010Prop44ColorRGB
 90
      255
102
RTVSPost2010PropOp44
 70
     1
102
RTVSPost2010Prop45
280
     0
102
RTVSPost2010PropOp45
 70
     1
102
RTVSPost2010Prop46
 90
       50
102
RTVSPost2010PropOp46
 70
     1
102
RTVSPost2010Prop47
 90
       50
102
RTVSPost2010PropOp47
 70
     1
102
RTVSPost2010Prop48
 90
       50
102
RTVSPost2010PropOp48
 70
     1
102
RTVSPost2010Prop49
280
     0
102
RTVSPost2010PropOp49
 70
     1
102
RTVSPost2010Prop50
 90
       50
102
RTVSPost2010PropOp50
 70
     1
102
RTVSPost2010Prop51ColorIndex
 90
      256
102
RTVSPost2010Prop51ColorRGB
 90
-16777216
102
RTVSPost2010PropOp51
 70
     0
102
RTVSPost2010Prop52
140
1.0
102
RTVSPost2010PropOp52
 70
     0
102
RTVSPost2010Prop53
 90
        2
102
RTVSPost2010PropOp53
 70
     1
102
RTVSPost2010Prop54
  1
strokes_ogs.tif
102
RTVSPost2010PropOp54
 70
     1
102
RTVSPost2010Prop55
280
     0
102
RTVSPost2010PropOp55
 70
     1
102
RTVSPost2010Prop56
140
1.0
102
RTVSPost2010PropOp56
 70
     1
102
RTVSPost2010Prop57
140
1.0
102
RTVSPost2010PropOp57
 70
     1
102
RTVSPropertyOp0
 70
     1
102
RTVSPropertyOp1
 70
     1
102
RTVSPropertyOp2
 70
     1
102
RTVSPropertyOp3
 70
     1
102
RTVSPropertyOp4
 70
     1
102
RTVSPropertyOp5
 70
     1
102
RTVSPropertyOp6
 70
     1
102
RTVSPropertyOp7
 70
     1
102
RTVSPropertyOp8
 70
     1
102
RTVSPropertyOp9
 70
     1
102
RTVSPropertyOp10
 70
     1
102
RTVSPropertyOp11
 70
     1
102
RTVSPropertyOp12
 70
     1
102
RTVSPropertyOp13
 70
     1
102
RTVSPropertyOp14
 70
     1
102
RTVSPropertyOp15
 70
     1
102
RTVSPropertyOp16
 70
     1
102
RTVSPropertyOp17
 70
     1
102
RTVSPropertyOp18
 70
     1
102
RTVSPropertyOp19
 70
     1
102
RTVSPropertyOp20
 70
     1
102
RTVSPropertyOp21
 70
     1
102
RTVSPropertyOp22
 70
     1
102
RTVSPropertyOp23
 70
     1
102
RTVSPropertyOp24
 70
     1
102
RTVSPropertyOp25
 70
     1
102
RTVSPropertyOp26
 70
     1
102
RTVSPropertyOp27
 70
     1
102
RTVSPropertyOp28
 70
     1
102
RTVSPropertyOp29
 70
     1
102
RTVSPropertyOp30
 70
     1
102
RTVSPropertyOp31
 70
     1
102
RTVSPropertyOp32
 70
     1
102
RTVSPropertyOp33
 70
     1
102
RTVSPropertyOp34
 70
     1
102
RTVSPropertyOp35
 70
     1
102
RTVSPropertyOp36
 70
     1
102
RTVSPropertyOp37
 70
     1
102
RTVSPropertyOp38
 70
     1
102
RTVSPropertyOp39
 70
     1
102
RTVSPropertyOp40
 70
     1
102
RTVSPropertyOp41
 70
     1
102
RTVSPropertyOp42
 70
     1
102
RTVSPropertyOp43
 70
     1
102
RTVSPropertyOp44
 70
     1
102
RTVSPropertyOp45
 70
     1
102
RTVSPropertyOp46
 70
     1
102
RTVSPropertyOp47
 70
     1
102
RTVSPropertyOp48
 70
     1
102
RTVSPropertyOp49
 70
     1
102
RTVSPropertyOp50
 70
     1
102
RTVSPropertyOp51
 70
     0
102
RTVSPropertyOp52
 70
     0
102
RTVSPropertyOp53
 70
     1
102
RTVSPropertyOp54
 70
     1
102
RTVSPropertyOp55
 70
     1
102
RTVSPropertyOp56
 70
     1
102
RTVSPropertyOp57
 70
     1
102
RTVSPropertyOp58
 70
     1
102
RTVSPropertyOp59
 70
     1
102
RTVSPropertyOp60
 70
     1
102
RTVSPropertyOp61
 70
     1
102
RTVSPropertyOp62
 70
     1
  0
XRECORD
  5
5FB
102
{ACAD_REACTORS
330
5FA
102
}
330
5FA
100
AcDbXrecord
280
     1
102
RTVSPost2010Prop28
280
     0
102
RTVSPost2010PropOp28
 70
     1
102
RTVSPost2010Prop29
280
     1
102
RTVSPost2010PropOp29
 70
     1
102
RTVSPost2010Prop30
280
     1
102
RTVSPost2010PropOp30
 70
     1
102
RTVSPost2010Prop31
280
     0
102
RTVSPost2010PropOp31
 70
     1
102
RTVSPost2010Prop32
280
     0
102
RTVSPost2010PropOp32
 70
     1
102
RTVSPost2010Prop33
280
     0
102
RTVSPost2010PropOp33
 70
     1
102
RTVSPost2010Prop34
280
     0
102
RTVSPost2010PropOp34
 70
     1
102
RTVSPost2010Prop35
280
     0
102
RTVSPost2010PropOp35
 70
     1
102
RTVSPost2010Prop36
280
     0
102
RTVSPost2010PropOp36
 70
     1
102
RTVSPost2010Prop37
 90
       50
102
RTVSPost2010PropOp37
 70
     1
102
RTVSPost2010Prop38
140
0.0
102
RTVSPost2010PropOp38
 70
     1
102
RTVSPost2010Prop39
140
1.0
102
RTVSPost2010PropOp39
 70
     1
102
RTVSPost2010Prop40
 90
        0
102
RTVSPost2010PropOp40
 70
     1
102
RTVSPost2010Prop41ColorIndex
 90
       18
102
RTVSPost2010Prop41ColorRGB
 90
        0
102
RTVSPost2010PropOp41
 70
     1
102
RTVSPost2010Prop42
 90
       50
102
RTVSPost2010PropOp42
 70
     1
102
RTVSPost2010Prop43
 90
        3
102
RTVSPost2010PropOp43
 70
     1
102
RTVSPost2010Prop44ColorIndex
 90
        5
102
RTVSPost2010Prop44ColorRGB
 90
      255
102
RTVSPost2010PropOp44
 70
     1
102
RTVSPost2010Prop45
280
     0
102
RTVSPost2010PropOp45
 70
     1
102
RTVSPost2010Prop46
 90
       50
102
RTVSPost2010PropOp46
 70
     1
102
RTVSPost2010Prop47
 90
       50
102
RTVSPost2010PropOp47
 70
     1
102
RTVSPost2010Prop48
 90
       50
102
RTVSPost2010PropOp48
 70
     1
102
RTVSPost2010Prop49
280
     0
102
RTVSPost2010PropOp49
 70
     1
102
RTVSPost2010Prop50
 90
       50
102
RTVSPost2010PropOp50
 70
     1
102
RTVSPost2010Prop51ColorIndex
 90
      256
102
RTVSPost2010Prop51ColorRGB
 90
-16777216
102
RTVSPost2010PropOp51
 70
     0
102
RTVSPost2010Prop52
140
1.0
102
RTVSPost2010PropOp52
 70
     0
102
RTVSPost2010Prop53
 90
        2
102
RTVSPost2010PropOp53
 70
     1
102
RTVSPost2010Prop54
  1
strokes_ogs.tif
102
RTVSPost2010PropOp54
 70
     1
102
RTVSPost2010Prop55
280
     0
102
RTVSPost2010PropOp55
 70
     1
102
RTVSPost2010Prop56
140
1.0
102
RTVSPost2010PropOp56
 70
     1
102
RTVSPost2010Prop57
140
1.0
102
RTVSPost2010PropOp57
 70
     1
102
RTVSPropertyOp0
 70
     1
102
RTVSPropertyOp1
 70
     1
102
RTVSPropertyOp2
 70
     1
102
RTVSPropertyOp3
 70
     1
102
RTVSPropertyOp4
 70
     1
102
RTVSPropertyOp5
 70
     1
102
RTVSPropertyOp6
 70
     1
102
RTVSPropertyOp7
 70
     1
102
RTVSPropertyOp8
 70
     1
102
RTVSPropertyOp9
 70
     1
102
RTVSPropertyOp10
 70
     1
102
RTVSPropertyOp11
 70
     1
102
RTVSPropertyOp12
 70
     1
102
RTVSPropertyOp13
 70
     1
102
RTVSPropertyOp14
 70
     1
102
RTVSPropertyOp15
 70
     1
102
RTVSPropertyOp16
 70
     1
102
RTVSPropertyOp17
 70
     1
102
RTVSPropertyOp18
 70
     1
102
RTVSPropertyOp19
 70
     1
102
RTVSPropertyOp20
 70
     1
102
RTVSPropertyOp21
 70
     1
102
RTVSPropertyOp22
 70
     1
102
RTVSPropertyOp23
 70
     1
102
RTVSPropertyOp24
 70
     1
102
RTVSPropertyOp25
 70
     1
102
RTVSPropertyOp26
 70
     1
102
RTVSPropertyOp27
 70
     1
102
RTVSPropertyOp28
 70
     1
102
RTVSPropertyOp29
 70
     1
102
RTVSPropertyOp30
 70
     1
102
RTVSPropertyOp31
 70
     1
102
RTVSPropertyOp32
 70
     1
102
RTVSPropertyOp33
 70
     1
102
RTVSPropertyOp34
 70
     1
102
RTVSPropertyOp35
 70
     1
102
RTVSPropertyOp36
 70
     1
102
RTVSPropertyOp37
 70
     1
102
RTVSPropertyOp38
 70
     1
102
RTVSPropertyOp39
 70
     1
102
RTVSPropertyOp40
 70
     1
102
RTVSPropertyOp41
 70
     1
102
RTVSPropertyOp42
 70
     1
102
RTVSPropertyOp43
 70
     1
102
RTVSPropertyOp44
 70
     1
102
RTVSPropertyOp45
 70
     1
102
RTVSPropertyOp46
 70
     1
102
RTVSPropertyOp47
 70
     1
102
RTVSPropertyOp48
 70
     1
102
RTVSPropertyOp49
 70
     1
102
RTVSPropertyOp50
 70
     1
102
RTVSPropertyOp51
 70
     0
102
RTVSPropertyOp52
 70
     0
102
RTVSPropertyOp53
 70
     1
102
RTVSPropertyOp54
 70
     1
102
RTVSPropertyOp55
 70
     1
102
RTVSPropertyOp56
 70
     1
102
RTVSPropertyOp57
 70
     1
102
RTVSPropertyOp58
 70
     1
102
RTVSPropertyOp59
 70
     1
102
RTVSPropertyOp60
 70
     1
102
RTVSPropertyOp61
 70
     1
102
RTVSPropertyOp62
 70
     1
  0
XRECORD
  5
5FD
102
{ACAD_REACTORS
330
5FC
102
}
330
5FC
100
AcDbXrecord
280
     1
102
RTVSPost2010Prop28
280
     0
102
RTVSPost2010PropOp28
 70
     1
102
RTVSPost2010Prop29
280
     1
102
RTVSPost2010PropOp29
 70
     1
102
RTVSPost2010Prop30
280
     1
102
RTVSPost2010PropOp30
 70
     1
102
RTVSPost2010Prop31
280
     0
102
RTVSPost2010PropOp31
 70
     1
102
RTVSPost2010Prop32
280
     0
102
RTVSPost2010PropOp32
 70
     1
102
RTVSPost2010Prop33
280
     0
102
RTVSPost2010PropOp33
 70
     1
102
RTVSPost2010Prop34
280
     0
102
RTVSPost2010PropOp34
 70
     1
102
RTVSPost2010Prop35
280
     0
102
RTVSPost2010PropOp35
 70
     1
102
RTVSPost2010Prop36
280
     0
102
RTVSPost2010PropOp36
 70
     1
102
RTVSPost2010Prop37
 90
       50
102
RTVSPost2010PropOp37
 70
     1
102
RTVSPost2010Prop38
140
0.0
102
RTVSPost2010PropOp38
 70
     1
102
RTVSPost2010Prop39
140
1.0
102
RTVSPost2010PropOp39
 70
     1
102
RTVSPost2010Prop40
 90
        0
102
RTVSPost2010PropOp40
 70
     1
102
RTVSPost2010Prop41ColorIndex
 90
       18
102
RTVSPost2010Prop41ColorRGB
 90
        0
102
RTVSPost2010PropOp41
 70
     1
102
RTVSPost2010Prop42
 90
       50
102
RTVSPost2010PropOp42
 70
     1
102
RTVSPost2010Prop43
 90
        3
102
RTVSPost2010PropOp43
 70
     1
102
RTVSPost2010Prop44ColorIndex
 90
        5
102
RTVSPost2010Prop44ColorRGB
 90
      255
102
RTVSPost2010PropOp44
 70
     1
102
RTVSPost2010Prop45
280
     0
102
RTVSPost2010PropOp45
 70
     1
102
RTVSPost2010Prop46
 90
       50
102
RTVSPost2010PropOp46
 70
     1
102
RTVSPost2010Prop47
 90
       50
102
RTVSPost2010PropOp47
 70
     1
102
RTVSPost2010Prop48
 90
       50
102
RTVSPost2010PropOp48
 70
     1
102
RTVSPost2010Prop49
280
     0
102
RTVSPost2010PropOp49
 70
     1
102
RTVSPost2010Prop50
 90
       50
102
RTVSPost2010PropOp50
 70
     1
102
RTVSPost2010Prop51ColorIndex
 90
      256
102
RTVSPost2010Prop51ColorRGB
 90
-16777216
102
RTVSPost2010PropOp51
 70
     0
102
RTVSPost2010Prop52
140
1.0
102
RTVSPost2010PropOp52
 70
     0
102
RTVSPost2010Prop53
 90
        2
102
RTVSPost2010PropOp53
 70
     1
102
RTVSPost2010Prop54
  1
strokes_ogs.tif
102
RTVSPost2010PropOp54
 70
     1
102
RTVSPost2010Prop55
280
     0
102
RTVSPost2010PropOp55
 70
     1
102
RTVSPost2010Prop56
140
1.0
102
RTVSPost2010PropOp56
 70
     1
102
RTVSPost2010Prop57
140
1.0
102
RTVSPost2010PropOp57
 70
     1
102
RTVSPropertyOp0
 70
     1
102
RTVSPropertyOp1
 70
     1
102
RTVSPropertyOp2
 70
     1
102
RTVSPropertyOp3
 70
     1
102
RTVSPropertyOp4
 70
     1
102
RTVSPropertyOp5
 70
     1
102
RTVSPropertyOp6
 70
     1
102
RTVSPropertyOp7
 70
     1
102
RTVSPropertyOp8
 70
     1
102
RTVSPropertyOp9
 70
     1
102
RTVSPropertyOp10
 70
     1
102
RTVSPropertyOp11
 70
     1
102
RTVSPropertyOp12
 70
     1
102
RTVSPropertyOp13
 70
     1
102
RTVSPropertyOp14
 70
     1
102
RTVSPropertyOp15
 70
     1
102
RTVSPropertyOp16
 70
     1
102
RTVSPropertyOp17
 70
     1
102
RTVSPropertyOp18
 70
     1
102
RTVSPropertyOp19
 70
     1
102
RTVSPropertyOp20
 70
     1
102
RTVSPropertyOp21
 70
     1
102
RTVSPropertyOp22
 70
     1
102
RTVSPropertyOp23
 70
     1
102
RTVSPropertyOp24
 70
     1
102
RTVSPropertyOp25
 70
     1
102
RTVSPropertyOp26
 70
     1
102
RTVSPropertyOp27
 70
     1
102
RTVSPropertyOp28
 70
     1
102
RTVSPropertyOp29
 70
     1
102
RTVSPropertyOp30
 70
     1
102
RTVSPropertyOp31
 70
     1
102
RTVSPropertyOp32
 70
     1
102
RTVSPropertyOp33
 70
     1
102
RTVSPropertyOp34
 70
     1
102
RTVSPropertyOp35
 70
     1
102
RTVSPropertyOp36
 70
     1
102
RTVSPropertyOp37
 70
     1
102
RTVSPropertyOp38
 70
     1
102
RTVSPropertyOp39
 70
     1
102
RTVSPropertyOp40
 70
     1
102
RTVSPropertyOp41
 70
     1
102
RTVSPropertyOp42
 70
     1
102
RTVSPropertyOp43
 70
     1
102
RTVSPropertyOp44
 70
     1
102
RTVSPropertyOp45
 70
     1
102
RTVSPropertyOp46
 70
     1
102
RTVSPropertyOp47
 70
     1
102
RTVSPropertyOp48
 70
     1
102
RTVSPropertyOp49
 70
     1
102
RTVSPropertyOp50
 70
     1
102
RTVSPropertyOp51
 70
     0
102
RTVSPropertyOp52
 70
     0
102
RTVSPropertyOp53
 70
     1
102
RTVSPropertyOp54
 70
     1
102
RTVSPropertyOp55
 70
     1
102
RTVSPropertyOp56
 70
     1
102
RTVSPropertyOp57
 70
     1
102
RTVSPropertyOp58
 70
     1
102
RTVSPropertyOp59
 70
     1
102
RTVSPropertyOp60
 70
     1
102
RTVSPropertyOp61
 70
     1
102
RTVSPropertyOp62
 70
     1
  0
XRECORD
  5
5F3
102
{ACAD_REACTORS
330
5F2
102
}
330
5F2
100
AcDbXrecord
280
     1
102
RTVSPost2010Prop28
280
     0
102
RTVSPost2010PropOp28
 70
     1
102
RTVSPost2010Prop29
280
     1
102
RTVSPost2010PropOp29
 70
     1
102
RTVSPost2010Prop30
280
     1
102
RTVSPost2010PropOp30
 70
     1
102
RTVSPost2010Prop31
280
     0
102
RTVSPost2010PropOp31
 70
     1
102
RTVSPost2010Prop32
280
     0
102
RTVSPost2010PropOp32
 70
     1
102
RTVSPost2010Prop33
280
     0
102
RTVSPost2010PropOp33
 70
     1
102
RTVSPost2010Prop34
280
     0
102
RTVSPost2010PropOp34
 70
     1
102
RTVSPost2010Prop35
280
     0
102
RTVSPost2010PropOp35
 70
     1
102
RTVSPost2010Prop36
280
     0
102
RTVSPost2010PropOp36
 70
     1
102
RTVSPost2010Prop37
 90
       50
102
RTVSPost2010PropOp37
 70
     1
102
RTVSPost2010Prop38
140
0.0
102
RTVSPost2010PropOp38
 70
     1
102
RTVSPost2010Prop39
140
1.0
102
RTVSPost2010PropOp39
 70
     1
102
RTVSPost2010Prop40
 90
        0
102
RTVSPost2010PropOp40
 70
     1
102
RTVSPost2010Prop41ColorIndex
 90
       18
102
RTVSPost2010Prop41ColorRGB
 90
        0
102
RTVSPost2010PropOp41
 70
     1
102
RTVSPost2010Prop42
 90
       50
102
RTVSPost2010PropOp42
 70
     1
102
RTVSPost2010Prop43
 90
        3
102
RTVSPost2010PropOp43
 70
     1
102
RTVSPost2010Prop44ColorIndex
 90
        5
102
RTVSPost2010Prop44ColorRGB
 90
      255
102
RTVSPost2010PropOp44
 70
     1
102
RTVSPost2010Prop45
280
     0
102
RTVSPost2010PropOp45
 70
     1
102
RTVSPost2010Prop46
 90
       50
102
RTVSPost2010PropOp46
 70
     1
102
RTVSPost2010Prop47
 90
       50
102
RTVSPost2010PropOp47
 70
     1
102
RTVSPost2010Prop48
 90
       50
102
RTVSPost2010PropOp48
 70
     1
102
RTVSPost2010Prop49
280
     0
102
RTVSPost2010PropOp49
 70
     1
102
RTVSPost2010Prop50
 90
       50
102
RTVSPost2010PropOp50
 70
     1
102
RTVSPost2010Prop51ColorIndex
 90
      256
102
RTVSPost2010Prop51ColorRGB
 90
-16777216
102
RTVSPost2010PropOp51
 70
     0
102
RTVSPost2010Prop52
140
1.0
102
RTVSPost2010PropOp52
 70
     0
102
RTVSPost2010Prop53
 90
        2
102
RTVSPost2010PropOp53
 70
     1
102
RTVSPost2010Prop54
  1
strokes_ogs.tif
102
RTVSPost2010PropOp54
 70
     1
102
RTVSPost2010Prop55
280
     0
102
RTVSPost2010PropOp55
 70
     1
102
RTVSPost2010Prop56
140
1.0
102
RTVSPost2010PropOp56
 70
     1
102
RTVSPost2010Prop57
140
1.0
102
RTVSPost2010PropOp57
 70
     1
102
RTVSPropertyOp0
 70
     1
102
RTVSPropertyOp1
 70
     1
102
RTVSPropertyOp2
 70
     1
102
RTVSPropertyOp3
 70
     1
102
RTVSPropertyOp4
 70
     1
102
RTVSPropertyOp5
 70
     1
102
RTVSPropertyOp6
 70
     1
102
RTVSPropertyOp7
 70
     1
102
RTVSPropertyOp8
 70
     1
102
RTVSPropertyOp9
 70
     1
102
RTVSPropertyOp10
 70
     1
102
RTVSPropertyOp11
 70
     1
102
RTVSPropertyOp12
 70
     1
102
RTVSPropertyOp13
 70
     1
102
RTVSPropertyOp14
 70
     1
102
RTVSPropertyOp15
 70
     1
102
RTVSPropertyOp16
 70
     1
102
RTVSPropertyOp17
 70
     1
102
RTVSPropertyOp18
 70
     1
102
RTVSPropertyOp19
 70
     1
102
RTVSPropertyOp20
 70
     1
102
RTVSPropertyOp21
 70
     1
102
RTVSPropertyOp22
 70
     1
102
RTVSPropertyOp23
 70
     1
102
RTVSPropertyOp24
 70
     1
102
RTVSPropertyOp25
 70
     1
102
RTVSPropertyOp26
 70
     1
102
RTVSPropertyOp27
 70
     1
102
RTVSPropertyOp28
 70
     1
102
RTVSPropertyOp29
 70
     1
102
RTVSPropertyOp30
 70
     1
102
RTVSPropertyOp31
 70
     1
102
RTVSPropertyOp32
 70
     1
102
RTVSPropertyOp33
 70
     1
102
RTVSPropertyOp34
 70
     1
102
RTVSPropertyOp35
 70
     1
102
RTVSPropertyOp36
 70
     1
102
RTVSPropertyOp37
 70
     1
102
RTVSPropertyOp38
 70
     1
102
RTVSPropertyOp39
 70
     1
102
RTVSPropertyOp40
 70
     1
102
RTVSPropertyOp41
 70
     1
102
RTVSPropertyOp42
 70
     1
102
RTVSPropertyOp43
 70
     1
102
RTVSPropertyOp44
 70
     1
102
RTVSPropertyOp45
 70
     1
102
RTVSPropertyOp46
 70
     1
102
RTVSPropertyOp47
 70
     1
102
RTVSPropertyOp48
 70
     1
102
RTVSPropertyOp49
 70
     1
102
RTVSPropertyOp50
 70
     1
102
RTVSPropertyOp51
 70
     0
102
RTVSPropertyOp52
 70
     0
102
RTVSPropertyOp53
 70
     1
102
RTVSPropertyOp54
 70
     1
102
RTVSPropertyOp55
 70
     1
102
RTVSPropertyOp56
 70
     1
102
RTVSPropertyOp57
 70
     1
102
RTVSPropertyOp58
 70
     1
102
RTVSPropertyOp59
 70
     1
102
RTVSPropertyOp60
 70
     1
102
RTVSPropertyOp61
 70
     1
102
RTVSPropertyOp62
 70
     1
  0
XRECORD
  5
5E7
102
{ACAD_REACTORS
330
5E6
102
}
330
5E6
100
AcDbXrecord
280
     1
102
RTVSPost2010Prop28
280
     0
102
RTVSPost2010PropOp28
 70
     1
102
RTVSPost2010Prop29
280
     1
102
RTVSPost2010PropOp29
 70
     1
102
RTVSPost2010Prop30
280
     1
102
RTVSPost2010PropOp30
 70
     1
102
RTVSPost2010Prop31
280
     0
102
RTVSPost2010PropOp31
 70
     1
102
RTVSPost2010Prop32
280
     0
102
RTVSPost2010PropOp32
 70
     1
102
RTVSPost2010Prop33
280
     0
102
RTVSPost2010PropOp33
 70
     1
102
RTVSPost2010Prop34
280
     0
102
RTVSPost2010PropOp34
 70
     1
102
RTVSPost2010Prop35
280
     0
102
RTVSPost2010PropOp35
 70
     1
102
RTVSPost2010Prop36
280
     0
102
RTVSPost2010PropOp36
 70
     1
102
RTVSPost2010Prop37
 90
       50
102
RTVSPost2010PropOp37
 70
     1
102
RTVSPost2010Prop38
140
0.0
102
RTVSPost2010PropOp38
 70
     1
102
RTVSPost2010Prop39
140
1.0
102
RTVSPost2010PropOp39
 70
     1
102
RTVSPost2010Prop40
 90
        0
102
RTVSPost2010PropOp40
 70
     1
102
RTVSPost2010Prop41ColorIndex
 90
       18
102
RTVSPost2010Prop41ColorRGB
 90
        0
102
RTVSPost2010PropOp41
 70
     1
102
RTVSPost2010Prop42
 90
       50
102
RTVSPost2010PropOp42
 70
     1
102
RTVSPost2010Prop43
 90
        3
102
RTVSPost2010PropOp43
 70
     1
102
RTVSPost2010Prop44ColorIndex
 90
        5
102
RTVSPost2010Prop44ColorRGB
 90
      255
102
RTVSPost2010PropOp44
 70
     1
102
RTVSPost2010Prop45
280
     0
102
RTVSPost2010PropOp45
 70
     1
102
RTVSPost2010Prop46
 90
       50
102
RTVSPost2010PropOp46
 70
     1
102
RTVSPost2010Prop47
 90
       50
102
RTVSPost2010PropOp47
 70
     1
102
RTVSPost2010Prop48
 90
       50
102
RTVSPost2010PropOp48
 70
     1
102
RTVSPost2010Prop49
280
     0
102
RTVSPost2010PropOp49
 70
     1
102
RTVSPost2010Prop50
 90
       50
102
RTVSPost2010PropOp50
 70
     1
102
RTVSPost2010Prop51ColorIndex
 90
      256
102
RTVSPost2010Prop51ColorRGB
 90
-16777216
102
RTVSPost2010PropOp51
 70
     0
102
RTVSPost2010Prop52
140
1.0
102
RTVSPost2010PropOp52
 70
     0
102
RTVSPost2010Prop53
 90
        2
102
RTVSPost2010PropOp53
 70
     1
102
RTVSPost2010Prop54
  1
strokes_ogs.tif
102
RTVSPost2010PropOp54
 70
     1
102
RTVSPost2010Prop55
280
     0
102
RTVSPost2010PropOp55
 70
     1
102
RTVSPost2010Prop56
140
1.0
102
RTVSPost2010PropOp56
 70
     1
102
RTVSPost2010Prop57
140
1.0
102
RTVSPost2010PropOp57
 70
     1
102
RTVSPropertyOp0
 70
     1
102
RTVSPropertyOp1
 70
     1
102
RTVSPropertyOp2
 70
     1
102
RTVSPropertyOp3
 70
     1
102
RTVSPropertyOp4
 70
     1
102
RTVSPropertyOp5
 70
     1
102
RTVSPropertyOp6
 70
     1
102
RTVSPropertyOp7
 70
     1
102
RTVSPropertyOp8
 70
     1
102
RTVSPropertyOp9
 70
     1
102
RTVSPropertyOp10
 70
     1
102
RTVSPropertyOp11
 70
     1
102
RTVSPropertyOp12
 70
     1
102
RTVSPropertyOp13
 70
     1
102
RTVSPropertyOp14
 70
     1
102
RTVSPropertyOp15
 70
     1
102
RTVSPropertyOp16
 70
     1
102
RTVSPropertyOp17
 70
     1
102
RTVSPropertyOp18
 70
     1
102
RTVSPropertyOp19
 70
     1
102
RTVSPropertyOp20
 70
     1
102
RTVSPropertyOp21
 70
     1
102
RTVSPropertyOp22
 70
     1
102
RTVSPropertyOp23
 70
     1
102
RTVSPropertyOp24
 70
     1
102
RTVSPropertyOp25
 70
     1
102
RTVSPropertyOp26
 70
     1
102
RTVSPropertyOp27
 70
     1
102
RTVSPropertyOp28
 70
     1
102
RTVSPropertyOp29
 70
     1
102
RTVSPropertyOp30
 70
     1
102
RTVSPropertyOp31
 70
     1
102
RTVSPropertyOp32
 70
     1
102
RTVSPropertyOp33
 70
     1
102
RTVSPropertyOp34
 70
     1
102
RTVSPropertyOp35
 70
     1
102
RTVSPropertyOp36
 70
     1
102
RTVSPropertyOp37
 70
     1
102
RTVSPropertyOp38
 70
     1
102
RTVSPropertyOp39
 70
     1
102
RTVSPropertyOp40
 70
     1
102
RTVSPropertyOp41
 70
     1
102
RTVSPropertyOp42
 70
     1
102
RTVSPropertyOp43
 70
     1
102
RTVSPropertyOp44
 70
     1
102
RTVSPropertyOp45
 70
     1
102
RTVSPropertyOp46
 70
     1
102
RTVSPropertyOp47
 70
     1
102
RTVSPropertyOp48
 70
     1
102
RTVSPropertyOp49
 70
     1
102
RTVSPropertyOp50
 70
     1
102
RTVSPropertyOp51
 70
     0
102
RTVSPropertyOp52
 70
     0
102
RTVSPropertyOp53
 70
     1
102
RTVSPropertyOp54
 70
     1
102
RTVSPropertyOp55
 70
     1
102
RTVSPropertyOp56
 70
     1
102
RTVSPropertyOp57
 70
     1
102
RTVSPropertyOp58
 70
     1
102
RTVSPropertyOp59
 70
     1
102
RTVSPropertyOp60
 70
     1
102
RTVSPropertyOp61
 70
     1
102
RTVSPropertyOp62
 70
     1
  0
XRECORD
  5
5FF
102
{ACAD_REACTORS
330
5FE
102
}
330
5FE
100
AcDbXrecord
280
     1
102
RTVSPost2010Prop28
280
     0
102
RTVSPost2010PropOp28
 70
     1
102
RTVSPost2010Prop29
280
     1
102
RTVSPost2010PropOp29
 70
     1
102
RTVSPost2010Prop30
280
     1
102
RTVSPost2010PropOp30
 70
     1
102
RTVSPost2010Prop31
280
     0
102
RTVSPost2010PropOp31
 70
     1
102
RTVSPost2010Prop32
280
     0
102
RTVSPost2010PropOp32
 70
     1
102
RTVSPost2010Prop33
280
     0
102
RTVSPost2010PropOp33
 70
     1
102
RTVSPost2010Prop34
280
     0
102
RTVSPost2010PropOp34
 70
     1
102
RTVSPost2010Prop35
280
     0
102
RTVSPost2010PropOp35
 70
     1
102
RTVSPost2010Prop36
280
     0
102
RTVSPost2010PropOp36
 70
     1
102
RTVSPost2010Prop37
 90
       50
102
RTVSPost2010PropOp37
 70
     1
102
RTVSPost2010Prop38
140
0.0
102
RTVSPost2010PropOp38
 70
     1
102
RTVSPost2010Prop39
140
1.0
102
RTVSPost2010PropOp39
 70
     1
102
RTVSPost2010Prop40
 90
        0
102
RTVSPost2010PropOp40
 70
     1
102
RTVSPost2010Prop41ColorIndex
 90
       18
102
RTVSPost2010Prop41ColorRGB
 90
        0
102
RTVSPost2010PropOp41
 70
     1
102
RTVSPost2010Prop42
 90
       50
102
RTVSPost2010PropOp42
 70
     1
102
RTVSPost2010Prop43
 90
        3
102
RTVSPost2010PropOp43
 70
     1
102
RTVSPost2010Prop44ColorIndex
 90
        5
102
RTVSPost2010Prop44ColorRGB
 90
      255
102
RTVSPost2010PropOp44
 70
     1
102
RTVSPost2010Prop45
280
     0
102
RTVSPost2010PropOp45
 70
     1
102
RTVSPost2010Prop46
 90
       50
102
RTVSPost2010PropOp46
 70
     1
102
RTVSPost2010Prop47
 90
       50
102
RTVSPost2010PropOp47
 70
     1
102
RTVSPost2010Prop48
 90
       50
102
RTVSPost2010PropOp48
 70
     1
102
RTVSPost2010Prop49
280
     0
102
RTVSPost2010PropOp49
 70
     1
102
RTVSPost2010Prop50
 90
       50
102
RTVSPost2010PropOp50
 70
     1
102
RTVSPost2010Prop51ColorIndex
 90
      256
102
RTVSPost2010Prop51ColorRGB
 90
-16777216
102
RTVSPost2010PropOp51
 70
     0
102
RTVSPost2010Prop52
140
1.0
102
RTVSPost2010PropOp52
 70
     0
102
RTVSPost2010Prop53
 90
        2
102
RTVSPost2010PropOp53
 70
     1
102
RTVSPost2010Prop54
  1
strokes_ogs.tif
102
RTVSPost2010PropOp54
 70
     1
102
RTVSPost2010Prop55
280
     0
102
RTVSPost2010PropOp55
 70
     1
102
RTVSPost2010Prop56
140
1.0
102
RTVSPost2010PropOp56
 70
     1
102
RTVSPost2010Prop57
140
1.0
102
RTVSPost2010PropOp57
 70
     1
102
RTVSPropertyOp0
 70
     1
102
RTVSPropertyOp1
 70
     1
102
RTVSPropertyOp2
 70
     1
102
RTVSPropertyOp3
 70
     1
102
RTVSPropertyOp4
 70
     1
102
RTVSPropertyOp5
 70
     1
102
RTVSPropertyOp6
 70
     1
102
RTVSPropertyOp7
 70
     1
102
RTVSPropertyOp8
 70
     1
102
RTVSPropertyOp9
 70
     1
102
RTVSPropertyOp10
 70
     1
102
RTVSPropertyOp11
 70
     1
102
RTVSPropertyOp12
 70
     1
102
RTVSPropertyOp13
 70
     1
102
RTVSPropertyOp14
 70
     1
102
RTVSPropertyOp15
 70
     1
102
RTVSPropertyOp16
 70
     1
102
RTVSPropertyOp17
 70
     1
102
RTVSPropertyOp18
 70
     1
102
RTVSPropertyOp19
 70
     1
102
RTVSPropertyOp20
 70
     1
102
RTVSPropertyOp21
 70
     1
102
RTVSPropertyOp22
 70
     1
102
RTVSPropertyOp23
 70
     1
102
RTVSPropertyOp24
 70
     1
102
RTVSPropertyOp25
 70
     1
102
RTVSPropertyOp26
 70
     1
102
RTVSPropertyOp27
 70
     1
102
RTVSPropertyOp28
 70
     1
102
RTVSPropertyOp29
 70
     1
102
RTVSPropertyOp30
 70
     1
102
RTVSPropertyOp31
 70
     1
102
RTVSPropertyOp32
 70
     1
102
RTVSPropertyOp33
 70
     1
102
RTVSPropertyOp34
 70
     1
102
RTVSPropertyOp35
 70
     1
102
RTVSPropertyOp36
 70
     1
102
RTVSPropertyOp37
 70
     1
102
RTVSPropertyOp38
 70
     1
102
RTVSPropertyOp39
 70
     1
102
RTVSPropertyOp40
 70
     1
102
RTVSPropertyOp41
 70
     1
102
RTVSPropertyOp42
 70
     1
102
RTVSPropertyOp43
 70
     1
102
RTVSPropertyOp44
 70
     1
102
RTVSPropertyOp45
 70
     1
102
RTVSPropertyOp46
 70
     1
102
RTVSPropertyOp47
 70
     1
102
RTVSPropertyOp48
 70
     1
102
RTVSPropertyOp49
 70
     1
102
RTVSPropertyOp50
 70
     1
102
RTVSPropertyOp51
 70
     0
102
RTVSPropertyOp52
 70
     0
102
RTVSPropertyOp53
 70
     1
102
RTVSPropertyOp54
 70
     1
102
RTVSPropertyOp55
 70
     1
102
RTVSPropertyOp56
 70
     1
102
RTVSPropertyOp57
 70
     1
102
RTVSPropertyOp58
 70
     1
102
RTVSPropertyOp59
 70
     1
102
RTVSPropertyOp60
 70
     1
102
RTVSPropertyOp61
 70
     1
102
RTVSPropertyOp62
 70
     1
  0
ENDSEC
  0
EOF
