  0
SECTION
  2
HEADER
  9
$ACADVER
  1
AC1021
  9
$ACADMAINTVER
 70
    50
  9
$DWGCODEPAGE
  3
ANSI_932
  9
$LASTSAVEDBY
  1
mee
  9
$INSBASE
 10
0.0
 20
0.0
 30
0.0
  9
$EXTMIN
 10
-1522.469413014628
 20
-460.1834859933751
 30
-0.0015258207003583
  9
$EXTMAX
 10
752.3694114238359
 20
2275.860476015384
 30
0.0000000349246037
  9
$LIMMIN
 10
0.0
 20
0.0
  9
$LIMMAX
 10
12.0
 20
9.0
  9
$ORTHOMODE
 70
     0
  9
$REGENMODE
 70
     1
  9
$FILLMODE
 70
     1
  9
$QTEXTMODE
 70
     0
  9
$MIRRTEXT
 70
     0
  9
$LTSCALE
 40
1.0
  9
$ATTMODE
 70
     1
  9
$TEXTSIZE
 40
2.799999952316284
  9
$TRACEWID
 40
0.05
  9
$TEXTSTYLE
  7
STANDARD1
  9
$CLAYER
  8
0
  9
$CELTYPE
  6
CONTINUOUS
  9
$CECOLOR
 62
   256
  9
$CELTSCALE
 40
1.0
  9
$DISPSILH
 70
     0
  9
$DIMSCALE
 40
1.0
  9
$DIMASZ
 40
10.0
  9
$DIMEXO
 40
10.0
  9
$DIMDLI
 40
8.0
  9
$DIMRND
 40
0.0
  9
$DIMDLE
 40
0.0
  9
$DIMEXE
 40
12.5
  9
$DIMTP
 40
0.0
  9
$DIMTM
 40
0.0
  9
$DIMTXT
 40
30.0
  9
$DIMCEN
 40
2.5
  9
$DIMTSZ
 40
0.0
  9
$DIMTOL
 70
     0
  9
$DIMLIM
 70
     0
  9
$DIMTIH
 70
     0
  9
$DIMTOH
 70
     0
  9
$DIMSE1
 70
     0
  9
$DIMSE2
 70
     0
  9
$DIMTAD
 70
     3
  9
$DIMZIN
 70
    12
  9
$DIMBLK
  1

  9
$DIMASO
 70
     1
  9
$DIMSHO
 70
     1
  9
$DIMPOST
  1

  9
$DIMAPOST
  1

  9
$DIMALT
 70
     0
  9
$DIMALTD
 70
     4
  9
$DIMALTF
 40
25.4
  9
$DIMLFAC
 40
1.0
  9
$DIMTOFL
 70
     1
  9
$DIMTVP
 40
0.0
  9
$DIMTIX
 70
     0
  9
$DIMSOXD
 70
     0
  9
$DIMSAH
 70
     1
  9
$DIMBLK1
  1
ORIGIN
  9
$DIMBLK2
  1
ORIGIN
  9
$DIMSTYLE
  2
STANDARD
  9
$DIMCLRD
 70
     0
  9
$DIMCLRE
 70
     0
  9
$DIMCLRT
 70
     0
  9
$DIMTFAC
 40
0.7142857313156129
  9
$DIMGAP
 40
10.0
  9
$DIMJUST
 70
     0
  9
$DIMSD1
 70
     0
  9
$DIMSD2
 70
     0
  9
$DIMTOLJ
 70
     1
  9
$DIMTZIN
 70
     0
  9
$DIMALTZ
 70
     0
  9
$DIMALTTZ
 70
     0
  9
$DIMUPT
 70
     0
  9
$DIMDEC
 70
     4
  9
$DIMTDEC
 70
     4
  9
$DIMALTU
 70
     2
  9
$DIMALTTD
 70
     2
  9
$DIMTXSTY
  7
STANDARD
  9
$DIMAUNIT
 70
     0
  9
$DIMADEC
 70
     0
  9
$DIMALTRND
 40
0.0
  9
$DIMAZIN
 70
     0
  9
$DIMDSEP
 70
    46
  9
$DIMATFIT
 70
     3
  9
$DIMFRAC
 70
     0
  9
$DIMLDRBLK
  1
ORIGIN
  9
$DIMLUNIT
 70
     2
  9
$DIMLWD
 70
    -2
  9
$DIMLWE
 70
    -2
  9
$DIMTMOVE
 70
     0
  9
$DIMFXL
 40
1.0
  9
$DIMFXLON
 70
     0
  9
$DIMJOGANG
 40
0.7853981633974483
  9
$DIMTFILL
 70
     0
  9
$DIMTFILLCLR
 70
     0
  9
$DIMARCSYM
 70
     0
  9
$DIMLTYPE
  6

  9
$DIMLTEX1
  6

  9
$DIMLTEX2
  6

  9
$LUNITS
 70
     2
  9
$LUPREC
 70
     3
  9
$SKETCHINC
 40
0.1
  9
$FILLETRAD
 40
0.0
  9
$AUNITS
 70
     0
  9
$AUPREC
 70
     0
  9
$MENU
  1
.
  9
$ELEVATION
 40
0.0
  9
$PELEVATION
 40
0.0
  9
$THICKNESS
 40
0.0
  9
$LIMCHECK
 70
     0
  9
$CHAMFERA
 40
0.0
  9
$CHAMFERB
 40
0.0
  9
$CHAMFERC
 40
0.0
  9
$CHAMFERD
 40
0.0
  9
$SKPOLY
 70
     0
  9
$TDCREATE
 40
2457836.426404722
  9
$TDUCREATE
 40
2457836.051404722
  9
$TDUPDATE
 40
2457842.416456100
  9
$TDUUPDATE
 40
2457842.041456100
  9
$TDINDWG
 40
0.0226585880
  9
$TDUSRTIMER
 40
0.0226583681
  9
$USRTIMER
 70
     1
  9
$ANGBASE
 50
0.0
  9
$ANGDIR
 70
     0
  9
$PDMODE
 70
     0
  9
$PDSIZE
 40
0.0
  9
$PLINEWID
 40
0.0
  9
$SPLFRAME
 70
     0
  9
$SPLINETYPE
 70
     6
  9
$SPLINESEGS
 70
     8
  9
$HANDSEED
  5
645
  9
$SURFTAB1
 70
     6
  9
$SURFTAB2
 70
     6
  9
$SURFTYPE
 70
     6
  9
$SURFU
 70
     6
  9
$SURFV
 70
     6
  9
$UCSBASE
  2

  9
$UCSNAME
  2

  9
$UCSORG
 10
0.0
 20
0.0
 30
0.0
  9
$UCSXDIR
 10
1.0
 20
0.0
 30
0.0
  9
$UCSYDIR
 10
0.0
 20
1.0
 30
0.0
  9
$UCSORTHOREF
  2

  9
$UCSORTHOVIEW
 70
     0
  9
$UCSORGTOP
 10
0.0
 20
0.0
 30
0.0
  9
$UCSORGBOTTOM
 10
0.0
 20
0.0
 30
0.0
  9
$UCSORGLEFT
 10
0.0
 20
0.0
 30
0.0
  9
$UCSORGRIGHT
 10
0.0
 20
0.0
 30
0.0
  9
$UCSORGFRONT
 10
0.0
 20
0.0
 30
0.0
  9
$UCSORGBACK
 10
0.0
 20
0.0
 30
0.0
  9
$PUCSBASE
  2

  9
$PUCSNAME
  2

  9
$PUCSORG
 10
0.0
 20
0.0
 30
0.0
  9
$PUCSXDIR
 10
1.0
 20
0.0
 30
0.0
  9
$PUCSYDIR
 10
0.0
 20
1.0
 30
0.0
  9
$PUCSORTHOREF
  2

  9
$PUCSORTHOVIEW
 70
     0
  9
$PUCSORGTOP
 10
0.0
 20
0.0
 30
0.0
  9
$PUCSORGBOTTOM
 10
0.0
 20
0.0
 30
0.0
  9
$PUCSORGLEFT
 10
0.0
 20
0.0
 30
0.0
  9
$PUCSORGRIGHT
 10
0.0
 20
0.0
 30
0.0
  9
$PUCSORGFRONT
 10
0.0
 20
0.0
 30
0.0
  9
$PUCSORGBACK
 10
0.0
 20
0.0
 30
0.0
  9
$USERI1
 70
     0
  9
$USERI2
 70
     0
  9
$USERI3
 70
     0
  9
$USERI4
 70
     0
  9
$USERI5
 70
     0
  9
$USERR1
 40
0.0
  9
$USERR2
 40
0.0
  9
$USERR3
 40
0.0
  9
$USERR4
 40
0.0
  9
$USERR5
 40
0.0
  9
$WORLDVIEW
 70
     1
  9
$SHADEDGE
 70
     3
  9
$SHADEDIF
 70
    70
  9
$TILEMODE
 70
     1
  9
$MAXACTVP
 70
    64
  9
$PINSBASE
 10
0.0
 20
0.0
 30
0.0
  9
$PLIMCHECK
 70
     0
  9
$PEXTMIN
 10
1.000000000000000E+20
 20
1.000000000000000E+20
 30
1.000000000000000E+20
  9
$PEXTMAX
 10
-1.000000000000000E+20
 20
-1.000000000000000E+20
 30
-1.000000000000000E+20
  9
$PLIMMIN
 10
0.0
 20
0.0
  9
$PLIMMAX
 10
12.0
 20
9.0
  9
$UNITMODE
 70
     0
  9
$VISRETAIN
 70
     1
  9
$PLINEGEN
 70
     0
  9
$PSLTSCALE
 70
     1
  9
$TREEDEPTH
 70
  3020
  9
$CMLSTYLE
  2
Standard
  9
$CMLJUST
 70
     0
  9
$CMLSCALE
 40
1.0
  9
$PROXYGRAPHICS
 70
     1
  9
$MEASUREMENT
 70
     0
  9
$CELWEIGHT
370
    -1
  9
$ENDCAPS
280
     0
  9
$JOINSTYLE
280
     0
  9
$LWDISPLAY
290
     0
  9
$INSUNITS
 70
     0
  9
$HYPERLINKBASE
  1

  9
$STYLESHEET
  1

  9
$XEDIT
290
     1
  9
$CEPSNTYPE
380
     0
  9
$PSTYLEMODE
290
     1
  9
$FINGERPRINTGUID
  2
{68DDB109-BE86-4F2F-B945-5AE1DB156B43}
  9
$VERSIONGUID
  2
{9C6D6191-782F-4CBD-B58C-FB278A74BE21}
  9
$EXTNAMES
290
     1
  9
$PSVPSCALE
 40
0.0
  9
$OLESTARTUP
290
     0
  9
$SORTENTS
280
   127
  9
$INDEXCTL
280
     0
  9
$HIDETEXT
280
     0
  9
$XCLIPFRAME
290
     0
  9
$HALOGAP
280
     0
  9
$OBSCOLOR
 70
   257
  9
$OBSLTYPE
280
     0
  9
$INTERSECTIONDISPLAY
280
     0
  9
$INTERSECTIONCOLOR
 70
   257
  9
$DIMASSOC
280
     1
  9
$PROJECTNAME
  1

  9
$CAMERADISPLAY
290
     0
  9
$LENSLENGTH
 40
50.0
  9
$CAMERAHEIGHT
 40
0.0
  9
$STEPSPERSEC
 40
2.0
  9
$STEPSIZE
 40
6.0
  9
$3DDWFPREC
 40
2.0
  9
$PSOLWIDTH
 40
0.25
  9
$PSOLHEIGHT
 40
4.0
  9
$LOFTANG1
 40
1.570796326794896
  9
$LOFTANG2
 40
1.570796326794896
  9
$LOFTMAG1
 40
0.0
  9
$LOFTMAG2
 40
0.0
  9
$LOFTPARAM
 70
     7
  9
$LOFTNORMALS
280
     1
  9
$LATITUDE
 40
37.795
  9
$LONGITUDE
 40
-122.394
  9
$NORTHDIRECTION
 40
0.0
  9
$TIMEZONE
 70
 -8000
  9
$LIGHTGLYPHDISPLAY
280
     1
  9
$TILEMODELIGHTSYNCH
280
     1
  9
$CMATERIAL
347
11
  9
$SOLIDHIST
280
     0
  9
$SHOWHIST
280
     1
  9
$DWFFRAME
280
     2
  9
$DGNFRAME
280
     0
  9
$REALWORLDSCALE
290
     1
  9
$INTERFERECOLOR
 62
     1
  9
$INTERFEREOBJVS
345
33
  9
$INTERFEREVPVS
346
30
  9
$CSHADOW
280
     0
  9
$SHADOWPLANELOCATION
 40
0.0
  0
ENDSEC
  0
SECTION
  2
CLASSES
  0
CLASS
  1
ACDBDICTIONARYWDFLT
  2
AcDbDictionaryWithDefault
  3
ObjectDBX Classes
 90
        0
 91
        1
280
     0
281
     0
  0
CLASS
  1
MATERIAL
  2
AcDbMaterial
  3
ObjectDBX Classes
 90
     1153
 91
        3
280
     0
281
     0
  0
CLASS
  1
VISUALSTYLE
  2
AcDbVisualStyle
  3
ObjectDBX Classes
 90
     4095
 91
       24
280
     0
281
     0
  0
CLASS
  1
SCALE
  2
AcDbScale
  3
ObjectDBX Classes
 90
     1153
 91
       17
280
     0
281
     0
  0
CLASS
  1
TABLESTYLE
  2
AcDbTableStyle
  3
ObjectDBX Classes
 90
     4095
 91
        1
280
     0
281
     0
  0
CLASS
  1
MLEADERSTYLE
  2
AcDbMLeaderStyle
  3
ACDB_MLEADERSTYLE_CLASS
 90
     4095
 91
        1
280
     0
281
     0
  0
CLASS
  1
ACDBSECTIONVIEWSTYLE
  2
AcDbSectionViewStyle
  3
ObjectDBX Classes
 90
     1025
 91
        1
280
     0
281
     0
  0
CLASS
  1
ACDBDETAILVIEWSTYLE
  2
AcDbDetailViewStyle
  3
ObjectDBX Classes
 90
     1025
 91
        1
280
     0
281
     0
  0
CLASS
  1
DICTIONARYVAR
  2
AcDbDictionaryVar
  3
ObjectDBX Classes
 90
        0
 91
       10
280
     0
281
     0
  0
CLASS
  1
CELLSTYLEMAP
  2
AcDbCellStyleMap
  3
ObjectDBX Classes
 90
     1152
 91
        1
280
     0
281
     0
  0
ENDSEC
  0
SECTION
  2
TABLES
  0
TABLE
  2
VPORT
  5
8
330
0
100
AcDbSymbolTable
 70
     1
  0
VPORT
  5
88
330
8
100
AcDbSymbolTableRecord
100
AcDbViewportTableRecord
  2
*ACTIVE
 70
     0
 10
0.0
 20
0.0
 11
1.0
 21
1.0
 12
-385.0500007953963
 22
907.8384950110047
 13
0.0
 23
0.0
 14
1.0
 24
1.0
 15
0.0
 25
0.0
 16
0.0
 26
0.0
 36
1.0
 17
0.0
 27
0.0
 37
0.0
 40
2758.593774882458
 41
1.815680880330123
 42
50.0
 43
0.0
 44
0.0
 50
0.0
 51
0.0
 71
     0
 72
   100
 73
     1
 74
     1
 75
     0
 76
     0
 77
     0
 78
     0
281
     0
 65
     1
110
0.0
120
0.0
130
0.0
111
1.0
121
0.0
131
0.0
112
0.0
122
1.0
132
0.0
 79
     0
146
0.0
348
2F
 60
     3
 61
     5
292
     1
282
     0
141
0.0
142
0.0
 63
   250
421
  3355443
1001
ACAD_NAV_VCDISPLAY
1070
     3
  0
ENDTAB
  0
TABLE
  2
LTYPE
  5
5
330
0
100
AcDbSymbolTable
 70
     6
  0
LTYPE
  5
5A
330
5
100
AcDbSymbolTableRecord
100
AcDbLinetypeTableRecord
  2
ByBlock
 70
     0
  3

 72
    65
 73
     0
 40
0.0
  0
LTYPE
  5
5B
330
5
100
AcDbSymbolTableRecord
100
AcDbLinetypeTableRecord
  2
ByLayer
 70
     0
  3

 72
    65
 73
     0
 40
0.0
  0
LTYPE
  5
5C
330
5
100
AcDbSymbolTableRecord
100
AcDbLinetypeTableRecord
  2
CONTINUOUS
 70
     0
  3
Solid line
 72
    65
 73
     0
 40
0.0
  0
LTYPE
  5
68
330
5
100
AcDbSymbolTableRecord
100
AcDbLinetypeTableRecord
  2
PHANTOM2
 70
     0
  3
___ _ _ ___ _ _ ___ _ _ ___ _ _
 72
    65
 73
     6
 40
1.25
 49
0.625
 74
     0
 49
-0.125
 74
     0
 49
0.125
 74
     0
 49
-0.125
 74
     0
 49
0.125
 74
     0
 49
-0.125
 74
     0
  0
LTYPE
  5
75
330
5
100
AcDbSymbolTableRecord
100
AcDbLinetypeTableRecord
  2
DASHED
 70
     0
  3
-- -- -- -- -- -- -- -- -- -- -- -- -- -- --
 72
    65
 73
     2
 40
0.75
 49
0.5
 74
     0
 49
-0.25
 74
     0
  0
LTYPE
  5
76
330
5
100
AcDbSymbolTableRecord
100
AcDbLinetypeTableRecord
  2
DASHDOT
 70
     0
  3
__ . __ . __ . __ . __ . __ . __ . __ . __ . __
 72
    65
 73
     4
 40
125.0
 49
80.0
 74
     0
 49
-20.0
 74
     0
 49
5.0
 74
     0
 49
-20.0
 74
     0
  0
LTYPE
  5
77
330
5
100
AcDbSymbolTableRecord
100
AcDbLinetypeTableRecord
  2
DIVIDE
 70
     0
  3
__ . . __ . . __ . . __ . . __ . . __ . . __
 72
    65
 73
     6
 40
1.25
 49
0.5
 74
     0
 49
-0.25
 74
     0
 49
0.0
 74
     0
 49
-0.25
 74
     0
 49
0.0
 74
     0
 49
-0.25
 74
     0
  0
ENDTAB
  0
TABLE
  2
LAYER
  5
2
102
{ACAD_XDICTIONARY
360
5F9
102
}
330
0
100
AcDbSymbolTable
 70
    12
  0
LAYER
  5
54
102
{ACAD_XDICTIONARY
360
5E0
102
}
330
2
100
AcDbSymbolTableRecord
100
AcDbLayerTableRecord
  2
0
 70
     0
 62
     3
  6
CONTINUOUS
370
    -3
390
F
347
21
  0
LAYER
  5
78
102
{ACAD_XDICTIONARY
360
5E2
102
}
330
2
100
AcDbSymbolTableRecord
100
AcDbLayerTableRecord
  2
OUTLINE
 70
     0
 62
     3
  6
CONTINUOUS
370
    -3
390
F
347
21
  0
LAYER
  5
79
102
{ACAD_XDICTIONARY
360
5E4
102
}
330
2
100
AcDbSymbolTableRecord
100
AcDbLayerTableRecord
  2
DETAIL
 70
     0
 62
     5
  6
CONTINUOUS
370
    -3
390
F
347
21
  0
LAYER
  5
7A
102
{ACAD_XDICTIONARY
360
5E6
102
}
330
2
100
AcDbSymbolTableRecord
100
AcDbLayerTableRecord
  2
BASIS
 70
     0
 62
     6
  6
CONTINUOUS
370
    -3
390
F
347
21
  0
LAYER
  5
7B
102
{ACAD_XDICTIONARY
360
5E8
102
}
330
2
100
AcDbSymbolTableRecord
100
AcDbLayerTableRecord
  2
SIZE
 70
     0
 62
    30
  6
CONTINUOUS
370
    -3
390
F
347
21
  0
LAYER
  5
7C
102
{ACAD_XDICTIONARY
360
5EA
102
}
330
2
100
AcDbSymbolTableRecord
100
AcDbLayerTableRecord
  2
NOTE
 70
     0
 62
     4
  6
CONTINUOUS
370
    -3
390
F
347
21
  0
LAYER
  5
7D
102
{ACAD_XDICTIONARY
360
5EC
102
}
330
2
100
AcDbSymbolTableRecord
100
AcDbLayerTableRecord
  2
ARRANGE
 70
     0
 62
     1
  6
CONTINUOUS
370
    -3
390
F
347
21
  0
LAYER
  5
7E
102
{ACAD_XDICTIONARY
360
5EE
102
}
330
2
100
AcDbSymbolTableRecord
100
AcDbLayerTableRecord
  2
FIX
 70
     0
 62
    11
  6
CONTINUOUS
370
    -3
390
F
347
21
  0
LAYER
  5
7F
102
{ACAD_XDICTIONARY
360
5F0
102
}
330
2
100
AcDbSymbolTableRecord
100
AcDbLayerTableRecord
  2
SERVICESPACE
 70
     0
 62
     2
  6
CONTINUOUS
370
    -3
390
F
347
21
  0
LAYER
  5
80
102
{ACAD_XDICTIONARY
360
5F2
102
}
330
2
100
AcDbSymbolTableRecord
100
AcDbLayerTableRecord
  2
ETC
 70
     0
 62
    61
  6
CONTINUOUS
370
    -3
390
F
347
21
  0
LAYER
  5
81
102
{ACAD_XDICTIONARY
360
5F4
102
}
330
2
100
AcDbSymbolTableRecord
100
AcDbLayerTableRecord
  2
SYMBOLLINE
 70
     0
 62
     7
  6
CONTINUOUS
370
    -3
390
F
347
21
  0
LAYER
  5
82
330
2
100
AcDbSymbolTableRecord
100
AcDbLayerTableRecord
  2
DEFPOINTS
 70
     0
 62
     7
  6
CONTINUOUS
290
     0
370
    -3
390
F
347
21
  0
ENDTAB
  0
TABLE
  2
STYLE
  5
3
330
0
100
AcDbSymbolTable
 70
     6
  0
STYLE
  5
55
330
3
100
AcDbSymbolTableRecord
100
AcDbTextStyleTableRecord
  2
STANDARD
 70
     0
 40
0.0
 41
1.0
 50
0.0
 71
     0
 42
0.2
  3
txt
  4

  0
STYLE
  5
59
330
3
100
AcDbSymbolTableRecord
100
AcDbTextStyleTableRecord
  2
ANNOTATIVE
 70
     0
 40
0.0
 41
1.0
 50
0.0
 71
     0
 42
0.2
  3
txt
  4

1001
ACADANNOTATIVE
1000
AnnotativeData
1002
{
1070
     1
1070
     1
1002
}
  0
STYLE
  5
74
330
3
100
AcDbSymbolTableRecord
100
AcDbTextStyleTableRecord
  2
STANDARD1
 70
     0
 40
0.0
 41
1.0
 50
0.0
 71
     0
 42
2.799999952316284
  3
MONOTXT
  4
BIGFONT
  0
STYLE
  5
83
330
3
100
AcDbSymbolTableRecord
100
AcDbTextStyleTableRecord
  2
STANDARD2
 70
     4
 40
0.0
 41
1.0
 50
0.0
 71
     0
 42
2.799999952316284
  3
MONOTXT
  4
BIGFONT
  0
STYLE
  5
84
330
3
100
AcDbSymbolTableRecord
100
AcDbTextStyleTableRecord
  2
STANDARD3
 70
     0
 40
0.0
 41
1.0
 50
0.0
 71
     0
 42
2.799999952316284
  3
MONOTXT
  4

  0
STYLE
  5
85
330
3
100
AcDbSymbolTableRecord
100
AcDbTextStyleTableRecord
  2
STANDARD4
 70
     4
 40
0.0
 41
1.0
 50
0.0
 71
     0
 42
2.799999952316284
  3
MONOTXT
  4

  0
ENDTAB
  0
TABLE
  2
VIEW
  5
6
330
0
100
AcDbSymbolTable
 70
     1
  0
ENDTAB
  0
TABLE
  2
UCS
  5
7
330
0
100
AcDbSymbolTable
 70
     0
  0
ENDTAB
  0
TABLE
  2
APPID
  5
9
330
0
100
AcDbSymbolTable
 70
     5
  0
APPID
  5
56
330
9
100
AcDbSymbolTableRecord
100
AcDbRegAppTableRecord
  2
ACAD
 70
     0
  0
APPID
  5
5D
330
9
100
AcDbSymbolTableRecord
100
AcDbRegAppTableRecord
  2
ACADANNOTATIVE
 70
     0
  0
APPID
  5
86
330
9
100
AcDbSymbolTableRecord
100
AcDbRegAppTableRecord
  2
ACAD_NAV_VCDISPLAY
 70
     0
  0
APPID
  5
87
330
9
100
AcDbSymbolTableRecord
100
AcDbRegAppTableRecord
  2
ACAD_MLEADERVER
 70
     0
  0
APPID
  5
5D9
330
9
100
AcDbSymbolTableRecord
100
AcDbRegAppTableRecord
  2
ACAD_EXEMPT_FROM_CAD_STANDARDS
 70
     0
  0
ENDTAB
  0
TABLE
  2
DIMSTYLE
  5
A
330
0
100
AcDbSymbolTable
 70
     3
100
AcDbDimStyleTable
 71
     1
340
57
  0
DIMSTYLE
105
57
330
A
100
AcDbSymbolTableRecord
100
AcDbDimStyleTableRecord
  2
STANDARD
 70
     0
271
     3
272
     3
274
     4
279
     2
284
    12
285
    12
286
    12
340
74
  0
DIMSTYLE
105
58
330
A
100
AcDbSymbolTableRecord
100
AcDbDimStyleTableRecord
  2
ANNOTATIVE
 70
     0
271
     3
272
     3
274
     4
279
     2
284
    12
285
    12
286
    12
340
74
1001
ACADANNOTATIVE
1000
AnnotativeData
1002
{
1070
     1
1070
     1
1002
}
  0
ENDTAB
  0
TABLE
  2
BLOCK_RECORD
  5
1
330
0
100
AcDbSymbolTable
 70
    48
  0
BLOCK_RECORD
  5
70
330
1
100
AcDbSymbolTableRecord
100
AcDbBlockTableRecord
  2
*Model_Space
340
73
 70
     0
280
     1
281
     0
  0
BLOCK_RECORD
  5
6C
330
1
100
AcDbSymbolTableRecord
100
AcDbBlockTableRecord
  2
*Paper_Space
340
6F
 70
     0
280
     1
281
     0
  0
BLOCK_RECORD
  5
8C
330
1
100
AcDbSymbolTableRecord
100
AcDbBlockTableRecord
  2
*D0
340
0
 70
     0
280
     1
281
     0
  0
BLOCK_RECORD
  5
9F
330
1
100
AcDbSymbolTableRecord
100
AcDbBlockTableRecord
  2
*D1
340
0
 70
     0
280
     1
281
     0
  0
BLOCK_RECORD
  5
B2
330
1
100
AcDbSymbolTableRecord
100
AcDbBlockTableRecord
  2
*D2
340
0
 70
     0
280
     1
281
     0
  0
BLOCK_RECORD
  5
C5
330
1
100
AcDbSymbolTableRecord
100
AcDbBlockTableRecord
  2
*D3
340
0
 70
     0
280
     1
281
     0
  0
BLOCK_RECORD
  5
D8
330
1
100
AcDbSymbolTableRecord
100
AcDbBlockTableRecord
  2
*D4
340
0
 70
     0
280
     1
281
     0
  0
BLOCK_RECORD
  5
EB
330
1
100
AcDbSymbolTableRecord
100
AcDbBlockTableRecord
  2
*D5
340
0
 70
     0
280
     1
281
     0
  0
BLOCK_RECORD
  5
FE
330
1
100
AcDbSymbolTableRecord
100
AcDbBlockTableRecord
  2
*D6
340
0
 70
     0
280
     1
281
     0
  0
BLOCK_RECORD
  5
111
330
1
100
AcDbSymbolTableRecord
100
AcDbBlockTableRecord
  2
*D7
340
0
 70
     0
280
     1
281
     0
  0
BLOCK_RECORD
  5
125
330
1
100
AcDbSymbolTableRecord
100
AcDbBlockTableRecord
  2
*D8
340
0
 70
     0
280
     1
281
     0
  0
BLOCK_RECORD
  5
139
330
1
100
AcDbSymbolTableRecord
100
AcDbBlockTableRecord
  2
*D9
340
0
 70
     0
280
     1
281
     0
  0
BLOCK_RECORD
  5
14C
330
1
100
AcDbSymbolTableRecord
100
AcDbBlockTableRecord
  2
*D10
340
0
 70
     0
280
     1
281
     0
  0
BLOCK_RECORD
  5
160
330
1
100
AcDbSymbolTableRecord
100
AcDbBlockTableRecord
  2
*D11
340
0
 70
     0
280
     1
281
     0
  0
BLOCK_RECORD
  5
173
330
1
100
AcDbSymbolTableRecord
100
AcDbBlockTableRecord
  2
*D12
340
0
 70
     0
280
     1
281
     0
  0
BLOCK_RECORD
  5
186
330
1
100
AcDbSymbolTableRecord
100
AcDbBlockTableRecord
  2
*D13
340
0
 70
     0
280
     1
281
     0
  0
BLOCK_RECORD
  5
199
330
1
100
AcDbSymbolTableRecord
100
AcDbBlockTableRecord
  2
*D14
340
0
 70
     0
280
     1
281
     0
  0
BLOCK_RECORD
  5
1AB
330
1
100
AcDbSymbolTableRecord
100
AcDbBlockTableRecord
  2
*D15
340
0
 70
     0
280
     1
281
     0
  0
BLOCK_RECORD
  5
1BE
330
1
100
AcDbSymbolTableRecord
100
AcDbBlockTableRecord
  2
*D16
340
0
 70
     0
280
     1
281
     0
  0
BLOCK_RECORD
  5
1D0
330
1
100
AcDbSymbolTableRecord
100
AcDbBlockTableRecord
  2
*D17
340
0
 70
     0
280
     1
281
     0
  0
BLOCK_RECORD
  5
1E4
330
1
100
AcDbSymbolTableRecord
100
AcDbBlockTableRecord
  2
*D18
340
0
 70
     0
280
     1
281
     0
  0
BLOCK_RECORD
  5
1F8
330
1
100
AcDbSymbolTableRecord
100
AcDbBlockTableRecord
  2
*D19
340
0
 70
     0
280
     1
281
     0
  0
BLOCK_RECORD
  5
20C
330
1
100
AcDbSymbolTableRecord
100
AcDbBlockTableRecord
  2
*D20
340
0
 70
     0
280
     1
281
     0
  0
BLOCK_RECORD
  5
21E
330
1
100
AcDbSymbolTableRecord
100
AcDbBlockTableRecord
  2
*D21
340
0
 70
     0
280
     1
281
     0
  0
BLOCK_RECORD
  5
232
330
1
100
AcDbSymbolTableRecord
100
AcDbBlockTableRecord
  2
*D22
340
0
 70
     0
280
     1
281
     0
  0
BLOCK_RECORD
  5
245
330
1
100
AcDbSymbolTableRecord
100
AcDbBlockTableRecord
  2
_ORIGIN
340
0
102
{BLKREFS
331
24F
331
250
331
25B
331
25C
331
267
331
268
331
273
331
274
331
27F
331
280
331
28B
331
28C
331
297
331
298
331
2A3
331
2A4
331
2AF
331
2B0
331
2BB
331
2BC
331
2C7
331
2C8
331
2D3
331
2D4
331
2DF
331
2E0
331
2EB
331
2EC
331
2F7
331
2F8
331
303
331
304
331
30F
331
310
331
31B
331
31C
331
327
331
328
331
334
331
335
331
341
331
342
331
34E
331
34F
331
35A
331
35B
102
}
 70
     0
280
     1
281
     0
  0
BLOCK_RECORD
  5
24A
330
1
100
AcDbSymbolTableRecord
100
AcDbBlockTableRecord
  2
*D24
340
0
 70
     0
280
     1
281
     0
  0
BLOCK_RECORD
  5
256
330
1
100
AcDbSymbolTableRecord
100
AcDbBlockTableRecord
  2
*D25
340
0
 70
     0
280
     1
281
     0
  0
BLOCK_RECORD
  5
262
330
1
100
AcDbSymbolTableRecord
100
AcDbBlockTableRecord
  2
*D26
340
0
 70
     0
280
     1
281
     0
  0
BLOCK_RECORD
  5
26E
330
1
100
AcDbSymbolTableRecord
100
AcDbBlockTableRecord
  2
*D27
340
0
 70
     0
280
     1
281
     0
  0
BLOCK_RECORD
  5
27A
330
1
100
AcDbSymbolTableRecord
100
AcDbBlockTableRecord
  2
*D28
340
0
 70
     0
280
     1
281
     0
  0
BLOCK_RECORD
  5
286
330
1
100
AcDbSymbolTableRecord
100
AcDbBlockTableRecord
  2
*D29
340
0
 70
     0
280
     1
281
     0
  0
BLOCK_RECORD
  5
292
330
1
100
AcDbSymbolTableRecord
100
AcDbBlockTableRecord
  2
*D30
340
0
 70
     0
280
     1
281
     0
  0
BLOCK_RECORD
  5
29E
330
1
100
AcDbSymbolTableRecord
100
AcDbBlockTableRecord
  2
*D31
340
0
 70
     0
280
     1
281
     0
  0
BLOCK_RECORD
  5
2AA
330
1
100
AcDbSymbolTableRecord
100
AcDbBlockTableRecord
  2
*D32
340
0
 70
     0
280
     1
281
     0
  0
BLOCK_RECORD
  5
2B6
330
1
100
AcDbSymbolTableRecord
100
AcDbBlockTableRecord
  2
*D33
340
0
 70
     0
280
     1
281
     0
  0
BLOCK_RECORD
  5
2C2
330
1
100
AcDbSymbolTableRecord
100
AcDbBlockTableRecord
  2
*D34
340
0
 70
     0
280
     1
281
     0
  0
BLOCK_RECORD
  5
2CE
330
1
100
AcDbSymbolTableRecord
100
AcDbBlockTableRecord
  2
*D35
340
0
 70
     0
280
     1
281
     0
  0
BLOCK_RECORD
  5
2DA
330
1
100
AcDbSymbolTableRecord
100
AcDbBlockTableRecord
  2
*D36
340
0
 70
     0
280
     1
281
     0
  0
BLOCK_RECORD
  5
2E6
330
1
100
AcDbSymbolTableRecord
100
AcDbBlockTableRecord
  2
*D37
340
0
 70
     0
280
     1
281
     0
  0
BLOCK_RECORD
  5
2F2
330
1
100
AcDbSymbolTableRecord
100
AcDbBlockTableRecord
  2
*D38
340
0
 70
     0
280
     1
281
     0
  0
BLOCK_RECORD
  5
2FE
330
1
100
AcDbSymbolTableRecord
100
AcDbBlockTableRecord
  2
*D39
340
0
 70
     0
280
     1
281
     0
  0
BLOCK_RECORD
  5
30A
330
1
100
AcDbSymbolTableRecord
100
AcDbBlockTableRecord
  2
*D40
340
0
 70
     0
280
     1
281
     0
  0
BLOCK_RECORD
  5
316
330
1
100
AcDbSymbolTableRecord
100
AcDbBlockTableRecord
  2
*D41
340
0
 70
     0
280
     1
281
     0
  0
BLOCK_RECORD
  5
322
330
1
100
AcDbSymbolTableRecord
100
AcDbBlockTableRecord
  2
*D42
340
0
 70
     0
280
     1
281
     0
  0
BLOCK_RECORD
  5
32E
330
1
100
AcDbSymbolTableRecord
100
AcDbBlockTableRecord
  2
*D43
340
0
 70
     0
280
     1
281
     0
  0
BLOCK_RECORD
  5
33B
330
1
100
AcDbSymbolTableRecord
100
AcDbBlockTableRecord
  2
*D44
340
0
 70
     0
280
     1
281
     0
  0
BLOCK_RECORD
  5
348
330
1
100
AcDbSymbolTableRecord
100
AcDbBlockTableRecord
  2
*D45
340
0
 70
     0
280
     1
281
     0
  0
BLOCK_RECORD
  5
355
330
1
100
AcDbSymbolTableRecord
100
AcDbBlockTableRecord
  2
*D46
340
0
 70
     0
280
     1
281
     0
  0
ENDTAB
  0
ENDSEC
  0
SECTION
  2
BLOCKS
  0
BLOCK
  5
71
330
70
100
AcDbEntity
  8
0
100
AcDbBlockBegin
  2
*Model_Space
 70
     0
 10
0.0
 20
0.0
 30
0.0
  3
*Model_Space
  1

  0
ENDBLK
  5
72
330
70
100
AcDbEntity
  8
0
100
AcDbBlockEnd
  0
BLOCK
  5
6D
330
6C
100
AcDbEntity
 67
     1
  8
0
100
AcDbBlockBegin
  2
*Paper_Space
 70
     0
 10
0.0
 20
0.0
 30
0.0
  3
*Paper_Space
  1

  0
ENDBLK
  5
6E
330
6C
100
AcDbEntity
 67
     1
  8
0
100
AcDbBlockEnd
  0
BLOCK
  5
8D
330
8C
100
AcDbEntity
  8
SIZE
100
AcDbBlockBegin
  2
*D0
 70
     1
 10
0.0
 20
0.0
 30
0.0
  3
*D0
  1

  0
TEXT
  5
8E
330
8C
100
AcDbEntity
  8
SIZE
  6
Continuous
100
AcDbText
 10
-1131.000024437904
 20
407.0599976809857
 30
0.0
 40
2.799999952316284
  1
820
 50
90.00000500895634
 41
0.6999999829701011
  7
STANDARD1
100
AcDbText
  0
LINE
  5
8F
330
8C
100
AcDbEntity
  8
SIZE
  6
Continuous
100
AcDbLine
 10
-686.0
 20
820.0
 30
0.0
 11
-1132.0
 21
820.0
 31
0.0
  0
LINE
  5
90
330
8C
100
AcDbEntity
  8
SIZE
  6
Continuous
100
AcDbLine
 10
-1130.0
 20
820.0
 30
0.0
 11
-1130.0
 21
0.0
 31
0.0
  0
CIRCLE
  5
91
330
8C
100
AcDbEntity
  8
SIZE
  6
Continuous
100
AcDbCircle
 10
-1130.0
 20
820.0
 30
0.0
 40
0.5
  0
CIRCLE
  5
92
330
8C
100
AcDbEntity
  8
SIZE
  6
Continuous
100
AcDbCircle
 10
-1130.0
 20
820.0
 30
0.0
 40
0.4
  0
CIRCLE
  5
93
330
8C
100
AcDbEntity
  8
SIZE
  6
Continuous
100
AcDbCircle
 10
-1130.0
 20
820.0
 30
0.0
 40
0.3
  0
CIRCLE
  5
94
330
8C
100
AcDbEntity
  8
SIZE
  6
Continuous
100
AcDbCircle
 10
-1130.0
 20
820.0
 30
0.0
 40
0.2
  0
CIRCLE
  5
95
330
8C
100
AcDbEntity
  8
SIZE
  6
Continuous
100
AcDbCircle
 10
-1130.0
 20
820.0
 30
0.0
 40
0.1
  0
CIRCLE
  5
96
330
8C
100
AcDbEntity
  8
SIZE
  6
Continuous
100
AcDbCircle
 10
-1130.0
 20
0.0
 30
0.0
 40
0.5
  0
CIRCLE
  5
97
330
8C
100
AcDbEntity
  8
SIZE
  6
Continuous
100
AcDbCircle
 10
-1130.0
 20
0.0
 30
0.0
 40
0.4
  0
CIRCLE
  5
98
330
8C
100
AcDbEntity
  8
SIZE
  6
Continuous
100
AcDbCircle
 10
-1130.0
 20
0.0
 30
0.0
 40
0.3
  0
CIRCLE
  5
99
330
8C
100
AcDbEntity
  8
SIZE
  6
Continuous
100
AcDbCircle
 10
-1130.0
 20
0.0
 30
0.0
 40
0.2
  0
CIRCLE
  5
9A
330
8C
100
AcDbEntity
  8
SIZE
  6
Continuous
100
AcDbCircle
 10
-1130.0
 20
0.0
 30
0.0
 40
0.1
  0
POINT
  5
9B
330
8C
100
AcDbEntity
  8
DEFPOINTS
  6
ByBlock
100
AcDbPoint
 10
-730.0
 20
0.0
 30
0.0
  0
POINT
  5
9C
330
8C
100
AcDbEntity
  8
DEFPOINTS
  6
ByBlock
100
AcDbPoint
 10
-685.0
 20
820.0
 30
0.0
  0
POINT
  5
9D
330
8C
100
AcDbEntity
  8
DEFPOINTS
  6
ByBlock
100
AcDbPoint
 10
-1130.0
 20
820.0
 30
0.0
  0
ENDBLK
  5
9E
330
8C
100
AcDbEntity
  8
SIZE
100
AcDbBlockEnd
  0
BLOCK
  5
A0
330
9F
100
AcDbEntity
  8
SIZE
100
AcDbBlockBegin
  2
*D1
 70
     1
 10
0.0
 20
0.0
 30
0.0
  3
*D1
  1

  0
TEXT
  5
A1
330
9F
100
AcDbEntity
  8
SIZE
  6
Continuous
100
AcDbText
 10
-811.907470641929
 20
682.9994140863417
 30
0.0
 40
2.799999952316284
  1
65
 50
0.000002504478167
 41
0.6999999829701011
  7
STANDARD1
100
AcDbText
  0
LINE
  5
A2
330
9F
100
AcDbEntity
  8
SIZE
  6
Continuous
100
AcDbLine
 10
-665.0
 20
799.0
 30
0.0
 11
-665.0
 21
679.9993896484375
 31
0.0
  0
LINE
  5
A3
330
9F
100
AcDbEntity
  8
SIZE
  6
Continuous
100
AcDbLine
 10
-660.0
 20
681.9993896484374
 30
0.0
 11
-813.3074340820312
 21
681.9993896484374
 31
0.0
  0
CIRCLE
  5
A4
330
9F
100
AcDbEntity
  8
SIZE
  6
Continuous
100
AcDbCircle
 10
-665.0
 20
681.9993896484374
 30
0.0
 40
0.5
  0
CIRCLE
  5
A5
330
9F
100
AcDbEntity
  8
SIZE
  6
Continuous
100
AcDbCircle
 10
-665.0
 20
681.9993896484374
 30
0.0
 40
0.4
  0
CIRCLE
  5
A6
330
9F
100
AcDbEntity
  8
SIZE
  6
Continuous
100
AcDbCircle
 10
-665.0
 20
681.9993896484374
 30
0.0
 40
0.3
  0
CIRCLE
  5
A7
330
9F
100
AcDbEntity
  8
SIZE
  6
Continuous
100
AcDbCircle
 10
-665.0
 20
681.9993896484374
 30
0.0
 40
0.2
  0
CIRCLE
  5
A8
330
9F
100
AcDbEntity
  8
SIZE
  6
Continuous
100
AcDbCircle
 10
-665.0
 20
681.9993896484374
 30
0.0
 40
0.1
  0
CIRCLE
  5
A9
330
9F
100
AcDbEntity
  8
SIZE
  6
Continuous
100
AcDbCircle
 10
-730.0
 20
681.9993896484374
 30
0.0
 40
0.5
  0
CIRCLE
  5
AA
330
9F
100
AcDbEntity
  8
SIZE
  6
Continuous
100
AcDbCircle
 10
-730.0
 20
681.9993896484374
 30
0.0
 40
0.4
  0
CIRCLE
  5
AB
330
9F
100
AcDbEntity
  8
SIZE
  6
Continuous
100
AcDbCircle
 10
-730.0
 20
681.9993896484374
 30
0.0
 40
0.3
  0
CIRCLE
  5
AC
330
9F
100
AcDbEntity
  8
SIZE
  6
Continuous
100
AcDbCircle
 10
-730.0
 20
681.9993896484374
 30
0.0
 40
0.2
  0
CIRCLE
  5
AD
330
9F
100
AcDbEntity
  8
SIZE
  6
Continuous
100
AcDbCircle
 10
-730.0
 20
681.9993896484374
 30
0.0
 40
0.1
  0
POINT
  5
AE
330
9F
100
AcDbEntity
  8
DEFPOINTS
  6
ByBlock
100
AcDbPoint
 10
-730.0
 20
0.0
 30
0.0
  0
POINT
  5
AF
330
9F
100
AcDbEntity
  8
DEFPOINTS
  6
ByBlock
100
AcDbPoint
 10
-665.0
 20
800.0
 30
0.0
  0
POINT
  5
B0
330
9F
100
AcDbEntity
  8
DEFPOINTS
  6
ByBlock
100
AcDbPoint
 10
-665.0
 20
681.9993896484374
 30
0.0
  0
ENDBLK
  5
B1
330
9F
100
AcDbEntity
  8
SIZE
100
AcDbBlockEnd
  0
BLOCK
  5
B3
330
B2
100
AcDbEntity
  8
SIZE
100
AcDbBlockBegin
  2
*D2
 70
     1
 10
0.0
 20
0.0
 30
0.0
  3
*D2
  1

  0
TEXT
  5
B4
330
B2
100
AcDbEntity
  8
SIZE
  6
Continuous
100
AcDbText
 10
-808.7177733763038
 20
400.999993920326
 30
0.0
 40
2.799999952316284
  1
87
 50
0.000002504478167
 41
0.6999999829701011
  7
STANDARD1
100
AcDbText
  0
LINE
  5
B5
330
B2
100
AcDbEntity
  8
SIZE
  6
Continuous
100
AcDbLine
 10
-643.0
 20
221.0
 30
0.0
 11
-643.0
 21
402.0
 31
0.0
  0
LINE
  5
B6
330
B2
100
AcDbEntity
  8
SIZE
  6
Continuous
100
AcDbLine
 10
-638.0
 20
400.0
 30
0.0
 11
-810.1177978515625
 21
400.0
 31
0.0
  0
CIRCLE
  5
B7
330
B2
100
AcDbEntity
  8
SIZE
  6
Continuous
100
AcDbCircle
 10
-643.0
 20
400.0
 30
0.0
 40
0.5
  0
CIRCLE
  5
B8
330
B2
100
AcDbEntity
  8
SIZE
  6
Continuous
100
AcDbCircle
 10
-643.0
 20
400.0
 30
0.0
 40
0.4
  0
CIRCLE
  5
B9
330
B2
100
AcDbEntity
  8
SIZE
  6
Continuous
100
AcDbCircle
 10
-643.0
 20
400.0
 30
0.0
 40
0.3
  0
CIRCLE
  5
BA
330
B2
100
AcDbEntity
  8
SIZE
  6
Continuous
100
AcDbCircle
 10
-643.0
 20
400.0
 30
0.0
 40
0.2
  0
CIRCLE
  5
BB
330
B2
100
AcDbEntity
  8
SIZE
  6
Continuous
100
AcDbCircle
 10
-643.0
 20
400.0
 30
0.0
 40
0.1
  0
CIRCLE
  5
BC
330
B2
100
AcDbEntity
  8
SIZE
  6
Continuous
100
AcDbCircle
 10
-730.0
 20
400.0
 30
0.0
 40
0.5
  0
CIRCLE
  5
BD
330
B2
100
AcDbEntity
  8
SIZE
  6
Continuous
100
AcDbCircle
 10
-730.0
 20
400.0
 30
0.0
 40
0.4
  0
CIRCLE
  5
BE
330
B2
100
AcDbEntity
  8
SIZE
  6
Continuous
100
AcDbCircle
 10
-730.0
 20
400.0
 30
0.0
 40
0.3
  0
CIRCLE
  5
BF
330
B2
100
AcDbEntity
  8
SIZE
  6
Continuous
100
AcDbCircle
 10
-730.0
 20
400.0
 30
0.0
 40
0.2
  0
CIRCLE
  5
C0
330
B2
100
AcDbEntity
  8
SIZE
  6
Continuous
100
AcDbCircle
 10
-730.0
 20
400.0
 30
0.0
 40
0.1
  0
POINT
  5
C1
330
B2
100
AcDbEntity
  8
DEFPOINTS
  6
ByBlock
100
AcDbPoint
 10
-730.0
 20
0.0
 30
0.0
  0
POINT
  5
C2
330
B2
100
AcDbEntity
  8
DEFPOINTS
  6
ByBlock
100
AcDbPoint
 10
-643.0
 20
220.0
 30
0.0
  0
POINT
  5
C3
330
B2
100
AcDbEntity
  8
DEFPOINTS
  6
ByBlock
100
AcDbPoint
 10
-643.0
 20
400.0
 30
0.0
  0
ENDBLK
  5
C4
330
B2
100
AcDbEntity
  8
SIZE
100
AcDbBlockEnd
  0
BLOCK
  5
C6
330
C5
100
AcDbEntity
  8
SIZE
100
AcDbBlockBegin
  2
*D3
 70
     1
 10
0.0
 20
0.0
 30
0.0
  3
*D3
  1

  0
TEXT
  5
C7
330
C5
100
AcDbEntity
  8
SIZE
  6
Continuous
100
AcDbText
 10
-808.0529174192728
 20
300.9999939203262
 30
0.0
 40
2.799999952316284
  1
65
 50
0.000002504478167
 41
0.6999999829701011
  7
STANDARD1
100
AcDbText
  0
LINE
  5
C8
330
C5
100
AcDbEntity
  8
SIZE
  6
Continuous
100
AcDbLine
 10
-665.0
 20
221.0
 30
0.0
 11
-665.0
 21
302.0
 31
0.0
  0
LINE
  5
C9
330
C5
100
AcDbEntity
  8
SIZE
  6
Continuous
100
AcDbLine
 10
-660.0
 20
300.0
 30
0.0
 11
-809.452941894531
 21
300.0
 31
0.0
  0
CIRCLE
  5
CA
330
C5
100
AcDbEntity
  8
SIZE
  6
Continuous
100
AcDbCircle
 10
-665.0
 20
300.0
 30
0.0
 40
0.5
  0
CIRCLE
  5
CB
330
C5
100
AcDbEntity
  8
SIZE
  6
Continuous
100
AcDbCircle
 10
-665.0
 20
300.0
 30
0.0
 40
0.4
  0
CIRCLE
  5
CC
330
C5
100
AcDbEntity
  8
SIZE
  6
Continuous
100
AcDbCircle
 10
-665.0
 20
300.0
 30
0.0
 40
0.3
  0
CIRCLE
  5
CD
330
C5
100
AcDbEntity
  8
SIZE
  6
Continuous
100
AcDbCircle
 10
-665.0
 20
300.0
 30
0.0
 40
0.2
  0
CIRCLE
  5
CE
330
C5
100
AcDbEntity
  8
SIZE
  6
Continuous
100
AcDbCircle
 10
-665.0
 20
300.0
 30
0.0
 40
0.1
  0
CIRCLE
  5
CF
330
C5
100
AcDbEntity
  8
SIZE
  6
Continuous
100
AcDbCircle
 10
-730.0
 20
300.0
 30
0.0
 40
0.5
  0
CIRCLE
  5
D0
330
C5
100
AcDbEntity
  8
SIZE
  6
Continuous
100
AcDbCircle
 10
-730.0
 20
300.0
 30
0.0
 40
0.4
  0
CIRCLE
  5
D1
330
C5
100
AcDbEntity
  8
SIZE
  6
Continuous
100
AcDbCircle
 10
-730.0
 20
300.0
 30
0.0
 40
0.3
  0
CIRCLE
  5
D2
330
C5
100
AcDbEntity
  8
SIZE
  6
Continuous
100
AcDbCircle
 10
-730.0
 20
300.0
 30
0.0
 40
0.2
  0
CIRCLE
  5
D3
330
C5
100
AcDbEntity
  8
SIZE
  6
Continuous
100
AcDbCircle
 10
-730.0
 20
300.0
 30
0.0
 40
0.1
  0
POINT
  5
D4
330
C5
100
AcDbEntity
  8
DEFPOINTS
  6
ByBlock
100
AcDbPoint
 10
-730.0
 20
0.0
 30
0.0
  0
POINT
  5
D5
330
C5
100
AcDbEntity
  8
DEFPOINTS
  6
ByBlock
100
AcDbPoint
 10
-665.0
 20
220.0
 30
0.0
  0
POINT
  5
D6
330
C5
100
AcDbEntity
  8
DEFPOINTS
  6
ByBlock
100
AcDbPoint
 10
-665.0
 20
300.0
 30
0.0
  0
ENDBLK
  5
D7
330
C5
100
AcDbEntity
  8
SIZE
100
AcDbBlockEnd
  0
BLOCK
  5
D9
330
D8
100
AcDbEntity
  8
SIZE
100
AcDbBlockBegin
  2
*D4
 70
     1
 10
0.0
 20
0.0
 30
0.0
  3
*D4
  1

  0
TEXT
  5
DA
330
D8
100
AcDbEntity
  8
SIZE
  6
Continuous
100
AcDbText
 10
-931.000024437904
 20
83.30999768098562
 30
0.0
 40
2.799999952316284
  1
173
 50
90.00000500895634
 41
0.6999999829701011
  7
STANDARD1
100
AcDbText
  0
LINE
  5
DB
330
D8
100
AcDbEntity
  8
SIZE
  6
Continuous
100
AcDbLine
 10
-594.5
 20
172.5
 30
0.0
 11
-932.0
 21
172.5
 31
0.0
  0
LINE
  5
DC
330
D8
100
AcDbEntity
  8
SIZE
  6
Continuous
100
AcDbLine
 10
-930.0
 20
172.5
 30
0.0
 11
-930.0
 21
0.000000000000024
 31
0.0
  0
CIRCLE
  5
DD
330
D8
100
AcDbEntity
  8
SIZE
  6
Continuous
100
AcDbCircle
 10
-930.0
 20
172.5
 30
0.0
 40
0.5
  0
CIRCLE
  5
DE
330
D8
100
AcDbEntity
  8
SIZE
  6
Continuous
100
AcDbCircle
 10
-930.0
 20
172.5
 30
0.0
 40
0.4
  0
CIRCLE
  5
DF
330
D8
100
AcDbEntity
  8
SIZE
  6
Continuous
100
AcDbCircle
 10
-930.0
 20
172.5
 30
0.0
 40
0.3
  0
CIRCLE
  5
E0
330
D8
100
AcDbEntity
  8
SIZE
  6
Continuous
100
AcDbCircle
 10
-930.0
 20
172.5
 30
0.0
 40
0.2
  0
CIRCLE
  5
E1
330
D8
100
AcDbEntity
  8
SIZE
  6
Continuous
100
AcDbCircle
 10
-930.0
 20
172.5
 30
0.0
 40
0.1
  0
CIRCLE
  5
E2
330
D8
100
AcDbEntity
  8
SIZE
  6
Continuous
100
AcDbCircle
 10
-930.0
 20
0.000000000000024
 30
0.0
 40
0.5
  0
CIRCLE
  5
E3
330
D8
100
AcDbEntity
  8
SIZE
  6
Continuous
100
AcDbCircle
 10
-930.0
 20
0.000000000000024
 30
0.0
 40
0.4
  0
CIRCLE
  5
E4
330
D8
100
AcDbEntity
  8
SIZE
  6
Continuous
100
AcDbCircle
 10
-930.0
 20
0.000000000000024
 30
0.0
 40
0.3
  0
CIRCLE
  5
E5
330
D8
100
AcDbEntity
  8
SIZE
  6
Continuous
100
AcDbCircle
 10
-930.0
 20
0.000000000000024
 30
0.0
 40
0.2
  0
CIRCLE
  5
E6
330
D8
100
AcDbEntity
  8
SIZE
  6
Continuous
100
AcDbCircle
 10
-930.0
 20
0.000000000000024
 30
0.0
 40
0.1
  0
POINT
  5
E7
330
D8
100
AcDbEntity
  8
DEFPOINTS
  6
ByBlock
100
AcDbPoint
 10
-730.0
 20
0.0
 30
0.0
  0
POINT
  5
E8
330
D8
100
AcDbEntity
  8
DEFPOINTS
  6
ByBlock
100
AcDbPoint
 10
-593.5
 20
172.5
 30
0.0
  0
POINT
  5
E9
330
D8
100
AcDbEntity
  8
DEFPOINTS
  6
ByBlock
100
AcDbPoint
 10
-930.0
 20
172.5
 30
0.0
  0
ENDBLK
  5
EA
330
D8
100
AcDbEntity
  8
SIZE
100
AcDbBlockEnd
  0
BLOCK
  5
EC
330
EB
100
AcDbEntity
  8
SIZE
100
AcDbBlockBegin
  2
*D5
 70
     1
 10
0.0
 20
0.0
 30
0.0
  3
*D5
  1

  0
TEXT
  5
ED
330
EB
100
AcDbEntity
  8
SIZE
  6
Continuous
100
AcDbText
 10
-1231.000024437904
 20
442.5599976809857
 30
0.0
 40
2.799999952316284
  1
891
 50
90.00000500895634
 41
0.6999999829701011
  7
STANDARD1
100
AcDbText
  0
LINE
  5
EE
330
EB
100
AcDbEntity
  8
SIZE
  6
Continuous
100
AcDbLine
 10
-686.0
 20
891.0
 30
0.0
 11
-1232.0
 21
891.0
 31
0.0
  0
LINE
  5
EF
330
EB
100
AcDbEntity
  8
SIZE
  6
Continuous
100
AcDbLine
 10
-1230.0
 20
891.0
 30
0.0
 11
-1230.0
 21
0.0
 31
0.0
  0
CIRCLE
  5
F0
330
EB
100
AcDbEntity
  8
SIZE
  6
Continuous
100
AcDbCircle
 10
-1230.0
 20
891.0
 30
0.0
 40
0.5
  0
CIRCLE
  5
F1
330
EB
100
AcDbEntity
  8
SIZE
  6
Continuous
100
AcDbCircle
 10
-1230.0
 20
891.0
 30
0.0
 40
0.4
  0
CIRCLE
  5
F2
330
EB
100
AcDbEntity
  8
SIZE
  6
Continuous
100
AcDbCircle
 10
-1230.0
 20
891.0
 30
0.0
 40
0.3
  0
CIRCLE
  5
F3
330
EB
100
AcDbEntity
  8
SIZE
  6
Continuous
100
AcDbCircle
 10
-1230.0
 20
891.0
 30
0.0
 40
0.2
  0
CIRCLE
  5
F4
330
EB
100
AcDbEntity
  8
SIZE
  6
Continuous
100
AcDbCircle
 10
-1230.0
 20
891.0
 30
0.0
 40
0.1
  0
CIRCLE
  5
F5
330
EB
100
AcDbEntity
  8
SIZE
  6
Continuous
100
AcDbCircle
 10
-1230.0
 20
0.0
 30
0.0
 40
0.5
  0
CIRCLE
  5
F6
330
EB
100
AcDbEntity
  8
SIZE
  6
Continuous
100
AcDbCircle
 10
-1230.0
 20
0.0
 30
0.0
 40
0.4
  0
CIRCLE
  5
F7
330
EB
100
AcDbEntity
  8
SIZE
  6
Continuous
100
AcDbCircle
 10
-1230.0
 20
0.0
 30
0.0
 40
0.3
  0
CIRCLE
  5
F8
330
EB
100
AcDbEntity
  8
SIZE
  6
Continuous
100
AcDbCircle
 10
-1230.0
 20
0.0
 30
0.0
 40
0.2
  0
CIRCLE
  5
F9
330
EB
100
AcDbEntity
  8
SIZE
  6
Continuous
100
AcDbCircle
 10
-1230.0
 20
0.0
 30
0.0
 40
0.1
  0
POINT
  5
FA
330
EB
100
AcDbEntity
  8
DEFPOINTS
  6
ByBlock
100
AcDbPoint
 10
-1330.0
 20
0.0
 30
0.0
  0
POINT
  5
FB
330
EB
100
AcDbEntity
  8
DEFPOINTS
  6
ByBlock
100
AcDbPoint
 10
-685.0
 20
891.0
 30
0.0
  0
POINT
  5
FC
330
EB
100
AcDbEntity
  8
DEFPOINTS
  6
ByBlock
100
AcDbPoint
 10
-1230.0
 20
891.0
 30
0.0
  0
ENDBLK
  5
FD
330
EB
100
AcDbEntity
  8
SIZE
100
AcDbBlockEnd
  0
BLOCK
  5
FF
330
FE
100
AcDbEntity
  8
SIZE
100
AcDbBlockBegin
  2
*D6
 70
     1
 10
0.0
 20
0.0
 30
0.0
  3
*D6
  1

  0
TEXT
  5
100
330
FE
100
AcDbEntity
  8
SIZE
  6
Continuous
100
AcDbText
 10
349.0000060796738
 20
922.5800172122356
 30
0.0
 40
2.799999952316284
  1
1853
 50
90.00000500895634
 41
0.6999999829701011
  7
STANDARD1
100
AcDbText
  0
LINE
  5
101
330
FE
100
AcDbEntity
  8
SIZE
  6
Continuous
100
AcDbLine
 10
171.0
 20
1853.0
 30
0.0
 11
352.0
 21
1853.0
 31
0.0
  0
LINE
  5
102
330
FE
100
AcDbEntity
  8
SIZE
  6
Continuous
100
AcDbLine
 10
350.0
 20
1853.0
 30
0.0
 11
350.0
 21
0.0
 31
0.0
  0
CIRCLE
  5
103
330
FE
100
AcDbEntity
  8
SIZE
  6
Continuous
100
AcDbCircle
 10
350.0
 20
1853.0
 30
0.0
 40
0.5
  0
CIRCLE
  5
104
330
FE
100
AcDbEntity
  8
SIZE
  6
Continuous
100
AcDbCircle
 10
350.0
 20
1853.0
 30
0.0
 40
0.4
  0
CIRCLE
  5
105
330
FE
100
AcDbEntity
  8
SIZE
  6
Continuous
100
AcDbCircle
 10
350.0
 20
1853.0
 30
0.0
 40
0.3
  0
CIRCLE
  5
106
330
FE
100
AcDbEntity
  8
SIZE
  6
Continuous
100
AcDbCircle
 10
350.0
 20
1853.0
 30
0.0
 40
0.2
  0
CIRCLE
  5
107
330
FE
100
AcDbEntity
  8
SIZE
  6
Continuous
100
AcDbCircle
 10
350.0
 20
1853.0
 30
0.0
 40
0.1
  0
CIRCLE
  5
108
330
FE
100
AcDbEntity
  8
SIZE
  6
Continuous
100
AcDbCircle
 10
350.0
 20
0.0
 30
0.0
 40
0.5
  0
CIRCLE
  5
109
330
FE
100
AcDbEntity
  8
SIZE
  6
Continuous
100
AcDbCircle
 10
350.0
 20
0.0
 30
0.0
 40
0.4
  0
CIRCLE
  5
10A
330
FE
100
AcDbEntity
  8
SIZE
  6
Continuous
100
AcDbCircle
 10
350.0
 20
0.0
 30
0.0
 40
0.3
  0
CIRCLE
  5
10B
330
FE
100
AcDbEntity
  8
SIZE
  6
Continuous
100
AcDbCircle
 10
350.0
 20
0.0
 30
0.0
 40
0.2
  0
CIRCLE
  5
10C
330
FE
100
AcDbEntity
  8
SIZE
  6
Continuous
100
AcDbCircle
 10
350.0
 20
0.0
 30
0.0
 40
0.1
  0
POINT
  5
10D
330
FE
100
AcDbEntity
  8
DEFPOINTS
  6
ByBlock
100
AcDbPoint
 10
-56.0
 20
0.0
 30
0.0
  0
POINT
  5
10E
330
FE
100
AcDbEntity
  8
DEFPOINTS
  6
ByBlock
100
AcDbPoint
 10
170.0
 20
1853.0
 30
0.0
  0
POINT
  5
10F
330
FE
100
AcDbEntity
  8
DEFPOINTS
  6
ByBlock
100
AcDbPoint
 10
350.0
 20
1853.0
 30
0.0
  0
ENDBLK
  5
110
330
FE
100
AcDbEntity
  8
SIZE
100
AcDbBlockEnd
  0
BLOCK
  5
112
330
111
100
AcDbEntity
  8
SIZE
100
AcDbBlockBegin
  2
*D7
 70
     1
 10
0.0
 20
0.0
 30
0.0
  3
*D7
  1

  0
TEXT
  5
113
330
111
100
AcDbEntity
  8
SIZE
  6
Continuous
100
AcDbText
 10
70.09999853531704
 20
2180.999902367592
 30
0.0
 40
2.799999952316284
  1
最大
 50
0.000002504478167
 41
0.583333319141751
  7
STANDARD1
100
AcDbText
  0
TEXT
  5
114
330
111
100
AcDbEntity
  8
SIZE
  6
Continuous
100
AcDbText
 10
74.01999670426234
 20
2180.999902367592
 30
0.0
 40
2.799999952316284
  1
150
 50
0.000002504478167
 41
0.6999999829701011
  7
STANDARD1
100
AcDbText
  0
LINE
  5
115
330
111
100
AcDbEntity
  8
SIZE
  6
Continuous
100
AcDbLine
 10
150.0
 20
1874.0
 30
0.0
 11
150.0
 21
2182.0
 31
0.0
  0
LINE
  5
116
330
111
100
AcDbEntity
  8
SIZE
  6
Continuous
100
AcDbLine
 10
150.0
 20
2180.0
 30
0.0
 11
0.000000000000192
 21
2180.0
 31
0.0
  0
CIRCLE
  5
117
330
111
100
AcDbEntity
  8
SIZE
  6
Continuous
100
AcDbCircle
 10
150.0
 20
2180.0
 30
0.0
 40
0.5
  0
CIRCLE
  5
118
330
111
100
AcDbEntity
  8
SIZE
  6
Continuous
100
AcDbCircle
 10
150.0
 20
2180.0
 30
0.0
 40
0.4
  0
CIRCLE
  5
119
330
111
100
AcDbEntity
  8
SIZE
  6
Continuous
100
AcDbCircle
 10
150.0
 20
2180.0
 30
0.0
 40
0.3
  0
CIRCLE
  5
11A
330
111
100
AcDbEntity
  8
SIZE
  6
Continuous
100
AcDbCircle
 10
150.0
 20
2180.0
 30
0.0
 40
0.2
  0
CIRCLE
  5
11B
330
111
100
AcDbEntity
  8
SIZE
  6
Continuous
100
AcDbCircle
 10
150.0
 20
2180.0
 30
0.0
 40
0.1
  0
CIRCLE
  5
11C
330
111
100
AcDbEntity
  8
SIZE
  6
Continuous
100
AcDbCircle
 10
0.000000000000192
 20
2180.0
 30
0.0
 40
0.5
  0
CIRCLE
  5
11D
330
111
100
AcDbEntity
  8
SIZE
  6
Continuous
100
AcDbCircle
 10
0.000000000000192
 20
2180.0
 30
0.0
 40
0.4
  0
CIRCLE
  5
11E
330
111
100
AcDbEntity
  8
SIZE
  6
Continuous
100
AcDbCircle
 10
0.000000000000192
 20
2180.0
 30
0.0
 40
0.3
  0
CIRCLE
  5
11F
330
111
100
AcDbEntity
  8
SIZE
  6
Continuous
100
AcDbCircle
 10
0.000000000000192
 20
2180.0
 30
0.0
 40
0.2
  0
CIRCLE
  5
120
330
111
100
AcDbEntity
  8
SIZE
  6
Continuous
100
AcDbCircle
 10
0.000000000000192
 20
2180.0
 30
0.0
 40
0.1
  0
POINT
  5
121
330
111
100
AcDbEntity
  8
DEFPOINTS
  6
ByBlock
100
AcDbPoint
 10
0.000000000000171
 20
1830.0
 30
0.0
  0
POINT
  5
122
330
111
100
AcDbEntity
  8
DEFPOINTS
  6
ByBlock
100
AcDbPoint
 10
150.0
 20
1873.0
 30
0.0
  0
POINT
  5
123
330
111
100
AcDbEntity
  8
DEFPOINTS
  6
ByBlock
100
AcDbPoint
 10
150.0
 20
2180.0
 30
0.0
  0
ENDBLK
  5
124
330
111
100
AcDbEntity
  8
SIZE
100
AcDbBlockEnd
  0
BLOCK
  5
126
330
125
100
AcDbEntity
  8
SIZE
100
AcDbBlockBegin
  2
*D8
 70
     1
 10
0.0
 20
0.0
 30
0.0
  3
*D8
  1

  0
TEXT
  5
127
330
125
100
AcDbEntity
  8
SIZE
  6
Continuous
100
AcDbText
 10
-1481.000024437904
 20
1011.080017212235
 30
0.0
 40
2.799999952316284
  1
2030
 50
90.00000500895634
 41
0.6999999829701011
  7
STANDARD1
100
AcDbText
  0
LINE
  5
128
330
125
100
AcDbEntity
  8
SIZE
  6
Continuous
100
AcDbLine
 10
-1331.0
 20
2030.0
 30
0.0
 11
-1482.0
 21
2030.0
 31
0.0
  0
LINE
  5
129
330
125
100
AcDbEntity
  8
SIZE
  6
Continuous
100
AcDbLine
 10
-1331.0
 20
0.0
 30
0.0
 11
-1482.0
 21
0.000000000000019
 31
0.0
  0
LINE
  5
12A
330
125
100
AcDbEntity
  8
SIZE
  6
Continuous
100
AcDbLine
 10
-1480.0
 20
2030.0
 30
0.0
 11
-1480.0
 21
0.000000000000018
 31
0.0
  0
CIRCLE
  5
12B
330
125
100
AcDbEntity
  8
SIZE
  6
Continuous
100
AcDbCircle
 10
-1480.0
 20
2030.0
 30
0.0
 40
0.5
  0
CIRCLE
  5
12C
330
125
100
AcDbEntity
  8
SIZE
  6
Continuous
100
AcDbCircle
 10
-1480.0
 20
2030.0
 30
0.0
 40
0.4
  0
CIRCLE
  5
12D
330
125
100
AcDbEntity
  8
SIZE
  6
Continuous
100
AcDbCircle
 10
-1480.0
 20
2030.0
 30
0.0
 40
0.3
  0
CIRCLE
  5
12E
330
125
100
AcDbEntity
  8
SIZE
  6
Continuous
100
AcDbCircle
 10
-1480.0
 20
2030.0
 30
0.0
 40
0.2
  0
CIRCLE
  5
12F
330
125
100
AcDbEntity
  8
SIZE
  6
Continuous
100
AcDbCircle
 10
-1480.0
 20
2030.0
 30
0.0
 40
0.1
  0
CIRCLE
  5
130
330
125
100
AcDbEntity
  8
SIZE
  6
Continuous
100
AcDbCircle
 10
-1480.0
 20
0.000000000000018
 30
0.0
 40
0.5
  0
CIRCLE
  5
131
330
125
100
AcDbEntity
  8
SIZE
  6
Continuous
100
AcDbCircle
 10
-1480.0
 20
0.000000000000018
 30
0.0
 40
0.4
  0
CIRCLE
  5
132
330
125
100
AcDbEntity
  8
SIZE
  6
Continuous
100
AcDbCircle
 10
-1480.0
 20
0.000000000000018
 30
0.0
 40
0.3
  0
CIRCLE
  5
133
330
125
100
AcDbEntity
  8
SIZE
  6
Continuous
100
AcDbCircle
 10
-1480.0
 20
0.000000000000018
 30
0.0
 40
0.2
  0
CIRCLE
  5
134
330
125
100
AcDbEntity
  8
SIZE
  6
Continuous
100
AcDbCircle
 10
-1480.0
 20
0.000000000000018
 30
0.0
 40
0.1
  0
POINT
  5
135
330
125
100
AcDbEntity
  8
DEFPOINTS
  6
ByBlock
100
AcDbPoint
 10
-1330.0
 20
0.0
 30
0.0
  0
POINT
  5
136
330
125
100
AcDbEntity
  8
DEFPOINTS
  6
ByBlock
100
AcDbPoint
 10
-1330.0
 20
2030.0
 30
0.0
  0
POINT
  5
137
330
125
100
AcDbEntity
  8
DEFPOINTS
  6
ByBlock
100
AcDbPoint
 10
-1480.0
 20
2030.0
 30
0.0
  0
ENDBLK
  5
138
330
125
100
AcDbEntity
  8
SIZE
100
AcDbBlockEnd
  0
BLOCK
  5
13A
330
139
100
AcDbEntity
  8
SIZE
100
AcDbBlockBegin
  2
*D9
 70
     1
 10
0.0
 20
0.0
 30
0.0
  3
*D9
  1

  0
TEXT
  5
13B
330
139
100
AcDbEntity
  8
SIZE
  6
Continuous
100
AcDbText
 10
-1032.939941345054
 20
2180.999902367592
 30
0.0
 40
2.799999952316284
  1
600
 50
0.000002504478167
 41
0.6999999829701011
  7
STANDARD1
100
AcDbText
  0
LINE
  5
13C
330
139
100
AcDbEntity
  8
SIZE
  6
Continuous
100
AcDbLine
 10
-1330.0
 20
2031.0
 30
0.0
 11
-1330.0
 21
2182.0
 31
0.0
  0
LINE
  5
13D
330
139
100
AcDbEntity
  8
SIZE
  6
Continuous
100
AcDbLine
 10
-730.0
 20
2180.0
 30
0.0
 11
-1330.0
 21
2180.0
 31
0.0
  0
CIRCLE
  5
13E
330
139
100
AcDbEntity
  8
SIZE
  6
Continuous
100
AcDbCircle
 10
-730.0
 20
2180.0
 30
0.0
 40
0.5
  0
CIRCLE
  5
13F
330
139
100
AcDbEntity
  8
SIZE
  6
Continuous
100
AcDbCircle
 10
-730.0
 20
2180.0
 30
0.0
 40
0.4
  0
CIRCLE
  5
140
330
139
100
AcDbEntity
  8
SIZE
  6
Continuous
100
AcDbCircle
 10
-730.0
 20
2180.0
 30
0.0
 40
0.3
  0
CIRCLE
  5
141
330
139
100
AcDbEntity
  8
SIZE
  6
Continuous
100
AcDbCircle
 10
-730.0
 20
2180.0
 30
0.0
 40
0.2
  0
CIRCLE
  5
142
330
139
100
AcDbEntity
  8
SIZE
  6
Continuous
100
AcDbCircle
 10
-730.0
 20
2180.0
 30
0.0
 40
0.1
  0
CIRCLE
  5
143
330
139
100
AcDbEntity
  8
SIZE
  6
Continuous
100
AcDbCircle
 10
-1330.0
 20
2180.0
 30
0.0
 40
0.5
  0
CIRCLE
  5
144
330
139
100
AcDbEntity
  8
SIZE
  6
Continuous
100
AcDbCircle
 10
-1330.0
 20
2180.0
 30
0.0
 40
0.4
  0
CIRCLE
  5
145
330
139
100
AcDbEntity
  8
SIZE
  6
Continuous
100
AcDbCircle
 10
-1330.0
 20
2180.0
 30
0.0
 40
0.3
  0
CIRCLE
  5
146
330
139
100
AcDbEntity
  8
SIZE
  6
Continuous
100
AcDbCircle
 10
-1330.0
 20
2180.0
 30
0.0
 40
0.2
  0
CIRCLE
  5
147
330
139
100
AcDbEntity
  8
SIZE
  6
Continuous
100
AcDbCircle
 10
-1330.0
 20
2180.0
 30
0.0
 40
0.1
  0
POINT
  5
148
330
139
100
AcDbEntity
  8
DEFPOINTS
  6
ByBlock
100
AcDbPoint
 10
-1330.0
 20
2030.0
 30
0.0
  0
POINT
  5
149
330
139
100
AcDbEntity
  8
DEFPOINTS
  6
ByBlock
100
AcDbPoint
 10
-730.0
 20
2030.0
 30
0.0
  0
POINT
  5
14A
330
139
100
AcDbEntity
  8
DEFPOINTS
  6
ByBlock
100
AcDbPoint
 10
-730.0
 20
2180.0
 30
0.0
  0
ENDBLK
  5
14B
330
139
100
AcDbEntity
  8
SIZE
100
AcDbBlockEnd
  0
BLOCK
  5
14D
330
14C
100
AcDbEntity
  8
SIZE
100
AcDbBlockBegin
  2
*D10
 70
     1
 10
0.0
 20
0.0
 30
0.0
  3
*D10
  1

  0
TEXT
  5
14E
330
14C
100
AcDbEntity
  8
SIZE
  6
Continuous
100
AcDbText
 10
-367.9400023802103
 20
2180.999902367592
 30
0.0
 40
2.799999952316284
  1
730
 50
0.000002504478167
 41
0.6999999829701011
  7
STANDARD1
100
AcDbText
  0
LINE
  5
14F
330
14C
100
AcDbEntity
  8
SIZE
  6
Continuous
100
AcDbLine
 10
0.000000000000171
 20
2031.0
 30
0.0
 11
0.00000000000018
 21
2182.0
 31
0.0
  0
LINE
  5
150
330
14C
100
AcDbEntity
  8
SIZE
  6
Continuous
100
AcDbLine
 10
-730.0
 20
2031.0
 30
0.0
 11
-730.0
 21
2182.0
 31
0.0
  0
LINE
  5
151
330
14C
100
AcDbEntity
  8
SIZE
  6
Continuous
100
AcDbLine
 10
0.00000000000018
 20
2180.0
 30
0.0
 11
-730.0
 21
2180.0
 31
0.0
  0
CIRCLE
  5
152
330
14C
100
AcDbEntity
  8
SIZE
  6
Continuous
100
AcDbCircle
 10
0.00000000000018
 20
2180.0
 30
0.0
 40
0.5
  0
CIRCLE
  5
153
330
14C
100
AcDbEntity
  8
SIZE
  6
Continuous
100
AcDbCircle
 10
0.00000000000018
 20
2180.0
 30
0.0
 40
0.4
  0
CIRCLE
  5
154
330
14C
100
AcDbEntity
  8
SIZE
  6
Continuous
100
AcDbCircle
 10
0.00000000000018
 20
2180.0
 30
0.0
 40
0.3
  0
CIRCLE
  5
155
330
14C
100
AcDbEntity
  8
SIZE
  6
Continuous
100
AcDbCircle
 10
0.00000000000018
 20
2180.0
 30
0.0
 40
0.2
  0
CIRCLE
  5
156
330
14C
100
AcDbEntity
  8
SIZE
  6
Continuous
100
AcDbCircle
 10
0.00000000000018
 20
2180.0
 30
0.0
 40
0.1
  0
CIRCLE
  5
157
330
14C
100
AcDbEntity
  8
SIZE
  6
Continuous
100
AcDbCircle
 10
-730.0
 20
2180.0
 30
0.0
 40
0.5
  0
CIRCLE
  5
158
330
14C
100
AcDbEntity
  8
SIZE
  6
Continuous
100
AcDbCircle
 10
-730.0
 20
2180.0
 30
0.0
 40
0.4
  0
CIRCLE
  5
159
330
14C
100
AcDbEntity
  8
SIZE
  6
Continuous
100
AcDbCircle
 10
-730.0
 20
2180.0
 30
0.0
 40
0.3
  0
CIRCLE
  5
15A
330
14C
100
AcDbEntity
  8
SIZE
  6
Continuous
100
AcDbCircle
 10
-730.0
 20
2180.0
 30
0.0
 40
0.2
  0
CIRCLE
  5
15B
330
14C
100
AcDbEntity
  8
SIZE
  6
Continuous
100
AcDbCircle
 10
-730.0
 20
2180.0
 30
0.0
 40
0.1
  0
POINT
  5
15C
330
14C
100
AcDbEntity
  8
DEFPOINTS
  6
ByBlock
100
AcDbPoint
 10
-730.0
 20
2030.0
 30
0.0
  0
POINT
  5
15D
330
14C
100
AcDbEntity
  8
DEFPOINTS
  6
ByBlock
100
AcDbPoint
 10
0.000000000000171
 20
2030.0
 30
0.0
  0
POINT
  5
15E
330
14C
100
AcDbEntity
  8
DEFPOINTS
  6
ByBlock
100
AcDbPoint
 10
0.00000000000018
 20
2180.0
 30
0.0
  0
ENDBLK
  5
15F
330
14C
100
AcDbEntity
  8
SIZE
100
AcDbBlockEnd
  0
BLOCK
  5
161
330
160
100
AcDbEntity
  8
SIZE
100
AcDbBlockBegin
  2
*D11
 70
     1
 10
0.0
 20
0.0
 30
0.0
  3
*D11
  1

  0
TEXT
  5
162
330
160
100
AcDbEntity
  8
SIZE
  6
Continuous
100
AcDbText
 10
-682.9400023802102
 20
-149.0000060796736
 30
0.0
 40
2.799999952316284
  1
100
 50
0.000002504478167
 41
0.6999999829701011
  7
STANDARD1
100
AcDbText
  0
LINE
  5
163
330
160
100
AcDbEntity
  8
SIZE
  6
Continuous
100
AcDbLine
 10
-630.0
 20
134.0
 30
0.0
 11
-630.0
 21
-152.0
 31
0.0
  0
LINE
  5
164
330
160
100
AcDbEntity
  8
SIZE
  6
Continuous
100
AcDbLine
 10
-630.0
 20
-150.0
 30
0.0
 11
-730.0
 21
-150.0
 31
0.0
  0
CIRCLE
  5
165
330
160
100
AcDbEntity
  8
SIZE
  6
Continuous
100
AcDbCircle
 10
-630.0
 20
-150.0
 30
0.0
 40
0.5
  0
CIRCLE
  5
166
330
160
100
AcDbEntity
  8
SIZE
  6
Continuous
100
AcDbCircle
 10
-630.0
 20
-150.0
 30
0.0
 40
0.4
  0
CIRCLE
  5
167
330
160
100
AcDbEntity
  8
SIZE
  6
Continuous
100
AcDbCircle
 10
-630.0
 20
-150.0
 30
0.0
 40
0.3
  0
CIRCLE
  5
168
330
160
100
AcDbEntity
  8
SIZE
  6
Continuous
100
AcDbCircle
 10
-630.0
 20
-150.0
 30
0.0
 40
0.2
  0
CIRCLE
  5
169
330
160
100
AcDbEntity
  8
SIZE
  6
Continuous
100
AcDbCircle
 10
-630.0
 20
-150.0
 30
0.0
 40
0.1
  0
CIRCLE
  5
16A
330
160
100
AcDbEntity
  8
SIZE
  6
Continuous
100
AcDbCircle
 10
-730.0
 20
-150.0
 30
0.0
 40
0.5
  0
CIRCLE
  5
16B
330
160
100
AcDbEntity
  8
SIZE
  6
Continuous
100
AcDbCircle
 10
-730.0
 20
-150.0
 30
0.0
 40
0.4
  0
CIRCLE
  5
16C
330
160
100
AcDbEntity
  8
SIZE
  6
Continuous
100
AcDbCircle
 10
-730.0
 20
-150.0
 30
0.0
 40
0.3
  0
CIRCLE
  5
16D
330
160
100
AcDbEntity
  8
SIZE
  6
Continuous
100
AcDbCircle
 10
-730.0
 20
-150.0
 30
0.0
 40
0.2
  0
CIRCLE
  5
16E
330
160
100
AcDbEntity
  8
SIZE
  6
Continuous
100
AcDbCircle
 10
-730.0
 20
-150.0
 30
0.0
 40
0.1
  0
POINT
  5
16F
330
160
100
AcDbEntity
  8
DEFPOINTS
  6
ByBlock
100
AcDbPoint
 10
-730.0
 20
0.0
 30
0.0
  0
POINT
  5
170
330
160
100
AcDbEntity
  8
DEFPOINTS
  6
ByBlock
100
AcDbPoint
 10
-630.0
 20
135.0
 30
0.0
  0
POINT
  5
171
330
160
100
AcDbEntity
  8
DEFPOINTS
  6
ByBlock
100
AcDbPoint
 10
-630.0
 20
-150.0
 30
0.0
  0
ENDBLK
  5
172
330
160
100
AcDbEntity
  8
SIZE
100
AcDbBlockEnd
  0
BLOCK
  5
174
330
173
100
AcDbEntity
  8
SIZE
100
AcDbBlockBegin
  2
*D12
 70
     1
 10
0.0
 20
0.0
 30
0.0
  3
*D12
  1

  0
TEXT
  5
175
330
173
100
AcDbEntity
  8
SIZE
  6
Continuous
100
AcDbText
 10
-831.000024437904
 20
74.55999768098559
 30
0.0
 40
2.799999952316284
  1
155
 50
90.00000500895634
 41
0.6999999829701011
  7
STANDARD1
100
AcDbText
  0
LINE
  5
176
330
173
100
AcDbEntity
  8
SIZE
  6
Continuous
100
AcDbLine
 10
-651.0
 20
155.0
 30
0.0
 11
-832.0
 21
155.0
 31
0.0
  0
LINE
  5
177
330
173
100
AcDbEntity
  8
SIZE
  6
Continuous
100
AcDbLine
 10
-830.0
 20
155.0
 30
0.0
 11
-830.0
 21
0.00000000000002
 31
0.0
  0
CIRCLE
  5
178
330
173
100
AcDbEntity
  8
SIZE
  6
Continuous
100
AcDbCircle
 10
-830.0
 20
155.0
 30
0.0
 40
0.5
  0
CIRCLE
  5
179
330
173
100
AcDbEntity
  8
SIZE
  6
Continuous
100
AcDbCircle
 10
-830.0
 20
155.0
 30
0.0
 40
0.4
  0
CIRCLE
  5
17A
330
173
100
AcDbEntity
  8
SIZE
  6
Continuous
100
AcDbCircle
 10
-830.0
 20
155.0
 30
0.0
 40
0.3
  0
CIRCLE
  5
17B
330
173
100
AcDbEntity
  8
SIZE
  6
Continuous
100
AcDbCircle
 10
-830.0
 20
155.0
 30
0.0
 40
0.2
  0
CIRCLE
  5
17C
330
173
100
AcDbEntity
  8
SIZE
  6
Continuous
100
AcDbCircle
 10
-830.0
 20
155.0
 30
0.0
 40
0.1
  0
CIRCLE
  5
17D
330
173
100
AcDbEntity
  8
SIZE
  6
Continuous
100
AcDbCircle
 10
-830.0
 20
0.00000000000002
 30
0.0
 40
0.5
  0
CIRCLE
  5
17E
330
173
100
AcDbEntity
  8
SIZE
  6
Continuous
100
AcDbCircle
 10
-830.0
 20
0.00000000000002
 30
0.0
 40
0.4
  0
CIRCLE
  5
17F
330
173
100
AcDbEntity
  8
SIZE
  6
Continuous
100
AcDbCircle
 10
-830.0
 20
0.00000000000002
 30
0.0
 40
0.3
  0
CIRCLE
  5
180
330
173
100
AcDbEntity
  8
SIZE
  6
Continuous
100
AcDbCircle
 10
-830.0
 20
0.00000000000002
 30
0.0
 40
0.2
  0
CIRCLE
  5
181
330
173
100
AcDbEntity
  8
SIZE
  6
Continuous
100
AcDbCircle
 10
-830.0
 20
0.00000000000002
 30
0.0
 40
0.1
  0
POINT
  5
182
330
173
100
AcDbEntity
  8
DEFPOINTS
  6
ByBlock
100
AcDbPoint
 10
-666.0
 20
0.0
 30
0.0
  0
POINT
  5
183
330
173
100
AcDbEntity
  8
DEFPOINTS
  6
ByBlock
100
AcDbPoint
 10
-650.0
 20
155.0
 30
0.0
  0
POINT
  5
184
330
173
100
AcDbEntity
  8
DEFPOINTS
  6
ByBlock
100
AcDbPoint
 10
-830.0
 20
155.0
 30
0.0
  0
ENDBLK
  5
185
330
173
100
AcDbEntity
  8
SIZE
100
AcDbBlockEnd
  0
BLOCK
  5
187
330
186
100
AcDbEntity
  8
SIZE
100
AcDbBlockBegin
  2
*D13
 70
     1
 10
0.0
 20
0.0
 30
0.0
  3
*D13
  1

  0
TEXT
  5
188
330
186
100
AcDbEntity
  8
SIZE
  6
Continuous
100
AcDbText
 10
149.0000060796736
 20
97.05999768098564
 30
0.0
 40
2.799999952316284
  1
200
 50
90.00000500895634
 41
0.6999999829701011
  7
STANDARD1
100
AcDbText
  0
LINE
  5
189
330
186
100
AcDbEntity
  8
SIZE
  6
Continuous
100
AcDbLine
 10
1.0
 20
200.0
 30
0.0
 11
152.0
 21
200.0
 31
0.0
  0
LINE
  5
18A
330
186
100
AcDbEntity
  8
SIZE
  6
Continuous
100
AcDbLine
 10
150.0
 20
0.0
 30
0.0
 11
150.0
 21
200.0
 31
0.0
  0
CIRCLE
  5
18B
330
186
100
AcDbEntity
  8
SIZE
  6
Continuous
100
AcDbCircle
 10
150.0
 20
0.0
 30
0.0
 40
0.5
  0
CIRCLE
  5
18C
330
186
100
AcDbEntity
  8
SIZE
  6
Continuous
100
AcDbCircle
 10
150.0
 20
0.0
 30
0.0
 40
0.4
  0
CIRCLE
  5
18D
330
186
100
AcDbEntity
  8
SIZE
  6
Continuous
100
AcDbCircle
 10
150.0
 20
0.0
 30
0.0
 40
0.3
  0
CIRCLE
  5
18E
330
186
100
AcDbEntity
  8
SIZE
  6
Continuous
100
AcDbCircle
 10
150.0
 20
0.0
 30
0.0
 40
0.2
  0
CIRCLE
  5
18F
330
186
100
AcDbEntity
  8
SIZE
  6
Continuous
100
AcDbCircle
 10
150.0
 20
0.0
 30
0.0
 40
0.1
  0
CIRCLE
  5
190
330
186
100
AcDbEntity
  8
SIZE
  6
Continuous
100
AcDbCircle
 10
150.0
 20
200.0
 30
0.0
 40
0.5
  0
CIRCLE
  5
191
330
186
100
AcDbEntity
  8
SIZE
  6
Continuous
100
AcDbCircle
 10
150.0
 20
200.0
 30
0.0
 40
0.4
  0
CIRCLE
  5
192
330
186
100
AcDbEntity
  8
SIZE
  6
Continuous
100
AcDbCircle
 10
150.0
 20
200.0
 30
0.0
 40
0.3
  0
CIRCLE
  5
193
330
186
100
AcDbEntity
  8
SIZE
  6
Continuous
100
AcDbCircle
 10
150.0
 20
200.0
 30
0.0
 40
0.2
  0
CIRCLE
  5
194
330
186
100
AcDbEntity
  8
SIZE
  6
Continuous
100
AcDbCircle
 10
150.0
 20
200.0
 30
0.0
 40
0.1
  0
POINT
  5
195
330
186
100
AcDbEntity
  8
DEFPOINTS
  6
ByBlock
100
AcDbPoint
 10
0.0
 20
200.0
 30
0.0
  0
POINT
  5
196
330
186
100
AcDbEntity
  8
DEFPOINTS
  6
ByBlock
100
AcDbPoint
 10
-56.0
 20
0.0
 30
0.0
  0
POINT
  5
197
330
186
100
AcDbEntity
  8
DEFPOINTS
  6
ByBlock
100
AcDbPoint
 10
150.0
 20
0.0
 30
0.0
  0
ENDBLK
  5
198
330
186
100
AcDbEntity
  8
SIZE
100
AcDbBlockEnd
  0
BLOCK
  5
19A
330
199
100
AcDbEntity
  8
SIZE
100
AcDbBlockBegin
  2
*D14
 70
     1
 10
0.0
 20
0.0
 30
0.0
  3
*D14
  1

  0
TEXT
  5
19B
330
199
100
AcDbEntity
  8
SIZE
  6
Continuous
100
AcDbText
 10
-689.9600219114605
 20
-349.0000060796738
 30
0.0
 40
2.799999952316284
  1
84
 50
0.000002504478167
 41
0.6999999829701011
  7
STANDARD1
100
AcDbText
  0
LINE
  5
19C
330
199
100
AcDbEntity
  8
SIZE
  6
Continuous
100
AcDbLine
 10
-646.0
 20
-350.0
 30
0.0
 11
-730.0
 21
-350.0
 31
0.0
  0
CIRCLE
  5
19D
330
199
100
AcDbEntity
  8
SIZE
  6
Continuous
100
AcDbCircle
 10
-646.0
 20
-350.0
 30
0.0
 40
0.5
  0
CIRCLE
  5
19E
330
199
100
AcDbEntity
  8
SIZE
  6
Continuous
100
AcDbCircle
 10
-646.0
 20
-350.0
 30
0.0
 40
0.4
  0
CIRCLE
  5
19F
330
199
100
AcDbEntity
  8
SIZE
  6
Continuous
100
AcDbCircle
 10
-646.0
 20
-350.0
 30
0.0
 40
0.3
  0
CIRCLE
  5
1A0
330
199
100
AcDbEntity
  8
SIZE
  6
Continuous
100
AcDbCircle
 10
-646.0
 20
-350.0
 30
0.0
 40
0.2
  0
CIRCLE
  5
1A1
330
199
100
AcDbEntity
  8
SIZE
  6
Continuous
100
AcDbCircle
 10
-646.0
 20
-350.0
 30
0.0
 40
0.1
  0
CIRCLE
  5
1A2
330
199
100
AcDbEntity
  8
SIZE
  6
Continuous
100
AcDbCircle
 10
-730.0
 20
-350.0
 30
0.0
 40
0.5
  0
CIRCLE
  5
1A3
330
199
100
AcDbEntity
  8
SIZE
  6
Continuous
100
AcDbCircle
 10
-730.0
 20
-350.0
 30
0.0
 40
0.4
  0
CIRCLE
  5
1A4
330
199
100
AcDbEntity
  8
SIZE
  6
Continuous
100
AcDbCircle
 10
-730.0
 20
-350.0
 30
0.0
 40
0.3
  0
CIRCLE
  5
1A5
330
199
100
AcDbEntity
  8
SIZE
  6
Continuous
100
AcDbCircle
 10
-730.0
 20
-350.0
 30
0.0
 40
0.2
  0
CIRCLE
  5
1A6
330
199
100
AcDbEntity
  8
SIZE
  6
Continuous
100
AcDbCircle
 10
-730.0
 20
-350.0
 30
0.0
 40
0.1
  0
POINT
  5
1A7
330
199
100
AcDbEntity
  8
DEFPOINTS
  6
ByBlock
100
AcDbPoint
 10
-730.0
 20
0.0
 30
0.0
  0
POINT
  5
1A8
330
199
100
AcDbEntity
  8
DEFPOINTS
  6
ByBlock
100
AcDbPoint
 10
-646.0
 20
-20.0
 30
0.0
  0
POINT
  5
1A9
330
199
100
AcDbEntity
  8
DEFPOINTS
  6
ByBlock
100
AcDbPoint
 10
-646.0
 20
-350.0
 30
0.0
  0
ENDBLK
  5
1AA
330
199
100
AcDbEntity
  8
SIZE
100
AcDbBlockEnd
  0
BLOCK
  5
1AC
330
1AB
100
AcDbEntity
  8
SIZE
100
AcDbBlockBegin
  2
*D15
 70
     1
 10
0.0
 20
0.0
 30
0.0
  3
*D15
  1

  0
TEXT
  5
1AD
330
1AB
100
AcDbEntity
  8
SIZE
  6
Continuous
100
AcDbText
 10
-362.3159179075541
 20
-249.0000060796738
 30
0.0
 40
2.799999952316284
  1
534
 50
0.000002504478167
 41
0.6999999829701011
  7
STANDARD1
100
AcDbText
  0
LINE
  5
1AE
330
1AB
100
AcDbEntity
  8
SIZE
  6
Continuous
100
AcDbLine
 10
-112.0
 20
-21.0
 30
0.0
 11
-112.0
 21
-252.0
 31
0.0
  0
LINE
  5
1AF
330
1AB
100
AcDbEntity
  8
SIZE
  6
Continuous
100
AcDbLine
 10
-112.0
 20
-250.0
 30
0.0
 11
-646.0
 21
-250.0
 31
0.0
  0
CIRCLE
  5
1B0
330
1AB
100
AcDbEntity
  8
SIZE
  6
Continuous
100
AcDbCircle
 10
-112.0
 20
-250.0
 30
0.0
 40
0.5
  0
CIRCLE
  5
1B1
330
1AB
100
AcDbEntity
  8
SIZE
  6
Continuous
100
AcDbCircle
 10
-112.0
 20
-250.0
 30
0.0
 40
0.4
  0
CIRCLE
  5
1B2
330
1AB
100
AcDbEntity
  8
SIZE
  6
Continuous
100
AcDbCircle
 10
-112.0
 20
-250.0
 30
0.0
 40
0.3
  0
CIRCLE
  5
1B3
330
1AB
100
AcDbEntity
  8
SIZE
  6
Continuous
100
AcDbCircle
 10
-112.0
 20
-250.0
 30
0.0
 40
0.2
  0
CIRCLE
  5
1B4
330
1AB
100
AcDbEntity
  8
SIZE
  6
Continuous
100
AcDbCircle
 10
-112.0
 20
-250.0
 30
0.0
 40
0.1
  0
CIRCLE
  5
1B5
330
1AB
100
AcDbEntity
  8
SIZE
  6
Continuous
100
AcDbCircle
 10
-646.0
 20
-250.0
 30
0.0
 40
0.5
  0
CIRCLE
  5
1B6
330
1AB
100
AcDbEntity
  8
SIZE
  6
Continuous
100
AcDbCircle
 10
-646.0
 20
-250.0
 30
0.0
 40
0.4
  0
CIRCLE
  5
1B7
330
1AB
100
AcDbEntity
  8
SIZE
  6
Continuous
100
AcDbCircle
 10
-646.0
 20
-250.0
 30
0.0
 40
0.3
  0
CIRCLE
  5
1B8
330
1AB
100
AcDbEntity
  8
SIZE
  6
Continuous
100
AcDbCircle
 10
-646.0
 20
-250.0
 30
0.0
 40
0.2
  0
CIRCLE
  5
1B9
330
1AB
100
AcDbEntity
  8
SIZE
  6
Continuous
100
AcDbCircle
 10
-646.0
 20
-250.0
 30
0.0
 40
0.1
  0
POINT
  5
1BA
330
1AB
100
AcDbEntity
  8
DEFPOINTS
  6
ByBlock
100
AcDbPoint
 10
-646.0
 20
-20.0
 30
0.0
  0
POINT
  5
1BB
330
1AB
100
AcDbEntity
  8
DEFPOINTS
  6
ByBlock
100
AcDbPoint
 10
-112.0
 20
-20.0
 30
0.0
  0
POINT
  5
1BC
330
1AB
100
AcDbEntity
  8
DEFPOINTS
  6
ByBlock
100
AcDbPoint
 10
-112.0
 20
-250.0
 30
0.0
  0
ENDBLK
  5
1BD
330
1AB
100
AcDbEntity
  8
SIZE
100
AcDbBlockEnd
  0
BLOCK
  5
1BF
330
1BE
100
AcDbEntity
  8
SIZE
100
AcDbBlockBegin
  2
*D16
 70
     1
 10
0.0
 20
0.0
 30
0.0
  3
*D16
  1

  0
TEXT
  5
1C0
330
1BE
100
AcDbEntity
  8
SIZE
  6
Continuous
100
AcDbText
 10
-58.93999856551303
 20
-249.0000060796738
 30
0.0
 40
2.799999952316284
  1
112
 50
0.000002504478167
 41
0.6999999829701011
  7
STANDARD1
100
AcDbText
  0
LINE
  5
1C1
330
1BE
100
AcDbEntity
  8
SIZE
  6
Continuous
100
AcDbLine
 10
-112.0
 20
-250.0
 30
0.0
 11
-0.000000000000083
 21
-250.0
 31
0.0
  0
CIRCLE
  5
1C2
330
1BE
100
AcDbEntity
  8
SIZE
  6
Continuous
100
AcDbCircle
 10
-112.0
 20
-250.0
 30
0.0
 40
0.5
  0
CIRCLE
  5
1C3
330
1BE
100
AcDbEntity
  8
SIZE
  6
Continuous
100
AcDbCircle
 10
-112.0
 20
-250.0
 30
0.0
 40
0.4
  0
CIRCLE
  5
1C4
330
1BE
100
AcDbEntity
  8
SIZE
  6
Continuous
100
AcDbCircle
 10
-112.0
 20
-250.0
 30
0.0
 40
0.3
  0
CIRCLE
  5
1C5
330
1BE
100
AcDbEntity
  8
SIZE
  6
Continuous
100
AcDbCircle
 10
-112.0
 20
-250.0
 30
0.0
 40
0.2
  0
CIRCLE
  5
1C6
330
1BE
100
AcDbEntity
  8
SIZE
  6
Continuous
100
AcDbCircle
 10
-112.0
 20
-250.0
 30
0.0
 40
0.1
  0
CIRCLE
  5
1C7
330
1BE
100
AcDbEntity
  8
SIZE
  6
Continuous
100
AcDbCircle
 10
-0.000000000000083
 20
-250.0
 30
0.0
 40
0.5
  0
CIRCLE
  5
1C8
330
1BE
100
AcDbEntity
  8
SIZE
  6
Continuous
100
AcDbCircle
 10
-0.000000000000083
 20
-250.0
 30
0.0
 40
0.4
  0
CIRCLE
  5
1C9
330
1BE
100
AcDbEntity
  8
SIZE
  6
Continuous
100
AcDbCircle
 10
-0.000000000000083
 20
-250.0
 30
0.0
 40
0.3
  0
CIRCLE
  5
1CA
330
1BE
100
AcDbEntity
  8
SIZE
  6
Continuous
100
AcDbCircle
 10
-0.000000000000083
 20
-250.0
 30
0.0
 40
0.2
  0
CIRCLE
  5
1CB
330
1BE
100
AcDbEntity
  8
SIZE
  6
Continuous
100
AcDbCircle
 10
-0.000000000000083
 20
-250.0
 30
0.0
 40
0.1
  0
POINT
  5
1CC
330
1BE
100
AcDbEntity
  8
DEFPOINTS
  6
ByBlock
100
AcDbPoint
 10
0.0
 20
200.0
 30
0.0
  0
POINT
  5
1CD
330
1BE
100
AcDbEntity
  8
DEFPOINTS
  6
ByBlock
100
AcDbPoint
 10
-112.0
 20
-20.0
 30
0.0
  0
POINT
  5
1CE
330
1BE
100
AcDbEntity
  8
DEFPOINTS
  6
ByBlock
100
AcDbPoint
 10
-112.0
 20
-250.0
 30
0.0
  0
ENDBLK
  5
1CF
330
1BE
100
AcDbEntity
  8
SIZE
100
AcDbBlockEnd
  0
BLOCK
  5
1D1
330
1D0
100
AcDbEntity
  8
SIZE
100
AcDbBlockBegin
  2
*D17
 70
     1
 10
0.0
 20
0.0
 30
0.0
  3
*D17
  1

  0
TEXT
  5
1D2
330
1D0
100
AcDbEntity
  8
SIZE
  6
Continuous
100
AcDbText
 10
-366.7440184934916
 20
-449.0000060796737
 30
0.0
 40
2.799999952316284
  1
730
 50
0.000002504478167
 41
0.6999999829701011
  7
STANDARD1
100
AcDbText
  0
LINE
  5
1D3
330
1D0
100
AcDbEntity
  8
SIZE
  6
Continuous
100
AcDbLine
 10
-730.0
 20
-1.0
 30
0.0
 11
-730.0
 21
-452.0
 31
0.0
  0
LINE
  5
1D4
330
1D0
100
AcDbEntity
  8
SIZE
  6
Continuous
100
AcDbLine
 10
0.0
 20
199.0
 30
0.0
 11
-0.000000000000119
 21
-452.0
 31
0.0
  0
LINE
  5
1D5
330
1D0
100
AcDbEntity
  8
SIZE
  6
Continuous
100
AcDbLine
 10
-730.0
 20
-450.0
 30
0.0
 11
-0.000000000000119
 21
-450.0
 31
0.0
  0
CIRCLE
  5
1D6
330
1D0
100
AcDbEntity
  8
SIZE
  6
Continuous
100
AcDbCircle
 10
-730.0
 20
-450.0
 30
0.0
 40
0.5
  0
CIRCLE
  5
1D7
330
1D0
100
AcDbEntity
  8
SIZE
  6
Continuous
100
AcDbCircle
 10
-730.0
 20
-450.0
 30
0.0
 40
0.4
  0
CIRCLE
  5
1D8
330
1D0
100
AcDbEntity
  8
SIZE
  6
Continuous
100
AcDbCircle
 10
-730.0
 20
-450.0
 30
0.0
 40
0.3
  0
CIRCLE
  5
1D9
330
1D0
100
AcDbEntity
  8
SIZE
  6
Continuous
100
AcDbCircle
 10
-730.0
 20
-450.0
 30
0.0
 40
0.2
  0
CIRCLE
  5
1DA
330
1D0
100
AcDbEntity
  8
SIZE
  6
Continuous
100
AcDbCircle
 10
-730.0
 20
-450.0
 30
0.0
 40
0.1
  0
CIRCLE
  5
1DB
330
1D0
100
AcDbEntity
  8
SIZE
  6
Continuous
100
AcDbCircle
 10
-0.000000000000119
 20
-450.0
 30
0.0
 40
0.5
  0
CIRCLE
  5
1DC
330
1D0
100
AcDbEntity
  8
SIZE
  6
Continuous
100
AcDbCircle
 10
-0.000000000000119
 20
-450.0
 30
0.0
 40
0.4
  0
CIRCLE
  5
1DD
330
1D0
100
AcDbEntity
  8
SIZE
  6
Continuous
100
AcDbCircle
 10
-0.000000000000119
 20
-450.0
 30
0.0
 40
0.3
  0
CIRCLE
  5
1DE
330
1D0
100
AcDbEntity
  8
SIZE
  6
Continuous
100
AcDbCircle
 10
-0.000000000000119
 20
-450.0
 30
0.0
 40
0.2
  0
CIRCLE
  5
1DF
330
1D0
100
AcDbEntity
  8
SIZE
  6
Continuous
100
AcDbCircle
 10
-0.000000000000119
 20
-450.0
 30
0.0
 40
0.1
  0
POINT
  5
1E0
330
1D0
100
AcDbEntity
  8
DEFPOINTS
  6
ByBlock
100
AcDbPoint
 10
0.0
 20
200.0
 30
0.0
  0
POINT
  5
1E1
330
1D0
100
AcDbEntity
  8
DEFPOINTS
  6
ByBlock
100
AcDbPoint
 10
-730.0
 20
0.0
 30
0.0
  0
POINT
  5
1E2
330
1D0
100
AcDbEntity
  8
DEFPOINTS
  6
ByBlock
100
AcDbPoint
 10
-730.0
 20
-450.0
 30
0.0
  0
ENDBLK
  5
1E3
330
1D0
100
AcDbEntity
  8
SIZE
100
AcDbBlockEnd
  0
BLOCK
  5
1E5
330
1E4
100
AcDbEntity
  8
SIZE
100
AcDbBlockBegin
  2
*D18
 70
     1
 10
0.0
 20
0.0
 30
0.0
  3
*D18
  1

  0
TEXT
  5
1E6
330
1E4
100
AcDbEntity
  8
SIZE
  6
Continuous
100
AcDbText
 10
249.0000060796738
 20
1927.060058716141
 30
0.0
 40
2.799999952316284
  1
200
 50
90.00000500895634
 41
0.6999999829701011
  7
STANDARD1
100
AcDbText
  0
LINE
  5
1E7
330
1E4
100
AcDbEntity
  8
SIZE
  6
Continuous
100
AcDbLine
 10
1.00000000000017
 20
2030.0
 30
0.0
 11
252.0
 21
2030.0
 31
0.0
  0
LINE
  5
1E8
330
1E4
100
AcDbEntity
  8
SIZE
  6
Continuous
100
AcDbLine
 10
151.0
 20
1830.0
 30
0.0
 11
252.0
 21
1830.0
 31
0.0
  0
LINE
  5
1E9
330
1E4
100
AcDbEntity
  8
SIZE
  6
Continuous
100
AcDbLine
 10
250.0
 20
2030.0
 30
0.0
 11
250.0
 21
1830.0
 31
0.0
  0
CIRCLE
  5
1EA
330
1E4
100
AcDbEntity
  8
SIZE
  6
Continuous
100
AcDbCircle
 10
250.0
 20
2030.0
 30
0.0
 40
0.5
  0
CIRCLE
  5
1EB
330
1E4
100
AcDbEntity
  8
SIZE
  6
Continuous
100
AcDbCircle
 10
250.0
 20
2030.0
 30
0.0
 40
0.4
  0
CIRCLE
  5
1EC
330
1E4
100
AcDbEntity
  8
SIZE
  6
Continuous
100
AcDbCircle
 10
250.0
 20
2030.0
 30
0.0
 40
0.3
  0
CIRCLE
  5
1ED
330
1E4
100
AcDbEntity
  8
SIZE
  6
Continuous
100
AcDbCircle
 10
250.0
 20
2030.0
 30
0.0
 40
0.2
  0
CIRCLE
  5
1EE
330
1E4
100
AcDbEntity
  8
SIZE
  6
Continuous
100
AcDbCircle
 10
250.0
 20
2030.0
 30
0.0
 40
0.1
  0
CIRCLE
  5
1EF
330
1E4
100
AcDbEntity
  8
SIZE
  6
Continuous
100
AcDbCircle
 10
250.0
 20
1830.0
 30
0.0
 40
0.5
  0
CIRCLE
  5
1F0
330
1E4
100
AcDbEntity
  8
SIZE
  6
Continuous
100
AcDbCircle
 10
250.0
 20
1830.0
 30
0.0
 40
0.4
  0
CIRCLE
  5
1F1
330
1E4
100
AcDbEntity
  8
SIZE
  6
Continuous
100
AcDbCircle
 10
250.0
 20
1830.0
 30
0.0
 40
0.3
  0
CIRCLE
  5
1F2
330
1E4
100
AcDbEntity
  8
SIZE
  6
Continuous
100
AcDbCircle
 10
250.0
 20
1830.0
 30
0.0
 40
0.2
  0
CIRCLE
  5
1F3
330
1E4
100
AcDbEntity
  8
SIZE
  6
Continuous
100
AcDbCircle
 10
250.0
 20
1830.0
 30
0.0
 40
0.1
  0
POINT
  5
1F4
330
1E4
100
AcDbEntity
  8
DEFPOINTS
  6
ByBlock
100
AcDbPoint
 10
150.0
 20
1830.0
 30
0.0
  0
POINT
  5
1F5
330
1E4
100
AcDbEntity
  8
DEFPOINTS
  6
ByBlock
100
AcDbPoint
 10
0.000000000000171
 20
2030.0
 30
0.0
  0
POINT
  5
1F6
330
1E4
100
AcDbEntity
  8
DEFPOINTS
  6
ByBlock
100
AcDbPoint
 10
250.0
 20
2030.0
 30
0.0
  0
ENDBLK
  5
1F7
330
1E4
100
AcDbEntity
  8
SIZE
100
AcDbBlockEnd
  0
BLOCK
  5
1F9
330
1F8
100
AcDbEntity
  8
SIZE
100
AcDbBlockBegin
  2
*D19
 70
     1
 10
0.0
 20
0.0
 30
0.0
  3
*D19
  1

  0
TEXT
  5
1FA
330
1F8
100
AcDbEntity
  8
SIZE
  6
Continuous
100
AcDbText
 10
449.0000060796737
 20
933.5800172122356
 30
0.0
 40
2.799999952316284
  1
1875
 50
90.00000500895634
 41
0.6999999829701011
  7
STANDARD1
100
AcDbText
  0
LINE
  5
1FB
330
1F8
100
AcDbEntity
  8
SIZE
  6
Continuous
100
AcDbLine
 10
151.0
 20
1875.0
 30
0.0
 11
452.0
 21
1875.0
 31
0.0
  0
LINE
  5
1FC
330
1F8
100
AcDbEntity
  8
SIZE
  6
Continuous
100
AcDbLine
 10
-91.0
 20
0.0
 30
0.0
 11
452.0
 21
0.0
 31
0.0
  0
LINE
  5
1FD
330
1F8
100
AcDbEntity
  8
SIZE
  6
Continuous
100
AcDbLine
 10
450.0
 20
1875.0
 30
0.0
 11
450.0
 21
0.0
 31
0.0
  0
CIRCLE
  5
1FE
330
1F8
100
AcDbEntity
  8
SIZE
  6
Continuous
100
AcDbCircle
 10
450.0
 20
1875.0
 30
0.0
 40
0.5
  0
CIRCLE
  5
1FF
330
1F8
100
AcDbEntity
  8
SIZE
  6
Continuous
100
AcDbCircle
 10
450.0
 20
1875.0
 30
0.0
 40
0.4
  0
CIRCLE
  5
200
330
1F8
100
AcDbEntity
  8
SIZE
  6
Continuous
100
AcDbCircle
 10
450.0
 20
1875.0
 30
0.0
 40
0.3
  0
CIRCLE
  5
201
330
1F8
100
AcDbEntity
  8
SIZE
  6
Continuous
100
AcDbCircle
 10
450.0
 20
1875.0
 30
0.0
 40
0.2
  0
CIRCLE
  5
202
330
1F8
100
AcDbEntity
  8
SIZE
  6
Continuous
100
AcDbCircle
 10
450.0
 20
1875.0
 30
0.0
 40
0.1
  0
CIRCLE
  5
203
330
1F8
100
AcDbEntity
  8
SIZE
  6
Continuous
100
AcDbCircle
 10
450.0
 20
0.0
 30
0.0
 40
0.5
  0
CIRCLE
  5
204
330
1F8
100
AcDbEntity
  8
SIZE
  6
Continuous
100
AcDbCircle
 10
450.0
 20
0.0
 30
0.0
 40
0.4
  0
CIRCLE
  5
205
330
1F8
100
AcDbEntity
  8
SIZE
  6
Continuous
100
AcDbCircle
 10
450.0
 20
0.0
 30
0.0
 40
0.3
  0
CIRCLE
  5
206
330
1F8
100
AcDbEntity
  8
SIZE
  6
Continuous
100
AcDbCircle
 10
450.0
 20
0.0
 30
0.0
 40
0.2
  0
CIRCLE
  5
207
330
1F8
100
AcDbEntity
  8
SIZE
  6
Continuous
100
AcDbCircle
 10
450.0
 20
0.0
 30
0.0
 40
0.1
  0
POINT
  5
208
330
1F8
100
AcDbEntity
  8
DEFPOINTS
  6
ByBlock
100
AcDbPoint
 10
-92.0
 20
0.0
 30
0.0
  0
POINT
  5
209
330
1F8
100
AcDbEntity
  8
DEFPOINTS
  6
ByBlock
100
AcDbPoint
 10
150.0
 20
1875.0
 30
0.0
  0
POINT
  5
20A
330
1F8
100
AcDbEntity
  8
DEFPOINTS
  6
ByBlock
100
AcDbPoint
 10
450.0
 20
1875.0
 30
0.0
  0
ENDBLK
  5
20B
330
1F8
100
AcDbEntity
  8
SIZE
100
AcDbBlockEnd
  0
BLOCK
  5
20D
330
20C
100
AcDbEntity
  8
SIZE
100
AcDbBlockBegin
  2
*D20
 70
     1
 10
0.0
 20
0.0
 30
0.0
  3
*D20
  1

  0
TEXT
  5
20E
330
20C
100
AcDbEntity
  8
SIZE
  6
Continuous
100
AcDbText
 10
-110.9400023802103
 20
-349.0000060796738
 30
0.0
 40
2.799999952316284
  1
216
 50
0.000002504478167
 41
0.6999999829701011
  7
STANDARD1
100
AcDbText
  0
LINE
  5
20F
330
20C
100
AcDbEntity
  8
SIZE
  6
Continuous
100
AcDbLine
 10
-0.000000000000101
 20
-350.0
 30
0.0
 11
-216.0
 21
-350.0
 31
0.0
  0
CIRCLE
  5
210
330
20C
100
AcDbEntity
  8
SIZE
  6
Continuous
100
AcDbCircle
 10
-0.000000000000101
 20
-350.0
 30
0.0
 40
0.5
  0
CIRCLE
  5
211
330
20C
100
AcDbEntity
  8
SIZE
  6
Continuous
100
AcDbCircle
 10
-0.000000000000101
 20
-350.0
 30
0.0
 40
0.4
  0
CIRCLE
  5
212
330
20C
100
AcDbEntity
  8
SIZE
  6
Continuous
100
AcDbCircle
 10
-0.000000000000101
 20
-350.0
 30
0.0
 40
0.3
  0
CIRCLE
  5
213
330
20C
100
AcDbEntity
  8
SIZE
  6
Continuous
100
AcDbCircle
 10
-0.000000000000101
 20
-350.0
 30
0.0
 40
0.2
  0
CIRCLE
  5
214
330
20C
100
AcDbEntity
  8
SIZE
  6
Continuous
100
AcDbCircle
 10
-0.000000000000101
 20
-350.0
 30
0.0
 40
0.1
  0
CIRCLE
  5
215
330
20C
100
AcDbEntity
  8
SIZE
  6
Continuous
100
AcDbCircle
 10
-216.0
 20
-350.0
 30
0.0
 40
0.5
  0
CIRCLE
  5
216
330
20C
100
AcDbEntity
  8
SIZE
  6
Continuous
100
AcDbCircle
 10
-216.0
 20
-350.0
 30
0.0
 40
0.4
  0
CIRCLE
  5
217
330
20C
100
AcDbEntity
  8
SIZE
  6
Continuous
100
AcDbCircle
 10
-216.0
 20
-350.0
 30
0.0
 40
0.3
  0
CIRCLE
  5
218
330
20C
100
AcDbEntity
  8
SIZE
  6
Continuous
100
AcDbCircle
 10
-216.0
 20
-350.0
 30
0.0
 40
0.2
  0
CIRCLE
  5
219
330
20C
100
AcDbEntity
  8
SIZE
  6
Continuous
100
AcDbCircle
 10
-216.0
 20
-350.0
 30
0.0
 40
0.1
  0
POINT
  5
21A
330
20C
100
AcDbEntity
  8
DEFPOINTS
  6
ByBlock
100
AcDbPoint
 10
-216.0
 20
-20.0
 30
0.0
  0
POINT
  5
21B
330
20C
100
AcDbEntity
  8
DEFPOINTS
  6
ByBlock
100
AcDbPoint
 10
0.0
 20
200.0
 30
0.0
  0
POINT
  5
21C
330
20C
100
AcDbEntity
  8
DEFPOINTS
  6
ByBlock
100
AcDbPoint
 10
-0.000000000000101
 20
-350.0
 30
0.0
  0
ENDBLK
  5
21D
330
20C
100
AcDbEntity
  8
SIZE
100
AcDbBlockEnd
  0
BLOCK
  5
21F
330
21E
100
AcDbEntity
  8
SIZE
100
AcDbBlockBegin
  2
*D21
 70
     1
 10
0.0
 20
0.0
 30
0.0
  3
*D21
  1

  0
TEXT
  5
220
330
21E
100
AcDbEntity
  8
SIZE
  6
Continuous
100
AcDbText
 10
-433.9400023802103
 20
-349.0000060796738
 30
0.0
 40
2.799999952316284
  1
430
 50
0.000002504478167
 41
0.6999999829701011
  7
STANDARD1
100
AcDbText
  0
LINE
  5
221
330
21E
100
AcDbEntity
  8
SIZE
  6
Continuous
100
AcDbLine
 10
-216.0
 20
-21.0
 30
0.0
 11
-216.0
 21
-352.0
 31
0.0
  0
LINE
  5
222
330
21E
100
AcDbEntity
  8
SIZE
  6
Continuous
100
AcDbLine
 10
-646.0
 20
-21.0
 30
0.0
 11
-646.0
 21
-352.0
 31
0.0
  0
LINE
  5
223
330
21E
100
AcDbEntity
  8
SIZE
  6
Continuous
100
AcDbLine
 10
-216.0
 20
-350.0
 30
0.0
 11
-646.0
 21
-350.0
 31
0.0
  0
CIRCLE
  5
224
330
21E
100
AcDbEntity
  8
SIZE
  6
Continuous
100
AcDbCircle
 10
-216.0
 20
-350.0
 30
0.0
 40
0.5
  0
CIRCLE
  5
225
330
21E
100
AcDbEntity
  8
SIZE
  6
Continuous
100
AcDbCircle
 10
-216.0
 20
-350.0
 30
0.0
 40
0.4
  0
CIRCLE
  5
226
330
21E
100
AcDbEntity
  8
SIZE
  6
Continuous
100
AcDbCircle
 10
-216.0
 20
-350.0
 30
0.0
 40
0.3
  0
CIRCLE
  5
227
330
21E
100
AcDbEntity
  8
SIZE
  6
Continuous
100
AcDbCircle
 10
-216.0
 20
-350.0
 30
0.0
 40
0.2
  0
CIRCLE
  5
228
330
21E
100
AcDbEntity
  8
SIZE
  6
Continuous
100
AcDbCircle
 10
-216.0
 20
-350.0
 30
0.0
 40
0.1
  0
CIRCLE
  5
229
330
21E
100
AcDbEntity
  8
SIZE
  6
Continuous
100
AcDbCircle
 10
-646.0
 20
-350.0
 30
0.0
 40
0.5
  0
CIRCLE
  5
22A
330
21E
100
AcDbEntity
  8
SIZE
  6
Continuous
100
AcDbCircle
 10
-646.0
 20
-350.0
 30
0.0
 40
0.4
  0
CIRCLE
  5
22B
330
21E
100
AcDbEntity
  8
SIZE
  6
Continuous
100
AcDbCircle
 10
-646.0
 20
-350.0
 30
0.0
 40
0.3
  0
CIRCLE
  5
22C
330
21E
100
AcDbEntity
  8
SIZE
  6
Continuous
100
AcDbCircle
 10
-646.0
 20
-350.0
 30
0.0
 40
0.2
  0
CIRCLE
  5
22D
330
21E
100
AcDbEntity
  8
SIZE
  6
Continuous
100
AcDbCircle
 10
-646.0
 20
-350.0
 30
0.0
 40
0.1
  0
POINT
  5
22E
330
21E
100
AcDbEntity
  8
DEFPOINTS
  6
ByBlock
100
AcDbPoint
 10
-646.0
 20
-20.0
 30
0.0
  0
POINT
  5
22F
330
21E
100
AcDbEntity
  8
DEFPOINTS
  6
ByBlock
100
AcDbPoint
 10
-216.0
 20
-20.0
 30
0.0
  0
POINT
  5
230
330
21E
100
AcDbEntity
  8
DEFPOINTS
  6
ByBlock
100
AcDbPoint
 10
-216.0
 20
-350.0
 30
0.0
  0
ENDBLK
  5
231
330
21E
100
AcDbEntity
  8
SIZE
100
AcDbBlockEnd
  0
BLOCK
  5
233
330
232
100
AcDbEntity
  8
SIZE
100
AcDbBlockBegin
  2
*D22
 70
     1
 10
0.0
 20
0.0
 30
0.0
  3
*D22
  1

  0
TEXT
  5
234
330
232
100
AcDbEntity
  8
SIZE
  6
Continuous
100
AcDbText
 10
-1031.000024437904
 20
97.05999768098564
 30
0.0
 40
2.799999952316284
  1
200
 50
90.00000500895634
 41
0.6999999829701011
  7
STANDARD1
100
AcDbText
  0
LINE
  5
235
330
232
100
AcDbEntity
  8
SIZE
  6
Continuous
100
AcDbLine
 10
-725.0
 20
200.0
 30
0.0
 11
-1032.0
 21
200.0
 31
0.0
  0
LINE
  5
236
330
232
100
AcDbEntity
  8
SIZE
  6
Continuous
100
AcDbLine
 10
-1030.0
 20
0.0
 30
0.0
 11
-1030.0
 21
200.0
 31
0.0
  0
CIRCLE
  5
237
330
232
100
AcDbEntity
  8
SIZE
  6
Continuous
100
AcDbCircle
 10
-1030.0
 20
0.0
 30
0.0
 40
0.5
  0
CIRCLE
  5
238
330
232
100
AcDbEntity
  8
SIZE
  6
Continuous
100
AcDbCircle
 10
-1030.0
 20
0.0
 30
0.0
 40
0.4
  0
CIRCLE
  5
239
330
232
100
AcDbEntity
  8
SIZE
  6
Continuous
100
AcDbCircle
 10
-1030.0
 20
0.0
 30
0.0
 40
0.3
  0
CIRCLE
  5
23A
330
232
100
AcDbEntity
  8
SIZE
  6
Continuous
100
AcDbCircle
 10
-1030.0
 20
0.0
 30
0.0
 40
0.2
  0
CIRCLE
  5
23B
330
232
100
AcDbEntity
  8
SIZE
  6
Continuous
100
AcDbCircle
 10
-1030.0
 20
0.0
 30
0.0
 40
0.1
  0
CIRCLE
  5
23C
330
232
100
AcDbEntity
  8
SIZE
  6
Continuous
100
AcDbCircle
 10
-1030.0
 20
200.0
 30
0.0
 40
0.5
  0
CIRCLE
  5
23D
330
232
100
AcDbEntity
  8
SIZE
  6
Continuous
100
AcDbCircle
 10
-1030.0
 20
200.0
 30
0.0
 40
0.4
  0
CIRCLE
  5
23E
330
232
100
AcDbEntity
  8
SIZE
  6
Continuous
100
AcDbCircle
 10
-1030.0
 20
200.0
 30
0.0
 40
0.3
  0
CIRCLE
  5
23F
330
232
100
AcDbEntity
  8
SIZE
  6
Continuous
100
AcDbCircle
 10
-1030.0
 20
200.0
 30
0.0
 40
0.2
  0
CIRCLE
  5
240
330
232
100
AcDbEntity
  8
SIZE
  6
Continuous
100
AcDbCircle
 10
-1030.0
 20
200.0
 30
0.0
 40
0.1
  0
POINT
  5
241
330
232
100
AcDbEntity
  8
DEFPOINTS
  6
ByBlock
100
AcDbPoint
 10
-724.0
 20
200.0
 30
0.0
  0
POINT
  5
242
330
232
100
AcDbEntity
  8
DEFPOINTS
  6
ByBlock
100
AcDbPoint
 10
-1330.0
 20
0.0
 30
0.0
  0
POINT
  5
243
330
232
100
AcDbEntity
  8
DEFPOINTS
  6
ByBlock
100
AcDbPoint
 10
-1030.0
 20
0.0
 30
0.0
  0
ENDBLK
  5
244
330
232
100
AcDbEntity
  8
SIZE
100
AcDbBlockEnd
  0
BLOCK
  5
246
330
245
100
AcDbEntity
  8
0
100
AcDbBlockBegin
  2
_ORIGIN
 70
     0
 10
0.0
 20
0.0
 30
0.0
  3
_ORIGIN
  1

  0
CIRCLE
  5
247
330
245
100
AcDbEntity
  8
0
  6
ByBlock
 62
     0
100
AcDbCircle
 10
0.0
 20
0.0
 30
0.0
 40
0.5
  0
LINE
  5
248
330
245
100
AcDbEntity
  8
0
  6
ByBlock
 62
     0
100
AcDbLine
 10
0.0
 20
0.0
 30
0.0
 11
-1.0
 21
0.0
 31
0.0
  0
ENDBLK
  5
249
330
245
100
AcDbEntity
  8
0
100
AcDbBlockEnd
  0
BLOCK
  5
24B
330
24A
100
AcDbEntity
  8
0
100
AcDbBlockBegin
  2
*D24
 70
     1
 10
0.0
 20
0.0
 30
0.0
  3
*D24
  1

  0
LINE
  5
24C
330
24A
100
AcDbEntity
  8
SIZE
 62
     0
100
AcDbLine
 10
-734.0
 20
200.0
 30
0.0
 11
-1044.899999976158
 21
200.0000000000001
 31
0.0
  0
LINE
  5
24D
330
24A
100
AcDbEntity
  8
SIZE
 62
     0
100
AcDbLine
 10
-1320.0
 20
-0.0000000000000028
 30
0.0
 11
-1019.899999976158
 21
-0.0000000000000878
 31
0.0
  0
LINE
  5
24E
330
24A
100
AcDbEntity
  8
SIZE
 62
     0
100
AcDbLine
 10
-1032.399999976158
 20
190.0000000000001
 30
0.0
 11
-1032.399999976158
 21
9.999999999999912
 31
0.0
  0
INSERT
  5
24F
330
24A
100
AcDbEntity
  8
SIZE
 62
     0
100
AcDbBlockReference
  2
_ORIGIN
 10
-1032.399999976158
 20
200.0000000000001
 30
0.0
 41
10.0
 42
10.0
 43
10.0
 50
90.0
  0
INSERT
  5
250
330
24A
100
AcDbEntity
  8
SIZE
 62
     0
100
AcDbBlockReference
  2
_ORIGIN
 10
-1032.399999976158
 20
-0.0000000000000843
 30
0.0
 41
10.0
 42
10.0
 43
10.0
 50
270.0
  0
TEXT
  5
251
330
24A
100
AcDbEntity
  8
SIZE
 62
     0
100
AcDbText
 10
-1042.399999976158
 20
64.99999987760808
 30
0.0
 40
30.0
  1
200
 50
90.0
 72
     1
 11
-1042.399999976158
 21
99.99999987760809
 31
0.0
100
AcDbText
  0
POINT
  5
252
330
24A
100
AcDbEntity
  8
DEFPOINTS
 62
     0
100
AcDbPoint
 10
-724.0
 20
200.0
 30
0.0
  0
POINT
  5
253
330
24A
100
AcDbEntity
  8
DEFPOINTS
 62
     0
100
AcDbPoint
 10
-1330.0
 20
0.0
 30
0.0
  0
POINT
  5
254
330
24A
100
AcDbEntity
  8
DEFPOINTS
 62
     0
100
AcDbPoint
 10
-1032.399999976158
 20
-0.0000000000000843
 30
0.0
  0
ENDBLK
  5
255
330
24A
100
AcDbEntity
  8
0
100
AcDbBlockEnd
  0
BLOCK
  5
257
330
256
100
AcDbEntity
  8
0
100
AcDbBlockBegin
  2
*D25
 70
     1
 10
0.0
 20
0.0
 30
0.0
  3
*D25
  1

  0
LINE
  5
258
330
256
100
AcDbEntity
  8
SIZE
 62
     0
100
AcDbLine
 10
-646.0
 20
-30.0
 30
0.0
 11
-646.0
 21
-360.1000000238418
 31
0.0
  0
LINE
  5
259
330
256
100
AcDbEntity
  8
SIZE
 62
     0
100
AcDbLine
 10
-216.0
 20
-30.0
 30
0.0
 11
-216.0
 21
-360.1000000238418
 31
0.0
  0
LINE
  5
25A
330
256
100
AcDbEntity
  8
SIZE
 62
     0
100
AcDbLine
 10
-636.0
 20
-347.6000000238418
 30
0.0
 11
-226.0
 21
-347.6000000238418
 31
0.0
  0
INSERT
  5
25B
330
256
100
AcDbEntity
  8
SIZE
 62
     0
100
AcDbBlockReference
  2
_ORIGIN
 10
-646.0
 20
-347.6000000238418
 30
0.0
 41
10.0
 42
10.0
 43
10.0
 50
180.0
  0
INSERT
  5
25C
330
256
100
AcDbEntity
  8
SIZE
 62
     0
100
AcDbBlockReference
  2
_ORIGIN
 10
-216.0
 20
-347.6000000238418
 30
0.0
 41
10.0
 42
10.0
 43
10.0
  0
TEXT
  5
25D
330
256
100
AcDbEntity
  8
SIZE
 62
     0
100
AcDbText
 10
-468.5000000611958
 20
-337.6000000238418
 30
0.0
 40
30.0
  1
430
 72
     1
 11
-431.0000000611958
 21
-337.6000000238418
 31
0.0
100
AcDbText
  0
POINT
  5
25E
330
256
100
AcDbEntity
  8
DEFPOINTS
 62
     0
100
AcDbPoint
 10
-646.0
 20
-20.0
 30
0.0
  0
POINT
  5
25F
330
256
100
AcDbEntity
  8
DEFPOINTS
 62
     0
100
AcDbPoint
 10
-216.0
 20
-20.0
 30
0.0
  0
POINT
  5
260
330
256
100
AcDbEntity
  8
DEFPOINTS
 62
     0
100
AcDbPoint
 10
-216.0
 20
-347.6000000238418
 30
0.0
  0
ENDBLK
  5
261
330
256
100
AcDbEntity
  8
0
100
AcDbBlockEnd
  0
BLOCK
  5
263
330
262
100
AcDbEntity
  8
0
100
AcDbBlockBegin
  2
*D26
 70
     1
 10
0.0
 20
0.0
 30
0.0
  3
*D26
  1

  0
LINE
  5
264
330
262
100
AcDbEntity
  8
SIZE
 62
     0
100
AcDbLine
 10
-216.0
 20
-30.0
 30
0.0
 11
-216.0
 21
-360.1000000238418
 31
0.0
  0
LINE
  5
265
330
262
100
AcDbEntity
  8
SIZE
 62
     0
100
AcDbLine
 10
-0.0000000000000006
 20
190.0
 30
0.0
 11
-0.0000000000000343
 21
-360.1000000238419
 31
0.0
  0
LINE
  5
266
330
262
100
AcDbEntity
  8
SIZE
 62
     0
100
AcDbLine
 10
-206.0
 20
-347.6000000238418
 30
0.0
 11
-10.00000000000003
 21
-347.6000000238418
 31
0.0
  0
INSERT
  5
267
330
262
100
AcDbEntity
  8
SIZE
 62
     0
100
AcDbBlockReference
  2
_ORIGIN
 10
-216.0
 20
-347.6000000238418
 30
0.0
 41
10.0
 42
10.0
 43
10.0
 50
180.0
  0
INSERT
  5
268
330
262
100
AcDbEntity
  8
SIZE
 62
     0
100
AcDbBlockReference
  2
_ORIGIN
 10
-0.0000000000000335
 20
-347.6000000238418
 30
0.0
 41
10.0
 42
10.0
 43
10.0
  0
TEXT
  5
269
330
262
100
AcDbEntity
  8
SIZE
 62
     0
100
AcDbText
 10
-143.0000000611959
 20
-337.6000000238418
 30
0.0
 40
30.0
  1
216
 72
     1
 11
-108.0000000611959
 21
-337.6000000238418
 31
0.0
100
AcDbText
  0
POINT
  5
26A
330
262
100
AcDbEntity
  8
DEFPOINTS
 62
     0
100
AcDbPoint
 10
-216.0
 20
-20.0
 30
0.0
  0
POINT
  5
26B
330
262
100
AcDbEntity
  8
DEFPOINTS
 62
     0
100
AcDbPoint
 10
0.0
 20
200.0
 30
0.0
  0
POINT
  5
26C
330
262
100
AcDbEntity
  8
DEFPOINTS
 62
     0
100
AcDbPoint
 10
-0.0000000000000335
 20
-347.6000000238418
 30
0.0
  0
ENDBLK
  5
26D
330
262
100
AcDbEntity
  8
0
100
AcDbBlockEnd
  0
BLOCK
  5
26F
330
26E
100
AcDbEntity
  8
0
100
AcDbBlockBegin
  2
*D27
 70
     1
 10
0.0
 20
0.0
 30
0.0
  3
*D27
  1

  0
LINE
  5
270
330
26E
100
AcDbEntity
  8
SIZE
 62
     0
100
AcDbLine
 10
-82.0
 20
-0.0000000000000028
 30
0.0
 11
460.1000000238417
 21
-0.0000000000001564
 31
0.0
  0
LINE
  5
271
330
26E
100
AcDbEntity
  8
SIZE
 62
     0
100
AcDbLine
 10
160.0
 20
1875.0
 30
0.0
 11
460.100000023842
 21
1875.0
 31
0.0
  0
LINE
  5
272
330
26E
100
AcDbEntity
  8
SIZE
 62
     0
100
AcDbLine
 10
447.6000000238417
 20
9.999999999999847
 30
0.0
 11
447.600000023842
 21
1865.0
 31
0.0
  0
INSERT
  5
273
330
26E
100
AcDbEntity
  8
SIZE
 62
     0
100
AcDbBlockReference
  2
_ORIGIN
 10
447.6000000238417
 20
-0.0000000000001529
 30
0.0
 41
10.0
 42
10.0
 43
10.0
 50
270.0
  0
INSERT
  5
274
330
26E
100
AcDbEntity
  8
SIZE
 62
     0
100
AcDbBlockReference
  2
_ORIGIN
 10
447.600000023842
 20
1875.0
 30
0.0
 41
10.0
 42
10.0
 43
10.0
 50
90.0
  0
TEXT
  5
275
330
26E
100
AcDbEntity
  8
SIZE
 62
     0
100
AcDbText
 10
437.6000000238418
 20
887.4999998776081
 30
0.0
 40
30.0
  1
1875
 50
90.0
 72
     1
 11
437.6000000238418
 21
937.4999998776081
 31
0.0
100
AcDbText
  0
POINT
  5
276
330
26E
100
AcDbEntity
  8
DEFPOINTS
 62
     0
100
AcDbPoint
 10
-92.0
 20
0.0
 30
0.0
  0
POINT
  5
277
330
26E
100
AcDbEntity
  8
DEFPOINTS
 62
     0
100
AcDbPoint
 10
150.0
 20
1875.0
 30
0.0
  0
POINT
  5
278
330
26E
100
AcDbEntity
  8
DEFPOINTS
 62
     0
100
AcDbPoint
 10
447.600000023842
 20
1875.0
 30
0.0
  0
ENDBLK
  5
279
330
26E
100
AcDbEntity
  8
0
100
AcDbBlockEnd
  0
BLOCK
  5
27B
330
27A
100
AcDbEntity
  8
0
100
AcDbBlockBegin
  2
*D28
 70
     1
 10
0.0
 20
0.0
 30
0.0
  3
*D28
  1

  0
LINE
  5
27C
330
27A
100
AcDbEntity
  8
SIZE
 62
     0
100
AcDbLine
 10
160.0
 20
1830.0
 30
0.0
 11
260.1000000238421
 21
1830.0
 31
0.0
  0
LINE
  5
27D
330
27A
100
AcDbEntity
  8
SIZE
 62
     0
100
AcDbLine
 10
10.00000000000017
 20
2030.0
 30
0.0
 11
260.1000000238423
 21
2030.0
 31
0.0
  0
LINE
  5
27E
330
27A
100
AcDbEntity
  8
SIZE
 62
     0
100
AcDbLine
 10
247.6000000238422
 20
1840.0
 30
0.0
 11
247.6000000238422
 21
2020.0
 31
0.0
  0
INSERT
  5
27F
330
27A
100
AcDbEntity
  8
SIZE
 62
     0
100
AcDbBlockReference
  2
_ORIGIN
 10
247.6000000238422
 20
1830.0
 30
0.0
 41
10.0
 42
10.0
 43
10.0
 50
270.0
  0
INSERT
  5
280
330
27A
100
AcDbEntity
  8
SIZE
 62
     0
100
AcDbBlockReference
  2
_ORIGIN
 10
247.6000000238422
 20
2030.0
 30
0.0
 41
10.0
 42
10.0
 43
10.0
 50
90.0
  0
TEXT
  5
281
330
27A
100
AcDbEntity
  8
SIZE
 62
     0
100
AcDbText
 10
237.6000000238418
 20
1894.999999877608
 30
0.0
 40
30.0
  1
200
 50
90.0
 72
     1
 11
237.6000000238418
 21
1929.999999877608
 31
0.0
100
AcDbText
  0
POINT
  5
282
330
27A
100
AcDbEntity
  8
DEFPOINTS
 62
     0
100
AcDbPoint
 10
150.0
 20
1830.0
 30
0.0
  0
POINT
  5
283
330
27A
100
AcDbEntity
  8
DEFPOINTS
 62
     0
100
AcDbPoint
 10
0.000000000000171
 20
2030.0
 30
0.0
  0
POINT
  5
284
330
27A
100
AcDbEntity
  8
DEFPOINTS
 62
     0
100
AcDbPoint
 10
247.6000000238422
 20
2030.0
 30
0.0
  0
ENDBLK
  5
285
330
27A
100
AcDbEntity
  8
0
100
AcDbBlockEnd
  0
BLOCK
  5
287
330
286
100
AcDbEntity
  8
0
100
AcDbBlockBegin
  2
*D29
 70
     1
 10
0.0
 20
0.0
 30
0.0
  3
*D29
  1

  0
LINE
  5
288
330
286
100
AcDbEntity
  8
SIZE
 62
     0
100
AcDbLine
 10
-0.0000000000000006
 20
190.0
 30
0.0
 11
-0.0000000000000404
 21
-460.1000000238419
 31
0.0
  0
LINE
  5
289
330
286
100
AcDbEntity
  8
SIZE
 62
     0
100
AcDbLine
 10
-730.0
 20
-10.0
 30
0.0
 11
-730.0
 21
-460.1000000238418
 31
0.0
  0
LINE
  5
28A
330
286
100
AcDbEntity
  8
SIZE
 62
     0
100
AcDbLine
 10
-10.00000000000004
 20
-447.6000000238418
 30
0.0
 11
-720.0
 21
-447.6000000238418
 31
0.0
  0
INSERT
  5
28B
330
286
100
AcDbEntity
  8
SIZE
 62
     0
100
AcDbBlockReference
  2
_ORIGIN
 10
-0.0000000000000397
 20
-447.6000000238418
 30
0.0
 41
10.0
 42
10.0
 43
10.0
  0
INSERT
  5
28C
330
286
100
AcDbEntity
  8
SIZE
 62
     0
100
AcDbBlockReference
  2
_ORIGIN
 10
-730.0
 20
-447.6000000238418
 30
0.0
 41
10.0
 42
10.0
 43
10.0
 50
180.0
  0
TEXT
  5
28D
330
286
100
AcDbEntity
  8
SIZE
 62
     0
100
AcDbText
 10
-401.3040161744771
 20
-437.6000000238418
 30
0.0
 40
30.0
  1
730
 72
     1
 11
-363.8040161744772
 21
-437.6000000238418
 31
0.0
100
AcDbText
  0
POINT
  5
28E
330
286
100
AcDbEntity
  8
DEFPOINTS
 62
     0
100
AcDbPoint
 10
0.0
 20
200.0
 30
0.0
  0
POINT
  5
28F
330
286
100
AcDbEntity
  8
DEFPOINTS
 62
     0
100
AcDbPoint
 10
-730.0
 20
0.0
 30
0.0
  0
POINT
  5
290
330
286
100
AcDbEntity
  8
DEFPOINTS
 62
     0
100
AcDbPoint
 10
-730.0
 20
-447.6000000238418
 30
0.0
  0
ENDBLK
  5
291
330
286
100
AcDbEntity
  8
0
100
AcDbBlockEnd
  0
BLOCK
  5
293
330
292
100
AcDbEntity
  8
0
100
AcDbBlockBegin
  2
*D30
 70
     1
 10
0.0
 20
0.0
 30
0.0
  3
*D30
  1

  0
LINE
  5
294
330
292
100
AcDbEntity
  8
SIZE
 62
     0
100
AcDbLine
 10
-0.0000000000000006
 20
190.0
 30
0.0
 11
-0.0000000000000282
 21
-260.1000000238419
 31
0.0
  0
LINE
  5
295
330
292
100
AcDbEntity
  8
SIZE
 62
     0
100
AcDbLine
 10
-112.0
 20
-30.0
 30
0.0
 11
-112.0
 21
-260.1000000238419
 31
0.0
  0
LINE
  5
296
330
292
100
AcDbEntity
  8
SIZE
 62
     0
100
AcDbLine
 10
-10.00000000000002
 20
-247.6000000238419
 30
0.0
 11
-102.0
 21
-247.6000000238419
 31
0.0
  0
INSERT
  5
297
330
292
100
AcDbEntity
  8
SIZE
 62
     0
100
AcDbBlockReference
  2
_ORIGIN
 10
-0.0000000000000274
 20
-247.6000000238419
 30
0.0
 41
10.0
 42
10.0
 43
10.0
  0
INSERT
  5
298
330
292
100
AcDbEntity
  8
SIZE
 62
     0
100
AcDbBlockReference
  2
_ORIGIN
 10
-112.0
 20
-247.6000000238419
 30
0.0
 41
10.0
 42
10.0
 43
10.0
 50
180.0
  0
TEXT
  5
299
330
292
100
AcDbEntity
  8
SIZE
 62
     0
100
AcDbText
 10
-86.00000006119591
 20
-237.6000000238418
 30
0.0
 40
30.0
  1
112
 72
     1
 11
-56.00000006119592
 21
-237.6000000238418
 31
0.0
100
AcDbText
  0
POINT
  5
29A
330
292
100
AcDbEntity
  8
DEFPOINTS
 62
     0
100
AcDbPoint
 10
0.0
 20
200.0
 30
0.0
  0
POINT
  5
29B
330
292
100
AcDbEntity
  8
DEFPOINTS
 62
     0
100
AcDbPoint
 10
-112.0
 20
-20.0
 30
0.0
  0
POINT
  5
29C
330
292
100
AcDbEntity
  8
DEFPOINTS
 62
     0
100
AcDbPoint
 10
-112.0
 20
-247.6000000238419
 30
0.0
  0
ENDBLK
  5
29D
330
292
100
AcDbEntity
  8
0
100
AcDbBlockEnd
  0
BLOCK
  5
29F
330
29E
100
AcDbEntity
  8
0
100
AcDbBlockBegin
  2
*D31
 70
     1
 10
0.0
 20
0.0
 30
0.0
  3
*D31
  1

  0
LINE
  5
2A0
330
29E
100
AcDbEntity
  8
SIZE
 62
     0
100
AcDbLine
 10
-646.0
 20
-30.0
 30
0.0
 11
-646.0
 21
-260.1000000238419
 31
0.0
  0
LINE
  5
2A1
330
29E
100
AcDbEntity
  8
SIZE
 62
     0
100
AcDbLine
 10
-112.0
 20
-30.0
 30
0.0
 11
-112.0
 21
-260.1000000238419
 31
0.0
  0
LINE
  5
2A2
330
29E
100
AcDbEntity
  8
SIZE
 62
     0
100
AcDbLine
 10
-636.0
 20
-247.6000000238419
 30
0.0
 11
-122.0
 21
-247.6000000238419
 31
0.0
  0
INSERT
  5
2A3
330
29E
100
AcDbEntity
  8
SIZE
 62
     0
100
AcDbBlockReference
  2
_ORIGIN
 10
-646.0
 20
-247.6000000238419
 30
0.0
 41
10.0
 42
10.0
 43
10.0
 50
180.0
  0
INSERT
  5
2A4
330
29E
100
AcDbEntity
  8
SIZE
 62
     0
100
AcDbBlockReference
  2
_ORIGIN
 10
-112.0
 20
-247.6000000238419
 30
0.0
 41
10.0
 42
10.0
 43
10.0
  0
TEXT
  5
2A5
330
29E
100
AcDbEntity
  8
SIZE
 62
     0
100
AcDbText
 10
-399.3759155885397
 20
-237.6000000238418
 30
0.0
 40
30.0
  1
534
 72
     1
 11
-359.3759155885397
 21
-237.6000000238418
 31
0.0
100
AcDbText
  0
POINT
  5
2A6
330
29E
100
AcDbEntity
  8
DEFPOINTS
 62
     0
100
AcDbPoint
 10
-646.0
 20
-20.0
 30
0.0
  0
POINT
  5
2A7
330
29E
100
AcDbEntity
  8
DEFPOINTS
 62
     0
100
AcDbPoint
 10
-112.0
 20
-20.0
 30
0.0
  0
POINT
  5
2A8
330
29E
100
AcDbEntity
  8
DEFPOINTS
 62
     0
100
AcDbPoint
 10
-112.0
 20
-247.6000000238419
 30
0.0
  0
ENDBLK
  5
2A9
330
29E
100
AcDbEntity
  8
0
100
AcDbBlockEnd
  0
BLOCK
  5
2AB
330
2AA
100
AcDbEntity
  8
0
100
AcDbBlockBegin
  2
*D32
 70
     1
 10
0.0
 20
0.0
 30
0.0
  3
*D32
  1

  0
LINE
  5
2AC
330
2AA
100
AcDbEntity
  8
SIZE
 62
     0
100
AcDbLine
 10
-730.0
 20
-10.0
 30
0.0
 11
-730.0
 21
-360.1000000238418
 31
0.0
  0
LINE
  5
2AD
330
2AA
100
AcDbEntity
  8
SIZE
 62
     0
100
AcDbLine
 10
-646.0
 20
-30.0
 30
0.0
 11
-646.0
 21
-360.1000000238418
 31
0.0
  0
LINE
  5
2AE
330
2AA
100
AcDbEntity
  8
SIZE
 62
     0
100
AcDbLine
 10
-720.0
 20
-347.6000000238418
 30
0.0
 11
-656.0
 21
-347.6000000238418
 31
0.0
  0
INSERT
  5
2AF
330
2AA
100
AcDbEntity
  8
SIZE
 62
     0
100
AcDbBlockReference
  2
_ORIGIN
 10
-730.0
 20
-347.6000000238418
 30
0.0
 41
10.0
 42
10.0
 43
10.0
 50
180.0
  0
INSERT
  5
2B0
330
2AA
100
AcDbEntity
  8
SIZE
 62
     0
100
AcDbBlockReference
  2
_ORIGIN
 10
-646.0
 20
-347.6000000238418
 30
0.0
 41
10.0
 42
10.0
 43
10.0
  0
TEXT
  5
2B1
330
2AA
100
AcDbEntity
  8
SIZE
 62
     0
100
AcDbText
 10
-713.0000000611957
 20
-337.6000000238418
 30
0.0
 40
30.0
  1
84
 72
     1
 11
-688.0000000611957
 21
-337.6000000238418
 31
0.0
100
AcDbText
  0
POINT
  5
2B2
330
2AA
100
AcDbEntity
  8
DEFPOINTS
 62
     0
100
AcDbPoint
 10
-730.0
 20
0.0
 30
0.0
  0
POINT
  5
2B3
330
2AA
100
AcDbEntity
  8
DEFPOINTS
 62
     0
100
AcDbPoint
 10
-646.0
 20
-20.0
 30
0.0
  0
POINT
  5
2B4
330
2AA
100
AcDbEntity
  8
DEFPOINTS
 62
     0
100
AcDbPoint
 10
-646.0
 20
-347.6000000238418
 30
0.0
  0
ENDBLK
  5
2B5
330
2AA
100
AcDbEntity
  8
0
100
AcDbBlockEnd
  0
BLOCK
  5
2B7
330
2B6
100
AcDbEntity
  8
0
100
AcDbBlockBegin
  2
*D33
 70
     1
 10
0.0
 20
0.0
 30
0.0
  3
*D33
  1

  0
LINE
  5
2B8
330
2B6
100
AcDbEntity
  8
SIZE
 62
     0
100
AcDbLine
 10
10.0
 20
200.0
 30
0.0
 11
160.1000000238419
 21
200.0
 31
0.0
  0
LINE
  5
2B9
330
2B6
100
AcDbEntity
  8
SIZE
 62
     0
100
AcDbLine
 10
-46.0
 20
-0.0000000000000028
 30
0.0
 11
160.1000000238419
 21
-0.0000000000000612
 31
0.0
  0
LINE
  5
2BA
330
2B6
100
AcDbEntity
  8
SIZE
 62
     0
100
AcDbLine
 10
147.6000000238419
 20
190.0
 30
0.0
 11
147.6000000238419
 21
9.999999999999943
 31
0.0
  0
INSERT
  5
2BB
330
2B6
100
AcDbEntity
  8
SIZE
 62
     0
100
AcDbBlockReference
  2
_ORIGIN
 10
147.6000000238419
 20
200.0
 30
0.0
 41
10.0
 42
10.0
 43
10.0
 50
90.0
  0
INSERT
  5
2BC
330
2B6
100
AcDbEntity
  8
SIZE
 62
     0
100
AcDbBlockReference
  2
_ORIGIN
 10
147.6000000238419
 20
-0.0000000000000577
 30
0.0
 41
10.0
 42
10.0
 43
10.0
 50
270.0
  0
TEXT
  5
2BD
330
2B6
100
AcDbEntity
  8
SIZE
 62
     0
100
AcDbText
 10
137.6000000238419
 20
64.99999987760808
 30
0.0
 40
30.0
  1
200
 50
90.0
 72
     1
 11
137.6000000238419
 21
99.99999987760809
 31
0.0
100
AcDbText
  0
POINT
  5
2BE
330
2B6
100
AcDbEntity
  8
DEFPOINTS
 62
     0
100
AcDbPoint
 10
0.0
 20
200.0
 30
0.0
  0
POINT
  5
2BF
330
2B6
100
AcDbEntity
  8
DEFPOINTS
 62
     0
100
AcDbPoint
 10
-56.0
 20
0.0
 30
0.0
  0
POINT
  5
2C0
330
2B6
100
AcDbEntity
  8
DEFPOINTS
 62
     0
100
AcDbPoint
 10
147.6000000238419
 20
-0.0000000000000577
 30
0.0
  0
ENDBLK
  5
2C1
330
2B6
100
AcDbEntity
  8
0
100
AcDbBlockEnd
  0
BLOCK
  5
2C3
330
2C2
100
AcDbEntity
  8
0
100
AcDbBlockBegin
  2
*D34
 70
     1
 10
0.0
 20
0.0
 30
0.0
  3
*D34
  1

  0
LINE
  5
2C4
330
2C2
100
AcDbEntity
  8
SIZE
 62
     0
100
AcDbLine
 10
-676.0
 20
0.0000000000000028
 30
0.0
 11
-844.899999976158
 21
0.0000000000000507
 31
0.0
  0
LINE
  5
2C5
330
2C2
100
AcDbEntity
  8
SIZE
 62
     0
100
AcDbLine
 10
-660.0
 20
155.0
 30
0.0
 11
-844.899999976158
 21
155.0
 31
0.0
  0
LINE
  5
2C6
330
2C2
100
AcDbEntity
  8
SIZE
 62
     0
100
AcDbLine
 10
-832.399999976158
 20
10.00000000000004
 30
0.0
 11
-832.399999976158
 21
145.0
 31
0.0
  0
INSERT
  5
2C7
330
2C2
100
AcDbEntity
  8
SIZE
 62
     0
100
AcDbBlockReference
  2
_ORIGIN
 10
-832.399999976158
 20
0.0000000000000471
 30
0.0
 41
10.0
 42
10.0
 43
10.0
 50
270.0
  0
INSERT
  5
2C8
330
2C2
100
AcDbEntity
  8
SIZE
 62
     0
100
AcDbBlockReference
  2
_ORIGIN
 10
-832.399999976158
 20
155.0
 30
0.0
 41
10.0
 42
10.0
 43
10.0
 50
90.0
  0
TEXT
  5
2C9
330
2C2
100
AcDbEntity
  8
SIZE
 62
     0
100
AcDbText
 10
-842.3999999761582
 20
42.49999987760809
 30
0.0
 40
30.0
  1
155
 50
90.0
 72
     1
 11
-842.3999999761582
 21
77.49999987760809
 31
0.0
100
AcDbText
  0
POINT
  5
2CA
330
2C2
100
AcDbEntity
  8
DEFPOINTS
 62
     0
100
AcDbPoint
 10
-666.0
 20
0.0
 30
0.0
  0
POINT
  5
2CB
330
2C2
100
AcDbEntity
  8
DEFPOINTS
 62
     0
100
AcDbPoint
 10
-650.0
 20
155.0
 30
0.0
  0
POINT
  5
2CC
330
2C2
100
AcDbEntity
  8
DEFPOINTS
 62
     0
100
AcDbPoint
 10
-832.399999976158
 20
155.0
 30
0.0
  0
ENDBLK
  5
2CD
330
2C2
100
AcDbEntity
  8
0
100
AcDbBlockEnd
  0
BLOCK
  5
2CF
330
2CE
100
AcDbEntity
  8
0
100
AcDbBlockBegin
  2
*D35
 70
     1
 10
0.0
 20
0.0
 30
0.0
  3
*D35
  1

  0
LINE
  5
2D0
330
2CE
100
AcDbEntity
  8
SIZE
 62
     0
100
AcDbLine
 10
-730.0
 20
-10.0
 30
0.0
 11
-730.0
 21
-160.1000000238419
 31
0.0
  0
LINE
  5
2D1
330
2CE
100
AcDbEntity
  8
SIZE
 62
     0
100
AcDbLine
 10
-630.0
 20
125.0
 30
0.0
 11
-630.0
 21
-160.1000000238419
 31
0.0
  0
LINE
  5
2D2
330
2CE
100
AcDbEntity
  8
SIZE
 62
     0
100
AcDbLine
 10
-720.0
 20
-147.6000000238419
 30
0.0
 11
-640.0
 21
-147.6000000238419
 31
0.0
  0
INSERT
  5
2D3
330
2CE
100
AcDbEntity
  8
SIZE
 62
     0
100
AcDbBlockReference
  2
_ORIGIN
 10
-730.0
 20
-147.6000000238419
 30
0.0
 41
10.0
 42
10.0
 43
10.0
 50
180.0
  0
INSERT
  5
2D4
330
2CE
100
AcDbEntity
  8
SIZE
 62
     0
100
AcDbBlockReference
  2
_ORIGIN
 10
-630.0
 20
-147.6000000238419
 30
0.0
 41
10.0
 42
10.0
 43
10.0
  0
TEXT
  5
2D5
330
2CE
100
AcDbEntity
  8
SIZE
 62
     0
100
AcDbText
 10
-710.0000000611959
 20
-137.6000000238419
 30
0.0
 40
30.0
  1
100
 72
     1
 11
-680.0000000611959
 21
-137.6000000238419
 31
0.0
100
AcDbText
  0
POINT
  5
2D6
330
2CE
100
AcDbEntity
  8
DEFPOINTS
 62
     0
100
AcDbPoint
 10
-730.0
 20
0.0
 30
0.0
  0
POINT
  5
2D7
330
2CE
100
AcDbEntity
  8
DEFPOINTS
 62
     0
100
AcDbPoint
 10
-630.0
 20
135.0
 30
0.0
  0
POINT
  5
2D8
330
2CE
100
AcDbEntity
  8
DEFPOINTS
 62
     0
100
AcDbPoint
 10
-630.0
 20
-147.6000000238419
 30
0.0
  0
ENDBLK
  5
2D9
330
2CE
100
AcDbEntity
  8
0
100
AcDbBlockEnd
  0
BLOCK
  5
2DB
330
2DA
100
AcDbEntity
  8
0
100
AcDbBlockBegin
  2
*D36
 70
     1
 10
0.0
 20
0.0
 30
0.0
  3
*D36
  1

  0
LINE
  5
2DC
330
2DA
100
AcDbEntity
  8
SIZE
 62
     0
100
AcDbLine
 10
-730.0
 20
2040.0
 30
0.0
 11
-730.0
 21
2194.899999976158
 31
0.0
  0
LINE
  5
2DD
330
2DA
100
AcDbEntity
  8
SIZE
 62
     0
100
AcDbLine
 10
0.0000000000001716
 20
2040.0
 30
0.0
 11
0.0000000000001811
 21
2194.899999976158
 31
0.0
  0
LINE
  5
2DE
330
2DA
100
AcDbEntity
  8
SIZE
 62
     0
100
AcDbLine
 10
-720.0
 20
2182.399999976158
 30
0.0
 11
-9.999999999999817
 21
2182.399999976158
 31
0.0
  0
INSERT
  5
2DF
330
2DA
100
AcDbEntity
  8
SIZE
 62
     0
100
AcDbBlockReference
  2
_ORIGIN
 10
-730.0
 20
2182.399999976158
 30
0.0
 41
10.0
 42
10.0
 43
10.0
 50
180.0
  0
INSERT
  5
2E0
330
2DA
100
AcDbEntity
  8
SIZE
 62
     0
100
AcDbBlockReference
  2
_ORIGIN
 10
0.0000000000001803
 20
2182.399999976158
 30
0.0
 41
10.0
 42
10.0
 43
10.0
  0
TEXT
  5
2E1
330
2DA
100
AcDbEntity
  8
SIZE
 62
     0
100
AcDbText
 10
-402.5000000611958
 20
2192.399999976158
 30
0.0
 40
30.0
  1
730
 72
     1
 11
-365.0000000611959
 21
2192.399999976158
 31
0.0
100
AcDbText
  0
POINT
  5
2E2
330
2DA
100
AcDbEntity
  8
DEFPOINTS
 62
     0
100
AcDbPoint
 10
-730.0
 20
2030.0
 30
0.0
  0
POINT
  5
2E3
330
2DA
100
AcDbEntity
  8
DEFPOINTS
 62
     0
100
AcDbPoint
 10
0.000000000000171
 20
2030.0
 30
0.0
  0
POINT
  5
2E4
330
2DA
100
AcDbEntity
  8
DEFPOINTS
 62
     0
100
AcDbPoint
 10
0.0000000000001803
 20
2182.399999976158
 30
0.0
  0
ENDBLK
  5
2E5
330
2DA
100
AcDbEntity
  8
0
100
AcDbBlockEnd
  0
BLOCK
  5
2E7
330
2E6
100
AcDbEntity
  8
0
100
AcDbBlockBegin
  2
*D37
 70
     1
 10
0.0
 20
0.0
 30
0.0
  3
*D37
  1

  0
LINE
  5
2E8
330
2E6
100
AcDbEntity
  8
SIZE
 62
     0
100
AcDbLine
 10
-1330.0
 20
2040.0
 30
0.0
 11
-1330.0
 21
2194.899999976158
 31
0.0
  0
LINE
  5
2E9
330
2E6
100
AcDbEntity
  8
SIZE
 62
     0
100
AcDbLine
 10
-730.0
 20
2040.0
 30
0.0
 11
-730.0
 21
2194.899999976158
 31
0.0
  0
LINE
  5
2EA
330
2E6
100
AcDbEntity
  8
SIZE
 62
     0
100
AcDbLine
 10
-1320.0
 20
2182.399999976158
 30
0.0
 11
-740.0
 21
2182.399999976158
 31
0.0
  0
INSERT
  5
2EB
330
2E6
100
AcDbEntity
  8
SIZE
 62
     0
100
AcDbBlockReference
  2
_ORIGIN
 10
-1330.0
 20
2182.399999976158
 30
0.0
 41
10.0
 42
10.0
 43
10.0
 50
180.0
  0
INSERT
  5
2EC
330
2E6
100
AcDbEntity
  8
SIZE
 62
     0
100
AcDbBlockReference
  2
_ORIGIN
 10
-730.0
 20
2182.399999976158
 30
0.0
 41
10.0
 42
10.0
 43
10.0
  0
TEXT
  5
2ED
330
2E6
100
AcDbEntity
  8
SIZE
 62
     0
100
AcDbText
 10
-1065.000000061194
 20
2192.399999976158
 30
0.0
 40
30.0
  1
600
 72
     1
 11
-1030.000000061194
 21
2192.399999976158
 31
0.0
100
AcDbText
  0
POINT
  5
2EE
330
2E6
100
AcDbEntity
  8
DEFPOINTS
 62
     0
100
AcDbPoint
 10
-1330.0
 20
2030.0
 30
0.0
  0
POINT
  5
2EF
330
2E6
100
AcDbEntity
  8
DEFPOINTS
 62
     0
100
AcDbPoint
 10
-730.0
 20
2030.0
 30
0.0
  0
POINT
  5
2F0
330
2E6
100
AcDbEntity
  8
DEFPOINTS
 62
     0
100
AcDbPoint
 10
-730.0
 20
2182.399999976158
 30
0.0
  0
ENDBLK
  5
2F1
330
2E6
100
AcDbEntity
  8
0
100
AcDbBlockEnd
  0
BLOCK
  5
2F3
330
2F2
100
AcDbEntity
  8
0
100
AcDbBlockBegin
  2
*D38
 70
     1
 10
0.0
 20
0.0
 30
0.0
  3
*D38
  1

  0
LINE
  5
2F4
330
2F2
100
AcDbEntity
  8
SIZE
 62
     0
100
AcDbLine
 10
-1340.0
 20
0.0000000000000028
 30
0.0
 11
-1494.899999976158
 21
0.0000000000000467
 31
0.0
  0
LINE
  5
2F5
330
2F2
100
AcDbEntity
  8
SIZE
 62
     0
100
AcDbLine
 10
-1340.0
 20
2030.0
 30
0.0
 11
-1494.899999976158
 21
2030.0
 31
0.0
  0
LINE
  5
2F6
330
2F2
100
AcDbEntity
  8
SIZE
 62
     0
100
AcDbLine
 10
-1482.399999976158
 20
10.00000000000004
 30
0.0
 11
-1482.399999976158
 21
2020.0
 31
0.0
  0
INSERT
  5
2F7
330
2F2
100
AcDbEntity
  8
SIZE
 62
     0
100
AcDbBlockReference
  2
_ORIGIN
 10
-1482.399999976158
 20
0.0000000000000432
 30
0.0
 41
10.0
 42
10.0
 43
10.0
 50
270.0
  0
INSERT
  5
2F8
330
2F2
100
AcDbEntity
  8
SIZE
 62
     0
100
AcDbBlockReference
  2
_ORIGIN
 10
-1482.399999976158
 20
2030.0
 30
0.0
 41
10.0
 42
10.0
 43
10.0
 50
90.0
  0
TEXT
  5
2F9
330
2F2
100
AcDbEntity
  8
SIZE
 62
     0
100
AcDbText
 10
-1492.399999976157
 20
964.9999998776079
 30
0.0
 40
30.0
  1
2030
 50
90.0
 72
     1
 11
-1492.399999976157
 21
1014.999999877608
 31
0.0
100
AcDbText
  0
POINT
  5
2FA
330
2F2
100
AcDbEntity
  8
DEFPOINTS
 62
     0
100
AcDbPoint
 10
-1330.0
 20
0.0
 30
0.0
  0
POINT
  5
2FB
330
2F2
100
AcDbEntity
  8
DEFPOINTS
 62
     0
100
AcDbPoint
 10
-1330.0
 20
2030.0
 30
0.0
  0
POINT
  5
2FC
330
2F2
100
AcDbEntity
  8
DEFPOINTS
 62
     0
100
AcDbPoint
 10
-1482.399999976158
 20
2030.0
 30
0.0
  0
ENDBLK
  5
2FD
330
2F2
100
AcDbEntity
  8
0
100
AcDbBlockEnd
  0
BLOCK
  5
2FF
330
2FE
100
AcDbEntity
  8
0
100
AcDbBlockBegin
  2
*D39
 70
     1
 10
0.0
 20
0.0
 30
0.0
  3
*D39
  1

  0
LINE
  5
300
330
2FE
100
AcDbEntity
  8
SIZE
 62
     0
100
AcDbLine
 10
0.0000000000001716
 20
1840.0
 30
0.0
 11
0.0000000000001933
 21
2194.899999976158
 31
0.0
  0
LINE
  5
301
330
2FE
100
AcDbEntity
  8
SIZE
 62
     0
100
AcDbLine
 10
150.0
 20
1883.0
 30
0.0
 11
150.0
 21
2194.899999976158
 31
0.0
  0
LINE
  5
302
330
2FE
100
AcDbEntity
  8
SIZE
 62
     0
100
AcDbLine
 10
10.00000000000019
 20
2182.399999976158
 30
0.0
 11
140.0
 21
2182.399999976158
 31
0.0
  0
INSERT
  5
303
330
2FE
100
AcDbEntity
  8
SIZE
 62
     0
100
AcDbBlockReference
  2
_ORIGIN
 10
0.0000000000001926
 20
2182.399999976158
 30
0.0
 41
10.0
 42
10.0
 43
10.0
 50
180.0
  0
INSERT
  5
304
330
2FE
100
AcDbEntity
  8
SIZE
 62
     0
100
AcDbBlockReference
  2
_ORIGIN
 10
150.0
 20
2182.399999976158
 30
0.0
 41
10.0
 42
10.0
 43
10.0
  0
TEXT
  5
305
330
2FE
100
AcDbEntity
  8
SIZE
 62
     0
100
AcDbText
 10
42.49999993880403
 20
2192.399999976158
 30
0.0
 40
30.0
  1
150
 72
     1
 11
74.99999993880404
 21
2192.399999976158
 31
0.0
100
AcDbText
  0
POINT
  5
306
330
2FE
100
AcDbEntity
  8
DEFPOINTS
 62
     0
100
AcDbPoint
 10
0.000000000000171
 20
1830.0
 30
0.0
  0
POINT
  5
307
330
2FE
100
AcDbEntity
  8
DEFPOINTS
 62
     0
100
AcDbPoint
 10
150.0
 20
1873.0
 30
0.0
  0
POINT
  5
308
330
2FE
100
AcDbEntity
  8
DEFPOINTS
 62
     0
100
AcDbPoint
 10
150.0
 20
2182.399999976158
 30
0.0
  0
ENDBLK
  5
309
330
2FE
100
AcDbEntity
  8
0
100
AcDbBlockEnd
  0
BLOCK
  5
30B
330
30A
100
AcDbEntity
  8
0
100
AcDbBlockBegin
  2
*D40
 70
     1
 10
0.0
 20
0.0
 30
0.0
  3
*D40
  1

  0
LINE
  5
30C
330
30A
100
AcDbEntity
  8
SIZE
 62
     0
100
AcDbLine
 10
-46.0
 20
-0.0000000000000028
 30
0.0
 11
360.1000000238418
 21
-0.0000000000001179
 31
0.0
  0
LINE
  5
30D
330
30A
100
AcDbEntity
  8
SIZE
 62
     0
100
AcDbLine
 10
180.0
 20
1853.0
 30
0.0
 11
360.1000000238422
 21
1853.0
 31
0.0
  0
LINE
  5
30E
330
30A
100
AcDbEntity
  8
SIZE
 62
     0
100
AcDbLine
 10
347.6000000238418
 20
9.999999999999886
 30
0.0
 11
347.6000000238422
 21
1843.0
 31
0.0
  0
INSERT
  5
30F
330
30A
100
AcDbEntity
  8
SIZE
 62
     0
100
AcDbBlockReference
  2
_ORIGIN
 10
347.6000000238418
 20
-0.0000000000001143
 30
0.0
 41
10.0
 42
10.0
 43
10.0
 50
270.0
  0
INSERT
  5
310
330
30A
100
AcDbEntity
  8
SIZE
 62
     0
100
AcDbBlockReference
  2
_ORIGIN
 10
347.6000000238422
 20
1853.0
 30
0.0
 41
10.0
 42
10.0
 43
10.0
 50
90.0
  0
TEXT
  5
311
330
30A
100
AcDbEntity
  8
SIZE
 62
     0
100
AcDbText
 10
337.6000000238418
 20
876.499999877608
 30
0.0
 40
30.0
  1
1853
 50
90.0
 72
     1
 11
337.6000000238418
 21
926.499999877608
 31
0.0
100
AcDbText
  0
POINT
  5
312
330
30A
100
AcDbEntity
  8
DEFPOINTS
 62
     0
100
AcDbPoint
 10
-56.0
 20
0.0
 30
0.0
  0
POINT
  5
313
330
30A
100
AcDbEntity
  8
DEFPOINTS
 62
     0
100
AcDbPoint
 10
170.0
 20
1853.0
 30
0.0
  0
POINT
  5
314
330
30A
100
AcDbEntity
  8
DEFPOINTS
 62
     0
100
AcDbPoint
 10
347.6000000238422
 20
1853.0
 30
0.0
  0
ENDBLK
  5
315
330
30A
100
AcDbEntity
  8
0
100
AcDbBlockEnd
  0
BLOCK
  5
317
330
316
100
AcDbEntity
  8
0
100
AcDbBlockBegin
  2
*D41
 70
     1
 10
0.0
 20
0.0
 30
0.0
  3
*D41
  1

  0
LINE
  5
318
330
316
100
AcDbEntity
  8
SIZE
 62
     0
100
AcDbLine
 10
-1320.0
 20
-0.0000000000000028
 30
0.0
 11
-1219.899999976158
 21
-0.0000000000000312
 31
0.0
  0
LINE
  5
319
330
316
100
AcDbEntity
  8
SIZE
 62
     0
100
AcDbLine
 10
-695.0
 20
891.0
 30
0.0
 11
-1244.899999976158
 21
891.0000000000001
 31
0.0
  0
LINE
  5
31A
330
316
100
AcDbEntity
  8
SIZE
 62
     0
100
AcDbLine
 10
-1232.399999976158
 20
9.999999999999971
 30
0.0
 11
-1232.399999976158
 21
881.0
 31
0.0
  0
INSERT
  5
31B
330
316
100
AcDbEntity
  8
SIZE
 62
     0
100
AcDbBlockReference
  2
_ORIGIN
 10
-1232.399999976158
 20
-0.0000000000000276
 30
0.0
 41
10.0
 42
10.0
 43
10.0
 50
270.0
  0
INSERT
  5
31C
330
316
100
AcDbEntity
  8
SIZE
 62
     0
100
AcDbBlockReference
  2
_ORIGIN
 10
-1232.399999976158
 20
891.0000000000001
 30
0.0
 41
10.0
 42
10.0
 43
10.0
 50
90.0
  0
TEXT
  5
31D
330
316
100
AcDbEntity
  8
SIZE
 62
     0
100
AcDbText
 10
-1242.399999976158
 20
410.499999877608
 30
0.0
 40
30.0
  1
891
 50
90.0
 72
     1
 11
-1242.399999976158
 21
445.499999877608
 31
0.0
100
AcDbText
  0
POINT
  5
31E
330
316
100
AcDbEntity
  8
DEFPOINTS
 62
     0
100
AcDbPoint
 10
-1330.0
 20
0.0
 30
0.0
  0
POINT
  5
31F
330
316
100
AcDbEntity
  8
DEFPOINTS
 62
     0
100
AcDbPoint
 10
-685.0
 20
891.0
 30
0.0
  0
POINT
  5
320
330
316
100
AcDbEntity
  8
DEFPOINTS
 62
     0
100
AcDbPoint
 10
-1232.399999976158
 20
891.0000000000001
 30
0.0
  0
ENDBLK
  5
321
330
316
100
AcDbEntity
  8
0
100
AcDbBlockEnd
  0
BLOCK
  5
323
330
322
100
AcDbEntity
  8
0
100
AcDbBlockBegin
  2
*D42
 70
     1
 10
0.0
 20
0.0
 30
0.0
  3
*D42
  1

  0
LINE
  5
324
330
322
100
AcDbEntity
  8
SIZE
 62
     0
100
AcDbLine
 10
-740.0
 20
0.0000000000000028
 30
0.0
 11
-944.899999976158
 21
0.0000000000000609
 31
0.0
  0
LINE
  5
325
330
322
100
AcDbEntity
  8
SIZE
 62
     0
100
AcDbLine
 10
-603.5
 20
172.5
 30
0.0
 11
-944.899999976158
 21
172.5000000000001
 31
0.0
  0
LINE
  5
326
330
322
100
AcDbEntity
  8
SIZE
 62
     0
100
AcDbLine
 10
-932.399999976158
 20
10.00000000000006
 30
0.0
 11
-932.399999976158
 21
162.5000000000001
 31
0.0
  0
INSERT
  5
327
330
322
100
AcDbEntity
  8
SIZE
 62
     0
100
AcDbBlockReference
  2
_ORIGIN
 10
-932.399999976158
 20
0.0000000000000573
 30
0.0
 41
10.0
 42
10.0
 43
10.0
 50
270.0
  0
INSERT
  5
328
330
322
100
AcDbEntity
  8
SIZE
 62
     0
100
AcDbBlockReference
  2
_ORIGIN
 10
-932.399999976158
 20
172.5000000000001
 30
0.0
 41
10.0
 42
10.0
 43
10.0
 50
90.0
  0
TEXT
  5
329
330
322
100
AcDbEntity
  8
SIZE
 62
     0
100
AcDbText
 10
-942.3999999761582
 20
51.24999987760809
 30
0.0
 40
30.0
  1
173
 50
90.0
 72
     1
 11
-942.3999999761582
 21
86.24999987760809
 31
0.0
100
AcDbText
  0
POINT
  5
32A
330
322
100
AcDbEntity
  8
DEFPOINTS
 62
     0
100
AcDbPoint
 10
-730.0
 20
0.0
 30
0.0
  0
POINT
  5
32B
330
322
100
AcDbEntity
  8
DEFPOINTS
 62
     0
100
AcDbPoint
 10
-593.5
 20
172.5
 30
0.0
  0
POINT
  5
32C
330
322
100
AcDbEntity
  8
DEFPOINTS
 62
     0
100
AcDbPoint
 10
-932.399999976158
 20
172.5000000000001
 30
0.0
  0
ENDBLK
  5
32D
330
322
100
AcDbEntity
  8
0
100
AcDbBlockEnd
  0
BLOCK
  5
32F
330
32E
100
AcDbEntity
  8
0
100
AcDbBlockBegin
  2
*D43
 70
     1
 10
0.0
 20
0.0
 30
0.0
  3
*D43
  1

  0
LINE
  5
330
330
32E
100
AcDbEntity
  8
SIZE
 62
     0
100
AcDbLine
 10
-730.0
 20
10.0
 30
0.0
 11
-730.0
 21
314.9000000618324
 31
0.0
  0
LINE
  5
331
330
32E
100
AcDbEntity
  8
SIZE
 62
     0
100
AcDbLine
 10
-665.0
 20
230.0
 30
0.0
 11
-665.0
 21
314.9000000618324
 31
0.0
  0
LINE
  5
332
330
32E
100
AcDbEntity
  8
SIZE
 62
     0
100
AcDbLine
 10
-675.0
 20
302.4000000618324
 30
0.0
 11
-720.0
 21
302.4000000618324
 31
0.0
  0
LINE
  5
333
330
32E
100
AcDbEntity
  8
SIZE
 62
     0
100
AcDbLine
 10
-730.0
 20
302.4000000618324
 30
0.0
 11
-841.092917622727
 21
302.4000000618324
 31
0.0
  0
INSERT
  5
334
330
32E
100
AcDbEntity
  8
SIZE
 62
     0
100
AcDbBlockReference
  2
_ORIGIN
 10
-665.0
 20
302.4000000618324
 30
0.0
 41
10.0
 42
10.0
 43
10.0
  0
INSERT
  5
335
330
32E
100
AcDbEntity
  8
SIZE
 62
     0
100
AcDbBlockReference
  2
_ORIGIN
 10
-730.0
 20
302.4000000618324
 30
0.0
 41
10.0
 42
10.0
 43
10.0
 50
180.0
  0
TEXT
  5
336
330
32E
100
AcDbEntity
  8
SIZE
 62
     0
100
AcDbText
 10
-831.092917622727
 20
312.4000000618324
 30
0.0
 40
30.0
  1
65
 72
     1
 11
-806.092917622727
 21
312.4000000618324
 31
0.0
100
AcDbText
  0
POINT
  5
337
330
32E
100
AcDbEntity
  8
DEFPOINTS
 62
     0
100
AcDbPoint
 10
-730.0
 20
0.0
 30
0.0
  0
POINT
  5
338
330
32E
100
AcDbEntity
  8
DEFPOINTS
 62
     0
100
AcDbPoint
 10
-665.0
 20
220.0
 30
0.0
  0
POINT
  5
339
330
32E
100
AcDbEntity
  8
DEFPOINTS
 62
     0
100
AcDbPoint
 10
-665.0
 20
302.4000000618324
 30
0.0
  0
ENDBLK
  5
33A
330
32E
100
AcDbEntity
  8
0
100
AcDbBlockEnd
  0
BLOCK
  5
33C
330
33B
100
AcDbEntity
  8
0
100
AcDbBlockBegin
  2
*D44
 70
     1
 10
0.0
 20
0.0
 30
0.0
  3
*D44
  1

  0
LINE
  5
33D
330
33B
100
AcDbEntity
  8
SIZE
 62
     0
100
AcDbLine
 10
-730.0
 20
10.0
 30
0.0
 11
-730.0
 21
414.9000000618324
 31
0.0
  0
LINE
  5
33E
330
33B
100
AcDbEntity
  8
SIZE
 62
     0
100
AcDbLine
 10
-643.0
 20
230.0
 30
0.0
 11
-643.0
 21
414.9000000618324
 31
0.0
  0
LINE
  5
33F
330
33B
100
AcDbEntity
  8
SIZE
 62
     0
100
AcDbLine
 10
-653.0
 20
402.4000000618324
 30
0.0
 11
-720.0
 21
402.4000000618324
 31
0.0
  0
LINE
  5
340
330
33B
100
AcDbEntity
  8
SIZE
 62
     0
100
AcDbLine
 10
-730.0
 20
402.4000000618324
 30
0.0
 11
-841.7577735797584
 21
402.4000000618324
 31
0.0
  0
INSERT
  5
341
330
33B
100
AcDbEntity
  8
SIZE
 62
     0
100
AcDbBlockReference
  2
_ORIGIN
 10
-643.0
 20
402.4000000618324
 30
0.0
 41
10.0
 42
10.0
 43
10.0
  0
INSERT
  5
342
330
33B
100
AcDbEntity
  8
SIZE
 62
     0
100
AcDbBlockReference
  2
_ORIGIN
 10
-730.0
 20
402.4000000618324
 30
0.0
 41
10.0
 42
10.0
 43
10.0
 50
180.0
  0
TEXT
  5
343
330
33B
100
AcDbEntity
  8
SIZE
 62
     0
100
AcDbText
 10
-831.7577735797582
 20
412.4000000618323
 30
0.0
 40
30.0
  1
87
 72
     1
 11
-806.7577735797582
 21
412.4000000618323
 31
0.0
100
AcDbText
  0
POINT
  5
344
330
33B
100
AcDbEntity
  8
DEFPOINTS
 62
     0
100
AcDbPoint
 10
-730.0
 20
0.0
 30
0.0
  0
POINT
  5
345
330
33B
100
AcDbEntity
  8
DEFPOINTS
 62
     0
100
AcDbPoint
 10
-643.0
 20
220.0
 30
0.0
  0
POINT
  5
346
330
33B
100
AcDbEntity
  8
DEFPOINTS
 62
     0
100
AcDbPoint
 10
-643.0
 20
402.4000000618324
 30
0.0
  0
ENDBLK
  5
347
330
33B
100
AcDbEntity
  8
0
100
AcDbBlockEnd
  0
BLOCK
  5
349
330
348
100
AcDbEntity
  8
0
100
AcDbBlockBegin
  2
*D45
 70
     1
 10
0.0
 20
0.0
 30
0.0
  3
*D45
  1

  0
LINE
  5
34A
330
348
100
AcDbEntity
  8
SIZE
 62
     0
100
AcDbLine
 10
-730.0
 20
10.0
 30
0.0
 11
-730.0
 21
696.8993896245956
 31
0.0
  0
LINE
  5
34B
330
348
100
AcDbEntity
  8
SIZE
 62
     0
100
AcDbLine
 10
-665.0
 20
790.0
 30
0.0
 11
-665.0
 21
671.8993896245956
 31
0.0
  0
LINE
  5
34C
330
348
100
AcDbEntity
  8
SIZE
 62
     0
100
AcDbLine
 10
-675.0
 20
684.3993896245956
 30
0.0
 11
-720.0
 21
684.3993896245956
 31
0.0
  0
LINE
  5
34D
330
348
100
AcDbEntity
  8
SIZE
 62
     0
100
AcDbLine
 10
-730.0
 20
684.3993896245956
 30
0.0
 11
-844.9474487916644
 21
684.3993896245956
 31
0.0
  0
INSERT
  5
34E
330
348
100
AcDbEntity
  8
SIZE
 62
     0
100
AcDbBlockReference
  2
_ORIGIN
 10
-665.0
 20
684.3993896245956
 30
0.0
 41
10.0
 42
10.0
 43
10.0
  0
INSERT
  5
34F
330
348
100
AcDbEntity
  8
SIZE
 62
     0
100
AcDbBlockReference
  2
_ORIGIN
 10
-730.0
 20
684.3993896245956
 30
0.0
 41
10.0
 42
10.0
 43
10.0
 50
180.0
  0
TEXT
  5
350
330
348
100
AcDbEntity
  8
SIZE
 62
     0
100
AcDbText
 10
-834.9474487916644
 20
694.3993896245956
 30
0.0
 40
30.0
  1
65
 72
     1
 11
-809.9474487916644
 21
694.3993896245956
 31
0.0
100
AcDbText
  0
POINT
  5
351
330
348
100
AcDbEntity
  8
DEFPOINTS
 62
     0
100
AcDbPoint
 10
-730.0
 20
0.0
 30
0.0
  0
POINT
  5
352
330
348
100
AcDbEntity
  8
DEFPOINTS
 62
     0
100
AcDbPoint
 10
-665.0
 20
800.0
 30
0.0
  0
POINT
  5
353
330
348
100
AcDbEntity
  8
DEFPOINTS
 62
     0
100
AcDbPoint
 10
-665.0
 20
684.3993896245956
 30
0.0
  0
ENDBLK
  5
354
330
348
100
AcDbEntity
  8
0
100
AcDbBlockEnd
  0
BLOCK
  5
356
330
355
100
AcDbEntity
  8
0
100
AcDbBlockBegin
  2
*D46
 70
     1
 10
0.0
 20
0.0
 30
0.0
  3
*D46
  1

  0
LINE
  5
357
330
355
100
AcDbEntity
  8
SIZE
 62
     0
100
AcDbLine
 10
-740.0
 20
0.0000000000000028
 30
0.0
 11
-1144.899999976158
 21
0.0000000000001175
 31
0.0
  0
LINE
  5
358
330
355
100
AcDbEntity
  8
SIZE
 62
     0
100
AcDbLine
 10
-695.0
 20
820.0
 30
0.0
 11
-1144.899999976157
 21
820.0000000000001
 31
0.0
  0
LINE
  5
359
330
355
100
AcDbEntity
  8
SIZE
 62
     0
100
AcDbLine
 10
-1132.399999976158
 20
10.00000000000011
 30
0.0
 11
-1132.399999976158
 21
810.0000000000001
 31
0.0
  0
INSERT
  5
35A
330
355
100
AcDbEntity
  8
SIZE
 62
     0
100
AcDbBlockReference
  2
_ORIGIN
 10
-1132.399999976158
 20
0.000000000000114
 30
0.0
 41
10.0
 42
10.0
 43
10.0
 50
270.0
  0
INSERT
  5
35B
330
355
100
AcDbEntity
  8
SIZE
 62
     0
100
AcDbBlockReference
  2
_ORIGIN
 10
-1132.399999976158
 20
820.0000000000001
 30
0.0
 41
10.0
 42
10.0
 43
10.0
 50
90.0
  0
TEXT
  5
35C
330
355
100
AcDbEntity
  8
SIZE
 62
     0
100
AcDbText
 10
-1142.399999976158
 20
372.499999877608
 30
0.0
 40
30.0
  1
820
 50
90.0
 72
     1
 11
-1142.399999976158
 21
409.999999877608
 31
0.0
100
AcDbText
  0
POINT
  5
35D
330
355
100
AcDbEntity
  8
DEFPOINTS
 62
     0
100
AcDbPoint
 10
-730.0
 20
0.0
 30
0.0
  0
POINT
  5
35E
330
355
100
AcDbEntity
  8
DEFPOINTS
 62
     0
100
AcDbPoint
 10
-685.0
 20
820.0
 30
0.0
  0
POINT
  5
35F
330
355
100
AcDbEntity
  8
DEFPOINTS
 62
     0
100
AcDbPoint
 10
-1132.399999976158
 20
820.0000000000001
 30
0.0
  0
ENDBLK
  5
360
330
355
100
AcDbEntity
  8
0
100
AcDbBlockEnd
  0
ENDSEC
  0
SECTION
  2
ENTITIES
  0
LINE
  5
361
330
70
100
AcDbEntity
  8
OUTLINE
  6
Continuous
100
AcDbLine
 10
0.0
 20
1830.0
 30
0.0
 11
0.0
 21
200.0
 31
0.0
  0
LINE
  5
362
330
70
100
AcDbEntity
  8
OUTLINE
  6
Continuous
100
AcDbLine
 10
-730.0
 20
1830.0
 30
0.0
 11
-730.0
 21
1804.0
 31
0.0
  0
LINE
  5
363
330
70
100
AcDbEntity
  8
OUTLINE
  6
Continuous
100
AcDbLine
 10
-730.0
 20
1830.0
 30
0.0
 11
0.0
 21
1830.0
 31
0.0
  0
LINE
  5
364
330
70
100
AcDbEntity
  8
OUTLINE
  6
Continuous
100
AcDbLine
 10
-730.0
 20
1804.0
 30
0.0
 11
-724.0
 21
1804.0
 31
0.0
  0
LINE
  5
365
330
70
100
AcDbEntity
  8
OUTLINE
  6
Continuous
100
AcDbLine
 10
-724.0
 20
200.0
 30
0.0
 11
-724.0
 21
1804.0
 31
0.0
  0
LINE
  5
366
330
70
100
AcDbEntity
  8
OUTLINE
  6
Continuous
100
AcDbLine
 10
-724.0
 20
200.0
 30
0.0
 11
0.0
 21
200.0
 31
0.0
  0
LINE
  5
367
330
70
100
AcDbEntity
  8
OUTLINE
  6
Continuous
100
AcDbLine
 10
-570.5264811340785
 20
200.0
 30
0.0
 11
-570.5264811340785
 21
20.0
 31
0.0
  0
LINE
  5
368
330
70
100
AcDbEntity
  8
OUTLINE
  6
Continuous
100
AcDbLine
 10
-140.4996824528
 20
200.0
 30
0.0
 11
-140.4996824528
 21
20.0
 31
0.0
  0
LINE
  5
369
330
70
100
AcDbEntity
  8
OUTLINE
  6
Continuous
100
AcDbLine
 10
-200.4996824528
 20
20.00000000000005
 30
0.0
 11
-200.4996824528
 21
200.0
 31
0.0
  0
LINE
  5
36A
330
70
100
AcDbEntity
  8
OUTLINE
  6
Continuous
100
AcDbLine
 10
-200.4996824528
 20
20.00000000000005
 30
0.0
 11
-225.9999999999996
 21
20.0
 31
0.0
  0
LINE
  5
36B
330
70
100
AcDbEntity
  8
OUTLINE
  6
Continuous
100
AcDbLine
 10
-111.9999999999997
 20
20.0
 30
0.0
 11
-140.4996824528
 21
20.0
 31
0.0
  0
LINE
  5
36C
330
70
100
AcDbEntity
  8
OUTLINE
  6
Continuous
100
AcDbLine
 10
-95.99999999999978
 20
0.0
 30
0.0
 11
-235.9999999999996
 21
0.0
 31
0.0
  0
LINE
  5
36D
330
70
100
AcDbEntity
  8
OUTLINE
  6
Continuous
100
AcDbLine
 10
-235.9999999999996
 20
10.0
 30
0.0
 11
-235.9999999999996
 21
0.0
 31
0.0
  0
ARC
  5
36E
330
70
100
AcDbEntity
  8
OUTLINE
  6
Continuous
100
AcDbCircle
 10
-225.9999999999996
 20
10.0
 30
0.0
 40
10.0
100
AcDbArc
 50
90.0
 51
180.0
  0
ARC
  5
36F
330
70
100
AcDbEntity
  8
OUTLINE
  6
Continuous
100
AcDbCircle
 10
-111.9999999999997
 20
10.0
 30
0.0
 40
10.0
100
AcDbArc
 50
0.0
 51
90.0
  0
LINE
  5
370
330
70
100
AcDbEntity
  8
OUTLINE
  6
Continuous
100
AcDbLine
 10
-95.99999999999978
 20
0.0
 30
0.0
 11
-95.99999999999978
 21
3.200000000000045
 31
0.0
  0
LINE
  5
371
330
70
100
AcDbEntity
  8
OUTLINE
  6
Continuous
100
AcDbLine
 10
-95.99999999999978
 20
3.200000000000045
 30
0.0
 11
-101.9999999999998
 21
3.200000000000045
 31
0.0
  0
LINE
  5
372
330
70
100
AcDbEntity
  8
OUTLINE
  6
Continuous
100
AcDbLine
 10
-101.9999999999998
 20
0.0
 30
0.0
 11
-101.9999999999998
 21
10.0
 31
0.0
  0
LINE
  5
373
330
70
100
AcDbEntity
  8
OUTLINE
  6
Continuous
100
AcDbLine
 10
-630.4996824528
 20
20.00000000000005
 30
0.0
 11
-630.4996824528
 21
200.0
 31
0.0
  0
LINE
  5
374
330
70
100
AcDbEntity
  8
OUTLINE
  6
Continuous
100
AcDbLine
 10
-630.4996824528
 20
20.00000000000005
 30
0.0
 11
-655.9999999999996
 21
20.0
 31
0.0
  0
LINE
  5
375
330
70
100
AcDbEntity
  8
OUTLINE
  6
Continuous
100
AcDbLine
 10
-525.9999999999998
 20
0.0
 30
0.0
 11
-665.9999999999996
 21
0.0
 31
0.0
  0
LINE
  5
376
330
70
100
AcDbEntity
  8
OUTLINE
  6
Continuous
100
AcDbLine
 10
-665.9999999999996
 20
10.0
 30
0.0
 11
-665.9999999999996
 21
0.0
 31
0.0
  0
ARC
  5
377
330
70
100
AcDbEntity
  8
OUTLINE
  6
Continuous
100
AcDbCircle
 10
-655.9999999999996
 20
10.0
 30
0.0
 40
10.0
100
AcDbArc
 50
90.0
 51
180.0
  0
LINE
  5
378
330
70
100
AcDbEntity
  8
OUTLINE
  6
Continuous
100
AcDbLine
 10
-541.9999999999999
 20
20.0
 30
0.0
 11
-570.4996824528
 21
20.0
 31
0.0
  0
ARC
  5
379
330
70
100
AcDbEntity
  8
OUTLINE
  6
Continuous
100
AcDbCircle
 10
-541.9999999999999
 20
10.0
 30
0.0
 40
10.0
100
AcDbArc
 50
0.0
 51
90.0
  0
LINE
  5
37A
330
70
100
AcDbEntity
  8
OUTLINE
  6
Continuous
100
AcDbLine
 10
-525.9999999999998
 20
0.0
 30
0.0
 11
-525.9999999999998
 21
3.200000000000045
 31
0.0
  0
LINE
  5
37B
330
70
100
AcDbEntity
  8
OUTLINE
  6
Continuous
100
AcDbLine
 10
-525.9999999999998
 20
3.200000000000045
 30
0.0
 11
-531.9999999999996
 21
3.200000000000045
 31
0.0
  0
LINE
  5
37C
330
70
100
AcDbEntity
  8
OUTLINE
  6
Continuous
100
AcDbLine
 10
-531.9999999999996
 20
0.0
 30
0.0
 11
-531.9999999999996
 21
10.0
 31
0.0
  0
LWPOLYLINE
  5
37D
330
70
100
AcDbEntity
  8
DETAIL
  6
Continuous
100
AcDbPolyline
 90
       16
 70
     0
 43
0.0
 10
-570.4996824528
 20
163.6683110667658
 10
-569.1284228667216
 20
164.133077476187
 10
-567.8537030455032
 20
164.8791320687372
 10
-566.7183778884801
 20
165.8813931802494
 10
-565.7606159755305
 20
167.1061657207698
 10
-565.0126163747816
 20
168.5122739722622
 10
-564.4995261397747
 20
170.0524458780988
 10
-564.2385948888216
 20
171.6749022858061
 10
-564.2385948888216
 20
173.3250977141946
 10
-564.4995261397747
 20
174.9475541219019
 10
-565.0126163747816
 20
176.4877260277387
 10
-565.7606159755305
 20
177.8938342792311
 10
-566.7183778884801
 20
179.1186068197514
 10
-567.8537030455032
 20
180.1208679312636
 10
-569.1284228667216
 20
180.8669225238138
 10
-570.4996824528
 20
181.331688933235
  0
LWPOLYLINE
  5
38F
330
70
100
AcDbEntity
  8
DETAIL
  6
DASHED
100
AcDbPolyline
 90
        6
 70
     0
 43
0.0
 10
-570.4996824528
 20
181.331688933235
 10
-571.7516874154647
 20
181.4954314943887
 10
-573.010181718176
 20
181.4240897223375
 10
-574.2422761888945
 20
181.1195280449216
 10
-575.4157715821161
 20
180.5897058000448
 10
-576.5000000658194
 20
179.8484692283498
  0
LWPOLYLINE
  5
397
330
70
100
AcDbEntity
  8
DETAIL
  6
Continuous
100
AcDbPolyline
 90
       13
 70
     0
 43
0.0
 10
-570.4996824528
 20
165.2890736405552
 10
-569.390148052916
 20
166.0595945850144
 10
-568.4241453951393
 20
167.0550391048686
 10
-567.6354109848021
 20
168.2406424724204
 10
-567.0514904424329
 20
169.5749988861333
 10
-566.6927765053944
 20
171.0115075194928
 10
-566.5717968355437
 20
172.5000000000004
 10
-566.6927765053944
 20
173.9884924805081
 10
-567.0514904424329
 20
175.4250011138676
 10
-567.6354109848021
 20
176.7593575275803
 10
-568.4241453951393
 20
177.9449608951321
 10
-569.390148052916
 20
178.9404054149864
 10
-570.4996824528
 20
179.7109263594456
  0
LWPOLYLINE
  5
3A6
330
70
100
AcDbEntity
  8
DETAIL
  6
Continuous
100
AcDbPolyline
 90
       12
 70
     0
 43
0.0
 10
-570.4996824528
 20
166.4174463456347
 10
-569.5520969841942
 20
167.1878678158944
 10
-568.7487931555811
 20
168.1524285868335
 10
-568.1191288289465
 20
169.2758774359611
 10
-567.6861159678098
 20
170.5171563537342
 10
-567.4655796328303
 20
171.830901065944
 10
-567.4655796328303
 20
173.1690989345671
 10
-567.6861159678098
 20
174.4828436467769
 10
-568.1191288289465
 20
175.7241225645499
 10
-568.7487931555811
 20
176.8475714136775
 10
-569.5520969841942
 20
177.8121321846167
 10
-570.4996824528
 20
178.5825536548763
  0
LINE
  5
3B4
330
70
100
AcDbEntity
  8
DETAIL
  6
DASHED
100
AcDbLine
 10
-570.4996824528
 20
163.5000000000004
 30
0.0
 11
-572.0000000658195
 21
163.5000000000004
 31
0.0
  0
LINE
  5
3B5
330
70
100
AcDbEntity
  8
DETAIL
  6
DASHED
100
AcDbLine
 10
-570.4996824528
 20
181.5000000000004
 30
0.0
 11
-572.0000000658195
 21
181.5000000000004
 31
0.0
  0
LINE
  5
3B6
330
70
100
AcDbEntity
  8
DETAIL
  6
DASHED
100
AcDbLine
 10
-577.5000000658194
 20
165.9680273525786
 30
0.0
 11
-576.5000000658194
 21
165.151530771651
 31
0.0
  0
LINE
  5
3B7
330
70
100
AcDbEntity
  8
DETAIL
  6
DASHED
100
AcDbLine
 10
-577.5000000658194
 20
179.0319726474223
 30
0.0
 11
-576.5000000658194
 21
179.8484692283498
 31
0.0
  0
LWPOLYLINE
  5
3B8
330
70
100
AcDbEntity
  8
DETAIL
  6
DASHED
100
AcDbPolyline
 90
        6
 70
     0
 43
0.0
 10
-576.5000000658194
 20
165.151530771651
 10
-575.4157715821161
 20
164.4102941999559
 10
-574.2422761888945
 20
163.8804719550793
 10
-573.010181718176
 20
163.5759102776634
 10
-571.7516874154647
 20
163.5045685056122
 10
-570.4996824528
 20
163.6683110667658
  0
LWPOLYLINE
  5
3C0
330
70
100
AcDbEntity
  8
DETAIL
  6
DASHED
100
AcDbPolyline
 90
       22
 70
     0
 43
0.0
 10
-570.4996824528
 20
179.7109263594456
 10
-571.7481823499045
 20
180.2400374409268
 10
-573.0612338428255
 20
180.4839408983754
 10
-574.3904531479731
 20
180.4336492913403
 10
-575.686860724519
 20
180.0910157826591
 10
-576.9026860897621
 20
179.4686658524634
 10
-577.9931280826864
 20
178.5895320700414
 10
-578.9180057129128
 20
177.4860090664533
 10
-579.6432387639755
 20
176.1987598457633
 10
-580.1421035931356
 20
174.7752174203533
 10
-580.3962178535727
 20
173.2678369825863
 10
-580.3962178535727
 20
171.7321630174146
 10
-580.1421035931356
 20
170.2247825796476
 10
-579.6432387639755
 20
168.8012401542376
 10
-578.9180057129128
 20
167.5139909335476
 10
-577.9931280826864
 20
166.4104679299594
 10
-576.9026860897621
 20
165.5313341475373
 10
-575.686860724519
 20
164.9089842173416
 10
-574.3904531479731
 20
164.5663507086606
 10
-573.0612338428255
 20
164.5160591016253
 10
-571.7481823499045
 20
164.7599625590741
 10
-570.4996824528
 20
165.2890736405552
  0
LWPOLYLINE
  5
3D8
330
70
100
AcDbEntity
  8
DETAIL
  6
DASHED
100
AcDbPolyline
 90
       23
 70
     0
 43
0.0
 10
-570.4996824528
 20
178.5825536548763
 10
-571.547757451593
 20
179.1270907420716
 10
-572.6659990610483
 20
179.4334399664907
 10
-573.8142159529639
 20
179.4905906644999
 10
-574.9511394412543
 20
179.2964887518646
 10
-576.0359067421782
 20
178.8581105507044
 10
-577.0295296458136
 20
178.1912120497164
 10
-577.8962958124552
 20
177.3197626096393
 10
-578.6050523291891
 20
176.2750834674587
 10
-579.1303253936292
 20
175.0947220028403
 10
-579.453235881667
 20
173.8211022273927
 10
-579.5621778923105
 20
172.5000000002555
 10
-579.453235881667
 20
171.1788977731183
 10
-579.1303253936292
 20
169.9052779976707
 10
-578.6050523291891
 20
168.7249165330524
 10
-577.8962958124552
 20
167.6802373908717
 10
-577.0295296458136
 20
166.8087879507945
 10
-576.0359067421782
 20
166.1418894498065
 10
-574.9511394412543
 20
165.7035112486464
 10
-573.8142159529639
 20
165.509409336011
 10
-572.6659990610483
 20
165.5665600340203
 10
-571.547757451593
 20
165.8729092584394
 10
-570.4996824528
 20
166.4174463456347
  0
LINE
  5
3F1
330
70
100
AcDbEntity
  8
DETAIL
  6
Continuous
100
AcDbLine
 10
-524.5000000658194
 20
188.5
 30
0.0
 11
-524.5000000658194
 21
192.0
 31
0.0
  0
LINE
  5
3F2
330
70
100
AcDbEntity
  8
DETAIL
  6
Continuous
100
AcDbLine
 10
-524.5000000658194
 20
188.5
 30
0.0
 11
-570.4996824528
 21
188.5
 31
0.0
  0
LINE
  5
3F3
330
70
100
AcDbEntity
  8
DETAIL
  6
Continuous
100
AcDbLine
 10
-556.0000000658194
 20
163.5000000000004
 30
0.0
 11
-570.4996824528
 21
163.5000000000004
 31
0.0
  0
LINE
  5
3F4
330
70
100
AcDbEntity
  8
DETAIL
  6
Continuous
100
AcDbLine
 10
-565.0000000658194
 20
181.5000000000004
 30
0.0
 11
-570.4996824528
 21
181.5000000000004
 31
0.0
  0
LINE
  5
3F5
330
70
100
AcDbEntity
  8
DETAIL
  6
Continuous
100
AcDbLine
 10
-547.0000000658195
 20
181.9715728752535
 30
0.0
 11
-547.0000000658195
 21
172.5000000000004
 31
0.0
  0
LINE
  5
3F6
330
70
100
AcDbEntity
  8
DETAIL
  6
Continuous
100
AcDbLine
 10
-565.0000000658194
 20
181.5000000000004
 30
0.0
 11
-565.0000000658194
 21
181.9715728752536
 31
0.0
  0
ARC
  5
3F7
330
70
100
AcDbEntity
  8
DETAIL
  6
Continuous
100
AcDbCircle
 10
-556.0000000658194
 20
172.5000000000004
 30
0.0
 40
9.0
100
AcDbArc
 50
270.0
 51
0.0
  0
LINE
  5
3F8
330
70
100
AcDbEntity
  8
DETAIL
  6
Continuous
100
AcDbLine
 10
-565.0000000658194
 20
181.9715728752536
 30
0.0
 11
-568.0000000658194
 21
184.9715728752536
 31
0.0
  0
LINE
  5
3F9
330
70
100
AcDbEntity
  8
DETAIL
  6
Continuous
100
AcDbLine
 10
-547.0000000658195
 20
181.9715728752535
 30
0.0
 11
-544.0000000658194
 21
184.9715728752536
 31
0.0
  0
LINE
  5
3FA
330
70
100
AcDbEntity
  8
DETAIL
  6
Continuous
100
AcDbLine
 10
-544.0000000658194
 20
188.5
 30
0.0
 11
-544.0000000658194
 21
184.9715728752536
 31
0.0
  0
LINE
  5
3FB
330
70
100
AcDbEntity
  8
DETAIL
  6
Continuous
100
AcDbLine
 10
-568.0000000658194
 20
188.5
 30
0.0
 11
-568.0000000658194
 21
184.9715728752536
 31
0.0
  0
LINE
  5
3FC
330
70
100
AcDbEntity
  8
DETAIL
  6
Continuous
100
AcDbLine
 10
-544.0000000658194
 20
184.9715728752536
 30
0.0
 11
-568.0000000658194
 21
184.9715728752536
 31
0.0
  0
LINE
  5
3FD
330
70
100
AcDbEntity
  8
DETAIL
  6
Continuous
100
AcDbLine
 10
-507.0
 20
192.0
 30
0.0
 11
-570.4996824528
 21
192.0
 31
0.0
  0
LINE
  5
3FE
330
70
100
AcDbEntity
  8
DETAIL
  6
Continuous
100
AcDbLine
 10
-507.0
 20
192.0
 30
0.0
 11
-499.0000000000001
 21
200.0
 31
0.0
  0
LINE
  5
3FF
330
70
100
AcDbEntity
  8
DETAIL
  6
DASHED
100
AcDbLine
 10
-606.0
 20
200.0
 30
0.0
 11
-606.0
 21
188.9999999999998
 31
0.0
  0
LINE
  5
400
330
70
100
AcDbEntity
  8
DETAIL
  6
DASHED
100
AcDbLine
 10
-609.9999999999994
 20
185.0
 30
0.0
 11
-606.0
 21
188.9999999999998
 31
0.0
  0
LINE
  5
401
330
70
100
AcDbEntity
  8
DETAIL
  6
DASHED
100
AcDbLine
 10
-612.2169454461563
 20
185.0
 30
0.0
 11
-612.2169454461563
 21
170.0
 31
0.0
  0
LINE
  5
402
330
70
100
AcDbEntity
  8
DETAIL
  6
DASHED
100
AcDbLine
 10
-617.3124999999991
 20
155.0
 30
0.0
 11
-616.3749999999992
 21
170.0
 31
0.0
  0
LINE
  5
403
330
70
100
AcDbEntity
  8
DETAIL
  6
DASHED
100
AcDbLine
 10
-617.3124999999997
 20
155.0
 30
0.0
 11
-630.4996824528
 21
155.0
 31
0.0
  0
LINE
  5
404
330
70
100
AcDbEntity
  8
DETAIL
  6
DASHED
100
AcDbLine
 10
-630.4996824528
 20
188.9999999999998
 30
0.0
 11
-606.0
 21
188.9999999999994
 31
0.0
  0
LINE
  5
405
330
70
100
AcDbEntity
  8
DETAIL
  6
DASHED
100
AcDbLine
 10
-609.9999999999994
 20
185.0
 30
0.0
 11
-630.4996824528
 21
185.0
 31
0.0
  0
LINE
  5
406
330
70
100
AcDbEntity
  8
DETAIL
  6
DASHED
100
AcDbLine
 10
-612.2169454461563
 20
170.0
 30
0.0
 11
-630.4996824528
 21
170.0
 31
0.0
  0
LINE
  5
407
330
70
100
AcDbEntity
  8
DETAIL
  6
Continuous
100
AcDbLine
 10
-724.0
 20
345.5
 30
0.0
 11
-729.0
 21
345.5
 31
0.0
  0
LINE
  5
408
330
70
100
AcDbEntity
  8
DETAIL
  6
Continuous
100
AcDbLine
 10
-724.0
 20
227.5
 30
0.0
 11
-729.0
 21
227.5
 31
0.0
  0
LINE
  5
409
330
70
100
AcDbEntity
  8
DETAIL
  6
Continuous
100
AcDbLine
 10
-734.0
 20
232.5
 30
0.0
 11
-734.0
 21
340.5
 31
0.0
  0
ARC
  5
40A
330
70
100
AcDbEntity
  8
DETAIL
  6
Continuous
100
AcDbCircle
 10
-729.0
 20
340.5
 30
0.0
 40
5.0
100
AcDbArc
 50
90.0
 51
180.0
  0
ARC
  5
40B
330
70
100
AcDbEntity
  8
DETAIL
  6
Continuous
100
AcDbCircle
 10
-729.0
 20
232.5
 30
0.0
 40
5.0
100
AcDbArc
 50
180.0
 51
270.0
  0
ARC
  5
40C
330
70
100
AcDbEntity
  8
DETAIL
  6
Continuous
100
AcDbCircle
 10
-729.0
 20
1674.5
 30
0.0
 40
5.0
100
AcDbArc
 50
180.0
 51
270.0
  0
ARC
  5
40D
330
70
100
AcDbEntity
  8
DETAIL
  6
Continuous
100
AcDbCircle
 10
-729.0
 20
1782.5
 30
0.0
 40
5.0
100
AcDbArc
 50
90.0
 51
180.0
  0
LINE
  5
40E
330
70
100
AcDbEntity
  8
DETAIL
  6
Continuous
100
AcDbLine
 10
-63.20000000000001
 20
1833.2
 30
0.0
 11
146.8
 21
1833.2
 31
0.0
  0
LINE
  5
40F
330
70
100
AcDbEntity
  8
DETAIL
  6
Continuous
100
AcDbLine
 10
-62.0
 20
1830.0
 30
0.0
 11
150.0
 21
1830.0
 31
0.0
  0
LINE
  5
410
330
70
100
AcDbEntity
  8
DETAIL
  6
Continuous
100
AcDbLine
 10
148.8
 20
1875.0
 30
0.0
 11
150.0
 21
1875.0
 31
0.0
  0
LINE
  5
411
330
70
100
AcDbEntity
  8
DETAIL
  6
Continuous
100
AcDbLine
 10
150.0
 20
1830.0
 30
0.0
 11
150.0
 21
1875.0
 31
0.0
  0
LINE
  5
412
330
70
100
AcDbEntity
  8
DETAIL
  6
Continuous
100
AcDbLine
 10
-642.6874999999999
 20
155.0
 30
0.0
 11
-630.4996824528
 21
155.0
 31
0.0
  0
LINE
  5
413
330
70
100
AcDbEntity
  8
DETAIL
  6
Continuous
100
AcDbLine
 10
-654.0
 20
200.0
 30
0.0
 11
-654.0
 21
188.9999999999998
 31
0.0
  0
LINE
  5
414
330
70
100
AcDbEntity
  8
DETAIL
  6
Continuous
100
AcDbLine
 10
-650.0000000000006
 20
185.0
 30
0.0
 11
-654.0
 21
188.9999999999998
 31
0.0
  0
LINE
  5
415
330
70
100
AcDbEntity
  8
DETAIL
  6
Continuous
100
AcDbLine
 10
-730.0
 20
1804.0
 30
0.0
 11
0.0
 21
1804.0
 31
0.0
  0
LINE
  5
416
330
70
100
AcDbEntity
  8
DETAIL
  6
Continuous
100
AcDbLine
 10
-694.0
 20
200.0
 30
0.0
 11
-694.0
 21
1804.0
 31
0.0
  0
LINE
  5
417
330
70
100
AcDbEntity
  8
DETAIL
  6
Continuous
100
AcDbLine
 10
-724.0
 20
200.0
 30
0.0
 11
0.0
 21
200.0
 31
0.0
  0
LINE
  5
418
330
70
100
AcDbEntity
  8
DETAIL
  6
Continuous
100
AcDbLine
 10
-724.0
 20
200.0
 30
0.0
 11
-724.0
 21
1804.0
 31
0.0
  0
LINE
  5
419
330
70
100
AcDbEntity
  8
DETAIL
  6
Continuous
100
AcDbLine
 10
-730.0
 20
1830.0
 30
0.0
 11
0.0
 21
1830.0
 31
0.0
  0
LINE
  5
41A
330
70
100
AcDbEntity
  8
DETAIL
  6
Continuous
100
AcDbLine
 10
-730.0
 20
1830.0
 30
0.0
 11
-730.0
 21
1804.0
 31
0.0
  0
LINE
  5
41B
330
70
100
AcDbEntity
  8
DETAIL
  6
Continuous
100
AcDbLine
 10
0.0
 20
1830.0
 30
0.0
 11
0.0
 21
200.0
 31
0.0
  0
LINE
  5
41C
330
70
100
AcDbEntity
  8
DETAIL
  6
Continuous
100
AcDbLine
 10
-734.0
 20
1674.5
 30
0.0
 11
-734.0
 21
1782.5
 31
0.0
  0
LINE
  5
41D
330
70
100
AcDbEntity
  8
DETAIL
  6
Continuous
100
AcDbLine
 10
-724.0
 20
1669.5
 30
0.0
 11
-729.0
 21
1669.5
 31
0.0
  0
LINE
  5
41E
330
70
100
AcDbEntity
  8
DETAIL
  6
Continuous
100
AcDbLine
 10
-724.0
 20
1787.5
 30
0.0
 11
-729.0
 21
1787.5
 31
0.0
  0
LINE
  5
41F
330
70
100
AcDbEntity
  8
DETAIL
  6
Continuous
100
AcDbLine
 10
-630.4996824528
 20
188.9999999999998
 30
0.0
 11
-654.0
 21
188.9999999999994
 31
0.0
  0
LINE
  5
420
330
70
100
AcDbEntity
  8
DETAIL
  6
Continuous
100
AcDbLine
 10
-650.0000000000006
 20
185.0
 30
0.0
 11
-630.4996824528
 21
185.0
 31
0.0
  0
LINE
  5
421
330
70
100
AcDbEntity
  8
DETAIL
  6
Continuous
100
AcDbLine
 10
-647.7830545538436
 20
185.0
 30
0.0
 11
-647.7830545538436
 21
170.0
 31
0.0
  0
LINE
  5
422
330
70
100
AcDbEntity
  8
DETAIL
  6
Continuous
100
AcDbLine
 10
-647.7830545538436
 20
170.0
 30
0.0
 11
-630.4996824528
 21
170.0
 31
0.0
  0
LINE
  5
423
330
70
100
AcDbEntity
  8
DETAIL
  6
Continuous
100
AcDbLine
 10
-642.6875000000007
 20
155.0
 30
0.0
 11
-643.6250000000008
 21
170.0
 31
0.0
  0
LINE
  5
424
330
70
100
AcDbEntity
  8
DETAIL
  6
Continuous
100
AcDbLine
 10
150.0
 20
1830.0
 30
0.0
 11
150.0
 21
1875.0
 31
0.0
  0
LINE
  5
425
330
70
100
AcDbEntity
  8
DETAIL
  6
Continuous
100
AcDbLine
 10
146.8
 20
1833.2
 30
0.0
 11
146.8
 21
1875.0
 31
0.0
  0
LINE
  5
426
330
70
100
AcDbEntity
  8
DETAIL
  6
Continuous
100
AcDbLine
 10
146.8
 20
1875.0
 30
0.0
 11
150.0
 21
1875.0
 31
0.0
  0
LINE
  5
427
330
70
100
AcDbEntity
  8
DETAIL
  6
Continuous
100
AcDbLine
 10
-62.0
 20
1830.0
 30
0.0
 11
80.0
 21
1830.0
 31
0.0
  0
LINE
  5
428
330
70
100
AcDbEntity
  8
DETAIL
  6
Continuous
100
AcDbLine
 10
-63.2
 20
1833.2
 30
0.0
 11
-63.2
 21
1830.0
 31
0.0
  0
LINE
  5
429
330
70
100
AcDbEntity
  8
DETAIL
  6
Continuous
100
AcDbLine
 10
-724.0
 20
1196.6
 30
0.0
 11
-725.9999999999942
 21
1196.6
 31
0.0
  0
LINE
  5
42A
330
70
100
AcDbEntity
  8
DETAIL
  6
Continuous
100
AcDbLine
 10
-737.9999999999942
 20
1207.1
 30
0.0
 11
-732.9999999999942
 21
1206.6
 31
0.0
  0
LINE
  5
42B
330
70
100
AcDbEntity
  8
DETAIL
  6
Continuous
100
AcDbLine
 10
-732.9999999999942
 20
1206.6
 30
0.0
 11
-732.9999999999942
 21
1217.6
 31
0.0
  0
LINE
  5
42C
330
70
100
AcDbEntity
  8
DETAIL
  6
Continuous
100
AcDbLine
 10
-737.9999999999942
 20
1207.1
 30
0.0
 11
-737.9999999999942
 21
1217.1
 31
0.0
  0
LINE
  5
42D
330
70
100
AcDbEntity
  8
DETAIL
  6
Continuous
100
AcDbLine
 10
-737.9999999999942
 20
1217.1
 30
0.0
 11
-732.9999999999942
 21
1217.6
 31
0.0
  0
ARC
  5
42E
330
70
100
AcDbEntity
  8
DETAIL
  6
Continuous
100
AcDbCircle
 10
-725.9999999999942
 20
1197.1
 30
0.0
 40
0.499999999999956
100
AcDbArc
 50
258.6900675259746
 51
270.0
  0
LINE
  5
42F
330
70
100
AcDbEntity
  8
DETAIL
  6
Continuous
100
AcDbLine
 10
-723.9999999999938
 20
1391.1
 30
0.0
 11
-725.9999999999942
 21
1391.1
 31
0.0
  0
ARC
  5
430
330
70
100
AcDbEntity
  8
DETAIL
  6
Continuous
100
AcDbCircle
 10
-725.9999999999942
 20
1390.6
 30
0.0
 40
0.5
100
AcDbArc
 50
90.0
 51
101.3099324740253
  0
LINE
  5
431
330
70
100
AcDbEntity
  8
DETAIL
  6
Continuous
100
AcDbLine
 10
-732.9999999999942
 20
1199.219803902718
 30
0.0
 11
-732.9999999999942
 21
1388.480196097281
 31
0.0
  0
LINE
  5
432
330
70
100
AcDbEntity
  8
DETAIL
  6
Continuous
100
AcDbLine
 10
-726.0980580675633
 20
1196.609709662154
 30
0.0
 11
-731.7941742027016
 21
1197.748932889182
 31
0.0
  0
LINE
  5
433
330
70
100
AcDbEntity
  8
DETAIL
  6
Continuous
100
AcDbLine
 10
-726.0980580675633
 20
1391.090290337845
 30
0.0
 11
-731.7941742027016
 21
1389.951067110817
 31
0.0
  0
ARC
  5
434
330
70
100
AcDbEntity
  8
DETAIL
  6
Continuous
100
AcDbCircle
 10
-731.4999999999939
 20
1388.480196097281
 30
0.0
 40
1.499999999999823
100
AcDbArc
 50
101.3099324740168
 51
180.0
  0
ARC
  5
435
330
70
100
AcDbEntity
  8
DETAIL
  6
Continuous
100
AcDbCircle
 10
-731.4999999999939
 20
1199.219803902718
 30
0.0
 40
1.5
100
AcDbArc
 50
180.0
 51
258.6900675259832
  0
LINE
  5
436
330
70
100
AcDbEntity
  8
DETAIL
  6
Continuous
100
AcDbLine
 10
-733.0
 20
1202.699999999998
 30
0.0
 11
-732.9999999999942
 21
1383.6
 31
0.0
  0
LINE
  5
437
330
70
100
AcDbEntity
  8
DETAIL
  6
DASHED
100
AcDbLine
 10
-678.6
 20
820.0
 30
0.0
 11
-678.6
 21
870.0
 31
0.0
  0
LINE
  5
438
330
70
100
AcDbEntity
  8
DETAIL
  6
DASHED
100
AcDbLine
 10
-651.4
 20
820.0
 30
0.0
 11
-651.4
 21
870.0
 31
0.0
  0
LINE
  5
439
330
70
100
AcDbEntity
  8
DETAIL
  6
DASHED
100
AcDbLine
 10
-678.6
 20
820.0
 30
0.0
 11
-651.4
 21
820.0
 31
0.0
  0
LINE
  5
43A
330
70
100
AcDbEntity
  8
DETAIL
  6
DASHED
100
AcDbLine
 10
-678.6
 20
870.0
 30
0.0
 11
-651.4
 21
870.0
 31
0.0
  0
LINE
  5
43B
330
70
100
AcDbEntity
  8
DETAIL
  6
DASHED
100
AcDbLine
 10
-678.6
 20
941.0
 30
0.0
 11
-651.4
 21
941.0
 31
0.0
  0
LINE
  5
43C
330
70
100
AcDbEntity
  8
DETAIL
  6
DASHED
100
AcDbLine
 10
-678.6
 20
891.0
 30
0.0
 11
-678.6
 21
941.0
 31
0.0
  0
LINE
  5
43D
330
70
100
AcDbEntity
  8
DETAIL
  6
DASHED
100
AcDbLine
 10
-651.4
 20
891.0
 30
0.0
 11
-651.4
 21
941.0
 31
0.0
  0
LINE
  5
43E
330
70
100
AcDbEntity
  8
DETAIL
  6
DASHED
100
AcDbLine
 10
-678.6
 20
891.0
 30
0.0
 11
-651.4
 21
891.0
 31
0.0
  0
LINE
  5
43F
330
70
100
AcDbEntity
  8
DETAIL
  6
DASHED
100
AcDbLine
 10
-98.0
 20
3.199999999999998
 30
0.0
 11
-98.0
 21
6.399999999999987
 31
0.0
  0
LINE
  5
440
330
70
100
AcDbEntity
  8
DETAIL
  6
DASHED
100
AcDbLine
 10
-98.0
 20
6.399999999999987
 30
0.0
 11
-131.0
 21
6.399999999999991
 31
0.0
  0
LINE
  5
441
330
70
100
AcDbEntity
  8
DETAIL
  6
DASHED
100
AcDbLine
 10
-98.0
 20
3.199999999999998
 30
0.0
 11
-131.0
 21
3.2
 31
0.0
  0
LINE
  5
442
330
70
100
AcDbEntity
  8
DETAIL
  6
DASHED
100
AcDbLine
 10
-133.0
 20
20.00000000000001
 30
0.0
 11
-136.2
 21
20.00000000000001
 31
0.0
  0
LINE
  5
443
330
70
100
AcDbEntity
  8
DETAIL
  6
DASHED
100
AcDbLine
 10
-133.0
 20
20.00000000000001
 30
0.0
 11
-133.0
 21
8.399999999999989
 31
0.0
  0
LINE
  5
444
330
70
100
AcDbEntity
  8
DETAIL
  6
DASHED
100
AcDbLine
 10
-136.2
 20
20.00000000000001
 30
0.0
 11
-136.2
 21
8.399999999999989
 31
0.0
  0
ARC
  5
445
330
70
100
AcDbEntity
  8
DETAIL
  6
DASHED
100
AcDbCircle
 10
-131.0
 20
8.399999999999989
 30
0.0
 40
5.199999999999985
100
AcDbArc
 50
180.0
 51
270.0
  0
ARC
  5
446
330
70
100
AcDbEntity
  8
DETAIL
  6
DASHED
100
AcDbCircle
 10
-131.0
 20
8.399999999999989
 30
0.0
 40
2.0
100
AcDbArc
 50
180.0
 51
270.0
  0
LINE
  5
447
330
70
100
AcDbEntity
  8
DETAIL
  6
Continuous
100
AcDbLine
 10
-525.9999999999998
 20
0.0
 30
0.0
 11
-525.9999999999998
 21
3.199999999999988
 31
0.0
  0
LINE
  5
448
330
70
100
AcDbEntity
  8
DETAIL
  6
Continuous
100
AcDbLine
 10
-95.99999999999978
 20
3.199999999999988
 30
0.0
 11
-95.99999999999978
 21
0.0
 31
0.0
  0
LINE
  5
449
330
70
100
AcDbEntity
  8
DETAIL
  6
Continuous
100
AcDbLine
 10
-140.4996824528
 20
200.0
 30
0.0
 11
-140.4996824528
 21
20.0
 31
0.0
  0
LINE
  5
44A
330
70
100
AcDbEntity
  8
DETAIL
  6
Continuous
100
AcDbLine
 10
-200.4996824528
 20
20.00000000000005
 30
0.0
 11
-200.4996824528
 21
200.0
 31
0.0
  0
LINE
  5
44B
330
70
100
AcDbEntity
  8
DETAIL
  6
Continuous
100
AcDbLine
 10
-200.4996824528
 20
20.00000000000005
 30
0.0
 11
-225.9999999999996
 21
20.0
 31
0.0
  0
LINE
  5
44C
330
70
100
AcDbEntity
  8
DETAIL
  6
Continuous
100
AcDbLine
 10
-111.9999999999997
 20
20.0
 30
0.0
 11
-140.4996824528
 21
20.0
 31
0.0
  0
LINE
  5
44D
330
70
100
AcDbEntity
  8
DETAIL
  6
Continuous
100
AcDbLine
 10
-95.99999999999978
 20
0.0
 30
0.0
 11
-235.9999999999996
 21
0.0
 31
0.0
  0
ARC
  5
44E
330
70
100
AcDbEntity
  8
DETAIL
  6
Continuous
100
AcDbCircle
 10
-225.9999999999996
 20
10.0
 30
0.0
 40
10.0
100
AcDbArc
 50
90.0
 51
180.0
  0
ARC
  5
44F
330
70
100
AcDbEntity
  8
DETAIL
  6
Continuous
100
AcDbCircle
 10
-111.9999999999997
 20
10.0
 30
0.0
 40
10.0
100
AcDbArc
 50
0.0
 51
90.0
  0
LINE
  5
450
330
70
100
AcDbEntity
  8
DETAIL
  6
Continuous
100
AcDbLine
 10
-95.99999999999978
 20
3.200000000000045
 30
0.0
 11
-101.9999999999998
 21
3.200000000000045
 31
0.0
  0
LINE
  5
451
330
70
100
AcDbEntity
  8
DETAIL
  6
Continuous
100
AcDbLine
 10
-101.9999999999998
 20
0.0
 30
0.0
 11
-101.9999999999998
 21
10.0
 31
0.0
  0
LINE
  5
452
330
70
100
AcDbEntity
  8
DETAIL
  6
Continuous
100
AcDbLine
 10
-630.4996824528
 20
20.00000000000005
 30
0.0
 11
-630.4996824528
 21
180.499682452801
 31
0.0
  0
LINE
  5
453
330
70
100
AcDbEntity
  8
DETAIL
  6
Continuous
100
AcDbLine
 10
-630.4996824528
 20
20.00000000000005
 30
0.0
 11
-655.9999999999996
 21
20.0
 31
0.0
  0
LINE
  5
454
330
70
100
AcDbEntity
  8
DETAIL
  6
Continuous
100
AcDbLine
 10
-525.9999999999998
 20
0.0
 30
0.0
 11
-665.9999999999996
 21
0.0
 31
0.0
  0
LINE
  5
455
330
70
100
AcDbEntity
  8
DETAIL
  6
Continuous
100
AcDbLine
 10
-665.9999999999996
 20
10.0
 30
0.0
 11
-665.9999999999996
 21
0.0
 31
0.0
  0
ARC
  5
456
330
70
100
AcDbEntity
  8
DETAIL
  6
Continuous
100
AcDbCircle
 10
-655.9999999999996
 20
10.0
 30
0.0
 40
10.0
100
AcDbArc
 50
90.0
 51
180.0
  0
LINE
  5
457
330
70
100
AcDbEntity
  8
DETAIL
  6
Continuous
100
AcDbLine
 10
-541.9999999999999
 20
20.0
 30
0.0
 11
-570.4996824528
 21
20.0
 31
0.0
  0
ARC
  5
458
330
70
100
AcDbEntity
  8
DETAIL
  6
Continuous
100
AcDbCircle
 10
-541.9999999999999
 20
10.0
 30
0.0
 40
10.0
100
AcDbArc
 50
0.0
 51
90.0
  0
LINE
  5
459
330
70
100
AcDbEntity
  8
DETAIL
  6
Continuous
100
AcDbLine
 10
-525.9999999999998
 20
3.200000000000045
 30
0.0
 11
-531.9999999999996
 21
3.200000000000045
 31
0.0
  0
LINE
  5
45A
330
70
100
AcDbEntity
  8
DETAIL
  6
Continuous
100
AcDbLine
 10
-531.9999999999996
 20
0.0
 30
0.0
 11
-531.9999999999996
 21
10.0
 31
0.0
  0
LINE
  5
45B
330
70
100
AcDbEntity
  8
DETAIL
  6
Continuous
100
AcDbLine
 10
-570.5264811340785
 20
200.0
 30
0.0
 11
-570.5264811340785
 21
20.0
 31
0.0
  0
ARC
  5
45C
330
70
100
AcDbEntity
  8
DETAIL
  6
DASHED
100
AcDbCircle
 10
-200.7499999999996
 20
8.399999999999986
 30
0.0
 40
1.999999999999998
100
AcDbArc
 50
270.0
 51
0.0
  0
ARC
  5
45D
330
70
100
AcDbEntity
  8
DETAIL
  6
DASHED
100
AcDbCircle
 10
-200.7499999999996
 20
8.399999999999986
 30
0.0
 40
5.199999999999985
100
AcDbArc
 50
270.0
 51
0.0
  0
LINE
  5
45E
330
70
100
AcDbEntity
  8
DETAIL
  6
DASHED
100
AcDbLine
 10
-195.5499999999996
 20
20.00000000000001
 30
0.0
 11
-195.5499999999996
 21
8.399999999999986
 31
0.0
  0
LINE
  5
45F
330
70
100
AcDbEntity
  8
DETAIL
  6
DASHED
100
AcDbLine
 10
-198.7499999999996
 20
20.00000000000001
 30
0.0
 11
-198.7499999999996
 21
8.399999999999986
 31
0.0
  0
LINE
  5
460
330
70
100
AcDbEntity
  8
DETAIL
  6
DASHED
100
AcDbLine
 10
-198.7499999999996
 20
20.00000000000001
 30
0.0
 11
-195.5499999999996
 21
20.00000000000001
 31
0.0
  0
LINE
  5
461
330
70
100
AcDbEntity
  8
DETAIL
  6
Continuous
100
AcDbLine
 10
-235.9999999999996
 20
10.0
 30
0.0
 11
-235.9999999999996
 21
0.0
 31
0.0
  0
LINE
  5
462
330
70
100
AcDbEntity
  8
DETAIL
  6
DASHED
100
AcDbLine
 10
-233.7499999999996
 20
3.2
 30
0.0
 11
-233.7499999999996
 21
6.399999999999987
 31
0.0
  0
LINE
  5
463
330
70
100
AcDbEntity
  8
DETAIL
  6
DASHED
100
AcDbLine
 10
-233.7499999999996
 20
3.2
 30
0.0
 11
-200.7499999999996
 21
3.2
 31
0.0
  0
LINE
  5
464
330
70
100
AcDbEntity
  8
DETAIL
  6
DASHED
100
AcDbLine
 10
-233.7499999999996
 20
6.399999999999987
 30
0.0
 11
-200.7499999999996
 21
6.399999999999987
 31
0.0
  0
ARC
  5
465
330
70
100
AcDbEntity
  8
DETAIL
  6
DASHED
100
AcDbCircle
 10
-630.7499999999996
 20
8.399999999999986
 30
0.0
 40
1.999999999999998
100
AcDbArc
 50
270.0
 51
0.0
  0
ARC
  5
466
330
70
100
AcDbEntity
  8
DETAIL
  6
DASHED
100
AcDbCircle
 10
-630.7499999999996
 20
8.399999999999986
 30
0.0
 40
5.199999999999985
100
AcDbArc
 50
270.0
 51
0.0
  0
LINE
  5
467
330
70
100
AcDbEntity
  8
DETAIL
  6
DASHED
100
AcDbLine
 10
-625.5499999999995
 20
20.00000000000001
 30
0.0
 11
-625.5499999999995
 21
8.399999999999986
 31
0.0
  0
LINE
  5
468
330
70
100
AcDbEntity
  8
DETAIL
  6
DASHED
100
AcDbLine
 10
-628.7499999999996
 20
20.00000000000001
 30
0.0
 11
-628.7499999999996
 21
8.399999999999986
 31
0.0
  0
LINE
  5
469
330
70
100
AcDbEntity
  8
DETAIL
  6
DASHED
100
AcDbLine
 10
-628.7499999999996
 20
20.00000000000001
 30
0.0
 11
-625.5499999999995
 21
20.00000000000001
 31
0.0
  0
LINE
  5
46A
330
70
100
AcDbEntity
  8
DETAIL
  6
DASHED
100
AcDbLine
 10
-663.7499999999996
 20
3.2
 30
0.0
 11
-663.7499999999996
 21
6.399999999999987
 31
0.0
  0
LINE
  5
46B
330
70
100
AcDbEntity
  8
DETAIL
  6
DASHED
100
AcDbLine
 10
-663.7499999999996
 20
3.2
 30
0.0
 11
-630.7499999999996
 21
3.2
 31
0.0
  0
LINE
  5
46C
330
70
100
AcDbEntity
  8
DETAIL
  6
DASHED
100
AcDbLine
 10
-663.7499999999996
 20
6.399999999999987
 30
0.0
 11
-630.7499999999996
 21
6.399999999999987
 31
0.0
  0
LINE
  5
46D
330
70
100
AcDbEntity
  8
SIZE
  6
Continuous
 62
    30
100
AcDbLine
 10
-740.0
 20
0.0000000000000028
 30
0.0
 11
-1144.899999976158
 21
0.0000000000001175
 31
0.0
  0
LINE
  5
46E
330
70
100
AcDbEntity
  8
SIZE
  6
Continuous
 62
    30
100
AcDbLine
 10
-695.0
 20
820.0
 30
0.0
 11
-1144.899999976157
 21
820.0000000000001
 31
0.0
  0
LINE
  5
46F
330
70
100
AcDbEntity
  8
SIZE
  6
Continuous
 62
    30
100
AcDbLine
 10
-1132.399999976158
 20
10.00000000000011
 30
0.0
 11
-1132.399999976158
 21
810.0000000000001
 31
0.0
  0
CIRCLE
  5
470
330
70
100
AcDbEntity
  8
SIZE
  6
Continuous
 62
    30
100
AcDbCircle
 10
-1132.399999976158
 20
0.000000000000114
 30
0.0
 40
5.0
  0
LINE
  5
471
330
70
100
AcDbEntity
  8
SIZE
  6
Continuous
 62
    30
100
AcDbLine
 10
-1132.399999976158
 20
0.000000000000114
 30
0.0
 11
-1132.399999976158
 21
10.00000000000011
 31
0.0
  0
CIRCLE
  5
472
330
70
100
AcDbEntity
  8
SIZE
  6
Continuous
 62
    30
100
AcDbCircle
 10
-1132.399999976158
 20
820.0000000000001
 30
0.0
 40
5.0
  0
LINE
  5
473
330
70
100
AcDbEntity
  8
SIZE
  6
Continuous
 62
    30
100
AcDbLine
 10
-1132.399999976158
 20
820.0000000000001
 30
0.0
 11
-1132.399999976158
 21
810.0000000000001
 31
0.0
  0
TEXT
  5
474
330
70
100
AcDbEntity
  8
SIZE
  6
Continuous
 62
    30
100
AcDbText
 10
-1142.399999976158
 20
372.499999877608
 30
0.0
 40
30.0
  1
820
 50
90.0
 72
     1
 11
-1142.399999976158
 21
409.999999877608
 31
0.0
100
AcDbText
  0
POINT
  5
475
330
70
100
AcDbEntity
  8
DEFPOINTS
  6
Continuous
 62
    30
100
AcDbPoint
 10
-730.0
 20
0.0
 30
0.0
  0
POINT
  5
476
330
70
100
AcDbEntity
  8
DEFPOINTS
  6
Continuous
 62
    30
100
AcDbPoint
 10
-685.0
 20
820.0
 30
0.0
  0
POINT
  5
477
330
70
100
AcDbEntity
  8
DEFPOINTS
  6
Continuous
 62
    30
100
AcDbPoint
 10
-1132.399999976158
 20
820.0000000000001
 30
0.0
  0
LINE
  5
478
330
70
100
AcDbEntity
  8
SIZE
  6
Continuous
 62
    30
100
AcDbLine
 10
-730.0
 20
10.0
 30
0.0
 11
-730.0
 21
696.8993896245956
 31
0.0
  0
LINE
  5
479
330
70
100
AcDbEntity
  8
SIZE
  6
Continuous
 62
    30
100
AcDbLine
 10
-665.0
 20
790.0
 30
0.0
 11
-665.0
 21
671.8993896245956
 31
0.0
  0
LINE
  5
47A
330
70
100
AcDbEntity
  8
SIZE
  6
Continuous
 62
    30
100
AcDbLine
 10
-675.0
 20
684.3993896245956
 30
0.0
 11
-720.0
 21
684.3993896245956
 31
0.0
  0
LINE
  5
47B
330
70
100
AcDbEntity
  8
SIZE
  6
Continuous
 62
    30
100
AcDbLine
 10
-730.0
 20
684.3993896245956
 30
0.0
 11
-844.9474487916644
 21
684.3993896245956
 31
0.0
  0
CIRCLE
  5
47C
330
70
100
AcDbEntity
  8
SIZE
  6
Continuous
 62
    30
100
AcDbCircle
 10
-665.0
 20
684.3993896245956
 30
0.0
 40
5.0
  0
LINE
  5
47D
330
70
100
AcDbEntity
  8
SIZE
  6
Continuous
 62
    30
100
AcDbLine
 10
-665.0
 20
684.3993896245956
 30
0.0
 11
-675.0
 21
684.3993896245956
 31
0.0
  0
CIRCLE
  5
47E
330
70
100
AcDbEntity
  8
SIZE
  6
Continuous
 62
    30
100
AcDbCircle
 10
-730.0
 20
684.3993896245956
 30
0.0
 40
5.0
  0
LINE
  5
47F
330
70
100
AcDbEntity
  8
SIZE
  6
Continuous
 62
    30
100
AcDbLine
 10
-730.0
 20
684.3993896245956
 30
0.0
 11
-720.0
 21
684.3993896245956
 31
0.0
  0
TEXT
  5
480
330
70
100
AcDbEntity
  8
SIZE
  6
Continuous
 62
    30
100
AcDbText
 10
-834.9474487916644
 20
694.3993896245956
 30
0.0
 40
30.0
  1
65
 72
     1
 11
-809.9474487916644
 21
694.3993896245956
 31
0.0
100
AcDbText
  0
POINT
  5
481
330
70
100
AcDbEntity
  8
DEFPOINTS
  6
Continuous
 62
    30
100
AcDbPoint
 10
-730.0
 20
0.0
 30
0.0
  0
POINT
  5
482
330
70
100
AcDbEntity
  8
DEFPOINTS
  6
Continuous
 62
    30
100
AcDbPoint
 10
-665.0
 20
800.0
 30
0.0
  0
POINT
  5
483
330
70
100
AcDbEntity
  8
DEFPOINTS
  6
Continuous
 62
    30
100
AcDbPoint
 10
-665.0
 20
684.3993896245956
 30
0.0
  0
LINE
  5
484
330
70
100
AcDbEntity
  8
SIZE
  6
Continuous
 62
    30
100
AcDbLine
 10
-730.0
 20
10.0
 30
0.0
 11
-730.0
 21
414.9000000618324
 31
0.0
  0
LINE
  5
485
330
70
100
AcDbEntity
  8
SIZE
  6
Continuous
 62
    30
100
AcDbLine
 10
-643.0
 20
230.0
 30
0.0
 11
-643.0
 21
414.9000000618324
 31
0.0
  0
LINE
  5
486
330
70
100
AcDbEntity
  8
SIZE
  6
Continuous
 62
    30
100
AcDbLine
 10
-653.0
 20
402.4000000618324
 30
0.0
 11
-720.0
 21
402.4000000618324
 31
0.0
  0
LINE
  5
487
330
70
100
AcDbEntity
  8
SIZE
  6
Continuous
 62
    30
100
AcDbLine
 10
-730.0
 20
402.4000000618324
 30
0.0
 11
-841.7577735797584
 21
402.4000000618324
 31
0.0
  0
CIRCLE
  5
488
330
70
100
AcDbEntity
  8
SIZE
  6
Continuous
 62
    30
100
AcDbCircle
 10
-643.0
 20
402.4000000618324
 30
0.0
 40
5.0
  0
LINE
  5
489
330
70
100
AcDbEntity
  8
SIZE
  6
Continuous
 62
    30
100
AcDbLine
 10
-643.0
 20
402.4000000618324
 30
0.0
 11
-653.0
 21
402.4000000618324
 31
0.0
  0
CIRCLE
  5
48A
330
70
100
AcDbEntity
  8
SIZE
  6
Continuous
 62
    30
100
AcDbCircle
 10
-730.0
 20
402.4000000618324
 30
0.0
 40
5.0
  0
LINE
  5
48B
330
70
100
AcDbEntity
  8
SIZE
  6
Continuous
 62
    30
100
AcDbLine
 10
-730.0
 20
402.4000000618324
 30
0.0
 11
-720.0
 21
402.4000000618324
 31
0.0
  0
TEXT
  5
48C
330
70
100
AcDbEntity
  8
SIZE
  6
Continuous
 62
    30
100
AcDbText
 10
-831.7577735797582
 20
412.4000000618323
 30
0.0
 40
30.0
  1
87
 72
     1
 11
-806.7577735797582
 21
412.4000000618323
 31
0.0
100
AcDbText
  0
POINT
  5
48D
330
70
100
AcDbEntity
  8
DEFPOINTS
  6
Continuous
 62
    30
100
AcDbPoint
 10
-730.0
 20
0.0
 30
0.0
  0
POINT
  5
48E
330
70
100
AcDbEntity
  8
DEFPOINTS
  6
Continuous
 62
    30
100
AcDbPoint
 10
-643.0
 20
220.0
 30
0.0
  0
POINT
  5
48F
330
70
100
AcDbEntity
  8
DEFPOINTS
  6
Continuous
 62
    30
100
AcDbPoint
 10
-643.0
 20
402.4000000618324
 30
0.0
  0
LINE
  5
490
330
70
100
AcDbEntity
  8
SIZE
  6
Continuous
 62
    30
100
AcDbLine
 10
-730.0
 20
10.0
 30
0.0
 11
-730.0
 21
314.9000000618324
 31
0.0
  0
LINE
  5
491
330
70
100
AcDbEntity
  8
SIZE
  6
Continuous
 62
    30
100
AcDbLine
 10
-665.0
 20
230.0
 30
0.0
 11
-665.0
 21
314.9000000618324
 31
0.0
  0
LINE
  5
492
330
70
100
AcDbEntity
  8
SIZE
  6
Continuous
 62
    30
100
AcDbLine
 10
-675.0
 20
302.4000000618324
 30
0.0
 11
-720.0
 21
302.4000000618324
 31
0.0
  0
LINE
  5
493
330
70
100
AcDbEntity
  8
SIZE
  6
Continuous
 62
    30
100
AcDbLine
 10
-730.0
 20
302.4000000618324
 30
0.0
 11
-841.092917622727
 21
302.4000000618324
 31
0.0
  0
CIRCLE
  5
494
330
70
100
AcDbEntity
  8
SIZE
  6
Continuous
 62
    30
100
AcDbCircle
 10
-665.0
 20
302.4000000618324
 30
0.0
 40
5.0
  0
LINE
  5
495
330
70
100
AcDbEntity
  8
SIZE
  6
Continuous
 62
    30
100
AcDbLine
 10
-665.0
 20
302.4000000618324
 30
0.0
 11
-675.0
 21
302.4000000618324
 31
0.0
  0
CIRCLE
  5
496
330
70
100
AcDbEntity
  8
SIZE
  6
Continuous
 62
    30
100
AcDbCircle
 10
-730.0
 20
302.4000000618324
 30
0.0
 40
5.0
  0
LINE
  5
497
330
70
100
AcDbEntity
  8
SIZE
  6
Continuous
 62
    30
100
AcDbLine
 10
-730.0
 20
302.4000000618324
 30
0.0
 11
-720.0
 21
302.4000000618324
 31
0.0
  0
TEXT
  5
498
330
70
100
AcDbEntity
  8
SIZE
  6
Continuous
 62
    30
100
AcDbText
 10
-831.092917622727
 20
312.4000000618324
 30
0.0
 40
30.0
  1
65
 72
     1
 11
-806.092917622727
 21
312.4000000618324
 31
0.0
100
AcDbText
  0
POINT
  5
499
330
70
100
AcDbEntity
  8
DEFPOINTS
  6
Continuous
 62
    30
100
AcDbPoint
 10
-730.0
 20
0.0
 30
0.0
  0
POINT
  5
49A
330
70
100
AcDbEntity
  8
DEFPOINTS
  6
Continuous
 62
    30
100
AcDbPoint
 10
-665.0
 20
220.0
 30
0.0
  0
POINT
  5
49B
330
70
100
AcDbEntity
  8
DEFPOINTS
  6
Continuous
 62
    30
100
AcDbPoint
 10
-665.0
 20
302.4000000618324
 30
0.0
  0
LINE
  5
49C
330
70
100
AcDbEntity
  8
SIZE
  6
Continuous
 62
    30
100
AcDbLine
 10
-740.0
 20
0.0000000000000028
 30
0.0
 11
-944.899999976158
 21
0.0000000000000609
 31
0.0
  0
LINE
  5
49D
330
70
100
AcDbEntity
  8
SIZE
  6
Continuous
 62
    30
100
AcDbLine
 10
-603.5
 20
172.5
 30
0.0
 11
-944.899999976158
 21
172.5000000000001
 31
0.0
  0
LINE
  5
49E
330
70
100
AcDbEntity
  8
SIZE
  6
Continuous
 62
    30
100
AcDbLine
 10
-932.399999976158
 20
10.00000000000006
 30
0.0
 11
-932.399999976158
 21
162.5000000000001
 31
0.0
  0
CIRCLE
  5
49F
330
70
100
AcDbEntity
  8
SIZE
  6
Continuous
 62
    30
100
AcDbCircle
 10
-932.399999976158
 20
0.0000000000000573
 30
0.0
 40
5.0
  0
LINE
  5
4A0
330
70
100
AcDbEntity
  8
SIZE
  6
Continuous
 62
    30
100
AcDbLine
 10
-932.399999976158
 20
0.0000000000000573
 30
0.0
 11
-932.399999976158
 21
10.00000000000005
 31
0.0
  0
CIRCLE
  5
4A1
330
70
100
AcDbEntity
  8
SIZE
  6
Continuous
 62
    30
100
AcDbCircle
 10
-932.399999976158
 20
172.5000000000001
 30
0.0
 40
5.0
  0
LINE
  5
4A2
330
70
100
AcDbEntity
  8
SIZE
  6
Continuous
 62
    30
100
AcDbLine
 10
-932.399999976158
 20
172.5000000000001
 30
0.0
 11
-932.399999976158
 21
162.5000000000001
 31
0.0
  0
TEXT
  5
4A3
330
70
100
AcDbEntity
  8
SIZE
  6
Continuous
 62
    30
100
AcDbText
 10
-942.3999999761582
 20
51.24999987760809
 30
0.0
 40
30.0
  1
173
 50
90.0
 72
     1
 11
-942.3999999761582
 21
86.24999987760809
 31
0.0
100
AcDbText
  0
POINT
  5
4A4
330
70
100
AcDbEntity
  8
DEFPOINTS
  6
Continuous
 62
    30
100
AcDbPoint
 10
-730.0
 20
0.0
 30
0.0
  0
POINT
  5
4A5
330
70
100
AcDbEntity
  8
DEFPOINTS
  6
Continuous
 62
    30
100
AcDbPoint
 10
-593.5
 20
172.5
 30
0.0
  0
POINT
  5
4A6
330
70
100
AcDbEntity
  8
DEFPOINTS
  6
Continuous
 62
    30
100
AcDbPoint
 10
-932.399999976158
 20
172.5000000000001
 30
0.0
  0
LINE
  5
4A7
330
70
100
AcDbEntity
  8
SIZE
  6
Continuous
 62
    30
100
AcDbLine
 10
-1320.0
 20
-0.0000000000000028
 30
0.0
 11
-1219.899999976158
 21
-0.0000000000000312
 31
0.0
  0
LINE
  5
4A8
330
70
100
AcDbEntity
  8
SIZE
  6
Continuous
 62
    30
100
AcDbLine
 10
-695.0
 20
891.0
 30
0.0
 11
-1244.899999976158
 21
891.0000000000001
 31
0.0
  0
LINE
  5
4A9
330
70
100
AcDbEntity
  8
SIZE
  6
Continuous
 62
    30
100
AcDbLine
 10
-1232.399999976158
 20
9.999999999999971
 30
0.0
 11
-1232.399999976158
 21
881.0
 31
0.0
  0
CIRCLE
  5
4AA
330
70
100
AcDbEntity
  8
SIZE
  6
Continuous
 62
    30
100
AcDbCircle
 10
-1232.399999976158
 20
-0.0000000000000276
 30
0.0
 40
5.0
  0
LINE
  5
4AB
330
70
100
AcDbEntity
  8
SIZE
  6
Continuous
 62
    30
100
AcDbLine
 10
-1232.399999976158
 20
-0.0000000000000276
 30
0.0
 11
-1232.399999976158
 21
9.999999999999971
 31
0.0
  0
CIRCLE
  5
4AC
330
70
100
AcDbEntity
  8
SIZE
  6
Continuous
 62
    30
100
AcDbCircle
 10
-1232.399999976158
 20
891.0000000000001
 30
0.0
 40
5.0
  0
LINE
  5
4AD
330
70
100
AcDbEntity
  8
SIZE
  6
Continuous
 62
    30
100
AcDbLine
 10
-1232.399999976158
 20
891.0000000000001
 30
0.0
 11
-1232.399999976158
 21
881.0
 31
0.0
  0
TEXT
  5
4AE
330
70
100
AcDbEntity
  8
SIZE
  6
Continuous
 62
    30
100
AcDbText
 10
-1242.399999976158
 20
410.499999877608
 30
0.0
 40
30.0
  1
891
 50
90.0
 72
     1
 11
-1242.399999976158
 21
445.499999877608
 31
0.0
100
AcDbText
  0
POINT
  5
4AF
330
70
100
AcDbEntity
  8
DEFPOINTS
  6
Continuous
 62
    30
100
AcDbPoint
 10
-1330.0
 20
0.0
 30
0.0
  0
POINT
  5
4B0
330
70
100
AcDbEntity
  8
DEFPOINTS
  6
Continuous
 62
    30
100
AcDbPoint
 10
-685.0
 20
891.0
 30
0.0
  0
POINT
  5
4B1
330
70
100
AcDbEntity
  8
DEFPOINTS
  6
Continuous
 62
    30
100
AcDbPoint
 10
-1232.399999976158
 20
891.0000000000001
 30
0.0
  0
LINE
  5
4B2
330
70
100
AcDbEntity
  8
SIZE
  6
Continuous
 62
    30
100
AcDbLine
 10
-46.0
 20
-0.0000000000000028
 30
0.0
 11
360.1000000238418
 21
-0.0000000000001179
 31
0.0
  0
LINE
  5
4B3
330
70
100
AcDbEntity
  8
SIZE
  6
Continuous
 62
    30
100
AcDbLine
 10
180.0
 20
1853.0
 30
0.0
 11
360.1000000238422
 21
1853.0
 31
0.0
  0
LINE
  5
4B4
330
70
100
AcDbEntity
  8
SIZE
  6
Continuous
 62
    30
100
AcDbLine
 10
347.6000000238418
 20
9.999999999999886
 30
0.0
 11
347.6000000238422
 21
1843.0
 31
0.0
  0
CIRCLE
  5
4B5
330
70
100
AcDbEntity
  8
SIZE
  6
Continuous
 62
    30
100
AcDbCircle
 10
347.6000000238418
 20
-0.0000000000001143
 30
0.0
 40
5.0
  0
LINE
  5
4B6
330
70
100
AcDbEntity
  8
SIZE
  6
Continuous
 62
    30
100
AcDbLine
 10
347.6000000238418
 20
-0.0000000000001143
 30
0.0
 11
347.6000000238418
 21
9.999999999999886
 31
0.0
  0
CIRCLE
  5
4B7
330
70
100
AcDbEntity
  8
SIZE
  6
Continuous
 62
    30
100
AcDbCircle
 10
347.6000000238422
 20
1853.0
 30
0.0
 40
5.0
  0
LINE
  5
4B8
330
70
100
AcDbEntity
  8
SIZE
  6
Continuous
 62
    30
100
AcDbLine
 10
347.6000000238422
 20
1853.0
 30
0.0
 11
347.6000000238422
 21
1843.0
 31
0.0
  0
TEXT
  5
4B9
330
70
100
AcDbEntity
  8
SIZE
  6
Continuous
 62
    30
100
AcDbText
 10
337.6000000238418
 20
876.499999877608
 30
0.0
 40
30.0
  1
1853
 50
90.0
 72
     1
 11
337.6000000238418
 21
926.499999877608
 31
0.0
100
AcDbText
  0
POINT
  5
4BA
330
70
100
AcDbEntity
  8
DEFPOINTS
  6
Continuous
 62
    30
100
AcDbPoint
 10
-56.0
 20
0.0
 30
0.0
  0
POINT
  5
4BB
330
70
100
AcDbEntity
  8
DEFPOINTS
  6
Continuous
 62
    30
100
AcDbPoint
 10
170.0
 20
1853.0
 30
0.0
  0
POINT
  5
4BC
330
70
100
AcDbEntity
  8
DEFPOINTS
  6
Continuous
 62
    30
100
AcDbPoint
 10
347.6000000238422
 20
1853.0
 30
0.0
  0
LINE
  5
4BD
330
70
100
AcDbEntity
  8
SIZE
  6
Continuous
 62
    30
100
AcDbLine
 10
0.0000000000001716
 20
1840.0
 30
0.0
 11
0.0000000000001933
 21
2194.899999976158
 31
0.0
  0
LINE
  5
4BE
330
70
100
AcDbEntity
  8
SIZE
  6
Continuous
 62
    30
100
AcDbLine
 10
150.0
 20
1883.0
 30
0.0
 11
150.0
 21
2194.899999976158
 31
0.0
  0
LINE
  5
4BF
330
70
100
AcDbEntity
  8
SIZE
  6
Continuous
 62
    30
100
AcDbLine
 10
10.00000000000019
 20
2182.399999976158
 30
0.0
 11
140.0
 21
2182.399999976158
 31
0.0
  0
CIRCLE
  5
4C0
330
70
100
AcDbEntity
  8
SIZE
  6
Continuous
 62
    30
100
AcDbCircle
 10
0.0000000000001926
 20
2182.399999976158
 30
0.0
 40
5.0
  0
LINE
  5
4C1
330
70
100
AcDbEntity
  8
SIZE
  6
Continuous
 62
    30
100
AcDbLine
 10
0.0000000000001926
 20
2182.399999976158
 30
0.0
 11
10.00000000000019
 21
2182.399999976158
 31
0.0
  0
CIRCLE
  5
4C2
330
70
100
AcDbEntity
  8
SIZE
  6
Continuous
 62
    30
100
AcDbCircle
 10
150.0
 20
2182.399999976158
 30
0.0
 40
5.0
  0
LINE
  5
4C3
330
70
100
AcDbEntity
  8
SIZE
  6
Continuous
 62
    30
100
AcDbLine
 10
150.0
 20
2182.399999976158
 30
0.0
 11
140.0
 21
2182.399999976158
 31
0.0
  0
TEXT
  5
4C4
330
70
100
AcDbEntity
  8
SIZE
  6
Continuous
 62
    30
100
AcDbText
 10
42.49999993880403
 20
2192.399999976158
 30
0.0
 40
30.0
  1
150
 72
     1
 11
74.99999993880404
 21
2192.399999976158
 31
0.0
100
AcDbText
  0
POINT
  5
4C5
330
70
100
AcDbEntity
  8
DEFPOINTS
  6
Continuous
 62
    30
100
AcDbPoint
 10
0.000000000000171
 20
1830.0
 30
0.0
  0
POINT
  5
4C6
330
70
100
AcDbEntity
  8
DEFPOINTS
  6
Continuous
 62
    30
100
AcDbPoint
 10
150.0
 20
1873.0
 30
0.0
  0
POINT
  5
4C7
330
70
100
AcDbEntity
  8
DEFPOINTS
  6
Continuous
 62
    30
100
AcDbPoint
 10
150.0
 20
2182.399999976158
 30
0.0
  0
LINE
  5
4C8
330
70
100
AcDbEntity
  8
SIZE
  6
Continuous
 62
    30
100
AcDbLine
 10
-1340.0
 20
0.0000000000000028
 30
0.0
 11
-1494.899999976158
 21
0.0000000000000467
 31
0.0
  0
LINE
  5
4C9
330
70
100
AcDbEntity
  8
SIZE
  6
Continuous
 62
    30
100
AcDbLine
 10
-1340.0
 20
2030.0
 30
0.0
 11
-1494.899999976158
 21
2030.0
 31
0.0
  0
LINE
  5
4CA
330
70
100
AcDbEntity
  8
SIZE
  6
Continuous
 62
    30
100
AcDbLine
 10
-1482.399999976158
 20
10.00000000000004
 30
0.0
 11
-1482.399999976158
 21
2020.0
 31
0.0
  0
CIRCLE
  5
4CB
330
70
100
AcDbEntity
  8
SIZE
  6
Continuous
 62
    30
100
AcDbCircle
 10
-1482.399999976158
 20
0.0000000000000432
 30
0.0
 40
5.0
  0
LINE
  5
4CC
330
70
100
AcDbEntity
  8
SIZE
  6
Continuous
 62
    30
100
AcDbLine
 10
-1482.399999976158
 20
0.0000000000000432
 30
0.0
 11
-1482.399999976158
 21
10.00000000000004
 31
0.0
  0
CIRCLE
  5
4CD
330
70
100
AcDbEntity
  8
SIZE
  6
Continuous
 62
    30
100
AcDbCircle
 10
-1482.399999976158
 20
2030.0
 30
0.0
 40
5.0
  0
LINE
  5
4CE
330
70
100
AcDbEntity
  8
SIZE
  6
Continuous
 62
    30
100
AcDbLine
 10
-1482.399999976158
 20
2030.0
 30
0.0
 11
-1482.399999976158
 21
2020.0
 31
0.0
  0
TEXT
  5
4CF
330
70
100
AcDbEntity
  8
SIZE
  6
Continuous
 62
    30
100
AcDbText
 10
-1492.399999976157
 20
964.9999998776079
 30
0.0
 40
30.0
  1
2030
 50
90.0
 72
     1
 11
-1492.399999976157
 21
1014.999999877608
 31
0.0
100
AcDbText
  0
POINT
  5
4D0
330
70
100
AcDbEntity
  8
DEFPOINTS
  6
Continuous
 62
    30
100
AcDbPoint
 10
-1330.0
 20
0.0
 30
0.0
  0
POINT
  5
4D1
330
70
100
AcDbEntity
  8
DEFPOINTS
  6
Continuous
 62
    30
100
AcDbPoint
 10
-1330.0
 20
2030.0
 30
0.0
  0
POINT
  5
4D2
330
70
100
AcDbEntity
  8
DEFPOINTS
  6
Continuous
 62
    30
100
AcDbPoint
 10
-1482.399999976158
 20
2030.0
 30
0.0
  0
LINE
  5
4D3
330
70
100
AcDbEntity
  8
SIZE
  6
Continuous
 62
    30
100
AcDbLine
 10
-1330.0
 20
2040.0
 30
0.0
 11
-1330.0
 21
2194.899999976158
 31
0.0
  0
LINE
  5
4D4
330
70
100
AcDbEntity
  8
SIZE
  6
Continuous
 62
    30
100
AcDbLine
 10
-730.0
 20
2040.0
 30
0.0
 11
-730.0
 21
2194.899999976158
 31
0.0
  0
LINE
  5
4D5
330
70
100
AcDbEntity
  8
SIZE
  6
Continuous
 62
    30
100
AcDbLine
 10
-1320.0
 20
2182.399999976158
 30
0.0
 11
-740.0
 21
2182.399999976158
 31
0.0
  0
CIRCLE
  5
4D6
330
70
100
AcDbEntity
  8
SIZE
  6
Continuous
 62
    30
100
AcDbCircle
 10
-1330.0
 20
2182.399999976158
 30
0.0
 40
5.0
  0
LINE
  5
4D7
330
70
100
AcDbEntity
  8
SIZE
  6
Continuous
 62
    30
100
AcDbLine
 10
-1330.0
 20
2182.399999976158
 30
0.0
 11
-1320.0
 21
2182.399999976158
 31
0.0
  0
CIRCLE
  5
4D8
330
70
100
AcDbEntity
  8
SIZE
  6
Continuous
 62
    30
100
AcDbCircle
 10
-730.0
 20
2182.399999976158
 30
0.0
 40
5.0
  0
LINE
  5
4D9
330
70
100
AcDbEntity
  8
SIZE
  6
Continuous
 62
    30
100
AcDbLine
 10
-730.0
 20
2182.399999976158
 30
0.0
 11
-740.0
 21
2182.399999976158
 31
0.0
  0
TEXT
  5
4DA
330
70
100
AcDbEntity
  8
SIZE
  6
Continuous
 62
    30
100
AcDbText
 10
-1065.000000061194
 20
2192.399999976158
 30
0.0
 40
30.0
  1
600
 72
     1
 11
-1030.000000061194
 21
2192.399999976158
 31
0.0
100
AcDbText
  0
POINT
  5
4DB
330
70
100
AcDbEntity
  8
DEFPOINTS
  6
Continuous
 62
    30
100
AcDbPoint
 10
-1330.0
 20
2030.0
 30
0.0
  0
POINT
  5
4DC
330
70
100
AcDbEntity
  8
DEFPOINTS
  6
Continuous
 62
    30
100
AcDbPoint
 10
-730.0
 20
2030.0
 30
0.0
  0
POINT
  5
4DD
330
70
100
AcDbEntity
  8
DEFPOINTS
  6
Continuous
 62
    30
100
AcDbPoint
 10
-730.0
 20
2182.399999976158
 30
0.0
  0
LINE
  5
4DE
330
70
100
AcDbEntity
  8
SIZE
  6
Continuous
 62
    30
100
AcDbLine
 10
-730.0
 20
2040.0
 30
0.0
 11
-730.0
 21
2194.899999976158
 31
0.0
  0
LINE
  5
4DF
330
70
100
AcDbEntity
  8
SIZE
  6
Continuous
 62
    30
100
AcDbLine
 10
0.0000000000001716
 20
2040.0
 30
0.0
 11
0.0000000000001811
 21
2194.899999976158
 31
0.0
  0
LINE
  5
4E0
330
70
100
AcDbEntity
  8
SIZE
  6
Continuous
 62
    30
100
AcDbLine
 10
-720.0
 20
2182.399999976158
 30
0.0
 11
-9.999999999999817
 21
2182.399999976158
 31
0.0
  0
CIRCLE
  5
4E1
330
70
100
AcDbEntity
  8
SIZE
  6
Continuous
 62
    30
100
AcDbCircle
 10
-730.0
 20
2182.399999976158
 30
0.0
 40
5.0
  0
LINE
  5
4E2
330
70
100
AcDbEntity
  8
SIZE
  6
Continuous
 62
    30
100
AcDbLine
 10
-730.0
 20
2182.399999976158
 30
0.0
 11
-720.0
 21
2182.399999976158
 31
0.0
  0
CIRCLE
  5
4E3
330
70
100
AcDbEntity
  8
SIZE
  6
Continuous
 62
    30
100
AcDbCircle
 10
0.0000000000001803
 20
2182.399999976158
 30
0.0
 40
5.0
  0
LINE
  5
4E4
330
70
100
AcDbEntity
  8
SIZE
  6
Continuous
 62
    30
100
AcDbLine
 10
0.0000000000001803
 20
2182.399999976158
 30
0.0
 11
-9.99999999999982
 21
2182.399999976158
 31
0.0
  0
TEXT
  5
4E5
330
70
100
AcDbEntity
  8
SIZE
  6
Continuous
 62
    30
100
AcDbText
 10
-402.5000000611958
 20
2192.399999976158
 30
0.0
 40
30.0
  1
730
 72
     1
 11
-365.0000000611959
 21
2192.399999976158
 31
0.0
100
AcDbText
  0
POINT
  5
4E6
330
70
100
AcDbEntity
  8
DEFPOINTS
  6
Continuous
 62
    30
100
AcDbPoint
 10
-730.0
 20
2030.0
 30
0.0
  0
POINT
  5
4E7
330
70
100
AcDbEntity
  8
DEFPOINTS
  6
Continuous
 62
    30
100
AcDbPoint
 10
0.000000000000171
 20
2030.0
 30
0.0
  0
POINT
  5
4E8
330
70
100
AcDbEntity
  8
DEFPOINTS
  6
Continuous
 62
    30
100
AcDbPoint
 10
0.0000000000001803
 20
2182.399999976158
 30
0.0
  0
LINE
  5
4E9
330
70
100
AcDbEntity
  8
SIZE
  6
Continuous
 62
    30
100
AcDbLine
 10
-730.0
 20
-10.0
 30
0.0
 11
-730.0
 21
-160.1000000238419
 31
0.0
  0
LINE
  5
4EA
330
70
100
AcDbEntity
  8
SIZE
  6
Continuous
 62
    30
100
AcDbLine
 10
-630.0
 20
125.0
 30
0.0
 11
-630.0
 21
-160.1000000238419
 31
0.0
  0
LINE
  5
4EB
330
70
100
AcDbEntity
  8
SIZE
  6
Continuous
 62
    30
100
AcDbLine
 10
-720.0
 20
-147.6000000238419
 30
0.0
 11
-640.0
 21
-147.6000000238419
 31
0.0
  0
CIRCLE
  5
4EC
330
70
100
AcDbEntity
  8
SIZE
  6
Continuous
 62
    30
100
AcDbCircle
 10
-730.0
 20
-147.6000000238419
 30
0.0
 40
5.0
  0
LINE
  5
4ED
330
70
100
AcDbEntity
  8
SIZE
  6
Continuous
 62
    30
100
AcDbLine
 10
-730.0
 20
-147.6000000238419
 30
0.0
 11
-720.0
 21
-147.6000000238419
 31
0.0
  0
CIRCLE
  5
4EE
330
70
100
AcDbEntity
  8
SIZE
  6
Continuous
 62
    30
100
AcDbCircle
 10
-630.0
 20
-147.6000000238419
 30
0.0
 40
5.0
  0
LINE
  5
4EF
330
70
100
AcDbEntity
  8
SIZE
  6
Continuous
 62
    30
100
AcDbLine
 10
-630.0
 20
-147.6000000238419
 30
0.0
 11
-640.0
 21
-147.6000000238419
 31
0.0
  0
TEXT
  5
4F0
330
70
100
AcDbEntity
  8
SIZE
  6
Continuous
 62
    30
100
AcDbText
 10
-710.0000000611959
 20
-137.6000000238419
 30
0.0
 40
30.0
  1
100
 72
     1
 11
-680.0000000611959
 21
-137.6000000238419
 31
0.0
100
AcDbText
  0
POINT
  5
4F1
330
70
100
AcDbEntity
  8
DEFPOINTS
  6
Continuous
 62
    30
100
AcDbPoint
 10
-730.0
 20
0.0
 30
0.0
  0
POINT
  5
4F2
330
70
100
AcDbEntity
  8
DEFPOINTS
  6
Continuous
 62
    30
100
AcDbPoint
 10
-630.0
 20
135.0
 30
0.0
  0
POINT
  5
4F3
330
70
100
AcDbEntity
  8
DEFPOINTS
  6
Continuous
 62
    30
100
AcDbPoint
 10
-630.0
 20
-147.6000000238419
 30
0.0
  0
LINE
  5
4F4
330
70
100
AcDbEntity
  8
SIZE
  6
Continuous
 62
    30
100
AcDbLine
 10
-676.0
 20
0.0000000000000028
 30
0.0
 11
-844.899999976158
 21
0.0000000000000507
 31
0.0
  0
LINE
  5
4F5
330
70
100
AcDbEntity
  8
SIZE
  6
Continuous
 62
    30
100
AcDbLine
 10
-660.0
 20
155.0
 30
0.0
 11
-844.899999976158
 21
155.0
 31
0.0
  0
LINE
  5
4F6
330
70
100
AcDbEntity
  8
SIZE
  6
Continuous
 62
    30
100
AcDbLine
 10
-832.399999976158
 20
10.00000000000004
 30
0.0
 11
-832.399999976158
 21
145.0
 31
0.0
  0
CIRCLE
  5
4F7
330
70
100
AcDbEntity
  8
SIZE
  6
Continuous
 62
    30
100
AcDbCircle
 10
-832.399999976158
 20
0.0000000000000471
 30
0.0
 40
5.0
  0
LINE
  5
4F8
330
70
100
AcDbEntity
  8
SIZE
  6
Continuous
 62
    30
100
AcDbLine
 10
-832.399999976158
 20
0.0000000000000471
 30
0.0
 11
-832.399999976158
 21
10.00000000000004
 31
0.0
  0
CIRCLE
  5
4F9
330
70
100
AcDbEntity
  8
SIZE
  6
Continuous
 62
    30
100
AcDbCircle
 10
-832.399999976158
 20
155.0
 30
0.0
 40
5.0
  0
LINE
  5
4FA
330
70
100
AcDbEntity
  8
SIZE
  6
Continuous
 62
    30
100
AcDbLine
 10
-832.399999976158
 20
155.0
 30
0.0
 11
-832.399999976158
 21
145.0
 31
0.0
  0
TEXT
  5
4FB
330
70
100
AcDbEntity
  8
SIZE
  6
Continuous
 62
    30
100
AcDbText
 10
-842.3999999761582
 20
42.49999987760809
 30
0.0
 40
30.0
  1
155
 50
90.0
 72
     1
 11
-842.3999999761582
 21
77.49999987760809
 31
0.0
100
AcDbText
  0
POINT
  5
4FC
330
70
100
AcDbEntity
  8
DEFPOINTS
  6
Continuous
 62
    30
100
AcDbPoint
 10
-666.0
 20
0.0
 30
0.0
  0
POINT
  5
4FD
330
70
100
AcDbEntity
  8
DEFPOINTS
  6
Continuous
 62
    30
100
AcDbPoint
 10
-650.0
 20
155.0
 30
0.0
  0
POINT
  5
4FE
330
70
100
AcDbEntity
  8
DEFPOINTS
  6
Continuous
 62
    30
100
AcDbPoint
 10
-832.399999976158
 20
155.0
 30
0.0
  0
LINE
  5
4FF
330
70
100
AcDbEntity
  8
SIZE
  6
Continuous
 62
    30
100
AcDbLine
 10
10.0
 20
200.0
 30
0.0
 11
160.1000000238419
 21
200.0
 31
0.0
  0
LINE
  5
500
330
70
100
AcDbEntity
  8
SIZE
  6
Continuous
 62
    30
100
AcDbLine
 10
-46.0
 20
-0.0000000000000028
 30
0.0
 11
160.1000000238419
 21
-0.0000000000000612
 31
0.0
  0
LINE
  5
501
330
70
100
AcDbEntity
  8
SIZE
  6
Continuous
 62
    30
100
AcDbLine
 10
147.6000000238419
 20
190.0
 30
0.0
 11
147.6000000238419
 21
9.999999999999943
 31
0.0
  0
CIRCLE
  5
502
330
70
100
AcDbEntity
  8
SIZE
  6
Continuous
 62
    30
100
AcDbCircle
 10
147.6000000238419
 20
200.0
 30
0.0
 40
5.0
  0
LINE
  5
503
330
70
100
AcDbEntity
  8
SIZE
  6
Continuous
 62
    30
100
AcDbLine
 10
147.6000000238419
 20
200.0
 30
0.0
 11
147.6000000238419
 21
190.0
 31
0.0
  0
CIRCLE
  5
504
330
70
100
AcDbEntity
  8
SIZE
  6
Continuous
 62
    30
100
AcDbCircle
 10
147.6000000238419
 20
-0.0000000000000577
 30
0.0
 40
5.0
  0
LINE
  5
505
330
70
100
AcDbEntity
  8
SIZE
  6
Continuous
 62
    30
100
AcDbLine
 10
147.6000000238419
 20
-0.0000000000000577
 30
0.0
 11
147.6000000238419
 21
9.999999999999943
 31
0.0
  0
TEXT
  5
506
330
70
100
AcDbEntity
  8
SIZE
  6
Continuous
 62
    30
100
AcDbText
 10
137.6000000238419
 20
64.99999987760808
 30
0.0
 40
30.0
  1
200
 50
90.0
 72
     1
 11
137.6000000238419
 21
99.99999987760809
 31
0.0
100
AcDbText
  0
POINT
  5
507
330
70
100
AcDbEntity
  8
DEFPOINTS
  6
Continuous
 62
    30
100
AcDbPoint
 10
0.0
 20
200.0
 30
0.0
  0
POINT
  5
508
330
70
100
AcDbEntity
  8
DEFPOINTS
  6
Continuous
 62
    30
100
AcDbPoint
 10
-56.0
 20
0.0
 30
0.0
  0
POINT
  5
509
330
70
100
AcDbEntity
  8
DEFPOINTS
  6
Continuous
 62
    30
100
AcDbPoint
 10
147.6000000238419
 20
-0.0000000000000577
 30
0.0
  0
LINE
  5
50A
330
70
100
AcDbEntity
  8
SIZE
  6
Continuous
 62
    30
100
AcDbLine
 10
-730.0
 20
-10.0
 30
0.0
 11
-730.0
 21
-360.1000000238418
 31
0.0
  0
LINE
  5
50B
330
70
100
AcDbEntity
  8
SIZE
  6
Continuous
 62
    30
100
AcDbLine
 10
-646.0
 20
-30.0
 30
0.0
 11
-646.0
 21
-360.1000000238418
 31
0.0
  0
LINE
  5
50C
330
70
100
AcDbEntity
  8
SIZE
  6
Continuous
 62
    30
100
AcDbLine
 10
-720.0
 20
-347.6000000238418
 30
0.0
 11
-656.0
 21
-347.6000000238418
 31
0.0
  0
CIRCLE
  5
50D
330
70
100
AcDbEntity
  8
SIZE
  6
Continuous
 62
    30
100
AcDbCircle
 10
-730.0
 20
-347.6000000238418
 30
0.0
 40
5.0
  0
LINE
  5
50E
330
70
100
AcDbEntity
  8
SIZE
  6
Continuous
 62
    30
100
AcDbLine
 10
-730.0
 20
-347.6000000238418
 30
0.0
 11
-720.0
 21
-347.6000000238418
 31
0.0
  0
CIRCLE
  5
50F
330
70
100
AcDbEntity
  8
SIZE
  6
Continuous
 62
    30
100
AcDbCircle
 10
-646.0
 20
-347.6000000238418
 30
0.0
 40
5.0
  0
LINE
  5
510
330
70
100
AcDbEntity
  8
SIZE
  6
Continuous
 62
    30
100
AcDbLine
 10
-646.0
 20
-347.6000000238418
 30
0.0
 11
-656.0
 21
-347.6000000238418
 31
0.0
  0
TEXT
  5
511
330
70
100
AcDbEntity
  8
SIZE
  6
Continuous
 62
    30
100
AcDbText
 10
-713.0000000611957
 20
-337.6000000238418
 30
0.0
 40
30.0
  1
84
 72
     1
 11
-688.0000000611957
 21
-337.6000000238418
 31
0.0
100
AcDbText
  0
POINT
  5
512
330
70
100
AcDbEntity
  8
DEFPOINTS
  6
Continuous
 62
    30
100
AcDbPoint
 10
-730.0
 20
0.0
 30
0.0
  0
POINT
  5
513
330
70
100
AcDbEntity
  8
DEFPOINTS
  6
Continuous
 62
    30
100
AcDbPoint
 10
-646.0
 20
-20.0
 30
0.0
  0
POINT
  5
514
330
70
100
AcDbEntity
  8
DEFPOINTS
  6
Continuous
 62
    30
100
AcDbPoint
 10
-646.0
 20
-347.6000000238418
 30
0.0
  0
LINE
  5
515
330
70
100
AcDbEntity
  8
SIZE
  6
Continuous
 62
    30
100
AcDbLine
 10
-646.0
 20
-30.0
 30
0.0
 11
-646.0
 21
-260.1000000238419
 31
0.0
  0
LINE
  5
516
330
70
100
AcDbEntity
  8
SIZE
  6
Continuous
 62
    30
100
AcDbLine
 10
-112.0
 20
-30.0
 30
0.0
 11
-112.0
 21
-260.1000000238419
 31
0.0
  0
LINE
  5
517
330
70
100
AcDbEntity
  8
SIZE
  6
Continuous
 62
    30
100
AcDbLine
 10
-636.0
 20
-247.6000000238419
 30
0.0
 11
-122.0
 21
-247.6000000238419
 31
0.0
  0
CIRCLE
  5
518
330
70
100
AcDbEntity
  8
SIZE
  6
Continuous
 62
    30
100
AcDbCircle
 10
-646.0
 20
-247.6000000238419
 30
0.0
 40
5.0
  0
LINE
  5
519
330
70
100
AcDbEntity
  8
SIZE
  6
Continuous
 62
    30
100
AcDbLine
 10
-646.0
 20
-247.6000000238419
 30
0.0
 11
-636.0
 21
-247.6000000238419
 31
0.0
  0
CIRCLE
  5
51A
330
70
100
AcDbEntity
  8
SIZE
  6
Continuous
 62
    30
100
AcDbCircle
 10
-112.0
 20
-247.6000000238419
 30
0.0
 40
5.0
  0
LINE
  5
51B
330
70
100
AcDbEntity
  8
SIZE
  6
Continuous
 62
    30
100
AcDbLine
 10
-112.0
 20
-247.6000000238419
 30
0.0
 11
-122.0
 21
-247.6000000238419
 31
0.0
  0
TEXT
  5
51C
330
70
100
AcDbEntity
  8
SIZE
  6
Continuous
 62
    30
100
AcDbText
 10
-399.3759155885397
 20
-237.6000000238418
 30
0.0
 40
30.0
  1
534
 72
     1
 11
-359.3759155885397
 21
-237.6000000238418
 31
0.0
100
AcDbText
  0
POINT
  5
51D
330
70
100
AcDbEntity
  8
DEFPOINTS
  6
Continuous
 62
    30
100
AcDbPoint
 10
-646.0
 20
-20.0
 30
0.0
  0
POINT
  5
51E
330
70
100
AcDbEntity
  8
DEFPOINTS
  6
Continuous
 62
    30
100
AcDbPoint
 10
-112.0
 20
-20.0
 30
0.0
  0
POINT
  5
51F
330
70
100
AcDbEntity
  8
DEFPOINTS
  6
Continuous
 62
    30
100
AcDbPoint
 10
-112.0
 20
-247.6000000238419
 30
0.0
  0
LINE
  5
520
330
70
100
AcDbEntity
  8
SIZE
  6
Continuous
 62
    30
100
AcDbLine
 10
-0.0000000000000006
 20
190.0
 30
0.0
 11
-0.0000000000000282
 21
-260.1000000238419
 31
0.0
  0
LINE
  5
521
330
70
100
AcDbEntity
  8
SIZE
  6
Continuous
 62
    30
100
AcDbLine
 10
-112.0
 20
-30.0
 30
0.0
 11
-112.0
 21
-260.1000000238419
 31
0.0
  0
LINE
  5
522
330
70
100
AcDbEntity
  8
SIZE
  6
Continuous
 62
    30
100
AcDbLine
 10
-10.00000000000002
 20
-247.6000000238419
 30
0.0
 11
-102.0
 21
-247.6000000238419
 31
0.0
  0
CIRCLE
  5
523
330
70
100
AcDbEntity
  8
SIZE
  6
Continuous
 62
    30
100
AcDbCircle
 10
-0.0000000000000274
 20
-247.6000000238419
 30
0.0
 40
5.0
  0
LINE
  5
524
330
70
100
AcDbEntity
  8
SIZE
  6
Continuous
 62
    30
100
AcDbLine
 10
-0.0000000000000274
 20
-247.6000000238419
 30
0.0
 11
-10.00000000000002
 21
-247.6000000238419
 31
0.0
  0
CIRCLE
  5
525
330
70
100
AcDbEntity
  8
SIZE
  6
Continuous
 62
    30
100
AcDbCircle
 10
-112.0
 20
-247.6000000238419
 30
0.0
 40
5.0
  0
LINE
  5
526
330
70
100
AcDbEntity
  8
SIZE
  6
Continuous
 62
    30
100
AcDbLine
 10
-112.0
 20
-247.6000000238419
 30
0.0
 11
-102.0
 21
-247.6000000238419
 31
0.0
  0
TEXT
  5
527
330
70
100
AcDbEntity
  8
SIZE
  6
Continuous
 62
    30
100
AcDbText
 10
-86.00000006119591
 20
-237.6000000238418
 30
0.0
 40
30.0
  1
112
 72
     1
 11
-56.00000006119592
 21
-237.6000000238418
 31
0.0
100
AcDbText
  0
POINT
  5
528
330
70
100
AcDbEntity
  8
DEFPOINTS
  6
Continuous
 62
    30
100
AcDbPoint
 10
0.0
 20
200.0
 30
0.0
  0
POINT
  5
529
330
70
100
AcDbEntity
  8
DEFPOINTS
  6
Continuous
 62
    30
100
AcDbPoint
 10
-112.0
 20
-20.0
 30
0.0
  0
POINT
  5
52A
330
70
100
AcDbEntity
  8
DEFPOINTS
  6
Continuous
 62
    30
100
AcDbPoint
 10
-112.0
 20
-247.6000000238419
 30
0.0
  0
LINE
  5
52B
330
70
100
AcDbEntity
  8
SIZE
  6
Continuous
 62
    30
100
AcDbLine
 10
-0.0000000000000006
 20
190.0
 30
0.0
 11
-0.0000000000000404
 21
-460.1000000238419
 31
0.0
  0
LINE
  5
52C
330
70
100
AcDbEntity
  8
SIZE
  6
Continuous
 62
    30
100
AcDbLine
 10
-730.0
 20
-10.0
 30
0.0
 11
-730.0
 21
-460.1000000238418
 31
0.0
  0
LINE
  5
52D
330
70
100
AcDbEntity
  8
SIZE
  6
Continuous
 62
    30
100
AcDbLine
 10
-10.00000000000004
 20
-447.6000000238418
 30
0.0
 11
-720.0
 21
-447.6000000238418
 31
0.0
  0
CIRCLE
  5
52E
330
70
100
AcDbEntity
  8
SIZE
  6
Continuous
 62
    30
100
AcDbCircle
 10
-0.0000000000000397
 20
-447.6000000238418
 30
0.0
 40
5.0
  0
LINE
  5
52F
330
70
100
AcDbEntity
  8
SIZE
  6
Continuous
 62
    30
100
AcDbLine
 10
-0.0000000000000397
 20
-447.6000000238418
 30
0.0
 11
-10.00000000000004
 21
-447.6000000238418
 31
0.0
  0
CIRCLE
  5
530
330
70
100
AcDbEntity
  8
SIZE
  6
Continuous
 62
    30
100
AcDbCircle
 10
-730.0
 20
-447.6000000238418
 30
0.0
 40
5.0
  0
LINE
  5
531
330
70
100
AcDbEntity
  8
SIZE
  6
Continuous
 62
    30
100
AcDbLine
 10
-730.0
 20
-447.6000000238418
 30
0.0
 11
-720.0
 21
-447.6000000238418
 31
0.0
  0
TEXT
  5
532
330
70
100
AcDbEntity
  8
SIZE
  6
Continuous
 62
    30
100
AcDbText
 10
-401.3040161744771
 20
-437.6000000238418
 30
0.0
 40
30.0
  1
730
 72
     1
 11
-363.8040161744772
 21
-437.6000000238418
 31
0.0
100
AcDbText
  0
POINT
  5
533
330
70
100
AcDbEntity
  8
DEFPOINTS
  6
Continuous
 62
    30
100
AcDbPoint
 10
0.0
 20
200.0
 30
0.0
  0
POINT
  5
534
330
70
100
AcDbEntity
  8
DEFPOINTS
  6
Continuous
 62
    30
100
AcDbPoint
 10
-730.0
 20
0.0
 30
0.0
  0
POINT
  5
535
330
70
100
AcDbEntity
  8
DEFPOINTS
  6
Continuous
 62
    30
100
AcDbPoint
 10
-730.0
 20
-447.6000000238418
 30
0.0
  0
LINE
  5
536
330
70
100
AcDbEntity
  8
SIZE
  6
Continuous
 62
    30
100
AcDbLine
 10
160.0
 20
1830.0
 30
0.0
 11
260.1000000238421
 21
1830.0
 31
0.0
  0
LINE
  5
537
330
70
100
AcDbEntity
  8
SIZE
  6
Continuous
 62
    30
100
AcDbLine
 10
10.00000000000017
 20
2030.0
 30
0.0
 11
260.1000000238423
 21
2030.0
 31
0.0
  0
LINE
  5
538
330
70
100
AcDbEntity
  8
SIZE
  6
Continuous
 62
    30
100
AcDbLine
 10
247.6000000238422
 20
1840.0
 30
0.0
 11
247.6000000238422
 21
2020.0
 31
0.0
  0
CIRCLE
  5
539
330
70
100
AcDbEntity
  8
SIZE
  6
Continuous
 62
    30
100
AcDbCircle
 10
247.6000000238422
 20
1830.0
 30
0.0
 40
5.0
  0
LINE
  5
53A
330
70
100
AcDbEntity
  8
SIZE
  6
Continuous
 62
    30
100
AcDbLine
 10
247.6000000238422
 20
1830.0
 30
0.0
 11
247.6000000238422
 21
1840.0
 31
0.0
  0
CIRCLE
  5
53B
330
70
100
AcDbEntity
  8
SIZE
  6
Continuous
 62
    30
100
AcDbCircle
 10
247.6000000238422
 20
2030.0
 30
0.0
 40
5.0
  0
LINE
  5
53C
330
70
100
AcDbEntity
  8
SIZE
  6
Continuous
 62
    30
100
AcDbLine
 10
247.6000000238422
 20
2030.0
 30
0.0
 11
247.6000000238422
 21
2020.0
 31
0.0
  0
TEXT
  5
53D
330
70
100
AcDbEntity
  8
SIZE
  6
Continuous
 62
    30
100
AcDbText
 10
237.6000000238418
 20
1894.999999877608
 30
0.0
 40
30.0
  1
200
 50
90.0
 72
     1
 11
237.6000000238418
 21
1929.999999877608
 31
0.0
100
AcDbText
  0
POINT
  5
53E
330
70
100
AcDbEntity
  8
DEFPOINTS
  6
Continuous
 62
    30
100
AcDbPoint
 10
150.0
 20
1830.0
 30
0.0
  0
POINT
  5
53F
330
70
100
AcDbEntity
  8
DEFPOINTS
  6
Continuous
 62
    30
100
AcDbPoint
 10
0.000000000000171
 20
2030.0
 30
0.0
  0
POINT
  5
540
330
70
100
AcDbEntity
  8
DEFPOINTS
  6
Continuous
 62
    30
100
AcDbPoint
 10
247.6000000238422
 20
2030.0
 30
0.0
  0
LINE
  5
541
330
70
100
AcDbEntity
  8
SIZE
  6
Continuous
 62
    30
100
AcDbLine
 10
-82.0
 20
-0.0000000000000028
 30
0.0
 11
460.1000000238417
 21
-0.0000000000001564
 31
0.0
  0
LINE
  5
542
330
70
100
AcDbEntity
  8
SIZE
  6
Continuous
 62
    30
100
AcDbLine
 10
160.0
 20
1875.0
 30
0.0
 11
460.100000023842
 21
1875.0
 31
0.0
  0
LINE
  5
543
330
70
100
AcDbEntity
  8
SIZE
  6
Continuous
 62
    30
100
AcDbLine
 10
447.6000000238417
 20
9.999999999999847
 30
0.0
 11
447.600000023842
 21
1865.0
 31
0.0
  0
CIRCLE
  5
544
330
70
100
AcDbEntity
  8
SIZE
  6
Continuous
 62
    30
100
AcDbCircle
 10
447.6000000238417
 20
-0.0000000000001529
 30
0.0
 40
5.0
  0
LINE
  5
545
330
70
100
AcDbEntity
  8
SIZE
  6
Continuous
 62
    30
100
AcDbLine
 10
447.6000000238417
 20
-0.0000000000001529
 30
0.0
 11
447.6000000238417
 21
9.999999999999847
 31
0.0
  0
CIRCLE
  5
546
330
70
100
AcDbEntity
  8
SIZE
  6
Continuous
 62
    30
100
AcDbCircle
 10
447.600000023842
 20
1875.0
 30
0.0
 40
5.0
  0
LINE
  5
547
330
70
100
AcDbEntity
  8
SIZE
  6
Continuous
 62
    30
100
AcDbLine
 10
447.600000023842
 20
1875.0
 30
0.0
 11
447.600000023842
 21
1865.0
 31
0.0
  0
TEXT
  5
548
330
70
100
AcDbEntity
  8
SIZE
  6
Continuous
 62
    30
100
AcDbText
 10
437.6000000238418
 20
887.4999998776081
 30
0.0
 40
30.0
  1
1875
 50
90.0
 72
     1
 11
437.6000000238418
 21
937.4999998776081
 31
0.0
100
AcDbText
  0
POINT
  5
549
330
70
100
AcDbEntity
  8
DEFPOINTS
  6
Continuous
 62
    30
100
AcDbPoint
 10
-92.0
 20
0.0
 30
0.0
  0
POINT
  5
54A
330
70
100
AcDbEntity
  8
DEFPOINTS
  6
Continuous
 62
    30
100
AcDbPoint
 10
150.0
 20
1875.0
 30
0.0
  0
POINT
  5
54B
330
70
100
AcDbEntity
  8
DEFPOINTS
  6
Continuous
 62
    30
100
AcDbPoint
 10
447.600000023842
 20
1875.0
 30
0.0
  0
LINE
  5
54C
330
70
100
AcDbEntity
  8
SIZE
  6
Continuous
 62
    30
100
AcDbLine
 10
-216.0
 20
-30.0
 30
0.0
 11
-216.0
 21
-360.1000000238418
 31
0.0
  0
LINE
  5
54D
330
70
100
AcDbEntity
  8
SIZE
  6
Continuous
 62
    30
100
AcDbLine
 10
-0.0000000000000006
 20
190.0
 30
0.0
 11
-0.0000000000000343
 21
-360.1000000238419
 31
0.0
  0
LINE
  5
54E
330
70
100
AcDbEntity
  8
SIZE
  6
Continuous
 62
    30
100
AcDbLine
 10
-206.0
 20
-347.6000000238418
 30
0.0
 11
-10.00000000000003
 21
-347.6000000238418
 31
0.0
  0
CIRCLE
  5
54F
330
70
100
AcDbEntity
  8
SIZE
  6
Continuous
 62
    30
100
AcDbCircle
 10
-216.0
 20
-347.6000000238418
 30
0.0
 40
5.0
  0
LINE
  5
550
330
70
100
AcDbEntity
  8
SIZE
  6
Continuous
 62
    30
100
AcDbLine
 10
-216.0
 20
-347.6000000238418
 30
0.0
 11
-206.0
 21
-347.6000000238418
 31
0.0
  0
CIRCLE
  5
551
330
70
100
AcDbEntity
  8
SIZE
  6
Continuous
 62
    30
100
AcDbCircle
 10
-0.0000000000000335
 20
-347.6000000238418
 30
0.0
 40
5.0
  0
LINE
  5
552
330
70
100
AcDbEntity
  8
SIZE
  6
Continuous
 62
    30
100
AcDbLine
 10
-0.0000000000000335
 20
-347.6000000238418
 30
0.0
 11
-10.00000000000003
 21
-347.6000000238418
 31
0.0
  0
TEXT
  5
553
330
70
100
AcDbEntity
  8
SIZE
  6
Continuous
 62
    30
100
AcDbText
 10
-143.0000000611959
 20
-337.6000000238418
 30
0.0
 40
30.0
  1
216
 72
     1
 11
-108.0000000611959
 21
-337.6000000238418
 31
0.0
100
AcDbText
  0
POINT
  5
554
330
70
100
AcDbEntity
  8
DEFPOINTS
  6
Continuous
 62
    30
100
AcDbPoint
 10
-216.0
 20
-20.0
 30
0.0
  0
POINT
  5
555
330
70
100
AcDbEntity
  8
DEFPOINTS
  6
Continuous
 62
    30
100
AcDbPoint
 10
0.0
 20
200.0
 30
0.0
  0
POINT
  5
556
330
70
100
AcDbEntity
  8
DEFPOINTS
  6
Continuous
 62
    30
100
AcDbPoint
 10
-0.0000000000000335
 20
-347.6000000238418
 30
0.0
  0
LINE
  5
557
330
70
100
AcDbEntity
  8
SIZE
  6
Continuous
 62
    30
100
AcDbLine
 10
-646.0
 20
-30.0
 30
0.0
 11
-646.0
 21
-360.1000000238418
 31
0.0
  0
LINE
  5
558
330
70
100
AcDbEntity
  8
SIZE
  6
Continuous
 62
    30
100
AcDbLine
 10
-216.0
 20
-30.0
 30
0.0
 11
-216.0
 21
-360.1000000238418
 31
0.0
  0
LINE
  5
559
330
70
100
AcDbEntity
  8
SIZE
  6
Continuous
 62
    30
100
AcDbLine
 10
-636.0
 20
-347.6000000238418
 30
0.0
 11
-226.0
 21
-347.6000000238418
 31
0.0
  0
CIRCLE
  5
55A
330
70
100
AcDbEntity
  8
SIZE
  6
Continuous
 62
    30
100
AcDbCircle
 10
-646.0
 20
-347.6000000238418
 30
0.0
 40
5.0
  0
LINE
  5
55B
330
70
100
AcDbEntity
  8
SIZE
  6
Continuous
 62
    30
100
AcDbLine
 10
-646.0
 20
-347.6000000238418
 30
0.0
 11
-636.0
 21
-347.6000000238418
 31
0.0
  0
CIRCLE
  5
55C
330
70
100
AcDbEntity
  8
SIZE
  6
Continuous
 62
    30
100
AcDbCircle
 10
-216.0
 20
-347.6000000238418
 30
0.0
 40
5.0
  0
LINE
  5
55D
330
70
100
AcDbEntity
  8
SIZE
  6
Continuous
 62
    30
100
AcDbLine
 10
-216.0
 20
-347.6000000238418
 30
0.0
 11
-226.0
 21
-347.6000000238418
 31
0.0
  0
TEXT
  5
55E
330
70
100
AcDbEntity
  8
SIZE
  6
Continuous
 62
    30
100
AcDbText
 10
-468.5000000611958
 20
-337.6000000238418
 30
0.0
 40
30.0
  1
430
 72
     1
 11
-431.0000000611958
 21
-337.6000000238418
 31
0.0
100
AcDbText
  0
POINT
  5
55F
330
70
100
AcDbEntity
  8
DEFPOINTS
  6
Continuous
 62
    30
100
AcDbPoint
 10
-646.0
 20
-20.0
 30
0.0
  0
POINT
  5
560
330
70
100
AcDbEntity
  8
DEFPOINTS
  6
Continuous
 62
    30
100
AcDbPoint
 10
-216.0
 20
-20.0
 30
0.0
  0
POINT
  5
561
330
70
100
AcDbEntity
  8
DEFPOINTS
  6
Continuous
 62
    30
100
AcDbPoint
 10
-216.0
 20
-347.6000000238418
 30
0.0
  0
LINE
  5
562
330
70
100
AcDbEntity
  8
SIZE
  6
Continuous
 62
    30
100
AcDbLine
 10
-734.0
 20
200.0
 30
0.0
 11
-1044.899999976158
 21
200.0000000000001
 31
0.0
  0
LINE
  5
563
330
70
100
AcDbEntity
  8
SIZE
  6
Continuous
 62
    30
100
AcDbLine
 10
-1320.0
 20
-0.0000000000000028
 30
0.0
 11
-1019.899999976158
 21
-0.0000000000000878
 31
0.0
  0
LINE
  5
564
330
70
100
AcDbEntity
  8
SIZE
  6
Continuous
 62
    30
100
AcDbLine
 10
-1032.399999976158
 20
190.0000000000001
 30
0.0
 11
-1032.399999976158
 21
9.999999999999912
 31
0.0
  0
CIRCLE
  5
565
330
70
100
AcDbEntity
  8
SIZE
  6
Continuous
 62
    30
100
AcDbCircle
 10
-1032.399999976158
 20
200.0000000000001
 30
0.0
 40
5.0
  0
LINE
  5
566
330
70
100
AcDbEntity
  8
SIZE
  6
Continuous
 62
    30
100
AcDbLine
 10
-1032.399999976158
 20
200.0000000000001
 30
0.0
 11
-1032.399999976158
 21
190.0000000000001
 31
0.0
  0
CIRCLE
  5
567
330
70
100
AcDbEntity
  8
SIZE
  6
Continuous
 62
    30
100
AcDbCircle
 10
-1032.399999976158
 20
-0.0000000000000843
 30
0.0
 40
5.0
  0
LINE
  5
568
330
70
100
AcDbEntity
  8
SIZE
  6
Continuous
 62
    30
100
AcDbLine
 10
-1032.399999976158
 20
-0.0000000000000843
 30
0.0
 11
-1032.399999976158
 21
9.999999999999916
 31
0.0
  0
TEXT
  5
569
330
70
100
AcDbEntity
  8
SIZE
  6
Continuous
 62
    30
100
AcDbText
 10
-1042.399999976158
 20
64.99999987760808
 30
0.0
 40
30.0
  1
200
 50
90.0
 72
     1
 11
-1042.399999976158
 21
99.99999987760809
 31
0.0
100
AcDbText
  0
POINT
  5
56A
330
70
100
AcDbEntity
  8
DEFPOINTS
  6
Continuous
 62
    30
100
AcDbPoint
 10
-724.0
 20
200.0
 30
0.0
  0
POINT
  5
56B
330
70
100
AcDbEntity
  8
DEFPOINTS
  6
Continuous
 62
    30
100
AcDbPoint
 10
-1330.0
 20
0.0
 30
0.0
  0
POINT
  5
56C
330
70
100
AcDbEntity
  8
DEFPOINTS
  6
Continuous
 62
    30
100
AcDbPoint
 10
-1032.399999976158
 20
-0.0000000000000843
 30
0.0
  0
LINE
  5
56D
330
70
100
AcDbEntity
  8
NOTE
  6
Continuous
100
AcDbLine
 10
-623.0
 20
200.0
 30
0.0
 11
-663.0
 21
200.0
 31
0.0
  0
LINE
  5
56E
330
70
100
AcDbEntity
  8
NOTE
  6
Continuous
100
AcDbLine
 10
-643.0
 20
180.0
 30
0.0
 11
-643.0
 21
220.0
 31
0.0
  0
LINE
  5
56F
330
70
100
AcDbEntity
  8
NOTE
  6
Continuous
100
AcDbLine
 10
-146.2999877929687
 20
300.0
 30
0.0
 11
-530.0
 21
300.0
 31
0.0
  0
LINE
  5
570
330
70
100
AcDbEntity
  8
NOTE
  6
Continuous
100
AcDbLine
 10
-530.0
 20
300.0
 30
0.0
 11
-643.0
 21
200.0
 31
0.0
  0
LINE
  5
571
330
70
100
AcDbEntity
  8
NOTE
  6
Continuous
100
AcDbLine
 10
-643.0
 20
200.0
 30
0.0
 11
-641.896341649812
 21
201.6679143401446
 31
0.0
  0
LINE
  5
572
330
70
100
AcDbEntity
  8
NOTE
  6
Continuous
100
AcDbLine
 10
-643.0
 20
200.0
 30
0.0
 11
-641.2102466485597
 21
200.89262698873
 31
0.0
  0
TEXT
  5
573
330
70
100
AcDbEntity
  8
NOTE
  6
Continuous
100
AcDbText
 10
-471.4999999999998
 20
301.0
 30
0.0
 40
40.0
  1
EL φ49×59長円
 50
359.9999956742889
 41
0.719736855281027
  7
STANDARD1
100
AcDbText
  0
TEXT
  5
574
330
70
100
AcDbEntity
  8
NOTE
  6
Continuous
100
AcDbText
 10
-569.8013305664063
 20
2127.545166015625
 30
0.0
 40
40.0
  1
メンテナンススペース
 50
0.000002504478167
 41
0.84375
  7
STANDARD1
100
AcDbText
  0
LINE
  5
575
330
70
100
AcDbEntity
  8
NOTE
  6
Continuous
100
AcDbLine
 10
752.2999877929686
 20
1680.0
 30
0.0
 11
500.0
 21
1680.0
 31
0.0
  0
LINE
  5
576
330
70
100
AcDbEntity
  8
NOTE
  6
Continuous
100
AcDbLine
 10
500.0
 20
1680.0
 30
0.0
 11
150.0
 21
1853.0
 31
0.0
  0
LINE
  5
577
330
70
100
AcDbEntity
  8
NOTE
  6
Continuous
100
AcDbLine
 10
150.0
 20
1853.0
 30
0.0
 11
151.961212017443
 21
1852.608021145164
 31
0.0
  0
LINE
  5
578
330
70
100
AcDbEntity
  8
NOTE
  6
Continuous
100
AcDbLine
 10
150.0
 20
1853.0
 30
0.0
 11
151.5024699826618
 21
1851.679930323354
 31
0.0
  0
TEXT
  5
579
330
70
100
AcDbEntity
  8
NOTE
  6
Continuous
100
AcDbText
 10
558.4999999999999
 20
1681.0
 30
0.0
 40
40.0
  1
AH 2-M10
 50
0.000002504478167
 41
0.6473684436396551
  7
STANDARD1
100
AcDbText
  0
LINE
  5
57A
330
70
100
AcDbEntity
  8
NOTE
  6
Continuous
100
AcDbLine
 10
-1244.300048828125
 20
-150.0
 30
0.0
 11
-830.0
 21
-150.0
 31
0.0
  0
LINE
  5
57B
330
70
100
AcDbEntity
  8
NOTE
  6
Continuous
100
AcDbLine
 10
-830.0
 20
-150.0
 30
0.0
 11
-630.0
 21
155.0
 31
0.0
  0
LINE
  5
57C
330
70
100
AcDbEntity
  8
NOTE
  6
Continuous
100
AcDbLine
 10
-630.0
 20
155.0
 30
0.0
 11
-630.6264723525523
 21
153.1006494816681
 31
0.0
  0
LINE
  5
57D
330
70
100
AcDbEntity
  8
NOTE
  6
Continuous
100
AcDbLine
 10
-630.0
 20
155.0
 30
0.0
 11
-631.4922162506475
 21
153.6683503984519
 31
0.0
  0
TEXT
  5
57E
330
70
100
AcDbEntity
  8
NOTE
  6
Continuous
100
AcDbText
 10
-1244.300048828125
 20
-149.000015258789
 30
0.0
 40
40.0
  1
WD R3/4(φ27.2)
 50
0.000002504478167
 41
0.6500000202137493
  7
STANDARD1
100
AcDbText
  0
LINE
  5
57F
330
70
100
AcDbEntity
  8
NOTE
  6
Continuous
100
AcDbLine
 10
-645.0
 20
200.0
 30
0.0
 11
-685.0
 21
200.0
 31
0.0
  0
LINE
  5
580
330
70
100
AcDbEntity
  8
NOTE
  6
Continuous
100
AcDbLine
 10
-665.0
 20
180.0
 30
0.0
 11
-665.0
 21
220.0
 31
0.0
  0
LINE
  5
581
330
70
100
AcDbEntity
  8
NOTE
  6
Continuous
100
AcDbLine
 10
-610.0
 20
155.0
 30
0.0
 11
-650.0
 21
155.0
 31
0.0
  0
LINE
  5
582
330
70
100
AcDbEntity
  8
NOTE
  6
Continuous
100
AcDbLine
 10
-630.0
 20
135.0
 30
0.0
 11
-630.0
 21
175.0
 31
0.0
  0
LINE
  5
583
330
70
100
AcDbEntity
  8
NOTE
  6
Continuous
100
AcDbLine
 10
-553.5000000658194
 20
172.5000000000002
 30
0.0
 11
-593.5000000658194
 21
172.5000000000002
 31
0.0
  0
LINE
  5
584
330
70
100
AcDbEntity
  8
NOTE
  6
Continuous
100
AcDbLine
 10
-573.5000000658194
 20
152.5000000000002
 30
0.0
 11
-573.5000000658194
 21
192.5000000000002
 31
0.0
  0
LINE
  5
585
330
70
100
AcDbEntity
  8
NOTE
  6
Continuous
100
AcDbLine
 10
-625.9999999999998
 20
0.0
 30
0.0
 11
-665.9999999999996
 21
0.0
 31
0.0
  0
LINE
  5
586
330
70
100
AcDbEntity
  8
NOTE
  6
Continuous
100
AcDbLine
 10
-645.9999999999998
 20
-20.0
 30
0.0
 11
-645.9999999999998
 21
20.0
 31
0.0
  0
LINE
  5
587
330
70
100
AcDbEntity
  8
NOTE
  6
Continuous
100
AcDbLine
 10
170.0
 20
1853.0
 30
0.0
 11
130.0
 21
1853.0
 31
0.0
  0
LINE
  5
588
330
70
100
AcDbEntity
  8
NOTE
  6
Continuous
100
AcDbLine
 10
150.0
 20
1833.0
 30
0.0
 11
150.0
 21
1873.0
 31
0.0
  0
LINE
  5
589
330
70
100
AcDbEntity
  8
NOTE
  6
Continuous
100
AcDbLine
 10
-146.2999877929687
 20
600.0
 30
0.0
 11
-530.0
 21
600.0
 31
0.0
  0
LINE
  5
58A
330
70
100
AcDbEntity
  8
NOTE
  6
Continuous
100
AcDbLine
 10
-530.0
 20
600.0
 30
0.0
 11
-665.0
 21
200.0
 31
0.0
  0
LINE
  5
58B
330
70
100
AcDbEntity
  8
NOTE
  6
Continuous
100
AcDbLine
 10
-665.0
 20
200.0
 30
0.0
 11
-664.8726932061435
 21
201.9959441325443
 31
0.0
  0
LINE
  5
58C
330
70
100
AcDbEntity
  8
NOTE
  6
Continuous
100
AcDbLine
 10
-665.0
 20
200.0
 30
0.0
 11
-663.8917769919155
 21
201.6648849102424
 31
0.0
  0
TEXT
  5
58D
330
70
100
AcDbEntity
  8
NOTE
  6
Continuous
100
AcDbText
 10
-471.4999999999998
 20
601.0
 30
0.0
 40
40.0
  1
HW φ49×59長円
 50
0.000002504478167
 41
0.719736855281027
  7
STANDARD1
100
AcDbText
  0
LINE
  5
58E
330
70
100
AcDbEntity
  8
NOTE
  6
Continuous
100
AcDbLine
 10
-312.5
 20
500.0
 30
0.0
 11
-530.0
 21
500.0
 31
0.0
  0
LINE
  5
58F
330
70
100
AcDbEntity
  8
NOTE
  6
Continuous
100
AcDbLine
 10
-530.0
 20
500.0
 30
0.0
 11
-665.0
 21
200.0
 31
0.0
  0
LINE
  5
590
330
70
100
AcDbEntity
  8
NOTE
  6
Continuous
100
AcDbLine
 10
-665.0
 20
200.0
 30
0.0
 11
-664.6792816406802
 21
201.9741174569906
 31
0.0
  0
LINE
  5
591
330
70
100
AcDbEntity
  8
NOTE
  6
Continuous
100
AcDbLine
 10
-665.0
 20
200.0
 30
0.0
 11
-663.7351910022998
 21
201.5492766697196
 31
0.0
  0
TEXT
  5
592
330
70
100
AcDbEntity
  8
NOTE
  6
Continuous
100
AcDbText
 10
-471.4999999999998
 20
501.0
 30
0.0
 40
40.0
  1
CL φ32
 50
0.000002504478167
 41
0.6982758805669589
  7
STANDARD1
100
AcDbText
  0
LINE
  5
593
330
70
100
AcDbEntity
  8
NOTE
  6
Continuous
100
AcDbLine
 10
-146.2999877929687
 20
400.0
 30
0.0
 11
-530.0
 21
400.0
 31
0.0
  0
LINE
  5
594
330
70
100
AcDbEntity
  8
NOTE
  6
Continuous
100
AcDbLine
 10
-530.0
 20
400.0
 30
0.0
 11
-665.0
 21
200.0
 31
0.0
  0
LINE
  5
595
330
70
100
AcDbEntity
  8
NOTE
  6
Continuous
100
AcDbLine
 10
-665.0
 20
200.0
 30
0.0
 11
-664.3482250989864
 21
201.8908171456828
 31
0.0
  0
LINE
  5
596
330
70
100
AcDbEntity
  8
NOTE
  6
Continuous
100
AcDbLine
 10
-665.0
 20
200.0
 30
0.0
 11
-663.4901377862204
 21
201.3116082095663
 31
0.0
  0
TEXT
  5
597
330
70
100
AcDbEntity
  8
NOTE
  6
Continuous
100
AcDbText
 10
-471.4999999999998
 20
401.0
 30
0.0
 40
40.0
  1
CW φ49×59長円
 50
0.000002504478167
 41
0.719736855281027
  7
STANDARD1
100
AcDbText
  0
TEXT
  5
598
330
70
100
AcDbEntity
  8
NOTE
  6
Continuous
100
AcDbText
 10
-1229.9462890625
 20
2126.07763671875
 30
0.0
 40
40.0
  1
メンテナンススペース
 50
0.000002504478167
 41
0.84375
  7
STANDARD1
100
AcDbText
  0
TEXT
  5
599
330
70
100
AcDbEntity
  8
NOTE
  6
Continuous
100
AcDbText
 10
302.3980712890625
 20
1882.026977539062
 30
0.0
 40
40.0
  1
メンテナンススペース
 50
90.00000500895634
 41
0.84375
  7
STANDARD1
100
AcDbText
  0
TEXT
  5
59A
330
70
100
AcDbEntity
  8
NOTE
  6
Continuous
100
AcDbText
 10
-1426.903564453125
 20
835.6097412109374
 30
0.0
 40
40.0
  1
メンテナンススペース
 50
90.00000500895634
 41
0.84375
  7
STANDARD1
100
AcDbText
  0
LINE
  5
59B
330
70
100
AcDbEntity
  8
NOTE
  6
Continuous
100
AcDbLine
 10
-665.0
 20
800.0
 30
0.0
 11
-665.0
 21
840.0
 31
0.0
  0
LINE
  5
59C
330
70
100
AcDbEntity
  8
NOTE
  6
Continuous
100
AcDbLine
 10
-685.0
 20
820.0
 30
0.0
 11
-645.0
 21
820.0
 31
0.0
  0
LINE
  5
59D
330
70
100
AcDbEntity
  8
NOTE
  6
Continuous
100
AcDbLine
 10
-685.0
 20
891.0
 30
0.0
 11
-645.0
 21
891.0
 31
0.0
  0
LINE
  5
59E
330
70
100
AcDbEntity
  8
NOTE
  6
Continuous
100
AcDbLine
 10
-665.0
 20
867.0
 30
0.0
 11
-665.0
 21
911.0
 31
0.0
  0
LINE
  5
59F
330
70
100
AcDbEntity
  8
NOTE
  6
Continuous
100
AcDbLine
 10
-150.6999816894531
 20
900.0
 30
0.0
 11
-565.0
 21
900.0
 31
0.0
  0
LINE
  5
5A0
330
70
100
AcDbEntity
  8
NOTE
  6
Continuous
100
AcDbLine
 10
-565.0
 20
900.0
 30
0.0
 11
-665.0
 21
820.0
 31
0.0
  0
LINE
  5
5A1
330
70
100
AcDbEntity
  8
NOTE
  6
Continuous
100
AcDbLine
 10
-665.0
 20
820.0
 30
0.0
 11
-663.8148432631439
 21
821.6110256078302
 31
0.0
  0
LINE
  5
5A2
330
70
100
AcDbEntity
  8
NOTE
  6
Continuous
100
AcDbLine
 10
-665.0
 20
820.0
 30
0.0
 11
-663.1681113428068
 21
820.802610707409
 31
0.0
  0
TEXT
  5
5A3
330
70
100
AcDbEntity
  8
NOTE
  6
Continuous
100
AcDbText
 10
-506.5
 20
901.0
 30
0.0
 40
40.0
  1
CW R3/4(φ27.2)
 50
0.000002504478167
 41
0.6500000202137493
  7
STANDARD1
100
AcDbText
  0
LINE
  5
5A4
330
70
100
AcDbEntity
  8
NOTE
  6
Continuous
100
AcDbLine
 10
-150.6999816894531
 20
1041.0
 30
0.0
 11
-565.0
 21
1041.0
 31
0.0
  0
LINE
  5
5A5
330
70
100
AcDbEntity
  8
NOTE
  6
Continuous
100
AcDbLine
 10
-565.0
 20
1041.0
 30
0.0
 11
-665.0
 21
891.0
 31
0.0
  0
LINE
  5
5A6
330
70
100
AcDbEntity
  8
NOTE
  6
Continuous
100
AcDbLine
 10
-665.0
 20
891.0
 30
0.0
 11
-664.3591024483545
 21
892.8945316910242
 31
0.0
  0
LINE
  5
5A7
330
70
100
AcDbEntity
  8
NOTE
  6
Continuous
100
AcDbLine
 10
-665.0
 20
891.0
 30
0.0
 11
-663.4977005743029
 21
892.3202637749898
 31
0.0
  0
TEXT
  5
5A8
330
70
100
AcDbEntity
  8
NOTE
  6
Continuous
100
AcDbText
 10
-506.5
 20
1042.0
 30
0.0
 40
40.0
  1
HW R3/4(φ27.2)
 50
0.000002504478167
 41
0.6500000202137493
  7
STANDARD1
100
AcDbText
  0
LINE
  5
5A9
330
70
100
AcDbEntity
  8
NOTE
  6
Continuous
100
AcDbLine
 10
-259.0999755859376
 20
-150.0
 30
0.0
 11
-452.0
 21
-150.0
 31
0.0
  0
LINE
  5
5AA
330
70
100
AcDbEntity
  8
NOTE
  6
Continuous
100
AcDbLine
 10
-452.0
 20
-150.0
 30
0.0
 11
-573.5
 21
172.5
 31
0.0
  0
LINE
  5
5AB
330
70
100
AcDbEntity
  8
NOTE
  6
Continuous
100
AcDbLine
 10
-573.5
 20
172.5
 30
0.0
 11
-572.3345166568291
 21
170.8746850838096
 31
0.0
  0
LINE
  5
5AC
330
70
100
AcDbEntity
  8
NOTE
  6
Continuous
100
AcDbLine
 10
-573.5
 20
172.5
 30
0.0
 11
-573.3033193042213
 21
170.5096943189781
 31
0.0
  0
TEXT
  5
5AD
330
70
100
AcDbEntity
  8
NOTE
  6
Continuous
100
AcDbText
 10
-393.5
 20
-149.0
 30
0.0
 40
40.0
  1
D φ18
 50
359.9999956742889
 41
0.715625017881393
  7
STANDARD1
100
AcDbText
  0
TEXT
  5
5AE
330
70
100
AcDbEntity
  8
NOTE
  6
Continuous
100
AcDbText
 10
-1274.346069335937
 20
-303.74658203125
 30
0.0
 40
40.0
  1
［Ｌ型座金（同梱部品）］
 50
0.000002504478167
 41
0.8125
  7
STANDARD1
100
AcDbText
  0
LINE
  5
5AF
330
70
100
AcDbEntity
  8
NOTE
  6
Continuous
100
AcDbLine
 10
-1033.099975585938
 20
-250.0
 30
0.0
 11
-830.0
 21
-250.0
 31
0.0
  0
LINE
  5
5B0
330
70
100
AcDbEntity
  8
NOTE
  6
Continuous
100
AcDbLine
 10
-830.0
 20
-250.0
 30
0.0
 11
-646.0
 21
0.0
 31
0.0
  0
LINE
  5
5B1
330
70
100
AcDbEntity
  8
NOTE
  6
Continuous
100
AcDbLine
 10
-646.0
 20
0.0
 30
0.0
 11
-646.7282280309392
 21
-1.862708762784464
 31
0.0
  0
LINE
  5
5B2
330
70
100
AcDbEntity
  8
NOTE
  6
Continuous
100
AcDbLine
 10
-646.0
 20
0.0
 30
0.0
 11
-647.5620183741328
 21
-1.249039070194164
 31
0.0
  0
TEXT
  5
5B3
330
70
100
AcDbEntity
  8
NOTE
  6
Continuous
100
AcDbText
 10
-1033.099975585938
 20
-249.0
 30
0.0
 40
40.0
  1
AH M12
 50
0.000002504478167
 41
0.6589285944189342
  7
STANDARD1
100
AcDbText
  0
LINE
  5
5B4
330
70
100
AcDbEntity
  8
NOTE
  6
Continuous
100
AcDbLine
 10
-91.99999999999977
 20
0.0
 30
0.0
 11
-131.9999999999998
 21
0.0
 31
0.0
  0
LINE
  5
5B5
330
70
100
AcDbEntity
  8
NOTE
  6
Continuous
100
AcDbLine
 10
-111.9999999999997
 20
-20.0
 30
0.0
 11
-111.9999999999997
 21
20.0
 31
0.0
  0
LINE
  5
5B6
330
70
100
AcDbEntity
  8
NOTE
  6
Continuous
100
AcDbLine
 10
-215.9999999999997
 20
-20.0
 30
0.0
 11
-215.9999999999997
 21
20.0
 31
0.0
  0
LINE
  5
5B7
330
70
100
AcDbEntity
  8
NOTE
  6
Continuous
100
AcDbLine
 10
-195.9999999999997
 20
0.0
 30
0.0
 11
-235.9999999999998
 21
0.0
 31
0.0
  0
LINE
  5
5B8
330
70
100
AcDbEntity
  8
NOTE
  6
Continuous
100
AcDbLine
 10
360.7999877929688
 20
-150.0
 30
0.0
 11
108.5
 21
-150.0
 31
0.0
  0
LINE
  5
5B9
330
70
100
AcDbEntity
  8
NOTE
  6
Continuous
100
AcDbLine
 10
108.5
 20
-150.0
 30
0.0
 11
-112.0
 21
0.0
 31
0.0
  0
LINE
  5
5BA
330
70
100
AcDbEntity
  8
NOTE
  6
Continuous
100
AcDbLine
 10
-112.0
 20
0.0
 30
0.0
 11
-110.2307957466115
 21
-0.932693041569467
 31
0.0
  0
LINE
  5
5BB
330
70
100
AcDbEntity
  8
NOTE
  6
Continuous
100
AcDbLine
 10
-112.0
 20
0.0
 30
0.0
 11
-110.934170717525
 21
-1.692338010155999
 31
0.0
  0
TEXT
  5
5BC
330
70
100
AcDbEntity
  8
NOTE
  6
Continuous
100
AcDbText
 10
167.0
 20
-149.0
 30
0.0
 40
40.0
  1
AH 2-M12
 50
0.000002504478167
 41
0.6473684436396551
  7
STANDARD1
100
AcDbText
  0
LINE
  5
5BD
330
70
100
AcDbEntity
  8
NOTE
  6
Continuous
100
AcDbLine
 10
360.7999877929688
 20
-350.0
 30
0.0
 11
108.5
 21
-350.0
 31
0.0
  0
LINE
  5
5BE
330
70
100
AcDbEntity
  8
NOTE
  6
Continuous
100
AcDbLine
 10
108.5
 20
-350.0
 30
0.0
 11
-216.0
 21
0.0
 31
0.0
  0
LINE
  5
5BF
330
70
100
AcDbEntity
  8
NOTE
  6
Continuous
100
AcDbLine
 10
-216.0
 20
0.0
 30
0.0
 11
-214.4189450030852
 21
-1.224853091897502
 31
0.0
  0
LINE
  5
5C0
330
70
100
AcDbEntity
  8
NOTE
  6
Continuous
100
AcDbLine
 10
-216.0
 20
0.0
 30
0.0
 11
-215.2431927808143
 21
-1.851281402971563
 31
0.0
  0
TEXT
  5
5C1
330
70
100
AcDbEntity
  8
NOTE
  6
Continuous
100
AcDbText
 10
167.0
 20
-349.0
 30
0.0
 40
40.0
  1
AH 2-M12
 50
0.000002504478167
 41
0.6473684436396551
  7
STANDARD1
100
AcDbText
  0
TEXT
  5
5C2
330
70
100
AcDbEntity
  8
NOTE
  6
Continuous
100
AcDbText
 10
124.8793411254883
 20
-96.5826416015625
 30
0.0
 40
40.0
  1
■標準施工時
 50
0.000002504478167
 41
0.8125
  7
STANDARD1
100
AcDbText
  0
TEXT
  5
5C3
330
70
100
AcDbEntity
  8
NOTE
  6
Continuous
100
AcDbText
 10
124.8793411254883
 20
-296.5826416015625
 30
0.0
 40
40.0
  1
■標準施工ができない場合
 50
0.000002504478167
 41
0.8125
  7
STANDARD1
100
AcDbText
  0
TEXT
  5
5C4
330
70
100
AcDbEntity
  8
NOTE
  6
Continuous
100
AcDbText
 10
124.8793411254883
 20
-406.5826416015625
 30
0.0
 40
40.0
  1
［2-Ｌ型座金（同梱部品）］
 50
0.000002504478167
 41
0.7884146367631311
  7
STANDARD1
100
AcDbText
  0
TEXT
  5
5C5
330
70
100
AcDbEntity
  8
NOTE
  6
Continuous
100
AcDbText
 10
124.8793411254883
 20
-206.5826416015625
 30
0.0
 40
40.0
  1
［2-Ｌ型座金（同梱部品）］
 50
0.000002504478167
 41
0.7884146367631311
  7
STANDARD1
100
AcDbText
  0
CIRCLE
  5
5C6
330
70
100
AcDbEntity
  8
ARRANGE
  6
Continuous
100
AcDbCircle
 10
0.0
 20
0.0
 30
0.0
 40
15.0
  0
CIRCLE
  5
5C7
330
70
100
AcDbEntity
  8
FIX
  6
Continuous
100
AcDbCircle
 10
150.0
 20
1853.0
 30
0.0
 40
5.0
  0
CIRCLE
  5
5C8
330
70
100
AcDbEntity
  8
FIX
  6
Continuous
100
AcDbCircle
 10
-111.9999999999997
 20
0.0
 30
0.0
 40
6.0
  0
CIRCLE
  5
5C9
330
70
100
AcDbEntity
  8
FIX
  6
Continuous
100
AcDbCircle
 10
-645.9999999999998
 20
0.0
 30
0.0
 40
6.0
  0
CIRCLE
  5
5CA
330
70
100
AcDbEntity
  8
FIX
  6
Continuous
100
AcDbCircle
 10
-215.9999999999997
 20
0.0
 30
0.0
 40
6.0
  0
LINE
  5
5CB
330
70
100
AcDbEntity
  8
SERVICESPACE
  6
DASHDOT
100
AcDbLine
 10
-730.0
 20
0.0
 30
0.0
 11
-730.0
 21
2030.0
 31
0.0
  0
LINE
  5
5CC
330
70
100
AcDbEntity
  8
SERVICESPACE
  6
DASHDOT
100
AcDbLine
 10
-1330.0
 20
0.0
 30
0.0
 11
-730.0
 21
2030.0
 31
0.0
  0
LINE
  5
5CD
330
70
100
AcDbEntity
  8
SERVICESPACE
  6
DASHDOT
100
AcDbLine
 10
-1330.0
 20
2030.0
 30
0.0
 11
-730.0
 21
0.0
 31
0.0
  0
LINE
  5
5CE
330
70
100
AcDbEntity
  8
SERVICESPACE
  6
DASHDOT
100
AcDbLine
 10
0.000000000000171
 20
2030.0
 30
0.0
 11
-730.0
 21
1830.0
 31
0.0
  0
LINE
  5
5CF
330
70
100
AcDbEntity
  8
SERVICESPACE
  6
DASHDOT
100
AcDbLine
 10
-730.0
 20
2030.0
 30
0.0
 11
0.000000000000146
 21
1830.0
 31
0.0
  0
LINE
  5
5D0
330
70
100
AcDbEntity
  8
SERVICESPACE
  6
DASHDOT
100
AcDbLine
 10
-730.0
 20
0.0
 30
0.0
 11
-1330.0
 21
0.0
 31
0.0
  0
LINE
  5
5D1
330
70
100
AcDbEntity
  8
SERVICESPACE
  6
DASHDOT
100
AcDbLine
 10
-1330.0
 20
0.0
 30
0.0
 11
-1330.0
 21
2030.0
 31
0.0
  0
LINE
  5
5D2
330
70
100
AcDbEntity
  8
SERVICESPACE
  6
DASHDOT
100
AcDbLine
 10
-730.0
 20
1830.0
 30
0.0
 11
0.000000000000171
 21
1830.0
 31
0.0
  0
LINE
  5
5D3
330
70
100
AcDbEntity
  8
SERVICESPACE
  6
DASHDOT
100
AcDbLine
 10
0.000000000000171
 20
1830.0
 30
0.0
 11
0.000000000000171
 21
2030.0
 31
0.0
  0
LINE
  5
5D4
330
70
100
AcDbEntity
  8
SERVICESPACE
  6
DASHDOT
100
AcDbLine
 10
-1330.0
 20
2030.0
 30
0.0
 11
0.000000000000171
 21
2030.0
 31
0.0
  0
TEXT
  5
5D5
330
70
100
AcDbEntity
  8
ETC
  6
Continuous
100
AcDbText
 10
538.0849609374998
 20
2232.423095703125
 30
0.0
 40
40.0
  1
TG376E4
 50
0.000002504478167
 41
0.6125000238418579
  7
STANDARD1
100
AcDbText
  0
TEXT
  5
5D6
330
70
100
AcDbEntity
  8
ETC
  6
Continuous
100
AcDbText
 10
538.0849609374998
 20
2162.423095703124
 30
0.0
 40
40.0
  1
電気温水器
 50
0.000002504478167
 41
0.84375
  7
STANDARD1
100
AcDbText
  0
ENDSEC
  0
SECTION
  2
OBJECTS
  0
DICTIONARY
  5
C
330
0
100
AcDbDictionary
281
     1
  3
ACAD_CIP_PREVIOUS_PRODUCT_INFO
350
5D8
  3
ACAD_COLOR
350
62
  3
ACAD_DETAILVIEWSTYLE
350
6A
  3
ACAD_GROUP
350
D
  3
ACAD_LAYOUT
350
61
  3
ACAD_MATERIAL
350
10
  3
ACAD_MLEADERSTYLE
350
65
  3
ACAD_MLINESTYLE
350
5E
  3
ACAD_PLOTSETTINGS
350
60
  3
ACAD_PLOTSTYLENAME
350
E
  3
ACAD_SCALELIST
350
42
  3
ACAD_SECTIONVIEWSTYLE
350
67
  3
ACAD_TABLESTYLE
350
63
  3
ACAD_VISUALSTYLE
350
29
  3
ACDB_RECOMPOSE_DATA
350
60C
  3
AcDbVariableDictionary
350
5FF
  3
AcDsDecomposeData
350
612
  0
DICTIONARY
  5
5F9
330
2
100
AcDbDictionary
280
     1
281
     1
  3
ACAD_LAYERSTATES
360
5FA
  0
DICTIONARY
  5
5E0
330
54
100
AcDbDictionary
280
     1
281
     1
  3
ADSK_XREC_LAYER_RECONCILED
360
5E1
  0
DICTIONARY
  5
5E2
330
78
100
AcDbDictionary
280
     1
281
     1
  3
ADSK_XREC_LAYER_RECONCILED
360
5E3
  0
DICTIONARY
  5
5E4
330
79
100
AcDbDictionary
280
     1
281
     1
  3
ADSK_XREC_LAYER_RECONCILED
360
5E5
  0
DICTIONARY
  5
5E6
330
7A
100
AcDbDictionary
280
     1
281
     1
  3
ADSK_XREC_LAYER_RECONCILED
360
5E7
  0
DICTIONARY
  5
5E8
330
7B
100
AcDbDictionary
280
     1
281
     1
  3
ADSK_XREC_LAYER_RECONCILED
360
5E9
  0
DICTIONARY
  5
5EA
330
7C
100
AcDbDictionary
280
     1
281
     1
  3
ADSK_XREC_LAYER_RECONCILED
360
5EB
  0
DICTIONARY
  5
5EC
330
7D
100
AcDbDictionary
280
     1
281
     1
  3
ADSK_XREC_LAYER_RECONCILED
360
5ED
  0
DICTIONARY
  5
5EE
330
7E
100
AcDbDictionary
280
     1
281
     1
  3
ADSK_XREC_LAYER_RECONCILED
360
5EF
  0
DICTIONARY
  5
5F0
330
7F
100
AcDbDictionary
280
     1
281
     1
  3
ADSK_XREC_LAYER_RECONCILED
360
5F1
  0
DICTIONARY
  5
5F2
330
80
100
AcDbDictionary
280
     1
281
     1
  3
ADSK_XREC_LAYER_RECONCILED
360
5F3
  0
DICTIONARY
  5
5F4
330
81
100
AcDbDictionary
280
     1
281
     1
  3
ADSK_XREC_LAYER_RECONCILED
360
5F5
  0
XRECORD
  5
5D8
102
{ACAD_REACTORS
330
C
102
}
330
C
100
AcDbXrecord
280
     1
300
ACDLT
300
2013
300
ACDLT_F_S
  0
DICTIONARY
  5
62
102
{ACAD_REACTORS
330
C
102
}
330
C
100
AcDbDictionary
281
     1
  0
DICTIONARY
  5
6A
102
{ACAD_REACTORS
330
C
102
}
330
C
100
AcDbDictionary
281
     1
  3
Imperial24
350
6B
  0
DICTIONARY
  5
D
102
{ACAD_REACTORS
330
C
102
}
330
C
100
AcDbDictionary
281
     1
  0
DICTIONARY
  5
61
102
{ACAD_REACTORS
330
C
102
}
330
C
100
AcDbDictionary
281
     1
  3
Model
350
73
  3
レイアウト1
350
6F
  0
DICTIONARY
  5
10
102
{ACAD_REACTORS
330
C
102
}
330
C
100
AcDbDictionary
281
     1
  3
ByBlock
350
19
  3
ByLayer
350
11
  3
Global
350
21
  0
DICTIONARY
  5
65
102
{ACAD_REACTORS
330
C
102
}
330
C
100
AcDbDictionary
281
     1
  3
Standard
350
66
  0
DICTIONARY
  5
5E
102
{ACAD_REACTORS
330
C
102
}
330
C
100
AcDbDictionary
281
     1
  3
Standard
350
5F
  0
DICTIONARY
  5
60
102
{ACAD_REACTORS
330
C
102
}
330
C
100
AcDbDictionary
281
     1
  0
ACDBDICTIONARYWDFLT
  5
E
102
{ACAD_REACTORS
330
C
102
}
330
C
100
AcDbDictionary
281
     1
  3
Normal
350
F
100
AcDbDictionaryWithDefault
340
F
  0
DICTIONARY
  5
42
102
{ACAD_REACTORS
330
C
102
}
330
C
100
AcDbDictionary
281
     1
  3
A0
350
43
  3
A1
350
44
  3
A2
350
45
  3
A3
350
46
  3
A4
350
47
  3
A5
350
48
  3
A6
350
49
  3
A7
350
4A
  3
A8
350
4B
  3
A9
350
4C
  3
B0
350
4D
  3
B1
350
4E
  3
B2
350
4F
  3
B3
350
50
  3
B4
350
51
  3
B5
350
52
  3
B6
350
53
  0
DICTIONARY
  5
67
102
{ACAD_REACTORS
330
C
102
}
330
C
100
AcDbDictionary
281
     1
  3
Imperial24
350
69
  0
DICTIONARY
  5
63
102
{ACAD_REACTORS
330
C
102
}
330
C
100
AcDbDictionary
281
     1
  3
Standard
350
64
  0
DICTIONARY
  5
29
102
{ACAD_REACTORS
330
C
102
}
330
C
100
AcDbDictionary
281
     1
  3
2dWireframe
350
2F
  3
Basic
350
2E
  3
Brighten
350
35
  3
ColorChange
350
39
  3
Conceptual
350
32
  3
Dim
350
34
  3
EdgeColorOff
350
41
  3
Facepattern
350
38
  3
Flat
350
2A
  3
FlatWithEdges
350
2B
  3
Gouraud
350
2C
  3
GouraudWithEdges
350
2D
  3
Hidden
350
31
  3
JitterOff
350
3F
  3
Linepattern
350
37
  3
OverhangOff
350
40
  3
Realistic
350
33
  3
Shaded
350
3E
  3
Shaded with edges
350
3D
  3
Shades of Gray
350
3A
  3
Sketchy
350
3B
  3
Thicken
350
36
  3
Wireframe
350
30
  3
X-Ray
350
3C
  0
XRECORD
  5
60C
102
{ACAD_REACTORS
330
C
102
}
330
C
100
AcDbXrecord
280
     1
 90
        1
330
64
  0
DICTIONARY
  5
5FF
102
{ACAD_REACTORS
330
C
102
}
330
C
100
AcDbDictionary
281
     1
  3
CANNOSCALE
350
605
  3
CMLEADERSTYLE
350
601
  3
CTABLESTYLE
350
600
  3
CVIEWDETAILSTYLE
350
602
  3
CVIEWSECTIONSTYLE
350
603
  3
LAYEREVAL
350
607
  3
LAYERNOTIFY
350
608
  3
LIGHTINGUNITS
350
606
  3
MSLTSCALE
350
604
  3
XCLIPFRAME
350
609
  0
DICTIONARY
  5
612
102
{ACAD_REACTORS
330
C
102
}
330
C
100
AcDbDictionary
281
     1
  3
AcDsRecords
350
614
  3
AcDsSchemas
350
613
1001
ACAD
1070
     2
  0
DICTIONARY
  5
5FA
102
{ACAD_REACTORS
330
5F9
102
}
330
5F9
100
AcDbDictionary
281
     1
  0
XRECORD
  5
5E1
102
{ACAD_REACTORS
330
5E0
102
}
330
5E0
100
AcDbXrecord
280
     1
290
     1
  0
XRECORD
  5
5E3
102
{ACAD_REACTORS
330
5E2
102
}
330
5E2
100
AcDbXrecord
280
     1
290
     1
  0
XRECORD
  5
5E5
102
{ACAD_REACTORS
330
5E4
102
}
330
5E4
100
AcDbXrecord
280
     1
290
     1
  0
XRECORD
  5
5E7
102
{ACAD_REACTORS
330
5E6
102
}
330
5E6
100
AcDbXrecord
280
     1
290
     1
  0
XRECORD
  5
5E9
102
{ACAD_REACTORS
330
5E8
102
}
330
5E8
100
AcDbXrecord
280
     1
290
     1
  0
XRECORD
  5
5EB
102
{ACAD_REACTORS
330
5EA
102
}
330
5EA
100
AcDbXrecord
280
     1
290
     1
  0
XRECORD
  5
5ED
102
{ACAD_REACTORS
330
5EC
102
}
330
5EC
100
AcDbXrecord
280
     1
290
     1
  0
XRECORD
  5
5EF
102
{ACAD_REACTORS
330
5EE
102
}
330
5EE
100
AcDbXrecord
280
     1
290
     1
  0
XRECORD
  5
5F1
102
{ACAD_REACTORS
330
5F0
102
}
330
5F0
100
AcDbXrecord
280
     1
290
     1
  0
XRECORD
  5
5F3
102
{ACAD_REACTORS
330
5F2
102
}
330
5F2
100
AcDbXrecord
280
     1
290
     1
  0
XRECORD
  5
5F5
102
{ACAD_REACTORS
330
5F4
102
}
330
5F4
100
AcDbXrecord
280
     1
290
     1
  0
ACDBDETAILVIEWSTYLE
  5
6B
102
{ACAD_REACTORS
330
6A
102
}
330
6A
100
AcDbModelDocViewStyle
 70
     0
  3
Imperial24
290
     0
100
AcDbDetailViewStyle
 70
     0
 71
     0
 90
        3
 71
     1
340
55
 62
   256
 40
0.24
340
0
 62
   256
 40
0.24
300

 40
0.36
280
     3
 71
     2
340
5C
 90
       25
 62
   256
 71
     3
340
55
 62
   256
 40
0.24
 90
        1
 40
0.75
 90
        1
300
%<\AcVar ViewType \f "%tc1">% %<\AcVar ViewDetailId>%\PSCALE %<\AcVar ViewScale \f "%sn">%
 71
     4
340
5C
 90
       25
 62
   256
340
5C
 90
       25
 62
   256
280
     0
  0
LAYOUT
  5
73
102
{ACAD_REACTORS
330
61
102
}
330
61
100
AcDbPlotSettings
  1

  2
EPSON LP-S3200(2)
  4

  6

 40
0.0
 41
0.0
 42
0.0
 43
0.0
 44
0.0
 45
0.0
 46
0.0
 47
0.0
 48
0.0
 49
0.0
140
0.0
141
0.0
142
1.0
143
1.0
 70
  1712
 72
     0
 73
     0
 74
     0
  7

 75
     0
147
1.0
 76
     0
 77
     2
 78
   300
148
0.0
149
0.0
100
AcDbLayout
  1
Model
 70
     1
 71
     0
 10
0.0
 20
0.0
 11
12.0
 21
9.0
 12
0.0
 22
0.0
 32
0.0
 14
0.0
 24
0.0
 34
0.0
 15
0.0
 25
0.0
 35
0.0
146
0.0
 13
0.0
 23
0.0
 33
0.0
 16
1.0
 26
0.0
 36
0.0
 17
0.0
 27
1.0
 37
0.0
 76
     0
330
70
331
88
  0
LAYOUT
  5
6F
102
{ACAD_REACTORS
330
61
102
}
330
61
100
AcDbPlotSettings
  1

  2
EPSON LP-S3200(2)
  4

  6

 40
0.0
 41
0.0
 42
0.0
 43
0.0
 44
0.0
 45
0.0
 46
0.0
 47
0.0
 48
0.0
 49
0.0
140
0.0
141
0.0
142
1.0
143
1.0
 70
   688
 72
     0
 73
     0
 74
     5
  7

 75
    16
147
1.0
 76
     0
 77
     2
 78
   300
148
0.0
149
0.0
100
AcDbLayout
  1
レイアウト1
 70
     1
 71
     1
 10
0.0
 20
0.0
 11
12.0
 21
9.0
 12
0.0
 22
0.0
 32
0.0
 14
1.000000000000000E+20
 24
1.000000000000000E+20
 34
1.000000000000000E+20
 15
-1.000000000000000E+20
 25
-1.000000000000000E+20
 35
-1.000000000000000E+20
146
0.0
 13
0.0
 23
0.0
 33
0.0
 16
1.0
 26
0.0
 36
0.0
 17
0.0
 27
1.0
 37
0.0
 76
     0
330
6C
  0
MATERIAL
  5
19
102
{ACAD_XDICTIONARY
360
1A
102
}
102
{ACAD_REACTORS
330
10
102
}
330
10
100
AcDbMaterial
  1
ByBlock
 72
     0
 43
0.0208333333333333
 43
0.0
 43
0.0
 43
0.0
 43
0.0
 43
0.0208333333333333
 43
0.0
 43
0.0
 43
0.0
 43
0.0
 43
1.0
 43
0.0
 43
0.0
 43
0.0
 43
0.0
 43
1.0
 77
     0
 47
0.0208333333333333
 47
0.0
 47
0.0
 47
0.0
 47
0.0
 47
0.0208333333333333
 47
0.0
 47
0.0
 47
0.0
 47
0.0
 47
1.0
 47
0.0
 47
0.0
 47
0.0
 47
0.0
 47
1.0
171
     0
 49
0.0208333333333333
 49
0.0
 49
0.0
 49
0.0
 49
0.0
 49
0.0208333333333333
 49
0.0
 49
0.0
 49
0.0
 49
0.0
 49
1.0
 49
0.0
 49
0.0
 49
0.0
 49
0.0
 49
1.0
175
     0
142
0.0208333333333333
142
0.0
142
0.0
142
0.0
142
0.0
142
0.0208333333333333
142
0.0
142
0.0
142
0.0
142
0.0
142
1.0
142
0.0
142
0.0
142
0.0
142
0.0
142
1.0
179
     0
144
0.0208333333333333
144
0.0
144
0.0
144
0.0
144
0.0
144
0.0208333333333333
144
0.0
144
0.0
144
0.0
144
0.0
144
1.0
144
0.0
144
0.0
144
0.0
144
0.0
144
1.0
147
0.0208333333333333
147
0.0
147
0.0
147
0.0
147
0.0
147
0.0208333333333333
147
0.0
147
0.0
147
0.0
147
0.0
147
1.0
147
0.0
147
0.0
147
0.0
147
0.0
147
1.0
  0
MATERIAL
  5
11
102
{ACAD_XDICTIONARY
360
12
102
}
102
{ACAD_REACTORS
330
10
102
}
330
10
100
AcDbMaterial
  1
ByLayer
 72
     0
 43
0.0208333333333333
 43
0.0
 43
0.0
 43
0.0
 43
0.0
 43
0.0208333333333333
 43
0.0
 43
0.0
 43
0.0
 43
0.0
 43
1.0
 43
0.0
 43
0.0
 43
0.0
 43
0.0
 43
1.0
 77
     0
 47
0.0208333333333333
 47
0.0
 47
0.0
 47
0.0
 47
0.0
 47
0.0208333333333333
 47
0.0
 47
0.0
 47
0.0
 47
0.0
 47
1.0
 47
0.0
 47
0.0
 47
0.0
 47
0.0
 47
1.0
171
     0
 49
0.0208333333333333
 49
0.0
 49
0.0
 49
0.0
 49
0.0
 49
0.0208333333333333
 49
0.0
 49
0.0
 49
0.0
 49
0.0
 49
1.0
 49
0.0
 49
0.0
 49
0.0
 49
0.0
 49
1.0
175
     0
142
0.0208333333333333
142
0.0
142
0.0
142
0.0
142
0.0
142
0.0208333333333333
142
0.0
142
0.0
142
0.0
142
0.0
142
1.0
142
0.0
142
0.0
142
0.0
142
0.0
142
1.0
179
     0
144
0.0208333333333333
144
0.0
144
0.0
144
0.0
144
0.0
144
0.0208333333333333
144
0.0
144
0.0
144
0.0
144
0.0
144
1.0
144
0.0
144
0.0
144
0.0
144
0.0
144
1.0
147
0.0208333333333333
147
0.0
147
0.0
147
0.0
147
0.0
147
0.0208333333333333
147
0.0
147
0.0
147
0.0
147
0.0
147
1.0
147
0.0
147
0.0
147
0.0
147
0.0
147
1.0
  0
MATERIAL
  5
21
102
{ACAD_XDICTIONARY
360
22
102
}
102
{ACAD_REACTORS
330
10
102
}
330
10
100
AcDbMaterial
  1
Global
 72
     0
 43
0.0208333333333333
 43
0.0
 43
0.0
 43
0.0
 43
0.0
 43
0.0208333333333333
 43
0.0
 43
0.0
 43
0.0
 43
0.0
 43
1.0
 43
0.0
 43
0.0
 43
0.0
 43
0.0
 43
1.0
 77
     0
 47
0.0208333333333333
 47
0.0
 47
0.0
 47
0.0
 47
0.0
 47
0.0208333333333333
 47
0.0
 47
0.0
 47
0.0
 47
0.0
 47
1.0
 47
0.0
 47
0.0
 47
0.0
 47
0.0
 47
1.0
171
     0
 49
0.0208333333333333
 49
0.0
 49
0.0
 49
0.0
 49
0.0
 49
0.0208333333333333
 49
0.0
 49
0.0
 49
0.0
 49
0.0
 49
1.0
 49
0.0
 49
0.0
 49
0.0
 49
0.0
 49
1.0
175
     0
142
0.0208333333333333
142
0.0
142
0.0
142
0.0
142
0.0
142
0.0208333333333333
142
0.0
142
0.0
142
0.0
142
0.0
142
1.0
142
0.0
142
0.0
142
0.0
142
0.0
142
1.0
179
     0
144
0.0208333333333333
144
0.0
144
0.0
144
0.0
144
0.0
144
0.0208333333333333
144
0.0
144
0.0
144
0.0
144
0.0
144
1.0
144
0.0
144
0.0
144
0.0
144
0.0
144
1.0
147
0.0208333333333333
147
0.0
147
0.0
147
0.0
147
0.0
147
0.0208333333333333
147
0.0
147
0.0
147
0.0
147
0.0
147
1.0
147
0.0
147
0.0
147
0.0
147
0.0
147
1.0
  0
MLEADERSTYLE
  5
66
102
{ACAD_REACTORS
330
65
102
}
330
65
100
AcDbMLeaderStyle
170
     2
171
     1
172
     0
 90
        2
 40
0.0
 41
0.0
173
     1
 91
-1056964608
340
5A
 92
       -2
290
     1
 42
0.09
291
     1
 43
0.36
  3
Standard
 44
0.18
300

342
55
174
     1
178
     6
175
     1
176
     0
 93
-1056964608
 45
0.18
292
     0
297
     0
 46
0.18
 94
-1056964608
 47
1.0
 49
1.0
140
1.0
293
     1
141
0.0
294
     1
177
     0
142
1.0
295
     0
296
     0
143
0.125
1001
ACAD_MLEADERVER
1070
     2
  0
MLINESTYLE
  5
5F
102
{ACAD_REACTORS
330
5E
102
}
330
5E
100
AcDbMlineStyle
  2
STANDARD
 70
     0
  3

 62
   256
 51
90.0
 52
90.0
 71
     2
 49
0.5
 62
   256
  6
BYLAYER
 49
-0.5
 62
   256
  6
BYLAYER
  0
ACDBPLACEHOLDER
  5
F
102
{ACAD_REACTORS
330
E
102
}
330
E
  0
SCALE
  5
43
102
{ACAD_REACTORS
330
42
102
}
330
42
100
AcDbScale
 70
     0
300
1:1
140
1.0
141
1.0
290
     1
  0
SCALE
  5
44
102
{ACAD_REACTORS
330
42
102
}
330
42
100
AcDbScale
 70
     0
300
1/128" = 1'-0"
140
0.0078125
141
12.0
290
     0
  0
SCALE
  5
45
102
{ACAD_REACTORS
330
42
102
}
330
42
100
AcDbScale
 70
     0
300
1/64" = 1'-0"
140
0.015625
141
12.0
290
     0
  0
SCALE
  5
46
102
{ACAD_REACTORS
330
42
102
}
330
42
100
AcDbScale
 70
     0
300
1/32" = 1'-0"
140
0.03125
141
12.0
290
     0
  0
SCALE
  5
47
102
{ACAD_REACTORS
330
42
102
}
330
42
100
AcDbScale
 70
     0
300
1/16" = 1'-0"
140
0.0625
141
12.0
290
     0
  0
SCALE
  5
48
102
{ACAD_REACTORS
330
42
102
}
330
42
100
AcDbScale
 70
     0
300
3/32" = 1'-0"
140
0.09375
141
12.0
290
     0
  0
SCALE
  5
49
102
{ACAD_REACTORS
330
42
102
}
330
42
100
AcDbScale
 70
     0
300
1/8" = 1'-0"
140
0.125
141
12.0
290
     0
  0
SCALE
  5
4A
102
{ACAD_REACTORS
330
42
102
}
330
42
100
AcDbScale
 70
     0
300
3/16" = 1'-0"
140
0.1875
141
12.0
290
     0
  0
SCALE
  5
4B
102
{ACAD_REACTORS
330
42
102
}
330
42
100
AcDbScale
 70
     0
300
1/4" = 1'-0"
140
0.25
141
12.0
290
     0
  0
SCALE
  5
4C
102
{ACAD_REACTORS
330
42
102
}
330
42
100
AcDbScale
 70
     0
300
3/8" = 1'-0"
140
0.375
141
12.0
290
     0
  0
SCALE
  5
4D
102
{ACAD_REACTORS
330
42
102
}
330
42
100
AcDbScale
 70
     0
300
1/2" = 1'-0"
140
0.5
141
12.0
290
     0
  0
SCALE
  5
4E
102
{ACAD_REACTORS
330
42
102
}
330
42
100
AcDbScale
 70
     0
300
3/4" = 1'-0"
140
0.75
141
12.0
290
     0
  0
SCALE
  5
4F
102
{ACAD_REACTORS
330
42
102
}
330
42
100
AcDbScale
 70
     0
300
1" = 1'-0"
140
1.0
141
12.0
290
     0
  0
SCALE
  5
50
102
{ACAD_REACTORS
330
42
102
}
330
42
100
AcDbScale
 70
     0
300
1-1/2" = 1'-0"
140
1.5
141
12.0
290
     0
  0
SCALE
  5
51
102
{ACAD_REACTORS
330
42
102
}
330
42
100
AcDbScale
 70
     0
300
3" = 1'-0"
140
3.0
141
12.0
290
     0
  0
SCALE
  5
52
102
{ACAD_REACTORS
330
42
102
}
330
42
100
AcDbScale
 70
     0
300
6" = 1'-0"
140
6.0
141
12.0
290
     0
  0
SCALE
  5
53
102
{ACAD_REACTORS
330
42
102
}
330
42
100
AcDbScale
 70
     0
300
1'-0" = 1'-0"
140
12.0
141
12.0
290
     0
  0
ACDBSECTIONVIEWSTYLE
  5
69
102
{ACAD_REACTORS
330
67
102
}
330
67
100
AcDbModelDocViewStyle
 70
     0
  3
Imperial24
290
     0
100
AcDbSectionViewStyle
 70
     0
 71
     0
 90
       78
 71
     1
340
55
 62
   256
 40
0.24
340
0
340
0
 62
   256
 40
0.24
300
I, O, Q, S, X, Z
 40
0.48
 90
        3
 40
0.18
 90
        1
 71
     2
340
68
 90
       25
 62
   256
340
5C
 90
       50
 62
   256
 40
0.24
 40
0.0
 40
0.24
 71
     3
340
55
 62
   256
 40
0.24
 90
        1
 40
0.75
 90
        1
300
%<\AcVar ViewType \f "%tc1">% %<\AcVar ViewSectionStartId>%-%<\AcVar ViewSectionEndId>%\PSCALE %<\AcVar ViewScale \f "%sn">%
 71
     4
 62
   256
 62
   257
300
ANSI31
 40
1.0
 90
        0
290
     0
290
     0
 90
        6
 40
0.0
 40
1.570796326794896
 40
0.2617993877991494
 40
1.308996938995747
 40
-0.2617993877991494
 40
1.832595714594046
  0
TABLESTYLE
  5
64
102
{ACAD_XDICTIONARY
360
60A
102
}
102
{ACAD_REACTORS
330
63
102
}
330
63
100
AcDbTableStyle
  3
Standard
 70
     0
 71
     0
 40
0.06
 41
0.06
280
     0
281
     0
  7
STANDARD
140
0.18
170
     2
 62
     0
 63
     7
283
     0
 90
      512
 91
        0
  1

274
    -2
284
     1
 64
     0
275
    -2
285
     1
 65
     0
276
    -2
286
     1
 66
     0
277
    -2
287
     1
 67
     0
278
    -2
288
     1
 68
     0
279
    -2
289
     1
 69
     0
  7
STANDARD
140
0.25
170
     5
 62
     0
 63
     7
283
     0
 90
      512
 91
        0
  1

274
    -2
284
     1
 64
     0
275
    -2
285
     1
 65
     0
276
    -2
286
     1
 66
     0
277
    -2
287
     1
 67
     0
278
    -2
288
     1
 68
     0
279
    -2
289
     1
 69
     0
  7
STANDARD
140
0.18
170
     5
 62
     0
 63
     7
283
     0
 90
      512
 91
        0
  1

274
    -2
284
     1
 64
     0
275
    -2
285
     1
 65
     0
276
    -2
286
     1
 66
     0
277
    -2
287
     1
 67
     0
278
    -2
288
     1
 68
     0
279
    -2
289
     1
 69
     0
  0
VISUALSTYLE
  5
2F
102
{ACAD_XDICTIONARY
360
61F
102
}
102
{ACAD_REACTORS
330
29
102
}
330
29
100
AcDbVisualStyle
  2
2dWireframe
 70
     4
 71
     0
 72
     2
 73
     0
 90
        0
 40
-0.6
 41
-30.0
 62
     5
 63
     7
421
 16777215
 74
     1
 91
        4
 64
     7
 65
   257
 75
     1
175
     1
 42
1.0
 92
        0
 66
   257
 43
1.0
 76
     1
 77
     6
 78
     2
 67
     7
 79
     5
170
     0
171
     0
290
     0
174
     0
 93
        1
 44
0.0
173
     0
291
     0
 45
0.0
1001
ACAD
1000
AcDbSavedByObjectVersion
1070
     0
  0
VISUALSTYLE
  5
2E
102
{ACAD_XDICTIONARY
360
61D
102
}
102
{ACAD_REACTORS
330
29
102
}
330
29
100
AcDbVisualStyle
  2
Basic
 70
     7
 71
     1
 72
     0
 73
     1
 90
        0
 40
-0.6
 41
-30.0
 62
     5
 63
     7
421
 16777215
 74
     0
 91
        4
 64
     7
 65
   257
 75
     1
175
     1
 42
1.0
 92
        8
 66
     7
 43
1.0
 76
     1
 77
     6
 78
     2
 67
     7
 79
     5
170
     0
171
     0
290
     0
174
     0
 93
        1
 44
0.0
173
     0
291
     1
 45
0.0
1001
ACAD
1000
AcDbSavedByObjectVersion
1070
     0
  0
VISUALSTYLE
  5
35
102
{ACAD_XDICTIONARY
360
62B
102
}
102
{ACAD_REACTORS
330
29
102
}
330
29
100
AcDbVisualStyle
  2
Brighten
 70
    12
 71
     2
 72
     2
 73
     0
 90
        0
 40
-0.6
 41
-30.0
 62
     5
 63
     7
421
 16777215
 74
     1
 91
        4
 64
     7
 65
   257
 75
     1
175
     1
 42
1.0
 92
        8
 66
     7
 43
1.0
 76
     1
 77
     6
 78
     2
 67
     7
 79
     5
170
     0
171
     0
290
     0
174
     0
 93
        1
 44
50.0
173
     0
291
     1
 45
0.0
1001
ACAD
1000
AcDbSavedByObjectVersion
1070
     0
  0
VISUALSTYLE
  5
39
102
{ACAD_XDICTIONARY
360
633
102
}
102
{ACAD_REACTORS
330
29
102
}
330
29
100
AcDbVisualStyle
  2
ColorChange
 70
    16
 71
     2
 72
     2
 73
     3
 90
        0
 40
-0.6
 41
-30.0
 62
     5
 63
     8
421
  8421504
 74
     1
 91
        4
 64
     7
 65
   257
 75
     1
175
     1
 42
1.0
 92
        8
 66
     8
424
  8421504
 43
1.0
 76
     1
 77
     6
 78
     2
 67
     7
 79
     5
170
     0
171
     0
290
     0
174
     0
 93
        1
 44
0.0
173
     0
291
     1
 45
0.0
1001
ACAD
1000
AcDbSavedByObjectVersion
1070
     0
  0
VISUALSTYLE
  5
32
102
{ACAD_XDICTIONARY
360
625
102
}
102
{ACAD_REACTORS
330
29
102
}
330
29
100
AcDbVisualStyle
  2
Conceptual
 70
     9
 71
     3
 72
     2
 73
     0
 90
        0
 40
-0.6
 41
-30.0
 62
     5
 63
     7
421
 16777215
 74
     2
 91
        2
 64
     7
 65
   257
 75
     1
175
     1
 42
179.0
 92
        8
 66
     7
 43
1.0
 76
     1
 77
     6
 78
     2
 67
     7
 79
     3
170
     0
171
     0
290
     0
174
     0
 93
        1
 44
0.0
173
     0
291
     0
 45
0.0
1001
ACAD
1000
AcDbSavedByObjectVersion
1070
     0
  0
VISUALSTYLE
  5
34
102
{ACAD_XDICTIONARY
360
629
102
}
102
{ACAD_REACTORS
330
29
102
}
330
29
100
AcDbVisualStyle
  2
Dim
 70
    11
 71
     2
 72
     2
 73
     0
 90
        0
 40
-0.6
 41
-30.0
 62
     5
 63
     7
421
 16777215
 74
     1
 91
        4
 64
     7
 65
   257
 75
     1
175
     1
 42
1.0
 92
        8
 66
     7
 43
1.0
 76
     1
 77
     6
 78
     2
 67
     7
 79
     5
170
     0
171
     0
290
     0
174
     0
 93
        1
 44
-50.0
173
     0
291
     1
 45
0.0
1001
ACAD
1000
AcDbSavedByObjectVersion
1070
     0
  0
VISUALSTYLE
  5
41
102
{ACAD_XDICTIONARY
360
643
102
}
102
{ACAD_REACTORS
330
29
102
}
330
29
100
AcDbVisualStyle
  2
EdgeColorOff
 70
    22
 71
     2
 72
     2
 73
     0
 90
        0
 40
-0.6
 41
-30.0
 62
     5
 63
     7
421
 16777215
 74
     1
 91
        4
 64
     7
 65
   257
 75
     1
175
     1
 42
1.0
 92
        8
 66
     7
 43
1.0
 76
     1
 77
     6
 78
     2
 67
     7
 79
     5
170
     0
171
     0
290
     0
174
     0
 93
        1
 44
0.0
173
     0
291
     1
 45
0.0
1001
ACAD
1000
AcDbSavedByObjectVersion
1070
     0
  0
VISUALSTYLE
  5
38
102
{ACAD_XDICTIONARY
360
631
102
}
102
{ACAD_REACTORS
330
29
102
}
330
29
100
AcDbVisualStyle
  2
Facepattern
 70
    15
 71
     2
 72
     2
 73
     0
 90
        0
 40
-0.6
 41
-30.0
 62
     5
 63
     7
421
 16777215
 74
     1
 91
        4
 64
     7
 65
   257
 75
     1
175
     1
 42
1.0
 92
        8
 66
     7
 43
1.0
 76
     1
 77
     6
 78
     2
 67
     7
 79
     5
170
     0
171
     0
290
     0
174
     0
 93
        1
 44
0.0
173
     0
291
     1
 45
0.0
1001
ACAD
1000
AcDbSavedByObjectVersion
1070
     0
  0
VISUALSTYLE
  5
2A
102
{ACAD_XDICTIONARY
360
615
102
}
102
{ACAD_REACTORS
330
29
102
}
330
29
100
AcDbVisualStyle
  2
Flat
 70
     0
 71
     2
 72
     1
 73
     1
 90
        2
 40
-0.6
 41
30.0
 62
     5
 63
     7
421
 16777215
 74
     0
 91
        0
 64
     7
 65
   257
 75
     1
175
     1
 42
1.0
 92
        8
 66
     7
 43
1.0
 76
     1
 77
     6
 78
     2
 67
     7
 79
     5
170
     0
171
     0
290
     0
174
     0
 93
       13
 44
0.0
173
     0
291
     1
 45
0.0
1001
ACAD
1000
AcDbSavedByObjectVersion
1070
     0
  0
VISUALSTYLE
  5
2B
102
{ACAD_XDICTIONARY
360
617
102
}
102
{ACAD_REACTORS
330
29
102
}
330
29
100
AcDbVisualStyle
  2
FlatWithEdges
 70
     1
 71
     2
 72
     1
 73
     1
 90
        2
 40
-0.6
 41
30.0
 62
     5
 63
     7
421
 16777215
 74
     1
 91
        0
 64
     7
 65
   257
 75
     1
175
     1
 42
1.0
 92
        0
 66
   257
 43
1.0
 76
     1
 77
     6
 78
     2
 67
     7
 79
     5
170
     0
171
     0
290
     0
174
     0
 93
       13
 44
0.0
173
     0
291
     1
 45
0.0
1001
ACAD
1000
AcDbSavedByObjectVersion
1070
     0
  0
VISUALSTYLE
  5
2C
102
{ACAD_XDICTIONARY
360
619
102
}
102
{ACAD_REACTORS
330
29
102
}
330
29
100
AcDbVisualStyle
  2
Gouraud
 70
     2
 71
     2
 72
     2
 73
     1
 90
        2
 40
-0.6
 41
30.0
 62
     5
 63
     7
421
 16777215
 74
     0
 91
        0
 64
     7
 65
   257
 75
     1
175
     1
 42
1.0
 92
        0
 66
     7
 43
1.0
 76
     1
 77
     6
 78
     2
 67
     7
 79
     5
170
     0
171
     0
290
     0
174
     0
 93
       13
 44
0.0
173
     0
291
     1
 45
0.0
1001
ACAD
1000
AcDbSavedByObjectVersion
1070
     0
  0
VISUALSTYLE
  5
2D
102
{ACAD_XDICTIONARY
360
61B
102
}
102
{ACAD_REACTORS
330
29
102
}
330
29
100
AcDbVisualStyle
  2
GouraudWithEdges
 70
     3
 71
     2
 72
     2
 73
     1
 90
        2
 40
-0.6
 41
30.0
 62
     5
 63
     7
421
 16777215
 74
     1
 91
        0
 64
     7
 65
   257
 75
     1
175
     1
 42
1.0
 92
        0
 66
   257
 43
1.0
 76
     1
 77
     6
 78
     2
 67
     7
 79
     5
170
     0
171
     0
290
     0
174
     0
 93
       13
 44
0.0
173
     0
291
     1
 45
0.0
1001
ACAD
1000
AcDbSavedByObjectVersion
1070
     0
  0
VISUALSTYLE
  5
31
102
{ACAD_XDICTIONARY
360
623
102
}
102
{ACAD_REACTORS
330
29
102
}
330
29
100
AcDbVisualStyle
  2
Hidden
 70
     6
 71
     1
 72
     2
 73
     2
 90
        0
 40
-0.6
 41
-30.0
 62
     5
 63
     7
421
 16777215
 74
     2
 91
        2
 64
     7
 65
   257
 75
     2
175
     1
 42
40.0
 92
        0
 66
   257
 43
1.0
 76
     1
 77
     6
 78
     2
 67
     7
 79
     3
170
     0
171
     0
290
     0
174
     0
 93
        1
 44
0.0
173
     0
291
     0
 45
0.0
1001
ACAD
1000
AcDbSavedByObjectVersion
1070
     0
  0
VISUALSTYLE
  5
3F
102
{ACAD_XDICTIONARY
360
63F
102
}
102
{ACAD_REACTORS
330
29
102
}
330
29
100
AcDbVisualStyle
  2
JitterOff
 70
    20
 71
     2
 72
     2
 73
     0
 90
        0
 40
-0.6
 41
-30.0
 62
     5
 63
     7
421
 16777215
 74
     1
 91
        4
 64
     7
 65
   257
 75
     1
175
     1
 42
1.0
 92
       10
 66
     7
 43
1.0
 76
     1
 77
     6
 78
     2
 67
     7
 79
     5
170
     0
171
     0
290
     0
174
     0
 93
        1
 44
0.0
173
     0
291
     1
 45
0.0
1001
ACAD
1000
AcDbSavedByObjectVersion
1070
     0
  0
VISUALSTYLE
  5
37
102
{ACAD_XDICTIONARY
360
62F
102
}
102
{ACAD_REACTORS
330
29
102
}
330
29
100
AcDbVisualStyle
  2
Linepattern
 70
    14
 71
     2
 72
     2
 73
     0
 90
        0
 40
-0.6
 41
-30.0
 62
     5
 63
     7
421
 16777215
 74
     1
 91
        4
 64
     7
 65
   257
 75
     7
175
     7
 42
1.0
 92
        8
 66
     7
 43
1.0
 76
     1
 77
     6
 78
     2
 67
     7
 79
     5
170
     0
171
     0
290
     0
174
     0
 93
        1
 44
0.0
173
     0
291
     1
 45
0.0
1001
ACAD
1000
AcDbSavedByObjectVersion
1070
     0
  0
VISUALSTYLE
  5
40
102
{ACAD_XDICTIONARY
360
641
102
}
102
{ACAD_REACTORS
330
29
102
}
330
29
100
AcDbVisualStyle
  2
OverhangOff
 70
    21
 71
     2
 72
     2
 73
     0
 90
        0
 40
-0.6
 41
-30.0
 62
     5
 63
     7
421
 16777215
 74
     1
 91
        4
 64
     7
 65
   257
 75
     1
175
     1
 42
1.0
 92
        9
 66
     7
 43
1.0
 76
     1
 77
     6
 78
     2
 67
     7
 79
     5
170
     0
171
     0
290
     0
174
     0
 93
        1
 44
0.0
173
     0
291
     1
 45
0.0
1001
ACAD
1000
AcDbSavedByObjectVersion
1070
     0
  0
VISUALSTYLE
  5
33
102
{ACAD_XDICTIONARY
360
627
102
}
102
{ACAD_REACTORS
330
29
102
}
330
29
100
AcDbVisualStyle
  2
Realistic
 70
     8
 71
     2
 72
     3
 73
     0
 90
        2
 40
-0.6
 41
30.0
 62
     5
 63
     7
421
 16777215
 74
     0
 91
        0
 64
     7
 65
   257
 75
     1
175
     1
 42
1.0
 92
        8
 66
   257
 43
1.0
 76
     1
 77
     6
 78
     2
 67
     7
 79
     3
170
     0
171
     0
290
     0
174
     0
 93
       13
 44
0.0
173
     0
291
     0
 45
0.0
1001
ACAD
1000
AcDbSavedByObjectVersion
1070
     0
  0
VISUALSTYLE
  5
3E
102
{ACAD_XDICTIONARY
360
63D
102
}
102
{ACAD_REACTORS
330
29
102
}
330
29
100
AcDbVisualStyle
  2
Shaded
 70
    27
 71
     2
 72
     2
 73
     1
 90
        2
 40
-0.6
 41
30.0
 62
     5
 63
     7
421
 16777215
 74
     0
 91
        4
 64
     7
 65
   257
 75
     1
175
     1
 42
1.0
 92
        8
 66
   257
 43
1.0
 76
     1
 77
     6
 78
     2
 67
     8
425
  7895160
 79
     3
170
     0
171
     0
290
     0
174
     0
 93
        5
 44
0.0
173
     0
291
     0
 45
0.0
1001
ACAD
1000
AcDbSavedByObjectVersion
1070
     0
  0
VISUALSTYLE
  5
3D
102
{ACAD_XDICTIONARY
360
63B
102
}
102
{ACAD_REACTORS
330
29
102
}
330
29
100
AcDbVisualStyle
  2
Shaded with edges
 70
    26
 71
     2
 72
     2
 73
     1
 90
        2
 40
-0.6
 41
30.0
 62
     5
 63
     7
421
 16777215
 74
     1
 91
       10
 64
     7
 65
   257
 75
     2
175
     1
 42
1.0
 92
        8
 66
   257
 43
1.0
 76
     1
 77
     6
 78
     2
 67
     7
 79
     3
170
     0
171
     0
290
     0
174
     0
 93
        5
 44
0.0
173
     0
291
     0
 45
0.0
1001
ACAD
1000
AcDbSavedByObjectVersion
1070
     0
  0
VISUALSTYLE
  5
3A
102
{ACAD_XDICTIONARY
360
635
102
}
102
{ACAD_REACTORS
330
29
102
}
330
29
100
AcDbVisualStyle
  2
Shades of Gray
 70
    23
 71
     2
 72
     2
 73
     3
 90
        0
 40
-0.6
 41
-30.0
 62
     5
 63
     7
421
 16777215
 74
     2
 91
        2
 64
     7
 65
     7
 75
     1
175
     1
 42
40.0
 92
        8
 66
     7
 43
1.0
 76
     1
 77
     6
 78
     2
 67
     7
 79
     3
170
     0
171
     0
290
     0
174
     0
 93
        1
 44
0.0
173
     0
291
     0
 45
0.0
1001
ACAD
1000
AcDbSavedByObjectVersion
1070
     0
  0
VISUALSTYLE
  5
3B
102
{ACAD_XDICTIONARY
360
637
102
}
102
{ACAD_REACTORS
330
29
102
}
330
29
100
AcDbVisualStyle
  2
Sketchy
 70
    24
 71
     1
 72
     2
 73
     2
 90
        0
 40
-0.6
 41
-30.0
 62
     5
 63
     7
421
 16777215
 74
     2
 91
        2
 64
     7
 65
     7
 75
     1
175
     1
 42
40.0
 92
       11
 66
     7
 43
1.0
 76
     1
 77
     6
 78
     2
 67
     7
 79
     6
170
     0
171
     0
290
     0
174
     0
 93
        1
 44
0.0
173
     0
291
     0
 45
0.0
1001
ACAD
1000
AcDbSavedByObjectVersion
1070
     0
  0
VISUALSTYLE
  5
36
102
{ACAD_XDICTIONARY
360
62D
102
}
102
{ACAD_REACTORS
330
29
102
}
330
29
100
AcDbVisualStyle
  2
Thicken
 70
    13
 71
     2
 72
     2
 73
     0
 90
        0
 40
-0.6
 41
-30.0
 62
     5
 63
     7
421
 16777215
 74
     1
 91
        4
 64
     7
 65
   257
 75
     1
175
     1
 42
1.0
 92
       12
 66
     7
 43
1.0
 76
     1
 77
     6
 78
     2
 67
     7
 79
     5
170
     0
171
     0
290
     0
174
     0
 93
        1
 44
0.0
173
     0
291
     1
 45
0.0
1001
ACAD
1000
AcDbSavedByObjectVersion
1070
     0
  0
VISUALSTYLE
  5
30
102
{ACAD_XDICTIONARY
360
621
102
}
102
{ACAD_REACTORS
330
29
102
}
330
29
100
AcDbVisualStyle
  2
Wireframe
 70
     5
 71
     0
 72
     2
 73
     0
 90
        0
 40
-0.6
 41
-30.0
 62
     5
 63
     7
421
 16777215
 74
     1
 91
        4
 64
     7
 65
   257
 75
     1
175
     1
 42
1.0
 92
        0
 66
   257
 43
1.0
 76
     1
 77
     6
 78
     2
 67
     7
 79
     3
170
     0
171
     0
290
     0
174
     0
 93
        1
 44
0.0
173
     0
291
     0
 45
0.0
1001
ACAD
1000
AcDbSavedByObjectVersion
1070
     0
  0
VISUALSTYLE
  5
3C
102
{ACAD_XDICTIONARY
360
639
102
}
102
{ACAD_REACTORS
330
29
102
}
330
29
100
AcDbVisualStyle
  2
X-Ray
 70
    25
 71
     2
 72
     2
 73
     1
 90
        1
 40
0.5
 41
-30.0
 62
     5
 63
     7
421
 16777215
 74
     1
 91
        0
 64
     7
 65
   257
 75
     1
175
     1
 42
1.0
 92
        8
 66
     7
 43
1.0
 76
     1
 77
     6
 78
     2
 67
     7
 79
     3
170
     0
171
     0
290
     0
174
     0
 93
       13
 44
0.0
173
     0
291
     0
 45
0.0
1001
ACAD
1000
AcDbSavedByObjectVersion
1070
     0
  0
DICTIONARYVAR
  5
605
102
{ACAD_REACTORS
330
5FF
102
}
330
5FF
100
DictionaryVariables
280
     0
  1
1:1
  0
DICTIONARYVAR
  5
601
102
{ACAD_REACTORS
330
5FF
102
}
330
5FF
100
DictionaryVariables
280
     0
  1
STANDARD
  0
DICTIONARYVAR
  5
600
102
{ACAD_REACTORS
330
5FF
102
}
330
5FF
100
DictionaryVariables
280
     0
  1
STANDARD
  0
DICTIONARYVAR
  5
602
102
{ACAD_REACTORS
330
5FF
102
}
330
5FF
100
DictionaryVariables
280
     0
  1
Imperial24
  0
DICTIONARYVAR
  5
603
102
{ACAD_REACTORS
330
5FF
102
}
330
5FF
100
DictionaryVariables
280
     0
  1
Imperial24
  0
DICTIONARYVAR
  5
607
102
{ACAD_REACTORS
330
5FF
102
}
330
5FF
100
DictionaryVariables
280
     0
  1
1
  0
DICTIONARYVAR
  5
608
102
{ACAD_REACTORS
330
5FF
102
}
330
5FF
100
DictionaryVariables
280
     0
  1
15
  0
DICTIONARYVAR
  5
606
102
{ACAD_REACTORS
330
5FF
102
}
330
5FF
100
DictionaryVariables
280
     0
  1
0
  0
DICTIONARYVAR
  5
604
102
{ACAD_REACTORS
330
5FF
102
}
330
5FF
100
DictionaryVariables
280
     0
  1
0
  0
DICTIONARYVAR
  5
609
102
{ACAD_REACTORS
330
5FF
102
}
330
5FF
100
DictionaryVariables
280
     0
  1
2
  0
DICTIONARY
  5
614
102
{ACAD_REACTORS
330
612
102
}
330
612
100
AcDbDictionary
281
     1
  0
DICTIONARY
  5
613
102
{ACAD_REACTORS
330
612
102
}
330
612
100
AcDbDictionary
281
     1
  3
2130489192
350
60D
  3
2130489200
350
60E
  3
2130489208
350
60F
  3
2130489216
350
610
  3
2130489224
350
611
  0
DICTIONARY
  5
1A
330
19
100
AcDbDictionary
280
     1
281
     1
  3
BUMPTILE
360
1C
  3
DIFFUSETILE
360
1B
  3
OPACITYTILE
360
1F
  3
REFLECTIONTILE
360
1E
  3
REFRACTIONTILE
360
20
  3
SPECULARTILE
360
1D
  0
DICTIONARY
  5
12
330
11
100
AcDbDictionary
280
     1
281
     1
  3
BUMPTILE
360
14
  3
DIFFUSETILE
360
13
  3
OPACITYTILE
360
17
  3
REFLECTIONTILE
360
16
  3
REFRACTIONTILE
360
18
  3
SPECULARTILE
360
15
  0
DICTIONARY
  5
22
330
21
100
AcDbDictionary
280
     1
281
     1
  3
BUMPTILE
360
24
  3
DIFFUSETILE
360
23
  3
OPACITYTILE
360
27
  3
REFLECTIONTILE
360
26
  3
REFRACTIONTILE
360
28
  3
SPECULARTILE
360
25
  0
DICTIONARY
  5
60A
330
64
100
AcDbDictionary
280
     1
281
     1
  3
ACAD_ROUNDTRIP_2008_TABLESTYLE_CELLSTYLEMAP
360
60B
  0
DICTIONARY
  5
61F
330
2F
100
AcDbDictionary
280
     1
281
     1
  3
ACAD_XREC_ROUNDTRIP
360
620
  0
DICTIONARY
  5
61D
330
2E
100
AcDbDictionary
280
     1
281
     1
  3
ACAD_XREC_ROUNDTRIP
360
61E
  0
DICTIONARY
  5
62B
330
35
100
AcDbDictionary
280
     1
281
     1
  3
ACAD_XREC_ROUNDTRIP
360
62C
  0
DICTIONARY
  5
633
330
39
100
AcDbDictionary
280
     1
281
     1
  3
ACAD_XREC_ROUNDTRIP
360
634
  0
DICTIONARY
  5
625
330
32
100
AcDbDictionary
280
     1
281
     1
  3
ACAD_XREC_ROUNDTRIP
360
626
  0
DICTIONARY
  5
629
330
34
100
AcDbDictionary
280
     1
281
     1
  3
ACAD_XREC_ROUNDTRIP
360
62A
  0
DICTIONARY
  5
643
330
41
100
AcDbDictionary
280
     1
281
     1
  3
ACAD_XREC_ROUNDTRIP
360
644
  0
DICTIONARY
  5
631
330
38
100
AcDbDictionary
280
     1
281
     1
  3
ACAD_XREC_ROUNDTRIP
360
632
  0
DICTIONARY
  5
615
330
2A
100
AcDbDictionary
280
     1
281
     1
  3
ACAD_XREC_ROUNDTRIP
360
616
  0
DICTIONARY
  5
617
330
2B
100
AcDbDictionary
280
     1
281
     1
  3
ACAD_XREC_ROUNDTRIP
360
618
  0
DICTIONARY
  5
619
330
2C
100
AcDbDictionary
280
     1
281
     1
  3
ACAD_XREC_ROUNDTRIP
360
61A
  0
DICTIONARY
  5
61B
330
2D
100
AcDbDictionary
280
     1
281
     1
  3
ACAD_XREC_ROUNDTRIP
360
61C
  0
DICTIONARY
  5
623
330
31
100
AcDbDictionary
280
     1
281
     1
  3
ACAD_XREC_ROUNDTRIP
360
624
  0
DICTIONARY
  5
63F
330
3F
100
AcDbDictionary
280
     1
281
     1
  3
ACAD_XREC_ROUNDTRIP
360
640
  0
DICTIONARY
  5
62F
330
37
100
AcDbDictionary
280
     1
281
     1
  3
ACAD_XREC_ROUNDTRIP
360
630
  0
DICTIONARY
  5
641
330
40
100
AcDbDictionary
280
     1
281
     1
  3
ACAD_XREC_ROUNDTRIP
360
642
  0
DICTIONARY
  5
627
330
33
100
AcDbDictionary
280
     1
281
     1
  3
ACAD_XREC_ROUNDTRIP
360
628
  0
DICTIONARY
  5
63D
330
3E
100
AcDbDictionary
280
     1
281
     1
  3
ACAD_XREC_ROUNDTRIP
360
63E
  0
DICTIONARY
  5
63B
330
3D
100
AcDbDictionary
280
     1
281
     1
  3
ACAD_XREC_ROUNDTRIP
360
63C
  0
DICTIONARY
  5
635
330
3A
100
AcDbDictionary
280
     1
281
     1
  3
ACAD_XREC_ROUNDTRIP
360
636
  0
DICTIONARY
  5
637
330
3B
100
AcDbDictionary
280
     1
281
     1
  3
ACAD_XREC_ROUNDTRIP
360
638
  0
DICTIONARY
  5
62D
330
36
100
AcDbDictionary
280
     1
281
     1
  3
ACAD_XREC_ROUNDTRIP
360
62E
  0
DICTIONARY
  5
621
330
30
100
AcDbDictionary
280
     1
281
     1
  3
ACAD_XREC_ROUNDTRIP
360
622
  0
DICTIONARY
  5
639
330
3C
100
AcDbDictionary
280
     1
281
     1
  3
ACAD_XREC_ROUNDTRIP
360
63A
  0
XRECORD
  5
60D
102
{ACAD_REACTORS
330
613
102
}
330
613
100
AcDbXrecord
280
     1
  1
AcDb_Thumbnail_Schema
102
{ATTRRECORD
341
60E
  2
AcDbDs::TreatedAsObjectData
280
     1
291
     1
102
ATTRRECORD}
102
{ATTRRECORD
341
60F
  2
AcDbDs::Legacy
280
     1
291
     1
102
ATTRRECORD}
  2
AcDbDs::ID
280
    10
 91
        8
102
{ATTRRECORD
341
610
  2
AcDs:Indexable
280
     1
291
     1
102
ATTRRECORD}
102
{ATTRRECORD
341
611
  2
AcDbDs::HandleAttribute
280
     7
282
     1
102
ATTRRECORD}
  2
Thumbnail_Data
280
    15
 91
        0
  0
XRECORD
  5
60E
102
{ACAD_REACTORS
330
613
102
}
330
613
100
AcDbXrecord
280
     1
  1
AcDbDs::TreatedAsObjectDataSchema
  2
AcDbDs::TreatedAsObjectData
280
     1
 91
        0
  0
XRECORD
  5
60F
102
{ACAD_REACTORS
330
613
102
}
330
613
100
AcDbXrecord
280
     1
  1
AcDbDs::LegacySchema
  2
AcDbDs::Legacy
280
     1
 91
        0
  0
XRECORD
  5
610
102
{ACAD_REACTORS
330
613
102
}
330
613
100
AcDbXrecord
280
     1
  1
AcDbDs::IndexedPropertySchema
  2
AcDs:Indexable
280
     1
 91
        0
  0
XRECORD
  5
611
102
{ACAD_REACTORS
330
613
102
}
330
613
100
AcDbXrecord
280
     1
  1
AcDbDs::HandleAttributeSchema
  2
AcDbDs::HandleAttribute
280
     7
 91
        1
284
     1
  0
XRECORD
  5
1C
102
{ACAD_REACTORS
330
1A
102
}
330
1A
100
AcDbXrecord
280
     1
270
     1
271
     1
  0
XRECORD
  5
1B
102
{ACAD_REACTORS
330
1A
102
}
330
1A
100
AcDbXrecord
280
     1
270
     1
271
     1
  0
XRECORD
  5
1F
102
{ACAD_REACTORS
330
1A
102
}
330
1A
100
AcDbXrecord
280
     1
270
     1
271
     1
  0
XRECORD
  5
1E
102
{ACAD_REACTORS
330
1A
102
}
330
1A
100
AcDbXrecord
280
     1
270
     1
271
     1
  0
XRECORD
  5
20
102
{ACAD_REACTORS
330
1A
102
}
330
1A
100
AcDbXrecord
280
     1
270
     1
271
     1
  0
XRECORD
  5
1D
102
{ACAD_REACTORS
330
1A
102
}
330
1A
100
AcDbXrecord
280
     1
270
     1
271
     1
  0
XRECORD
  5
14
102
{ACAD_REACTORS
330
12
102
}
330
12
100
AcDbXrecord
280
     1
270
     1
271
     1
  0
XRECORD
  5
13
102
{ACAD_REACTORS
330
12
102
}
330
12
100
AcDbXrecord
280
     1
270
     1
271
     1
  0
XRECORD
  5
17
102
{ACAD_REACTORS
330
12
102
}
330
12
100
AcDbXrecord
280
     1
270
     1
271
     1
  0
XRECORD
  5
16
102
{ACAD_REACTORS
330
12
102
}
330
12
100
AcDbXrecord
280
     1
270
     1
271
     1
  0
XRECORD
  5
18
102
{ACAD_REACTORS
330
12
102
}
330
12
100
AcDbXrecord
280
     1
270
     1
271
     1
  0
XRECORD
  5
15
102
{ACAD_REACTORS
330
12
102
}
330
12
100
AcDbXrecord
280
     1
270
     1
271
     1
  0
XRECORD
  5
24
102
{ACAD_REACTORS
330
22
102
}
330
22
100
AcDbXrecord
280
     1
270
     1
271
     1
  0
XRECORD
  5
23
102
{ACAD_REACTORS
330
22
102
}
330
22
100
AcDbXrecord
280
     1
270
     1
271
     1
  0
XRECORD
  5
27
102
{ACAD_REACTORS
330
22
102
}
330
22
100
AcDbXrecord
280
     1
270
     1
271
     1
  0
XRECORD
  5
26
102
{ACAD_REACTORS
330
22
102
}
330
22
100
AcDbXrecord
280
     1
270
     1
271
     1
  0
XRECORD
  5
28
102
{ACAD_REACTORS
330
22
102
}
330
22
100
AcDbXrecord
280
     1
270
     1
271
     1
  0
XRECORD
  5
25
102
{ACAD_REACTORS
330
22
102
}
330
22
100
AcDbXrecord
280
     1
270
     1
271
     1
  0
CELLSTYLEMAP
  5
60B
102
{ACAD_REACTORS
330
60A
102
}
330
60A
100
AcDbCellStyleMap
 90
        3
300
CELLSTYLE
  1
TABLEFORMAT_BEGIN
 90
        5
170
     1
 91
        0
 92
    32768
 62
   257
 93
        1
300
CONTENTFORMAT
  1
CONTENTFORMAT_BEGIN
 90
        0
 91
        0
 92
      512
 93
        0
300

 40
0.0
140
1.0
 94
        5
 62
     0
340
55
144
0.25
309
CONTENTFORMAT_END
171
     0
 94
        0
309
TABLEFORMAT_END
  1
CELLSTYLE_BEGIN
 90
        1
 91
        1
300
_TITLE
309
CELLSTYLE_END
300
CELLSTYLE
  1
TABLEFORMAT_BEGIN
 90
        5
170
     1
 91
        0
 92
        0
 62
   257
 93
        1
300
CONTENTFORMAT
  1
CONTENTFORMAT_BEGIN
 90
        0
 91
        0
 92
      512
 93
        0
300

 40
0.0
140
1.0
 94
        5
 62
     0
340
55
144
0.18
309
CONTENTFORMAT_END
171
     0
 94
        0
309
TABLEFORMAT_END
  1
CELLSTYLE_BEGIN
 90
        2
 91
        1
300
_HEADER
309
CELLSTYLE_END
300
CELLSTYLE
  1
TABLEFORMAT_BEGIN
 90
        5
170
     1
 91
        0
 92
        0
 62
   257
 93
        1
300
CONTENTFORMAT
  1
CONTENTFORMAT_BEGIN
 90
        0
 91
        0
 92
      512
 93
        0
300

 40
0.0
140
1.0
 94
        2
 62
     0
340
55
144
0.18
309
CONTENTFORMAT_END
171
     0
 94
        0
309
TABLEFORMAT_END
  1
CELLSTYLE_BEGIN
 90
        3
 91
        2
300
_DATA
309
CELLSTYLE_END
  0
XRECORD
  5
620
102
{ACAD_REACTORS
330
61F
102
}
330
61F
100
AcDbXrecord
280
     1
102
RTVSPost2010Prop28
280
     1
102
RTVSPost2010PropOp28
 70
     1
102
RTVSPost2010Prop29
280
     1
102
RTVSPost2010PropOp29
 70
     1
102
RTVSPost2010Prop30
280
     0
102
RTVSPost2010PropOp30
 70
     1
102
RTVSPost2010Prop31
280
     0
102
RTVSPost2010PropOp31
 70
     1
102
RTVSPost2010Prop32
280
     0
102
RTVSPost2010PropOp32
 70
     1
102
RTVSPost2010Prop33
280
     0
102
RTVSPost2010PropOp33
 70
     1
102
RTVSPost2010Prop34
280
     0
102
RTVSPost2010PropOp34
 70
     1
102
RTVSPost2010Prop35
280
     0
102
RTVSPost2010PropOp35
 70
     1
102
RTVSPost2010Prop36
280
     0
102
RTVSPost2010PropOp36
 70
     1
102
RTVSPost2010Prop37
 90
       50
102
RTVSPost2010PropOp37
 70
     1
102
RTVSPost2010Prop38
140
0.0
102
RTVSPost2010PropOp38
 70
     1
102
RTVSPost2010Prop39
140
1.0
102
RTVSPost2010PropOp39
 70
     1
102
RTVSPost2010Prop40
 90
        0
102
RTVSPost2010PropOp40
 70
     1
102
RTVSPost2010Prop41ColorIndex
 90
       18
102
RTVSPost2010Prop41ColorRGB
 90
        0
102
RTVSPost2010PropOp41
 70
     1
102
RTVSPost2010Prop42
 90
       50
102
RTVSPost2010PropOp42
 70
     1
102
RTVSPost2010Prop43
 90
        3
102
RTVSPost2010PropOp43
 70
     1
102
RTVSPost2010Prop44ColorIndex
 90
        5
102
RTVSPost2010Prop44ColorRGB
 90
      255
102
RTVSPost2010PropOp44
 70
     1
102
RTVSPost2010Prop45
280
     0
102
RTVSPost2010PropOp45
 70
     1
102
RTVSPost2010Prop46
 90
       50
102
RTVSPost2010PropOp46
 70
     1
102
RTVSPost2010Prop47
 90
       50
102
RTVSPost2010PropOp47
 70
     1
102
RTVSPost2010Prop48
 90
       50
102
RTVSPost2010PropOp48
 70
     1
102
RTVSPost2010Prop49
280
     0
102
RTVSPost2010PropOp49
 70
     1
102
RTVSPost2010Prop50
 90
       50
102
RTVSPost2010PropOp50
 70
     1
102
RTVSPost2010Prop51ColorIndex
 90
      256
102
RTVSPost2010Prop51ColorRGB
 90
-16777216
102
RTVSPost2010PropOp51
 70
     0
102
RTVSPost2010Prop52
140
1.0
102
RTVSPost2010PropOp52
 70
     0
102
RTVSPost2010Prop53
 90
        2
102
RTVSPost2010PropOp53
 70
     1
102
RTVSPost2010Prop54
  1
strokes_ogs.tif
102
RTVSPost2010PropOp54
 70
     1
102
RTVSPost2010Prop55
280
     0
102
RTVSPost2010PropOp55
 70
     1
102
RTVSPost2010Prop56
140
1.0
102
RTVSPost2010PropOp56
 70
     1
102
RTVSPost2010Prop57
140
1.0
102
RTVSPost2010PropOp57
 70
     1
102
RTVSPropertyOp0
 70
     1
102
RTVSPropertyOp1
 70
     1
102
RTVSPropertyOp2
 70
     1
102
RTVSPropertyOp3
 70
     1
102
RTVSPropertyOp4
 70
     1
102
RTVSPropertyOp5
 70
     1
102
RTVSPropertyOp6
 70
     1
102
RTVSPropertyOp7
 70
     1
102
RTVSPropertyOp8
 70
     1
102
RTVSPropertyOp9
 70
     1
102
RTVSPropertyOp10
 70
     1
102
RTVSPropertyOp11
 70
     1
102
RTVSPropertyOp12
 70
     1
102
RTVSPropertyOp13
 70
     1
102
RTVSPropertyOp14
 70
     1
102
RTVSPropertyOp15
 70
     1
102
RTVSPropertyOp16
 70
     1
102
RTVSPropertyOp17
 70
     1
102
RTVSPropertyOp18
 70
     1
102
RTVSPropertyOp19
 70
     1
102
RTVSPropertyOp20
 70
     1
102
RTVSPropertyOp21
 70
     1
102
RTVSPropertyOp22
 70
     1
102
RTVSPropertyOp23
 70
     1
102
RTVSPropertyOp24
 70
     1
102
RTVSPropertyOp25
 70
     1
102
RTVSPropertyOp26
 70
     1
102
RTVSPropertyOp27
 70
     1
102
RTVSPropertyOp28
 70
     1
102
RTVSPropertyOp29
 70
     1
102
RTVSPropertyOp30
 70
     1
102
RTVSPropertyOp31
 70
     1
102
RTVSPropertyOp32
 70
     1
102
RTVSPropertyOp33
 70
     1
102
RTVSPropertyOp34
 70
     1
102
RTVSPropertyOp35
 70
     1
102
RTVSPropertyOp36
 70
     1
102
RTVSPropertyOp37
 70
     1
102
RTVSPropertyOp38
 70
     1
102
RTVSPropertyOp39
 70
     1
102
RTVSPropertyOp40
 70
     1
102
RTVSPropertyOp41
 70
     1
102
RTVSPropertyOp42
 70
     1
102
RTVSPropertyOp43
 70
     1
102
RTVSPropertyOp44
 70
     1
102
RTVSPropertyOp45
 70
     1
102
RTVSPropertyOp46
 70
     1
102
RTVSPropertyOp47
 70
     1
102
RTVSPropertyOp48
 70
     1
102
RTVSPropertyOp49
 70
     1
102
RTVSPropertyOp50
 70
     1
102
RTVSPropertyOp51
 70
     0
102
RTVSPropertyOp52
 70
     0
102
RTVSPropertyOp53
 70
     1
102
RTVSPropertyOp54
 70
     1
102
RTVSPropertyOp55
 70
     1
102
RTVSPropertyOp56
 70
     1
102
RTVSPropertyOp57
 70
     1
102
RTVSPropertyOp58
 70
     1
102
RTVSPropertyOp59
 70
     1
102
RTVSPropertyOp60
 70
     1
102
RTVSPropertyOp61
 70
     1
102
RTVSPropertyOp62
 70
     1
  0
XRECORD
  5
61E
102
{ACAD_REACTORS
330
61D
102
}
330
61D
100
AcDbXrecord
280
     1
102
RTVSPost2010Prop28
280
     0
102
RTVSPost2010PropOp28
 70
     1
102
RTVSPost2010Prop29
280
     1
102
RTVSPost2010PropOp29
 70
     1
102
RTVSPost2010Prop30
280
     1
102
RTVSPost2010PropOp30
 70
     1
102
RTVSPost2010Prop31
280
     0
102
RTVSPost2010PropOp31
 70
     1
102
RTVSPost2010Prop32
280
     0
102
RTVSPost2010PropOp32
 70
     1
102
RTVSPost2010Prop33
280
     0
102
RTVSPost2010PropOp33
 70
     1
102
RTVSPost2010Prop34
280
     0
102
RTVSPost2010PropOp34
 70
     1
102
RTVSPost2010Prop35
280
     0
102
RTVSPost2010PropOp35
 70
     1
102
RTVSPost2010Prop36
280
     0
102
RTVSPost2010PropOp36
 70
     1
102
RTVSPost2010Prop37
 90
       50
102
RTVSPost2010PropOp37
 70
     1
102
RTVSPost2010Prop38
140
0.0
102
RTVSPost2010PropOp38
 70
     1
102
RTVSPost2010Prop39
140
1.0
102
RTVSPost2010PropOp39
 70
     1
102
RTVSPost2010Prop40
 90
        0
102
RTVSPost2010PropOp40
 70
     1
102
RTVSPost2010Prop41ColorIndex
 90
       18
102
RTVSPost2010Prop41ColorRGB
 90
        0
102
RTVSPost2010PropOp41
 70
     1
102
RTVSPost2010Prop42
 90
       50
102
RTVSPost2010PropOp42
 70
     1
102
RTVSPost2010Prop43
 90
        3
102
RTVSPost2010PropOp43
 70
     1
102
RTVSPost2010Prop44ColorIndex
 90
        5
102
RTVSPost2010Prop44ColorRGB
 90
      255
102
RTVSPost2010PropOp44
 70
     1
102
RTVSPost2010Prop45
280
     0
102
RTVSPost2010PropOp45
 70
     1
102
RTVSPost2010Prop46
 90
       50
102
RTVSPost2010PropOp46
 70
     1
102
RTVSPost2010Prop47
 90
       50
102
RTVSPost2010PropOp47
 70
     1
102
RTVSPost2010Prop48
 90
       50
102
RTVSPost2010PropOp48
 70
     1
102
RTVSPost2010Prop49
280
     0
102
RTVSPost2010PropOp49
 70
     1
102
RTVSPost2010Prop50
 90
       50
102
RTVSPost2010PropOp50
 70
     1
102
RTVSPost2010Prop51ColorIndex
 90
      256
102
RTVSPost2010Prop51ColorRGB
 90
-16777216
102
RTVSPost2010PropOp51
 70
     0
102
RTVSPost2010Prop52
140
1.0
102
RTVSPost2010PropOp52
 70
     0
102
RTVSPost2010Prop53
 90
        2
102
RTVSPost2010PropOp53
 70
     1
102
RTVSPost2010Prop54
  1
strokes_ogs.tif
102
RTVSPost2010PropOp54
 70
     1
102
RTVSPost2010Prop55
280
     0
102
RTVSPost2010PropOp55
 70
     1
102
RTVSPost2010Prop56
140
1.0
102
RTVSPost2010PropOp56
 70
     1
102
RTVSPost2010Prop57
140
1.0
102
RTVSPost2010PropOp57
 70
     1
102
RTVSPropertyOp0
 70
     1
102
RTVSPropertyOp1
 70
     1
102
RTVSPropertyOp2
 70
     1
102
RTVSPropertyOp3
 70
     1
102
RTVSPropertyOp4
 70
     1
102
RTVSPropertyOp5
 70
     1
102
RTVSPropertyOp6
 70
     1
102
RTVSPropertyOp7
 70
     1
102
RTVSPropertyOp8
 70
     1
102
RTVSPropertyOp9
 70
     1
102
RTVSPropertyOp10
 70
     1
102
RTVSPropertyOp11
 70
     1
102
RTVSPropertyOp12
 70
     1
102
RTVSPropertyOp13
 70
     1
102
RTVSPropertyOp14
 70
     1
102
RTVSPropertyOp15
 70
     1
102
RTVSPropertyOp16
 70
     1
102
RTVSPropertyOp17
 70
     1
102
RTVSPropertyOp18
 70
     1
102
RTVSPropertyOp19
 70
     1
102
RTVSPropertyOp20
 70
     1
102
RTVSPropertyOp21
 70
     1
102
RTVSPropertyOp22
 70
     1
102
RTVSPropertyOp23
 70
     1
102
RTVSPropertyOp24
 70
     1
102
RTVSPropertyOp25
 70
     1
102
RTVSPropertyOp26
 70
     1
102
RTVSPropertyOp27
 70
     1
102
RTVSPropertyOp28
 70
     1
102
RTVSPropertyOp29
 70
     1
102
RTVSPropertyOp30
 70
     1
102
RTVSPropertyOp31
 70
     1
102
RTVSPropertyOp32
 70
     1
102
RTVSPropertyOp33
 70
     1
102
RTVSPropertyOp34
 70
     1
102
RTVSPropertyOp35
 70
     1
102
RTVSPropertyOp36
 70
     1
102
RTVSPropertyOp37
 70
     1
102
RTVSPropertyOp38
 70
     1
102
RTVSPropertyOp39
 70
     1
102
RTVSPropertyOp40
 70
     1
102
RTVSPropertyOp41
 70
     1
102
RTVSPropertyOp42
 70
     1
102
RTVSPropertyOp43
 70
     1
102
RTVSPropertyOp44
 70
     1
102
RTVSPropertyOp45
 70
     1
102
RTVSPropertyOp46
 70
     1
102
RTVSPropertyOp47
 70
     1
102
RTVSPropertyOp48
 70
     1
102
RTVSPropertyOp49
 70
     1
102
RTVSPropertyOp50
 70
     1
102
RTVSPropertyOp51
 70
     0
102
RTVSPropertyOp52
 70
     0
102
RTVSPropertyOp53
 70
     1
102
RTVSPropertyOp54
 70
     1
102
RTVSPropertyOp55
 70
     1
102
RTVSPropertyOp56
 70
     1
102
RTVSPropertyOp57
 70
     1
102
RTVSPropertyOp58
 70
     1
102
RTVSPropertyOp59
 70
     1
102
RTVSPropertyOp60
 70
     1
102
RTVSPropertyOp61
 70
     1
102
RTVSPropertyOp62
 70
     1
  0
XRECORD
  5
62C
102
{ACAD_REACTORS
330
62B
102
}
330
62B
100
AcDbXrecord
280
     1
102
RTVSPost2010Prop28
280
     0
102
RTVSPost2010PropOp28
 70
     1
102
RTVSPost2010Prop29
280
     1
102
RTVSPost2010PropOp29
 70
     1
102
RTVSPost2010Prop30
280
     1
102
RTVSPost2010PropOp30
 70
     1
102
RTVSPost2010Prop31
280
     0
102
RTVSPost2010PropOp31
 70
     1
102
RTVSPost2010Prop32
280
     0
102
RTVSPost2010PropOp32
 70
     1
102
RTVSPost2010Prop33
280
     0
102
RTVSPost2010PropOp33
 70
     1
102
RTVSPost2010Prop34
280
     0
102
RTVSPost2010PropOp34
 70
     1
102
RTVSPost2010Prop35
280
     0
102
RTVSPost2010PropOp35
 70
     1
102
RTVSPost2010Prop36
280
     0
102
RTVSPost2010PropOp36
 70
     1
102
RTVSPost2010Prop37
 90
       50
102
RTVSPost2010PropOp37
 70
     1
102
RTVSPost2010Prop38
140
0.0
102
RTVSPost2010PropOp38
 70
     1
102
RTVSPost2010Prop39
140
1.0
102
RTVSPost2010PropOp39
 70
     1
102
RTVSPost2010Prop40
 90
        0
102
RTVSPost2010PropOp40
 70
     1
102
RTVSPost2010Prop41ColorIndex
 90
       18
102
RTVSPost2010Prop41ColorRGB
 90
        0
102
RTVSPost2010PropOp41
 70
     1
102
RTVSPost2010Prop42
 90
       50
102
RTVSPost2010PropOp42
 70
     1
102
RTVSPost2010Prop43
 90
        3
102
RTVSPost2010PropOp43
 70
     1
102
RTVSPost2010Prop44ColorIndex
 90
        5
102
RTVSPost2010Prop44ColorRGB
 90
      255
102
RTVSPost2010PropOp44
 70
     1
102
RTVSPost2010Prop45
280
     0
102
RTVSPost2010PropOp45
 70
     1
102
RTVSPost2010Prop46
 90
       50
102
RTVSPost2010PropOp46
 70
     1
102
RTVSPost2010Prop47
 90
       50
102
RTVSPost2010PropOp47
 70
     1
102
RTVSPost2010Prop48
 90
       50
102
RTVSPost2010PropOp48
 70
     1
102
RTVSPost2010Prop49
280
     0
102
RTVSPost2010PropOp49
 70
     1
102
RTVSPost2010Prop50
 90
       50
102
RTVSPost2010PropOp50
 70
     1
102
RTVSPost2010Prop51ColorIndex
 90
      256
102
RTVSPost2010Prop51ColorRGB
 90
-16777216
102
RTVSPost2010PropOp51
 70
     0
102
RTVSPost2010Prop52
140
1.0
102
RTVSPost2010PropOp52
 70
     0
102
RTVSPost2010Prop53
 90
        2
102
RTVSPost2010PropOp53
 70
     1
102
RTVSPost2010Prop54
  1
strokes_ogs.tif
102
RTVSPost2010PropOp54
 70
     1
102
RTVSPost2010Prop55
280
     0
102
RTVSPost2010PropOp55
 70
     1
102
RTVSPost2010Prop56
140
1.0
102
RTVSPost2010PropOp56
 70
     1
102
RTVSPost2010Prop57
140
1.0
102
RTVSPost2010PropOp57
 70
     1
102
RTVSPropertyOp0
 70
     1
102
RTVSPropertyOp1
 70
     1
102
RTVSPropertyOp2
 70
     1
102
RTVSPropertyOp3
 70
     1
102
RTVSPropertyOp4
 70
     1
102
RTVSPropertyOp5
 70
     1
102
RTVSPropertyOp6
 70
     1
102
RTVSPropertyOp7
 70
     1
102
RTVSPropertyOp8
 70
     1
102
RTVSPropertyOp9
 70
     1
102
RTVSPropertyOp10
 70
     1
102
RTVSPropertyOp11
 70
     1
102
RTVSPropertyOp12
 70
     1
102
RTVSPropertyOp13
 70
     1
102
RTVSPropertyOp14
 70
     1
102
RTVSPropertyOp15
 70
     1
102
RTVSPropertyOp16
 70
     1
102
RTVSPropertyOp17
 70
     1
102
RTVSPropertyOp18
 70
     1
102
RTVSPropertyOp19
 70
     1
102
RTVSPropertyOp20
 70
     1
102
RTVSPropertyOp21
 70
     1
102
RTVSPropertyOp22
 70
     1
102
RTVSPropertyOp23
 70
     1
102
RTVSPropertyOp24
 70
     1
102
RTVSPropertyOp25
 70
     1
102
RTVSPropertyOp26
 70
     1
102
RTVSPropertyOp27
 70
     1
102
RTVSPropertyOp28
 70
     1
102
RTVSPropertyOp29
 70
     1
102
RTVSPropertyOp30
 70
     1
102
RTVSPropertyOp31
 70
     1
102
RTVSPropertyOp32
 70
     1
102
RTVSPropertyOp33
 70
     1
102
RTVSPropertyOp34
 70
     1
102
RTVSPropertyOp35
 70
     1
102
RTVSPropertyOp36
 70
     1
102
RTVSPropertyOp37
 70
     1
102
RTVSPropertyOp38
 70
     1
102
RTVSPropertyOp39
 70
     1
102
RTVSPropertyOp40
 70
     1
102
RTVSPropertyOp41
 70
     1
102
RTVSPropertyOp42
 70
     1
102
RTVSPropertyOp43
 70
     1
102
RTVSPropertyOp44
 70
     1
102
RTVSPropertyOp45
 70
     1
102
RTVSPropertyOp46
 70
     1
102
RTVSPropertyOp47
 70
     1
102
RTVSPropertyOp48
 70
     1
102
RTVSPropertyOp49
 70
     1
102
RTVSPropertyOp50
 70
     1
102
RTVSPropertyOp51
 70
     0
102
RTVSPropertyOp52
 70
     0
102
RTVSPropertyOp53
 70
     1
102
RTVSPropertyOp54
 70
     1
102
RTVSPropertyOp55
 70
     1
102
RTVSPropertyOp56
 70
     1
102
RTVSPropertyOp57
 70
     1
102
RTVSPropertyOp58
 70
     1
102
RTVSPropertyOp59
 70
     1
102
RTVSPropertyOp60
 70
     1
102
RTVSPropertyOp61
 70
     1
102
RTVSPropertyOp62
 70
     1
  0
XRECORD
  5
634
102
{ACAD_REACTORS
330
633
102
}
330
633
100
AcDbXrecord
280
     1
102
RTVSPost2010Prop28
280
     0
102
RTVSPost2010PropOp28
 70
     1
102
RTVSPost2010Prop29
280
     1
102
RTVSPost2010PropOp29
 70
     1
102
RTVSPost2010Prop30
280
     1
102
RTVSPost2010PropOp30
 70
     1
102
RTVSPost2010Prop31
280
     0
102
RTVSPost2010PropOp31
 70
     1
102
RTVSPost2010Prop32
280
     0
102
RTVSPost2010PropOp32
 70
     1
102
RTVSPost2010Prop33
280
     0
102
RTVSPost2010PropOp33
 70
     1
102
RTVSPost2010Prop34
280
     0
102
RTVSPost2010PropOp34
 70
     1
102
RTVSPost2010Prop35
280
     0
102
RTVSPost2010PropOp35
 70
     1
102
RTVSPost2010Prop36
280
     0
102
RTVSPost2010PropOp36
 70
     1
102
RTVSPost2010Prop37
 90
       50
102
RTVSPost2010PropOp37
 70
     1
102
RTVSPost2010Prop38
140
0.0
102
RTVSPost2010PropOp38
 70
     1
102
RTVSPost2010Prop39
140
1.0
102
RTVSPost2010PropOp39
 70
     1
102
RTVSPost2010Prop40
 90
        0
102
RTVSPost2010PropOp40
 70
     1
102
RTVSPost2010Prop41ColorIndex
 90
       18
102
RTVSPost2010Prop41ColorRGB
 90
        0
102
RTVSPost2010PropOp41
 70
     1
102
RTVSPost2010Prop42
 90
       50
102
RTVSPost2010PropOp42
 70
     1
102
RTVSPost2010Prop43
 90
        3
102
RTVSPost2010PropOp43
 70
     1
102
RTVSPost2010Prop44ColorIndex
 90
        5
102
RTVSPost2010Prop44ColorRGB
 90
      255
102
RTVSPost2010PropOp44
 70
     1
102
RTVSPost2010Prop45
280
     0
102
RTVSPost2010PropOp45
 70
     1
102
RTVSPost2010Prop46
 90
       50
102
RTVSPost2010PropOp46
 70
     1
102
RTVSPost2010Prop47
 90
       50
102
RTVSPost2010PropOp47
 70
     1
102
RTVSPost2010Prop48
 90
       50
102
RTVSPost2010PropOp48
 70
     1
102
RTVSPost2010Prop49
280
     0
102
RTVSPost2010PropOp49
 70
     1
102
RTVSPost2010Prop50
 90
       50
102
RTVSPost2010PropOp50
 70
     1
102
RTVSPost2010Prop51ColorIndex
 90
      256
102
RTVSPost2010Prop51ColorRGB
 90
-16777216
102
RTVSPost2010PropOp51
 70
     0
102
RTVSPost2010Prop52
140
1.0
102
RTVSPost2010PropOp52
 70
     0
102
RTVSPost2010Prop53
 90
        2
102
RTVSPost2010PropOp53
 70
     1
102
RTVSPost2010Prop54
  1
strokes_ogs.tif
102
RTVSPost2010PropOp54
 70
     1
102
RTVSPost2010Prop55
280
     0
102
RTVSPost2010PropOp55
 70
     1
102
RTVSPost2010Prop56
140
1.0
102
RTVSPost2010PropOp56
 70
     1
102
RTVSPost2010Prop57
140
1.0
102
RTVSPost2010PropOp57
 70
     1
102
RTVSPropertyOp0
 70
     1
102
RTVSPropertyOp1
 70
     1
102
RTVSPropertyOp2
 70
     1
102
RTVSPropertyOp3
 70
     1
102
RTVSPropertyOp4
 70
     1
102
RTVSPropertyOp5
 70
     1
102
RTVSPropertyOp6
 70
     1
102
RTVSPropertyOp7
 70
     1
102
RTVSPropertyOp8
 70
     1
102
RTVSPropertyOp9
 70
     1
102
RTVSPropertyOp10
 70
     1
102
RTVSPropertyOp11
 70
     1
102
RTVSPropertyOp12
 70
     1
102
RTVSPropertyOp13
 70
     1
102
RTVSPropertyOp14
 70
     1
102
RTVSPropertyOp15
 70
     1
102
RTVSPropertyOp16
 70
     1
102
RTVSPropertyOp17
 70
     1
102
RTVSPropertyOp18
 70
     1
102
RTVSPropertyOp19
 70
     1
102
RTVSPropertyOp20
 70
     1
102
RTVSPropertyOp21
 70
     1
102
RTVSPropertyOp22
 70
     1
102
RTVSPropertyOp23
 70
     1
102
RTVSPropertyOp24
 70
     1
102
RTVSPropertyOp25
 70
     1
102
RTVSPropertyOp26
 70
     1
102
RTVSPropertyOp27
 70
     1
102
RTVSPropertyOp28
 70
     1
102
RTVSPropertyOp29
 70
     1
102
RTVSPropertyOp30
 70
     1
102
RTVSPropertyOp31
 70
     1
102
RTVSPropertyOp32
 70
     1
102
RTVSPropertyOp33
 70
     1
102
RTVSPropertyOp34
 70
     1
102
RTVSPropertyOp35
 70
     1
102
RTVSPropertyOp36
 70
     1
102
RTVSPropertyOp37
 70
     1
102
RTVSPropertyOp38
 70
     1
102
RTVSPropertyOp39
 70
     1
102
RTVSPropertyOp40
 70
     1
102
RTVSPropertyOp41
 70
     1
102
RTVSPropertyOp42
 70
     1
102
RTVSPropertyOp43
 70
     1
102
RTVSPropertyOp44
 70
     1
102
RTVSPropertyOp45
 70
     1
102
RTVSPropertyOp46
 70
     1
102
RTVSPropertyOp47
 70
     1
102
RTVSPropertyOp48
 70
     1
102
RTVSPropertyOp49
 70
     1
102
RTVSPropertyOp50
 70
     1
102
RTVSPropertyOp51
 70
     0
102
RTVSPropertyOp52
 70
     0
102
RTVSPropertyOp53
 70
     1
102
RTVSPropertyOp54
 70
     1
102
RTVSPropertyOp55
 70
     1
102
RTVSPropertyOp56
 70
     1
102
RTVSPropertyOp57
 70
     1
102
RTVSPropertyOp58
 70
     1
102
RTVSPropertyOp59
 70
     1
102
RTVSPropertyOp60
 70
     1
102
RTVSPropertyOp61
 70
     1
102
RTVSPropertyOp62
 70
     1
  0
XRECORD
  5
626
102
{ACAD_REACTORS
330
625
102
}
330
625
100
AcDbXrecord
280
     1
102
RTVSPost2010Prop28
280
     0
102
RTVSPost2010PropOp28
 70
     1
102
RTVSPost2010Prop29
280
     1
102
RTVSPost2010PropOp29
 70
     1
102
RTVSPost2010Prop30
280
     1
102
RTVSPost2010PropOp30
 70
     1
102
RTVSPost2010Prop31
280
     0
102
RTVSPost2010PropOp31
 70
     1
102
RTVSPost2010Prop32
280
     0
102
RTVSPost2010PropOp32
 70
     1
102
RTVSPost2010Prop33
280
     0
102
RTVSPost2010PropOp33
 70
     1
102
RTVSPost2010Prop34
280
     0
102
RTVSPost2010PropOp34
 70
     1
102
RTVSPost2010Prop35
280
     0
102
RTVSPost2010PropOp35
 70
     1
102
RTVSPost2010Prop36
280
     0
102
RTVSPost2010PropOp36
 70
     1
102
RTVSPost2010Prop37
 90
       50
102
RTVSPost2010PropOp37
 70
     1
102
RTVSPost2010Prop38
140
0.0
102
RTVSPost2010PropOp38
 70
     1
102
RTVSPost2010Prop39
140
1.0
102
RTVSPost2010PropOp39
 70
     1
102
RTVSPost2010Prop40
 90
        0
102
RTVSPost2010PropOp40
 70
     1
102
RTVSPost2010Prop41ColorIndex
 90
       18
102
RTVSPost2010Prop41ColorRGB
 90
        0
102
RTVSPost2010PropOp41
 70
     1
102
RTVSPost2010Prop42
 90
       50
102
RTVSPost2010PropOp42
 70
     1
102
RTVSPost2010Prop43
 90
        3
102
RTVSPost2010PropOp43
 70
     1
102
RTVSPost2010Prop44ColorIndex
 90
        5
102
RTVSPost2010Prop44ColorRGB
 90
      255
102
RTVSPost2010PropOp44
 70
     1
102
RTVSPost2010Prop45
280
     0
102
RTVSPost2010PropOp45
 70
     1
102
RTVSPost2010Prop46
 90
       50
102
RTVSPost2010PropOp46
 70
     1
102
RTVSPost2010Prop47
 90
       50
102
RTVSPost2010PropOp47
 70
     1
102
RTVSPost2010Prop48
 90
       50
102
RTVSPost2010PropOp48
 70
     1
102
RTVSPost2010Prop49
280
     0
102
RTVSPost2010PropOp49
 70
     1
102
RTVSPost2010Prop50
 90
       50
102
RTVSPost2010PropOp50
 70
     1
102
RTVSPost2010Prop51ColorIndex
 90
      256
102
RTVSPost2010Prop51ColorRGB
 90
-16777216
102
RTVSPost2010PropOp51
 70
     0
102
RTVSPost2010Prop52
140
1.0
102
RTVSPost2010PropOp52
 70
     0
102
RTVSPost2010Prop53
 90
        2
102
RTVSPost2010PropOp53
 70
     1
102
RTVSPost2010Prop54
  1
strokes_ogs.tif
102
RTVSPost2010PropOp54
 70
     1
102
RTVSPost2010Prop55
280
     0
102
RTVSPost2010PropOp55
 70
     1
102
RTVSPost2010Prop56
140
1.0
102
RTVSPost2010PropOp56
 70
     1
102
RTVSPost2010Prop57
140
1.0
102
RTVSPost2010PropOp57
 70
     1
102
RTVSPropertyOp0
 70
     1
102
RTVSPropertyOp1
 70
     1
102
RTVSPropertyOp2
 70
     1
102
RTVSPropertyOp3
 70
     1
102
RTVSPropertyOp4
 70
     1
102
RTVSPropertyOp5
 70
     1
102
RTVSPropertyOp6
 70
     1
102
RTVSPropertyOp7
 70
     1
102
RTVSPropertyOp8
 70
     1
102
RTVSPropertyOp9
 70
     1
102
RTVSPropertyOp10
 70
     1
102
RTVSPropertyOp11
 70
     1
102
RTVSPropertyOp12
 70
     1
102
RTVSPropertyOp13
 70
     1
102
RTVSPropertyOp14
 70
     1
102
RTVSPropertyOp15
 70
     1
102
RTVSPropertyOp16
 70
     1
102
RTVSPropertyOp17
 70
     1
102
RTVSPropertyOp18
 70
     1
102
RTVSPropertyOp19
 70
     1
102
RTVSPropertyOp20
 70
     1
102
RTVSPropertyOp21
 70
     1
102
RTVSPropertyOp22
 70
     1
102
RTVSPropertyOp23
 70
     1
102
RTVSPropertyOp24
 70
     1
102
RTVSPropertyOp25
 70
     1
102
RTVSPropertyOp26
 70
     1
102
RTVSPropertyOp27
 70
     1
102
RTVSPropertyOp28
 70
     1
102
RTVSPropertyOp29
 70
     1
102
RTVSPropertyOp30
 70
     1
102
RTVSPropertyOp31
 70
     1
102
RTVSPropertyOp32
 70
     1
102
RTVSPropertyOp33
 70
     1
102
RTVSPropertyOp34
 70
     1
102
RTVSPropertyOp35
 70
     1
102
RTVSPropertyOp36
 70
     1
102
RTVSPropertyOp37
 70
     1
102
RTVSPropertyOp38
 70
     1
102
RTVSPropertyOp39
 70
     1
102
RTVSPropertyOp40
 70
     1
102
RTVSPropertyOp41
 70
     1
102
RTVSPropertyOp42
 70
     1
102
RTVSPropertyOp43
 70
     1
102
RTVSPropertyOp44
 70
     1
102
RTVSPropertyOp45
 70
     1
102
RTVSPropertyOp46
 70
     1
102
RTVSPropertyOp47
 70
     1
102
RTVSPropertyOp48
 70
     1
102
RTVSPropertyOp49
 70
     1
102
RTVSPropertyOp50
 70
     1
102
RTVSPropertyOp51
 70
     0
102
RTVSPropertyOp52
 70
     0
102
RTVSPropertyOp53
 70
     1
102
RTVSPropertyOp54
 70
     1
102
RTVSPropertyOp55
 70
     1
102
RTVSPropertyOp56
 70
     1
102
RTVSPropertyOp57
 70
     1
102
RTVSPropertyOp58
 70
     1
102
RTVSPropertyOp59
 70
     1
102
RTVSPropertyOp60
 70
     1
102
RTVSPropertyOp61
 70
     1
102
RTVSPropertyOp62
 70
     1
  0
XRECORD
  5
62A
102
{ACAD_REACTORS
330
629
102
}
330
629
100
AcDbXrecord
280
     1
102
RTVSPost2010Prop28
280
     0
102
RTVSPost2010PropOp28
 70
     1
102
RTVSPost2010Prop29
280
     1
102
RTVSPost2010PropOp29
 70
     1
102
RTVSPost2010Prop30
280
     1
102
RTVSPost2010PropOp30
 70
     1
102
RTVSPost2010Prop31
280
     0
102
RTVSPost2010PropOp31
 70
     1
102
RTVSPost2010Prop32
280
     0
102
RTVSPost2010PropOp32
 70
     1
102
RTVSPost2010Prop33
280
     0
102
RTVSPost2010PropOp33
 70
     1
102
RTVSPost2010Prop34
280
     0
102
RTVSPost2010PropOp34
 70
     1
102
RTVSPost2010Prop35
280
     0
102
RTVSPost2010PropOp35
 70
     1
102
RTVSPost2010Prop36
280
     0
102
RTVSPost2010PropOp36
 70
     1
102
RTVSPost2010Prop37
 90
       50
102
RTVSPost2010PropOp37
 70
     1
102
RTVSPost2010Prop38
140
0.0
102
RTVSPost2010PropOp38
 70
     1
102
RTVSPost2010Prop39
140
1.0
102
RTVSPost2010PropOp39
 70
     1
102
RTVSPost2010Prop40
 90
        0
102
RTVSPost2010PropOp40
 70
     1
102
RTVSPost2010Prop41ColorIndex
 90
       18
102
RTVSPost2010Prop41ColorRGB
 90
        0
102
RTVSPost2010PropOp41
 70
     1
102
RTVSPost2010Prop42
 90
       50
102
RTVSPost2010PropOp42
 70
     1
102
RTVSPost2010Prop43
 90
        3
102
RTVSPost2010PropOp43
 70
     1
102
RTVSPost2010Prop44ColorIndex
 90
        5
102
RTVSPost2010Prop44ColorRGB
 90
      255
102
RTVSPost2010PropOp44
 70
     1
102
RTVSPost2010Prop45
280
     0
102
RTVSPost2010PropOp45
 70
     1
102
RTVSPost2010Prop46
 90
       50
102
RTVSPost2010PropOp46
 70
     1
102
RTVSPost2010Prop47
 90
       50
102
RTVSPost2010PropOp47
 70
     1
102
RTVSPost2010Prop48
 90
       50
102
RTVSPost2010PropOp48
 70
     1
102
RTVSPost2010Prop49
280
     0
102
RTVSPost2010PropOp49
 70
     1
102
RTVSPost2010Prop50
 90
       50
102
RTVSPost2010PropOp50
 70
     1
102
RTVSPost2010Prop51ColorIndex
 90
      256
102
RTVSPost2010Prop51ColorRGB
 90
-16777216
102
RTVSPost2010PropOp51
 70
     0
102
RTVSPost2010Prop52
140
1.0
102
RTVSPost2010PropOp52
 70
     0
102
RTVSPost2010Prop53
 90
        2
102
RTVSPost2010PropOp53
 70
     1
102
RTVSPost2010Prop54
  1
strokes_ogs.tif
102
RTVSPost2010PropOp54
 70
     1
102
RTVSPost2010Prop55
280
     0
102
RTVSPost2010PropOp55
 70
     1
102
RTVSPost2010Prop56
140
1.0
102
RTVSPost2010PropOp56
 70
     1
102
RTVSPost2010Prop57
140
1.0
102
RTVSPost2010PropOp57
 70
     1
102
RTVSPropertyOp0
 70
     1
102
RTVSPropertyOp1
 70
     1
102
RTVSPropertyOp2
 70
     1
102
RTVSPropertyOp3
 70
     1
102
RTVSPropertyOp4
 70
     1
102
RTVSPropertyOp5
 70
     1
102
RTVSPropertyOp6
 70
     1
102
RTVSPropertyOp7
 70
     1
102
RTVSPropertyOp8
 70
     1
102
RTVSPropertyOp9
 70
     1
102
RTVSPropertyOp10
 70
     1
102
RTVSPropertyOp11
 70
     1
102
RTVSPropertyOp12
 70
     1
102
RTVSPropertyOp13
 70
     1
102
RTVSPropertyOp14
 70
     1
102
RTVSPropertyOp15
 70
     1
102
RTVSPropertyOp16
 70
     1
102
RTVSPropertyOp17
 70
     1
102
RTVSPropertyOp18
 70
     1
102
RTVSPropertyOp19
 70
     1
102
RTVSPropertyOp20
 70
     1
102
RTVSPropertyOp21
 70
     1
102
RTVSPropertyOp22
 70
     1
102
RTVSPropertyOp23
 70
     1
102
RTVSPropertyOp24
 70
     1
102
RTVSPropertyOp25
 70
     1
102
RTVSPropertyOp26
 70
     1
102
RTVSPropertyOp27
 70
     1
102
RTVSPropertyOp28
 70
     1
102
RTVSPropertyOp29
 70
     1
102
RTVSPropertyOp30
 70
     1
102
RTVSPropertyOp31
 70
     1
102
RTVSPropertyOp32
 70
     1
102
RTVSPropertyOp33
 70
     1
102
RTVSPropertyOp34
 70
     1
102
RTVSPropertyOp35
 70
     1
102
RTVSPropertyOp36
 70
     1
102
RTVSPropertyOp37
 70
     1
102
RTVSPropertyOp38
 70
     1
102
RTVSPropertyOp39
 70
     1
102
RTVSPropertyOp40
 70
     1
102
RTVSPropertyOp41
 70
     1
102
RTVSPropertyOp42
 70
     1
102
RTVSPropertyOp43
 70
     1
102
RTVSPropertyOp44
 70
     1
102
RTVSPropertyOp45
 70
     1
102
RTVSPropertyOp46
 70
     1
102
RTVSPropertyOp47
 70
     1
102
RTVSPropertyOp48
 70
     1
102
RTVSPropertyOp49
 70
     1
102
RTVSPropertyOp50
 70
     1
102
RTVSPropertyOp51
 70
     0
102
RTVSPropertyOp52
 70
     0
102
RTVSPropertyOp53
 70
     1
102
RTVSPropertyOp54
 70
     1
102
RTVSPropertyOp55
 70
     1
102
RTVSPropertyOp56
 70
     1
102
RTVSPropertyOp57
 70
     1
102
RTVSPropertyOp58
 70
     1
102
RTVSPropertyOp59
 70
     1
102
RTVSPropertyOp60
 70
     1
102
RTVSPropertyOp61
 70
     1
102
RTVSPropertyOp62
 70
     1
  0
XRECORD
  5
644
102
{ACAD_REACTORS
330
643
102
}
330
643
100
AcDbXrecord
280
     1
102
RTVSPost2010Prop28
280
     0
102
RTVSPost2010PropOp28
 70
     1
102
RTVSPost2010Prop29
280
     1
102
RTVSPost2010PropOp29
 70
     1
102
RTVSPost2010Prop30
280
     1
102
RTVSPost2010PropOp30
 70
     1
102
RTVSPost2010Prop31
280
     0
102
RTVSPost2010PropOp31
 70
     1
102
RTVSPost2010Prop32
280
     0
102
RTVSPost2010PropOp32
 70
     1
102
RTVSPost2010Prop33
280
     0
102
RTVSPost2010PropOp33
 70
     1
102
RTVSPost2010Prop34
280
     0
102
RTVSPost2010PropOp34
 70
     1
102
RTVSPost2010Prop35
280
     0
102
RTVSPost2010PropOp35
 70
     1
102
RTVSPost2010Prop36
280
     0
102
RTVSPost2010PropOp36
 70
     1
102
RTVSPost2010Prop37
 90
       50
102
RTVSPost2010PropOp37
 70
     0
102
RTVSPost2010Prop38
140
0.0
102
RTVSPost2010PropOp38
 70
     0
102
RTVSPost2010Prop39
140
1.0
102
RTVSPost2010PropOp39
 70
     0
102
RTVSPost2010Prop40
 90
        0
102
RTVSPost2010PropOp40
 70
     0
102
RTVSPost2010Prop41ColorIndex
 90
       18
102
RTVSPost2010Prop41ColorRGB
 90
        0
102
RTVSPost2010PropOp41
 70
     0
102
RTVSPost2010Prop42
 90
       50
102
RTVSPost2010PropOp42
 70
     0
102
RTVSPost2010Prop43
 90
        3
102
RTVSPost2010PropOp43
 70
     0
102
RTVSPost2010Prop44ColorIndex
 90
        5
102
RTVSPost2010Prop44ColorRGB
 90
      255
102
RTVSPost2010PropOp44
 70
     0
102
RTVSPost2010Prop45
280
     0
102
RTVSPost2010PropOp45
 70
     1
102
RTVSPost2010Prop46
 90
       50
102
RTVSPost2010PropOp46
 70
     0
102
RTVSPost2010Prop47
 90
       50
102
RTVSPost2010PropOp47
 70
     0
102
RTVSPost2010Prop48
 90
       50
102
RTVSPost2010PropOp48
 70
     0
102
RTVSPost2010Prop49
280
     0
102
RTVSPost2010PropOp49
 70
     1
102
RTVSPost2010Prop50
 90
       50
102
RTVSPost2010PropOp50
 70
     0
102
RTVSPost2010Prop51ColorIndex
 90
      256
102
RTVSPost2010Prop51ColorRGB
 90
-16777216
102
RTVSPost2010PropOp51
 70
     0
102
RTVSPost2010Prop52
140
1.0
102
RTVSPost2010PropOp52
 70
     0
102
RTVSPost2010Prop53
 90
        2
102
RTVSPost2010PropOp53
 70
     0
102
RTVSPost2010Prop54
  1
strokes_ogs.tif
102
RTVSPost2010PropOp54
 70
     0
102
RTVSPost2010Prop55
280
     0
102
RTVSPost2010PropOp55
 70
     1
102
RTVSPost2010Prop56
140
1.0
102
RTVSPost2010PropOp56
 70
     0
102
RTVSPost2010Prop57
140
1.0
102
RTVSPost2010PropOp57
 70
     0
102
RTVSPropertyOp0
 70
     0
102
RTVSPropertyOp1
 70
     0
102
RTVSPropertyOp2
 70
     0
102
RTVSPropertyOp3
 70
     0
102
RTVSPropertyOp4
 70
     0
102
RTVSPropertyOp5
 70
     0
102
RTVSPropertyOp6
 70
     0
102
RTVSPropertyOp7
 70
     0
102
RTVSPropertyOp8
 70
     0
102
RTVSPropertyOp9
 70
     0
102
RTVSPropertyOp10
 70
     0
102
RTVSPropertyOp11
 70
     0
102
RTVSPropertyOp12
 70
     0
102
RTVSPropertyOp13
 70
     0
102
RTVSPropertyOp14
 70
     2
102
RTVSPropertyOp15
 70
     0
102
RTVSPropertyOp16
 70
     0
102
RTVSPropertyOp17
 70
     0
102
RTVSPropertyOp18
 70
     0
102
RTVSPropertyOp19
 70
     0
102
RTVSPropertyOp20
 70
     0
102
RTVSPropertyOp21
 70
     0
102
RTVSPropertyOp22
 70
     0
102
RTVSPropertyOp23
 70
     0
102
RTVSPropertyOp24
 70
     0
102
RTVSPropertyOp25
 70
     0
102
RTVSPropertyOp26
 70
     0
102
RTVSPropertyOp27
 70
     0
102
RTVSPropertyOp28
 70
     1
102
RTVSPropertyOp29
 70
     1
102
RTVSPropertyOp30
 70
     1
102
RTVSPropertyOp31
 70
     1
102
RTVSPropertyOp32
 70
     1
102
RTVSPropertyOp33
 70
     1
102
RTVSPropertyOp34
 70
     1
102
RTVSPropertyOp35
 70
     1
102
RTVSPropertyOp36
 70
     1
102
RTVSPropertyOp37
 70
     0
102
RTVSPropertyOp38
 70
     0
102
RTVSPropertyOp39
 70
     0
102
RTVSPropertyOp40
 70
     0
102
RTVSPropertyOp41
 70
     0
102
RTVSPropertyOp42
 70
     0
102
RTVSPropertyOp43
 70
     0
102
RTVSPropertyOp44
 70
     0
102
RTVSPropertyOp45
 70
     1
102
RTVSPropertyOp46
 70
     0
102
RTVSPropertyOp47
 70
     0
102
RTVSPropertyOp48
 70
     0
102
RTVSPropertyOp49
 70
     1
102
RTVSPropertyOp50
 70
     0
102
RTVSPropertyOp51
 70
     0
102
RTVSPropertyOp52
 70
     0
102
RTVSPropertyOp53
 70
     0
102
RTVSPropertyOp54
 70
     0
102
RTVSPropertyOp55
 70
     1
102
RTVSPropertyOp56
 70
     0
102
RTVSPropertyOp57
 70
     0
102
RTVSPropertyOp58
 70
     0
102
RTVSPropertyOp59
 70
     0
102
RTVSPropertyOp60
 70
     0
102
RTVSPropertyOp61
 70
     0
102
RTVSPropertyOp62
 70
     0
  0
XRECORD
  5
632
102
{ACAD_REACTORS
330
631
102
}
330
631
100
AcDbXrecord
280
     1
102
RTVSPost2010Prop28
280
     0
102
RTVSPost2010PropOp28
 70
     1
102
RTVSPost2010Prop29
280
     1
102
RTVSPost2010PropOp29
 70
     1
102
RTVSPost2010Prop30
280
     1
102
RTVSPost2010PropOp30
 70
     1
102
RTVSPost2010Prop31
280
     0
102
RTVSPost2010PropOp31
 70
     1
102
RTVSPost2010Prop32
280
     0
102
RTVSPost2010PropOp32
 70
     1
102
RTVSPost2010Prop33
280
     0
102
RTVSPost2010PropOp33
 70
     1
102
RTVSPost2010Prop34
280
     0
102
RTVSPost2010PropOp34
 70
     1
102
RTVSPost2010Prop35
280
     0
102
RTVSPost2010PropOp35
 70
     1
102
RTVSPost2010Prop36
280
     0
102
RTVSPost2010PropOp36
 70
     1
102
RTVSPost2010Prop37
 90
       50
102
RTVSPost2010PropOp37
 70
     1
102
RTVSPost2010Prop38
140
0.0
102
RTVSPost2010PropOp38
 70
     1
102
RTVSPost2010Prop39
140
1.0
102
RTVSPost2010PropOp39
 70
     1
102
RTVSPost2010Prop40
 90
        0
102
RTVSPost2010PropOp40
 70
     1
102
RTVSPost2010Prop41ColorIndex
 90
       18
102
RTVSPost2010Prop41ColorRGB
 90
        0
102
RTVSPost2010PropOp41
 70
     1
102
RTVSPost2010Prop42
 90
       50
102
RTVSPost2010PropOp42
 70
     1
102
RTVSPost2010Prop43
 90
        3
102
RTVSPost2010PropOp43
 70
     1
102
RTVSPost2010Prop44ColorIndex
 90
        5
102
RTVSPost2010Prop44ColorRGB
 90
      255
102
RTVSPost2010PropOp44
 70
     1
102
RTVSPost2010Prop45
280
     0
102
RTVSPost2010PropOp45
 70
     1
102
RTVSPost2010Prop46
 90
       50
102
RTVSPost2010PropOp46
 70
     1
102
RTVSPost2010Prop47
 90
       50
102
RTVSPost2010PropOp47
 70
     1
102
RTVSPost2010Prop48
 90
       50
102
RTVSPost2010PropOp48
 70
     1
102
RTVSPost2010Prop49
280
     0
102
RTVSPost2010PropOp49
 70
     1
102
RTVSPost2010Prop50
 90
       50
102
RTVSPost2010PropOp50
 70
     1
102
RTVSPost2010Prop51ColorIndex
 90
      256
102
RTVSPost2010Prop51ColorRGB
 90
-16777216
102
RTVSPost2010PropOp51
 70
     0
102
RTVSPost2010Prop52
140
1.0
102
RTVSPost2010PropOp52
 70
     0
102
RTVSPost2010Prop53
 90
        2
102
RTVSPost2010PropOp53
 70
     1
102
RTVSPost2010Prop54
  1
strokes_ogs.tif
102
RTVSPost2010PropOp54
 70
     1
102
RTVSPost2010Prop55
280
     0
102
RTVSPost2010PropOp55
 70
     1
102
RTVSPost2010Prop56
140
1.0
102
RTVSPost2010PropOp56
 70
     1
102
RTVSPost2010Prop57
140
1.0
102
RTVSPost2010PropOp57
 70
     1
102
RTVSPropertyOp0
 70
     1
102
RTVSPropertyOp1
 70
     1
102
RTVSPropertyOp2
 70
     1
102
RTVSPropertyOp3
 70
     1
102
RTVSPropertyOp4
 70
     1
102
RTVSPropertyOp5
 70
     1
102
RTVSPropertyOp6
 70
     1
102
RTVSPropertyOp7
 70
     1
102
RTVSPropertyOp8
 70
     1
102
RTVSPropertyOp9
 70
     1
102
RTVSPropertyOp10
 70
     1
102
RTVSPropertyOp11
 70
     1
102
RTVSPropertyOp12
 70
     1
102
RTVSPropertyOp13
 70
     1
102
RTVSPropertyOp14
 70
     1
102
RTVSPropertyOp15
 70
     1
102
RTVSPropertyOp16
 70
     1
102
RTVSPropertyOp17
 70
     1
102
RTVSPropertyOp18
 70
     1
102
RTVSPropertyOp19
 70
     1
102
RTVSPropertyOp20
 70
     1
102
RTVSPropertyOp21
 70
     1
102
RTVSPropertyOp22
 70
     1
102
RTVSPropertyOp23
 70
     1
102
RTVSPropertyOp24
 70
     1
102
RTVSPropertyOp25
 70
     1
102
RTVSPropertyOp26
 70
     1
102
RTVSPropertyOp27
 70
     1
102
RTVSPropertyOp28
 70
     1
102
RTVSPropertyOp29
 70
     1
102
RTVSPropertyOp30
 70
     1
102
RTVSPropertyOp31
 70
     1
102
RTVSPropertyOp32
 70
     1
102
RTVSPropertyOp33
 70
     1
102
RTVSPropertyOp34
 70
     1
102
RTVSPropertyOp35
 70
     1
102
RTVSPropertyOp36
 70
     1
102
RTVSPropertyOp37
 70
     1
102
RTVSPropertyOp38
 70
     1
102
RTVSPropertyOp39
 70
     1
102
RTVSPropertyOp40
 70
     1
102
RTVSPropertyOp41
 70
     1
102
RTVSPropertyOp42
 70
     1
102
RTVSPropertyOp43
 70
     1
102
RTVSPropertyOp44
 70
     1
102
RTVSPropertyOp45
 70
     1
102
RTVSPropertyOp46
 70
     1
102
RTVSPropertyOp47
 70
     1
102
RTVSPropertyOp48
 70
     1
102
RTVSPropertyOp49
 70
     1
102
RTVSPropertyOp50
 70
     1
102
RTVSPropertyOp51
 70
     0
102
RTVSPropertyOp52
 70
     0
102
RTVSPropertyOp53
 70
     1
102
RTVSPropertyOp54
 70
     1
102
RTVSPropertyOp55
 70
     1
102
RTVSPropertyOp56
 70
     1
102
RTVSPropertyOp57
 70
     1
102
RTVSPropertyOp58
 70
     1
102
RTVSPropertyOp59
 70
     1
102
RTVSPropertyOp60
 70
     1
102
RTVSPropertyOp61
 70
     1
102
RTVSPropertyOp62
 70
     1
  0
XRECORD
  5
616
102
{ACAD_REACTORS
330
615
102
}
330
615
100
AcDbXrecord
280
     1
102
RTVSPost2010Prop28
280
     0
102
RTVSPost2010PropOp28
 70
     1
102
RTVSPost2010Prop29
280
     1
102
RTVSPost2010PropOp29
 70
     1
102
RTVSPost2010Prop30
280
     1
102
RTVSPost2010PropOp30
 70
     1
102
RTVSPost2010Prop31
280
     0
102
RTVSPost2010PropOp31
 70
     1
102
RTVSPost2010Prop32
280
     0
102
RTVSPost2010PropOp32
 70
     1
102
RTVSPost2010Prop33
280
     0
102
RTVSPost2010PropOp33
 70
     1
102
RTVSPost2010Prop34
280
     0
102
RTVSPost2010PropOp34
 70
     1
102
RTVSPost2010Prop35
280
     0
102
RTVSPost2010PropOp35
 70
     1
102
RTVSPost2010Prop36
280
     0
102
RTVSPost2010PropOp36
 70
     1
102
RTVSPost2010Prop37
 90
       50
102
RTVSPost2010PropOp37
 70
     1
102
RTVSPost2010Prop38
140
0.0
102
RTVSPost2010PropOp38
 70
     1
102
RTVSPost2010Prop39
140
1.0
102
RTVSPost2010PropOp39
 70
     1
102
RTVSPost2010Prop40
 90
        0
102
RTVSPost2010PropOp40
 70
     1
102
RTVSPost2010Prop41ColorIndex
 90
       18
102
RTVSPost2010Prop41ColorRGB
 90
        0
102
RTVSPost2010PropOp41
 70
     1
102
RTVSPost2010Prop42
 90
       50
102
RTVSPost2010PropOp42
 70
     1
102
RTVSPost2010Prop43
 90
        3
102
RTVSPost2010PropOp43
 70
     1
102
RTVSPost2010Prop44ColorIndex
 90
        5
102
RTVSPost2010Prop44ColorRGB
 90
      255
102
RTVSPost2010PropOp44
 70
     1
102
RTVSPost2010Prop45
280
     0
102
RTVSPost2010PropOp45
 70
     1
102
RTVSPost2010Prop46
 90
       50
102
RTVSPost2010PropOp46
 70
     1
102
RTVSPost2010Prop47
 90
       50
102
RTVSPost2010PropOp47
 70
     1
102
RTVSPost2010Prop48
 90
       50
102
RTVSPost2010PropOp48
 70
     1
102
RTVSPost2010Prop49
280
     0
102
RTVSPost2010PropOp49
 70
     1
102
RTVSPost2010Prop50
 90
       50
102
RTVSPost2010PropOp50
 70
     1
102
RTVSPost2010Prop51ColorIndex
 90
      256
102
RTVSPost2010Prop51ColorRGB
 90
-16777216
102
RTVSPost2010PropOp51
 70
     0
102
RTVSPost2010Prop52
140
1.0
102
RTVSPost2010PropOp52
 70
     0
102
RTVSPost2010Prop53
 90
        2
102
RTVSPost2010PropOp53
 70
     1
102
RTVSPost2010Prop54
  1
strokes_ogs.tif
102
RTVSPost2010PropOp54
 70
     1
102
RTVSPost2010Prop55
280
     0
102
RTVSPost2010PropOp55
 70
     1
102
RTVSPost2010Prop56
140
1.0
102
RTVSPost2010PropOp56
 70
     1
102
RTVSPost2010Prop57
140
1.0
102
RTVSPost2010PropOp57
 70
     1
102
RTVSPropertyOp0
 70
     1
102
RTVSPropertyOp1
 70
     1
102
RTVSPropertyOp2
 70
     1
102
RTVSPropertyOp3
 70
     1
102
RTVSPropertyOp4
 70
     1
102
RTVSPropertyOp5
 70
     1
102
RTVSPropertyOp6
 70
     1
102
RTVSPropertyOp7
 70
     1
102
RTVSPropertyOp8
 70
     1
102
RTVSPropertyOp9
 70
     1
102
RTVSPropertyOp10
 70
     1
102
RTVSPropertyOp11
 70
     1
102
RTVSPropertyOp12
 70
     1
102
RTVSPropertyOp13
 70
     1
102
RTVSPropertyOp14
 70
     1
102
RTVSPropertyOp15
 70
     1
102
RTVSPropertyOp16
 70
     1
102
RTVSPropertyOp17
 70
     1
102
RTVSPropertyOp18
 70
     1
102
RTVSPropertyOp19
 70
     1
102
RTVSPropertyOp20
 70
     1
102
RTVSPropertyOp21
 70
     1
102
RTVSPropertyOp22
 70
     1
102
RTVSPropertyOp23
 70
     1
102
RTVSPropertyOp24
 70
     1
102
RTVSPropertyOp25
 70
     1
102
RTVSPropertyOp26
 70
     1
102
RTVSPropertyOp27
 70
     1
102
RTVSPropertyOp28
 70
     1
102
RTVSPropertyOp29
 70
     1
102
RTVSPropertyOp30
 70
     1
102
RTVSPropertyOp31
 70
     1
102
RTVSPropertyOp32
 70
     1
102
RTVSPropertyOp33
 70
     1
102
RTVSPropertyOp34
 70
     1
102
RTVSPropertyOp35
 70
     1
102
RTVSPropertyOp36
 70
     1
102
RTVSPropertyOp37
 70
     1
102
RTVSPropertyOp38
 70
     1
102
RTVSPropertyOp39
 70
     1
102
RTVSPropertyOp40
 70
     1
102
RTVSPropertyOp41
 70
     1
102
RTVSPropertyOp42
 70
     1
102
RTVSPropertyOp43
 70
     1
102
RTVSPropertyOp44
 70
     1
102
RTVSPropertyOp45
 70
     1
102
RTVSPropertyOp46
 70
     1
102
RTVSPropertyOp47
 70
     1
102
RTVSPropertyOp48
 70
     1
102
RTVSPropertyOp49
 70
     1
102
RTVSPropertyOp50
 70
     1
102
RTVSPropertyOp51
 70
     0
102
RTVSPropertyOp52
 70
     0
102
RTVSPropertyOp53
 70
     1
102
RTVSPropertyOp54
 70
     1
102
RTVSPropertyOp55
 70
     1
102
RTVSPropertyOp56
 70
     1
102
RTVSPropertyOp57
 70
     1
102
RTVSPropertyOp58
 70
     1
102
RTVSPropertyOp59
 70
     1
102
RTVSPropertyOp60
 70
     1
102
RTVSPropertyOp61
 70
     1
102
RTVSPropertyOp62
 70
     1
  0
XRECORD
  5
618
102
{ACAD_REACTORS
330
617
102
}
330
617
100
AcDbXrecord
280
     1
102
RTVSPost2010Prop28
280
     0
102
RTVSPost2010PropOp28
 70
     1
102
RTVSPost2010Prop29
280
     1
102
RTVSPost2010PropOp29
 70
     1
102
RTVSPost2010Prop30
280
     1
102
RTVSPost2010PropOp30
 70
     1
102
RTVSPost2010Prop31
280
     0
102
RTVSPost2010PropOp31
 70
     1
102
RTVSPost2010Prop32
280
     0
102
RTVSPost2010PropOp32
 70
     1
102
RTVSPost2010Prop33
280
     0
102
RTVSPost2010PropOp33
 70
     1
102
RTVSPost2010Prop34
280
     0
102
RTVSPost2010PropOp34
 70
     1
102
RTVSPost2010Prop35
280
     0
102
RTVSPost2010PropOp35
 70
     1
102
RTVSPost2010Prop36
280
     0
102
RTVSPost2010PropOp36
 70
     1
102
RTVSPost2010Prop37
 90
       50
102
RTVSPost2010PropOp37
 70
     1
102
RTVSPost2010Prop38
140
0.0
102
RTVSPost2010PropOp38
 70
     1
102
RTVSPost2010Prop39
140
1.0
102
RTVSPost2010PropOp39
 70
     1
102
RTVSPost2010Prop40
 90
        0
102
RTVSPost2010PropOp40
 70
     1
102
RTVSPost2010Prop41ColorIndex
 90
       18
102
RTVSPost2010Prop41ColorRGB
 90
        0
102
RTVSPost2010PropOp41
 70
     1
102
RTVSPost2010Prop42
 90
       50
102
RTVSPost2010PropOp42
 70
     1
102
RTVSPost2010Prop43
 90
        3
102
RTVSPost2010PropOp43
 70
     1
102
RTVSPost2010Prop44ColorIndex
 90
        5
102
RTVSPost2010Prop44ColorRGB
 90
      255
102
RTVSPost2010PropOp44
 70
     1
102
RTVSPost2010Prop45
280
     0
102
RTVSPost2010PropOp45
 70
     1
102
RTVSPost2010Prop46
 90
       50
102
RTVSPost2010PropOp46
 70
     1
102
RTVSPost2010Prop47
 90
       50
102
RTVSPost2010PropOp47
 70
     1
102
RTVSPost2010Prop48
 90
       50
102
RTVSPost2010PropOp48
 70
     1
102
RTVSPost2010Prop49
280
     0
102
RTVSPost2010PropOp49
 70
     1
102
RTVSPost2010Prop50
 90
       50
102
RTVSPost2010PropOp50
 70
     1
102
RTVSPost2010Prop51ColorIndex
 90
      256
102
RTVSPost2010Prop51ColorRGB
 90
-16777216
102
RTVSPost2010PropOp51
 70
     0
102
RTVSPost2010Prop52
140
1.0
102
RTVSPost2010PropOp52
 70
     0
102
RTVSPost2010Prop53
 90
        2
102
RTVSPost2010PropOp53
 70
     1
102
RTVSPost2010Prop54
  1
strokes_ogs.tif
102
RTVSPost2010PropOp54
 70
     1
102
RTVSPost2010Prop55
280
     0
102
RTVSPost2010PropOp55
 70
     1
102
RTVSPost2010Prop56
140
1.0
102
RTVSPost2010PropOp56
 70
     1
102
RTVSPost2010Prop57
140
1.0
102
RTVSPost2010PropOp57
 70
     1
102
RTVSPropertyOp0
 70
     1
102
RTVSPropertyOp1
 70
     1
102
RTVSPropertyOp2
 70
     1
102
RTVSPropertyOp3
 70
     1
102
RTVSPropertyOp4
 70
     1
102
RTVSPropertyOp5
 70
     1
102
RTVSPropertyOp6
 70
     1
102
RTVSPropertyOp7
 70
     1
102
RTVSPropertyOp8
 70
     1
102
RTVSPropertyOp9
 70
     1
102
RTVSPropertyOp10
 70
     1
102
RTVSPropertyOp11
 70
     1
102
RTVSPropertyOp12
 70
     1
102
RTVSPropertyOp13
 70
     1
102
RTVSPropertyOp14
 70
     1
102
RTVSPropertyOp15
 70
     1
102
RTVSPropertyOp16
 70
     1
102
RTVSPropertyOp17
 70
     1
102
RTVSPropertyOp18
 70
     1
102
RTVSPropertyOp19
 70
     1
102
RTVSPropertyOp20
 70
     1
102
RTVSPropertyOp21
 70
     1
102
RTVSPropertyOp22
 70
     1
102
RTVSPropertyOp23
 70
     1
102
RTVSPropertyOp24
 70
     1
102
RTVSPropertyOp25
 70
     1
102
RTVSPropertyOp26
 70
     1
102
RTVSPropertyOp27
 70
     1
102
RTVSPropertyOp28
 70
     1
102
RTVSPropertyOp29
 70
     1
102
RTVSPropertyOp30
 70
     1
102
RTVSPropertyOp31
 70
     1
102
RTVSPropertyOp32
 70
     1
102
RTVSPropertyOp33
 70
     1
102
RTVSPropertyOp34
 70
     1
102
RTVSPropertyOp35
 70
     1
102
RTVSPropertyOp36
 70
     1
102
RTVSPropertyOp37
 70
     1
102
RTVSPropertyOp38
 70
     1
102
RTVSPropertyOp39
 70
     1
102
RTVSPropertyOp40
 70
     1
102
RTVSPropertyOp41
 70
     1
102
RTVSPropertyOp42
 70
     1
102
RTVSPropertyOp43
 70
     1
102
RTVSPropertyOp44
 70
     1
102
RTVSPropertyOp45
 70
     1
102
RTVSPropertyOp46
 70
     1
102
RTVSPropertyOp47
 70
     1
102
RTVSPropertyOp48
 70
     1
102
RTVSPropertyOp49
 70
     1
102
RTVSPropertyOp50
 70
     1
102
RTVSPropertyOp51
 70
     0
102
RTVSPropertyOp52
 70
     0
102
RTVSPropertyOp53
 70
     1
102
RTVSPropertyOp54
 70
     1
102
RTVSPropertyOp55
 70
     1
102
RTVSPropertyOp56
 70
     1
102
RTVSPropertyOp57
 70
     1
102
RTVSPropertyOp58
 70
     1
102
RTVSPropertyOp59
 70
     1
102
RTVSPropertyOp60
 70
     1
102
RTVSPropertyOp61
 70
     1
102
RTVSPropertyOp62
 70
     1
  0
XRECORD
  5
61A
102
{ACAD_REACTORS
330
619
102
}
330
619
100
AcDbXrecord
280
     1
102
RTVSPost2010Prop28
280
     0
102
RTVSPost2010PropOp28
 70
     1
102
RTVSPost2010Prop29
280
     1
102
RTVSPost2010PropOp29
 70
     1
102
RTVSPost2010Prop30
280
     1
102
RTVSPost2010PropOp30
 70
     1
102
RTVSPost2010Prop31
280
     0
102
RTVSPost2010PropOp31
 70
     1
102
RTVSPost2010Prop32
280
     0
102
RTVSPost2010PropOp32
 70
     1
102
RTVSPost2010Prop33
280
     0
102
RTVSPost2010PropOp33
 70
     1
102
RTVSPost2010Prop34
280
     0
102
RTVSPost2010PropOp34
 70
     1
102
RTVSPost2010Prop35
280
     0
102
RTVSPost2010PropOp35
 70
     1
102
RTVSPost2010Prop36
280
     0
102
RTVSPost2010PropOp36
 70
     1
102
RTVSPost2010Prop37
 90
       50
102
RTVSPost2010PropOp37
 70
     1
102
RTVSPost2010Prop38
140
0.0
102
RTVSPost2010PropOp38
 70
     1
102
RTVSPost2010Prop39
140
1.0
102
RTVSPost2010PropOp39
 70
     1
102
RTVSPost2010Prop40
 90
        0
102
RTVSPost2010PropOp40
 70
     1
102
RTVSPost2010Prop41ColorIndex
 90
       18
102
RTVSPost2010Prop41ColorRGB
 90
        0
102
RTVSPost2010PropOp41
 70
     1
102
RTVSPost2010Prop42
 90
       50
102
RTVSPost2010PropOp42
 70
     1
102
RTVSPost2010Prop43
 90
        3
102
RTVSPost2010PropOp43
 70
     1
102
RTVSPost2010Prop44ColorIndex
 90
        5
102
RTVSPost2010Prop44ColorRGB
 90
      255
102
RTVSPost2010PropOp44
 70
     1
102
RTVSPost2010Prop45
280
     0
102
RTVSPost2010PropOp45
 70
     1
102
RTVSPost2010Prop46
 90
       50
102
RTVSPost2010PropOp46
 70
     1
102
RTVSPost2010Prop47
 90
       50
102
RTVSPost2010PropOp47
 70
     1
102
RTVSPost2010Prop48
 90
       50
102
RTVSPost2010PropOp48
 70
     1
102
RTVSPost2010Prop49
280
     0
102
RTVSPost2010PropOp49
 70
     1
102
RTVSPost2010Prop50
 90
       50
102
RTVSPost2010PropOp50
 70
     1
102
RTVSPost2010Prop51ColorIndex
 90
      256
102
RTVSPost2010Prop51ColorRGB
 90
-16777216
102
RTVSPost2010PropOp51
 70
     0
102
RTVSPost2010Prop52
140
1.0
102
RTVSPost2010PropOp52
 70
     0
102
RTVSPost2010Prop53
 90
        2
102
RTVSPost2010PropOp53
 70
     1
102
RTVSPost2010Prop54
  1
strokes_ogs.tif
102
RTVSPost2010PropOp54
 70
     1
102
RTVSPost2010Prop55
280
     0
102
RTVSPost2010PropOp55
 70
     1
102
RTVSPost2010Prop56
140
1.0
102
RTVSPost2010PropOp56
 70
     1
102
RTVSPost2010Prop57
140
1.0
102
RTVSPost2010PropOp57
 70
     1
102
RTVSPropertyOp0
 70
     1
102
RTVSPropertyOp1
 70
     1
102
RTVSPropertyOp2
 70
     1
102
RTVSPropertyOp3
 70
     1
102
RTVSPropertyOp4
 70
     1
102
RTVSPropertyOp5
 70
     1
102
RTVSPropertyOp6
 70
     1
102
RTVSPropertyOp7
 70
     1
102
RTVSPropertyOp8
 70
     1
102
RTVSPropertyOp9
 70
     1
102
RTVSPropertyOp10
 70
     1
102
RTVSPropertyOp11
 70
     1
102
RTVSPropertyOp12
 70
     1
102
RTVSPropertyOp13
 70
     1
102
RTVSPropertyOp14
 70
     1
102
RTVSPropertyOp15
 70
     1
102
RTVSPropertyOp16
 70
     1
102
RTVSPropertyOp17
 70
     1
102
RTVSPropertyOp18
 70
     1
102
RTVSPropertyOp19
 70
     1
102
RTVSPropertyOp20
 70
     1
102
RTVSPropertyOp21
 70
     1
102
RTVSPropertyOp22
 70
     1
102
RTVSPropertyOp23
 70
     1
102
RTVSPropertyOp24
 70
     1
102
RTVSPropertyOp25
 70
     1
102
RTVSPropertyOp26
 70
     1
102
RTVSPropertyOp27
 70
     1
102
RTVSPropertyOp28
 70
     1
102
RTVSPropertyOp29
 70
     1
102
RTVSPropertyOp30
 70
     1
102
RTVSPropertyOp31
 70
     1
102
RTVSPropertyOp32
 70
     1
102
RTVSPropertyOp33
 70
     1
102
RTVSPropertyOp34
 70
     1
102
RTVSPropertyOp35
 70
     1
102
RTVSPropertyOp36
 70
     1
102
RTVSPropertyOp37
 70
     1
102
RTVSPropertyOp38
 70
     1
102
RTVSPropertyOp39
 70
     1
102
RTVSPropertyOp40
 70
     1
102
RTVSPropertyOp41
 70
     1
102
RTVSPropertyOp42
 70
     1
102
RTVSPropertyOp43
 70
     1
102
RTVSPropertyOp44
 70
     1
102
RTVSPropertyOp45
 70
     1
102
RTVSPropertyOp46
 70
     1
102
RTVSPropertyOp47
 70
     1
102
RTVSPropertyOp48
 70
     1
102
RTVSPropertyOp49
 70
     1
102
RTVSPropertyOp50
 70
     1
102
RTVSPropertyOp51
 70
     0
102
RTVSPropertyOp52
 70
     0
102
RTVSPropertyOp53
 70
     1
102
RTVSPropertyOp54
 70
     1
102
RTVSPropertyOp55
 70
     1
102
RTVSPropertyOp56
 70
     1
102
RTVSPropertyOp57
 70
     1
102
RTVSPropertyOp58
 70
     1
102
RTVSPropertyOp59
 70
     1
102
RTVSPropertyOp60
 70
     1
102
RTVSPropertyOp61
 70
     1
102
RTVSPropertyOp62
 70
     1
  0
XRECORD
  5
61C
102
{ACAD_REACTORS
330
61B
102
}
330
61B
100
AcDbXrecord
280
     1
102
RTVSPost2010Prop28
280
     0
102
RTVSPost2010PropOp28
 70
     1
102
RTVSPost2010Prop29
280
     1
102
RTVSPost2010PropOp29
 70
     1
102
RTVSPost2010Prop30
280
     1
102
RTVSPost2010PropOp30
 70
     1
102
RTVSPost2010Prop31
280
     0
102
RTVSPost2010PropOp31
 70
     1
102
RTVSPost2010Prop32
280
     0
102
RTVSPost2010PropOp32
 70
     1
102
RTVSPost2010Prop33
280
     0
102
RTVSPost2010PropOp33
 70
     1
102
RTVSPost2010Prop34
280
     0
102
RTVSPost2010PropOp34
 70
     1
102
RTVSPost2010Prop35
280
     0
102
RTVSPost2010PropOp35
 70
     1
102
RTVSPost2010Prop36
280
     0
102
RTVSPost2010PropOp36
 70
     1
102
RTVSPost2010Prop37
 90
       50
102
RTVSPost2010PropOp37
 70
     1
102
RTVSPost2010Prop38
140
0.0
102
RTVSPost2010PropOp38
 70
     1
102
RTVSPost2010Prop39
140
1.0
102
RTVSPost2010PropOp39
 70
     1
102
RTVSPost2010Prop40
 90
        0
102
RTVSPost2010PropOp40
 70
     1
102
RTVSPost2010Prop41ColorIndex
 90
       18
102
RTVSPost2010Prop41ColorRGB
 90
        0
102
RTVSPost2010PropOp41
 70
     1
102
RTVSPost2010Prop42
 90
       50
102
RTVSPost2010PropOp42
 70
     1
102
RTVSPost2010Prop43
 90
        3
102
RTVSPost2010PropOp43
 70
     1
102
RTVSPost2010Prop44ColorIndex
 90
        5
102
RTVSPost2010Prop44ColorRGB
 90
      255
102
RTVSPost2010PropOp44
 70
     1
102
RTVSPost2010Prop45
280
     0
102
RTVSPost2010PropOp45
 70
     1
102
RTVSPost2010Prop46
 90
       50
102
RTVSPost2010PropOp46
 70
     1
102
RTVSPost2010Prop47
 90
       50
102
RTVSPost2010PropOp47
 70
     1
102
RTVSPost2010Prop48
 90
       50
102
RTVSPost2010PropOp48
 70
     1
102
RTVSPost2010Prop49
280
     0
102
RTVSPost2010PropOp49
 70
     1
102
RTVSPost2010Prop50
 90
       50
102
RTVSPost2010PropOp50
 70
     1
102
RTVSPost2010Prop51ColorIndex
 90
      256
102
RTVSPost2010Prop51ColorRGB
 90
-16777216
102
RTVSPost2010PropOp51
 70
     0
102
RTVSPost2010Prop52
140
1.0
102
RTVSPost2010PropOp52
 70
     0
102
RTVSPost2010Prop53
 90
        2
102
RTVSPost2010PropOp53
 70
     1
102
RTVSPost2010Prop54
  1
strokes_ogs.tif
102
RTVSPost2010PropOp54
 70
     1
102
RTVSPost2010Prop55
280
     0
102
RTVSPost2010PropOp55
 70
     1
102
RTVSPost2010Prop56
140
1.0
102
RTVSPost2010PropOp56
 70
     1
102
RTVSPost2010Prop57
140
1.0
102
RTVSPost2010PropOp57
 70
     1
102
RTVSPropertyOp0
 70
     1
102
RTVSPropertyOp1
 70
     1
102
RTVSPropertyOp2
 70
     1
102
RTVSPropertyOp3
 70
     1
102
RTVSPropertyOp4
 70
     1
102
RTVSPropertyOp5
 70
     1
102
RTVSPropertyOp6
 70
     1
102
RTVSPropertyOp7
 70
     1
102
RTVSPropertyOp8
 70
     1
102
RTVSPropertyOp9
 70
     1
102
RTVSPropertyOp10
 70
     1
102
RTVSPropertyOp11
 70
     1
102
RTVSPropertyOp12
 70
     1
102
RTVSPropertyOp13
 70
     1
102
RTVSPropertyOp14
 70
     1
102
RTVSPropertyOp15
 70
     1
102
RTVSPropertyOp16
 70
     1
102
RTVSPropertyOp17
 70
     1
102
RTVSPropertyOp18
 70
     1
102
RTVSPropertyOp19
 70
     1
102
RTVSPropertyOp20
 70
     1
102
RTVSPropertyOp21
 70
     1
102
RTVSPropertyOp22
 70
     1
102
RTVSPropertyOp23
 70
     1
102
RTVSPropertyOp24
 70
     1
102
RTVSPropertyOp25
 70
     1
102
RTVSPropertyOp26
 70
     1
102
RTVSPropertyOp27
 70
     1
102
RTVSPropertyOp28
 70
     1
102
RTVSPropertyOp29
 70
     1
102
RTVSPropertyOp30
 70
     1
102
RTVSPropertyOp31
 70
     1
102
RTVSPropertyOp32
 70
     1
102
RTVSPropertyOp33
 70
     1
102
RTVSPropertyOp34
 70
     1
102
RTVSPropertyOp35
 70
     1
102
RTVSPropertyOp36
 70
     1
102
RTVSPropertyOp37
 70
     1
102
RTVSPropertyOp38
 70
     1
102
RTVSPropertyOp39
 70
     1
102
RTVSPropertyOp40
 70
     1
102
RTVSPropertyOp41
 70
     1
102
RTVSPropertyOp42
 70
     1
102
RTVSPropertyOp43
 70
     1
102
RTVSPropertyOp44
 70
     1
102
RTVSPropertyOp45
 70
     1
102
RTVSPropertyOp46
 70
     1
102
RTVSPropertyOp47
 70
     1
102
RTVSPropertyOp48
 70
     1
102
RTVSPropertyOp49
 70
     1
102
RTVSPropertyOp50
 70
     1
102
RTVSPropertyOp51
 70
     0
102
RTVSPropertyOp52
 70
     0
102
RTVSPropertyOp53
 70
     1
102
RTVSPropertyOp54
 70
     1
102
RTVSPropertyOp55
 70
     1
102
RTVSPropertyOp56
 70
     1
102
RTVSPropertyOp57
 70
     1
102
RTVSPropertyOp58
 70
     1
102
RTVSPropertyOp59
 70
     1
102
RTVSPropertyOp60
 70
     1
102
RTVSPropertyOp61
 70
     1
102
RTVSPropertyOp62
 70
     1
  0
XRECORD
  5
624
102
{ACAD_REACTORS
330
623
102
}
330
623
100
AcDbXrecord
280
     1
102
RTVSPost2010Prop28
280
     0
102
RTVSPost2010PropOp28
 70
     1
102
RTVSPost2010Prop29
280
     1
102
RTVSPost2010PropOp29
 70
     1
102
RTVSPost2010Prop30
280
     1
102
RTVSPost2010PropOp30
 70
     1
102
RTVSPost2010Prop31
280
     0
102
RTVSPost2010PropOp31
 70
     1
102
RTVSPost2010Prop32
280
     0
102
RTVSPost2010PropOp32
 70
     1
102
RTVSPost2010Prop33
280
     0
102
RTVSPost2010PropOp33
 70
     1
102
RTVSPost2010Prop34
280
     0
102
RTVSPost2010PropOp34
 70
     1
102
RTVSPost2010Prop35
280
     0
102
RTVSPost2010PropOp35
 70
     1
102
RTVSPost2010Prop36
280
     0
102
RTVSPost2010PropOp36
 70
     1
102
RTVSPost2010Prop37
 90
       50
102
RTVSPost2010PropOp37
 70
     1
102
RTVSPost2010Prop38
140
0.0
102
RTVSPost2010PropOp38
 70
     1
102
RTVSPost2010Prop39
140
1.0
102
RTVSPost2010PropOp39
 70
     1
102
RTVSPost2010Prop40
 90
        0
102
RTVSPost2010PropOp40
 70
     1
102
RTVSPost2010Prop41ColorIndex
 90
       18
102
RTVSPost2010Prop41ColorRGB
 90
        0
102
RTVSPost2010PropOp41
 70
     1
102
RTVSPost2010Prop42
 90
       50
102
RTVSPost2010PropOp42
 70
     1
102
RTVSPost2010Prop43
 90
        3
102
RTVSPost2010PropOp43
 70
     1
102
RTVSPost2010Prop44ColorIndex
 90
        5
102
RTVSPost2010Prop44ColorRGB
 90
      255
102
RTVSPost2010PropOp44
 70
     1
102
RTVSPost2010Prop45
280
     0
102
RTVSPost2010PropOp45
 70
     1
102
RTVSPost2010Prop46
 90
       50
102
RTVSPost2010PropOp46
 70
     1
102
RTVSPost2010Prop47
 90
       50
102
RTVSPost2010PropOp47
 70
     1
102
RTVSPost2010Prop48
 90
       50
102
RTVSPost2010PropOp48
 70
     1
102
RTVSPost2010Prop49
280
     0
102
RTVSPost2010PropOp49
 70
     1
102
RTVSPost2010Prop50
 90
       50
102
RTVSPost2010PropOp50
 70
     1
102
RTVSPost2010Prop51ColorIndex
 90
      256
102
RTVSPost2010Prop51ColorRGB
 90
-16777216
102
RTVSPost2010PropOp51
 70
     0
102
RTVSPost2010Prop52
140
1.0
102
RTVSPost2010PropOp52
 70
     0
102
RTVSPost2010Prop53
 90
        2
102
RTVSPost2010PropOp53
 70
     1
102
RTVSPost2010Prop54
  1
strokes_ogs.tif
102
RTVSPost2010PropOp54
 70
     1
102
RTVSPost2010Prop55
280
     0
102
RTVSPost2010PropOp55
 70
     1
102
RTVSPost2010Prop56
140
1.0
102
RTVSPost2010PropOp56
 70
     1
102
RTVSPost2010Prop57
140
1.0
102
RTVSPost2010PropOp57
 70
     1
102
RTVSPropertyOp0
 70
     1
102
RTVSPropertyOp1
 70
     1
102
RTVSPropertyOp2
 70
     1
102
RTVSPropertyOp3
 70
     1
102
RTVSPropertyOp4
 70
     1
102
RTVSPropertyOp5
 70
     1
102
RTVSPropertyOp6
 70
     1
102
RTVSPropertyOp7
 70
     1
102
RTVSPropertyOp8
 70
     1
102
RTVSPropertyOp9
 70
     1
102
RTVSPropertyOp10
 70
     1
102
RTVSPropertyOp11
 70
     1
102
RTVSPropertyOp12
 70
     1
102
RTVSPropertyOp13
 70
     1
102
RTVSPropertyOp14
 70
     1
102
RTVSPropertyOp15
 70
     1
102
RTVSPropertyOp16
 70
     1
102
RTVSPropertyOp17
 70
     1
102
RTVSPropertyOp18
 70
     1
102
RTVSPropertyOp19
 70
     1
102
RTVSPropertyOp20
 70
     1
102
RTVSPropertyOp21
 70
     1
102
RTVSPropertyOp22
 70
     1
102
RTVSPropertyOp23
 70
     1
102
RTVSPropertyOp24
 70
     1
102
RTVSPropertyOp25
 70
     1
102
RTVSPropertyOp26
 70
     1
102
RTVSPropertyOp27
 70
     1
102
RTVSPropertyOp28
 70
     1
102
RTVSPropertyOp29
 70
     1
102
RTVSPropertyOp30
 70
     1
102
RTVSPropertyOp31
 70
     1
102
RTVSPropertyOp32
 70
     1
102
RTVSPropertyOp33
 70
     1
102
RTVSPropertyOp34
 70
     1
102
RTVSPropertyOp35
 70
     1
102
RTVSPropertyOp36
 70
     1
102
RTVSPropertyOp37
 70
     1
102
RTVSPropertyOp38
 70
     1
102
RTVSPropertyOp39
 70
     1
102
RTVSPropertyOp40
 70
     1
102
RTVSPropertyOp41
 70
     1
102
RTVSPropertyOp42
 70
     1
102
RTVSPropertyOp43
 70
     1
102
RTVSPropertyOp44
 70
     1
102
RTVSPropertyOp45
 70
     1
102
RTVSPropertyOp46
 70
     1
102
RTVSPropertyOp47
 70
     1
102
RTVSPropertyOp48
 70
     1
102
RTVSPropertyOp49
 70
     1
102
RTVSPropertyOp50
 70
     1
102
RTVSPropertyOp51
 70
     0
102
RTVSPropertyOp52
 70
     0
102
RTVSPropertyOp53
 70
     1
102
RTVSPropertyOp54
 70
     1
102
RTVSPropertyOp55
 70
     1
102
RTVSPropertyOp56
 70
     1
102
RTVSPropertyOp57
 70
     1
102
RTVSPropertyOp58
 70
     1
102
RTVSPropertyOp59
 70
     1
102
RTVSPropertyOp60
 70
     1
102
RTVSPropertyOp61
 70
     1
102
RTVSPropertyOp62
 70
     1
  0
XRECORD
  5
640
102
{ACAD_REACTORS
330
63F
102
}
330
63F
100
AcDbXrecord
280
     1
102
RTVSPost2010Prop28
280
     0
102
RTVSPost2010PropOp28
 70
     1
102
RTVSPost2010Prop29
280
     1
102
RTVSPost2010PropOp29
 70
     1
102
RTVSPost2010Prop30
280
     1
102
RTVSPost2010PropOp30
 70
     1
102
RTVSPost2010Prop31
280
     0
102
RTVSPost2010PropOp31
 70
     1
102
RTVSPost2010Prop32
280
     0
102
RTVSPost2010PropOp32
 70
     1
102
RTVSPost2010Prop33
280
     0
102
RTVSPost2010PropOp33
 70
     1
102
RTVSPost2010Prop34
280
     0
102
RTVSPost2010PropOp34
 70
     1
102
RTVSPost2010Prop35
280
     0
102
RTVSPost2010PropOp35
 70
     1
102
RTVSPost2010Prop36
280
     0
102
RTVSPost2010PropOp36
 70
     1
102
RTVSPost2010Prop37
 90
       50
102
RTVSPost2010PropOp37
 70
     0
102
RTVSPost2010Prop38
140
0.0
102
RTVSPost2010PropOp38
 70
     0
102
RTVSPost2010Prop39
140
1.0
102
RTVSPost2010PropOp39
 70
     0
102
RTVSPost2010Prop40
 90
        0
102
RTVSPost2010PropOp40
 70
     0
102
RTVSPost2010Prop41ColorIndex
 90
       18
102
RTVSPost2010Prop41ColorRGB
 90
        0
102
RTVSPost2010PropOp41
 70
     0
102
RTVSPost2010Prop42
 90
       50
102
RTVSPost2010PropOp42
 70
     0
102
RTVSPost2010Prop43
 90
        3
102
RTVSPost2010PropOp43
 70
     0
102
RTVSPost2010Prop44ColorIndex
 90
        5
102
RTVSPost2010Prop44ColorRGB
 90
      255
102
RTVSPost2010PropOp44
 70
     0
102
RTVSPost2010Prop45
280
     0
102
RTVSPost2010PropOp45
 70
     1
102
RTVSPost2010Prop46
 90
       50
102
RTVSPost2010PropOp46
 70
     0
102
RTVSPost2010Prop47
 90
       50
102
RTVSPost2010PropOp47
 70
     0
102
RTVSPost2010Prop48
 90
       50
102
RTVSPost2010PropOp48
 70
     0
102
RTVSPost2010Prop49
280
     0
102
RTVSPost2010PropOp49
 70
     1
102
RTVSPost2010Prop50
 90
       50
102
RTVSPost2010PropOp50
 70
     0
102
RTVSPost2010Prop51ColorIndex
 90
      256
102
RTVSPost2010Prop51ColorRGB
 90
-16777216
102
RTVSPost2010PropOp51
 70
     0
102
RTVSPost2010Prop52
140
1.0
102
RTVSPost2010PropOp52
 70
     0
102
RTVSPost2010Prop53
 90
        2
102
RTVSPost2010PropOp53
 70
     0
102
RTVSPost2010Prop54
  1
strokes_ogs.tif
102
RTVSPost2010PropOp54
 70
     0
102
RTVSPost2010Prop55
280
     0
102
RTVSPost2010PropOp55
 70
     1
102
RTVSPost2010Prop56
140
1.0
102
RTVSPost2010PropOp56
 70
     0
102
RTVSPost2010Prop57
140
1.0
102
RTVSPost2010PropOp57
 70
     0
102
RTVSPropertyOp0
 70
     0
102
RTVSPropertyOp1
 70
     0
102
RTVSPropertyOp2
 70
     0
102
RTVSPropertyOp3
 70
     0
102
RTVSPropertyOp4
 70
     0
102
RTVSPropertyOp5
 70
     0
102
RTVSPropertyOp6
 70
     0
102
RTVSPropertyOp7
 70
     0
102
RTVSPropertyOp8
 70
     0
102
RTVSPropertyOp9
 70
     0
102
RTVSPropertyOp10
 70
     0
102
RTVSPropertyOp11
 70
     0
102
RTVSPropertyOp12
 70
     0
102
RTVSPropertyOp13
 70
     0
102
RTVSPropertyOp14
 70
     2
102
RTVSPropertyOp15
 70
     0
102
RTVSPropertyOp16
 70
     0
102
RTVSPropertyOp17
 70
     0
102
RTVSPropertyOp18
 70
     0
102
RTVSPropertyOp19
 70
     0
102
RTVSPropertyOp20
 70
     0
102
RTVSPropertyOp21
 70
     0
102
RTVSPropertyOp22
 70
     0
102
RTVSPropertyOp23
 70
     0
102
RTVSPropertyOp24
 70
     0
102
RTVSPropertyOp25
 70
     0
102
RTVSPropertyOp26
 70
     0
102
RTVSPropertyOp27
 70
     0
102
RTVSPropertyOp28
 70
     1
102
RTVSPropertyOp29
 70
     1
102
RTVSPropertyOp30
 70
     1
102
RTVSPropertyOp31
 70
     1
102
RTVSPropertyOp32
 70
     1
102
RTVSPropertyOp33
 70
     1
102
RTVSPropertyOp34
 70
     1
102
RTVSPropertyOp35
 70
     1
102
RTVSPropertyOp36
 70
     1
102
RTVSPropertyOp37
 70
     0
102
RTVSPropertyOp38
 70
     0
102
RTVSPropertyOp39
 70
     0
102
RTVSPropertyOp40
 70
     0
102
RTVSPropertyOp41
 70
     0
102
RTVSPropertyOp42
 70
     0
102
RTVSPropertyOp43
 70
     0
102
RTVSPropertyOp44
 70
     0
102
RTVSPropertyOp45
 70
     1
102
RTVSPropertyOp46
 70
     0
102
RTVSPropertyOp47
 70
     0
102
RTVSPropertyOp48
 70
     0
102
RTVSPropertyOp49
 70
     1
102
RTVSPropertyOp50
 70
     0
102
RTVSPropertyOp51
 70
     0
102
RTVSPropertyOp52
 70
     0
102
RTVSPropertyOp53
 70
     0
102
RTVSPropertyOp54
 70
     0
102
RTVSPropertyOp55
 70
     1
102
RTVSPropertyOp56
 70
     0
102
RTVSPropertyOp57
 70
     0
102
RTVSPropertyOp58
 70
     0
102
RTVSPropertyOp59
 70
     0
102
RTVSPropertyOp60
 70
     0
102
RTVSPropertyOp61
 70
     0
102
RTVSPropertyOp62
 70
     0
  0
XRECORD
  5
630
102
{ACAD_REACTORS
330
62F
102
}
330
62F
100
AcDbXrecord
280
     1
102
RTVSPost2010Prop28
280
     0
102
RTVSPost2010PropOp28
 70
     1
102
RTVSPost2010Prop29
280
     1
102
RTVSPost2010PropOp29
 70
     1
102
RTVSPost2010Prop30
280
     1
102
RTVSPost2010PropOp30
 70
     1
102
RTVSPost2010Prop31
280
     0
102
RTVSPost2010PropOp31
 70
     1
102
RTVSPost2010Prop32
280
     0
102
RTVSPost2010PropOp32
 70
     1
102
RTVSPost2010Prop33
280
     0
102
RTVSPost2010PropOp33
 70
     1
102
RTVSPost2010Prop34
280
     0
102
RTVSPost2010PropOp34
 70
     1
102
RTVSPost2010Prop35
280
     0
102
RTVSPost2010PropOp35
 70
     1
102
RTVSPost2010Prop36
280
     0
102
RTVSPost2010PropOp36
 70
     1
102
RTVSPost2010Prop37
 90
       50
102
RTVSPost2010PropOp37
 70
     1
102
RTVSPost2010Prop38
140
0.0
102
RTVSPost2010PropOp38
 70
     1
102
RTVSPost2010Prop39
140
1.0
102
RTVSPost2010PropOp39
 70
     1
102
RTVSPost2010Prop40
 90
        0
102
RTVSPost2010PropOp40
 70
     1
102
RTVSPost2010Prop41ColorIndex
 90
       18
102
RTVSPost2010Prop41ColorRGB
 90
        0
102
RTVSPost2010PropOp41
 70
     1
102
RTVSPost2010Prop42
 90
       50
102
RTVSPost2010PropOp42
 70
     1
102
RTVSPost2010Prop43
 90
        3
102
RTVSPost2010PropOp43
 70
     1
102
RTVSPost2010Prop44ColorIndex
 90
        5
102
RTVSPost2010Prop44ColorRGB
 90
      255
102
RTVSPost2010PropOp44
 70
     1
102
RTVSPost2010Prop45
280
     0
102
RTVSPost2010PropOp45
 70
     1
102
RTVSPost2010Prop46
 90
       50
102
RTVSPost2010PropOp46
 70
     1
102
RTVSPost2010Prop47
 90
       50
102
RTVSPost2010PropOp47
 70
     1
102
RTVSPost2010Prop48
 90
       50
102
RTVSPost2010PropOp48
 70
     1
102
RTVSPost2010Prop49
280
     0
102
RTVSPost2010PropOp49
 70
     1
102
RTVSPost2010Prop50
 90
       50
102
RTVSPost2010PropOp50
 70
     1
102
RTVSPost2010Prop51ColorIndex
 90
      256
102
RTVSPost2010Prop51ColorRGB
 90
-16777216
102
RTVSPost2010PropOp51
 70
     0
102
RTVSPost2010Prop52
140
1.0
102
RTVSPost2010PropOp52
 70
     0
102
RTVSPost2010Prop53
 90
        2
102
RTVSPost2010PropOp53
 70
     1
102
RTVSPost2010Prop54
  1
strokes_ogs.tif
102
RTVSPost2010PropOp54
 70
     1
102
RTVSPost2010Prop55
280
     0
102
RTVSPost2010PropOp55
 70
     1
102
RTVSPost2010Prop56
140
1.0
102
RTVSPost2010PropOp56
 70
     1
102
RTVSPost2010Prop57
140
1.0
102
RTVSPost2010PropOp57
 70
     1
102
RTVSPropertyOp0
 70
     1
102
RTVSPropertyOp1
 70
     1
102
RTVSPropertyOp2
 70
     1
102
RTVSPropertyOp3
 70
     1
102
RTVSPropertyOp4
 70
     1
102
RTVSPropertyOp5
 70
     1
102
RTVSPropertyOp6
 70
     1
102
RTVSPropertyOp7
 70
     1
102
RTVSPropertyOp8
 70
     1
102
RTVSPropertyOp9
 70
     1
102
RTVSPropertyOp10
 70
     1
102
RTVSPropertyOp11
 70
     1
102
RTVSPropertyOp12
 70
     1
102
RTVSPropertyOp13
 70
     1
102
RTVSPropertyOp14
 70
     1
102
RTVSPropertyOp15
 70
     1
102
RTVSPropertyOp16
 70
     1
102
RTVSPropertyOp17
 70
     1
102
RTVSPropertyOp18
 70
     1
102
RTVSPropertyOp19
 70
     1
102
RTVSPropertyOp20
 70
     1
102
RTVSPropertyOp21
 70
     1
102
RTVSPropertyOp22
 70
     1
102
RTVSPropertyOp23
 70
     1
102
RTVSPropertyOp24
 70
     1
102
RTVSPropertyOp25
 70
     1
102
RTVSPropertyOp26
 70
     1
102
RTVSPropertyOp27
 70
     1
102
RTVSPropertyOp28
 70
     1
102
RTVSPropertyOp29
 70
     1
102
RTVSPropertyOp30
 70
     1
102
RTVSPropertyOp31
 70
     1
102
RTVSPropertyOp32
 70
     1
102
RTVSPropertyOp33
 70
     1
102
RTVSPropertyOp34
 70
     1
102
RTVSPropertyOp35
 70
     1
102
RTVSPropertyOp36
 70
     1
102
RTVSPropertyOp37
 70
     1
102
RTVSPropertyOp38
 70
     1
102
RTVSPropertyOp39
 70
     1
102
RTVSPropertyOp40
 70
     1
102
RTVSPropertyOp41
 70
     1
102
RTVSPropertyOp42
 70
     1
102
RTVSPropertyOp43
 70
     1
102
RTVSPropertyOp44
 70
     1
102
RTVSPropertyOp45
 70
     1
102
RTVSPropertyOp46
 70
     1
102
RTVSPropertyOp47
 70
     1
102
RTVSPropertyOp48
 70
     1
102
RTVSPropertyOp49
 70
     1
102
RTVSPropertyOp50
 70
     1
102
RTVSPropertyOp51
 70
     0
102
RTVSPropertyOp52
 70
     0
102
RTVSPropertyOp53
 70
     1
102
RTVSPropertyOp54
 70
     1
102
RTVSPropertyOp55
 70
     1
102
RTVSPropertyOp56
 70
     1
102
RTVSPropertyOp57
 70
     1
102
RTVSPropertyOp58
 70
     1
102
RTVSPropertyOp59
 70
     1
102
RTVSPropertyOp60
 70
     1
102
RTVSPropertyOp61
 70
     1
102
RTVSPropertyOp62
 70
     1
  0
XRECORD
  5
642
102
{ACAD_REACTORS
330
641
102
}
330
641
100
AcDbXrecord
280
     1
102
RTVSPost2010Prop28
280
     0
102
RTVSPost2010PropOp28
 70
     1
102
RTVSPost2010Prop29
280
     1
102
RTVSPost2010PropOp29
 70
     1
102
RTVSPost2010Prop30
280
     1
102
RTVSPost2010PropOp30
 70
     1
102
RTVSPost2010Prop31
280
     0
102
RTVSPost2010PropOp31
 70
     1
102
RTVSPost2010Prop32
280
     0
102
RTVSPost2010PropOp32
 70
     1
102
RTVSPost2010Prop33
280
     0
102
RTVSPost2010PropOp33
 70
     1
102
RTVSPost2010Prop34
280
     0
102
RTVSPost2010PropOp34
 70
     1
102
RTVSPost2010Prop35
280
     0
102
RTVSPost2010PropOp35
 70
     1
102
RTVSPost2010Prop36
280
     0
102
RTVSPost2010PropOp36
 70
     1
102
RTVSPost2010Prop37
 90
       50
102
RTVSPost2010PropOp37
 70
     0
102
RTVSPost2010Prop38
140
0.0
102
RTVSPost2010PropOp38
 70
     0
102
RTVSPost2010Prop39
140
1.0
102
RTVSPost2010PropOp39
 70
     0
102
RTVSPost2010Prop40
 90
        0
102
RTVSPost2010PropOp40
 70
     0
102
RTVSPost2010Prop41ColorIndex
 90
       18
102
RTVSPost2010Prop41ColorRGB
 90
        0
102
RTVSPost2010PropOp41
 70
     0
102
RTVSPost2010Prop42
 90
       50
102
RTVSPost2010PropOp42
 70
     0
102
RTVSPost2010Prop43
 90
        3
102
RTVSPost2010PropOp43
 70
     0
102
RTVSPost2010Prop44ColorIndex
 90
        5
102
RTVSPost2010Prop44ColorRGB
 90
      255
102
RTVSPost2010PropOp44
 70
     0
102
RTVSPost2010Prop45
280
     0
102
RTVSPost2010PropOp45
 70
     1
102
RTVSPost2010Prop46
 90
       50
102
RTVSPost2010PropOp46
 70
     0
102
RTVSPost2010Prop47
 90
       50
102
RTVSPost2010PropOp47
 70
     0
102
RTVSPost2010Prop48
 90
       50
102
RTVSPost2010PropOp48
 70
     0
102
RTVSPost2010Prop49
280
     0
102
RTVSPost2010PropOp49
 70
     1
102
RTVSPost2010Prop50
 90
       50
102
RTVSPost2010PropOp50
 70
     0
102
RTVSPost2010Prop51ColorIndex
 90
      256
102
RTVSPost2010Prop51ColorRGB
 90
-16777216
102
RTVSPost2010PropOp51
 70
     0
102
RTVSPost2010Prop52
140
1.0
102
RTVSPost2010PropOp52
 70
     0
102
RTVSPost2010Prop53
 90
        2
102
RTVSPost2010PropOp53
 70
     0
102
RTVSPost2010Prop54
  1
strokes_ogs.tif
102
RTVSPost2010PropOp54
 70
     0
102
RTVSPost2010Prop55
280
     0
102
RTVSPost2010PropOp55
 70
     1
102
RTVSPost2010Prop56
140
1.0
102
RTVSPost2010PropOp56
 70
     0
102
RTVSPost2010Prop57
140
1.0
102
RTVSPost2010PropOp57
 70
     0
102
RTVSPropertyOp0
 70
     0
102
RTVSPropertyOp1
 70
     0
102
RTVSPropertyOp2
 70
     0
102
RTVSPropertyOp3
 70
     0
102
RTVSPropertyOp4
 70
     0
102
RTVSPropertyOp5
 70
     0
102
RTVSPropertyOp6
 70
     0
102
RTVSPropertyOp7
 70
     0
102
RTVSPropertyOp8
 70
     0
102
RTVSPropertyOp9
 70
     0
102
RTVSPropertyOp10
 70
     0
102
RTVSPropertyOp11
 70
     0
102
RTVSPropertyOp12
 70
     0
102
RTVSPropertyOp13
 70
     0
102
RTVSPropertyOp14
 70
     2
102
RTVSPropertyOp15
 70
     0
102
RTVSPropertyOp16
 70
     0
102
RTVSPropertyOp17
 70
     0
102
RTVSPropertyOp18
 70
     0
102
RTVSPropertyOp19
 70
     0
102
RTVSPropertyOp20
 70
     0
102
RTVSPropertyOp21
 70
     0
102
RTVSPropertyOp22
 70
     0
102
RTVSPropertyOp23
 70
     0
102
RTVSPropertyOp24
 70
     0
102
RTVSPropertyOp25
 70
     0
102
RTVSPropertyOp26
 70
     0
102
RTVSPropertyOp27
 70
     0
102
RTVSPropertyOp28
 70
     1
102
RTVSPropertyOp29
 70
     1
102
RTVSPropertyOp30
 70
     1
102
RTVSPropertyOp31
 70
     1
102
RTVSPropertyOp32
 70
     1
102
RTVSPropertyOp33
 70
     1
102
RTVSPropertyOp34
 70
     1
102
RTVSPropertyOp35
 70
     1
102
RTVSPropertyOp36
 70
     1
102
RTVSPropertyOp37
 70
     0
102
RTVSPropertyOp38
 70
     0
102
RTVSPropertyOp39
 70
     0
102
RTVSPropertyOp40
 70
     0
102
RTVSPropertyOp41
 70
     0
102
RTVSPropertyOp42
 70
     0
102
RTVSPropertyOp43
 70
     0
102
RTVSPropertyOp44
 70
     0
102
RTVSPropertyOp45
 70
     1
102
RTVSPropertyOp46
 70
     0
102
RTVSPropertyOp47
 70
     0
102
RTVSPropertyOp48
 70
     0
102
RTVSPropertyOp49
 70
     1
102
RTVSPropertyOp50
 70
     0
102
RTVSPropertyOp51
 70
     0
102
RTVSPropertyOp52
 70
     0
102
RTVSPropertyOp53
 70
     0
102
RTVSPropertyOp54
 70
     0
102
RTVSPropertyOp55
 70
     1
102
RTVSPropertyOp56
 70
     0
102
RTVSPropertyOp57
 70
     0
102
RTVSPropertyOp58
 70
     0
102
RTVSPropertyOp59
 70
     0
102
RTVSPropertyOp60
 70
     0
102
RTVSPropertyOp61
 70
     0
102
RTVSPropertyOp62
 70
     0
  0
XRECORD
  5
628
102
{ACAD_REACTORS
330
627
102
}
330
627
100
AcDbXrecord
280
     1
102
RTVSPost2010Prop28
280
     0
102
RTVSPost2010PropOp28
 70
     1
102
RTVSPost2010Prop29
280
     1
102
RTVSPost2010PropOp29
 70
     1
102
RTVSPost2010Prop30
280
     1
102
RTVSPost2010PropOp30
 70
     1
102
RTVSPost2010Prop31
280
     0
102
RTVSPost2010PropOp31
 70
     1
102
RTVSPost2010Prop32
280
     0
102
RTVSPost2010PropOp32
 70
     1
102
RTVSPost2010Prop33
280
     0
102
RTVSPost2010PropOp33
 70
     1
102
RTVSPost2010Prop34
280
     0
102
RTVSPost2010PropOp34
 70
     1
102
RTVSPost2010Prop35
280
     0
102
RTVSPost2010PropOp35
 70
     1
102
RTVSPost2010Prop36
280
     0
102
RTVSPost2010PropOp36
 70
     1
102
RTVSPost2010Prop37
 90
       50
102
RTVSPost2010PropOp37
 70
     1
102
RTVSPost2010Prop38
140
0.0
102
RTVSPost2010PropOp38
 70
     1
102
RTVSPost2010Prop39
140
1.0
102
RTVSPost2010PropOp39
 70
     1
102
RTVSPost2010Prop40
 90
        0
102
RTVSPost2010PropOp40
 70
     1
102
RTVSPost2010Prop41ColorIndex
 90
       18
102
RTVSPost2010Prop41ColorRGB
 90
        0
102
RTVSPost2010PropOp41
 70
     1
102
RTVSPost2010Prop42
 90
       50
102
RTVSPost2010PropOp42
 70
     1
102
RTVSPost2010Prop43
 90
        3
102
RTVSPost2010PropOp43
 70
     1
102
RTVSPost2010Prop44ColorIndex
 90
        5
102
RTVSPost2010Prop44ColorRGB
 90
      255
102
RTVSPost2010PropOp44
 70
     1
102
RTVSPost2010Prop45
280
     0
102
RTVSPost2010PropOp45
 70
     1
102
RTVSPost2010Prop46
 90
       50
102
RTVSPost2010PropOp46
 70
     1
102
RTVSPost2010Prop47
 90
       50
102
RTVSPost2010PropOp47
 70
     1
102
RTVSPost2010Prop48
 90
       50
102
RTVSPost2010PropOp48
 70
     1
102
RTVSPost2010Prop49
280
     0
102
RTVSPost2010PropOp49
 70
     1
102
RTVSPost2010Prop50
 90
       50
102
RTVSPost2010PropOp50
 70
     1
102
RTVSPost2010Prop51ColorIndex
 90
      256
102
RTVSPost2010Prop51ColorRGB
 90
-16777216
102
RTVSPost2010PropOp51
 70
     0
102
RTVSPost2010Prop52
140
1.0
102
RTVSPost2010PropOp52
 70
     0
102
RTVSPost2010Prop53
 90
        2
102
RTVSPost2010PropOp53
 70
     1
102
RTVSPost2010Prop54
  1
strokes_ogs.tif
102
RTVSPost2010PropOp54
 70
     1
102
RTVSPost2010Prop55
280
     0
102
RTVSPost2010PropOp55
 70
     1
102
RTVSPost2010Prop56
140
1.0
102
RTVSPost2010PropOp56
 70
     1
102
RTVSPost2010Prop57
140
1.0
102
RTVSPost2010PropOp57
 70
     1
102
RTVSPropertyOp0
 70
     1
102
RTVSPropertyOp1
 70
     1
102
RTVSPropertyOp2
 70
     1
102
RTVSPropertyOp3
 70
     1
102
RTVSPropertyOp4
 70
     1
102
RTVSPropertyOp5
 70
     1
102
RTVSPropertyOp6
 70
     1
102
RTVSPropertyOp7
 70
     1
102
RTVSPropertyOp8
 70
     1
102
RTVSPropertyOp9
 70
     1
102
RTVSPropertyOp10
 70
     1
102
RTVSPropertyOp11
 70
     1
102
RTVSPropertyOp12
 70
     1
102
RTVSPropertyOp13
 70
     1
102
RTVSPropertyOp14
 70
     1
102
RTVSPropertyOp15
 70
     1
102
RTVSPropertyOp16
 70
     1
102
RTVSPropertyOp17
 70
     1
102
RTVSPropertyOp18
 70
     1
102
RTVSPropertyOp19
 70
     1
102
RTVSPropertyOp20
 70
     1
102
RTVSPropertyOp21
 70
     1
102
RTVSPropertyOp22
 70
     1
102
RTVSPropertyOp23
 70
     1
102
RTVSPropertyOp24
 70
     1
102
RTVSPropertyOp25
 70
     1
102
RTVSPropertyOp26
 70
     1
102
RTVSPropertyOp27
 70
     1
102
RTVSPropertyOp28
 70
     1
102
RTVSPropertyOp29
 70
     1
102
RTVSPropertyOp30
 70
     1
102
RTVSPropertyOp31
 70
     1
102
RTVSPropertyOp32
 70
     1
102
RTVSPropertyOp33
 70
     1
102
RTVSPropertyOp34
 70
     1
102
RTVSPropertyOp35
 70
     1
102
RTVSPropertyOp36
 70
     1
102
RTVSPropertyOp37
 70
     1
102
RTVSPropertyOp38
 70
     1
102
RTVSPropertyOp39
 70
     1
102
RTVSPropertyOp40
 70
     1
102
RTVSPropertyOp41
 70
     1
102
RTVSPropertyOp42
 70
     1
102
RTVSPropertyOp43
 70
     1
102
RTVSPropertyOp44
 70
     1
102
RTVSPropertyOp45
 70
     1
102
RTVSPropertyOp46
 70
     1
102
RTVSPropertyOp47
 70
     1
102
RTVSPropertyOp48
 70
     1
102
RTVSPropertyOp49
 70
     1
102
RTVSPropertyOp50
 70
     1
102
RTVSPropertyOp51
 70
     0
102
RTVSPropertyOp52
 70
     0
102
RTVSPropertyOp53
 70
     1
102
RTVSPropertyOp54
 70
     1
102
RTVSPropertyOp55
 70
     1
102
RTVSPropertyOp56
 70
     1
102
RTVSPropertyOp57
 70
     1
102
RTVSPropertyOp58
 70
     1
102
RTVSPropertyOp59
 70
     1
102
RTVSPropertyOp60
 70
     1
102
RTVSPropertyOp61
 70
     1
102
RTVSPropertyOp62
 70
     1
  0
XRECORD
  5
63E
102
{ACAD_REACTORS
330
63D
102
}
330
63D
100
AcDbXrecord
280
     1
102
RTVSPost2010Prop28
280
     0
102
RTVSPost2010PropOp28
 70
     1
102
RTVSPost2010Prop29
280
     1
102
RTVSPost2010PropOp29
 70
     1
102
RTVSPost2010Prop30
280
     1
102
RTVSPost2010PropOp30
 70
     1
102
RTVSPost2010Prop31
280
     0
102
RTVSPost2010PropOp31
 70
     1
102
RTVSPost2010Prop32
280
     0
102
RTVSPost2010PropOp32
 70
     1
102
RTVSPost2010Prop33
280
     0
102
RTVSPost2010PropOp33
 70
     1
102
RTVSPost2010Prop34
280
     0
102
RTVSPost2010PropOp34
 70
     1
102
RTVSPost2010Prop35
280
     0
102
RTVSPost2010PropOp35
 70
     1
102
RTVSPost2010Prop36
280
     0
102
RTVSPost2010PropOp36
 70
     1
102
RTVSPost2010Prop37
 90
       50
102
RTVSPost2010PropOp37
 70
     1
102
RTVSPost2010Prop38
140
0.0
102
RTVSPost2010PropOp38
 70
     1
102
RTVSPost2010Prop39
140
1.0
102
RTVSPost2010PropOp39
 70
     1
102
RTVSPost2010Prop40
 90
        0
102
RTVSPost2010PropOp40
 70
     1
102
RTVSPost2010Prop41ColorIndex
 90
       18
102
RTVSPost2010Prop41ColorRGB
 90
        0
102
RTVSPost2010PropOp41
 70
     1
102
RTVSPost2010Prop42
 90
       50
102
RTVSPost2010PropOp42
 70
     1
102
RTVSPost2010Prop43
 90
        3
102
RTVSPost2010PropOp43
 70
     1
102
RTVSPost2010Prop44ColorIndex
 90
        5
102
RTVSPost2010Prop44ColorRGB
 90
      255
102
RTVSPost2010PropOp44
 70
     1
102
RTVSPost2010Prop45
280
     0
102
RTVSPost2010PropOp45
 70
     1
102
RTVSPost2010Prop46
 90
       50
102
RTVSPost2010PropOp46
 70
     1
102
RTVSPost2010Prop47
 90
       50
102
RTVSPost2010PropOp47
 70
     1
102
RTVSPost2010Prop48
 90
       50
102
RTVSPost2010PropOp48
 70
     1
102
RTVSPost2010Prop49
280
     0
102
RTVSPost2010PropOp49
 70
     1
102
RTVSPost2010Prop50
 90
       50
102
RTVSPost2010PropOp50
 70
     1
102
RTVSPost2010Prop51ColorIndex
 90
      256
102
RTVSPost2010Prop51ColorRGB
 90
-16777216
102
RTVSPost2010PropOp51
 70
     0
102
RTVSPost2010Prop52
140
1.0
102
RTVSPost2010PropOp52
 70
     0
102
RTVSPost2010Prop53
 90
        2
102
RTVSPost2010PropOp53
 70
     1
102
RTVSPost2010Prop54
  1
strokes_ogs.tif
102
RTVSPost2010PropOp54
 70
     1
102
RTVSPost2010Prop55
280
     0
102
RTVSPost2010PropOp55
 70
     1
102
RTVSPost2010Prop56
140
1.0
102
RTVSPost2010PropOp56
 70
     1
102
RTVSPost2010Prop57
140
1.0
102
RTVSPost2010PropOp57
 70
     1
102
RTVSPropertyOp0
 70
     1
102
RTVSPropertyOp1
 70
     1
102
RTVSPropertyOp2
 70
     1
102
RTVSPropertyOp3
 70
     1
102
RTVSPropertyOp4
 70
     1
102
RTVSPropertyOp5
 70
     1
102
RTVSPropertyOp6
 70
     1
102
RTVSPropertyOp7
 70
     1
102
RTVSPropertyOp8
 70
     1
102
RTVSPropertyOp9
 70
     1
102
RTVSPropertyOp10
 70
     1
102
RTVSPropertyOp11
 70
     1
102
RTVSPropertyOp12
 70
     1
102
RTVSPropertyOp13
 70
     1
102
RTVSPropertyOp14
 70
     1
102
RTVSPropertyOp15
 70
     1
102
RTVSPropertyOp16
 70
     1
102
RTVSPropertyOp17
 70
     1
102
RTVSPropertyOp18
 70
     1
102
RTVSPropertyOp19
 70
     1
102
RTVSPropertyOp20
 70
     1
102
RTVSPropertyOp21
 70
     1
102
RTVSPropertyOp22
 70
     1
102
RTVSPropertyOp23
 70
     1
102
RTVSPropertyOp24
 70
     1
102
RTVSPropertyOp25
 70
     1
102
RTVSPropertyOp26
 70
     1
102
RTVSPropertyOp27
 70
     1
102
RTVSPropertyOp28
 70
     1
102
RTVSPropertyOp29
 70
     1
102
RTVSPropertyOp30
 70
     1
102
RTVSPropertyOp31
 70
     1
102
RTVSPropertyOp32
 70
     1
102
RTVSPropertyOp33
 70
     1
102
RTVSPropertyOp34
 70
     1
102
RTVSPropertyOp35
 70
     1
102
RTVSPropertyOp36
 70
     1
102
RTVSPropertyOp37
 70
     1
102
RTVSPropertyOp38
 70
     1
102
RTVSPropertyOp39
 70
     1
102
RTVSPropertyOp40
 70
     1
102
RTVSPropertyOp41
 70
     1
102
RTVSPropertyOp42
 70
     1
102
RTVSPropertyOp43
 70
     1
102
RTVSPropertyOp44
 70
     1
102
RTVSPropertyOp45
 70
     1
102
RTVSPropertyOp46
 70
     1
102
RTVSPropertyOp47
 70
     1
102
RTVSPropertyOp48
 70
     1
102
RTVSPropertyOp49
 70
     1
102
RTVSPropertyOp50
 70
     1
102
RTVSPropertyOp51
 70
     0
102
RTVSPropertyOp52
 70
     0
102
RTVSPropertyOp53
 70
     1
102
RTVSPropertyOp54
 70
     1
102
RTVSPropertyOp55
 70
     1
102
RTVSPropertyOp56
 70
     1
102
RTVSPropertyOp57
 70
     1
102
RTVSPropertyOp58
 70
     1
102
RTVSPropertyOp59
 70
     1
102
RTVSPropertyOp60
 70
     1
102
RTVSPropertyOp61
 70
     1
102
RTVSPropertyOp62
 70
     1
  0
XRECORD
  5
63C
102
{ACAD_REACTORS
330
63B
102
}
330
63B
100
AcDbXrecord
280
     1
102
RTVSPost2010Prop28
280
     0
102
RTVSPost2010PropOp28
 70
     1
102
RTVSPost2010Prop29
280
     1
102
RTVSPost2010PropOp29
 70
     1
102
RTVSPost2010Prop30
280
     1
102
RTVSPost2010PropOp30
 70
     1
102
RTVSPost2010Prop31
280
     0
102
RTVSPost2010PropOp31
 70
     1
102
RTVSPost2010Prop32
280
     0
102
RTVSPost2010PropOp32
 70
     1
102
RTVSPost2010Prop33
280
     0
102
RTVSPost2010PropOp33
 70
     1
102
RTVSPost2010Prop34
280
     0
102
RTVSPost2010PropOp34
 70
     1
102
RTVSPost2010Prop35
280
     0
102
RTVSPost2010PropOp35
 70
     1
102
RTVSPost2010Prop36
280
     0
102
RTVSPost2010PropOp36
 70
     1
102
RTVSPost2010Prop37
 90
       50
102
RTVSPost2010PropOp37
 70
     1
102
RTVSPost2010Prop38
140
0.0
102
RTVSPost2010PropOp38
 70
     1
102
RTVSPost2010Prop39
140
1.0
102
RTVSPost2010PropOp39
 70
     1
102
RTVSPost2010Prop40
 90
        0
102
RTVSPost2010PropOp40
 70
     1
102
RTVSPost2010Prop41ColorIndex
 90
       18
102
RTVSPost2010Prop41ColorRGB
 90
        0
102
RTVSPost2010PropOp41
 70
     1
102
RTVSPost2010Prop42
 90
       50
102
RTVSPost2010PropOp42
 70
     1
102
RTVSPost2010Prop43
 90
        3
102
RTVSPost2010PropOp43
 70
     1
102
RTVSPost2010Prop44ColorIndex
 90
        5
102
RTVSPost2010Prop44ColorRGB
 90
      255
102
RTVSPost2010PropOp44
 70
     1
102
RTVSPost2010Prop45
280
     0
102
RTVSPost2010PropOp45
 70
     1
102
RTVSPost2010Prop46
 90
       50
102
RTVSPost2010PropOp46
 70
     1
102
RTVSPost2010Prop47
 90
       50
102
RTVSPost2010PropOp47
 70
     1
102
RTVSPost2010Prop48
 90
       50
102
RTVSPost2010PropOp48
 70
     1
102
RTVSPost2010Prop49
280
     0
102
RTVSPost2010PropOp49
 70
     1
102
RTVSPost2010Prop50
 90
       50
102
RTVSPost2010PropOp50
 70
     1
102
RTVSPost2010Prop51ColorIndex
 90
      256
102
RTVSPost2010Prop51ColorRGB
 90
-16777216
102
RTVSPost2010PropOp51
 70
     0
102
RTVSPost2010Prop52
140
1.0
102
RTVSPost2010PropOp52
 70
     0
102
RTVSPost2010Prop53
 90
        2
102
RTVSPost2010PropOp53
 70
     1
102
RTVSPost2010Prop54
  1
strokes_ogs.tif
102
RTVSPost2010PropOp54
 70
     1
102
RTVSPost2010Prop55
280
     0
102
RTVSPost2010PropOp55
 70
     1
102
RTVSPost2010Prop56
140
1.0
102
RTVSPost2010PropOp56
 70
     1
102
RTVSPost2010Prop57
140
1.0
102
RTVSPost2010PropOp57
 70
     1
102
RTVSPropertyOp0
 70
     1
102
RTVSPropertyOp1
 70
     1
102
RTVSPropertyOp2
 70
     1
102
RTVSPropertyOp3
 70
     1
102
RTVSPropertyOp4
 70
     1
102
RTVSPropertyOp5
 70
     1
102
RTVSPropertyOp6
 70
     1
102
RTVSPropertyOp7
 70
     1
102
RTVSPropertyOp8
 70
     1
102
RTVSPropertyOp9
 70
     1
102
RTVSPropertyOp10
 70
     1
102
RTVSPropertyOp11
 70
     1
102
RTVSPropertyOp12
 70
     1
102
RTVSPropertyOp13
 70
     1
102
RTVSPropertyOp14
 70
     1
102
RTVSPropertyOp15
 70
     1
102
RTVSPropertyOp16
 70
     1
102
RTVSPropertyOp17
 70
     1
102
RTVSPropertyOp18
 70
     1
102
RTVSPropertyOp19
 70
     1
102
RTVSPropertyOp20
 70
     1
102
RTVSPropertyOp21
 70
     1
102
RTVSPropertyOp22
 70
     1
102
RTVSPropertyOp23
 70
     1
102
RTVSPropertyOp24
 70
     1
102
RTVSPropertyOp25
 70
     1
102
RTVSPropertyOp26
 70
     1
102
RTVSPropertyOp27
 70
     1
102
RTVSPropertyOp28
 70
     1
102
RTVSPropertyOp29
 70
     1
102
RTVSPropertyOp30
 70
     1
102
RTVSPropertyOp31
 70
     1
102
RTVSPropertyOp32
 70
     1
102
RTVSPropertyOp33
 70
     1
102
RTVSPropertyOp34
 70
     1
102
RTVSPropertyOp35
 70
     1
102
RTVSPropertyOp36
 70
     1
102
RTVSPropertyOp37
 70
     1
102
RTVSPropertyOp38
 70
     1
102
RTVSPropertyOp39
 70
     1
102
RTVSPropertyOp40
 70
     1
102
RTVSPropertyOp41
 70
     1
102
RTVSPropertyOp42
 70
     1
102
RTVSPropertyOp43
 70
     1
102
RTVSPropertyOp44
 70
     1
102
RTVSPropertyOp45
 70
     1
102
RTVSPropertyOp46
 70
     1
102
RTVSPropertyOp47
 70
     1
102
RTVSPropertyOp48
 70
     1
102
RTVSPropertyOp49
 70
     1
102
RTVSPropertyOp50
 70
     1
102
RTVSPropertyOp51
 70
     0
102
RTVSPropertyOp52
 70
     0
102
RTVSPropertyOp53
 70
     1
102
RTVSPropertyOp54
 70
     1
102
RTVSPropertyOp55
 70
     1
102
RTVSPropertyOp56
 70
     1
102
RTVSPropertyOp57
 70
     1
102
RTVSPropertyOp58
 70
     1
102
RTVSPropertyOp59
 70
     1
102
RTVSPropertyOp60
 70
     1
102
RTVSPropertyOp61
 70
     1
102
RTVSPropertyOp62
 70
     1
  0
XRECORD
  5
636
102
{ACAD_REACTORS
330
635
102
}
330
635
100
AcDbXrecord
280
     1
102
RTVSPost2010Prop28
280
     0
102
RTVSPost2010PropOp28
 70
     1
102
RTVSPost2010Prop29
280
     1
102
RTVSPost2010PropOp29
 70
     1
102
RTVSPost2010Prop30
280
     1
102
RTVSPost2010PropOp30
 70
     1
102
RTVSPost2010Prop31
280
     0
102
RTVSPost2010PropOp31
 70
     1
102
RTVSPost2010Prop32
280
     0
102
RTVSPost2010PropOp32
 70
     1
102
RTVSPost2010Prop33
280
     0
102
RTVSPost2010PropOp33
 70
     1
102
RTVSPost2010Prop34
280
     0
102
RTVSPost2010PropOp34
 70
     1
102
RTVSPost2010Prop35
280
     0
102
RTVSPost2010PropOp35
 70
     1
102
RTVSPost2010Prop36
280
     0
102
RTVSPost2010PropOp36
 70
     1
102
RTVSPost2010Prop37
 90
       50
102
RTVSPost2010PropOp37
 70
     1
102
RTVSPost2010Prop38
140
0.0
102
RTVSPost2010PropOp38
 70
     1
102
RTVSPost2010Prop39
140
1.0
102
RTVSPost2010PropOp39
 70
     1
102
RTVSPost2010Prop40
 90
        0
102
RTVSPost2010PropOp40
 70
     1
102
RTVSPost2010Prop41ColorIndex
 90
       18
102
RTVSPost2010Prop41ColorRGB
 90
        0
102
RTVSPost2010PropOp41
 70
     1
102
RTVSPost2010Prop42
 90
       50
102
RTVSPost2010PropOp42
 70
     1
102
RTVSPost2010Prop43
 90
        3
102
RTVSPost2010PropOp43
 70
     1
102
RTVSPost2010Prop44ColorIndex
 90
        5
102
RTVSPost2010Prop44ColorRGB
 90
      255
102
RTVSPost2010PropOp44
 70
     1
102
RTVSPost2010Prop45
280
     0
102
RTVSPost2010PropOp45
 70
     1
102
RTVSPost2010Prop46
 90
       50
102
RTVSPost2010PropOp46
 70
     1
102
RTVSPost2010Prop47
 90
       50
102
RTVSPost2010PropOp47
 70
     1
102
RTVSPost2010Prop48
 90
       50
102
RTVSPost2010PropOp48
 70
     1
102
RTVSPost2010Prop49
280
     0
102
RTVSPost2010PropOp49
 70
     1
102
RTVSPost2010Prop50
 90
       50
102
RTVSPost2010PropOp50
 70
     1
102
RTVSPost2010Prop51ColorIndex
 90
      256
102
RTVSPost2010Prop51ColorRGB
 90
-16777216
102
RTVSPost2010PropOp51
 70
     0
102
RTVSPost2010Prop52
140
1.0
102
RTVSPost2010PropOp52
 70
     0
102
RTVSPost2010Prop53
 90
        2
102
RTVSPost2010PropOp53
 70
     1
102
RTVSPost2010Prop54
  1
strokes_ogs.tif
102
RTVSPost2010PropOp54
 70
     1
102
RTVSPost2010Prop55
280
     0
102
RTVSPost2010PropOp55
 70
     1
102
RTVSPost2010Prop56
140
1.0
102
RTVSPost2010PropOp56
 70
     1
102
RTVSPost2010Prop57
140
1.0
102
RTVSPost2010PropOp57
 70
     1
102
RTVSPropertyOp0
 70
     1
102
RTVSPropertyOp1
 70
     1
102
RTVSPropertyOp2
 70
     1
102
RTVSPropertyOp3
 70
     1
102
RTVSPropertyOp4
 70
     1
102
RTVSPropertyOp5
 70
     1
102
RTVSPropertyOp6
 70
     1
102
RTVSPropertyOp7
 70
     1
102
RTVSPropertyOp8
 70
     1
102
RTVSPropertyOp9
 70
     1
102
RTVSPropertyOp10
 70
     1
102
RTVSPropertyOp11
 70
     1
102
RTVSPropertyOp12
 70
     1
102
RTVSPropertyOp13
 70
     1
102
RTVSPropertyOp14
 70
     1
102
RTVSPropertyOp15
 70
     1
102
RTVSPropertyOp16
 70
     1
102
RTVSPropertyOp17
 70
     1
102
RTVSPropertyOp18
 70
     1
102
RTVSPropertyOp19
 70
     1
102
RTVSPropertyOp20
 70
     1
102
RTVSPropertyOp21
 70
     1
102
RTVSPropertyOp22
 70
     1
102
RTVSPropertyOp23
 70
     1
102
RTVSPropertyOp24
 70
     1
102
RTVSPropertyOp25
 70
     1
102
RTVSPropertyOp26
 70
     1
102
RTVSPropertyOp27
 70
     1
102
RTVSPropertyOp28
 70
     1
102
RTVSPropertyOp29
 70
     1
102
RTVSPropertyOp30
 70
     1
102
RTVSPropertyOp31
 70
     1
102
RTVSPropertyOp32
 70
     1
102
RTVSPropertyOp33
 70
     1
102
RTVSPropertyOp34
 70
     1
102
RTVSPropertyOp35
 70
     1
102
RTVSPropertyOp36
 70
     1
102
RTVSPropertyOp37
 70
     1
102
RTVSPropertyOp38
 70
     1
102
RTVSPropertyOp39
 70
     1
102
RTVSPropertyOp40
 70
     1
102
RTVSPropertyOp41
 70
     1
102
RTVSPropertyOp42
 70
     1
102
RTVSPropertyOp43
 70
     1
102
RTVSPropertyOp44
 70
     1
102
RTVSPropertyOp45
 70
     1
102
RTVSPropertyOp46
 70
     1
102
RTVSPropertyOp47
 70
     1
102
RTVSPropertyOp48
 70
     1
102
RTVSPropertyOp49
 70
     1
102
RTVSPropertyOp50
 70
     1
102
RTVSPropertyOp51
 70
     0
102
RTVSPropertyOp52
 70
     0
102
RTVSPropertyOp53
 70
     1
102
RTVSPropertyOp54
 70
     1
102
RTVSPropertyOp55
 70
     1
102
RTVSPropertyOp56
 70
     1
102
RTVSPropertyOp57
 70
     1
102
RTVSPropertyOp58
 70
     1
102
RTVSPropertyOp59
 70
     1
102
RTVSPropertyOp60
 70
     1
102
RTVSPropertyOp61
 70
     1
102
RTVSPropertyOp62
 70
     1
  0
XRECORD
  5
638
102
{ACAD_REACTORS
330
637
102
}
330
637
100
AcDbXrecord
280
     1
102
RTVSPost2010Prop28
280
     0
102
RTVSPost2010PropOp28
 70
     1
102
RTVSPost2010Prop29
280
     1
102
RTVSPost2010PropOp29
 70
     1
102
RTVSPost2010Prop30
280
     1
102
RTVSPost2010PropOp30
 70
     1
102
RTVSPost2010Prop31
280
     0
102
RTVSPost2010PropOp31
 70
     1
102
RTVSPost2010Prop32
280
     0
102
RTVSPost2010PropOp32
 70
     1
102
RTVSPost2010Prop33
280
     0
102
RTVSPost2010PropOp33
 70
     1
102
RTVSPost2010Prop34
280
     0
102
RTVSPost2010PropOp34
 70
     1
102
RTVSPost2010Prop35
280
     0
102
RTVSPost2010PropOp35
 70
     1
102
RTVSPost2010Prop36
280
     0
102
RTVSPost2010PropOp36
 70
     1
102
RTVSPost2010Prop37
 90
       50
102
RTVSPost2010PropOp37
 70
     1
102
RTVSPost2010Prop38
140
0.0
102
RTVSPost2010PropOp38
 70
     1
102
RTVSPost2010Prop39
140
1.0
102
RTVSPost2010PropOp39
 70
     1
102
RTVSPost2010Prop40
 90
        0
102
RTVSPost2010PropOp40
 70
     1
102
RTVSPost2010Prop41ColorIndex
 90
       18
102
RTVSPost2010Prop41ColorRGB
 90
        0
102
RTVSPost2010PropOp41
 70
     1
102
RTVSPost2010Prop42
 90
       50
102
RTVSPost2010PropOp42
 70
     1
102
RTVSPost2010Prop43
 90
        3
102
RTVSPost2010PropOp43
 70
     1
102
RTVSPost2010Prop44ColorIndex
 90
        5
102
RTVSPost2010Prop44ColorRGB
 90
      255
102
RTVSPost2010PropOp44
 70
     1
102
RTVSPost2010Prop45
280
     0
102
RTVSPost2010PropOp45
 70
     1
102
RTVSPost2010Prop46
 90
       50
102
RTVSPost2010PropOp46
 70
     1
102
RTVSPost2010Prop47
 90
       50
102
RTVSPost2010PropOp47
 70
     1
102
RTVSPost2010Prop48
 90
       50
102
RTVSPost2010PropOp48
 70
     1
102
RTVSPost2010Prop49
280
     0
102
RTVSPost2010PropOp49
 70
     1
102
RTVSPost2010Prop50
 90
       50
102
RTVSPost2010PropOp50
 70
     1
102
RTVSPost2010Prop51ColorIndex
 90
      256
102
RTVSPost2010Prop51ColorRGB
 90
-16777216
102
RTVSPost2010PropOp51
 70
     0
102
RTVSPost2010Prop52
140
1.0
102
RTVSPost2010PropOp52
 70
     0
102
RTVSPost2010Prop53
 90
        2
102
RTVSPost2010PropOp53
 70
     1
102
RTVSPost2010Prop54
  1
strokes_ogs.tif
102
RTVSPost2010PropOp54
 70
     1
102
RTVSPost2010Prop55
280
     0
102
RTVSPost2010PropOp55
 70
     1
102
RTVSPost2010Prop56
140
1.0
102
RTVSPost2010PropOp56
 70
     1
102
RTVSPost2010Prop57
140
1.0
102
RTVSPost2010PropOp57
 70
     1
102
RTVSPropertyOp0
 70
     1
102
RTVSPropertyOp1
 70
     1
102
RTVSPropertyOp2
 70
     1
102
RTVSPropertyOp3
 70
     1
102
RTVSPropertyOp4
 70
     1
102
RTVSPropertyOp5
 70
     1
102
RTVSPropertyOp6
 70
     1
102
RTVSPropertyOp7
 70
     1
102
RTVSPropertyOp8
 70
     1
102
RTVSPropertyOp9
 70
     1
102
RTVSPropertyOp10
 70
     1
102
RTVSPropertyOp11
 70
     1
102
RTVSPropertyOp12
 70
     1
102
RTVSPropertyOp13
 70
     1
102
RTVSPropertyOp14
 70
     1
102
RTVSPropertyOp15
 70
     1
102
RTVSPropertyOp16
 70
     1
102
RTVSPropertyOp17
 70
     1
102
RTVSPropertyOp18
 70
     1
102
RTVSPropertyOp19
 70
     1
102
RTVSPropertyOp20
 70
     1
102
RTVSPropertyOp21
 70
     1
102
RTVSPropertyOp22
 70
     1
102
RTVSPropertyOp23
 70
     1
102
RTVSPropertyOp24
 70
     1
102
RTVSPropertyOp25
 70
     1
102
RTVSPropertyOp26
 70
     1
102
RTVSPropertyOp27
 70
     1
102
RTVSPropertyOp28
 70
     1
102
RTVSPropertyOp29
 70
     1
102
RTVSPropertyOp30
 70
     1
102
RTVSPropertyOp31
 70
     1
102
RTVSPropertyOp32
 70
     1
102
RTVSPropertyOp33
 70
     1
102
RTVSPropertyOp34
 70
     1
102
RTVSPropertyOp35
 70
     1
102
RTVSPropertyOp36
 70
     1
102
RTVSPropertyOp37
 70
     1
102
RTVSPropertyOp38
 70
     1
102
RTVSPropertyOp39
 70
     1
102
RTVSPropertyOp40
 70
     1
102
RTVSPropertyOp41
 70
     1
102
RTVSPropertyOp42
 70
     1
102
RTVSPropertyOp43
 70
     1
102
RTVSPropertyOp44
 70
     1
102
RTVSPropertyOp45
 70
     1
102
RTVSPropertyOp46
 70
     1
102
RTVSPropertyOp47
 70
     1
102
RTVSPropertyOp48
 70
     1
102
RTVSPropertyOp49
 70
     1
102
RTVSPropertyOp50
 70
     1
102
RTVSPropertyOp51
 70
     0
102
RTVSPropertyOp52
 70
     0
102
RTVSPropertyOp53
 70
     1
102
RTVSPropertyOp54
 70
     1
102
RTVSPropertyOp55
 70
     1
102
RTVSPropertyOp56
 70
     1
102
RTVSPropertyOp57
 70
     1
102
RTVSPropertyOp58
 70
     1
102
RTVSPropertyOp59
 70
     1
102
RTVSPropertyOp60
 70
     1
102
RTVSPropertyOp61
 70
     1
102
RTVSPropertyOp62
 70
     1
  0
XRECORD
  5
62E
102
{ACAD_REACTORS
330
62D
102
}
330
62D
100
AcDbXrecord
280
     1
102
RTVSPost2010Prop28
280
     0
102
RTVSPost2010PropOp28
 70
     1
102
RTVSPost2010Prop29
280
     1
102
RTVSPost2010PropOp29
 70
     1
102
RTVSPost2010Prop30
280
     1
102
RTVSPost2010PropOp30
 70
     1
102
RTVSPost2010Prop31
280
     0
102
RTVSPost2010PropOp31
 70
     1
102
RTVSPost2010Prop32
280
     0
102
RTVSPost2010PropOp32
 70
     1
102
RTVSPost2010Prop33
280
     0
102
RTVSPost2010PropOp33
 70
     1
102
RTVSPost2010Prop34
280
     0
102
RTVSPost2010PropOp34
 70
     1
102
RTVSPost2010Prop35
280
     0
102
RTVSPost2010PropOp35
 70
     1
102
RTVSPost2010Prop36
280
     0
102
RTVSPost2010PropOp36
 70
     1
102
RTVSPost2010Prop37
 90
       50
102
RTVSPost2010PropOp37
 70
     1
102
RTVSPost2010Prop38
140
0.0
102
RTVSPost2010PropOp38
 70
     1
102
RTVSPost2010Prop39
140
1.0
102
RTVSPost2010PropOp39
 70
     1
102
RTVSPost2010Prop40
 90
        0
102
RTVSPost2010PropOp40
 70
     1
102
RTVSPost2010Prop41ColorIndex
 90
       18
102
RTVSPost2010Prop41ColorRGB
 90
        0
102
RTVSPost2010PropOp41
 70
     1
102
RTVSPost2010Prop42
 90
       50
102
RTVSPost2010PropOp42
 70
     1
102
RTVSPost2010Prop43
 90
        3
102
RTVSPost2010PropOp43
 70
     1
102
RTVSPost2010Prop44ColorIndex
 90
        5
102
RTVSPost2010Prop44ColorRGB
 90
      255
102
RTVSPost2010PropOp44
 70
     1
102
RTVSPost2010Prop45
280
     0
102
RTVSPost2010PropOp45
 70
     1
102
RTVSPost2010Prop46
 90
       50
102
RTVSPost2010PropOp46
 70
     1
102
RTVSPost2010Prop47
 90
       50
102
RTVSPost2010PropOp47
 70
     1
102
RTVSPost2010Prop48
 90
       50
102
RTVSPost2010PropOp48
 70
     1
102
RTVSPost2010Prop49
280
     0
102
RTVSPost2010PropOp49
 70
     1
102
RTVSPost2010Prop50
 90
       50
102
RTVSPost2010PropOp50
 70
     1
102
RTVSPost2010Prop51ColorIndex
 90
      256
102
RTVSPost2010Prop51ColorRGB
 90
-16777216
102
RTVSPost2010PropOp51
 70
     0
102
RTVSPost2010Prop52
140
1.0
102
RTVSPost2010PropOp52
 70
     0
102
RTVSPost2010Prop53
 90
        2
102
RTVSPost2010PropOp53
 70
     1
102
RTVSPost2010Prop54
  1
strokes_ogs.tif
102
RTVSPost2010PropOp54
 70
     1
102
RTVSPost2010Prop55
280
     0
102
RTVSPost2010PropOp55
 70
     1
102
RTVSPost2010Prop56
140
1.0
102
RTVSPost2010PropOp56
 70
     1
102
RTVSPost2010Prop57
140
1.0
102
RTVSPost2010PropOp57
 70
     1
102
RTVSPropertyOp0
 70
     1
102
RTVSPropertyOp1
 70
     1
102
RTVSPropertyOp2
 70
     1
102
RTVSPropertyOp3
 70
     1
102
RTVSPropertyOp4
 70
     1
102
RTVSPropertyOp5
 70
     1
102
RTVSPropertyOp6
 70
     1
102
RTVSPropertyOp7
 70
     1
102
RTVSPropertyOp8
 70
     1
102
RTVSPropertyOp9
 70
     1
102
RTVSPropertyOp10
 70
     1
102
RTVSPropertyOp11
 70
     1
102
RTVSPropertyOp12
 70
     1
102
RTVSPropertyOp13
 70
     1
102
RTVSPropertyOp14
 70
     1
102
RTVSPropertyOp15
 70
     1
102
RTVSPropertyOp16
 70
     1
102
RTVSPropertyOp17
 70
     1
102
RTVSPropertyOp18
 70
     1
102
RTVSPropertyOp19
 70
     1
102
RTVSPropertyOp20
 70
     1
102
RTVSPropertyOp21
 70
     1
102
RTVSPropertyOp22
 70
     1
102
RTVSPropertyOp23
 70
     1
102
RTVSPropertyOp24
 70
     1
102
RTVSPropertyOp25
 70
     1
102
RTVSPropertyOp26
 70
     1
102
RTVSPropertyOp27
 70
     1
102
RTVSPropertyOp28
 70
     1
102
RTVSPropertyOp29
 70
     1
102
RTVSPropertyOp30
 70
     1
102
RTVSPropertyOp31
 70
     1
102
RTVSPropertyOp32
 70
     1
102
RTVSPropertyOp33
 70
     1
102
RTVSPropertyOp34
 70
     1
102
RTVSPropertyOp35
 70
     1
102
RTVSPropertyOp36
 70
     1
102
RTVSPropertyOp37
 70
     1
102
RTVSPropertyOp38
 70
     1
102
RTVSPropertyOp39
 70
     1
102
RTVSPropertyOp40
 70
     1
102
RTVSPropertyOp41
 70
     1
102
RTVSPropertyOp42
 70
     1
102
RTVSPropertyOp43
 70
     1
102
RTVSPropertyOp44
 70
     1
102
RTVSPropertyOp45
 70
     1
102
RTVSPropertyOp46
 70
     1
102
RTVSPropertyOp47
 70
     1
102
RTVSPropertyOp48
 70
     1
102
RTVSPropertyOp49
 70
     1
102
RTVSPropertyOp50
 70
     1
102
RTVSPropertyOp51
 70
     0
102
RTVSPropertyOp52
 70
     0
102
RTVSPropertyOp53
 70
     1
102
RTVSPropertyOp54
 70
     1
102
RTVSPropertyOp55
 70
     1
102
RTVSPropertyOp56
 70
     1
102
RTVSPropertyOp57
 70
     1
102
RTVSPropertyOp58
 70
     1
102
RTVSPropertyOp59
 70
     1
102
RTVSPropertyOp60
 70
     1
102
RTVSPropertyOp61
 70
     1
102
RTVSPropertyOp62
 70
     1
  0
XRECORD
  5
622
102
{ACAD_REACTORS
330
621
102
}
330
621
100
AcDbXrecord
280
     1
102
RTVSPost2010Prop28
280
     0
102
RTVSPost2010PropOp28
 70
     1
102
RTVSPost2010Prop29
280
     1
102
RTVSPost2010PropOp29
 70
     1
102
RTVSPost2010Prop30
280
     1
102
RTVSPost2010PropOp30
 70
     1
102
RTVSPost2010Prop31
280
     0
102
RTVSPost2010PropOp31
 70
     1
102
RTVSPost2010Prop32
280
     0
102
RTVSPost2010PropOp32
 70
     1
102
RTVSPost2010Prop33
280
     0
102
RTVSPost2010PropOp33
 70
     1
102
RTVSPost2010Prop34
280
     0
102
RTVSPost2010PropOp34
 70
     1
102
RTVSPost2010Prop35
280
     0
102
RTVSPost2010PropOp35
 70
     1
102
RTVSPost2010Prop36
280
     0
102
RTVSPost2010PropOp36
 70
     1
102
RTVSPost2010Prop37
 90
       50
102
RTVSPost2010PropOp37
 70
     1
102
RTVSPost2010Prop38
140
0.0
102
RTVSPost2010PropOp38
 70
     1
102
RTVSPost2010Prop39
140
1.0
102
RTVSPost2010PropOp39
 70
     1
102
RTVSPost2010Prop40
 90
        0
102
RTVSPost2010PropOp40
 70
     1
102
RTVSPost2010Prop41ColorIndex
 90
       18
102
RTVSPost2010Prop41ColorRGB
 90
        0
102
RTVSPost2010PropOp41
 70
     1
102
RTVSPost2010Prop42
 90
       50
102
RTVSPost2010PropOp42
 70
     1
102
RTVSPost2010Prop43
 90
        3
102
RTVSPost2010PropOp43
 70
     1
102
RTVSPost2010Prop44ColorIndex
 90
        5
102
RTVSPost2010Prop44ColorRGB
 90
      255
102
RTVSPost2010PropOp44
 70
     1
102
RTVSPost2010Prop45
280
     0
102
RTVSPost2010PropOp45
 70
     1
102
RTVSPost2010Prop46
 90
       50
102
RTVSPost2010PropOp46
 70
     1
102
RTVSPost2010Prop47
 90
       50
102
RTVSPost2010PropOp47
 70
     1
102
RTVSPost2010Prop48
 90
       50
102
RTVSPost2010PropOp48
 70
     1
102
RTVSPost2010Prop49
280
     0
102
RTVSPost2010PropOp49
 70
     1
102
RTVSPost2010Prop50
 90
       50
102
RTVSPost2010PropOp50
 70
     1
102
RTVSPost2010Prop51ColorIndex
 90
      256
102
RTVSPost2010Prop51ColorRGB
 90
-16777216
102
RTVSPost2010PropOp51
 70
     0
102
RTVSPost2010Prop52
140
1.0
102
RTVSPost2010PropOp52
 70
     0
102
RTVSPost2010Prop53
 90
        2
102
RTVSPost2010PropOp53
 70
     1
102
RTVSPost2010Prop54
  1
strokes_ogs.tif
102
RTVSPost2010PropOp54
 70
     1
102
RTVSPost2010Prop55
280
     0
102
RTVSPost2010PropOp55
 70
     1
102
RTVSPost2010Prop56
140
1.0
102
RTVSPost2010PropOp56
 70
     1
102
RTVSPost2010Prop57
140
1.0
102
RTVSPost2010PropOp57
 70
     1
102
RTVSPropertyOp0
 70
     1
102
RTVSPropertyOp1
 70
     1
102
RTVSPropertyOp2
 70
     1
102
RTVSPropertyOp3
 70
     1
102
RTVSPropertyOp4
 70
     1
102
RTVSPropertyOp5
 70
     1
102
RTVSPropertyOp6
 70
     1
102
RTVSPropertyOp7
 70
     1
102
RTVSPropertyOp8
 70
     1
102
RTVSPropertyOp9
 70
     1
102
RTVSPropertyOp10
 70
     1
102
RTVSPropertyOp11
 70
     1
102
RTVSPropertyOp12
 70
     1
102
RTVSPropertyOp13
 70
     1
102
RTVSPropertyOp14
 70
     1
102
RTVSPropertyOp15
 70
     1
102
RTVSPropertyOp16
 70
     1
102
RTVSPropertyOp17
 70
     1
102
RTVSPropertyOp18
 70
     1
102
RTVSPropertyOp19
 70
     1
102
RTVSPropertyOp20
 70
     1
102
RTVSPropertyOp21
 70
     1
102
RTVSPropertyOp22
 70
     1
102
RTVSPropertyOp23
 70
     1
102
RTVSPropertyOp24
 70
     1
102
RTVSPropertyOp25
 70
     1
102
RTVSPropertyOp26
 70
     1
102
RTVSPropertyOp27
 70
     1
102
RTVSPropertyOp28
 70
     1
102
RTVSPropertyOp29
 70
     1
102
RTVSPropertyOp30
 70
     1
102
RTVSPropertyOp31
 70
     1
102
RTVSPropertyOp32
 70
     1
102
RTVSPropertyOp33
 70
     1
102
RTVSPropertyOp34
 70
     1
102
RTVSPropertyOp35
 70
     1
102
RTVSPropertyOp36
 70
     1
102
RTVSPropertyOp37
 70
     1
102
RTVSPropertyOp38
 70
     1
102
RTVSPropertyOp39
 70
     1
102
RTVSPropertyOp40
 70
     1
102
RTVSPropertyOp41
 70
     1
102
RTVSPropertyOp42
 70
     1
102
RTVSPropertyOp43
 70
     1
102
RTVSPropertyOp44
 70
     1
102
RTVSPropertyOp45
 70
     1
102
RTVSPropertyOp46
 70
     1
102
RTVSPropertyOp47
 70
     1
102
RTVSPropertyOp48
 70
     1
102
RTVSPropertyOp49
 70
     1
102
RTVSPropertyOp50
 70
     1
102
RTVSPropertyOp51
 70
     0
102
RTVSPropertyOp52
 70
     0
102
RTVSPropertyOp53
 70
     1
102
RTVSPropertyOp54
 70
     1
102
RTVSPropertyOp55
 70
     1
102
RTVSPropertyOp56
 70
     1
102
RTVSPropertyOp57
 70
     1
102
RTVSPropertyOp58
 70
     1
102
RTVSPropertyOp59
 70
     1
102
RTVSPropertyOp60
 70
     1
102
RTVSPropertyOp61
 70
     1
102
RTVSPropertyOp62
 70
     1
  0
XRECORD
  5
63A
102
{ACAD_REACTORS
330
639
102
}
330
639
100
AcDbXrecord
280
     1
102
RTVSPost2010Prop28
280
     0
102
RTVSPost2010PropOp28
 70
     1
102
RTVSPost2010Prop29
280
     1
102
RTVSPost2010PropOp29
 70
     1
102
RTVSPost2010Prop30
280
     1
102
RTVSPost2010PropOp30
 70
     1
102
RTVSPost2010Prop31
280
     0
102
RTVSPost2010PropOp31
 70
     1
102
RTVSPost2010Prop32
280
     0
102
RTVSPost2010PropOp32
 70
     1
102
RTVSPost2010Prop33
280
     0
102
RTVSPost2010PropOp33
 70
     1
102
RTVSPost2010Prop34
280
     0
102
RTVSPost2010PropOp34
 70
     1
102
RTVSPost2010Prop35
280
     0
102
RTVSPost2010PropOp35
 70
     1
102
RTVSPost2010Prop36
280
     0
102
RTVSPost2010PropOp36
 70
     1
102
RTVSPost2010Prop37
 90
       50
102
RTVSPost2010PropOp37
 70
     1
102
RTVSPost2010Prop38
140
0.0
102
RTVSPost2010PropOp38
 70
     1
102
RTVSPost2010Prop39
140
1.0
102
RTVSPost2010PropOp39
 70
     1
102
RTVSPost2010Prop40
 90
        0
102
RTVSPost2010PropOp40
 70
     1
102
RTVSPost2010Prop41ColorIndex
 90
       18
102
RTVSPost2010Prop41ColorRGB
 90
        0
102
RTVSPost2010PropOp41
 70
     1
102
RTVSPost2010Prop42
 90
       50
102
RTVSPost2010PropOp42
 70
     1
102
RTVSPost2010Prop43
 90
        3
102
RTVSPost2010PropOp43
 70
     1
102
RTVSPost2010Prop44ColorIndex
 90
        5
102
RTVSPost2010Prop44ColorRGB
 90
      255
102
RTVSPost2010PropOp44
 70
     1
102
RTVSPost2010Prop45
280
     0
102
RTVSPost2010PropOp45
 70
     1
102
RTVSPost2010Prop46
 90
       50
102
RTVSPost2010PropOp46
 70
     1
102
RTVSPost2010Prop47
 90
       50
102
RTVSPost2010PropOp47
 70
     1
102
RTVSPost2010Prop48
 90
       50
102
RTVSPost2010PropOp48
 70
     1
102
RTVSPost2010Prop49
280
     0
102
RTVSPost2010PropOp49
 70
     1
102
RTVSPost2010Prop50
 90
       50
102
RTVSPost2010PropOp50
 70
     1
102
RTVSPost2010Prop51ColorIndex
 90
      256
102
RTVSPost2010Prop51ColorRGB
 90
-16777216
102
RTVSPost2010PropOp51
 70
     0
102
RTVSPost2010Prop52
140
1.0
102
RTVSPost2010PropOp52
 70
     0
102
RTVSPost2010Prop53
 90
        2
102
RTVSPost2010PropOp53
 70
     1
102
RTVSPost2010Prop54
  1
strokes_ogs.tif
102
RTVSPost2010PropOp54
 70
     1
102
RTVSPost2010Prop55
280
     0
102
RTVSPost2010PropOp55
 70
     1
102
RTVSPost2010Prop56
140
1.0
102
RTVSPost2010PropOp56
 70
     1
102
RTVSPost2010Prop57
140
1.0
102
RTVSPost2010PropOp57
 70
     1
102
RTVSPropertyOp0
 70
     1
102
RTVSPropertyOp1
 70
     1
102
RTVSPropertyOp2
 70
     1
102
RTVSPropertyOp3
 70
     1
102
RTVSPropertyOp4
 70
     1
102
RTVSPropertyOp5
 70
     1
102
RTVSPropertyOp6
 70
     1
102
RTVSPropertyOp7
 70
     1
102
RTVSPropertyOp8
 70
     1
102
RTVSPropertyOp9
 70
     1
102
RTVSPropertyOp10
 70
     1
102
RTVSPropertyOp11
 70
     1
102
RTVSPropertyOp12
 70
     1
102
RTVSPropertyOp13
 70
     1
102
RTVSPropertyOp14
 70
     1
102
RTVSPropertyOp15
 70
     1
102
RTVSPropertyOp16
 70
     1
102
RTVSPropertyOp17
 70
     1
102
RTVSPropertyOp18
 70
     1
102
RTVSPropertyOp19
 70
     1
102
RTVSPropertyOp20
 70
     1
102
RTVSPropertyOp21
 70
     1
102
RTVSPropertyOp22
 70
     1
102
RTVSPropertyOp23
 70
     1
102
RTVSPropertyOp24
 70
     1
102
RTVSPropertyOp25
 70
     1
102
RTVSPropertyOp26
 70
     1
102
RTVSPropertyOp27
 70
     1
102
RTVSPropertyOp28
 70
     1
102
RTVSPropertyOp29
 70
     1
102
RTVSPropertyOp30
 70
     1
102
RTVSPropertyOp31
 70
     1
102
RTVSPropertyOp32
 70
     1
102
RTVSPropertyOp33
 70
     1
102
RTVSPropertyOp34
 70
     1
102
RTVSPropertyOp35
 70
     1
102
RTVSPropertyOp36
 70
     1
102
RTVSPropertyOp37
 70
     1
102
RTVSPropertyOp38
 70
     1
102
RTVSPropertyOp39
 70
     1
102
RTVSPropertyOp40
 70
     1
102
RTVSPropertyOp41
 70
     1
102
RTVSPropertyOp42
 70
     1
102
RTVSPropertyOp43
 70
     1
102
RTVSPropertyOp44
 70
     1
102
RTVSPropertyOp45
 70
     1
102
RTVSPropertyOp46
 70
     1
102
RTVSPropertyOp47
 70
     1
102
RTVSPropertyOp48
 70
     1
102
RTVSPropertyOp49
 70
     1
102
RTVSPropertyOp50
 70
     1
102
RTVSPropertyOp51
 70
     0
102
RTVSPropertyOp52
 70
     0
102
RTVSPropertyOp53
 70
     1
102
RTVSPropertyOp54
 70
     1
102
RTVSPropertyOp55
 70
     1
102
RTVSPropertyOp56
 70
     1
102
RTVSPropertyOp57
 70
     1
102
RTVSPropertyOp58
 70
     1
102
RTVSPropertyOp59
 70
     1
102
RTVSPropertyOp60
 70
     1
102
RTVSPropertyOp61
 70
     1
102
RTVSPropertyOp62
 70
     1
  0
ENDSEC
  0
EOF
