  0
SECTION
  2
HEADER
  9
$ACADVER
  1
AC1009
  9
$INSBASE
 10
0.0
 20
0.0
 30
0.0
  9
$EXTMIN
 10
-1055.672974
 20
-1736.0
 30
0.0
  9
$EXTMAX
 10
929.873657
 20
737.740244
 30
0.0
  9
$LIMMIN
 10
0.0
 20
0.0
  9
$LIMMAX
 10
12.0
 20
9.0
  9
$ORTHOMODE
 70
     0
  9
$REGENMODE
 70
     1
  9
$FILLMODE
 70
     1
  9
$QTEXTMODE
 70
     0
  9
$MIRRTEXT
 70
     1
  9
$DRAGMODE
 70
     2
  9
$LTSCALE
 40
1.0
  9
$OSMODE
 70
     0
  9
$ATTMODE
 70
     1
  9
$TEXTSIZE
 40
40.0
  9
$TRACEWID
 40
0.05
  9
$TEXTSTYLE
  7
STANDARD1
  9
$CLAYER
  8
0
  9
$CELTYPE
  6
CONTINUOUS
  9
$CECOLOR
 62
   256
  9
$DIMSCALE
 40
1.0
  9
$DIMASZ
 40
10.0
  9
$DIMEXO
 40
10.0
  9
$DIMDLI
 40
8.0
  9
$DIMRND
 40
0.0
  9
$DIMDLE
 40
0.0
  9
$DIMEXE
 40
12.5
  9
$DIMTP
 40
0.0
  9
$DIMTM
 40
0.0
  9
$DIMTXT
 40
30.0
  9
$DIMCEN
 40
2.5
  9
$DIMTSZ
 40
0.0
  9
$DIMTOL
 70
     0
  9
$DIMLIM
 70
     0
  9
$DIMTIH
 70
     0
  9
$DIMTOH
 70
     0
  9
$DIMSE1
 70
     0
  9
$DIMSE2
 70
     0
  9
$DIMTAD
 70
     3
  9
$DIMZIN
 70
    12
  9
$DIMBLK
  1

  9
$DIMASO
 70
     1
  9
$DIMSHO
 70
     1
  9
$DIMPOST
  1

  9
$DIMAPOST
  1

  9
$DIMALT
 70
     0
  9
$DIMALTD
 70
     4
  9
$DIMALTF
 40
25.4
  9
$DIMLFAC
 40
1.0
  9
$DIMTOFL
 70
     1
  9
$DIMTVP
 40
0.0
  9
$DIMTIX
 70
     0
  9
$DIMSOXD
 70
     0
  9
$DIMSAH
 70
     1
  9
$DIMBLK1
  1
_ORIGIN
  9
$DIMBLK2
  1
_ORIGIN
  9
$DIMSTYLE
  2
STANDARD
  9
$DIMCLRD
 70
     0
  9
$DIMCLRE
 70
     0
  9
$DIMCLRT
 70
     0
  9
$DIMTFAC
 40
1.0
  9
$DIMGAP
 40
0.09
  9
$LUNITS
 70
     2
  9
$LUPREC
 70
     3
  9
$SKETCHINC
 40
0.1
  9
$FILLETRAD
 40
0.0
  9
$AUNITS
 70
     0
  9
$AUPREC
 70
     0
  9
$MENU
  1
acad
  9
$ELEVATION
 40
0.0
  9
$PELEVATION
 40
0.0
  9
$THICKNESS
 40
0.0
  9
$LIMCHECK
 70
     0
  9
$BLIPMODE
 70
     0
  9
$CHAMFERA
 40
0.0
  9
$CHAMFERB
 40
0.0
  9
$SKPOLY
 70
     0
  9
$TDCREATE
 40
2451878.919919
  9
$TDUPDATE
 40
2451878.919919
  9
$TDINDWG
 40
0.0
  9
$TDUSRTIMER
 40
0.0
  9
$USRTIMER
 70
     1
  9
$ANGBASE
 50
0.0
  9
$ANGDIR
 70
     0
  9
$PDMODE
 70
     0
  9
$PDSIZE
 40
0.0
  9
$PLINEWID
 40
0.0
  9
$COORDS
 70
     1
  9
$SPLFRAME
 70
     0
  9
$SPLINETYPE
 70
     6
  9
$SPLINESEGS
 70
     8
  9
$ATTDIA
 70
     0
  9
$ATTREQ
 70
     1
  9
$HANDLING
 70
     1
  9
$HANDSEED
  5
444
  9
$SURFTAB1
 70
     6
  9
$SURFTAB2
 70
     6
  9
$SURFTYPE
 70
     6
  9
$SURFU
 70
     6
  9
$SURFV
 70
     6
  9
$UCSNAME
  2

  9
$UCSORG
 10
0.0
 20
0.0
 30
0.0
  9
$UCSXDIR
 10
1.0
 20
0.0
 30
0.0
  9
$UCSYDIR
 10
0.0
 20
1.0
 30
0.0
  9
$PUCSNAME
  2

  9
$PUCSORG
 10
0.0
 20
0.0
 30
0.0
  9
$PUCSXDIR
 10
1.0
 20
0.0
 30
0.0
  9
$PUCSYDIR
 10
0.0
 20
1.0
 30
0.0
  9
$USERI1
 70
     0
  9
$USERI2
 70
     0
  9
$USERI3
 70
     0
  9
$USERI4
 70
     0
  9
$USERI5
 70
     0
  9
$USERR1
 40
0.0
  9
$USERR2
 40
0.0
  9
$USERR3
 40
0.0
  9
$USERR4
 40
0.0
  9
$USERR5
 40
0.0
  9
$WORLDVIEW
 70
     1
  9
$SHADEDGE
 70
     3
  9
$SHADEDIF
 70
    70
  9
$TILEMODE
 70
     1
  9
$MAXACTVP
 70
    48
  9
$PLIMCHECK
 70
     0
  9
$PEXTMIN
 10
1.000000E+020
 20
1.000000E+020
 30
1.000000E+020
  9
$PEXTMAX
 10
-1.000000E+020
 20
-1.000000E+020
 30
-1.000000E+020
  9
$PLIMMIN
 10
0.0
 20
0.0
  9
$PLIMMAX
 10
12.0
 20
9.0
  9
$UNITMODE
 70
     0
  9
$VISRETAIN
 70
     1
  9
$PLINEGEN
 70
     0
  9
$PSLTSCALE
 70
     1
  0
ENDSEC
  0
SECTION
  2
TABLES
  0
TABLE
  2
VPORT
 70
     2
  0
VPORT
  2
*ACTIVE
 70
     0
 10
0.0
 20
0.0
 11
1.0
 21
1.0
 12
-62.899659
 22
-499.129878
 13
0.0
 23
0.0
 14
1.0
 24
1.0
 15
0.0
 25
0.0
 16
0.0
 26
0.0
 36
1.0
 17
0.0
 27
0.0
 37
0.0
 40
2521.009165
 41
2.827476
 42
50.0
 43
0.0
 44
0.0
 50
0.0
 51
0.0
 71
     0
 72
   100
 73
     1
 74
     1
 75
     0
 76
     0
 77
     0
 78
     0
  0
ENDTAB
  0
TABLE
  2
LTYPE
 70
     4
  0
LTYPE
  2
CONTINUOUS
 70
     0
  3
Solid line
 72
    65
 73
     0
 40
0.0
  0
LTYPE
  2
DASHED
 70
     0
  3
-- -- -- -- -- -- -- -- -- -- -- -- -- -- --
 72
    65
 73
     2
 40
0.75
 49
0.5
 49
-0.25
  0
LTYPE
  2
DASHDOT
 70
     0
  3
__ . __ . __ . __ . __ . __ . __ . __ . __ . __
 72
    65
 73
     4
 40
125.0
 49
80.0
 49
-20.0
 49
5.0
 49
-20.0
  0
LTYPE
  2
DIVIDE
 70
     0
  3
__ . . __ . . __ . . __ . . __ . . __ . . __
 72
    65
 73
     6
 40
1.25
 49
0.5
 49
-0.25
 49
0.0
 49
-0.25
 49
0.0
 49
-0.25
  0
ENDTAB
  0
TABLE
  2
LAYER
 70
    12
  0
LAYER
  2
0
 70
     0
 62
     3
  6
CONTINUOUS
  0
LAYER
  2
OUTLINE
 70
     0
 62
     3
  6
CONTINUOUS
  0
LAYER
  2
DETAIL
 70
     0
 62
     5
  6
CONTINUOUS
  0
LAYER
  2
BASIS
 70
     0
 62
     6
  6
CONTINUOUS
  0
LAYER
  2
SIZE
 70
     0
 62
    30
  6
CONTINUOUS
  0
LAYER
  2
NOTE
 70
     0
 62
     4
  6
CONTINUOUS
  0
LAYER
  2
ARRANGE
 70
     0
 62
     1
  6
CONTINUOUS
  0
LAYER
  2
FIX
 70
     0
 62
    11
  6
CONTINUOUS
  0
LAYER
  2
SERVICESPACE
 70
     0
 62
     2
  6
CONTINUOUS
  0
LAYER
  2
ETC
 70
     0
 62
    61
  6
CONTINUOUS
  0
LAYER
  2
SYMBOLLINE
 70
     0
 62
     7
  6
CONTINUOUS
  0
LAYER
  2
DEFPOINTS
 70
     0
 62
     7
  6
CONTINUOUS
  0
ENDTAB
  0
TABLE
  2
STYLE
 70
     5
  0
STYLE
  2
STANDARD
 70
     0
 40
0.0
 41
1.0
 50
0.0
 71
     0
 42
0.2
  3
txt
  4

  0
STYLE
  2
STANDARD1
 70
     0
 40
0.0
 41
1.0
 50
0.0
 71
     0
 42
40.0
  3
MONOTXT
  4
BIGFONT
  0
STYLE
  2
STANDARD2
 70
     4
 40
0.0
 41
1.0
 50
0.0
 71
     0
 42
40.0
  3
MONOTXT
  4
BIGFONT
  0
STYLE
  2
STANDARD3
 70
     0
 40
0.0
 41
1.0
 50
0.0
 71
     0
 42
40.0
  3
MONOTXT
  4

  0
STYLE
  2
STANDARD4
 70
     4
 40
0.0
 41
1.0
 50
0.0
 71
     0
 42
40.0
  3
MONOTXT
  4

  0
ENDTAB
  0
TABLE
  2
VIEW
 70
     0
  0
ENDTAB
  0
TABLE
  2
UCS
 70
     0
  0
ENDTAB
  0
TABLE
  2
APPID
 70
     1
  0
APPID
  2
ACAD
 70
     0
  0
ENDTAB
  0
TABLE
  2
DIMSTYLE
 70
     1
  0
DIMSTYLE
  2
STANDARD
 70
     0
  3

  4

  5

  6

  7

 40
1.0
 41
0.18
 42
0.0625
 43
0.38
 44
0.18
 45
0.0
 46
0.0
 47
0.0
 48
0.0
140
0.18
141
0.09
142
0.0
143
25.4
144
1.0
145
0.0
146
1.0
147
0.09
 71
     0
 72
     0
 73
     1
 74
     1
 75
     0
 76
     0
 77
     0
 78
     0
170
     0
171
     2
172
     0
173
     0
174
     0
175
     0
176
     0
177
     0
178
     0
  0
ENDTAB
  0
ENDSEC
  0
SECTION
  2
BLOCKS
  0
BLOCK
  8
0
  2
$MODEL_SPACE
 70
     0
 10
0.0
 20
0.0
 30
0.0
  3
$MODEL_SPACE
  1

  0
ENDBLK
  5
1A
  8
0
  0
BLOCK
 67
     1
  8
0
  2
$PAPER_SPACE
 70
     0
 10
0.0
 20
0.0
 30
0.0
  3
$PAPER_SPACE
  1

  0
ENDBLK
  5
17
 67
     1
  8
0
  0
BLOCK
  8
SIZE
  2
*D0
 70
     1
 10
0.0
 20
0.0
 30
0.0
  3
*D0
  1

  0
TEXT
  5
35
  8
SIZE
  6
CONTINUOUS
 10
-227.857653
 20
-412.78926
 30
0.0
 40
2.8
  1
40
 50
52.600006
 41
0.7
  7
STANDARD1
  0
LINE
  5
36
  8
SIZE
  6
CONTINUOUS
 10
-217.860889
 20
-286.596634
 30
0.0
 11
-160.897568
 21
-330.148376
 31
0.0
  0
LINE
  5
37
  8
SIZE
  6
CONTINUOUS
 10
-232.53342
 20
-325.730178
 30
0.0
 11
-185.192596
 21
-361.924957
 31
0.0
  0
LINE
  5
38
  8
SIZE
  6
CONTINUOUS
 10
-159.449524
 20
-324.961548
 30
0.0
 11
-227.913559
 21
-414.50882
 31
0.0
  0
INSERT
  5
3A
  8
SIZE
  2
DOT
 10
-162.486404
 20
-328.933624
 30
0.0
 50
52.60001
  0
INSERT
  5
3B
  8
SIZE
  2
DOT
 10
-186.781433
 20
-360.710205
 30
0.0
 50
232.600003
  0
POINT
  5
3C
  8
DEFPOINTS
  6
BYBLOCK
 10
-233.327835
 20
-325.122803
 30
0.0
  0
POINT
  5
3D
  8
DEFPOINTS
  6
BYBLOCK
 10
-218.655304
 20
-285.989258
 30
0.0
  0
POINT
  5
3E
  8
DEFPOINTS
  6
BYBLOCK
 10
-162.486404
 20
-328.933624
 30
0.0
  0
ENDBLK
  5
3F
  8
SIZE
  0
BLOCK
  8
SIZE
  2
DOT
 70
     0
 10
0.0
 20
0.0
 30
0.0
  3
DOT
  1

  0
POLYLINE
  5
41
  8
0
  6
BYBLOCK
 66
     1
 10
0.0
 20
0.0
 30
0.0
 70
     1
 40
0.5
 41
0.5
  0
VERTEX
  5
42
  8
0
  6
BYBLOCK
 10
-0.25
 20
0.0
 30
0.0
 42
1.0
  0
VERTEX
  5
43
  8
0
  6
BYBLOCK
 10
0.25
 20
0.0
 30
0.0
 42
1.0
  0
SEQEND
  5
44
  8
0
  6
BYBLOCK
  0
LINE
  5
45
  8
0
  6
BYBLOCK
 10
-0.5
 20
0.0
 30
0.0
 11
-1.0
 21
0.0
 31
0.0
  0
ENDBLK
  5
46
  8
SIZE
  0
BLOCK
  8
SIZE
  2
*D2
 70
     1
 10
0.0
 20
0.0
 30
0.0
  3
*D2
  1

  0
TEXT
  5
49
  8
SIZE
  6
CONTINUOUS
 10
196.934588
 20
-374.307846
 30
0.0
 40
2.8
  1
40
 50
307.399995
 41
0.7
  7
STANDARD1
  0
LINE
  5
4A
  8
SIZE
  6
CONTINUOUS
 10
217.860889
 20
-286.596634
 30
0.0
 11
159.949768
 21
-330.873016
 31
0.0
  0
LINE
  5
4B
  8
SIZE
  6
CONTINUOUS
 10
233.330875
 20
-325.120498
 30
0.0
 11
184.244827
 21
-362.649597
 31
0.0
  0
LINE
  5
4C
  8
SIZE
  6
CONTINUOUS
 10
158.501724
 20
-325.686188
 30
0.0
 11
199.371414
 21
-379.14151
 31
0.0
  0
INSERT
  5
4D
  8
SIZE
  2
DOT
 10
161.538605
 20
-329.658264
 30
0.0
 50
127.400008
  0
INSERT
  5
4E
  8
SIZE
  2
DOT
 10
185.833649
 20
-361.434845
 30
0.0
 50
307.400012
  0
POINT
  5
4F
  8
DEFPOINTS
  6
BYBLOCK
 10
234.12529
 20
-324.513123
 30
0.0
  0
POINT
  5
50
  8
DEFPOINTS
  6
BYBLOCK
 10
218.655304
 20
-285.989258
 30
0.0
  0
POINT
  5
51
  8
DEFPOINTS
  6
BYBLOCK
 10
161.538605
 20
-329.658264
 30
0.0
  0
ENDBLK
  5
52
  8
SIZE
  0
BLOCK
  8
SIZE
  2
*D3
 70
     1
 10
0.0
 20
0.0
 30
0.0
  3
*D3
  1

  0
TEXT
  5
55
  8
SIZE
  6
CONTINUOUS
 10
-3.92
 20
599.670435
 30
0.0
 40
2.8
  1
φ
 50
0.000003
 41
0.583333
  7
STANDARD1
  0
TEXT
  5
56
  8
SIZE
  6
CONTINUOUS
 10
-1.96
 20
599.670435
 30
0.0
 40
2.8
  1
720
 50
0.000003
 41
0.7
  7
STANDARD1
  0
LINE
  5
57
  8
SIZE
  6
CONTINUOUS
 10
-360.0
 20
1.0
 30
0.0
 11
-360.0
 21
600.67041
 31
0.0
  0
LINE
  5
58
  8
SIZE
  6
CONTINUOUS
 10
360.0
 20
1.0
 30
0.0
 11
360.0
 21
600.67041
 31
0.0
  0
LINE
  5
59
  8
SIZE
  6
CONTINUOUS
 10
-360.0
 20
598.67041
 30
0.0
 11
360.0
 21
598.67041
 31
0.0
  0
INSERT
  5
5A
  8
SIZE
  2
DOT
 10
-360.0
 20
598.67041
 30
0.0
 50
180.0
  0
INSERT
  5
5B
  8
SIZE
  2
DOT
 10
360.0
 20
598.67041
 30
0.0
  0
POINT
  5
5C
  8
DEFPOINTS
  6
BYBLOCK
 10
360.0
 20
0.0
 30
0.0
  0
POINT
  5
5D
  8
DEFPOINTS
  6
BYBLOCK
 10
-360.0
 20
0.0
 30
0.0
  0
POINT
  5
5E
  8
DEFPOINTS
  6
BYBLOCK
 10
-360.0
 20
598.67041
 30
0.0
  0
ENDBLK
  5
5F
  8
SIZE
  0
BLOCK
  8
SIZE
  2
*D4
 70
     1
 10
0.0
 20
0.0
 30
0.0
  3
*D4
  1

  0
TEXT
  5
62
  8
SIZE
  6
CONTINUOUS
 10
-460.999994
 20
-1084.920044
 30
0.0
 40
2.8
  1
1300
 50
90.000005
 41
0.7
  7
STANDARD1
  0
LINE
  5
63
  8
SIZE
  6
CONTINUOUS
 10
-361.0
 20
-431.0
 30
0.0
 11
-462.0
 21
-431.0
 31
0.0
  0
LINE
  5
64
  8
SIZE
  6
CONTINUOUS
 10
-361.0
 20
-1731.0
 30
0.0
 11
-462.0
 21
-1731.0
 31
0.0
  0
LINE
  5
65
  8
SIZE
  6
CONTINUOUS
 10
-460.0
 20
-431.0
 30
0.0
 11
-460.0
 21
-1731.0
 31
0.0
  0
INSERT
  5
66
  8
SIZE
  2
DOT
 10
-460.0
 20
-431.0
 30
0.0
 50
90.0
  0
INSERT
  5
67
  8
SIZE
  2
DOT
 10
-460.0
 20
-1731.0
 30
0.0
 50
270.0
  0
POINT
  5
68
  8
DEFPOINTS
  6
BYBLOCK
 10
-360.0
 20
-1731.0
 30
0.0
  0
POINT
  5
69
  8
DEFPOINTS
  6
BYBLOCK
 10
-360.0
 20
-431.0
 30
0.0
  0
POINT
  5
6A
  8
DEFPOINTS
  6
BYBLOCK
 10
-460.0
 20
-431.0
 30
0.0
  0
ENDBLK
  5
6B
  8
SIZE
  0
BLOCK
  8
SIZE
  2
*D5
 70
     1
 10
0.0
 20
0.0
 30
0.0
  3
*D5
  1

  0
TEXT
  5
6E
  8
SIZE
  6
CONTINUOUS
 10
-2.94
 20
-688.189185
 30
0.0
 40
2.8
  1
720
 50
0.000003
 41
0.7
  7
STANDARD1
  0
LINE
  5
6F
  8
SIZE
  6
CONTINUOUS
 10
360.0
 20
-689.189209
 30
0.0
 11
-360.0
 21
-689.189209
 31
0.0
  0
INSERT
  5
70
  8
SIZE
  2
DOT
 10
360.0
 20
-689.189209
 30
0.0
  0
INSERT
  5
71
  8
SIZE
  2
DOT
 10
-360.0
 20
-689.189209
 30
0.0
 50
180.0
  0
POINT
  5
72
  8
DEFPOINTS
  6
BYBLOCK
 10
-360.0
 20
-431.0
 30
0.0
  0
POINT
  5
73
  8
DEFPOINTS
  6
BYBLOCK
 10
360.0
 20
-431.0
 30
0.0
  0
POINT
  5
74
  8
DEFPOINTS
  6
BYBLOCK
 10
360.0
 20
-689.189209
 30
0.0
  0
ENDBLK
  5
75
  8
SIZE
  0
BLOCK
  8
SIZE
  2
*D6
 70
     1
 10
0.0
 20
0.0
 30
0.0
  3
*D6
  1

  0
TEXT
  5
78
  8
SIZE
  6
CONTINUOUS
 10
-275.056055
 20
336.263947
 30
0.0
 40
2.8
  1
119
 50
90.000005
 41
0.7
  7
STANDARD1
  0
LINE
  5
79
  8
SIZE
  6
CONTINUOUS
 10
-20.91428
 20
399.0
 30
0.0
 11
-276.056061
 21
399.0
 31
0.0
  0
LINE
  5
7A
  8
SIZE
  6
CONTINUOUS
 10
-27.899998
 20
280.0
 30
0.0
 11
-276.056061
 21
280.0
 31
0.0
  0
LINE
  5
7B
  8
SIZE
  6
CONTINUOUS
 10
-274.056061
 20
399.0
 30
0.0
 11
-274.056061
 21
280.0
 31
0.0
  0
INSERT
  5
7C
  8
SIZE
  2
DOT
 10
-274.056061
 20
399.0
 30
0.0
 50
90.0
  0
INSERT
  5
7D
  8
SIZE
  2
DOT
 10
-274.056061
 20
280.0
 30
0.0
 50
270.0
  0
POINT
  5
7E
  8
DEFPOINTS
  6
BYBLOCK
 10
-26.899998
 20
280.0
 30
0.0
  0
POINT
  5
7F
  8
DEFPOINTS
  6
BYBLOCK
 10
-19.91428
 20
399.0
 30
0.0
  0
POINT
  5
80
  8
DEFPOINTS
  6
BYBLOCK
 10
-274.056061
 20
399.0
 30
0.0
  0
ENDBLK
  5
81
  8
SIZE
  0
BLOCK
  8
SIZE
  2
*D7
 70
     1
 10
0.0
 20
0.0
 30
0.0
  3
*D7
  1

  0
TEXT
  5
84
  8
SIZE
  6
CONTINUOUS
 10
-186.233652
 20
456.519745
 30
0.0
 40
2.8
  1
17
 50
90.000005
 41
0.7
  7
STANDARD1
  0
LINE
  5
85
  8
SIZE
  6
CONTINUOUS
 10
-20.91428
 20
399.0
 30
0.0
 11
-187.233658
 21
399.0
 31
0.0
  0
LINE
  5
86
  8
SIZE
  6
CONTINUOUS
 10
-23.904758
 20
382.0
 30
0.0
 11
-187.233658
 21
382.0
 31
0.0
  0
LINE
  5
87
  8
SIZE
  6
CONTINUOUS
 10
-185.233658
 20
461.839722
 30
0.0
 11
-185.233658
 21
377.0
 31
0.0
  0
INSERT
  5
88
  8
SIZE
  2
DOT
 10
-185.233658
 20
399.0
 30
0.0
 50
90.0
  0
INSERT
  5
89
  8
SIZE
  2
DOT
 10
-185.233658
 20
382.0
 30
0.0
 50
270.0
  0
POINT
  5
8A
  8
DEFPOINTS
  6
BYBLOCK
 10
-22.904758
 20
382.0
 30
0.0
  0
POINT
  5
8B
  8
DEFPOINTS
  6
BYBLOCK
 10
-19.91428
 20
399.0
 30
0.0
  0
POINT
  5
8C
  8
DEFPOINTS
  6
BYBLOCK
 10
-185.233658
 20
399.0
 30
0.0
  0
ENDBLK
  5
8D
  8
SIZE
  0
BLOCK
  8
SIZE
  2
*D8
 70
     1
 10
0.0
 20
0.0
 30
0.0
  3
*D8
  1

  0
TEXT
  5
90
  8
SIZE
  6
CONTINUOUS
 10
-2.332987
 20
499.670404
 30
0.0
 40
2.8
  1
93
 50
0.000003
 41
0.7
  7
STANDARD1
  0
LINE
  5
91
  8
SIZE
  6
CONTINUOUS
 10
46.500027
 20
376.308533
 30
0.0
 11
46.500027
 21
500.67041
 31
0.0
  0
LINE
  5
92
  8
SIZE
  6
CONTINUOUS
 10
-46.499973
 20
376.308533
 30
0.0
 11
-46.499973
 21
500.67041
 31
0.0
  0
LINE
  5
93
  8
SIZE
  6
CONTINUOUS
 10
46.500027
 20
498.67041
 30
0.0
 11
-46.499973
 21
498.67041
 31
0.0
  0
INSERT
  5
94
  8
SIZE
  2
DOT
 10
46.500027
 20
498.67041
 30
0.0
  0
INSERT
  5
95
  8
SIZE
  2
DOT
 10
-46.499973
 20
498.67041
 30
0.0
 50
180.0
  0
POINT
  5
96
  8
DEFPOINTS
  6
BYBLOCK
 10
-46.499973
 20
375.308533
 30
0.0
  0
POINT
  5
97
  8
DEFPOINTS
  6
BYBLOCK
 10
46.500027
 20
375.308533
 30
0.0
  0
POINT
  5
98
  8
DEFPOINTS
  6
BYBLOCK
 10
46.500027
 20
498.67041
 30
0.0
  0
ENDBLK
  5
99
  8
SIZE
  0
BLOCK
  8
SIZE
  2
*D9
 70
     1
 10
0.0
 20
0.0
 30
0.0
  3
*D9
  1

  0
TEXT
  5
9C
  8
SIZE
  6
CONTINUOUS
 10
-3.919973
 20
-142.639532
 30
0.0
 40
2.8
  1
120°
 50
0.000003
 41
0.666667
  7
STANDARD1
  0
ARC
  5
9D
  8
SIZE
  6
CONTINUOUS
 10
0.000027
 20
0.0
 30
0.0
 40
143.693368
 50
210.000026
 51
329.999974
  0
INSERT
  5
9E
  8
SIZE
  2
DOT
 10
-124.442047
 20
-71.846741
 30
0.0
 50
120.000026
  0
INSERT
  5
9F
  8
SIZE
  2
DOT
 10
124.442101
 20
-71.846741
 30
0.0
 50
59.999974
  0
POINT
  5
A0
  8
DEFPOINTS
  6
BYBLOCK
 10
0.0
 20
0.0
 30
0.0
  0
POINT
  5
A1
  8
DEFPOINTS
  6
BYBLOCK
 10
0.000027
 20
0.0
 30
0.0
  0
POINT
  5
A2
  8
DEFPOINTS
  6
BYBLOCK
 10
-124.442047
 20
-71.846741
 30
0.0
  0
POINT
  5
A3
  8
DEFPOINTS
  6
BYBLOCK
 10
124.442101
 20
-71.846741
 30
0.0
  0
POINT
  5
A4
  8
DEFPOINTS
  6
BYBLOCK
 10
0.000027
 20
-143.693375
 30
0.0
  0
ENDBLK
  5
A5
  8
SIZE
  0
BLOCK
  8
SIZE
  2
*D10
 70
     1
 10
0.0
 20
0.0
 30
0.0
  3
*D10
  1

  0
TEXT
  5
A8
  8
SIZE
  6
CONTINUOUS
 10
-127.26814
 20
68.95181
 30
0.0
 40
2.8
  1
120°
 50
60.000025
 41
0.666667
  7
STANDARD1
  0
ARC
  5
A9
  8
SIZE
  6
CONTINUOUS
 10
0.000027
 20
0.0
 30
0.0
 40
143.693359
 50
90.0
 51
210.000028
  0
INSERT
  5
AA
  8
SIZE
  2
DOT
 10
0.000027
 20
143.693359
 30
0.0
  0
INSERT
  5
AB
  8
SIZE
  2
DOT
 10
-124.442039
 20
-71.846741
 30
0.0
 50
300.000028
  0
POINT
  5
AC
  8
DEFPOINTS
  6
BYBLOCK
 10
0.0
 20
0.0
 30
0.0
  0
POINT
  5
AD
  8
DEFPOINTS
  6
BYBLOCK
 10
0.000027
 20
0.0
 30
0.0
  0
POINT
  5
AE
  8
DEFPOINTS
  6
BYBLOCK
 10
0.000027
 20
143.693359
 30
0.0
  0
POINT
  5
AF
  8
DEFPOINTS
  6
BYBLOCK
 10
-124.442039
 20
-71.846741
 30
0.0
  0
POINT
  5
B0
  8
DEFPOINTS
  6
BYBLOCK
 10
-124.442104
 20
71.846657
 30
0.0
  0
ENDBLK
  5
B1
  8
SIZE
  0
BLOCK
  8
SIZE
  2
*D11
 70
     1
 10
0.0
 20
0.0
 30
0.0
  3
*D11
  1

  0
TEXT
  5
B4
  8
SIZE
  6
CONTINUOUS
 10
121.519678
 20
78.641712
 30
0.0
 40
2.8
  1
120°
 50
301.357149
 41
0.666667
  7
STANDARD1
  0
ARC
  5
B5
  8
SIZE
  6
CONTINUOUS
 10
0.000027
 20
0.0
 30
0.0
 40
143.693374
 50
329.999975
 51
90.0
  0
INSERT
  5
B6
  8
SIZE
  2
DOT
 10
124.442108
 20
-71.846741
 30
0.0
 50
239.999975
  0
INSERT
  5
B7
  8
SIZE
  2
DOT
 10
0.000027
 20
143.693359
 30
0.0
 50
180.0
  0
POINT
  5
B8
  8
DEFPOINTS
  6
BYBLOCK
 10
0.0
 20
0.0
 30
0.0
  0
POINT
  5
B9
  8
DEFPOINTS
  6
BYBLOCK
 10
0.000027
 20
0.0
 30
0.0
  0
POINT
  5
BA
  8
DEFPOINTS
  6
BYBLOCK
 10
124.442108
 20
-71.846741
 30
0.0
  0
POINT
  5
BB
  8
DEFPOINTS
  6
BYBLOCK
 10
0.000027
 20
143.693359
 30
0.0
  0
POINT
  5
BC
  8
DEFPOINTS
  6
BYBLOCK
 10
124.442168
 20
71.846668
 30
0.0
  0
ENDBLK
  5
BD
  8
SIZE
  0
BLOCK
  8
SIZE
  2
*D12
 70
     1
 10
0.0
 20
0.0
 30
0.0
  3
*D12
  1

  0
TEXT
  5
C0
  8
SIZE
  6
CONTINUOUS
 10
-0.237297
 20
-603.053992
 30
0.0
 40
2.8
  1
662
 50
0.000003
 41
0.7
  7
STANDARD1
  0
LINE
  5
C1
  8
SIZE
  6
CONTINUOUS
 10
330.821686
 20
-192.0
 30
0.0
 11
330.821686
 21
-606.054016
 31
0.0
  0
LINE
  5
C2
  8
SIZE
  6
CONTINUOUS
 10
-330.821686
 20
-192.0
 30
0.0
 11
-330.821686
 21
-606.054016
 31
0.0
  0
LINE
  5
C3
  8
SIZE
  6
CONTINUOUS
 10
330.821686
 20
-604.054016
 30
0.0
 11
-330.821686
 21
-604.054016
 31
0.0
  0
INSERT
  5
C4
  8
SIZE
  2
DOT
 10
330.821686
 20
-604.054016
 30
0.0
  0
INSERT
  5
C5
  8
SIZE
  2
DOT
 10
-330.821686
 20
-604.054016
 30
0.0
 50
180.0
  0
POINT
  5
C6
  8
DEFPOINTS
  6
BYBLOCK
 10
-330.821686
 20
-191.0
 30
0.0
  0
POINT
  5
C7
  8
DEFPOINTS
  6
BYBLOCK
 10
330.821686
 20
-191.0
 30
0.0
  0
POINT
  5
C8
  8
DEFPOINTS
  6
BYBLOCK
 10
330.821686
 20
-604.054016
 30
0.0
  0
ENDBLK
  5
C9
  8
SIZE
  0
BLOCK
  8
SIZE
  2
*D13
 70
     1
 10
0.0
 20
0.0
 30
0.0
  3
*D13
  1

  0
TEXT
  5
CC
  8
SIZE
  6
CONTINUOUS
 10
508.988501
 20
-96.822815
 30
0.0
 40
2.8
  1
191
 50
90.000005
 41
0.7
  7
STANDARD1
  0
LINE
  5
CD
  8
SIZE
  6
CONTINUOUS
 10
331.821686
 20
-191.0
 30
0.0
 11
511.988495
 21
-191.0
 31
0.0
  0
LINE
  5
CE
  8
SIZE
  6
CONTINUOUS
 10
414.893463
 20
0.0
 30
0.0
 11
511.988495
 21
0.0
 31
0.0
  0
LINE
  5
CF
  8
SIZE
  6
CONTINUOUS
 10
509.988495
 20
-191.0
 30
0.0
 11
509.988495
 21
0.0
 31
0.0
  0
INSERT
  5
D0
  8
SIZE
  2
DOT
 10
509.988495
 20
-191.0
 30
0.0
 50
270.0
  0
INSERT
  5
D1
  8
SIZE
  2
DOT
 10
509.988495
 20
0.0
 30
0.0
 50
90.0
  0
POINT
  5
D2
  8
DEFPOINTS
  6
BYBLOCK
 10
413.893463
 20
0.0
 30
0.0
  0
POINT
  5
D3
  8
DEFPOINTS
  6
BYBLOCK
 10
330.821686
 20
-191.0
 30
0.0
  0
POINT
  5
D4
  8
DEFPOINTS
  6
BYBLOCK
 10
509.988495
 20
-191.0
 30
0.0
  0
ENDBLK
  5
D5
  8
SIZE
  0
BLOCK
  8
SIZE
  2
*D14
 70
     1
 10
0.0
 20
0.0
 30
0.0
  3
*D14
  1

  0
TEXT
  5
D8
  8
SIZE
  6
CONTINUOUS
 10
708.952978
 20
-24.541319
 30
0.0
 40
2.8
  1
845
 50
90.000005
 41
0.7
  7
STANDARD1
  0
LINE
  5
D9
  8
SIZE
  6
CONTINUOUS
 10
21.014309
 20
399.0
 30
0.0
 11
711.953003
 21
399.0
 31
0.0
  0
LINE
  5
DA
  8
SIZE
  6
CONTINUOUS
 10
9.235378
 20
-446.0
 30
0.0
 11
711.953003
 21
-446.0
 31
0.0
  0
LINE
  5
DB
  8
SIZE
  6
CONTINUOUS
 10
709.953003
 20
399.0
 30
0.0
 11
709.953003
 21
-446.0
 31
0.0
  0
INSERT
  5
DC
  8
SIZE
  2
DOT
 10
709.953003
 20
399.0
 30
0.0
 50
90.0
  0
INSERT
  5
DD
  8
SIZE
  2
DOT
 10
709.953003
 20
-446.0
 30
0.0
 50
270.0
  0
POINT
  5
DE
  8
DEFPOINTS
  6
BYBLOCK
 10
8.235378
 20
-446.0
 30
0.0
  0
POINT
  5
DF
  8
DEFPOINTS
  6
BYBLOCK
 10
20.014309
 20
399.0
 30
0.0
  0
POINT
  5
E0
  8
DEFPOINTS
  6
BYBLOCK
 10
709.953003
 20
399.0
 30
0.0
  0
ENDBLK
  5
E1
  8
SIZE
  0
BLOCK
  8
SIZE
  2
*D15
 70
     1
 10
0.0
 20
0.0
 30
0.0
  3
*D15
  1

  0
TEXT
  5
E4
  8
SIZE
  6
CONTINUOUS
 10
608.932715
 20
-507.445465
 30
0.0
 40
2.8
  1
15
 50
90.000005
 41
0.7
  7
STANDARD1
  0
LINE
  5
E5
  8
SIZE
  6
CONTINUOUS
 10
72.98745
 20
-431.0
 30
0.0
 11
611.932739
 21
-431.0
 31
0.0
  0
LINE
  5
E6
  8
SIZE
  6
CONTINUOUS
 10
9.235378
 20
-446.0
 30
0.0
 11
611.932739
 21
-446.0
 31
0.0
  0
LINE
  5
E7
  8
SIZE
  6
CONTINUOUS
 10
609.932739
 20
-426.0
 30
0.0
 11
609.932739
 21
-508.845459
 31
0.0
  0
INSERT
  5
E8
  8
SIZE
  2
DOT
 10
609.932739
 20
-431.0
 30
0.0
 50
90.0
  0
INSERT
  5
E9
  8
SIZE
  2
DOT
 10
609.932739
 20
-446.0
 30
0.0
 50
270.0
  0
POINT
  5
EA
  8
DEFPOINTS
  6
BYBLOCK
 10
8.235378
 20
-446.0
 30
0.0
  0
POINT
  5
EB
  8
DEFPOINTS
  6
BYBLOCK
 10
71.98745
 20
-431.0
 30
0.0
  0
POINT
  5
EC
  8
DEFPOINTS
  6
BYBLOCK
 10
609.932739
 20
-431.0
 30
0.0
  0
ENDBLK
  5
ED
  8
SIZE
  0
BLOCK
  8
SIZE
  2
*D16
 70
     1
 10
0.0
 20
0.0
 30
0.0
  3
*D16
  1

  0
TEXT
  5
F0
  8
SIZE
  6
CONTINUOUS
 10
608.952978
 20
-218.440002
 30
0.0
 40
2.8
  1
431
 50
90.000005
 41
0.7
  7
STANDARD1
  0
LINE
  5
F1
  8
SIZE
  6
CONTINUOUS
 10
414.893463
 20
0.0
 30
0.0
 11
611.953003
 21
0.0
 31
0.0
  0
LINE
  5
F2
  8
SIZE
  6
CONTINUOUS
 10
72.98745
 20
-431.0
 30
0.0
 11
611.953003
 21
-431.0
 31
0.0
  0
LINE
  5
F3
  8
SIZE
  6
CONTINUOUS
 10
609.953003
 20
0.0
 30
0.0
 11
609.953003
 21
-431.0
 31
0.0
  0
INSERT
  5
F4
  8
SIZE
  2
DOT
 10
609.953003
 20
0.0
 30
0.0
 50
90.0
  0
INSERT
  5
F5
  8
SIZE
  2
DOT
 10
609.953003
 20
-431.0
 30
0.0
 50
270.0
  0
POINT
  5
F6
  8
DEFPOINTS
  6
BYBLOCK
 10
71.98745
 20
-431.0
 30
0.0
  0
POINT
  5
F7
  8
DEFPOINTS
  6
BYBLOCK
 10
413.893463
 20
0.0
 30
0.0
  0
POINT
  5
F8
  8
DEFPOINTS
  6
BYBLOCK
 10
609.953003
 20
0.0
 30
0.0
  0
ENDBLK
  5
F9
  8
SIZE
  0
BLOCK
  8
SIZE
  2
*D17
 70
     1
 10
0.0
 20
0.0
 30
0.0
  3
*D17
  1

  0
TEXT
  5
FC
  8
SIZE
  6
CONTINUOUS
 10
508.953009
 20
188.059998
 30
0.0
 40
2.8
  1
382
 50
90.000005
 41
0.7
  7
STANDARD1
  0
LINE
  5
FD
  8
SIZE
  6
CONTINUOUS
 10
414.893463
 20
0.0
 30
0.0
 11
511.953003
 21
0.0
 31
0.0
  0
LINE
  5
FE
  8
SIZE
  6
CONTINUOUS
 10
23.283962
 20
382.0
 30
0.0
 11
511.953003
 21
382.0
 31
0.0
  0
LINE
  5
FF
  8
SIZE
  6
CONTINUOUS
 10
509.953003
 20
0.0
 30
0.0
 11
509.953003
 21
382.0
 31
0.0
  0
INSERT
  5
100
  8
SIZE
  2
DOT
 10
509.953003
 20
0.0
 30
0.0
 50
270.0
  0
INSERT
  5
101
  8
SIZE
  2
DOT
 10
509.953003
 20
382.0
 30
0.0
 50
90.0
  0
POINT
  5
102
  8
DEFPOINTS
  6
BYBLOCK
 10
22.283962
 20
382.0
 30
0.0
  0
POINT
  5
103
  8
DEFPOINTS
  6
BYBLOCK
 10
413.893463
 20
0.0
 30
0.0
  0
POINT
  5
104
  8
DEFPOINTS
  6
BYBLOCK
 10
509.953003
 20
0.0
 30
0.0
  0
ENDBLK
  5
105
  8
SIZE
  0
BLOCK
  8
SIZE
  2
*D18
 70
     1
 10
0.0
 20
0.0
 30
0.0
  3
*D18
  1

  0
TEXT
  5
108
  8
SIZE
  6
CONTINUOUS
 10
-466.72265
 20
-147.940002
 30
0.0
 40
2.8
  1
290
 50
90.000005
 41
0.7
  7
STANDARD1
  0
LINE
  5
109
  8
SIZE
  6
CONTINUOUS
 10
-76.0
 20
-290.0
 30
0.0
 11
-467.722656
 21
-290.0
 31
0.0
  0
LINE
  5
10A
  8
SIZE
  6
CONTINUOUS
 10
-411.131165
 20
0.0
 30
0.0
 11
-467.722656
 21
0.0
 31
0.0
  0
LINE
  5
10B
  8
SIZE
  6
CONTINUOUS
 10
-465.722656
 20
-290.0
 30
0.0
 11
-465.722656
 21
0.0
 31
0.0
  0
INSERT
  5
10C
  8
SIZE
  2
DOT
 10
-465.722656
 20
-290.0
 30
0.0
 50
270.0
  0
INSERT
  5
10D
  8
SIZE
  2
DOT
 10
-465.722656
 20
0.0
 30
0.0
 50
90.0
  0
POINT
  5
10E
  8
DEFPOINTS
  6
BYBLOCK
 10
-410.131165
 20
0.0
 30
0.0
  0
POINT
  5
10F
  8
DEFPOINTS
  6
BYBLOCK
 10
-75.0
 20
-290.0
 30
0.0
  0
POINT
  5
110
  8
DEFPOINTS
  6
BYBLOCK
 10
-465.722656
 20
-290.0
 30
0.0
  0
ENDBLK
  5
111
  8
SIZE
  0
BLOCK
  8
SIZE
  2
*D19
 70
     1
 10
0.0
 20
0.0
 30
0.0
  3
*D19
  1

  0
TEXT
  5
114
  8
SIZE
  6
CONTINUOUS
 10
-98.363007
 20
-510.646735
 30
0.0
 40
2.8
  1
35
 50
0.000003
 41
0.7
  7
STANDARD1
  0
LINE
  5
115
  8
SIZE
  6
CONTINUOUS
 10
-35.0
 20
-331.0
 30
0.0
 11
-35.0
 21
-513.646729
 31
0.0
  0
LINE
  5
116
  8
SIZE
  6
CONTINUOUS
 10
0.0
 20
-461.860229
 30
0.0
 11
0.0
 21
-513.646729
 31
0.0
  0
LINE
  5
117
  8
SIZE
  6
CONTINUOUS
 10
-99.763008
 20
-511.646729
 30
0.0
 11
5.0
 21
-511.646729
 31
0.0
  0
INSERT
  5
118
  8
SIZE
  2
DOT
 10
-35.0
 20
-511.646729
 30
0.0
 50
180.0
  0
INSERT
  5
119
  8
SIZE
  2
DOT
 10
0.0
 20
-511.646729
 30
0.0
  0
POINT
  5
11A
  8
DEFPOINTS
  6
BYBLOCK
 10
0.0
 20
-460.860229
 30
0.0
  0
POINT
  5
11B
  8
DEFPOINTS
  6
BYBLOCK
 10
-35.0
 20
-330.0
 30
0.0
  0
POINT
  5
11C
  8
DEFPOINTS
  6
BYBLOCK
 10
-35.0
 20
-511.646729
 30
0.0
  0
ENDBLK
  5
11D
  8
SIZE
  0
BLOCK
  8
0
  2
_ORIGIN
 70
     0
 10
0.0
 20
0.0
 30
0.0
  3
_ORIGIN
  1

  0
CIRCLE
  5
120
  8
0
  6
BYBLOCK
 62
     0
 10
0.0
 20
0.0
 30
0.0
 40
0.5
  0
LINE
  5
121
  8
0
  6
BYBLOCK
 62
     0
 10
0.0
 20
0.0
 30
0.0
 11
-1.0
 21
0.0
 31
0.0
  0
ENDBLK
  5
122
  8
0
  0
BLOCK
  8
0
  2
*D21
 70
     1
 10
0.0
 20
0.0
 30
0.0
  3
*D21
  1

  0
LINE
  5
125
  8
0
  6
BYBLOCK
 62
     0
 10
0.0
 20
-470.860229
 30
0.0
 11
0.0
 21
-521.746728
 31
0.0
  0
LINE
  5
126
  8
0
  6
BYBLOCK
 62
     0
 10
-35.0
 20
-340.0
 30
0.0
 11
-35.0
 21
-521.746728
 31
0.0
  0
LINE
  5
127
  8
0
  6
BYBLOCK
 62
     0
 10
10.0
 20
-509.246728
 30
0.0
 11
20.0
 21
-509.246728
 31
0.0
  0
LINE
  5
128
  8
0
  6
BYBLOCK
 62
     0
 10
-45.0
 20
-509.246728
 30
0.0
 11
-131.403007
 21
-509.246728
 31
0.0
  0
LINE
  5
129
  8
0
  6
BYBLOCK
 62
     0
 10
0.0
 20
-509.246728
 30
0.0
 11
-35.0
 21
-509.246728
 31
0.0
  0
INSERT
  5
12A
  8
0
  6
BYBLOCK
 62
     0
  2
_ORIGIN
 10
0.0
 20
-509.246728
 30
0.0
 41
10.0
 42
10.0
 43
10.0
 50
180.0
  0
INSERT
  5
12B
  8
0
  6
BYBLOCK
 62
     0
  2
_ORIGIN
 10
-35.0
 20
-509.246728
 30
0.0
 41
10.0
 42
10.0
 43
10.0
  0
TEXT
  5
12C
  8
0
  6
BYBLOCK
 62
     0
 10
-121.403007
 20
-499.246728
 30
0.0
 40
30.0
  1
35
 72
     1
 11
-96.403007
 21
-499.246728
 31
0.0
  0
POINT
  5
12D
  8
DEFPOINTS
  6
BYBLOCK
 62
     0
 10
0.0
 20
-460.860229
 30
0.0
  0
POINT
  5
12E
  8
DEFPOINTS
  6
BYBLOCK
 62
     0
 10
-35.0
 20
-330.0
 30
0.0
  0
POINT
  5
12F
  8
DEFPOINTS
  6
BYBLOCK
 62
     0
 10
-35.0
 20
-509.246728
 30
0.0
  0
ENDBLK
  5
130
  8
0
  0
BLOCK
  8
0
  2
*D22
 70
     1
 10
0.0
 20
0.0
 30
0.0
  3
*D22
  1

  0
LINE
  5
133
  8
0
  6
BYBLOCK
 62
     0
 10
-420.131165
 20
0.0
 30
0.0
 11
-480.622656
 21
0.0
 31
0.0
  0
LINE
  5
134
  8
0
  6
BYBLOCK
 62
     0
 10
-85.0
 20
-290.0
 30
0.0
 11
-480.622656
 21
-290.0
 31
0.0
  0
LINE
  5
135
  8
0
  6
BYBLOCK
 62
     0
 10
-468.122656
 20
-10.0
 30
0.0
 11
-468.122656
 21
-280.0
 31
0.0
  0
INSERT
  5
136
  8
0
  6
BYBLOCK
 62
     0
  2
_ORIGIN
 10
-468.122656
 20
0.0
 30
0.0
 41
10.0
 42
10.0
 43
10.0
 50
90.0
  0
INSERT
  5
137
  8
0
  6
BYBLOCK
 62
     0
  2
_ORIGIN
 10
-468.122656
 20
-290.0
 30
0.0
 41
10.0
 42
10.0
 43
10.0
 50
270.0
  0
TEXT
  5
138
  8
0
  6
BYBLOCK
 62
     0
 10
-478.122656
 20
-182.5
 30
0.0
 40
30.0
  1
290
 50
90.0
 72
     1
 11
-478.122656
 21
-145.0
 31
0.0
  0
POINT
  5
139
  8
DEFPOINTS
  6
BYBLOCK
 62
     0
 10
-410.131165
 20
0.0
 30
0.0
  0
POINT
  5
13A
  8
DEFPOINTS
  6
BYBLOCK
 62
     0
 10
-75.0
 20
-290.0
 30
0.0
  0
POINT
  5
13B
  8
DEFPOINTS
  6
BYBLOCK
 62
     0
 10
-468.122656
 20
-290.0
 30
0.0
  0
ENDBLK
  5
13C
  8
0
  0
BLOCK
  8
0
  2
*D23
 70
     1
 10
0.0
 20
0.0
 30
0.0
  3
*D23
  1

  0
LINE
  5
13F
  8
0
  6
BYBLOCK
 62
     0
 10
32.283962
 20
382.0
 30
0.0
 11
520.053003
 21
382.0
 31
0.0
  0
LINE
  5
140
  8
0
  6
BYBLOCK
 62
     0
 10
423.893463
 20
0.0
 30
0.0
 11
520.053003
 21
0.0
 31
0.0
  0
LINE
  5
141
  8
0
  6
BYBLOCK
 62
     0
 10
507.553003
 20
372.0
 30
0.0
 11
507.553003
 21
10.0
 31
0.0
  0
INSERT
  5
142
  8
0
  6
BYBLOCK
 62
     0
  2
_ORIGIN
 10
507.553003
 20
382.0
 30
0.0
 41
10.0
 42
10.0
 43
10.0
 50
90.0
  0
INSERT
  5
143
  8
0
  6
BYBLOCK
 62
     0
  2
_ORIGIN
 10
507.553003
 20
0.0
 30
0.0
 41
10.0
 42
10.0
 43
10.0
 50
270.0
  0
TEXT
  5
144
  8
0
  6
BYBLOCK
 62
     0
 10
497.553003
 20
151.0
 30
0.0
 40
30.0
  1
382
 50
90.0
 72
     1
 11
497.553003
 21
191.0
 31
0.0
  0
POINT
  5
145
  8
DEFPOINTS
  6
BYBLOCK
 62
     0
 10
22.283962
 20
382.0
 30
0.0
  0
POINT
  5
146
  8
DEFPOINTS
  6
BYBLOCK
 62
     0
 10
413.893463
 20
0.0
 30
0.0
  0
POINT
  5
147
  8
DEFPOINTS
  6
BYBLOCK
 62
     0
 10
507.553003
 20
0.0
 30
0.0
  0
ENDBLK
  5
148
  8
0
  0
BLOCK
  8
0
  2
*D24
 70
     1
 10
0.0
 20
0.0
 30
0.0
  3
*D24
  1

  0
LINE
  5
14B
  8
0
  6
BYBLOCK
 62
     0
 10
81.98745
 20
-431.0
 30
0.0
 11
620.053003
 21
-431.0
 31
0.0
  0
LINE
  5
14C
  8
0
  6
BYBLOCK
 62
     0
 10
423.893463
 20
0.0
 30
0.0
 11
620.053003
 21
0.0
 31
0.0
  0
LINE
  5
14D
  8
0
  6
BYBLOCK
 62
     0
 10
607.553003
 20
-421.0
 30
0.0
 11
607.553003
 21
-10.0
 31
0.0
  0
INSERT
  5
14E
  8
0
  6
BYBLOCK
 62
     0
  2
_ORIGIN
 10
607.553003
 20
-431.0
 30
0.0
 41
10.0
 42
10.0
 43
10.0
 50
270.0
  0
INSERT
  5
14F
  8
0
  6
BYBLOCK
 62
     0
  2
_ORIGIN
 10
607.553003
 20
0.0
 30
0.0
 41
10.0
 42
10.0
 43
10.0
 50
90.0
  0
TEXT
  5
150
  8
0
  6
BYBLOCK
 62
     0
 10
597.553003
 20
-250.5
 30
0.0
 40
30.0
  1
431
 50
90.0
 72
     1
 11
597.553003
 21
-215.5
 31
0.0
  0
POINT
  5
151
  8
DEFPOINTS
  6
BYBLOCK
 62
     0
 10
71.98745
 20
-431.0
 30
0.0
  0
POINT
  5
152
  8
DEFPOINTS
  6
BYBLOCK
 62
     0
 10
413.893463
 20
0.0
 30
0.0
  0
POINT
  5
153
  8
DEFPOINTS
  6
BYBLOCK
 62
     0
 10
607.553003
 20
0.0
 30
0.0
  0
ENDBLK
  5
154
  8
0
  0
BLOCK
  8
0
  2
*D25
 70
     1
 10
0.0
 20
0.0
 30
0.0
  3
*D25
  1

  0
LINE
  5
157
  8
0
  6
BYBLOCK
 62
     0
 10
18.235378
 20
-446.0
 30
0.0
 11
620.032739
 21
-446.0
 31
0.0
  0
LINE
  5
158
  8
0
  6
BYBLOCK
 62
     0
 10
81.98745
 20
-431.0
 30
0.0
 11
620.032739
 21
-431.0
 31
0.0
  0
LINE
  5
159
  8
0
  6
BYBLOCK
 62
     0
 10
607.532739
 20
-421.0
 30
0.0
 11
607.532739
 21
-411.0
 31
0.0
  0
LINE
  5
15A
  8
0
  6
BYBLOCK
 62
     0
 10
607.532739
 20
-456.0
 30
0.0
 11
607.532739
 21
-535.485474
 31
0.0
  0
LINE
  5
15B
  8
0
  6
BYBLOCK
 62
     0
 10
607.532739
 20
-431.0
 30
0.0
 11
607.532739
 21
-446.0
 31
0.0
  0
INSERT
  5
15C
  8
0
  6
BYBLOCK
 62
     0
  2
_ORIGIN
 10
607.532739
 20
-431.0
 30
0.0
 41
10.0
 42
10.0
 43
10.0
 50
270.0
  0
INSERT
  5
15D
  8
0
  6
BYBLOCK
 62
     0
  2
_ORIGIN
 10
607.532739
 20
-446.0
 30
0.0
 41
10.0
 42
10.0
 43
10.0
 50
90.0
  0
TEXT
  5
15E
  8
0
  6
BYBLOCK
 62
     0
 10
597.532739
 20
-525.485474
 30
0.0
 40
30.0
  1
15
 50
90.0
 72
     1
 11
597.532739
 21
-505.485474
 31
0.0
  0
POINT
  5
15F
  8
DEFPOINTS
  6
BYBLOCK
 62
     0
 10
8.235378
 20
-446.0
 30
0.0
  0
POINT
  5
160
  8
DEFPOINTS
  6
BYBLOCK
 62
     0
 10
71.98745
 20
-431.0
 30
0.0
  0
POINT
  5
161
  8
DEFPOINTS
  6
BYBLOCK
 62
     0
 10
607.532739
 20
-431.0
 30
0.0
  0
ENDBLK
  5
162
  8
0
  0
BLOCK
  8
0
  2
*D26
 70
     1
 10
0.0
 20
0.0
 30
0.0
  3
*D26
  1

  0
LINE
  5
165
  8
0
  6
BYBLOCK
 62
     0
 10
18.235378
 20
-446.0
 30
0.0
 11
720.053003
 21
-446.0
 31
0.0
  0
LINE
  5
166
  8
0
  6
BYBLOCK
 62
     0
 10
30.014309
 20
399.0
 30
0.0
 11
720.053003
 21
399.0
 31
0.0
  0
LINE
  5
167
  8
0
  6
BYBLOCK
 62
     0
 10
707.553003
 20
-436.0
 30
0.0
 11
707.553003
 21
389.0
 31
0.0
  0
INSERT
  5
168
  8
0
  6
BYBLOCK
 62
     0
  2
_ORIGIN
 10
707.553003
 20
-446.0
 30
0.0
 41
10.0
 42
10.0
 43
10.0
 50
270.0
  0
INSERT
  5
169
  8
0
  6
BYBLOCK
 62
     0
  2
_ORIGIN
 10
707.553003
 20
399.0
 30
0.0
 41
10.0
 42
10.0
 43
10.0
 50
90.0
  0
TEXT
  5
16A
  8
0
  6
BYBLOCK
 62
     0
 10
697.553003
 20
-61.601318
 30
0.0
 40
30.0
  1
845
 50
90.0
 72
     1
 11
697.553003
 21
-21.601318
 31
0.0
  0
POINT
  5
16B
  8
DEFPOINTS
  6
BYBLOCK
 62
     0
 10
8.235378
 20
-446.0
 30
0.0
  0
POINT
  5
16C
  8
DEFPOINTS
  6
BYBLOCK
 62
     0
 10
20.014309
 20
399.0
 30
0.0
  0
POINT
  5
16D
  8
DEFPOINTS
  6
BYBLOCK
 62
     0
 10
707.553003
 20
399.0
 30
0.0
  0
ENDBLK
  5
16E
  8
0
  0
BLOCK
  8
0
  2
*D27
 70
     1
 10
0.0
 20
0.0
 30
0.0
  3
*D27
  1

  0
LINE
  5
171
  8
0
  6
BYBLOCK
 62
     0
 10
423.893463
 20
0.0
 30
0.0
 11
520.088495
 21
0.0
 31
0.0
  0
LINE
  5
172
  8
0
  6
BYBLOCK
 62
     0
 10
340.821686
 20
-191.0
 30
0.0
 11
520.088495
 21
-191.0
 31
0.0
  0
LINE
  5
173
  8
0
  6
BYBLOCK
 62
     0
 10
507.588495
 20
-10.0
 30
0.0
 11
507.588495
 21
-181.0
 31
0.0
  0
INSERT
  5
174
  8
0
  6
BYBLOCK
 62
     0
  2
_ORIGIN
 10
507.588495
 20
0.0
 30
0.0
 41
10.0
 42
10.0
 43
10.0
 50
90.0
  0
INSERT
  5
175
  8
0
  6
BYBLOCK
 62
     0
  2
_ORIGIN
 10
507.588495
 20
-191.0
 30
0.0
 41
10.0
 42
10.0
 43
10.0
 50
270.0
  0
TEXT
  5
176
  8
0
  6
BYBLOCK
 62
     0
 10
497.588495
 20
-123.882813
 30
0.0
 40
30.0
  1
191
 50
90.0
 72
     1
 11
497.588495
 21
-93.882813
 31
0.0
  0
POINT
  5
177
  8
DEFPOINTS
  6
BYBLOCK
 62
     0
 10
413.893463
 20
0.0
 30
0.0
  0
POINT
  5
178
  8
DEFPOINTS
  6
BYBLOCK
 62
     0
 10
330.821686
 20
-191.0
 30
0.0
  0
POINT
  5
179
  8
DEFPOINTS
  6
BYBLOCK
 62
     0
 10
507.588495
 20
-191.0
 30
0.0
  0
ENDBLK
  5
17A
  8
0
  0
BLOCK
  8
0
  2
*D28
 70
     1
 10
0.0
 20
0.0
 30
0.0
  3
*D28
  1

  0
LINE
  5
17D
  8
0
  6
BYBLOCK
 62
     0
 10
-330.821686
 20
-201.0
 30
0.0
 11
-330.821686
 21
-614.154016
 31
0.0
  0
LINE
  5
17E
  8
0
  6
BYBLOCK
 62
     0
 10
330.821686
 20
-201.0
 30
0.0
 11
330.821686
 21
-614.154016
 31
0.0
  0
LINE
  5
17F
  8
0
  6
BYBLOCK
 62
     0
 10
-320.821686
 20
-601.654016
 30
0.0
 11
320.821686
 21
-601.654016
 31
0.0
  0
INSERT
  5
180
  8
0
  6
BYBLOCK
 62
     0
  2
_ORIGIN
 10
-330.821686
 20
-601.654016
 30
0.0
 41
10.0
 42
10.0
 43
10.0
 50
180.0
  0
INSERT
  5
181
  8
0
  6
BYBLOCK
 62
     0
  2
_ORIGIN
 10
330.821686
 20
-601.654016
 30
0.0
 41
10.0
 42
10.0
 43
10.0
  0
TEXT
  5
182
  8
0
  6
BYBLOCK
 62
     0
 10
-37.297297
 20
-591.654016
 30
0.0
 40
30.0
  1
662
 72
     1
 11
2.702703
 21
-591.654016
 31
0.0
  0
POINT
  5
183
  8
DEFPOINTS
  6
BYBLOCK
 62
     0
 10
-330.821686
 20
-191.0
 30
0.0
  0
POINT
  5
184
  8
DEFPOINTS
  6
BYBLOCK
 62
     0
 10
330.821686
 20
-191.0
 30
0.0
  0
POINT
  5
185
  8
DEFPOINTS
  6
BYBLOCK
 62
     0
 10
330.821686
 20
-601.654016
 30
0.0
  0
ENDBLK
  5
186
  8
0
  0
BLOCK
  8
0
  2
*D29
 70
     1
 10
0.0
 20
0.0
 30
0.0
  3
*D29
  1

  0
LINE
  5
189
  8
0
  6
BYBLOCK
 62
     0
 10
133.10236
 20
-76.846744
 30
0.0
 11
137.345899
 21
-79.296755
 31
0.0
  0
LINE
  5
18A
  8
0
  6
BYBLOCK
 62
     0
 10
0.000027
 20
153.693359
 30
0.0
 11
0.000027
 21
158.593393
 31
0.0
  0
ARC
  5
18B
  8
0
  6
BYBLOCK
 62
     0
 10
0.000027
 20
0.0
 30
0.0
 40
146.093393
 50
333.922601
 51
86.077374
  0
INSERT
  5
18C
  8
0
  6
BYBLOCK
 62
     0
  2
_ORIGIN
 10
126.520584
 20
-73.046751
 30
0.0
 41
10.0
 42
10.0
 43
10.0
 50
241.961288
  0
INSERT
  5
18D
  8
0
  6
BYBLOCK
 62
     0
  2
_ORIGIN
 10
0.000027
 20
146.093393
 30
0.0
 41
10.0
 42
10.0
 43
10.0
 50
178.038687
  0
TEXT
  5
18E
  8
0
  6
BYBLOCK
 62
     0
 10
111.178678
 20
117.518956
 30
0.0
 40
30.0
  1
120°
 50
301.357149
 72
     1
 11
133.294451
 21
81.226497
 31
0.0
  0
POINT
  5
18F
  8
DEFPOINTS
  6
BYBLOCK
 62
     0
 10
0.000027
 20
0.0
 30
0.0
  0
POINT
  5
190
  8
DEFPOINTS
  6
BYBLOCK
 62
     0
 10
124.442108
 20
-71.846741
 30
0.0
  0
POINT
  5
191
  8
DEFPOINTS
  6
BYBLOCK
 62
     0
 10
0.000027
 20
143.693359
 30
0.0
  0
POINT
  5
192
  8
DEFPOINTS
  6
BYBLOCK
 62
     0
 10
143.87394
 20
25.36881
 30
0.0
  0
ENDBLK
  5
193
  8
0
  0
BLOCK
  8
0
  2
*D30
 70
     1
 10
0.0
 20
0.0
 30
0.0
  3
*D30
  1

  0
LINE
  5
196
  8
0
  6
BYBLOCK
 62
     0
 10
0.000027
 20
153.693359
 30
0.0
 11
0.000027
 21
158.593376
 31
0.0
  0
LINE
  5
197
  8
0
  6
BYBLOCK
 62
     0
 10
-133.102291
 20
-76.846745
 30
0.0
 11
-137.345827
 21
-79.296754
 31
0.0
  0
ARC
  5
198
  8
0
  6
BYBLOCK
 62
     0
 10
0.000027
 20
0.0
 30
0.0
 40
146.093376
 50
93.922626
 51
206.077402
  0
INSERT
  5
199
  8
0
  6
BYBLOCK
 62
     0
  2
_ORIGIN
 10
0.000027
 20
146.093376
 30
0.0
 41
10.0
 42
10.0
 43
10.0
 50
1.961313
  0
INSERT
  5
19A
  8
0
  6
BYBLOCK
 62
     0
  2
_ORIGIN
 10
-126.520513
 20
-73.046749
 30
0.0
 41
10.0
 42
10.0
 43
10.0
 50
298.038715
  0
TEXT
  5
19B
  8
0
  6
BYBLOCK
 62
     0
 10
-156.430826
 20
41.240542
 30
0.0
 40
30.0
  1
120°
 50
60.000017
 72
     1
 11
-135.180837
 21
78.046628
 31
0.0
  0
POINT
  5
19C
  8
DEFPOINTS
  6
BYBLOCK
 62
     0
 10
0.000027
 20
0.0
 30
0.0
  0
POINT
  5
19D
  8
DEFPOINTS
  6
BYBLOCK
 62
     0
 10
0.000027
 20
143.693359
 30
0.0
  0
POINT
  5
19E
  8
DEFPOINTS
  6
BYBLOCK
 62
     0
 10
-124.442039
 20
-71.846741
 30
0.0
  0
POINT
  5
19F
  8
DEFPOINTS
  6
BYBLOCK
 62
     0
 10
-93.907003
 20
111.914003
 30
0.0
  0
ENDBLK
  5
1A0
  8
0
  0
BLOCK
  8
0
  2
*D31
 70
     1
 10
0.0
 20
0.0
 30
0.0
  3
*D31
  1

  0
LINE
  5
1A3
  8
0
  6
BYBLOCK
 62
     0
 10
-115.781795
 20
-66.846737
 30
0.0
 11
-111.491644
 21
-64.369814
 31
0.0
  0
LINE
  5
1A4
  8
0
  6
BYBLOCK
 62
     0
 10
115.781849
 20
-66.846737
 30
0.0
 11
111.491698
 21
-64.369814
 31
0.0
  0
ARC
  5
1A5
  8
0
  6
BYBLOCK
 62
     0
 10
0.000027
 20
0.0
 30
0.0
 40
141.239526
 50
214.057513
 51
325.942487
  0
INSERT
  5
1A6
  8
0
  6
BYBLOCK
 62
     0
  2
_ORIGIN
 10
-122.316959
 20
-70.619819
 30
0.0
 41
10.0
 42
10.0
 43
10.0
 50
122.02877
  0
INSERT
  5
1A7
  8
0
  6
BYBLOCK
 62
     0
  2
_ORIGIN
 10
122.317012
 20
-70.619819
 30
0.0
 41
10.0
 42
10.0
 43
10.0
 50
57.97123
  0
TEXT
  5
1A8
  8
0
  6
BYBLOCK
 62
     0
 10
-42.499973
 20
-131.239526
 30
0.0
 40
30.0
  1
120°
 72
     1
 11
0.000027
 21
-131.239526
 31
0.0
  0
POINT
  5
1A9
  8
DEFPOINTS
  6
BYBLOCK
 62
     0
 10
0.000027
 20
0.0
 30
0.0
  0
POINT
  5
1AA
  8
DEFPOINTS
  6
BYBLOCK
 62
     0
 10
-124.442047
 20
-71.846741
 30
0.0
  0
POINT
  5
1AB
  8
DEFPOINTS
  6
BYBLOCK
 62
     0
 10
124.442101
 20
-71.846741
 30
0.0
  0
POINT
  5
1AC
  8
DEFPOINTS
  6
BYBLOCK
 62
     0
 10
48.306769
 20
-132.721748
 30
0.0
  0
ENDBLK
  5
1AD
  8
0
  0
BLOCK
  8
0
  2
*D32
 70
     1
 10
0.0
 20
0.0
 30
0.0
  3
*D32
  1

  0
LINE
  5
1B0
  8
0
  6
BYBLOCK
 62
     0
 10
-46.499973
 20
385.308533
 30
0.0
 11
-46.499973
 21
513.57041
 31
0.0
  0
LINE
  5
1B1
  8
0
  6
BYBLOCK
 62
     0
 10
46.500027
 20
385.308533
 30
0.0
 11
46.500027
 21
513.57041
 31
0.0
  0
LINE
  5
1B2
  8
0
  6
BYBLOCK
 62
     0
 10
-36.499973
 20
501.07041
 30
0.0
 11
36.500027
 21
501.07041
 31
0.0
  0
INSERT
  5
1B3
  8
0
  6
BYBLOCK
 62
     0
  2
_ORIGIN
 10
-46.499973
 20
501.07041
 30
0.0
 41
10.0
 42
10.0
 43
10.0
 50
180.0
  0
INSERT
  5
1B4
  8
0
  6
BYBLOCK
 62
     0
  2
_ORIGIN
 10
46.500027
 20
501.07041
 30
0.0
 41
10.0
 42
10.0
 43
10.0
  0
TEXT
  5
1B5
  8
0
  6
BYBLOCK
 62
     0
 10
-25.372987
 20
511.07041
 30
0.0
 40
30.0
  1
93
 72
     1
 11
-0.372987
 21
511.07041
 31
0.0
  0
POINT
  5
1B6
  8
DEFPOINTS
  6
BYBLOCK
 62
     0
 10
-46.499973
 20
375.308533
 30
0.0
  0
POINT
  5
1B7
  8
DEFPOINTS
  6
BYBLOCK
 62
     0
 10
46.500027
 20
375.308533
 30
0.0
  0
POINT
  5
1B8
  8
DEFPOINTS
  6
BYBLOCK
 62
     0
 10
46.500027
 20
501.07041
 30
0.0
  0
ENDBLK
  5
1B9
  8
0
  0
BLOCK
  8
0
  2
*D33
 70
     1
 10
0.0
 20
0.0
 30
0.0
  3
*D33
  1

  0
LINE
  5
1BC
  8
0
  6
BYBLOCK
 62
     0
 10
-32.904758
 20
382.0
 30
0.0
 11
-200.133658
 21
382.0
 31
0.0
  0
LINE
  5
1BD
  8
0
  6
BYBLOCK
 62
     0
 10
-29.91428
 20
399.0
 30
0.0
 11
-200.133658
 21
399.0
 31
0.0
  0
LINE
  5
1BE
  8
0
  6
BYBLOCK
 62
     0
 10
-187.633658
 20
372.0
 30
0.0
 11
-187.633658
 21
362.0
 31
0.0
  0
LINE
  5
1BF
  8
0
  6
BYBLOCK
 62
     0
 10
-187.633658
 20
409.0
 30
0.0
 11
-187.633658
 21
488.479736
 31
0.0
  0
LINE
  5
1C0
  8
0
  6
BYBLOCK
 62
     0
 10
-187.633658
 20
382.0
 30
0.0
 11
-187.633658
 21
399.0
 31
0.0
  0
INSERT
  5
1C1
  8
0
  6
BYBLOCK
 62
     0
  2
_ORIGIN
 10
-187.633658
 20
382.0
 30
0.0
 41
10.0
 42
10.0
 43
10.0
 50
90.0
  0
INSERT
  5
1C2
  8
0
  6
BYBLOCK
 62
     0
  2
_ORIGIN
 10
-187.633658
 20
399.0
 30
0.0
 41
10.0
 42
10.0
 43
10.0
 50
270.0
  0
TEXT
  5
1C3
  8
0
  6
BYBLOCK
 62
     0
 10
-197.633658
 20
438.479736
 30
0.0
 40
30.0
  1
17
 50
90.0
 72
     1
 11
-197.633658
 21
458.479736
 31
0.0
  0
POINT
  5
1C4
  8
DEFPOINTS
  6
BYBLOCK
 62
     0
 10
-22.904758
 20
382.0
 30
0.0
  0
POINT
  5
1C5
  8
DEFPOINTS
  6
BYBLOCK
 62
     0
 10
-19.91428
 20
399.0
 30
0.0
  0
POINT
  5
1C6
  8
DEFPOINTS
  6
BYBLOCK
 62
     0
 10
-187.633658
 20
399.0
 30
0.0
  0
ENDBLK
  5
1C7
  8
0
  0
BLOCK
  8
0
  2
*D34
 70
     1
 10
0.0
 20
0.0
 30
0.0
  3
*D34
  1

  0
LINE
  5
1CA
  8
0
  6
BYBLOCK
 62
     0
 10
-36.899998
 20
280.0
 30
0.0
 11
-288.956061
 21
280.0
 31
0.0
  0
LINE
  5
1CB
  8
0
  6
BYBLOCK
 62
     0
 10
-29.91428
 20
399.0
 30
0.0
 11
-288.956061
 21
399.0
 31
0.0
  0
LINE
  5
1CC
  8
0
  6
BYBLOCK
 62
     0
 10
-276.456061
 20
290.0
 30
0.0
 11
-276.456061
 21
389.0
 31
0.0
  0
INSERT
  5
1CD
  8
0
  6
BYBLOCK
 62
     0
  2
_ORIGIN
 10
-276.456061
 20
280.0
 30
0.0
 41
10.0
 42
10.0
 43
10.0
 50
270.0
  0
INSERT
  5
1CE
  8
0
  6
BYBLOCK
 62
     0
  2
_ORIGIN
 10
-276.456061
 20
399.0
 30
0.0
 41
10.0
 42
10.0
 43
10.0
 50
90.0
  0
TEXT
  5
1CF
  8
0
  6
BYBLOCK
 62
     0
 10
-286.456061
 20
309.203949
 30
0.0
 40
30.0
  1
119
 50
90.0
 72
     1
 11
-286.456061
 21
339.203949
 31
0.0
  0
POINT
  5
1D0
  8
DEFPOINTS
  6
BYBLOCK
 62
     0
 10
-26.899998
 20
280.0
 30
0.0
  0
POINT
  5
1D1
  8
DEFPOINTS
  6
BYBLOCK
 62
     0
 10
-19.91428
 20
399.0
 30
0.0
  0
POINT
  5
1D2
  8
DEFPOINTS
  6
BYBLOCK
 62
     0
 10
-276.456061
 20
399.0
 30
0.0
  0
ENDBLK
  5
1D3
  8
0
  0
BLOCK
  8
0
  2
*D35
 70
     1
 10
0.0
 20
0.0
 30
0.0
  3
*D35
  1

  0
LINE
  5
1D6
  8
0
  6
BYBLOCK
 62
     0
 10
-360.0
 20
-441.0
 30
0.0
 11
-360.0
 21
-699.289209
 31
0.0
  0
LINE
  5
1D7
  8
0
  6
BYBLOCK
 62
     0
 10
360.0
 20
-441.0
 30
0.0
 11
360.0
 21
-699.289209
 31
0.0
  0
LINE
  5
1D8
  8
0
  6
BYBLOCK
 62
     0
 10
-350.0
 20
-686.789209
 30
0.0
 11
350.0
 21
-686.789209
 31
0.0
  0
INSERT
  5
1D9
  8
0
  6
BYBLOCK
 62
     0
  2
_ORIGIN
 10
-360.0
 20
-686.789209
 30
0.0
 41
10.0
 42
10.0
 43
10.0
 50
180.0
  0
INSERT
  5
1DA
  8
0
  6
BYBLOCK
 62
     0
  2
_ORIGIN
 10
360.0
 20
-686.789209
 30
0.0
 41
10.0
 42
10.0
 43
10.0
  0
TEXT
  5
1DB
  8
0
  6
BYBLOCK
 62
     0
 10
-37.5
 20
-676.789209
 30
0.0
 40
30.0
  1
720
 72
     1
 11
0.0
 21
-676.789209
 31
0.0
  0
POINT
  5
1DC
  8
DEFPOINTS
  6
BYBLOCK
 62
     0
 10
-360.0
 20
-431.0
 30
0.0
  0
POINT
  5
1DD
  8
DEFPOINTS
  6
BYBLOCK
 62
     0
 10
360.0
 20
-431.0
 30
0.0
  0
POINT
  5
1DE
  8
DEFPOINTS
  6
BYBLOCK
 62
     0
 10
360.0
 20
-686.789209
 30
0.0
  0
ENDBLK
  5
1DF
  8
0
  0
BLOCK
  8
0
  2
*D36
 70
     1
 10
0.0
 20
0.0
 30
0.0
  3
*D36
  1

  0
LINE
  5
1E2
  8
0
  6
BYBLOCK
 62
     0
 10
-370.0
 20
-1731.0
 30
0.0
 11
-474.9
 21
-1731.0
 31
0.0
  0
LINE
  5
1E3
  8
0
  6
BYBLOCK
 62
     0
 10
-370.0
 20
-431.0
 30
0.0
 11
-474.9
 21
-431.0
 31
0.0
  0
LINE
  5
1E4
  8
0
  6
BYBLOCK
 62
     0
 10
-462.4
 20
-1721.0
 30
0.0
 11
-462.4
 21
-441.0
 31
0.0
  0
INSERT
  5
1E5
  8
0
  6
BYBLOCK
 62
     0
  2
_ORIGIN
 10
-462.4
 20
-1731.0
 30
0.0
 41
10.0
 42
10.0
 43
10.0
 50
270.0
  0
INSERT
  5
1E6
  8
0
  6
BYBLOCK
 62
     0
  2
_ORIGIN
 10
-462.4
 20
-431.0
 30
0.0
 41
10.0
 42
10.0
 43
10.0
 50
90.0
  0
TEXT
  5
1E7
  8
0
  6
BYBLOCK
 62
     0
 10
-472.4
 20
-1126.0
 30
0.0
 40
30.0
  1
1300
 50
90.0
 72
     1
 11
-472.4
 21
-1081.0
 31
0.0
  0
POINT
  5
1E8
  8
DEFPOINTS
  6
BYBLOCK
 62
     0
 10
-360.0
 20
-1731.0
 30
0.0
  0
POINT
  5
1E9
  8
DEFPOINTS
  6
BYBLOCK
 62
     0
 10
-360.0
 20
-431.0
 30
0.0
  0
POINT
  5
1EA
  8
DEFPOINTS
  6
BYBLOCK
 62
     0
 10
-462.4
 20
-431.0
 30
0.0
  0
ENDBLK
  5
1EB
  8
0
  0
BLOCK
  8
0
  2
*D37
 70
     1
 10
0.0
 20
0.0
 30
0.0
  3
*D37
  1

  0
LINE
  5
1EE
  8
0
  6
BYBLOCK
 62
     0
 10
360.0
 20
10.0
 30
0.0
 11
360.0
 21
611.17041
 31
0.0
  0
LINE
  5
1EF
  8
0
  6
BYBLOCK
 62
     0
 10
-360.0
 20
10.0
 30
0.0
 11
-360.0
 21
611.17041
 31
0.0
  0
LINE
  5
1F0
  8
0
  6
BYBLOCK
 62
     0
 10
350.0
 20
598.67041
 30
0.0
 11
-350.0
 21
598.67041
 31
0.0
  0
INSERT
  5
1F1
  8
0
  6
BYBLOCK
 62
     0
  2
_ORIGIN
 10
360.0
 20
598.67041
 30
0.0
 41
10.0
 42
10.0
 43
10.0
  0
INSERT
  5
1F2
  8
0
  6
BYBLOCK
 62
     0
  2
_ORIGIN
 10
-360.0
 20
598.67041
 30
0.0
 41
10.0
 42
10.0
 43
10.0
 50
180.0
  0
TEXT
  5
1F3
  8
0
  6
BYBLOCK
 62
     0
 10
-37.5
 20
608.67041
 30
0.0
 40
30.0
  1
720
 72
     1
 11
0.0
 21
608.67041
 31
0.0
  0
POINT
  5
1F4
  8
DEFPOINTS
  6
BYBLOCK
 62
     0
 10
360.0
 20
0.0
 30
0.0
  0
POINT
  5
1F5
  8
DEFPOINTS
  6
BYBLOCK
 62
     0
 10
-360.0
 20
0.0
 30
0.0
  0
POINT
  5
1F6
  8
DEFPOINTS
  6
BYBLOCK
 62
     0
 10
-360.0
 20
598.67041
 30
0.0
  0
ENDBLK
  5
1F7
  8
0
  0
BLOCK
  8
0
  2
*D38
 70
     1
 10
0.0
 20
0.0
 30
0.0
  3
*D38
  1

  0
LINE
  5
1FA
  8
0
  6
BYBLOCK
 62
     0
 10
226.181145
 20
-330.586883
 30
0.0
 11
177.810085
 21
-367.569371
 31
0.0
  0
LINE
  5
1FB
  8
0
  6
BYBLOCK
 62
     0
 10
210.711159
 20
-292.063018
 30
0.0
 11
153.515035
 21
-335.792782
 31
0.0
  0
LINE
  5
1FC
  8
0
  6
BYBLOCK
 62
     0
 10
169.518976
 20
-336.144726
 30
0.0
 11
181.666505
 21
-352.033026
 31
0.0
  0
LINE
  5
1FD
  8
0
  6
BYBLOCK
 62
     0
 10
187.740266
 20
-359.977171
 30
0.0
 11
233.29347
 21
-419.558255
 31
0.0
  0
INSERT
  5
1FE
  8
0
  6
BYBLOCK
 62
     0
  2
_ORIGIN
 10
163.445215
 20
-328.200581
 30
0.0
 41
10.0
 42
10.0
 43
10.0
 50
127.400015
  0
INSERT
  5
1FF
  8
0
  6
BYBLOCK
 62
     0
  2
_ORIGIN
 10
187.740266
 20
-359.977171
 30
0.0
 41
10.0
 42
10.0
 43
10.0
 50
307.400015
  0
TEXT
  5
200
  8
0
  6
BYBLOCK
 62
     0
 10
207.83193
 20
-369.791706
 30
0.0
 40
30.0
  1
40
 50
307.400029
 72
     1
 11
221.497895
 21
-387.666028
 31
0.0
  0
POINT
  5
201
  8
DEFPOINTS
  6
BYBLOCK
 62
     0
 10
234.12529
 20
-324.513123
 30
0.0
  0
POINT
  5
202
  8
DEFPOINTS
  6
BYBLOCK
 62
     0
 10
218.655304
 20
-285.989258
 30
0.0
  0
POINT
  5
203
  8
DEFPOINTS
  6
BYBLOCK
 62
     0
 10
163.445215
 20
-328.200581
 30
0.0
  0
ENDBLK
  5
204
  8
0
  0
BLOCK
  8
0
  2
*D39
 70
     1
 10
0.0
 20
0.0
 30
0.0
  3
*D39
  1

  0
LINE
  5
207
  8
0
  6
BYBLOCK
 62
     0
 10
-225.383689
 20
-331.196561
 30
0.0
 11
-178.757848
 21
-366.844705
 31
0.0
  0
LINE
  5
208
  8
0
  6
BYBLOCK
 62
     0
 10
-210.711158
 20
-292.063016
 30
0.0
 11
-154.462814
 21
-335.068118
 31
0.0
  0
LINE
  5
209
  8
0
  6
BYBLOCK
 62
     0
 10
-170.466756
 20
-335.420067
 30
0.0
 11
-182.614273
 21
-351.308361
 31
0.0
  0
LINE
  5
20A
  8
0
  6
BYBLOCK
 62
     0
 10
-188.688031
 20
-359.252508
 30
0.0
 11
-247.519089
 21
-436.200343
 31
0.0
  0
INSERT
  5
20B
  8
0
  6
BYBLOCK
 62
     0
  2
_ORIGIN
 10
-164.392998
 20
-327.475921
 30
0.0
 41
10.0
 42
10.0
 43
10.0
 50
52.600002
  0
INSERT
  5
20C
  8
0
  6
BYBLOCK
 62
     0
  2
_ORIGIN
 10
-188.688031
 20
-359.252508
 30
0.0
 41
10.0
 42
10.0
 43
10.0
 50
232.600002
  0
TEXT
  5
20D
  8
0
  6
BYBLOCK
 62
     0
 10
-249.389476
 20
-422.182438
 30
0.0
 40
30.0
  1
40
 50
52.600006
 72
     1
 11
-235.723521
 21
-404.308108
 31
0.0
  0
POINT
  5
20E
  8
DEFPOINTS
  6
BYBLOCK
 62
     0
 10
-233.327835
 20
-325.122803
 30
0.0
  0
POINT
  5
20F
  8
DEFPOINTS
  6
BYBLOCK
 62
     0
 10
-218.655304
 20
-285.989258
 30
0.0
  0
POINT
  5
210
  8
DEFPOINTS
  6
BYBLOCK
 62
     0
 10
-164.392998
 20
-327.475921
 30
0.0
  0
ENDBLK
  5
211
  8
0
  0
ENDSEC
  0
SECTION
  2
ENTITIES
  0
LINE
  5
212
  8
OUTLINE
  6
CONTINUOUS
 10
-71.987408
 20
-431.0
 30
0.0
 11
71.987408
 21
-431.0
 31
0.0
  0
ARC
  5
213
  8
OUTLINE
  6
CONTINUOUS
 10
-71.987408
 20
-386.0
 30
0.0
 40
45.0
 50
191.0
 51
270.0
  0
ARC
  5
214
  8
OUTLINE
  6
CONTINUOUS
 10
71.987408
 20
-386.0
 30
0.0
 40
45.0
 50
270.0
 51
349.0
  0
ARC
  5
215
  8
OUTLINE
  6
CONTINUOUS
 10
-120.5
 20
-340.817227
 30
0.0
 40
6.0
 50
180.0
 51
191.0
  0
LINE
  5
216
  8
OUTLINE
  6
CONTINUOUS
 10
-116.160631
 20
-394.586405
 30
0.0
 11
-126.389763
 21
-341.962081
 31
0.0
  0
ARC
  5
217
  8
OUTLINE
  6
CONTINUOUS
 10
120.5
 20
-340.817227
 30
0.0
 40
6.0
 50
349.0
 51
0.0
  0
LINE
  5
218
  8
OUTLINE
  6
CONTINUOUS
 10
116.160631
 20
-394.586405
 30
0.0
 11
126.389763
 21
-341.962081
 31
0.0
  0
LINE
  5
219
  8
OUTLINE
  6
CONTINUOUS
 10
126.5
 20
-337.042653
 30
0.0
 11
126.5
 21
-340.817227
 31
0.0
  0
LINE
  5
21A
  8
OUTLINE
  6
CONTINUOUS
 10
-126.5
 20
-337.042653
 30
0.0
 11
-126.5
 21
-340.817227
 31
0.0
  0
LINE
  5
21B
  8
OUTLINE
  6
CONTINUOUS
 10
-335.586992
 20
-216.74628
 30
0.0
 11
-355.55128
 21
-182.167118
 31
0.0
  0
ARC
  5
21C
  8
OUTLINE
  6
CONTINUOUS
 10
-311.490156
 20
-210.90037
 30
0.0
 40
19.6
 50
240.963757
 51
300.0
  0
LINE
  5
21D
  8
OUTLINE
  6
CONTINUOUS
 10
-321.003267
 20
-228.036902
 30
0.0
 11
-328.126004
 21
-224.082812
 31
0.0
  0
ARC
  5
21E
  8
OUTLINE
  6
CONTINUOUS
 10
-318.612894
 20
-206.94628
 30
0.0
 40
19.6
 50
210.0
 51
240.963757
  0
ARC
  5
21F
  8
OUTLINE
  6
CONTINUOUS
 10
-338.527183
 20
-172.45372
 30
0.0
 40
19.6
 50
179.036243
 51
210.0
  0
LINE
  5
220
  8
OUTLINE
  6
CONTINUOUS
 10
-357.987383
 20
-163.978533
 30
0.0
 11
-358.12441
 21
-172.124049
 31
0.0
  0
ARC
  5
221
  8
OUTLINE
  6
CONTINUOUS
 10
-338.390156
 20
-164.308203
 30
0.0
 40
19.6
 50
120.0
 51
179.036243
  0
ARC
  5
222
  8
OUTLINE
  6
CONTINUOUS
 10
0.0
 20
0.0
 30
0.0
 40
360.0
 50
97.43749
 51
202.57856
  0
LINE
  5
223
  8
OUTLINE
  6
CONTINUOUS
 10
-19.914289
 20
399.0
 30
0.0
 11
20.014289
 21
399.0
 31
0.0
  0
LINE
  5
224
  8
OUTLINE
  6
CONTINUOUS
 10
-26.9
 20
280.0
 30
0.0
 11
27.0
 21
280.0
 31
0.0
  0
LINE
  5
225
  8
OUTLINE
  6
CONTINUOUS
 10
-46.5
 20
375.308573
 30
0.0
 11
-46.5
 21
299.5
 31
0.0
  0
ARC
  5
226
  8
OUTLINE
  6
CONTINUOUS
 10
-26.9
 20
299.6
 30
0.0
 40
19.6
 50
180.0
 51
270.0
  0
ARC
  5
227
  8
OUTLINE
  6
CONTINUOUS
 10
-26.9
 20
375.208573
 30
0.0
 40
19.6
 50
120.963757
 51
180.0
  0
LINE
  5
228
  8
OUTLINE
  6
CONTINUOUS
 10
-36.984117
 20
392.015435
 30
0.0
 11
-29.998405
 21
396.206861
 31
0.0
  0
ARC
  5
229
  8
OUTLINE
  6
CONTINUOUS
 10
-19.914289
 20
379.4
 30
0.0
 40
19.6
 50
90.0
 51
120.963757
  0
ARC
  5
22A
  8
OUTLINE
  6
CONTINUOUS
 10
19.914289
 20
379.4
 30
0.0
 40
19.6
 50
59.036243
 51
90.0
  0
LINE
  5
22B
  8
OUTLINE
  6
CONTINUOUS
 10
36.984117
 20
392.015435
 30
0.0
 11
29.998405
 21
396.206861
 31
0.0
  0
ARC
  5
22C
  8
OUTLINE
  6
CONTINUOUS
 10
26.9
 20
375.208573
 30
0.0
 40
19.6
 50
0.0
 51
59.036243
  0
LINE
  5
22D
  8
OUTLINE
  6
CONTINUOUS
 10
46.5
 20
375.308573
 30
0.0
 11
46.5
 21
299.5
 31
0.0
  0
ARC
  5
22E
  8
OUTLINE
  6
CONTINUOUS
 10
26.9
 20
299.6
 30
0.0
 40
19.6
 50
270.0
 51
0.0
  0
ARC
  5
22F
  8
OUTLINE
  6
CONTINUOUS
 10
246.011211
 20
-173.096083
 30
0.0
 40
19.6
 50
150.0
 51
240.0
  0
LINE
  5
230
  8
OUTLINE
  6
CONTINUOUS
 10
301.776759
 20
-227.924468
 30
0.0
 11
236.124608
 21
-190.020181
 31
0.0
  0
ARC
  5
231
  8
OUTLINE
  6
CONTINUOUS
 10
311.490156
 20
-210.90037
 30
0.0
 40
19.6
 50
240.0
 51
299.036243
  0
LINE
  5
232
  8
OUTLINE
  6
CONTINUOUS
 10
321.003267
 20
-228.036902
 30
0.0
 11
328.126004
 21
-224.082812
 31
0.0
  0
ARC
  5
233
  8
OUTLINE
  6
CONTINUOUS
 10
318.612894
 20
-206.94628
 30
0.0
 40
19.6
 50
299.036243
 51
330.0
  0
ARC
  5
234
  8
OUTLINE
  6
CONTINUOUS
 10
338.527183
 20
-172.45372
 30
0.0
 40
19.6
 50
330.0
 51
0.963757
  0
LINE
  5
235
  8
OUTLINE
  6
CONTINUOUS
 10
357.987383
 20
-163.978533
 30
0.0
 11
358.12441
 21
-172.124049
 31
0.0
  0
ARC
  5
236
  8
OUTLINE
  6
CONTINUOUS
 10
338.390156
 20
-164.308203
 30
0.0
 40
19.6
 50
0.963757
 51
60.0
  0
ARC
  5
237
  8
OUTLINE
  6
CONTINUOUS
 10
272.911211
 20
-126.503917
 30
0.0
 40
19.6
 50
60.0
 51
150.0
  0
LINE
  5
238
  8
OUTLINE
  6
CONTINUOUS
 10
348.276759
 20
-147.384105
 30
0.0
 11
282.624608
 21
-109.479819
 31
0.0
  0
LINE
  5
239
  8
OUTLINE
  6
CONTINUOUS
 10
255.937113
 20
-116.703917
 30
0.0
 11
228.987113
 21
-163.382686
 31
0.0
  0
LINE
  5
23A
  8
OUTLINE
  6
CONTINUOUS
 10
355.50128
 20
-182.25372
 30
0.0
 11
335.536992
 21
-216.832882
 31
0.0
  0
ARC
  5
23B
  8
OUTLINE
  6
CONTINUOUS
 10
-272.911211
 20
-126.503917
 30
0.0
 40
19.6
 50
30.0
 51
120.0
  0
LINE
  5
23C
  8
OUTLINE
  6
CONTINUOUS
 10
-348.276759
 20
-147.384105
 30
0.0
 11
-282.624608
 21
-109.479819
 31
0.0
  0
ARC
  5
23D
  8
OUTLINE
  6
CONTINUOUS
 10
-246.011211
 20
-173.096083
 30
0.0
 40
19.6
 50
300.0
 51
30.0
  0
LINE
  5
23E
  8
OUTLINE
  6
CONTINUOUS
 10
-301.776759
 20
-227.924468
 30
0.0
 11
-236.124608
 21
-190.020181
 31
0.0
  0
LINE
  5
23F
  8
OUTLINE
  6
CONTINUOUS
 10
-229.037113
 20
-163.296083
 30
0.0
 11
-255.987113
 21
-116.617314
 31
0.0
  0
ARC
  5
240
  8
OUTLINE
  6
CONTINUOUS
 10
0.0
 20
0.0
 30
0.0
 40
360.0
 50
337.42144
 51
82.57856
  0
ARC
  5
241
  8
OUTLINE
  6
CONTINUOUS
 10
0.0
 20
0.0
 30
0.0
 40
360.0
 50
217.42144
 51
322.57856
  0
LINE
  5
242
  8
DETAIL
  6
CONTINUOUS
 10
-50.770294
 20
-441.0
 30
0.0
 11
50.770294
 21
-441.0
 31
0.0
  0
ARC
  5
243
  8
DETAIL
  6
CONTINUOUS
 10
-50.770294
 20
-439.5
 30
0.0
 40
1.5
 50
191.309932
 51
270.0
  0
LINE
  5
244
  8
DETAIL
  6
CONTINUOUS
 10
-52.241165
 20
-439.794174
 30
0.0
 11
-54.0
 21
-431.0
 31
0.0
  0
LINE
  5
245
  8
DETAIL
  6
CONTINUOUS
 10
-8.264646
 20
-446.0
 30
0.0
 11
8.235354
 21
-446.0
 31
0.0
  0
LINE
  5
246
  8
DETAIL
  6
CONTINUOUS
 10
-8.264646
 20
-441.0
 30
0.0
 11
-8.264646
 21
-446.0
 31
0.0
  0
LINE
  5
247
  8
DETAIL
  6
CONTINUOUS
 10
52.241165
 20
-439.794174
 30
0.0
 11
54.0
 21
-431.0
 31
0.0
  0
ARC
  5
248
  8
DETAIL
  6
CONTINUOUS
 10
50.770294
 20
-439.5
 30
0.0
 40
1.5
 50
270.0
 51
348.690068
  0
LINE
  5
249
  8
DETAIL
  6
CONTINUOUS
 10
8.235354
 20
-441.0
 30
0.0
 11
8.235354
 21
-446.0
 31
0.0
  0
CIRCLE
  5
24A
  8
DETAIL
  6
CONTINUOUS
 10
-35.0
 20
-290.0
 30
0.0
 40
20.0
  0
CIRCLE
  5
24B
  8
DETAIL
  6
CONTINUOUS
 10
-35.0
 20
-290.0
 30
0.0
 40
9.0
  0
CIRCLE
  5
24C
  8
DETAIL
  6
CONTINUOUS
 10
-35.0
 20
-290.0
 30
0.0
 40
7.0
  0
CIRCLE
  5
24D
  8
DETAIL
  6
CONTINUOUS
 10
0.0
 20
-223.0
 30
0.0
 40
40.0
  0
CIRCLE
  5
24E
  8
DETAIL
  6
CONTINUOUS
 10
0.0
 20
-223.0
 30
0.0
 40
30.0
  0
CIRCLE
  5
24F
  8
DETAIL
  6
CONTINUOUS
 10
0.0
 20
-223.0
 30
0.0
 40
12.25
  0
LINE
  5
250
  8
DETAIL
  6
CONTINUOUS
 10
-233.327836
 20
-325.122805
 30
0.0
 11
-252.572836
 21
-310.408891
 31
0.0
  0
LINE
  5
251
  8
DETAIL
  6
CONTINUOUS
 10
-233.327836
 20
-325.122805
 30
0.0
 11
-221.820908
 21
-312.521111
 31
0.0
  0
LINE
  5
252
  8
DETAIL
  6
CONTINUOUS
 10
-234.125285
 20
-324.513109
 30
0.0
 11
-222.618357
 21
-311.911415
 31
0.0
  0
LINE
  5
253
  8
DETAIL
  6
CONTINUOUS
 10
-251.775387
 20
-311.018587
 30
0.0
 11
-242.631536
 21
-296.610184
 31
0.0
  0
LINE
  5
254
  8
DETAIL
  6
CONTINUOUS
 10
-252.572836
 20
-310.408891
 30
0.0
 11
-243.428985
 21
-296.000488
 31
0.0
  0
LINE
  5
255
  8
DETAIL
  6
CONTINUOUS
 10
-221.820908
 20
-312.521111
 30
0.0
 11
-243.428985
 21
-296.000488
 31
0.0
  0
LINE
  5
256
  8
DETAIL
  6
CONTINUOUS
 10
-207.69518
 20
-294.045426
 30
0.0
 11
-221.820908
 21
-312.521111
 31
0.0
  0
LINE
  5
257
  8
DETAIL
  6
CONTINUOUS
 10
-229.303257
 20
-277.524803
 30
0.0
 11
-243.428985
 21
-296.000488
 31
0.0
  0
LINE
  5
258
  8
DETAIL
  6
CONTINUOUS
 10
233.327836
 20
-325.122805
 30
0.0
 11
252.572836
 21
-310.408891
 31
0.0
  0
LINE
  5
259
  8
DETAIL
  6
CONTINUOUS
 10
233.327836
 20
-325.122805
 30
0.0
 11
221.820908
 21
-312.521111
 31
0.0
  0
LINE
  5
25A
  8
DETAIL
  6
CONTINUOUS
 10
234.125285
 20
-324.513109
 30
0.0
 11
222.618357
 21
-311.911415
 31
0.0
  0
LINE
  5
25B
  8
DETAIL
  6
CONTINUOUS
 10
251.775387
 20
-311.018587
 30
0.0
 11
242.631536
 21
-296.610184
 31
0.0
  0
LINE
  5
25C
  8
DETAIL
  6
CONTINUOUS
 10
252.572836
 20
-310.408891
 30
0.0
 11
243.428985
 21
-296.000488
 31
0.0
  0
LINE
  5
25D
  8
DETAIL
  6
CONTINUOUS
 10
221.820908
 20
-312.521111
 30
0.0
 11
243.428985
 21
-296.000488
 31
0.0
  0
LINE
  5
25E
  8
DETAIL
  6
CONTINUOUS
 10
207.69518
 20
-294.045426
 30
0.0
 11
221.820908
 21
-312.521111
 31
0.0
  0
LINE
  5
25F
  8
DETAIL
  6
CONTINUOUS
 10
229.303257
 20
-277.524803
 30
0.0
 11
243.428985
 21
-296.000488
 31
0.0
  0
CIRCLE
  5
260
  8
DETAIL
  6
CONTINUOUS
 10
274.775244
 20
-173.075318
 30
0.0
 40
3.242001
  0
LINE
  5
261
  8
DETAIL
  6
CONTINUOUS
 10
281.782645
 20
-169.038137
 30
0.0
 11
274.767844
 21
-164.988139
 31
0.0
  0
LINE
  5
262
  8
DETAIL
  6
CONTINUOUS
 10
267.760434
 20
-169.025317
 30
0.0
 11
267.767837
 21
-177.112496
 31
0.0
  0
LINE
  5
263
  8
DETAIL
  6
CONTINUOUS
 10
267.767842
 20
-177.112498
 30
0.0
 11
274.782643
 21
-181.162496
 31
0.0
  0
LINE
  5
264
  8
DETAIL
  6
CONTINUOUS
 10
274.782648
 20
-181.162498
 30
0.0
 11
281.790052
 21
-177.125321
 31
0.0
  0
LINE
  5
265
  8
DETAIL
  6
CONTINUOUS
 10
281.790053
 20
-177.125318
 30
0.0
 11
281.78265
 21
-169.038139
 31
0.0
  0
LINE
  5
266
  8
DETAIL
  6
CONTINUOUS
 10
274.767839
 20
-164.988137
 30
0.0
 11
267.760435
 21
-169.025314
 31
0.0
  0
CIRCLE
  5
267
  8
DETAIL
  6
CONTINUOUS
 10
287.275244
 20
-151.424682
 30
0.0
 40
3.242001
  0
LINE
  5
268
  8
DETAIL
  6
CONTINUOUS
 10
287.282643
 20
-159.511861
 30
0.0
 11
280.267842
 21
-155.461863
 31
0.0
  0
LINE
  5
269
  8
DETAIL
  6
CONTINUOUS
 10
280.260435
 20
-147.374679
 30
0.0
 11
287.267839
 21
-143.337502
 31
0.0
  0
LINE
  5
26A
  8
DETAIL
  6
CONTINUOUS
 10
287.267844
 20
-143.337504
 30
0.0
 11
294.282645
 21
-147.387502
 31
0.0
  0
LINE
  5
26B
  8
DETAIL
  6
CONTINUOUS
 10
294.28265
 20
-147.387504
 30
0.0
 11
294.290053
 21
-155.474683
 31
0.0
  0
LINE
  5
26C
  8
DETAIL
  6
CONTINUOUS
 10
294.290052
 20
-155.474686
 30
0.0
 11
287.282648
 21
-159.511863
 31
0.0
  0
LINE
  5
26D
  8
DETAIL
  6
CONTINUOUS
 10
325.16626
 20
-165.795517
 30
0.0
 11
306.16626
 21
-198.704483
 31
0.0
  0
LINE
  5
26E
  8
DETAIL
  6
CONTINUOUS
 10
284.309853
 20
-204.560889
 30
0.0
 11
248.802812
 21
-184.060889
 31
0.0
  0
ARC
  5
26F
  8
DETAIL
  6
CONTINUOUS
 10
292.309853
 20
-190.704483
 30
0.0
 40
16.0
 50
240.0
 51
330.0
  0
LINE
  5
270
  8
DETAIL
  6
CONTINUOUS
 10
261.946405
 20
-129.295517
 30
0.0
 11
242.946405
 21
-162.204483
 31
0.0
  0
ARC
  5
271
  8
DETAIL
  6
CONTINUOUS
 10
256.802812
 20
-170.204483
 30
0.0
 40
16.0
 50
150.0
 51
240.0
  0
LINE
  5
272
  8
DETAIL
  6
CONTINUOUS
 10
319.309853
 20
-143.939111
 30
0.0
 11
283.802812
 21
-123.439111
 31
0.0
  0
ARC
  5
273
  8
DETAIL
  6
CONTINUOUS
 10
275.802812
 20
-137.295517
 30
0.0
 40
16.0
 50
60.0
 51
150.0
  0
ARC
  5
274
  8
DETAIL
  6
CONTINUOUS
 10
311.309853
 20
-157.795517
 30
0.0
 40
16.0
 50
330.0
 51
60.0
  0
LINE
  5
275
  8
DETAIL
  6
CONTINUOUS
 10
-306.16626
 20
-198.704483
 30
0.0
 11
-325.16626
 21
-165.795517
 31
0.0
  0
ARC
  5
276
  8
DETAIL
  6
CONTINUOUS
 10
-292.309853
 20
-190.704483
 30
0.0
 40
16.0
 50
210.0
 51
300.0
  0
CIRCLE
  5
277
  8
DETAIL
  6
CONTINUOUS
 10
-274.775244
 20
-173.075318
 30
0.0
 40
3.242001
  0
LINE
  5
278
  8
DETAIL
  6
CONTINUOUS
 10
-267.760434
 20
-169.025317
 30
0.0
 11
-267.767837
 21
-177.112496
 31
0.0
  0
LINE
  5
279
  8
DETAIL
  6
CONTINUOUS
 10
-267.767842
 20
-177.112498
 30
0.0
 11
-274.782643
 21
-181.162496
 31
0.0
  0
LINE
  5
27A
  8
DETAIL
  6
CONTINUOUS
 10
-274.782648
 20
-181.162498
 30
0.0
 11
-281.790052
 21
-177.125321
 31
0.0
  0
LINE
  5
27B
  8
DETAIL
  6
CONTINUOUS
 10
-284.309853
 20
-204.560889
 30
0.0
 11
-248.802812
 21
-184.060889
 31
0.0
  0
LINE
  5
27C
  8
DETAIL
  6
CONTINUOUS
 10
-274.767839
 20
-164.988137
 30
0.0
 11
-267.760435
 21
-169.025314
 31
0.0
  0
LINE
  5
27D
  8
DETAIL
  6
CONTINUOUS
 10
-281.782645
 20
-169.038137
 30
0.0
 11
-274.767844
 21
-164.988139
 31
0.0
  0
LINE
  5
27E
  8
DETAIL
  6
CONTINUOUS
 10
-281.790053
 20
-177.125318
 30
0.0
 11
-281.78265
 21
-169.038139
 31
0.0
  0
LINE
  5
27F
  8
DETAIL
  6
CONTINUOUS
 10
-294.28265
 20
-147.387504
 30
0.0
 11
-294.290053
 21
-155.474683
 31
0.0
  0
CIRCLE
  5
280
  8
DETAIL
  6
CONTINUOUS
 10
-287.275244
 20
-151.424682
 30
0.0
 40
3.242001
  0
LINE
  5
281
  8
DETAIL
  6
CONTINUOUS
 10
-287.282643
 20
-159.511861
 30
0.0
 11
-280.267842
 21
-155.461863
 31
0.0
  0
LINE
  5
282
  8
DETAIL
  6
CONTINUOUS
 10
-280.260435
 20
-147.374679
 30
0.0
 11
-287.267839
 21
-143.337502
 31
0.0
  0
LINE
  5
283
  8
DETAIL
  6
CONTINUOUS
 10
-287.267844
 20
-143.337504
 30
0.0
 11
-294.282645
 21
-147.387502
 31
0.0
  0
LINE
  5
284
  8
DETAIL
  6
CONTINUOUS
 10
-294.290052
 20
-155.474686
 30
0.0
 11
-287.282648
 21
-159.511863
 31
0.0
  0
LINE
  5
285
  8
DETAIL
  6
CONTINUOUS
 10
-280.267837
 20
-155.461861
 30
0.0
 11
-280.260434
 21
-147.374682
 31
0.0
  0
LINE
  5
286
  8
DETAIL
  6
CONTINUOUS
 10
-242.946405
 20
-162.204483
 30
0.0
 11
-261.946405
 21
-129.295517
 31
0.0
  0
ARC
  5
287
  8
DETAIL
  6
CONTINUOUS
 10
-256.802812
 20
-170.204483
 30
0.0
 40
16.0
 50
300.0
 51
30.0
  0
ARC
  5
288
  8
DETAIL
  6
CONTINUOUS
 10
-311.309853
 20
-157.795517
 30
0.0
 40
16.0
 50
120.0
 51
210.0
  0
LINE
  5
289
  8
DETAIL
  6
CONTINUOUS
 10
-319.309853
 20
-143.939111
 30
0.0
 11
-283.802812
 21
-123.439111
 31
0.0
  0
ARC
  5
28A
  8
DETAIL
  6
CONTINUOUS
 10
-275.802812
 20
-137.295517
 30
0.0
 40
16.0
 50
30.0
 51
120.0
  0
ARC
  5
28B
  8
DETAIL
  6
CONTINUOUS
 10
19.0
 20
307.5
 30
0.0
 40
16.0
 50
270.0
 51
0.0
  0
ARC
  5
28C
  8
DETAIL
  6
CONTINUOUS
 10
-19.0
 20
307.5
 30
0.0
 40
16.0
 50
180.0
 51
270.0
  0
ARC
  5
28D
  8
DETAIL
  6
CONTINUOUS
 10
19.0
 20
348.5
 30
0.0
 40
16.0
 50
0.0
 51
90.0
  0
ARC
  5
28E
  8
DETAIL
  6
CONTINUOUS
 10
-19.0
 20
348.5
 30
0.0
 40
16.0
 50
90.0
 51
180.0
  0
LINE
  5
28F
  8
DETAIL
  6
CONTINUOUS
 10
-35.0
 20
348.5
 30
0.0
 11
-35.0
 21
307.5
 31
0.0
  0
LINE
  5
290
  8
DETAIL
  6
CONTINUOUS
 10
35.0
 20
348.5
 30
0.0
 11
35.0
 21
307.5
 31
0.0
  0
LINE
  5
291
  8
DETAIL
  6
CONTINUOUS
 10
-19.0
 20
364.5
 30
0.0
 11
19.0
 21
364.5
 31
0.0
  0
LINE
  5
292
  8
DETAIL
  6
CONTINUOUS
 10
-19.0
 20
291.5
 30
0.0
 11
19.0
 21
291.5
 31
0.0
  0
LINE
  5
293
  8
DETAIL
  6
CONTINUOUS
 10
5.499998
 20
320.449997
 30
0.0
 11
12.499998
 21
316.399996
 31
0.0
  0
LINE
  5
294
  8
DETAIL
  6
CONTINUOUS
 10
12.499998
 20
332.600004
 30
0.0
 11
5.499998
 21
328.550003
 31
0.0
  0
LINE
  5
295
  8
DETAIL
  6
CONTINUOUS
 10
19.500002
 20
328.550003
 30
0.0
 11
12.500002
 21
332.600004
 31
0.0
  0
LINE
  5
296
  8
DETAIL
  6
CONTINUOUS
 10
19.500002
 20
320.450003
 30
0.0
 11
19.500002
 21
328.549997
 31
0.0
  0
LINE
  5
297
  8
DETAIL
  6
CONTINUOUS
 10
12.500002
 20
316.399996
 30
0.0
 11
19.500002
 21
320.449997
 31
0.0
  0
LINE
  5
298
  8
DETAIL
  6
CONTINUOUS
 10
5.499998
 20
328.549997
 30
0.0
 11
5.499998
 21
320.450003
 31
0.0
  0
CIRCLE
  5
299
  8
DETAIL
  6
CONTINUOUS
 10
12.5
 20
324.5
 30
0.0
 40
3.242001
  0
LINE
  5
29A
  8
DETAIL
  6
CONTINUOUS
 10
-5.499998
 20
320.449997
 30
0.0
 11
-12.499998
 21
316.399996
 31
0.0
  0
LINE
  5
29B
  8
DETAIL
  6
CONTINUOUS
 10
-12.499998
 20
332.600004
 30
0.0
 11
-5.499998
 21
328.550003
 31
0.0
  0
LINE
  5
29C
  8
DETAIL
  6
CONTINUOUS
 10
-19.500002
 20
328.550003
 30
0.0
 11
-12.500002
 21
332.600004
 31
0.0
  0
LINE
  5
29D
  8
DETAIL
  6
CONTINUOUS
 10
-19.500002
 20
320.450003
 30
0.0
 11
-19.500002
 21
328.549997
 31
0.0
  0
LINE
  5
29E
  8
DETAIL
  6
CONTINUOUS
 10
-12.500002
 20
316.399996
 30
0.0
 11
-19.500002
 21
320.449997
 31
0.0
  0
LINE
  5
29F
  8
DETAIL
  6
CONTINUOUS
 10
-5.499998
 20
328.549997
 30
0.0
 11
-5.499998
 21
320.450003
 31
0.0
  0
CIRCLE
  5
2A0
  8
DETAIL
  6
CONTINUOUS
 10
-12.5
 20
324.5
 30
0.0
 40
3.242001
  0
LINE
  5
2A1
  8
DETAIL
  6
CONTINUOUS
 10
280.267837
 20
-155.461861
 30
0.0
 11
280.260434
 21
-147.374682
 31
0.0
  0
ARC
  5
2A2
  8
DETAIL
  6
CONTINUOUS
 10
0.0
 20
0.0
 30
0.0
 40
360.0
 50
217.42144
 51
322.57856
  0
ARC
  5
2A3
  8
DETAIL
  6
CONTINUOUS
 10
0.0
 20
0.0
 30
0.0
 40
360.0
 50
337.42144
 51
82.57856
  0
LINE
  5
2A4
  8
DETAIL
  6
CONTINUOUS
 10
-229.037113
 20
-163.296083
 30
0.0
 11
-255.987113
 21
-116.617314
 31
0.0
  0
LINE
  5
2A5
  8
DETAIL
  6
CONTINUOUS
 10
-301.776759
 20
-227.924468
 30
0.0
 11
-236.124608
 21
-190.020181
 31
0.0
  0
ARC
  5
2A6
  8
DETAIL
  6
CONTINUOUS
 10
-246.011211
 20
-173.096083
 30
0.0
 40
19.6
 50
300.0
 51
30.0
  0
LINE
  5
2A7
  8
DETAIL
  6
CONTINUOUS
 10
-348.276759
 20
-147.384105
 30
0.0
 11
-282.624608
 21
-109.479819
 31
0.0
  0
ARC
  5
2A8
  8
DETAIL
  6
CONTINUOUS
 10
-272.911211
 20
-126.503917
 30
0.0
 40
19.6
 50
30.0
 51
120.0
  0
LINE
  5
2A9
  8
DETAIL
  6
CONTINUOUS
 10
355.50128
 20
-182.25372
 30
0.0
 11
335.536992
 21
-216.832882
 31
0.0
  0
LINE
  5
2AA
  8
DETAIL
  6
CONTINUOUS
 10
255.937113
 20
-116.703917
 30
0.0
 11
228.987113
 21
-163.382686
 31
0.0
  0
LINE
  5
2AB
  8
DETAIL
  6
CONTINUOUS
 10
348.276759
 20
-147.384105
 30
0.0
 11
282.624608
 21
-109.479819
 31
0.0
  0
ARC
  5
2AC
  8
DETAIL
  6
CONTINUOUS
 10
272.911211
 20
-126.503917
 30
0.0
 40
19.6
 50
60.0
 51
150.0
  0
ARC
  5
2AD
  8
DETAIL
  6
CONTINUOUS
 10
338.390156
 20
-164.308203
 30
0.0
 40
19.6
 50
0.963757
 51
60.0
  0
LINE
  5
2AE
  8
DETAIL
  6
CONTINUOUS
 10
357.987383
 20
-163.978533
 30
0.0
 11
358.12441
 21
-172.124049
 31
0.0
  0
ARC
  5
2AF
  8
DETAIL
  6
CONTINUOUS
 10
338.527183
 20
-172.45372
 30
0.0
 40
19.6
 50
330.0
 51
0.963757
  0
ARC
  5
2B0
  8
DETAIL
  6
CONTINUOUS
 10
318.612894
 20
-206.94628
 30
0.0
 40
19.6
 50
299.036243
 51
330.0
  0
LINE
  5
2B1
  8
DETAIL
  6
CONTINUOUS
 10
321.003267
 20
-228.036902
 30
0.0
 11
328.126004
 21
-224.082812
 31
0.0
  0
ARC
  5
2B2
  8
DETAIL
  6
CONTINUOUS
 10
311.490156
 20
-210.90037
 30
0.0
 40
19.6
 50
240.0
 51
299.036243
  0
LINE
  5
2B3
  8
DETAIL
  6
CONTINUOUS
 10
301.776759
 20
-227.924468
 30
0.0
 11
236.124608
 21
-190.020181
 31
0.0
  0
ARC
  5
2B4
  8
DETAIL
  6
CONTINUOUS
 10
246.011211
 20
-173.096083
 30
0.0
 40
19.6
 50
150.0
 51
240.0
  0
ARC
  5
2B5
  8
DETAIL
  6
CONTINUOUS
 10
26.9
 20
299.6
 30
0.0
 40
19.6
 50
270.0
 51
0.0
  0
LINE
  5
2B6
  8
DETAIL
  6
CONTINUOUS
 10
46.5
 20
375.308573
 30
0.0
 11
46.5
 21
299.5
 31
0.0
  0
ARC
  5
2B7
  8
DETAIL
  6
CONTINUOUS
 10
26.9
 20
375.208573
 30
0.0
 40
19.6
 50
0.0
 51
59.036243
  0
LINE
  5
2B8
  8
DETAIL
  6
CONTINUOUS
 10
36.984117
 20
392.015435
 30
0.0
 11
29.998405
 21
396.206861
 31
0.0
  0
ARC
  5
2B9
  8
DETAIL
  6
CONTINUOUS
 10
19.914289
 20
379.4
 30
0.0
 40
19.6
 50
59.036243
 51
90.0
  0
ARC
  5
2BA
  8
DETAIL
  6
CONTINUOUS
 10
-19.914289
 20
379.4
 30
0.0
 40
19.6
 50
90.0
 51
120.963757
  0
LINE
  5
2BB
  8
DETAIL
  6
CONTINUOUS
 10
-36.984117
 20
392.015435
 30
0.0
 11
-29.998405
 21
396.206861
 31
0.0
  0
ARC
  5
2BC
  8
DETAIL
  6
CONTINUOUS
 10
-26.9
 20
375.208573
 30
0.0
 40
19.6
 50
120.963757
 51
180.0
  0
ARC
  5
2BD
  8
DETAIL
  6
CONTINUOUS
 10
-26.9
 20
299.6
 30
0.0
 40
19.6
 50
180.0
 51
270.0
  0
LINE
  5
2BE
  8
DETAIL
  6
CONTINUOUS
 10
-46.5
 20
375.308573
 30
0.0
 11
-46.5
 21
299.5
 31
0.0
  0
LINE
  5
2BF
  8
DETAIL
  6
CONTINUOUS
 10
-26.9
 20
280.0
 30
0.0
 11
27.0
 21
280.0
 31
0.0
  0
LINE
  5
2C0
  8
DETAIL
  6
CONTINUOUS
 10
-19.914289
 20
399.0
 30
0.0
 11
20.014289
 21
399.0
 31
0.0
  0
ARC
  5
2C1
  8
DETAIL
  6
CONTINUOUS
 10
0.0
 20
0.0
 30
0.0
 40
360.0
 50
97.43749
 51
202.57856
  0
ARC
  5
2C2
  8
DETAIL
  6
CONTINUOUS
 10
-338.390156
 20
-164.308203
 30
0.0
 40
19.6
 50
120.0
 51
179.036243
  0
LINE
  5
2C3
  8
DETAIL
  6
CONTINUOUS
 10
-357.987383
 20
-163.978533
 30
0.0
 11
-358.12441
 21
-172.124049
 31
0.0
  0
ARC
  5
2C4
  8
DETAIL
  6
CONTINUOUS
 10
-338.527183
 20
-172.45372
 30
0.0
 40
19.6
 50
179.036243
 51
210.0
  0
ARC
  5
2C5
  8
DETAIL
  6
CONTINUOUS
 10
-318.612894
 20
-206.94628
 30
0.0
 40
19.6
 50
210.0
 51
240.963757
  0
LINE
  5
2C6
  8
DETAIL
  6
CONTINUOUS
 10
-321.003267
 20
-228.036902
 30
0.0
 11
-328.126004
 21
-224.082812
 31
0.0
  0
ARC
  5
2C7
  8
DETAIL
  6
CONTINUOUS
 10
-311.490156
 20
-210.90037
 30
0.0
 40
19.6
 50
240.963757
 51
300.0
  0
LINE
  5
2C8
  8
DETAIL
  6
CONTINUOUS
 10
-335.586992
 20
-216.74628
 30
0.0
 11
-355.55128
 21
-182.167118
 31
0.0
  0
LINE
  5
2C9
  8
DETAIL
  6
CONTINUOUS
 10
-126.5
 20
-337.042653
 30
0.0
 11
-126.5
 21
-340.817227
 31
0.0
  0
LINE
  5
2CA
  8
DETAIL
  6
CONTINUOUS
 10
126.5
 20
-337.042653
 30
0.0
 11
126.5
 21
-340.817227
 31
0.0
  0
LINE
  5
2CB
  8
DETAIL
  6
CONTINUOUS
 10
116.160631
 20
-394.586405
 30
0.0
 11
126.389763
 21
-341.962081
 31
0.0
  0
ARC
  5
2CC
  8
DETAIL
  6
CONTINUOUS
 10
120.5
 20
-340.817227
 30
0.0
 40
6.0
 50
349.0
 51
0.0
  0
LINE
  5
2CD
  8
DETAIL
  6
CONTINUOUS
 10
-116.160631
 20
-394.586405
 30
0.0
 11
-126.389763
 21
-341.962081
 31
0.0
  0
ARC
  5
2CE
  8
DETAIL
  6
CONTINUOUS
 10
-120.5
 20
-340.817227
 30
0.0
 40
6.0
 50
180.0
 51
191.0
  0
ARC
  5
2CF
  8
DETAIL
  6
CONTINUOUS
 10
71.987408
 20
-386.0
 30
0.0
 40
45.0
 50
270.0
 51
349.0
  0
ARC
  5
2D0
  8
DETAIL
  6
CONTINUOUS
 10
-71.987408
 20
-386.0
 30
0.0
 40
45.0
 50
191.0
 51
270.0
  0
LINE
  5
2D1
  8
DETAIL
  6
CONTINUOUS
 10
-71.987408
 20
-431.0
 30
0.0
 11
71.987408
 21
-431.0
 31
0.0
  0
LINE
  5
2D2
  8
DETAIL
  6
CONTINUOUS
 10
280.267837
 20
-155.461861
 30
0.0
 11
280.260434
 21
-147.374682
 31
0.0
  0
CIRCLE
  5
2D3
  8
DETAIL
  6
CONTINUOUS
 10
-12.5
 20
324.5
 30
0.0
 40
3.242001
  0
LINE
  5
2D4
  8
DETAIL
  6
CONTINUOUS
 10
-5.499998
 20
328.549997
 30
0.0
 11
-5.499998
 21
320.450003
 31
0.0
  0
LINE
  5
2D5
  8
DETAIL
  6
CONTINUOUS
 10
-12.500002
 20
316.399996
 30
0.0
 11
-19.500002
 21
320.449997
 31
0.0
  0
LINE
  5
2D6
  8
DETAIL
  6
CONTINUOUS
 10
-19.500002
 20
320.450003
 30
0.0
 11
-19.500002
 21
328.549997
 31
0.0
  0
LINE
  5
2D7
  8
DETAIL
  6
CONTINUOUS
 10
-19.500002
 20
328.550003
 30
0.0
 11
-12.500002
 21
332.600004
 31
0.0
  0
LINE
  5
2D8
  8
DETAIL
  6
CONTINUOUS
 10
-12.499998
 20
332.600004
 30
0.0
 11
-5.499998
 21
328.550003
 31
0.0
  0
LINE
  5
2D9
  8
DETAIL
  6
CONTINUOUS
 10
-5.499998
 20
320.449997
 30
0.0
 11
-12.499998
 21
316.399996
 31
0.0
  0
CIRCLE
  5
2DA
  8
DETAIL
  6
CONTINUOUS
 10
12.5
 20
324.5
 30
0.0
 40
3.242001
  0
LINE
  5
2DB
  8
DETAIL
  6
CONTINUOUS
 10
5.499998
 20
328.549997
 30
0.0
 11
5.499998
 21
320.450003
 31
0.0
  0
LINE
  5
2DC
  8
DETAIL
  6
CONTINUOUS
 10
12.500002
 20
316.399996
 30
0.0
 11
19.500002
 21
320.449997
 31
0.0
  0
LINE
  5
2DD
  8
DETAIL
  6
CONTINUOUS
 10
19.500002
 20
320.450003
 30
0.0
 11
19.500002
 21
328.549997
 31
0.0
  0
LINE
  5
2DE
  8
DETAIL
  6
CONTINUOUS
 10
19.500002
 20
328.550003
 30
0.0
 11
12.500002
 21
332.600004
 31
0.0
  0
LINE
  5
2DF
  8
DETAIL
  6
CONTINUOUS
 10
12.499998
 20
332.600004
 30
0.0
 11
5.499998
 21
328.550003
 31
0.0
  0
LINE
  5
2E0
  8
DETAIL
  6
CONTINUOUS
 10
5.499998
 20
320.449997
 30
0.0
 11
12.499998
 21
316.399996
 31
0.0
  0
LINE
  5
2E1
  8
DETAIL
  6
CONTINUOUS
 10
-19.0
 20
291.5
 30
0.0
 11
19.0
 21
291.5
 31
0.0
  0
LINE
  5
2E2
  8
DETAIL
  6
CONTINUOUS
 10
-19.0
 20
364.5
 30
0.0
 11
19.0
 21
364.5
 31
0.0
  0
LINE
  5
2E3
  8
DETAIL
  6
CONTINUOUS
 10
35.0
 20
348.5
 30
0.0
 11
35.0
 21
307.5
 31
0.0
  0
LINE
  5
2E4
  8
DETAIL
  6
CONTINUOUS
 10
-35.0
 20
348.5
 30
0.0
 11
-35.0
 21
307.5
 31
0.0
  0
ARC
  5
2E5
  8
DETAIL
  6
CONTINUOUS
 10
-19.0
 20
348.5
 30
0.0
 40
16.0
 50
90.0
 51
180.0
  0
ARC
  5
2E6
  8
DETAIL
  6
CONTINUOUS
 10
19.0
 20
348.5
 30
0.0
 40
16.0
 50
0.0
 51
90.0
  0
ARC
  5
2E7
  8
DETAIL
  6
CONTINUOUS
 10
-19.0
 20
307.5
 30
0.0
 40
16.0
 50
180.0
 51
270.0
  0
ARC
  5
2E8
  8
DETAIL
  6
CONTINUOUS
 10
19.0
 20
307.5
 30
0.0
 40
16.0
 50
270.0
 51
0.0
  0
ARC
  5
2E9
  8
DETAIL
  6
CONTINUOUS
 10
-275.802812
 20
-137.295517
 30
0.0
 40
16.0
 50
30.0
 51
120.0
  0
LINE
  5
2EA
  8
DETAIL
  6
CONTINUOUS
 10
-319.309853
 20
-143.939111
 30
0.0
 11
-283.802812
 21
-123.439111
 31
0.0
  0
ARC
  5
2EB
  8
DETAIL
  6
CONTINUOUS
 10
-311.309853
 20
-157.795517
 30
0.0
 40
16.0
 50
120.0
 51
210.0
  0
ARC
  5
2EC
  8
DETAIL
  6
CONTINUOUS
 10
-256.802812
 20
-170.204483
 30
0.0
 40
16.0
 50
300.0
 51
30.0
  0
LINE
  5
2ED
  8
DETAIL
  6
CONTINUOUS
 10
-242.946405
 20
-162.204483
 30
0.0
 11
-261.946405
 21
-129.295517
 31
0.0
  0
LINE
  5
2EE
  8
DETAIL
  6
CONTINUOUS
 10
-280.267837
 20
-155.461861
 30
0.0
 11
-280.260434
 21
-147.374682
 31
0.0
  0
LINE
  5
2EF
  8
DETAIL
  6
CONTINUOUS
 10
-294.290052
 20
-155.474686
 30
0.0
 11
-287.282648
 21
-159.511863
 31
0.0
  0
LINE
  5
2F0
  8
DETAIL
  6
CONTINUOUS
 10
-287.267844
 20
-143.337504
 30
0.0
 11
-294.282645
 21
-147.387502
 31
0.0
  0
LINE
  5
2F1
  8
DETAIL
  6
CONTINUOUS
 10
-280.260435
 20
-147.374679
 30
0.0
 11
-287.267839
 21
-143.337502
 31
0.0
  0
LINE
  5
2F2
  8
DETAIL
  6
CONTINUOUS
 10
-287.282643
 20
-159.511861
 30
0.0
 11
-280.267842
 21
-155.461863
 31
0.0
  0
CIRCLE
  5
2F3
  8
DETAIL
  6
CONTINUOUS
 10
-287.275244
 20
-151.424682
 30
0.0
 40
3.242001
  0
LINE
  5
2F4
  8
DETAIL
  6
CONTINUOUS
 10
-294.28265
 20
-147.387504
 30
0.0
 11
-294.290053
 21
-155.474683
 31
0.0
  0
LINE
  5
2F5
  8
DETAIL
  6
CONTINUOUS
 10
-281.790053
 20
-177.125318
 30
0.0
 11
-281.78265
 21
-169.038139
 31
0.0
  0
LINE
  5
2F6
  8
DETAIL
  6
CONTINUOUS
 10
-281.782645
 20
-169.038137
 30
0.0
 11
-274.767844
 21
-164.988139
 31
0.0
  0
LINE
  5
2F7
  8
DETAIL
  6
CONTINUOUS
 10
-274.767839
 20
-164.988137
 30
0.0
 11
-267.760435
 21
-169.025314
 31
0.0
  0
LINE
  5
2F8
  8
DETAIL
  6
CONTINUOUS
 10
-284.309853
 20
-204.560889
 30
0.0
 11
-248.802812
 21
-184.060889
 31
0.0
  0
LINE
  5
2F9
  8
DETAIL
  6
CONTINUOUS
 10
-274.782648
 20
-181.162498
 30
0.0
 11
-281.790052
 21
-177.125321
 31
0.0
  0
LINE
  5
2FA
  8
DETAIL
  6
CONTINUOUS
 10
-267.767842
 20
-177.112498
 30
0.0
 11
-274.782643
 21
-181.162496
 31
0.0
  0
LINE
  5
2FB
  8
DETAIL
  6
CONTINUOUS
 10
-267.760434
 20
-169.025317
 30
0.0
 11
-267.767837
 21
-177.112496
 31
0.0
  0
CIRCLE
  5
2FC
  8
DETAIL
  6
CONTINUOUS
 10
-274.775244
 20
-173.075318
 30
0.0
 40
3.242001
  0
ARC
  5
2FD
  8
DETAIL
  6
CONTINUOUS
 10
-292.309853
 20
-190.704483
 30
0.0
 40
16.0
 50
210.0
 51
300.0
  0
LINE
  5
2FE
  8
DETAIL
  6
CONTINUOUS
 10
-306.16626
 20
-198.704483
 30
0.0
 11
-325.16626
 21
-165.795517
 31
0.0
  0
ARC
  5
2FF
  8
DETAIL
  6
CONTINUOUS
 10
311.309853
 20
-157.795517
 30
0.0
 40
16.0
 50
330.0
 51
60.0
  0
ARC
  5
300
  8
DETAIL
  6
CONTINUOUS
 10
275.802812
 20
-137.295517
 30
0.0
 40
16.0
 50
60.0
 51
150.0
  0
LINE
  5
301
  8
DETAIL
  6
CONTINUOUS
 10
319.309853
 20
-143.939111
 30
0.0
 11
283.802812
 21
-123.439111
 31
0.0
  0
ARC
  5
302
  8
DETAIL
  6
CONTINUOUS
 10
256.802812
 20
-170.204483
 30
0.0
 40
16.0
 50
150.0
 51
240.0
  0
LINE
  5
303
  8
DETAIL
  6
CONTINUOUS
 10
261.946405
 20
-129.295517
 30
0.0
 11
242.946405
 21
-162.204483
 31
0.0
  0
ARC
  5
304
  8
DETAIL
  6
CONTINUOUS
 10
292.309853
 20
-190.704483
 30
0.0
 40
16.0
 50
240.0
 51
330.0
  0
LINE
  5
305
  8
DETAIL
  6
CONTINUOUS
 10
284.309853
 20
-204.560889
 30
0.0
 11
248.802812
 21
-184.060889
 31
0.0
  0
LINE
  5
306
  8
DETAIL
  6
CONTINUOUS
 10
325.16626
 20
-165.795517
 30
0.0
 11
306.16626
 21
-198.704483
 31
0.0
  0
LINE
  5
307
  8
DETAIL
  6
CONTINUOUS
 10
294.290052
 20
-155.474686
 30
0.0
 11
287.282648
 21
-159.511863
 31
0.0
  0
LINE
  5
308
  8
DETAIL
  6
CONTINUOUS
 10
294.28265
 20
-147.387504
 30
0.0
 11
294.290053
 21
-155.474683
 31
0.0
  0
LINE
  5
309
  8
DETAIL
  6
CONTINUOUS
 10
287.267844
 20
-143.337504
 30
0.0
 11
294.282645
 21
-147.387502
 31
0.0
  0
LINE
  5
30A
  8
DETAIL
  6
CONTINUOUS
 10
280.260435
 20
-147.374679
 30
0.0
 11
287.267839
 21
-143.337502
 31
0.0
  0
LINE
  5
30B
  8
DETAIL
  6
CONTINUOUS
 10
287.282643
 20
-159.511861
 30
0.0
 11
280.267842
 21
-155.461863
 31
0.0
  0
CIRCLE
  5
30C
  8
DETAIL
  6
CONTINUOUS
 10
287.275244
 20
-151.424682
 30
0.0
 40
3.242001
  0
LINE
  5
30D
  8
DETAIL
  6
CONTINUOUS
 10
274.767839
 20
-164.988137
 30
0.0
 11
267.760435
 21
-169.025314
 31
0.0
  0
LINE
  5
30E
  8
DETAIL
  6
CONTINUOUS
 10
281.790053
 20
-177.125318
 30
0.0
 11
281.78265
 21
-169.038139
 31
0.0
  0
LINE
  5
30F
  8
DETAIL
  6
CONTINUOUS
 10
274.782648
 20
-181.162498
 30
0.0
 11
281.790052
 21
-177.125321
 31
0.0
  0
LINE
  5
310
  8
DETAIL
  6
CONTINUOUS
 10
267.767842
 20
-177.112498
 30
0.0
 11
274.782643
 21
-181.162496
 31
0.0
  0
LINE
  5
311
  8
DETAIL
  6
CONTINUOUS
 10
267.760434
 20
-169.025317
 30
0.0
 11
267.767837
 21
-177.112496
 31
0.0
  0
LINE
  5
312
  8
DETAIL
  6
CONTINUOUS
 10
281.782645
 20
-169.038137
 30
0.0
 11
274.767844
 21
-164.988139
 31
0.0
  0
CIRCLE
  5
313
  8
DETAIL
  6
CONTINUOUS
 10
274.775244
 20
-173.075318
 30
0.0
 40
3.242001
  0
LINE
  5
314
  8
DETAIL
  6
CONTINUOUS
 10
229.303257
 20
-277.524803
 30
0.0
 11
243.428985
 21
-296.000488
 31
0.0
  0
LINE
  5
315
  8
DETAIL
  6
CONTINUOUS
 10
207.69518
 20
-294.045426
 30
0.0
 11
221.820908
 21
-312.521111
 31
0.0
  0
LINE
  5
316
  8
DETAIL
  6
CONTINUOUS
 10
221.820908
 20
-312.521111
 30
0.0
 11
243.428985
 21
-296.000488
 31
0.0
  0
LINE
  5
317
  8
DETAIL
  6
CONTINUOUS
 10
252.572836
 20
-310.408891
 30
0.0
 11
243.428985
 21
-296.000488
 31
0.0
  0
LINE
  5
318
  8
DETAIL
  6
CONTINUOUS
 10
251.775387
 20
-311.018587
 30
0.0
 11
242.631536
 21
-296.610184
 31
0.0
  0
LINE
  5
319
  8
DETAIL
  6
CONTINUOUS
 10
234.125285
 20
-324.513109
 30
0.0
 11
222.618357
 21
-311.911415
 31
0.0
  0
LINE
  5
31A
  8
DETAIL
  6
CONTINUOUS
 10
233.327836
 20
-325.122805
 30
0.0
 11
221.820908
 21
-312.521111
 31
0.0
  0
LINE
  5
31B
  8
DETAIL
  6
CONTINUOUS
 10
233.327836
 20
-325.122805
 30
0.0
 11
252.572836
 21
-310.408891
 31
0.0
  0
LINE
  5
31C
  8
DETAIL
  6
CONTINUOUS
 10
-229.303257
 20
-277.524803
 30
0.0
 11
-243.428985
 21
-296.000488
 31
0.0
  0
LINE
  5
31D
  8
DETAIL
  6
CONTINUOUS
 10
-207.69518
 20
-294.045426
 30
0.0
 11
-221.820908
 21
-312.521111
 31
0.0
  0
LINE
  5
31E
  8
DETAIL
  6
CONTINUOUS
 10
-221.820908
 20
-312.521111
 30
0.0
 11
-243.428985
 21
-296.000488
 31
0.0
  0
LINE
  5
31F
  8
DETAIL
  6
CONTINUOUS
 10
-252.572836
 20
-310.408891
 30
0.0
 11
-243.428985
 21
-296.000488
 31
0.0
  0
LINE
  5
320
  8
DETAIL
  6
CONTINUOUS
 10
-251.775387
 20
-311.018587
 30
0.0
 11
-242.631536
 21
-296.610184
 31
0.0
  0
LINE
  5
321
  8
DETAIL
  6
CONTINUOUS
 10
-234.125285
 20
-324.513109
 30
0.0
 11
-222.618357
 21
-311.911415
 31
0.0
  0
LINE
  5
322
  8
DETAIL
  6
CONTINUOUS
 10
-233.327836
 20
-325.122805
 30
0.0
 11
-221.820908
 21
-312.521111
 31
0.0
  0
LINE
  5
323
  8
DETAIL
  6
CONTINUOUS
 10
-233.327836
 20
-325.122805
 30
0.0
 11
-252.572836
 21
-310.408891
 31
0.0
  0
CIRCLE
  5
324
  8
DETAIL
  6
CONTINUOUS
 10
0.0
 20
-223.0
 30
0.0
 40
12.25
  0
CIRCLE
  5
325
  8
DETAIL
  6
CONTINUOUS
 10
0.0
 20
-223.0
 30
0.0
 40
30.0
  0
CIRCLE
  5
326
  8
DETAIL
  6
CONTINUOUS
 10
0.0
 20
-223.0
 30
0.0
 40
40.0
  0
CIRCLE
  5
327
  8
DETAIL
  6
CONTINUOUS
 10
-35.0
 20
-290.0
 30
0.0
 40
7.0
  0
CIRCLE
  5
328
  8
DETAIL
  6
CONTINUOUS
 10
-35.0
 20
-290.0
 30
0.0
 40
9.0
  0
CIRCLE
  5
329
  8
DETAIL
  6
CONTINUOUS
 10
-35.0
 20
-290.0
 30
0.0
 40
20.0
  0
LINE
  5
32A
  8
DETAIL
  6
CONTINUOUS
 10
8.235354
 20
-441.0
 30
0.0
 11
8.235354
 21
-446.0
 31
0.0
  0
ARC
  5
32B
  8
DETAIL
  6
CONTINUOUS
 10
50.770294
 20
-439.5
 30
0.0
 40
1.5
 50
270.0
 51
348.690068
  0
LINE
  5
32C
  8
DETAIL
  6
CONTINUOUS
 10
52.241165
 20
-439.794174
 30
0.0
 11
54.0
 21
-431.0
 31
0.0
  0
LINE
  5
32D
  8
DETAIL
  6
CONTINUOUS
 10
-8.264646
 20
-441.0
 30
0.0
 11
-8.264646
 21
-446.0
 31
0.0
  0
LINE
  5
32E
  8
DETAIL
  6
CONTINUOUS
 10
-8.264646
 20
-446.0
 30
0.0
 11
8.235354
 21
-446.0
 31
0.0
  0
LINE
  5
32F
  8
DETAIL
  6
CONTINUOUS
 10
-52.241165
 20
-439.794174
 30
0.0
 11
-54.0
 21
-431.0
 31
0.0
  0
ARC
  5
330
  8
DETAIL
  6
CONTINUOUS
 10
-50.770294
 20
-439.5
 30
0.0
 40
1.5
 50
191.309932
 51
270.0
  0
LINE
  5
331
  8
DETAIL
  6
CONTINUOUS
 10
-50.770294
 20
-441.0
 30
0.0
 11
50.770294
 21
-441.0
 31
0.0
  0
LINE
  5
332
  8
BASIS
  6
DASHDOT
 10
198.78501
 20
-260.0
 30
0.0
 11
259.949629
 21
-340.0
 31
0.0
  0
LINE
  5
333
  8
BASIS
  6
DASHDOT
 10
-198.78501
 20
-260.0
 30
0.0
 11
-259.949629
 21
-340.0
 31
0.0
  0
LINE
  5
334
  8
BASIS
  6
DASHDOT
 10
413.893391
 20
0.0
 30
0.0
 11
-410.131179
 21
0.0
 31
0.0
  0
LINE
  5
335
  8
BASIS
  6
DASHDOT
 10
0.0
 20
-460.860253
 30
0.0
 11
0.0
 21
441.655625
 31
0.0
  0
LINE
  5
336
  8
BASIS
  6
DASHDOT
 10
0.0
 20
0.0
 30
0.0
 11
373.514513
 21
-215.648705
 31
0.0
  0
LINE
  5
337
  8
BASIS
  6
DASHDOT
 10
0.0
 20
0.0
 30
0.0
 11
-375.045905
 21
-216.532854
 31
0.0
  0
LINE
  5
338
  8
SIZE
  6
CONTINUOUS
 62
    30
 10
-225.383689
 20
-331.196561
 30
0.0
 11
-178.757848
 21
-366.844705
 31
0.0
  0
LINE
  5
339
  8
SIZE
  6
CONTINUOUS
 62
    30
 10
-210.711158
 20
-292.063016
 30
0.0
 11
-154.462814
 21
-335.068118
 31
0.0
  0
LINE
  5
33A
  8
SIZE
  6
CONTINUOUS
 62
    30
 10
-170.466756
 20
-335.420067
 30
0.0
 11
-182.614273
 21
-351.308361
 31
0.0
  0
LINE
  5
33B
  8
SIZE
  6
CONTINUOUS
 62
    30
 10
-188.688031
 20
-359.252508
 30
0.0
 11
-247.519089
 21
-436.200343
 31
0.0
  0
CIRCLE
  5
33C
  8
SIZE
  6
CONTINUOUS
 62
    30
 10
-164.392998
 20
-327.475921
 30
0.0
 40
5.0
  0
LINE
  5
33D
  8
SIZE
  6
CONTINUOUS
 62
    30
 10
-164.392998
 20
-327.475921
 30
0.0
 11
-170.466756
 21
-335.420067
 31
0.0
  0
CIRCLE
  5
33E
  8
SIZE
  6
CONTINUOUS
 62
    30
 10
-188.688031
 20
-359.252508
 30
0.0
 40
5.0
  0
LINE
  5
33F
  8
SIZE
  6
CONTINUOUS
 62
    30
 10
-188.688031
 20
-359.252508
 30
0.0
 11
-182.614273
 21
-351.308362
 31
0.0
  0
TEXT
  5
340
  8
SIZE
  6
CONTINUOUS
 62
    30
 10
-249.389476
 20
-422.182438
 30
0.0
 40
30.0
  1
40
 50
52.600006
 72
     1
 11
-235.723521
 21
-404.308108
 31
0.0
  0
POINT
  5
341
  8
DEFPOINTS
  6
CONTINUOUS
 62
    30
 10
-233.327835
 20
-325.122803
 30
0.0
  0
POINT
  5
342
  8
DEFPOINTS
  6
CONTINUOUS
 62
    30
 10
-218.655304
 20
-285.989258
 30
0.0
  0
POINT
  5
343
  8
DEFPOINTS
  6
CONTINUOUS
 62
    30
 10
-164.392998
 20
-327.475921
 30
0.0
  0
LINE
  5
344
  8
SIZE
  6
CONTINUOUS
 62
    30
 10
226.181145
 20
-330.586883
 30
0.0
 11
177.810085
 21
-367.569371
 31
0.0
  0
LINE
  5
345
  8
SIZE
  6
CONTINUOUS
 62
    30
 10
210.711159
 20
-292.063018
 30
0.0
 11
153.515035
 21
-335.792782
 31
0.0
  0
LINE
  5
346
  8
SIZE
  6
CONTINUOUS
 62
    30
 10
169.518976
 20
-336.144726
 30
0.0
 11
181.666505
 21
-352.033026
 31
0.0
  0
LINE
  5
347
  8
SIZE
  6
CONTINUOUS
 62
    30
 10
187.740266
 20
-359.977171
 30
0.0
 11
233.29347
 21
-419.558255
 31
0.0
  0
CIRCLE
  5
348
  8
SIZE
  6
CONTINUOUS
 62
    30
 10
163.445215
 20
-328.200581
 30
0.0
 40
5.0
  0
LINE
  5
349
  8
SIZE
  6
CONTINUOUS
 62
    30
 10
163.445215
 20
-328.200581
 30
0.0
 11
169.518975
 21
-336.144726
 31
0.0
  0
CIRCLE
  5
34A
  8
SIZE
  6
CONTINUOUS
 62
    30
 10
187.740266
 20
-359.977171
 30
0.0
 40
5.0
  0
LINE
  5
34B
  8
SIZE
  6
CONTINUOUS
 62
    30
 10
187.740266
 20
-359.977171
 30
0.0
 11
181.666506
 21
-352.033026
 31
0.0
  0
TEXT
  5
34C
  8
SIZE
  6
CONTINUOUS
 62
    30
 10
207.83193
 20
-369.791706
 30
0.0
 40
30.0
  1
40
 50
307.400029
 72
     1
 11
221.497895
 21
-387.666028
 31
0.0
  0
POINT
  5
34D
  8
DEFPOINTS
  6
CONTINUOUS
 62
    30
 10
234.12529
 20
-324.513123
 30
0.0
  0
POINT
  5
34E
  8
DEFPOINTS
  6
CONTINUOUS
 62
    30
 10
218.655304
 20
-285.989258
 30
0.0
  0
POINT
  5
34F
  8
DEFPOINTS
  6
CONTINUOUS
 62
    30
 10
163.445215
 20
-328.200581
 30
0.0
  0
LINE
  5
350
  8
SIZE
  6
CONTINUOUS
 62
    30
 10
360.0
 20
10.0
 30
0.0
 11
360.0
 21
611.17041
 31
0.0
  0
LINE
  5
351
  8
SIZE
  6
CONTINUOUS
 62
    30
 10
-360.0
 20
10.0
 30
0.0
 11
-360.0
 21
611.17041
 31
0.0
  0
LINE
  5
352
  8
SIZE
  6
CONTINUOUS
 62
    30
 10
350.0
 20
598.67041
 30
0.0
 11
-350.0
 21
598.67041
 31
0.0
  0
CIRCLE
  5
353
  8
SIZE
  6
CONTINUOUS
 62
    30
 10
360.0
 20
598.67041
 30
0.0
 40
5.0
  0
LINE
  5
354
  8
SIZE
  6
CONTINUOUS
 62
    30
 10
360.0
 20
598.67041
 30
0.0
 11
350.0
 21
598.67041
 31
0.0
  0
CIRCLE
  5
355
  8
SIZE
  6
CONTINUOUS
 62
    30
 10
-360.0
 20
598.67041
 30
0.0
 40
5.0
  0
LINE
  5
356
  8
SIZE
  6
CONTINUOUS
 62
    30
 10
-360.0
 20
598.67041
 30
0.0
 11
-350.0
 21
598.67041
 31
0.0
  0
TEXT
  5
357
  8
SIZE
  6
CONTINUOUS
 62
    30
 10
-37.5
 20
608.67041
 30
0.0
 40
30.0
  1
720
 72
     1
 11
0.0
 21
608.67041
 31
0.0
  0
POINT
  5
358
  8
DEFPOINTS
  6
CONTINUOUS
 62
    30
 10
360.0
 20
0.0
 30
0.0
  0
POINT
  5
359
  8
DEFPOINTS
  6
CONTINUOUS
 62
    30
 10
-360.0
 20
0.0
 30
0.0
  0
POINT
  5
35A
  8
DEFPOINTS
  6
CONTINUOUS
 62
    30
 10
-360.0
 20
598.67041
 30
0.0
  0
LINE
  5
35B
  8
SIZE
  6
CONTINUOUS
 62
    30
 10
-370.0
 20
-1731.0
 30
0.0
 11
-474.9
 21
-1731.0
 31
0.0
  0
LINE
  5
35C
  8
SIZE
  6
CONTINUOUS
 62
    30
 10
-370.0
 20
-431.0
 30
0.0
 11
-474.9
 21
-431.0
 31
0.0
  0
LINE
  5
35D
  8
SIZE
  6
CONTINUOUS
 62
    30
 10
-462.4
 20
-1721.0
 30
0.0
 11
-462.4
 21
-441.0
 31
0.0
  0
CIRCLE
  5
35E
  8
SIZE
  6
CONTINUOUS
 62
    30
 10
-462.4
 20
-1731.0
 30
0.0
 40
5.0
  0
LINE
  5
35F
  8
SIZE
  6
CONTINUOUS
 62
    30
 10
-462.4
 20
-1731.0
 30
0.0
 11
-462.4
 21
-1721.0
 31
0.0
  0
CIRCLE
  5
360
  8
SIZE
  6
CONTINUOUS
 62
    30
 10
-462.4
 20
-431.0
 30
0.0
 40
5.0
  0
LINE
  5
361
  8
SIZE
  6
CONTINUOUS
 62
    30
 10
-462.4
 20
-431.0
 30
0.0
 11
-462.4
 21
-441.0
 31
0.0
  0
TEXT
  5
362
  8
SIZE
  6
CONTINUOUS
 62
    30
 10
-472.4
 20
-1126.0
 30
0.0
 40
30.0
  1
1300
 50
90.0
 72
     1
 11
-472.4
 21
-1081.0
 31
0.0
  0
POINT
  5
363
  8
DEFPOINTS
  6
CONTINUOUS
 62
    30
 10
-360.0
 20
-1731.0
 30
0.0
  0
POINT
  5
364
  8
DEFPOINTS
  6
CONTINUOUS
 62
    30
 10
-360.0
 20
-431.0
 30
0.0
  0
POINT
  5
365
  8
DEFPOINTS
  6
CONTINUOUS
 62
    30
 10
-462.4
 20
-431.0
 30
0.0
  0
LINE
  5
366
  8
SIZE
  6
CONTINUOUS
 62
    30
 10
-360.0
 20
-441.0
 30
0.0
 11
-360.0
 21
-699.289209
 31
0.0
  0
LINE
  5
367
  8
SIZE
  6
CONTINUOUS
 62
    30
 10
360.0
 20
-441.0
 30
0.0
 11
360.0
 21
-699.289209
 31
0.0
  0
LINE
  5
368
  8
SIZE
  6
CONTINUOUS
 62
    30
 10
-350.0
 20
-686.789209
 30
0.0
 11
350.0
 21
-686.789209
 31
0.0
  0
CIRCLE
  5
369
  8
SIZE
  6
CONTINUOUS
 62
    30
 10
-360.0
 20
-686.789209
 30
0.0
 40
5.0
  0
LINE
  5
36A
  8
SIZE
  6
CONTINUOUS
 62
    30
 10
-360.0
 20
-686.789209
 30
0.0
 11
-350.0
 21
-686.789209
 31
0.0
  0
CIRCLE
  5
36B
  8
SIZE
  6
CONTINUOUS
 62
    30
 10
360.0
 20
-686.789209
 30
0.0
 40
5.0
  0
LINE
  5
36C
  8
SIZE
  6
CONTINUOUS
 62
    30
 10
360.0
 20
-686.789209
 30
0.0
 11
350.0
 21
-686.789209
 31
0.0
  0
TEXT
  5
36D
  8
SIZE
  6
CONTINUOUS
 62
    30
 10
-37.5
 20
-676.789209
 30
0.0
 40
30.0
  1
720
 72
     1
 11
0.0
 21
-676.789209
 31
0.0
  0
POINT
  5
36E
  8
DEFPOINTS
  6
CONTINUOUS
 62
    30
 10
-360.0
 20
-431.0
 30
0.0
  0
POINT
  5
36F
  8
DEFPOINTS
  6
CONTINUOUS
 62
    30
 10
360.0
 20
-431.0
 30
0.0
  0
POINT
  5
370
  8
DEFPOINTS
  6
CONTINUOUS
 62
    30
 10
360.0
 20
-686.789209
 30
0.0
  0
LINE
  5
371
  8
SIZE
  6
CONTINUOUS
 62
    30
 10
-36.899998
 20
280.0
 30
0.0
 11
-288.956061
 21
280.0
 31
0.0
  0
LINE
  5
372
  8
SIZE
  6
CONTINUOUS
 62
    30
 10
-29.91428
 20
399.0
 30
0.0
 11
-288.956061
 21
399.0
 31
0.0
  0
LINE
  5
373
  8
SIZE
  6
CONTINUOUS
 62
    30
 10
-276.456061
 20
290.0
 30
0.0
 11
-276.456061
 21
389.0
 31
0.0
  0
CIRCLE
  5
374
  8
SIZE
  6
CONTINUOUS
 62
    30
 10
-276.456061
 20
280.0
 30
0.0
 40
5.0
  0
LINE
  5
375
  8
SIZE
  6
CONTINUOUS
 62
    30
 10
-276.456061
 20
280.0
 30
0.0
 11
-276.456061
 21
290.0
 31
0.0
  0
CIRCLE
  5
376
  8
SIZE
  6
CONTINUOUS
 62
    30
 10
-276.456061
 20
399.0
 30
0.0
 40
5.0
  0
LINE
  5
377
  8
SIZE
  6
CONTINUOUS
 62
    30
 10
-276.456061
 20
399.0
 30
0.0
 11
-276.456061
 21
389.0
 31
0.0
  0
TEXT
  5
378
  8
SIZE
  6
CONTINUOUS
 62
    30
 10
-286.456061
 20
309.203949
 30
0.0
 40
30.0
  1
119
 50
90.0
 72
     1
 11
-286.456061
 21
339.203949
 31
0.0
  0
POINT
  5
379
  8
DEFPOINTS
  6
CONTINUOUS
 62
    30
 10
-26.899998
 20
280.0
 30
0.0
  0
POINT
  5
37A
  8
DEFPOINTS
  6
CONTINUOUS
 62
    30
 10
-19.91428
 20
399.0
 30
0.0
  0
POINT
  5
37B
  8
DEFPOINTS
  6
CONTINUOUS
 62
    30
 10
-276.456061
 20
399.0
 30
0.0
  0
LINE
  5
37C
  8
SIZE
  6
CONTINUOUS
 62
    30
 10
-32.904758
 20
382.0
 30
0.0
 11
-200.133658
 21
382.0
 31
0.0
  0
LINE
  5
37D
  8
SIZE
  6
CONTINUOUS
 62
    30
 10
-29.91428
 20
399.0
 30
0.0
 11
-200.133658
 21
399.0
 31
0.0
  0
LINE
  5
37E
  8
SIZE
  6
CONTINUOUS
 62
    30
 10
-187.633658
 20
372.0
 30
0.0
 11
-187.633658
 21
362.0
 31
0.0
  0
LINE
  5
37F
  8
SIZE
  6
CONTINUOUS
 62
    30
 10
-187.633658
 20
409.0
 30
0.0
 11
-187.633658
 21
488.479736
 31
0.0
  0
LINE
  5
380
  8
SIZE
  6
CONTINUOUS
 62
    30
 10
-187.633658
 20
382.0
 30
0.0
 11
-187.633658
 21
399.0
 31
0.0
  0
CIRCLE
  5
381
  8
SIZE
  6
CONTINUOUS
 62
    30
 10
-187.633658
 20
382.0
 30
0.0
 40
5.0
  0
LINE
  5
382
  8
SIZE
  6
CONTINUOUS
 62
    30
 10
-187.633658
 20
382.0
 30
0.0
 11
-187.633658
 21
372.0
 31
0.0
  0
CIRCLE
  5
383
  8
SIZE
  6
CONTINUOUS
 62
    30
 10
-187.633658
 20
399.0
 30
0.0
 40
5.0
  0
LINE
  5
384
  8
SIZE
  6
CONTINUOUS
 62
    30
 10
-187.633658
 20
399.0
 30
0.0
 11
-187.633658
 21
409.0
 31
0.0
  0
TEXT
  5
385
  8
SIZE
  6
CONTINUOUS
 62
    30
 10
-197.633658
 20
438.479736
 30
0.0
 40
30.0
  1
17
 50
90.0
 72
     1
 11
-197.633658
 21
458.479736
 31
0.0
  0
POINT
  5
386
  8
DEFPOINTS
  6
CONTINUOUS
 62
    30
 10
-22.904758
 20
382.0
 30
0.0
  0
POINT
  5
387
  8
DEFPOINTS
  6
CONTINUOUS
 62
    30
 10
-19.91428
 20
399.0
 30
0.0
  0
POINT
  5
388
  8
DEFPOINTS
  6
CONTINUOUS
 62
    30
 10
-187.633658
 20
399.0
 30
0.0
  0
LINE
  5
389
  8
SIZE
  6
CONTINUOUS
 62
    30
 10
-46.499973
 20
385.308533
 30
0.0
 11
-46.499973
 21
513.57041
 31
0.0
  0
LINE
  5
38A
  8
SIZE
  6
CONTINUOUS
 62
    30
 10
46.500027
 20
385.308533
 30
0.0
 11
46.500027
 21
513.57041
 31
0.0
  0
LINE
  5
38B
  8
SIZE
  6
CONTINUOUS
 62
    30
 10
-36.499973
 20
501.07041
 30
0.0
 11
36.500027
 21
501.07041
 31
0.0
  0
CIRCLE
  5
38C
  8
SIZE
  6
CONTINUOUS
 62
    30
 10
-46.499973
 20
501.07041
 30
0.0
 40
5.0
  0
LINE
  5
38D
  8
SIZE
  6
CONTINUOUS
 62
    30
 10
-46.499973
 20
501.07041
 30
0.0
 11
-36.499973
 21
501.07041
 31
0.0
  0
CIRCLE
  5
38E
  8
SIZE
  6
CONTINUOUS
 62
    30
 10
46.500027
 20
501.07041
 30
0.0
 40
5.0
  0
LINE
  5
38F
  8
SIZE
  6
CONTINUOUS
 62
    30
 10
46.500027
 20
501.07041
 30
0.0
 11
36.500027
 21
501.07041
 31
0.0
  0
TEXT
  5
390
  8
SIZE
  6
CONTINUOUS
 62
    30
 10
-25.372987
 20
511.07041
 30
0.0
 40
30.0
  1
93
 72
     1
 11
-0.372987
 21
511.07041
 31
0.0
  0
POINT
  5
391
  8
DEFPOINTS
  6
CONTINUOUS
 62
    30
 10
-46.499973
 20
375.308533
 30
0.0
  0
POINT
  5
392
  8
DEFPOINTS
  6
CONTINUOUS
 62
    30
 10
46.500027
 20
375.308533
 30
0.0
  0
POINT
  5
393
  8
DEFPOINTS
  6
CONTINUOUS
 62
    30
 10
46.500027
 20
501.07041
 30
0.0
  0
LINE
  5
394
  8
SIZE
  6
CONTINUOUS
 62
    30
 10
-115.781795
 20
-66.846737
 30
0.0
 11
-111.491644
 21
-64.369814
 31
0.0
  0
LINE
  5
395
  8
SIZE
  6
CONTINUOUS
 62
    30
 10
115.781849
 20
-66.846737
 30
0.0
 11
111.491698
 21
-64.369814
 31
0.0
  0
ARC
  5
396
  8
SIZE
  6
CONTINUOUS
 62
    30
 10
0.000027
 20
0.0
 30
0.0
 40
141.239526
 50
214.057513
 51
325.942487
  0
CIRCLE
  5
397
  8
SIZE
  6
CONTINUOUS
 62
    30
 10
-122.316959
 20
-70.619819
 30
0.0
 40
5.0
  0
LINE
  5
398
  8
SIZE
  6
CONTINUOUS
 62
    30
 10
-122.316959
 20
-70.619819
 30
0.0
 11
-117.013509
 21
-79.097638
 31
0.0
  0
CIRCLE
  5
399
  8
SIZE
  6
CONTINUOUS
 62
    30
 10
122.317012
 20
-70.619819
 30
0.0
 40
5.0
  0
LINE
  5
39A
  8
SIZE
  6
CONTINUOUS
 62
    30
 10
122.317012
 20
-70.619819
 30
0.0
 11
117.013562
 21
-79.097638
 31
0.0
  0
TEXT
  5
39B
  8
SIZE
  6
CONTINUOUS
 62
    30
 10
-42.499973
 20
-131.239526
 30
0.0
 40
30.0
  1
120°
 72
     1
 11
0.000027
 21
-131.239526
 31
0.0
  0
POINT
  5
39C
  8
DEFPOINTS
  6
CONTINUOUS
 62
    30
 10
0.000027
 20
0.0
 30
0.0
  0
POINT
  5
39D
  8
DEFPOINTS
  6
CONTINUOUS
 62
    30
 10
-124.442047
 20
-71.846741
 30
0.0
  0
POINT
  5
39E
  8
DEFPOINTS
  6
CONTINUOUS
 62
    30
 10
124.442101
 20
-71.846741
 30
0.0
  0
POINT
  5
39F
  8
DEFPOINTS
  6
CONTINUOUS
 62
    30
 10
48.306769
 20
-132.721748
 30
0.0
  0
LINE
  5
3A0
  8
SIZE
  6
CONTINUOUS
 62
    30
 10
0.000027
 20
153.693359
 30
0.0
 11
0.000027
 21
158.593376
 31
0.0
  0
LINE
  5
3A1
  8
SIZE
  6
CONTINUOUS
 62
    30
 10
-133.102291
 20
-76.846745
 30
0.0
 11
-137.345827
 21
-79.296754
 31
0.0
  0
ARC
  5
3A2
  8
SIZE
  6
CONTINUOUS
 62
    30
 10
0.000027
 20
0.0
 30
0.0
 40
146.093376
 50
93.922626
 51
206.077402
  0
CIRCLE
  5
3A3
  8
SIZE
  6
CONTINUOUS
 62
    30
 10
0.000027
 20
146.093376
 30
0.0
 40
5.0
  0
LINE
  5
3A4
  8
SIZE
  6
CONTINUOUS
 62
    30
 10
0.000027
 20
146.093376
 30
0.0
 11
-9.994115
 21
145.751129
 31
0.0
  0
CIRCLE
  5
3A5
  8
SIZE
  6
CONTINUOUS
 62
    30
 10
-126.520513
 20
-73.046749
 30
0.0
 40
5.0
  0
LINE
  5
3A6
  8
SIZE
  6
CONTINUOUS
 62
    30
 10
-126.520513
 20
-73.046749
 30
0.0
 11
-131.221194
 21
-64.220447
 31
0.0
  0
TEXT
  5
3A7
  8
SIZE
  6
CONTINUOUS
 62
    30
 10
-156.430826
 20
41.240542
 30
0.0
 40
30.0
  1
120°
 50
60.000017
 72
     1
 11
-135.180837
 21
78.046628
 31
0.0
  0
POINT
  5
3A8
  8
DEFPOINTS
  6
CONTINUOUS
 62
    30
 10
0.000027
 20
0.0
 30
0.0
  0
POINT
  5
3A9
  8
DEFPOINTS
  6
CONTINUOUS
 62
    30
 10
0.000027
 20
143.693359
 30
0.0
  0
POINT
  5
3AA
  8
DEFPOINTS
  6
CONTINUOUS
 62
    30
 10
-124.442039
 20
-71.846741
 30
0.0
  0
POINT
  5
3AB
  8
DEFPOINTS
  6
CONTINUOUS
 62
    30
 10
-93.907003
 20
111.914003
 30
0.0
  0
LINE
  5
3AC
  8
SIZE
  6
CONTINUOUS
 62
    30
 10
133.10236
 20
-76.846744
 30
0.0
 11
137.345899
 21
-79.296755
 31
0.0
  0
LINE
  5
3AD
  8
SIZE
  6
CONTINUOUS
 62
    30
 10
0.000027
 20
153.693359
 30
0.0
 11
0.000027
 21
158.593393
 31
0.0
  0
ARC
  5
3AE
  8
SIZE
  6
CONTINUOUS
 62
    30
 10
0.000027
 20
0.0
 30
0.0
 40
146.093393
 50
333.922601
 51
86.077374
  0
CIRCLE
  5
3AF
  8
SIZE
  6
CONTINUOUS
 62
    30
 10
126.520584
 20
-73.046751
 30
0.0
 40
5.0
  0
LINE
  5
3B0
  8
SIZE
  6
CONTINUOUS
 62
    30
 10
126.520584
 20
-73.046751
 30
0.0
 11
131.221264
 21
-64.220449
 31
0.0
  0
CIRCLE
  5
3B1
  8
SIZE
  6
CONTINUOUS
 62
    30
 10
0.000027
 20
146.093393
 30
0.0
 40
5.0
  0
LINE
  5
3B2
  8
SIZE
  6
CONTINUOUS
 62
    30
 10
0.000027
 20
146.093393
 30
0.0
 11
9.994169
 21
145.751146
 31
0.0
  0
TEXT
  5
3B3
  8
SIZE
  6
CONTINUOUS
 62
    30
 10
111.178678
 20
117.518956
 30
0.0
 40
30.0
  1
120°
 50
301.357149
 72
     1
 11
133.294451
 21
81.226497
 31
0.0
  0
POINT
  5
3B4
  8
DEFPOINTS
  6
CONTINUOUS
 62
    30
 10
0.000027
 20
0.0
 30
0.0
  0
POINT
  5
3B5
  8
DEFPOINTS
  6
CONTINUOUS
 62
    30
 10
124.442108
 20
-71.846741
 30
0.0
  0
POINT
  5
3B6
  8
DEFPOINTS
  6
CONTINUOUS
 62
    30
 10
0.000027
 20
143.693359
 30
0.0
  0
POINT
  5
3B7
  8
DEFPOINTS
  6
CONTINUOUS
 62
    30
 10
143.87394
 20
25.36881
 30
0.0
  0
LINE
  5
3B8
  8
SIZE
  6
CONTINUOUS
 62
    30
 10
-330.821686
 20
-201.0
 30
0.0
 11
-330.821686
 21
-614.154016
 31
0.0
  0
LINE
  5
3B9
  8
SIZE
  6
CONTINUOUS
 62
    30
 10
330.821686
 20
-201.0
 30
0.0
 11
330.821686
 21
-614.154016
 31
0.0
  0
LINE
  5
3BA
  8
SIZE
  6
CONTINUOUS
 62
    30
 10
-320.821686
 20
-601.654016
 30
0.0
 11
320.821686
 21
-601.654016
 31
0.0
  0
CIRCLE
  5
3BB
  8
SIZE
  6
CONTINUOUS
 62
    30
 10
-330.821686
 20
-601.654016
 30
0.0
 40
5.0
  0
LINE
  5
3BC
  8
SIZE
  6
CONTINUOUS
 62
    30
 10
-330.821686
 20
-601.654016
 30
0.0
 11
-320.821686
 21
-601.654016
 31
0.0
  0
CIRCLE
  5
3BD
  8
SIZE
  6
CONTINUOUS
 62
    30
 10
330.821686
 20
-601.654016
 30
0.0
 40
5.0
  0
LINE
  5
3BE
  8
SIZE
  6
CONTINUOUS
 62
    30
 10
330.821686
 20
-601.654016
 30
0.0
 11
320.821686
 21
-601.654016
 31
0.0
  0
TEXT
  5
3BF
  8
SIZE
  6
CONTINUOUS
 62
    30
 10
-37.297297
 20
-591.654016
 30
0.0
 40
30.0
  1
662
 72
     1
 11
2.702703
 21
-591.654016
 31
0.0
  0
POINT
  5
3C0
  8
DEFPOINTS
  6
CONTINUOUS
 62
    30
 10
-330.821686
 20
-191.0
 30
0.0
  0
POINT
  5
3C1
  8
DEFPOINTS
  6
CONTINUOUS
 62
    30
 10
330.821686
 20
-191.0
 30
0.0
  0
POINT
  5
3C2
  8
DEFPOINTS
  6
CONTINUOUS
 62
    30
 10
330.821686
 20
-601.654016
 30
0.0
  0
LINE
  5
3C3
  8
SIZE
  6
CONTINUOUS
 62
    30
 10
423.893463
 20
0.0
 30
0.0
 11
520.088495
 21
0.0
 31
0.0
  0
LINE
  5
3C4
  8
SIZE
  6
CONTINUOUS
 62
    30
 10
340.821686
 20
-191.0
 30
0.0
 11
520.088495
 21
-191.0
 31
0.0
  0
LINE
  5
3C5
  8
SIZE
  6
CONTINUOUS
 62
    30
 10
507.588495
 20
-10.0
 30
0.0
 11
507.588495
 21
-181.0
 31
0.0
  0
CIRCLE
  5
3C6
  8
SIZE
  6
CONTINUOUS
 62
    30
 10
507.588495
 20
0.0
 30
0.0
 40
5.0
  0
LINE
  5
3C7
  8
SIZE
  6
CONTINUOUS
 62
    30
 10
507.588495
 20
0.0
 30
0.0
 11
507.588495
 21
-10.0
 31
0.0
  0
CIRCLE
  5
3C8
  8
SIZE
  6
CONTINUOUS
 62
    30
 10
507.588495
 20
-191.0
 30
0.0
 40
5.0
  0
LINE
  5
3C9
  8
SIZE
  6
CONTINUOUS
 62
    30
 10
507.588495
 20
-191.0
 30
0.0
 11
507.588495
 21
-181.0
 31
0.0
  0
TEXT
  5
3CA
  8
SIZE
  6
CONTINUOUS
 62
    30
 10
497.588495
 20
-123.882813
 30
0.0
 40
30.0
  1
191
 50
90.0
 72
     1
 11
497.588495
 21
-93.882813
 31
0.0
  0
POINT
  5
3CB
  8
DEFPOINTS
  6
CONTINUOUS
 62
    30
 10
413.893463
 20
0.0
 30
0.0
  0
POINT
  5
3CC
  8
DEFPOINTS
  6
CONTINUOUS
 62
    30
 10
330.821686
 20
-191.0
 30
0.0
  0
POINT
  5
3CD
  8
DEFPOINTS
  6
CONTINUOUS
 62
    30
 10
507.588495
 20
-191.0
 30
0.0
  0
LINE
  5
3CE
  8
SIZE
  6
CONTINUOUS
 62
    30
 10
18.235378
 20
-446.0
 30
0.0
 11
720.053003
 21
-446.0
 31
0.0
  0
LINE
  5
3CF
  8
SIZE
  6
CONTINUOUS
 62
    30
 10
30.014309
 20
399.0
 30
0.0
 11
720.053003
 21
399.0
 31
0.0
  0
LINE
  5
3D0
  8
SIZE
  6
CONTINUOUS
 62
    30
 10
707.553003
 20
-436.0
 30
0.0
 11
707.553003
 21
389.0
 31
0.0
  0
CIRCLE
  5
3D1
  8
SIZE
  6
CONTINUOUS
 62
    30
 10
707.553003
 20
-446.0
 30
0.0
 40
5.0
  0
LINE
  5
3D2
  8
SIZE
  6
CONTINUOUS
 62
    30
 10
707.553003
 20
-446.0
 30
0.0
 11
707.553003
 21
-436.0
 31
0.0
  0
CIRCLE
  5
3D3
  8
SIZE
  6
CONTINUOUS
 62
    30
 10
707.553003
 20
399.0
 30
0.0
 40
5.0
  0
LINE
  5
3D4
  8
SIZE
  6
CONTINUOUS
 62
    30
 10
707.553003
 20
399.0
 30
0.0
 11
707.553003
 21
389.0
 31
0.0
  0
TEXT
  5
3D5
  8
SIZE
  6
CONTINUOUS
 62
    30
 10
697.553003
 20
-61.601318
 30
0.0
 40
30.0
  1
845
 50
90.0
 72
     1
 11
697.553003
 21
-21.601318
 31
0.0
  0
POINT
  5
3D6
  8
DEFPOINTS
  6
CONTINUOUS
 62
    30
 10
8.235378
 20
-446.0
 30
0.0
  0
POINT
  5
3D7
  8
DEFPOINTS
  6
CONTINUOUS
 62
    30
 10
20.014309
 20
399.0
 30
0.0
  0
POINT
  5
3D8
  8
DEFPOINTS
  6
CONTINUOUS
 62
    30
 10
707.553003
 20
399.0
 30
0.0
  0
LINE
  5
3D9
  8
SIZE
  6
CONTINUOUS
 62
    30
 10
18.235378
 20
-446.0
 30
0.0
 11
620.032739
 21
-446.0
 31
0.0
  0
LINE
  5
3DA
  8
SIZE
  6
CONTINUOUS
 62
    30
 10
81.98745
 20
-431.0
 30
0.0
 11
620.032739
 21
-431.0
 31
0.0
  0
LINE
  5
3DB
  8
SIZE
  6
CONTINUOUS
 62
    30
 10
607.532739
 20
-421.0
 30
0.0
 11
607.532739
 21
-411.0
 31
0.0
  0
LINE
  5
3DC
  8
SIZE
  6
CONTINUOUS
 62
    30
 10
607.532739
 20
-456.0
 30
0.0
 11
607.532739
 21
-535.485474
 31
0.0
  0
LINE
  5
3DD
  8
SIZE
  6
CONTINUOUS
 62
    30
 10
607.532739
 20
-431.0
 30
0.0
 11
607.532739
 21
-446.0
 31
0.0
  0
CIRCLE
  5
3DE
  8
SIZE
  6
CONTINUOUS
 62
    30
 10
607.532739
 20
-431.0
 30
0.0
 40
5.0
  0
LINE
  5
3DF
  8
SIZE
  6
CONTINUOUS
 62
    30
 10
607.532739
 20
-431.0
 30
0.0
 11
607.532739
 21
-421.0
 31
0.0
  0
CIRCLE
  5
3E0
  8
SIZE
  6
CONTINUOUS
 62
    30
 10
607.532739
 20
-446.0
 30
0.0
 40
5.0
  0
LINE
  5
3E1
  8
SIZE
  6
CONTINUOUS
 62
    30
 10
607.532739
 20
-446.0
 30
0.0
 11
607.532739
 21
-456.0
 31
0.0
  0
TEXT
  5
3E2
  8
SIZE
  6
CONTINUOUS
 62
    30
 10
597.532739
 20
-525.485474
 30
0.0
 40
30.0
  1
15
 50
90.0
 72
     1
 11
597.532739
 21
-505.485474
 31
0.0
  0
POINT
  5
3E3
  8
DEFPOINTS
  6
CONTINUOUS
 62
    30
 10
8.235378
 20
-446.0
 30
0.0
  0
POINT
  5
3E4
  8
DEFPOINTS
  6
CONTINUOUS
 62
    30
 10
71.98745
 20
-431.0
 30
0.0
  0
POINT
  5
3E5
  8
DEFPOINTS
  6
CONTINUOUS
 62
    30
 10
607.532739
 20
-431.0
 30
0.0
  0
LINE
  5
3E6
  8
SIZE
  6
CONTINUOUS
 62
    30
 10
81.98745
 20
-431.0
 30
0.0
 11
620.053003
 21
-431.0
 31
0.0
  0
LINE
  5
3E7
  8
SIZE
  6
CONTINUOUS
 62
    30
 10
423.893463
 20
0.0
 30
0.0
 11
620.053003
 21
0.0
 31
0.0
  0
LINE
  5
3E8
  8
SIZE
  6
CONTINUOUS
 62
    30
 10
607.553003
 20
-421.0
 30
0.0
 11
607.553003
 21
-10.0
 31
0.0
  0
CIRCLE
  5
3E9
  8
SIZE
  6
CONTINUOUS
 62
    30
 10
607.553003
 20
-431.0
 30
0.0
 40
5.0
  0
LINE
  5
3EA
  8
SIZE
  6
CONTINUOUS
 62
    30
 10
607.553003
 20
-431.0
 30
0.0
 11
607.553003
 21
-421.0
 31
0.0
  0
CIRCLE
  5
3EB
  8
SIZE
  6
CONTINUOUS
 62
    30
 10
607.553003
 20
0.0
 30
0.0
 40
5.0
  0
LINE
  5
3EC
  8
SIZE
  6
CONTINUOUS
 62
    30
 10
607.553003
 20
0.0
 30
0.0
 11
607.553003
 21
-10.0
 31
0.0
  0
TEXT
  5
3ED
  8
SIZE
  6
CONTINUOUS
 62
    30
 10
597.553003
 20
-250.5
 30
0.0
 40
30.0
  1
431
 50
90.0
 72
     1
 11
597.553003
 21
-215.5
 31
0.0
  0
POINT
  5
3EE
  8
DEFPOINTS
  6
CONTINUOUS
 62
    30
 10
71.98745
 20
-431.0
 30
0.0
  0
POINT
  5
3EF
  8
DEFPOINTS
  6
CONTINUOUS
 62
    30
 10
413.893463
 20
0.0
 30
0.0
  0
POINT
  5
3F0
  8
DEFPOINTS
  6
CONTINUOUS
 62
    30
 10
607.553003
 20
0.0
 30
0.0
  0
LINE
  5
3F1
  8
SIZE
  6
CONTINUOUS
 62
    30
 10
32.283962
 20
382.0
 30
0.0
 11
520.053003
 21
382.0
 31
0.0
  0
LINE
  5
3F2
  8
SIZE
  6
CONTINUOUS
 62
    30
 10
423.893463
 20
0.0
 30
0.0
 11
520.053003
 21
0.0
 31
0.0
  0
LINE
  5
3F3
  8
SIZE
  6
CONTINUOUS
 62
    30
 10
507.553003
 20
372.0
 30
0.0
 11
507.553003
 21
10.0
 31
0.0
  0
CIRCLE
  5
3F4
  8
SIZE
  6
CONTINUOUS
 62
    30
 10
507.553003
 20
382.0
 30
0.0
 40
5.0
  0
LINE
  5
3F5
  8
SIZE
  6
CONTINUOUS
 62
    30
 10
507.553003
 20
382.0
 30
0.0
 11
507.553003
 21
372.0
 31
0.0
  0
CIRCLE
  5
3F6
  8
SIZE
  6
CONTINUOUS
 62
    30
 10
507.553003
 20
0.0
 30
0.0
 40
5.0
  0
LINE
  5
3F7
  8
SIZE
  6
CONTINUOUS
 62
    30
 10
507.553003
 20
0.0
 30
0.0
 11
507.553003
 21
10.0
 31
0.0
  0
TEXT
  5
3F8
  8
SIZE
  6
CONTINUOUS
 62
    30
 10
497.553003
 20
151.0
 30
0.0
 40
30.0
  1
382
 50
90.0
 72
     1
 11
497.553003
 21
191.0
 31
0.0
  0
POINT
  5
3F9
  8
DEFPOINTS
  6
CONTINUOUS
 62
    30
 10
22.283962
 20
382.0
 30
0.0
  0
POINT
  5
3FA
  8
DEFPOINTS
  6
CONTINUOUS
 62
    30
 10
413.893463
 20
0.0
 30
0.0
  0
POINT
  5
3FB
  8
DEFPOINTS
  6
CONTINUOUS
 62
    30
 10
507.553003
 20
0.0
 30
0.0
  0
LINE
  5
3FC
  8
SIZE
  6
CONTINUOUS
 62
    30
 10
-420.131165
 20
0.0
 30
0.0
 11
-480.622656
 21
0.0
 31
0.0
  0
LINE
  5
3FD
  8
SIZE
  6
CONTINUOUS
 62
    30
 10
-85.0
 20
-290.0
 30
0.0
 11
-480.622656
 21
-290.0
 31
0.0
  0
LINE
  5
3FE
  8
SIZE
  6
CONTINUOUS
 62
    30
 10
-468.122656
 20
-10.0
 30
0.0
 11
-468.122656
 21
-280.0
 31
0.0
  0
CIRCLE
  5
3FF
  8
SIZE
  6
CONTINUOUS
 62
    30
 10
-468.122656
 20
0.0
 30
0.0
 40
5.0
  0
LINE
  5
400
  8
SIZE
  6
CONTINUOUS
 62
    30
 10
-468.122656
 20
0.0
 30
0.0
 11
-468.122656
 21
-10.0
 31
0.0
  0
CIRCLE
  5
401
  8
SIZE
  6
CONTINUOUS
 62
    30
 10
-468.122656
 20
-290.0
 30
0.0
 40
5.0
  0
LINE
  5
402
  8
SIZE
  6
CONTINUOUS
 62
    30
 10
-468.122656
 20
-290.0
 30
0.0
 11
-468.122656
 21
-280.0
 31
0.0
  0
TEXT
  5
403
  8
SIZE
  6
CONTINUOUS
 62
    30
 10
-478.122656
 20
-182.5
 30
0.0
 40
30.0
  1
290
 50
90.0
 72
     1
 11
-478.122656
 21
-145.0
 31
0.0
  0
POINT
  5
404
  8
DEFPOINTS
  6
CONTINUOUS
 62
    30
 10
-410.131165
 20
0.0
 30
0.0
  0
POINT
  5
405
  8
DEFPOINTS
  6
CONTINUOUS
 62
    30
 10
-75.0
 20
-290.0
 30
0.0
  0
POINT
  5
406
  8
DEFPOINTS
  6
CONTINUOUS
 62
    30
 10
-468.122656
 20
-290.0
 30
0.0
  0
LINE
  5
407
  8
SIZE
  6
CONTINUOUS
 62
    30
 10
0.0
 20
-470.860229
 30
0.0
 11
0.0
 21
-521.746728
 31
0.0
  0
LINE
  5
408
  8
SIZE
  6
CONTINUOUS
 62
    30
 10
-35.0
 20
-340.0
 30
0.0
 11
-35.0
 21
-521.746728
 31
0.0
  0
LINE
  5
409
  8
SIZE
  6
CONTINUOUS
 62
    30
 10
10.0
 20
-509.246728
 30
0.0
 11
20.0
 21
-509.246728
 31
0.0
  0
LINE
  5
40A
  8
SIZE
  6
CONTINUOUS
 62
    30
 10
-45.0
 20
-509.246728
 30
0.0
 11
-131.403007
 21
-509.246728
 31
0.0
  0
LINE
  5
40B
  8
SIZE
  6
CONTINUOUS
 62
    30
 10
0.0
 20
-509.246728
 30
0.0
 11
-35.0
 21
-509.246728
 31
0.0
  0
CIRCLE
  5
40C
  8
SIZE
  6
CONTINUOUS
 62
    30
 10
0.0
 20
-509.246728
 30
0.0
 40
5.0
  0
LINE
  5
40D
  8
SIZE
  6
CONTINUOUS
 62
    30
 10
0.0
 20
-509.246728
 30
0.0
 11
10.0
 21
-509.246728
 31
0.0
  0
CIRCLE
  5
40E
  8
SIZE
  6
CONTINUOUS
 62
    30
 10
-35.0
 20
-509.246728
 30
0.0
 40
5.0
  0
LINE
  5
40F
  8
SIZE
  6
CONTINUOUS
 62
    30
 10
-35.0
 20
-509.246728
 30
0.0
 11
-45.0
 21
-509.246728
 31
0.0
  0
TEXT
  5
410
  8
SIZE
  6
CONTINUOUS
 62
    30
 10
-121.403007
 20
-499.246728
 30
0.0
 40
30.0
  1
35
 72
     1
 11
-96.403007
 21
-499.246728
 31
0.0
  0
POINT
  5
411
  8
DEFPOINTS
  6
CONTINUOUS
 62
    30
 10
0.0
 20
-460.860229
 30
0.0
  0
POINT
  5
412
  8
DEFPOINTS
  6
CONTINUOUS
 62
    30
 10
-35.0
 20
-330.0
 30
0.0
  0
POINT
  5
413
  8
DEFPOINTS
  6
CONTINUOUS
 62
    30
 10
-35.0
 20
-509.246728
 30
0.0
  0
TEXT
  5
414
  8
NOTE
  6
CONTINUOUS
 10
-403.226715
 20
-1293.558716
 30
0.0
 40
40.0
  1
メンテナンススペ－ス
 50
90.000005
 41
0.84375
  7
STANDARD1
  0
TEXT
  5
415
  8
NOTE
  6
CONTINUOUS
 10
-202.784592
 20
-742.004517
 30
0.0
 40
40.0
  1
メンテナンススペ－ス
 50
0.000003
 41
0.84375
  7
STANDARD1
  0
LINE
  5
416
  8
NOTE
  6
CONTINUOUS
 10
-15.0
 20
-290.0
 30
0.0
 11
-55.0
 21
-290.0
 31
0.0
  0
LINE
  5
417
  8
NOTE
  6
CONTINUOUS
 10
-35.0
 20
-270.0
 30
0.0
 11
-35.0
 21
-310.0
 31
0.0
  0
LINE
  5
418
  8
NOTE
  6
CONTINUOUS
 10
-222.950336
 20
-317.765848
 30
0.0
 11
-262.950336
 21
-317.765848
 31
0.0
  0
LINE
  5
419
  8
NOTE
  6
CONTINUOUS
 10
-242.950336
 20
-297.765848
 30
0.0
 11
-242.950336
 21
-337.765848
 31
0.0
  0
LINE
  5
41A
  8
NOTE
  6
CONTINUOUS
 10
262.950336
 20
-317.765848
 30
0.0
 11
222.950336
 21
-317.765848
 31
0.0
  0
LINE
  5
41B
  8
NOTE
  6
CONTINUOUS
 10
242.950336
 20
-297.765848
 30
0.0
 11
242.950336
 21
-337.765848
 31
0.0
  0
LINE
  5
41C
  8
NOTE
  6
CONTINUOUS
 10
-330.666493
 20
-171.268834
 30
0.0
 11
-330.666493
 21
-211.268834
 31
0.0
  0
LINE
  5
41D
  8
NOTE
  6
CONTINUOUS
 10
-310.666493
 20
-191.268834
 30
0.0
 11
-350.666493
 21
-191.268834
 31
0.0
  0
LINE
  5
41E
  8
NOTE
  6
CONTINUOUS
 10
330.821704
 20
-171.0
 30
0.0
 11
330.821704
 21
-211.0
 31
0.0
  0
LINE
  5
41F
  8
NOTE
  6
CONTINUOUS
 10
350.821704
 20
-191.0
 30
0.0
 11
310.821704
 21
-191.0
 31
0.0
  0
LINE
  5
420
  8
NOTE
  6
CONTINUOUS
 10
20.0
 20
382.0
 30
0.0
 11
-20.0
 21
382.0
 31
0.0
  0
LINE
  5
421
  8
NOTE
  6
CONTINUOUS
 10
0.0
 20
402.0
 30
0.0
 11
0.0
 21
362.0
 31
0.0
  0
LINE
  5
422
  8
NOTE
  6
CONTINUOUS
 10
-1055.672974
 20
-647.361511
 30
0.0
 11
-483.922974
 21
-647.361511
 31
0.0
  0
LINE
  5
423
  8
NOTE
  6
CONTINUOUS
 10
-483.922974
 20
-647.361511
 30
0.0
 11
-35.0
 21
-290.0
 31
0.0
  0
LINE
  5
424
  8
NOTE
  6
CONTINUOUS
 10
-35.0
 20
-290.0
 30
0.0
 11
-36.189049
 21
-291.608155
 31
0.0
  0
LINE
  5
425
  8
NOTE
  6
CONTINUOUS
 10
-35.0
 20
-290.0
 30
0.0
 11
-36.833824
 21
-290.798179
 31
0.0
  0
TEXT
  5
426
  8
NOTE
  6
CONTINUOUS
 10
-1055.672974
 20
-646.361511
 30
0.0
 40
40.0
  1
缶体保護弁排水口  D φ18
 41
0.819712
  7
STANDARD1
  0
LINE
  5
427
  8
NOTE
  6
CONTINUOUS
 10
-912.631836
 20
-384.607697
 30
0.0
 11
-395.381836
 21
-384.607697
 31
0.0
  0
LINE
  5
428
  8
NOTE
  6
CONTINUOUS
 10
-395.381836
 20
-384.607697
 30
0.0
 11
-242.950333
 21
-317.765839
 31
0.0
  0
LINE
  5
429
  8
NOTE
  6
CONTINUOUS
 10
-242.950333
 20
-317.765839
 30
0.0
 11
-244.511681
 21
-319.015715
 31
0.0
  0
LINE
  5
42A
  8
NOTE
  6
CONTINUOUS
 10
-242.950333
 20
-317.765839
 30
0.0
 11
-244.927438
 21
-318.067589
 31
0.0
  0
TEXT
  5
42B
  8
NOTE
  6
CONTINUOUS
 10
-912.631836
 20
-383.607666
 30
0.0
 40
40.0
  1
WD(CW) R3/4(φ27.2)
 50
359.999996
 41
0.641854
  7
STANDARD1
  0
LINE
  5
42C
  8
NOTE
  6
CONTINUOUS
 10
929.873657
 20
-609.748535
 30
0.0
 11
412.623657
 21
-609.748535
 31
0.0
  0
LINE
  5
42D
  8
NOTE
  6
CONTINUOUS
 10
412.623657
 20
-609.748535
 30
0.0
 11
242.950333
 21
-317.765839
 31
0.0
  0
LINE
  5
42E
  8
NOTE
  6
CONTINUOUS
 10
242.950333
 20
-317.765839
 30
0.0
 11
244.368519
 21
-319.176068
 31
0.0
  0
LINE
  5
42F
  8
NOTE
  6
CONTINUOUS
 10
242.950333
 20
-317.765839
 30
0.0
 11
243.473404
 21
-319.696226
 31
0.0
  0
TEXT
  5
430
  8
NOTE
  6
CONTINUOUS
 10
473.373657
 20
-608.748535
 30
0.0
 40
40.0
  1
CW(WD) R3/4(φ27.2)
 50
0.000003
 41
0.641854
  7
STANDARD1
  0
LINE
  5
431
  8
NOTE
  6
CONTINUOUS
 10
400.11969
 20
696.740234
 30
0.0
 11
143.869675
 21
696.740234
 31
0.0
  0
LINE
  5
432
  8
NOTE
  6
CONTINUOUS
 10
143.869675
 20
696.740234
 30
0.0
 11
0.0
 21
382.0
 31
0.0
  0
LINE
  5
433
  8
NOTE
  6
CONTINUOUS
 10
0.0
 20
382.0
 30
0.0
 11
0.332348
 21
383.972193
 31
0.0
  0
LINE
  5
434
  8
NOTE
  6
CONTINUOUS
 10
0.0
 20
382.0
 30
0.0
 11
1.273918
 21
383.541795
 31
0.0
  0
TEXT
  5
435
  8
NOTE
  6
CONTINUOUS
 10
204.619675
 20
697.740234
 30
0.0
 40
40.0
  1
AH 3-M12
 50
0.000003
 41
0.644737
  7
STANDARD1
  0
CIRCLE
  5
436
  8
ARRANGE
  6
CONTINUOUS
 10
0.0
 20
0.0
 30
0.0
 40
15.0
  0
CIRCLE
  5
437
  8
FIX
  6
CONTINUOUS
 10
-330.666493
 20
-191.268834
 30
0.0
 40
6.0
  0
CIRCLE
  5
438
  8
FIX
  6
CONTINUOUS
 10
330.821704
 20
-191.0
 30
0.0
 40
6.0
  0
CIRCLE
  5
439
  8
FIX
  6
CONTINUOUS
 10
0.0
 20
382.0
 30
0.0
 40
6.0
  0
LINE
  5
43A
  8
SERVICESPACE
  6
DASHDOT
 10
360.0
 20
-431.0
 30
0.0
 11
-360.0
 21
-1731.0
 31
0.0
  0
LINE
  5
43B
  8
SERVICESPACE
  6
DASHDOT
 10
-360.0
 20
-431.0
 30
0.0
 11
360.0
 21
-1731.0
 31
0.0
  0
LINE
  5
43C
  8
SERVICESPACE
  6
DASHDOT
 10
-360.0
 20
-1731.0
 30
0.0
 11
360.0
 21
-1731.0
 31
0.0
  0
LINE
  5
43D
  8
SERVICESPACE
  6
DASHDOT
 10
360.0
 20
-1731.0
 30
0.0
 11
360.0
 21
-431.0
 31
0.0
  0
LINE
  5
43E
  8
SERVICESPACE
  6
DASHDOT
 10
-360.0
 20
-431.0
 30
0.0
 11
360.0
 21
-431.0
 31
0.0
  0
LINE
  5
43F
  8
SERVICESPACE
  6
DASHDOT
 10
-360.0
 20
-431.0
 30
0.0
 11
-360.0
 21
-1731.0
 31
0.0
  0
TEXT
  5
440
  8
ETC
  6
CONTINUOUS
 10
521.177551
 20
582.802673
 30
0.0
 40
40.0
  1
TG46566
 50
0.000003
 41
0.6125
  7
STANDARD1
  0
TEXT
  5
441
  8
ETC
  6
CONTINUOUS
 10
521.177551
 20
512.802673
 30
0.0
 40
40.0
  1
電気温水器
 50
0.000003
 41
0.84375
  7
STANDARD1
  0
ENDSEC
  0
EOF
