  0
SECTION
  2
HEADER
  9
$ACADVER
  1
AC1009
  9
$INSBASE
 10
0.0
 20
0.0
 30
0.0
  9
$EXTMIN
 10
-770.012329
 20
-460.1
 30
0.0
  9
$EXTMAX
 10
1902.480912
 20
2655.700049
 30
0.0
  9
$LIMMIN
 10
0.0
 20
0.0
  9
$LIMMAX
 10
12.0
 20
9.0
  9
$ORTHOMODE
 70
     0
  9
$REGENMODE
 70
     1
  9
$FILLMODE
 70
     1
  9
$QTEXTMODE
 70
     0
  9
$MIRRTEXT
 70
     1
  9
$DRAGMODE
 70
     2
  9
$LTSCALE
 40
1.0
  9
$OSMODE
 70
     0
  9
$ATTMODE
 70
     1
  9
$TEXTSIZE
 40
40.0
  9
$TRACEWID
 40
0.05
  9
$TEXTSTYLE
  7
STANDARD1
  9
$CLAYER
  8
0
  9
$CELTYPE
  6
CONTINUOUS
  9
$CECOLOR
 62
   256
  9
$DIMSCALE
 40
1.0
  9
$DIMASZ
 40
10.0
  9
$DIMEXO
 40
10.0
  9
$DIMDLI
 40
8.0
  9
$DIMRND
 40
0.0
  9
$DIMDLE
 40
0.0
  9
$DIMEXE
 40
12.5
  9
$DIMTP
 40
0.0
  9
$DIMTM
 40
0.0
  9
$DIMTXT
 40
30.0
  9
$DIMCEN
 40
2.5
  9
$DIMTSZ
 40
0.0
  9
$DIMTOL
 70
     0
  9
$DIMLIM
 70
     0
  9
$DIMTIH
 70
     0
  9
$DIMTOH
 70
     0
  9
$DIMSE1
 70
     0
  9
$DIMSE2
 70
     0
  9
$DIMTAD
 70
     3
  9
$DIMZIN
 70
    12
  9
$DIMBLK
  1

  9
$DIMASO
 70
     1
  9
$DIMSHO
 70
     1
  9
$DIMPOST
  1

  9
$DIMAPOST
  1

  9
$DIMALT
 70
     0
  9
$DIMALTD
 70
     4
  9
$DIMALTF
 40
25.4
  9
$DIMLFAC
 40
1.0
  9
$DIMTOFL
 70
     1
  9
$DIMTVP
 40
0.0
  9
$DIMTIX
 70
     0
  9
$DIMSOXD
 70
     0
  9
$DIMSAH
 70
     1
  9
$DIMBLK1
  1
_ORIGIN
  9
$DIMBLK2
  1
_ORIGIN
  9
$DIMSTYLE
  2
STANDARD
  9
$DIMCLRD
 70
     0
  9
$DIMCLRE
 70
     0
  9
$DIMCLRT
 70
     0
  9
$DIMTFAC
 40
1.0
  9
$DIMGAP
 40
0.09
  9
$LUNITS
 70
     2
  9
$LUPREC
 70
     3
  9
$SKETCHINC
 40
0.1
  9
$FILLETRAD
 40
0.0
  9
$AUNITS
 70
     0
  9
$AUPREC
 70
     0
  9
$MENU
  1
acad
  9
$ELEVATION
 40
0.0
  9
$PELEVATION
 40
0.0
  9
$THICKNESS
 40
0.0
  9
$LIMCHECK
 70
     0
  9
$BLIPMODE
 70
     0
  9
$CHAMFERA
 40
0.0
  9
$CHAMFERB
 40
0.0
  9
$SKPOLY
 70
     0
  9
$TDCREATE
 40
2451878.920035
  9
$TDUPDATE
 40
2451878.920035
  9
$TDINDWG
 40
0.0
  9
$TDUSRTIMER
 40
0.0
  9
$USRTIMER
 70
     1
  9
$ANGBASE
 50
0.0
  9
$ANGDIR
 70
     0
  9
$PDMODE
 70
     0
  9
$PDSIZE
 40
0.0
  9
$PLINEWID
 40
0.0
  9
$COORDS
 70
     1
  9
$SPLFRAME
 70
     0
  9
$SPLINETYPE
 70
     6
  9
$SPLINESEGS
 70
     8
  9
$ATTDIA
 70
     0
  9
$ATTREQ
 70
     1
  9
$HANDLING
 70
     1
  9
$HANDSEED
  5
42B
  9
$SURFTAB1
 70
     6
  9
$SURFTAB2
 70
     6
  9
$SURFTYPE
 70
     6
  9
$SURFU
 70
     6
  9
$SURFV
 70
     6
  9
$UCSNAME
  2

  9
$UCSORG
 10
0.0
 20
0.0
 30
0.0
  9
$UCSXDIR
 10
1.0
 20
0.0
 30
0.0
  9
$UCSYDIR
 10
0.0
 20
1.0
 30
0.0
  9
$PUCSNAME
  2

  9
$PUCSORG
 10
0.0
 20
0.0
 30
0.0
  9
$PUCSXDIR
 10
1.0
 20
0.0
 30
0.0
  9
$PUCSYDIR
 10
0.0
 20
1.0
 30
0.0
  9
$USERI1
 70
     0
  9
$USERI2
 70
     0
  9
$USERI3
 70
     0
  9
$USERI4
 70
     0
  9
$USERI5
 70
     0
  9
$USERR1
 40
0.0
  9
$USERR2
 40
0.0
  9
$USERR3
 40
0.0
  9
$USERR4
 40
0.0
  9
$USERR5
 40
0.0
  9
$WORLDVIEW
 70
     1
  9
$SHADEDGE
 70
     3
  9
$SHADEDIF
 70
    70
  9
$TILEMODE
 70
     1
  9
$MAXACTVP
 70
    48
  9
$PLIMCHECK
 70
     0
  9
$PEXTMIN
 10
1.000000E+020
 20
1.000000E+020
 30
1.000000E+020
  9
$PEXTMAX
 10
-1.000000E+020
 20
-1.000000E+020
 30
-1.000000E+020
  9
$PLIMMIN
 10
0.0
 20
0.0
  9
$PLIMMAX
 10
12.0
 20
9.0
  9
$UNITMODE
 70
     0
  9
$VISRETAIN
 70
     1
  9
$PLINEGEN
 70
     0
  9
$PSLTSCALE
 70
     1
  0
ENDSEC
  0
SECTION
  2
TABLES
  0
TABLE
  2
VPORT
 70
     2
  0
VPORT
  2
*ACTIVE
 70
     0
 10
0.0
 20
0.0
 11
1.0
 21
1.0
 12
566.234292
 22
1097.800025
 13
0.0
 23
0.0
 14
1.0
 24
1.0
 15
0.0
 25
0.0
 16
0.0
 26
0.0
 36
1.0
 17
0.0
 27
0.0
 37
0.0
 40
3175.33763
 41
2.827476
 42
50.0
 43
0.0
 44
0.0
 50
0.0
 51
0.0
 71
     0
 72
   100
 73
     1
 74
     1
 75
     0
 76
     0
 77
     0
 78
     0
  0
ENDTAB
  0
TABLE
  2
LTYPE
 70
     4
  0
LTYPE
  2
CONTINUOUS
 70
     0
  3
Solid line
 72
    65
 73
     0
 40
0.0
  0
LTYPE
  2
DASHED
 70
     0
  3
-- -- -- -- -- -- -- -- -- -- -- -- -- -- --
 72
    65
 73
     2
 40
0.75
 49
0.5
 49
-0.25
  0
LTYPE
  2
DASHDOT
 70
     0
  3
__ . __ . __ . __ . __ . __ . __ . __ . __ . __
 72
    65
 73
     4
 40
125.0
 49
80.0
 49
-20.0
 49
5.0
 49
-20.0
  0
LTYPE
  2
DIVIDE
 70
     0
  3
__ . . __ . . __ . . __ . . __ . . __ . . __
 72
    65
 73
     6
 40
1.25
 49
0.5
 49
-0.25
 49
0.0
 49
-0.25
 49
0.0
 49
-0.25
  0
ENDTAB
  0
TABLE
  2
LAYER
 70
    12
  0
LAYER
  2
0
 70
     0
 62
     3
  6
CONTINUOUS
  0
LAYER
  2
OUTLINE
 70
     0
 62
     3
  6
CONTINUOUS
  0
LAYER
  2
DETAIL
 70
     0
 62
     5
  6
CONTINUOUS
  0
LAYER
  2
BASIS
 70
     0
 62
     6
  6
CONTINUOUS
  0
LAYER
  2
SIZE
 70
     0
 62
    30
  6
CONTINUOUS
  0
LAYER
  2
NOTE
 70
     0
 62
     4
  6
CONTINUOUS
  0
LAYER
  2
ARRANGE
 70
     0
 62
     1
  6
CONTINUOUS
  0
LAYER
  2
FIX
 70
     0
 62
    11
  6
CONTINUOUS
  0
LAYER
  2
SERVICESPACE
 70
     0
 62
     2
  6
CONTINUOUS
  0
LAYER
  2
ETC
 70
     0
 62
    61
  6
CONTINUOUS
  0
LAYER
  2
SYMBOLLINE
 70
     0
 62
     7
  6
CONTINUOUS
  0
LAYER
  2
DEFPOINTS
 70
     0
 62
     7
  6
CONTINUOUS
  0
ENDTAB
  0
TABLE
  2
STYLE
 70
     5
  0
STYLE
  2
STANDARD
 70
     0
 40
0.0
 41
1.0
 50
0.0
 71
     0
 42
0.2
  3
txt
  4

  0
STYLE
  2
STANDARD1
 70
     0
 40
0.0
 41
1.0
 50
0.0
 71
     0
 42
40.0
  3
MONOTXT
  4
BIGFONT
  0
STYLE
  2
STANDARD2
 70
     4
 40
0.0
 41
1.0
 50
0.0
 71
     0
 42
40.0
  3
MONOTXT
  4
BIGFONT
  0
STYLE
  2
STANDARD3
 70
     0
 40
0.0
 41
1.0
 50
0.0
 71
     0
 42
40.0
  3
MONOTXT
  4

  0
STYLE
  2
STANDARD4
 70
     4
 40
0.0
 41
1.0
 50
0.0
 71
     0
 42
40.0
  3
MONOTXT
  4

  0
ENDTAB
  0
TABLE
  2
VIEW
 70
     0
  0
ENDTAB
  0
TABLE
  2
UCS
 70
     0
  0
ENDTAB
  0
TABLE
  2
APPID
 70
     1
  0
APPID
  2
ACAD
 70
     0
  0
ENDTAB
  0
TABLE
  2
DIMSTYLE
 70
     1
  0
DIMSTYLE
  2
STANDARD
 70
     0
  3

  4

  5

  6

  7

 40
1.0
 41
0.18
 42
0.0625
 43
0.38
 44
0.18
 45
0.0
 46
0.0
 47
0.0
 48
0.0
140
0.18
141
0.09
142
0.0
143
25.4
144
1.0
145
0.0
146
1.0
147
0.09
 71
     0
 72
     0
 73
     1
 74
     1
 75
     0
 76
     0
 77
     0
 78
     0
170
     0
171
     2
172
     0
173
     0
174
     0
175
     0
176
     0
177
     0
178
     0
  0
ENDTAB
  0
ENDSEC
  0
SECTION
  2
BLOCKS
  0
BLOCK
  8
0
  2
$MODEL_SPACE
 70
     0
 10
0.0
 20
0.0
 30
0.0
  3
$MODEL_SPACE
  1

  0
ENDBLK
  5
1A
  8
0
  0
BLOCK
 67
     1
  8
0
  2
$PAPER_SPACE
 70
     0
 10
0.0
 20
0.0
 30
0.0
  3
$PAPER_SPACE
  1

  0
ENDBLK
  5
17
 67
     1
  8
0
  0
BLOCK
  8
SIZE
  2
*D0
 70
     1
 10
0.0
 20
0.0
 30
0.0
  3
*D0
  1

  0
TEXT
  5
35
  8
SIZE
  6
CONTINUOUS
 10
228.82276
 20
-89.143738
 30
0.0
 40
2.8
  1
23
 50
90.000005
 41
0.7
  7
STANDARD1
  0
LINE
  5
36
  8
SIZE
  6
CONTINUOUS
 10
239.0
 20
23.0
 30
0.0
 11
227.822754
 21
23.0
 31
0.0
  0
LINE
  5
37
  8
SIZE
  6
CONTINUOUS
 10
213.300369
 20
0.0
 30
0.0
 11
231.822754
 21
0.0
 31
0.0
  0
LINE
  5
38
  8
SIZE
  6
CONTINUOUS
 10
229.822754
 20
28.0
 30
0.0
 11
229.822754
 21
-90.543739
 31
0.0
  0
INSERT
  5
3A
  8
SIZE
  2
DOT
 10
229.822754
 20
23.0
 30
0.0
 50
90.0
  0
INSERT
  5
3B
  8
SIZE
  2
DOT
 10
229.822754
 20
0.0
 30
0.0
 50
270.0
  0
POINT
  5
3C
  8
DEFPOINTS
  6
BYBLOCK
 10
212.300369
 20
0.0
 30
0.0
  0
POINT
  5
3D
  8
DEFPOINTS
  6
BYBLOCK
 10
240.0
 20
23.0
 30
0.0
  0
POINT
  5
3E
  8
DEFPOINTS
  6
BYBLOCK
 10
229.822754
 20
23.0
 30
0.0
  0
ENDBLK
  5
3F
  8
SIZE
  0
BLOCK
  8
SIZE
  2
DOT
 70
     0
 10
0.0
 20
0.0
 30
0.0
  3
DOT
  1

  0
POLYLINE
  5
41
  8
0
  6
BYBLOCK
 66
     1
 10
0.0
 20
0.0
 30
0.0
 70
     1
 40
0.5
 41
0.5
  0
VERTEX
  5
42
  8
0
  6
BYBLOCK
 10
-0.25
 20
0.0
 30
0.0
 42
1.0
  0
VERTEX
  5
43
  8
0
  6
BYBLOCK
 10
0.25
 20
0.0
 30
0.0
 42
1.0
  0
SEQEND
  5
44
  8
0
  6
BYBLOCK
  0
LINE
  5
45
  8
0
  6
BYBLOCK
 10
-0.5
 20
0.0
 30
0.0
 11
-1.0
 21
0.0
 31
0.0
  0
ENDBLK
  5
46
  8
SIZE
  0
BLOCK
  8
SIZE
  2
*D2
 70
     1
 10
0.0
 20
0.0
 30
0.0
  3
*D2
  1

  0
TEXT
  5
49
  8
SIZE
  6
CONTINUOUS
 10
-427.474976
 20
-349.000006
 30
0.0
 40
2.8
  1
39
 50
0.000003
 41
0.7
  7
STANDARD1
  0
LINE
  5
4A
  8
SIZE
  6
CONTINUOUS
 10
-369.0
 20
7.0
 30
0.0
 11
-369.0
 21
-352.0
 31
0.0
  0
LINE
  5
4B
  8
SIZE
  6
CONTINUOUS
 10
-330.0
 20
39.0
 30
0.0
 11
-330.0
 21
-352.0
 31
0.0
  0
LINE
  5
4C
  8
SIZE
  6
CONTINUOUS
 10
-428.874969
 20
-350.0
 30
0.0
 11
-325.0
 21
-350.0
 31
0.0
  0
INSERT
  5
4D
  8
SIZE
  2
DOT
 10
-369.0
 20
-350.0
 30
0.0
 50
180.0
  0
INSERT
  5
4E
  8
SIZE
  2
DOT
 10
-330.0
 20
-350.0
 30
0.0
  0
POINT
  5
4F
  8
DEFPOINTS
  6
BYBLOCK
 10
-330.0
 20
40.0
 30
0.0
  0
POINT
  5
50
  8
DEFPOINTS
  6
BYBLOCK
 10
-369.0
 20
8.0
 30
0.0
  0
POINT
  5
51
  8
DEFPOINTS
  6
BYBLOCK
 10
-369.0
 20
-350.0
 30
0.0
  0
ENDBLK
  5
52
  8
SIZE
  0
BLOCK
  8
SIZE
  2
*D3
 70
     1
 10
0.0
 20
0.0
 30
0.0
  3
*D3
  1

  0
TEXT
  5
55
  8
SIZE
  6
CONTINUOUS
 10
32.560001
 20
2614.299951
 30
0.0
 40
2.8
  1
731
 50
0.000003
 41
0.7
  7
STANDARD1
  0
LINE
  5
56
  8
SIZE
  6
CONTINUOUS
 10
401.0
 20
2464.300049
 30
0.0
 11
401.0
 21
2615.300049
 31
0.0
  0
LINE
  5
57
  8
SIZE
  6
CONTINUOUS
 10
-330.0
 20
2464.300049
 30
0.0
 11
-330.0
 21
2615.300049
 31
0.0
  0
LINE
  5
58
  8
SIZE
  6
CONTINUOUS
 10
401.0
 20
2613.300049
 30
0.0
 11
-330.0
 21
2613.300049
 31
0.0
  0
INSERT
  5
59
  8
SIZE
  2
DOT
 10
401.0
 20
2613.300049
 30
0.0
  0
INSERT
  5
5A
  8
SIZE
  2
DOT
 10
-330.0
 20
2613.300049
 30
0.0
 50
180.0
  0
POINT
  5
5B
  8
DEFPOINTS
  6
BYBLOCK
 10
-330.0
 20
2463.300049
 30
0.0
  0
POINT
  5
5C
  8
DEFPOINTS
  6
BYBLOCK
 10
401.0
 20
2463.300049
 30
0.0
  0
POINT
  5
5D
  8
DEFPOINTS
  6
BYBLOCK
 10
401.0
 20
2613.300049
 30
0.0
  0
ENDBLK
  5
5E
  8
SIZE
  0
BLOCK
  8
SIZE
  2
*D4
 70
     1
 10
0.0
 20
0.0
 30
0.0
  3
*D4
  1

  0
TEXT
  5
61
  8
SIZE
  6
CONTINUOUS
 10
1047.079956
 20
2614.299951
 30
0.0
 40
2.8
  1
1300
 50
0.000003
 41
0.7
  7
STANDARD1
  0
LINE
  5
62
  8
SIZE
  6
CONTINUOUS
 10
1701.0
 20
2464.300049
 30
0.0
 11
1701.0
 21
2615.300049
 31
0.0
  0
LINE
  5
63
  8
SIZE
  6
CONTINUOUS
 10
401.0
 20
2464.300049
 30
0.0
 11
401.0
 21
2615.300049
 31
0.0
  0
LINE
  5
64
  8
SIZE
  6
CONTINUOUS
 10
1701.0
 20
2613.300049
 30
0.0
 11
401.0
 21
2613.300049
 31
0.0
  0
INSERT
  5
65
  8
SIZE
  2
DOT
 10
1701.0
 20
2613.300049
 30
0.0
  0
INSERT
  5
66
  8
SIZE
  2
DOT
 10
401.0
 20
2613.300049
 30
0.0
 50
180.0
  0
POINT
  5
67
  8
DEFPOINTS
  6
BYBLOCK
 10
401.0
 20
2463.300049
 30
0.0
  0
POINT
  5
68
  8
DEFPOINTS
  6
BYBLOCK
 10
1701.0
 20
2463.300049
 30
0.0
  0
POINT
  5
69
  8
DEFPOINTS
  6
BYBLOCK
 10
1701.0
 20
2613.300049
 30
0.0
  0
ENDBLK
  5
6A
  8
SIZE
  0
BLOCK
  8
SIZE
  2
*D5
 70
     1
 10
0.0
 20
0.0
 30
0.0
  3
*D5
  1

  0
TEXT
  5
6D
  8
SIZE
  6
CONTINUOUS
 10
127.059998
 20
-249.000006
 30
0.0
 40
2.8
  1
260
 50
0.000003
 41
0.7
  7
STANDARD1
  0
LINE
  5
6E
  8
SIZE
  6
CONTINUOUS
 10
260.0
 20
2.0
 30
0.0
 11
260.0
 21
-252.0
 31
0.0
  0
LINE
  5
6F
  8
SIZE
  6
CONTINUOUS
 10
0.0
 20
-43.213894
 30
0.0
 11
0.0
 21
-252.0
 31
0.0
  0
LINE
  5
70
  8
SIZE
  6
CONTINUOUS
 10
260.0
 20
-250.0
 30
0.0
 11
0.0
 21
-250.0
 31
0.0
  0
INSERT
  5
71
  8
SIZE
  2
DOT
 10
260.0
 20
-250.0
 30
0.0
  0
INSERT
  5
72
  8
SIZE
  2
DOT
 10
0.0
 20
-250.0
 30
0.0
 50
180.0
  0
POINT
  5
73
  8
DEFPOINTS
  6
BYBLOCK
 10
0.0
 20
-42.213894
 30
0.0
  0
POINT
  5
74
  8
DEFPOINTS
  6
BYBLOCK
 10
260.0
 20
3.0
 30
0.0
  0
POINT
  5
75
  8
DEFPOINTS
  6
BYBLOCK
 10
260.0
 20
-250.0
 30
0.0
  0
ENDBLK
  5
76
  8
SIZE
  0
BLOCK
  8
SIZE
  2
*D6
 70
     1
 10
0.0
 20
0.0
 30
0.0
  3
*D6
  1

  0
TEXT
  5
79
  8
SIZE
  6
CONTINUOUS
 10
-178.940002
 20
-149.000006
 30
0.0
 40
2.8
  1
352
 50
0.000003
 41
0.7
  7
STANDARD1
  0
LINE
  5
7A
  8
SIZE
  6
CONTINUOUS
 10
0.0
 20
-43.213894
 30
0.0
 11
0.0
 21
-152.0
 31
0.0
  0
LINE
  5
7B
  8
SIZE
  6
CONTINUOUS
 10
-352.0
 20
-21.0
 30
0.0
 11
-352.0
 21
-152.0
 31
0.0
  0
LINE
  5
7C
  8
SIZE
  6
CONTINUOUS
 10
0.0
 20
-150.0
 30
0.0
 11
-352.0
 21
-150.0
 31
0.0
  0
INSERT
  5
7D
  8
SIZE
  2
DOT
 10
0.0
 20
-150.0
 30
0.0
  0
INSERT
  5
7E
  8
SIZE
  2
DOT
 10
-352.0
 20
-150.0
 30
0.0
 50
180.0
  0
POINT
  5
7F
  8
DEFPOINTS
  6
BYBLOCK
 10
-352.0
 20
-20.0
 30
0.0
  0
POINT
  5
80
  8
DEFPOINTS
  6
BYBLOCK
 10
0.0
 20
-42.213894
 30
0.0
  0
POINT
  5
81
  8
DEFPOINTS
  6
BYBLOCK
 10
0.0
 20
-150.0
 30
0.0
  0
ENDBLK
  5
82
  8
SIZE
  0
BLOCK
  8
SIZE
  2
*D7
 70
     1
 10
0.0
 20
0.0
 30
0.0
  3
*D7
  1

  0
TEXT
  5
85
  8
SIZE
  6
CONTINUOUS
 10
85.059998
 20
-149.000006
 30
0.0
 40
2.8
  1
176
 50
0.000003
 41
0.7
  7
STANDARD1
  0
LINE
  5
86
  8
SIZE
  6
CONTINUOUS
 10
0.0
 20
-43.213894
 30
0.0
 11
0.0
 21
-152.0
 31
0.0
  0
LINE
  5
87
  8
SIZE
  6
CONTINUOUS
 10
176.0
 20
-21.0
 30
0.0
 11
176.0
 21
-152.0
 31
0.0
  0
LINE
  5
88
  8
SIZE
  6
CONTINUOUS
 10
0.0
 20
-150.0
 30
0.0
 11
176.0
 21
-150.0
 31
0.0
  0
INSERT
  5
89
  8
SIZE
  2
DOT
 10
0.0
 20
-150.0
 30
0.0
 50
180.0
  0
INSERT
  5
8A
  8
SIZE
  2
DOT
 10
176.0
 20
-150.0
 30
0.0
  0
POINT
  5
8B
  8
DEFPOINTS
  6
BYBLOCK
 10
176.0
 20
-20.0
 30
0.0
  0
POINT
  5
8C
  8
DEFPOINTS
  6
BYBLOCK
 10
0.0
 20
-42.213894
 30
0.0
  0
POINT
  5
8D
  8
DEFPOINTS
  6
BYBLOCK
 10
0.0
 20
-150.0
 30
0.0
  0
ENDBLK
  5
8E
  8
SIZE
  0
BLOCK
  8
SIZE
  2
*D8
 70
     1
 10
0.0
 20
0.0
 30
0.0
  3
*D8
  1

  0
TEXT
  5
91
  8
SIZE
  6
CONTINUOUS
 10
-581.000024
 20
1986.796631
 30
0.0
 40
2.8
  1
50
 50
90.000005
 41
0.7
  7
STANDARD1
  0
LINE
  5
92
  8
SIZE
  6
CONTINUOUS
 10
-45.551395
 20
1963.300049
 30
0.0
 11
-582.0
 21
1963.300049
 31
0.0
  0
LINE
  5
93
  8
SIZE
  6
CONTINUOUS
 10
-13.112693
 20
2013.199951
 30
0.0
 11
-582.0
 21
2013.199951
 31
0.0
  0
LINE
  5
94
  8
SIZE
  6
CONTINUOUS
 10
-580.0
 20
1963.300049
 30
0.0
 11
-580.0
 21
2013.199951
 31
0.0
  0
INSERT
  5
95
  8
SIZE
  2
DOT
 10
-580.0
 20
1963.300049
 30
0.0
 50
270.0
  0
INSERT
  5
96
  8
SIZE
  2
DOT
 10
-580.0
 20
2013.199951
 30
0.0
 50
90.0
  0
POINT
  5
97
  8
DEFPOINTS
  6
BYBLOCK
 10
-12.112693
 20
2013.199951
 30
0.0
  0
POINT
  5
98
  8
DEFPOINTS
  6
BYBLOCK
 10
-44.551395
 20
1963.300049
 30
0.0
  0
POINT
  5
99
  8
DEFPOINTS
  6
BYBLOCK
 10
-580.0
 20
1963.300049
 30
0.0
  0
ENDBLK
  5
9A
  8
SIZE
  0
BLOCK
  8
SIZE
  2
*D9
 70
     1
 10
0.0
 20
0.0
 30
0.0
  3
*D9
  1

  0
TEXT
  5
9D
  8
SIZE
  6
CONTINUOUS
 10
-581.000024
 20
997.730042
 30
0.0
 40
2.8
  1
1923
 50
90.000005
 41
0.7
  7
STANDARD1
  0
LINE
  5
9E
  8
SIZE
  6
CONTINUOUS
 10
-45.551395
 20
1963.300049
 30
0.0
 11
-582.0
 21
1963.300049
 31
0.0
  0
LINE
  5
9F
  8
SIZE
  6
CONTINUOUS
 10
-331.0
 20
40.0
 30
0.0
 11
-582.0
 21
40.0
 31
0.0
  0
LINE
  5
A0
  8
SIZE
  6
CONTINUOUS
 10
-580.0
 20
1963.300049
 30
0.0
 11
-580.0
 21
40.0
 31
0.0
  0
INSERT
  5
A1
  8
SIZE
  2
DOT
 10
-580.0
 20
1963.300049
 30
0.0
 50
90.0
  0
INSERT
  5
A2
  8
SIZE
  2
DOT
 10
-580.0
 20
40.0
 30
0.0
 50
270.0
  0
POINT
  5
A3
  8
DEFPOINTS
  6
BYBLOCK
 10
-330.0
 20
40.0
 30
0.0
  0
POINT
  5
A4
  8
DEFPOINTS
  6
BYBLOCK
 10
-44.551395
 20
1963.300049
 30
0.0
  0
POINT
  5
A5
  8
DEFPOINTS
  6
BYBLOCK
 10
-580.0
 20
1963.300049
 30
0.0
  0
ENDBLK
  5
A6
  8
SIZE
  0
BLOCK
  8
SIZE
  2
*D10
 70
     1
 10
0.0
 20
0.0
 30
0.0
  3
*D10
  1

  0
TEXT
  5
A9
  8
SIZE
  6
CONTINUOUS
 10
-681.000024
 20
995.80896
 30
0.0
 40
2.8
  1
2013
 50
90.000005
 41
0.7
  7
STANDARD1
  0
LINE
  5
AA
  8
SIZE
  6
CONTINUOUS
 10
-13.112693
 20
2013.199951
 30
0.0
 11
-682.0
 21
2013.199951
 31
0.0
  0
LINE
  5
AB
  8
SIZE
  6
CONTINUOUS
 10
-366.799988
 20
0.0
 30
0.0
 11
-682.0
 21
0.0
 31
0.0
  0
LINE
  5
AC
  8
SIZE
  6
CONTINUOUS
 10
-680.0
 20
2013.199951
 30
0.0
 11
-680.0
 21
0.0
 31
0.0
  0
INSERT
  5
AD
  8
SIZE
  2
DOT
 10
-680.0
 20
2013.199951
 30
0.0
 50
90.0
  0
INSERT
  5
AE
  8
SIZE
  2
DOT
 10
-680.0
 20
0.0
 30
0.0
 50
270.0
  0
POINT
  5
AF
  8
DEFPOINTS
  6
BYBLOCK
 10
-365.799988
 20
0.0
 30
0.0
  0
POINT
  5
B0
  8
DEFPOINTS
  6
BYBLOCK
 10
-12.112693
 20
2013.199951
 30
0.0
  0
POINT
  5
B1
  8
DEFPOINTS
  6
BYBLOCK
 10
-680.0
 20
2013.199951
 30
0.0
  0
ENDBLK
  5
B2
  8
SIZE
  0
BLOCK
  8
SIZE
  2
*D11
 70
     1
 10
0.0
 20
0.0
 30
0.0
  3
*D11
  1

  0
TEXT
  5
B5
  8
SIZE
  6
CONTINUOUS
 10
-581.000024
 20
-77.7136
 30
0.0
 40
2.8
  1
40
 50
90.000005
 41
0.7
  7
STANDARD1
  0
LINE
  5
B6
  8
SIZE
  6
CONTINUOUS
 10
-366.799988
 20
0.0
 30
0.0
 11
-582.0
 21
0.0
 31
0.0
  0
LINE
  5
B7
  8
SIZE
  6
CONTINUOUS
 10
-331.0
 20
40.0
 30
0.0
 11
-582.0
 21
40.0
 31
0.0
  0
LINE
  5
B8
  8
SIZE
  6
CONTINUOUS
 10
-580.0
 20
-79.113602
 30
0.0
 11
-580.0
 21
45.0
 31
0.0
  0
INSERT
  5
B9
  8
SIZE
  2
DOT
 10
-580.0
 20
0.0
 30
0.0
 50
270.0
  0
INSERT
  5
BA
  8
SIZE
  2
DOT
 10
-580.0
 20
40.0
 30
0.0
 50
90.0
  0
POINT
  5
BB
  8
DEFPOINTS
  6
BYBLOCK
 10
-330.0
 20
40.0
 30
0.0
  0
POINT
  5
BC
  8
DEFPOINTS
  6
BYBLOCK
 10
-365.799988
 20
0.0
 30
0.0
  0
POINT
  5
BD
  8
DEFPOINTS
  6
BYBLOCK
 10
-580.0
 20
0.0
 30
0.0
  0
ENDBLK
  5
BE
  8
SIZE
  0
BLOCK
  8
SIZE
  2
*D12
 70
     1
 10
0.0
 20
0.0
 30
0.0
  3
*D12
  1

  0
TEXT
  5
C1
  8
SIZE
  6
CONTINUOUS
 10
197.559998
 20
-449.000006
 30
0.0
 40
2.8
  1
401
 50
0.000003
 41
0.7
  7
STANDARD1
  0
LINE
  5
C2
  8
SIZE
  6
CONTINUOUS
 10
0.0
 20
-43.213894
 30
0.0
 11
0.0
 21
-452.0
 31
0.0
  0
LINE
  5
C3
  8
SIZE
  6
CONTINUOUS
 10
401.0
 20
-1.0
 30
0.0
 11
401.0
 21
-452.0
 31
0.0
  0
LINE
  5
C4
  8
SIZE
  6
CONTINUOUS
 10
0.0
 20
-450.0
 30
0.0
 11
401.0
 21
-450.0
 31
0.0
  0
INSERT
  5
C5
  8
SIZE
  2
DOT
 10
0.0
 20
-450.0
 30
0.0
 50
180.0
  0
INSERT
  5
C6
  8
SIZE
  2
DOT
 10
401.0
 20
-450.0
 30
0.0
  0
POINT
  5
C7
  8
DEFPOINTS
  6
BYBLOCK
 10
401.0
 20
0.0
 30
0.0
  0
POINT
  5
C8
  8
DEFPOINTS
  6
BYBLOCK
 10
0.0
 20
-42.213894
 30
0.0
  0
POINT
  5
C9
  8
DEFPOINTS
  6
BYBLOCK
 10
0.0
 20
-450.0
 30
0.0
  0
ENDBLK
  5
CA
  8
SIZE
  0
BLOCK
  8
SIZE
  2
*D13
 70
     1
 10
0.0
 20
0.0
 30
0.0
  3
*D13
  1

  0
TEXT
  5
CD
  8
SIZE
  6
CONTINUOUS
 10
-3.92
 20
-349.000006
 30
0.0
 40
2.8
  1
φ
 50
0.000003
 41
0.583333
  7
STANDARD1
  0
TEXT
  5
CE
  8
SIZE
  6
CONTINUOUS
 10
-1.96
 20
-349.000006
 30
0.0
 40
2.8
  1
660
 50
0.000003
 41
0.7
  7
STANDARD1
  0
LINE
  5
CF
  8
SIZE
  6
CONTINUOUS
 10
330.0
 20
39.0
 30
0.0
 11
330.0
 21
-352.0
 31
0.0
  0
LINE
  5
D0
  8
SIZE
  6
CONTINUOUS
 10
-330.0
 20
39.0
 30
0.0
 11
-330.0
 21
-352.0
 31
0.0
  0
LINE
  5
D1
  8
SIZE
  6
CONTINUOUS
 10
330.0
 20
-350.0
 30
0.0
 11
-330.0
 21
-350.0
 31
0.0
  0
INSERT
  5
D2
  8
SIZE
  2
DOT
 10
330.0
 20
-350.0
 30
0.0
  0
INSERT
  5
D3
  8
SIZE
  2
DOT
 10
-330.0
 20
-350.0
 30
0.0
 50
180.0
  0
POINT
  5
D4
  8
DEFPOINTS
  6
BYBLOCK
 10
-330.0
 20
40.0
 30
0.0
  0
POINT
  5
D5
  8
DEFPOINTS
  6
BYBLOCK
 10
330.0
 20
40.0
 30
0.0
  0
POINT
  5
D6
  8
DEFPOINTS
  6
BYBLOCK
 10
330.0
 20
-350.0
 30
0.0
  0
ENDBLK
  5
D7
  8
SIZE
  0
BLOCK
  8
SIZE
  2
*D14
 70
     1
 10
0.0
 20
0.0
 30
0.0
  3
*D14
  1

  0
TEXT
  5
DA
  8
SIZE
  6
CONTINUOUS
 10
383.012213
 20
47.060001
 30
0.0
 40
2.8
  1
100
 50
90.000005
 41
0.7
  7
STANDARD1
  0
LINE
  5
DB
  8
SIZE
  6
CONTINUOUS
 10
301.728882
 20
100.0
 30
0.0
 11
386.012207
 21
100.0
 31
0.0
  0
LINE
  5
DC
  8
SIZE
  6
CONTINUOUS
 10
213.300369
 20
0.0
 30
0.0
 11
386.012207
 21
0.0
 31
0.0
  0
LINE
  5
DD
  8
SIZE
  6
CONTINUOUS
 10
384.012207
 20
100.0
 30
0.0
 11
384.012207
 21
0.0
 31
0.0
  0
INSERT
  5
DE
  8
SIZE
  2
DOT
 10
384.012207
 20
100.0
 30
0.0
 50
90.0
  0
INSERT
  5
DF
  8
SIZE
  2
DOT
 10
384.012207
 20
0.0
 30
0.0
 50
270.0
  0
POINT
  5
E0
  8
DEFPOINTS
  6
BYBLOCK
 10
212.300369
 20
0.0
 30
0.0
  0
POINT
  5
E1
  8
DEFPOINTS
  6
BYBLOCK
 10
300.728882
 20
100.0
 30
0.0
  0
POINT
  5
E2
  8
DEFPOINTS
  6
BYBLOCK
 10
384.012207
 20
100.0
 30
0.0
  0
ENDBLK
  5
E3
  8
SIZE
  0
BLOCK
  8
SIZE
  2
*D15
 70
     1
 10
0.0
 20
0.0
 30
0.0
  3
*D15
  1

  0
TEXT
  5
E6
  8
SIZE
  6
CONTINUOUS
 10
-480.999994
 20
2213.125733
 30
0.0
 40
2.8
  1
500
 50
90.000005
 41
0.7
  7
STANDARD1
  0
LINE
  5
E7
  8
SIZE
  6
CONTINUOUS
 10
-331.0
 20
2463.300049
 30
0.0
 11
-482.0
 21
2463.300049
 31
0.0
  0
LINE
  5
E8
  8
SIZE
  6
CONTINUOUS
 10
-331.0
 20
1963.300049
 30
0.0
 11
-482.0
 21
1963.300049
 31
0.0
  0
LINE
  5
E9
  8
SIZE
  6
CONTINUOUS
 10
-480.0
 20
2463.300049
 30
0.0
 11
-480.0
 21
1963.300049
 31
0.0
  0
INSERT
  5
EA
  8
SIZE
  2
DOT
 10
-480.0
 20
2463.300049
 30
0.0
 50
90.0
  0
INSERT
  5
EB
  8
SIZE
  2
DOT
 10
-480.0
 20
1963.300049
 30
0.0
 50
270.0
  0
POINT
  5
EC
  8
DEFPOINTS
  6
BYBLOCK
 10
-330.0
 20
1963.300049
 30
0.0
  0
POINT
  5
ED
  8
DEFPOINTS
  6
BYBLOCK
 10
-330.0
 20
2463.300049
 30
0.0
  0
POINT
  5
EE
  8
DEFPOINTS
  6
BYBLOCK
 10
-480.0
 20
2463.300049
 30
0.0
  0
ENDBLK
  5
EF
  8
SIZE
  0
BLOCK
  8
SIZE
  2
*D16
 70
     1
 10
0.0
 20
0.0
 30
0.0
  3
*D16
  1

  0
TEXT
  5
F2
  8
SIZE
  6
CONTINUOUS
 10
1849.999976
 20
1227.729981
 30
0.0
 40
2.8
  1
2463
 50
90.000005
 41
0.7
  7
STANDARD1
  0
LINE
  5
F3
  8
SIZE
  6
CONTINUOUS
 10
1702.0
 20
0.0
 30
0.0
 11
1853.0
 21
0.0
 31
0.0
  0
LINE
  5
F4
  8
SIZE
  6
CONTINUOUS
 10
1702.0
 20
2463.300049
 30
0.0
 11
1853.0
 21
2463.300049
 31
0.0
  0
LINE
  5
F5
  8
SIZE
  6
CONTINUOUS
 10
1851.0
 20
0.0
 30
0.0
 11
1851.0
 21
2463.300049
 31
0.0
  0
INSERT
  5
F6
  8
SIZE
  2
DOT
 10
1851.0
 20
0.0
 30
0.0
 50
270.0
  0
INSERT
  5
F7
  8
SIZE
  2
DOT
 10
1851.0
 20
2463.300049
 30
0.0
 50
90.0
  0
POINT
  5
F8
  8
DEFPOINTS
  6
BYBLOCK
 10
1701.0
 20
2463.300049
 30
0.0
  0
POINT
  5
F9
  8
DEFPOINTS
  6
BYBLOCK
 10
1701.0
 20
0.0
 30
0.0
  0
POINT
  5
FA
  8
DEFPOINTS
  6
BYBLOCK
 10
1851.0
 20
0.0
 30
0.0
  0
ENDBLK
  5
FB
  8
SIZE
  0
BLOCK
  8
0
  2
_ORIGIN
 70
     0
 10
0.0
 20
0.0
 30
0.0
  3
_ORIGIN
  1

  0
CIRCLE
  5
FE
  8
0
  6
BYBLOCK
 62
     0
 10
0.0
 20
0.0
 30
0.0
 40
0.5
  0
LINE
  5
FF
  8
0
  6
BYBLOCK
 62
     0
 10
0.0
 20
0.0
 30
0.0
 11
-1.0
 21
0.0
 31
0.0
  0
ENDBLK
  5
100
  8
0
  0
BLOCK
  8
0
  2
*D18
 70
     1
 10
0.0
 20
0.0
 30
0.0
  3
*D18
  1

  0
LINE
  5
103
  8
0
  6
BYBLOCK
 62
     0
 10
1711.0
 20
2463.300049
 30
0.0
 11
1861.1
 21
2463.300049
 31
0.0
  0
LINE
  5
104
  8
0
  6
BYBLOCK
 62
     0
 10
1711.0
 20
0.0
 30
0.0
 11
1861.1
 21
0.0
 31
0.0
  0
LINE
  5
105
  8
0
  6
BYBLOCK
 62
     0
 10
1848.6
 20
2453.300049
 30
0.0
 11
1848.6
 21
10.0
 31
0.0
  0
INSERT
  5
106
  8
0
  6
BYBLOCK
 62
     0
  2
_ORIGIN
 10
1848.6
 20
2463.300049
 30
0.0
 41
10.0
 42
10.0
 43
10.0
 50
90.0
  0
INSERT
  5
107
  8
0
  6
BYBLOCK
 62
     0
  2
_ORIGIN
 10
1848.6
 20
0.0
 30
0.0
 41
10.0
 42
10.0
 43
10.0
 50
270.0
  0
TEXT
  5
108
  8
0
  6
BYBLOCK
 62
     0
 10
1838.6
 20
1176.650024
 30
0.0
 40
30.0
  1
2463
 50
90.0
 72
     1
 11
1838.6
 21
1231.650024
 31
0.0
  0
POINT
  5
109
  8
DEFPOINTS
  6
BYBLOCK
 62
     0
 10
1701.0
 20
2463.300049
 30
0.0
  0
POINT
  5
10A
  8
DEFPOINTS
  6
BYBLOCK
 62
     0
 10
1701.0
 20
0.0
 30
0.0
  0
POINT
  5
10B
  8
DEFPOINTS
  6
BYBLOCK
 62
     0
 10
1848.6
 20
0.0
 30
0.0
  0
ENDBLK
  5
10C
  8
0
  0
BLOCK
  8
0
  2
*D19
 70
     1
 10
0.0
 20
0.0
 30
0.0
  3
*D19
  1

  0
LINE
  5
10F
  8
0
  6
BYBLOCK
 62
     0
 10
-340.0
 20
1963.300049
 30
0.0
 11
-494.9
 21
1963.300049
 31
0.0
  0
LINE
  5
110
  8
0
  6
BYBLOCK
 62
     0
 10
-340.0
 20
2463.300049
 30
0.0
 11
-494.9
 21
2463.300049
 31
0.0
  0
LINE
  5
111
  8
0
  6
BYBLOCK
 62
     0
 10
-482.4
 20
1973.300049
 30
0.0
 11
-482.4
 21
2453.300049
 31
0.0
  0
INSERT
  5
112
  8
0
  6
BYBLOCK
 62
     0
  2
_ORIGIN
 10
-482.4
 20
1963.300049
 30
0.0
 41
10.0
 42
10.0
 43
10.0
 50
270.0
  0
INSERT
  5
113
  8
0
  6
BYBLOCK
 62
     0
  2
_ORIGIN
 10
-482.4
 20
2463.300049
 30
0.0
 41
10.0
 42
10.0
 43
10.0
 50
90.0
  0
TEXT
  5
114
  8
0
  6
BYBLOCK
 62
     0
 10
-492.4
 20
2181.065674
 30
0.0
 40
30.0
  1
500
 50
90.0
 72
     1
 11
-492.4
 21
2216.065674
 31
0.0
  0
POINT
  5
115
  8
DEFPOINTS
  6
BYBLOCK
 62
     0
 10
-330.0
 20
1963.300049
 30
0.0
  0
POINT
  5
116
  8
DEFPOINTS
  6
BYBLOCK
 62
     0
 10
-330.0
 20
2463.300049
 30
0.0
  0
POINT
  5
117
  8
DEFPOINTS
  6
BYBLOCK
 62
     0
 10
-482.4
 20
2463.300049
 30
0.0
  0
ENDBLK
  5
118
  8
0
  0
BLOCK
  8
0
  2
*D20
 70
     1
 10
0.0
 20
0.0
 30
0.0
  3
*D20
  1

  0
LINE
  5
11B
  8
0
  6
BYBLOCK
 62
     0
 10
222.300369
 20
0.0
 30
0.0
 11
394.112207
 21
0.0
 31
0.0
  0
LINE
  5
11C
  8
0
  6
BYBLOCK
 62
     0
 10
310.728882
 20
100.0
 30
0.0
 11
394.112207
 21
100.0
 31
0.0
  0
LINE
  5
11D
  8
0
  6
BYBLOCK
 62
     0
 10
381.612207
 20
10.0
 30
0.0
 11
381.612207
 21
90.0
 31
0.0
  0
INSERT
  5
11E
  8
0
  6
BYBLOCK
 62
     0
  2
_ORIGIN
 10
381.612207
 20
0.0
 30
0.0
 41
10.0
 42
10.0
 43
10.0
 50
270.0
  0
INSERT
  5
11F
  8
0
  6
BYBLOCK
 62
     0
  2
_ORIGIN
 10
381.612207
 20
100.0
 30
0.0
 41
10.0
 42
10.0
 43
10.0
 50
90.0
  0
TEXT
  5
120
  8
0
  6
BYBLOCK
 62
     0
 10
371.612207
 20
20.0
 30
0.0
 40
30.0
  1
100
 50
90.0
 72
     1
 11
371.612207
 21
50.0
 31
0.0
  0
POINT
  5
121
  8
DEFPOINTS
  6
BYBLOCK
 62
     0
 10
212.300369
 20
0.0
 30
0.0
  0
POINT
  5
122
  8
DEFPOINTS
  6
BYBLOCK
 62
     0
 10
300.728882
 20
100.0
 30
0.0
  0
POINT
  5
123
  8
DEFPOINTS
  6
BYBLOCK
 62
     0
 10
381.612207
 20
100.0
 30
0.0
  0
ENDBLK
  5
124
  8
0
  0
BLOCK
  8
0
  2
*D21
 70
     1
 10
0.0
 20
0.0
 30
0.0
  3
*D21
  1

  0
LINE
  5
127
  8
0
  6
BYBLOCK
 62
     0
 10
-330.0
 20
30.0
 30
0.0
 11
-330.0
 21
-362.5
 31
0.0
  0
LINE
  5
128
  8
0
  6
BYBLOCK
 62
     0
 10
330.0
 20
30.0
 30
0.0
 11
330.0
 21
-362.5
 31
0.0
  0
LINE
  5
129
  8
0
  6
BYBLOCK
 62
     0
 10
-320.0
 20
-350.0
 30
0.0
 11
320.0
 21
-350.0
 31
0.0
  0
INSERT
  5
12A
  8
0
  6
BYBLOCK
 62
     0
  2
_ORIGIN
 10
-330.0
 20
-350.0
 30
0.0
 41
10.0
 42
10.0
 43
10.0
 50
180.0
  0
INSERT
  5
12B
  8
0
  6
BYBLOCK
 62
     0
  2
_ORIGIN
 10
330.0
 20
-350.0
 30
0.0
 41
10.0
 42
10.0
 43
10.0
  0
TEXT
  5
12C
  8
0
  6
BYBLOCK
 62
     0
 10
-37.5
 20
-340.0
 30
0.0
 40
30.0
  1
660
 72
     1
 11
0.0
 21
-340.0
 31
0.0
  0
POINT
  5
12D
  8
DEFPOINTS
  6
BYBLOCK
 62
     0
 10
-330.0
 20
40.0
 30
0.0
  0
POINT
  5
12E
  8
DEFPOINTS
  6
BYBLOCK
 62
     0
 10
330.0
 20
40.0
 30
0.0
  0
POINT
  5
12F
  8
DEFPOINTS
  6
BYBLOCK
 62
     0
 10
330.0
 20
-350.0
 30
0.0
  0
ENDBLK
  5
130
  8
0
  0
BLOCK
  8
0
  2
*D22
 70
     1
 10
0.0
 20
0.0
 30
0.0
  3
*D22
  1

  0
LINE
  5
133
  8
0
  6
BYBLOCK
 62
     0
 10
401.0
 20
-10.0
 30
0.0
 11
401.0
 21
-460.1
 31
0.0
  0
LINE
  5
134
  8
0
  6
BYBLOCK
 62
     0
 10
0.0
 20
-52.213894
 30
0.0
 11
0.0
 21
-460.1
 31
0.0
  0
LINE
  5
135
  8
0
  6
BYBLOCK
 62
     0
 10
391.0
 20
-447.6
 30
0.0
 11
10.0
 21
-447.6
 31
0.0
  0
INSERT
  5
136
  8
0
  6
BYBLOCK
 62
     0
  2
_ORIGIN
 10
401.0
 20
-447.6
 30
0.0
 41
10.0
 42
10.0
 43
10.0
  0
INSERT
  5
137
  8
0
  6
BYBLOCK
 62
     0
  2
_ORIGIN
 10
0.0
 20
-447.6
 30
0.0
 41
10.0
 42
10.0
 43
10.0
 50
180.0
  0
TEXT
  5
138
  8
0
  6
BYBLOCK
 62
     0
 10
168.0
 20
-437.6
 30
0.0
 40
30.0
  1
401
 72
     1
 11
200.5
 21
-437.6
 31
0.0
  0
POINT
  5
139
  8
DEFPOINTS
  6
BYBLOCK
 62
     0
 10
401.0
 20
0.0
 30
0.0
  0
POINT
  5
13A
  8
DEFPOINTS
  6
BYBLOCK
 62
     0
 10
0.0
 20
-42.213894
 30
0.0
  0
POINT
  5
13B
  8
DEFPOINTS
  6
BYBLOCK
 62
     0
 10
0.0
 20
-447.6
 30
0.0
  0
ENDBLK
  5
13C
  8
0
  0
BLOCK
  8
0
  2
*D23
 70
     1
 10
0.0
 20
0.0
 30
0.0
  3
*D23
  1

  0
LINE
  5
13F
  8
0
  6
BYBLOCK
 62
     0
 10
-340.0
 20
40.0
 30
0.0
 11
-594.9
 21
40.0
 31
0.0
  0
LINE
  5
140
  8
0
  6
BYBLOCK
 62
     0
 10
-375.799988
 20
0.0
 30
0.0
 11
-594.9
 21
0.0
 31
0.0
  0
LINE
  5
141
  8
0
  6
BYBLOCK
 62
     0
 10
-582.4
 20
50.0
 30
0.0
 11
-582.4
 21
60.0
 31
0.0
  0
LINE
  5
142
  8
0
  6
BYBLOCK
 62
     0
 10
-582.4
 20
-10.0
 30
0.0
 11
-582.4
 21
-108.2536
 31
0.0
  0
LINE
  5
143
  8
0
  6
BYBLOCK
 62
     0
 10
-582.4
 20
40.0
 30
0.0
 11
-582.4
 21
0.0
 31
0.0
  0
INSERT
  5
144
  8
0
  6
BYBLOCK
 62
     0
  2
_ORIGIN
 10
-582.4
 20
40.0
 30
0.0
 41
10.0
 42
10.0
 43
10.0
 50
270.0
  0
INSERT
  5
145
  8
0
  6
BYBLOCK
 62
     0
  2
_ORIGIN
 10
-582.4
 20
0.0
 30
0.0
 41
10.0
 42
10.0
 43
10.0
 50
90.0
  0
TEXT
  5
146
  8
0
  6
BYBLOCK
 62
     0
 10
-592.4
 20
-98.2536
 30
0.0
 40
30.0
  1
40
 50
90.0
 72
     1
 11
-592.4
 21
-75.7536
 31
0.0
  0
POINT
  5
147
  8
DEFPOINTS
  6
BYBLOCK
 62
     0
 10
-330.0
 20
40.0
 30
0.0
  0
POINT
  5
148
  8
DEFPOINTS
  6
BYBLOCK
 62
     0
 10
-365.799988
 20
0.0
 30
0.0
  0
POINT
  5
149
  8
DEFPOINTS
  6
BYBLOCK
 62
     0
 10
-582.4
 20
0.0
 30
0.0
  0
ENDBLK
  5
14A
  8
0
  0
BLOCK
  8
0
  2
*D24
 70
     1
 10
0.0
 20
0.0
 30
0.0
  3
*D24
  1

  0
LINE
  5
14D
  8
0
  6
BYBLOCK
 62
     0
 10
-375.799988
 20
0.0
 30
0.0
 11
-694.9
 21
0.0
 31
0.0
  0
LINE
  5
14E
  8
0
  6
BYBLOCK
 62
     0
 10
-22.112693
 20
2013.199951
 30
0.0
 11
-694.9
 21
2013.199951
 31
0.0
  0
LINE
  5
14F
  8
0
  6
BYBLOCK
 62
     0
 10
-682.4
 20
10.0
 30
0.0
 11
-682.4
 21
2003.199951
 31
0.0
  0
INSERT
  5
150
  8
0
  6
BYBLOCK
 62
     0
  2
_ORIGIN
 10
-682.4
 20
0.0
 30
0.0
 41
10.0
 42
10.0
 43
10.0
 50
270.0
  0
INSERT
  5
151
  8
0
  6
BYBLOCK
 62
     0
  2
_ORIGIN
 10
-682.4
 20
2013.199951
 30
0.0
 41
10.0
 42
10.0
 43
10.0
 50
90.0
  0
TEXT
  5
152
  8
0
  6
BYBLOCK
 62
     0
 10
-692.4
 20
952.228943
 30
0.0
 40
30.0
  1
2013
 50
90.0
 72
     1
 11
-692.4
 21
999.728943
 31
0.0
  0
POINT
  5
153
  8
DEFPOINTS
  6
BYBLOCK
 62
     0
 10
-365.799988
 20
0.0
 30
0.0
  0
POINT
  5
154
  8
DEFPOINTS
  6
BYBLOCK
 62
     0
 10
-12.112693
 20
2013.199951
 30
0.0
  0
POINT
  5
155
  8
DEFPOINTS
  6
BYBLOCK
 62
     0
 10
-682.4
 20
2013.199951
 30
0.0
  0
ENDBLK
  5
156
  8
0
  0
BLOCK
  8
0
  2
*D25
 70
     1
 10
0.0
 20
0.0
 30
0.0
  3
*D25
  1

  0
LINE
  5
159
  8
0
  6
BYBLOCK
 62
     0
 10
-340.0
 20
40.0
 30
0.0
 11
-594.9
 21
40.0
 31
0.0
  0
LINE
  5
15A
  8
0
  6
BYBLOCK
 62
     0
 10
-54.551395
 20
1963.300049
 30
0.0
 11
-594.9
 21
1963.300049
 31
0.0
  0
LINE
  5
15B
  8
0
  6
BYBLOCK
 62
     0
 10
-582.4
 20
50.0
 30
0.0
 11
-582.4
 21
1953.300049
 31
0.0
  0
INSERT
  5
15C
  8
0
  6
BYBLOCK
 62
     0
  2
_ORIGIN
 10
-582.4
 20
40.0
 30
0.0
 41
10.0
 42
10.0
 43
10.0
 50
270.0
  0
INSERT
  5
15D
  8
0
  6
BYBLOCK
 62
     0
  2
_ORIGIN
 10
-582.4
 20
1963.300049
 30
0.0
 41
10.0
 42
10.0
 43
10.0
 50
90.0
  0
TEXT
  5
15E
  8
0
  6
BYBLOCK
 62
     0
 10
-592.4
 20
951.650024
 30
0.0
 40
30.0
  1
1923
 50
90.0
 72
     1
 11
-592.4
 21
1001.650024
 31
0.0
  0
POINT
  5
15F
  8
DEFPOINTS
  6
BYBLOCK
 62
     0
 10
-330.0
 20
40.0
 30
0.0
  0
POINT
  5
160
  8
DEFPOINTS
  6
BYBLOCK
 62
     0
 10
-44.551395
 20
1963.300049
 30
0.0
  0
POINT
  5
161
  8
DEFPOINTS
  6
BYBLOCK
 62
     0
 10
-582.4
 20
1963.300049
 30
0.0
  0
ENDBLK
  5
162
  8
0
  0
BLOCK
  8
0
  2
*D26
 70
     1
 10
0.0
 20
0.0
 30
0.0
  3
*D26
  1

  0
LINE
  5
165
  8
0
  6
BYBLOCK
 62
     0
 10
-22.112693
 20
2013.199951
 30
0.0
 11
-594.9
 21
2013.199951
 31
0.0
  0
LINE
  5
166
  8
0
  6
BYBLOCK
 62
     0
 10
-54.551395
 20
1963.300049
 30
0.0
 11
-594.9
 21
1963.300049
 31
0.0
  0
LINE
  5
167
  8
0
  6
BYBLOCK
 62
     0
 10
-582.4
 20
2003.199951
 30
0.0
 11
-582.4
 21
1973.300049
 31
0.0
  0
INSERT
  5
168
  8
0
  6
BYBLOCK
 62
     0
  2
_ORIGIN
 10
-582.4
 20
2013.199951
 30
0.0
 41
10.0
 42
10.0
 43
10.0
 50
90.0
  0
INSERT
  5
169
  8
0
  6
BYBLOCK
 62
     0
  2
_ORIGIN
 10
-582.4
 20
1963.300049
 30
0.0
 41
10.0
 42
10.0
 43
10.0
 50
270.0
  0
TEXT
  5
16A
  8
0
  6
BYBLOCK
 62
     0
 10
-592.4
 20
1965.75
 30
0.0
 40
30.0
  1
50
 50
90.0
 72
     1
 11
-592.4
 21
1988.25
 31
0.0
  0
POINT
  5
16B
  8
DEFPOINTS
  6
BYBLOCK
 62
     0
 10
-12.112693
 20
2013.199951
 30
0.0
  0
POINT
  5
16C
  8
DEFPOINTS
  6
BYBLOCK
 62
     0
 10
-44.551395
 20
1963.300049
 30
0.0
  0
POINT
  5
16D
  8
DEFPOINTS
  6
BYBLOCK
 62
     0
 10
-582.4
 20
1963.300049
 30
0.0
  0
ENDBLK
  5
16E
  8
0
  0
BLOCK
  8
0
  2
*D27
 70
     1
 10
0.0
 20
0.0
 30
0.0
  3
*D27
  1

  0
LINE
  5
171
  8
0
  6
BYBLOCK
 62
     0
 10
176.0
 20
-30.0
 30
0.0
 11
176.0
 21
-160.1
 31
0.0
  0
LINE
  5
172
  8
0
  6
BYBLOCK
 62
     0
 10
0.0
 20
-52.213894
 30
0.0
 11
0.0
 21
-160.1
 31
0.0
  0
LINE
  5
173
  8
0
  6
BYBLOCK
 62
     0
 10
166.0
 20
-147.6
 30
0.0
 11
10.0
 21
-147.6
 31
0.0
  0
INSERT
  5
174
  8
0
  6
BYBLOCK
 62
     0
  2
_ORIGIN
 10
176.0
 20
-147.6
 30
0.0
 41
10.0
 42
10.0
 43
10.0
  0
INSERT
  5
175
  8
0
  6
BYBLOCK
 62
     0
  2
_ORIGIN
 10
0.0
 20
-147.6
 30
0.0
 41
10.0
 42
10.0
 43
10.0
 50
180.0
  0
TEXT
  5
176
  8
0
  6
BYBLOCK
 62
     0
 10
53.0
 20
-137.6
 30
0.0
 40
30.0
  1
176
 72
     1
 11
88.0
 21
-137.6
 31
0.0
  0
POINT
  5
177
  8
DEFPOINTS
  6
BYBLOCK
 62
     0
 10
176.0
 20
-20.0
 30
0.0
  0
POINT
  5
178
  8
DEFPOINTS
  6
BYBLOCK
 62
     0
 10
0.0
 20
-42.213894
 30
0.0
  0
POINT
  5
179
  8
DEFPOINTS
  6
BYBLOCK
 62
     0
 10
0.0
 20
-147.6
 30
0.0
  0
ENDBLK
  5
17A
  8
0
  0
BLOCK
  8
0
  2
*D28
 70
     1
 10
0.0
 20
0.0
 30
0.0
  3
*D28
  1

  0
LINE
  5
17D
  8
0
  6
BYBLOCK
 62
     0
 10
-352.0
 20
-30.0
 30
0.0
 11
-352.0
 21
-160.1
 31
0.0
  0
LINE
  5
17E
  8
0
  6
BYBLOCK
 62
     0
 10
0.0
 20
-52.213894
 30
0.0
 11
0.0
 21
-160.1
 31
0.0
  0
LINE
  5
17F
  8
0
  6
BYBLOCK
 62
     0
 10
-342.0
 20
-147.6
 30
0.0
 11
-10.0
 21
-147.6
 31
0.0
  0
INSERT
  5
180
  8
0
  6
BYBLOCK
 62
     0
  2
_ORIGIN
 10
-352.0
 20
-147.6
 30
0.0
 41
10.0
 42
10.0
 43
10.0
 50
180.0
  0
INSERT
  5
181
  8
0
  6
BYBLOCK
 62
     0
  2
_ORIGIN
 10
0.0
 20
-147.6
 30
0.0
 41
10.0
 42
10.0
 43
10.0
  0
TEXT
  5
182
  8
0
  6
BYBLOCK
 62
     0
 10
-216.0
 20
-137.6
 30
0.0
 40
30.0
  1
352
 72
     1
 11
-176.0
 21
-137.6
 31
0.0
  0
POINT
  5
183
  8
DEFPOINTS
  6
BYBLOCK
 62
     0
 10
-352.0
 20
-20.0
 30
0.0
  0
POINT
  5
184
  8
DEFPOINTS
  6
BYBLOCK
 62
     0
 10
0.0
 20
-42.213894
 30
0.0
  0
POINT
  5
185
  8
DEFPOINTS
  6
BYBLOCK
 62
     0
 10
0.0
 20
-147.6
 30
0.0
  0
ENDBLK
  5
186
  8
0
  0
BLOCK
  8
0
  2
*D29
 70
     1
 10
0.0
 20
0.0
 30
0.0
  3
*D29
  1

  0
LINE
  5
189
  8
0
  6
BYBLOCK
 62
     0
 10
0.0
 20
-52.213894
 30
0.0
 11
0.0
 21
-260.1
 31
0.0
  0
LINE
  5
18A
  8
0
  6
BYBLOCK
 62
     0
 10
260.0
 20
-7.0
 30
0.0
 11
260.0
 21
-260.1
 31
0.0
  0
LINE
  5
18B
  8
0
  6
BYBLOCK
 62
     0
 10
10.0
 20
-247.6
 30
0.0
 11
250.0
 21
-247.6
 31
0.0
  0
INSERT
  5
18C
  8
0
  6
BYBLOCK
 62
     0
  2
_ORIGIN
 10
0.0
 20
-247.6
 30
0.0
 41
10.0
 42
10.0
 43
10.0
 50
180.0
  0
INSERT
  5
18D
  8
0
  6
BYBLOCK
 62
     0
  2
_ORIGIN
 10
260.0
 20
-247.6
 30
0.0
 41
10.0
 42
10.0
 43
10.0
  0
TEXT
  5
18E
  8
0
  6
BYBLOCK
 62
     0
 10
92.5
 20
-237.6
 30
0.0
 40
30.0
  1
260
 72
     1
 11
130.0
 21
-237.6
 31
0.0
  0
POINT
  5
18F
  8
DEFPOINTS
  6
BYBLOCK
 62
     0
 10
0.0
 20
-42.213894
 30
0.0
  0
POINT
  5
190
  8
DEFPOINTS
  6
BYBLOCK
 62
     0
 10
260.0
 20
3.0
 30
0.0
  0
POINT
  5
191
  8
DEFPOINTS
  6
BYBLOCK
 62
     0
 10
260.0
 20
-247.6
 30
0.0
  0
ENDBLK
  5
192
  8
0
  0
BLOCK
  8
0
  2
*D30
 70
     1
 10
0.0
 20
0.0
 30
0.0
  3
*D30
  1

  0
LINE
  5
195
  8
0
  6
BYBLOCK
 62
     0
 10
401.0
 20
2473.300049
 30
0.0
 11
401.0
 21
2628.200049
 31
0.0
  0
LINE
  5
196
  8
0
  6
BYBLOCK
 62
     0
 10
1701.0
 20
2473.300049
 30
0.0
 11
1701.0
 21
2628.200049
 31
0.0
  0
LINE
  5
197
  8
0
  6
BYBLOCK
 62
     0
 10
411.0
 20
2615.700049
 30
0.0
 11
1691.0
 21
2615.700049
 31
0.0
  0
INSERT
  5
198
  8
0
  6
BYBLOCK
 62
     0
  2
_ORIGIN
 10
401.0
 20
2615.700049
 30
0.0
 41
10.0
 42
10.0
 43
10.0
 50
180.0
  0
INSERT
  5
199
  8
0
  6
BYBLOCK
 62
     0
  2
_ORIGIN
 10
1701.0
 20
2615.700049
 30
0.0
 41
10.0
 42
10.0
 43
10.0
  0
TEXT
  5
19A
  8
0
  6
BYBLOCK
 62
     0
 10
1006.0
 20
2625.700049
 30
0.0
 40
30.0
  1
1300
 72
     1
 11
1051.0
 21
2625.700049
 31
0.0
  0
POINT
  5
19B
  8
DEFPOINTS
  6
BYBLOCK
 62
     0
 10
401.0
 20
2463.300049
 30
0.0
  0
POINT
  5
19C
  8
DEFPOINTS
  6
BYBLOCK
 62
     0
 10
1701.0
 20
2463.300049
 30
0.0
  0
POINT
  5
19D
  8
DEFPOINTS
  6
BYBLOCK
 62
     0
 10
1701.0
 20
2615.700049
 30
0.0
  0
ENDBLK
  5
19E
  8
0
  0
BLOCK
  8
0
  2
*D31
 70
     1
 10
0.0
 20
0.0
 30
0.0
  3
*D31
  1

  0
LINE
  5
1A1
  8
0
  6
BYBLOCK
 62
     0
 10
-330.0
 20
2473.300049
 30
0.0
 11
-330.0
 21
2628.200049
 31
0.0
  0
LINE
  5
1A2
  8
0
  6
BYBLOCK
 62
     0
 10
401.0
 20
2473.300049
 30
0.0
 11
401.0
 21
2628.200049
 31
0.0
  0
LINE
  5
1A3
  8
0
  6
BYBLOCK
 62
     0
 10
-320.0
 20
2615.700049
 30
0.0
 11
391.0
 21
2615.700049
 31
0.0
  0
INSERT
  5
1A4
  8
0
  6
BYBLOCK
 62
     0
  2
_ORIGIN
 10
-330.0
 20
2615.700049
 30
0.0
 41
10.0
 42
10.0
 43
10.0
 50
180.0
  0
INSERT
  5
1A5
  8
0
  6
BYBLOCK
 62
     0
  2
_ORIGIN
 10
401.0
 20
2615.700049
 30
0.0
 41
10.0
 42
10.0
 43
10.0
  0
TEXT
  5
1A6
  8
0
  6
BYBLOCK
 62
     0
 10
0.5
 20
2625.700049
 30
0.0
 40
30.0
  1
731
 72
     1
 11
35.5
 21
2625.700049
 31
0.0
  0
POINT
  5
1A7
  8
DEFPOINTS
  6
BYBLOCK
 62
     0
 10
-330.0
 20
2463.300049
 30
0.0
  0
POINT
  5
1A8
  8
DEFPOINTS
  6
BYBLOCK
 62
     0
 10
401.0
 20
2463.300049
 30
0.0
  0
POINT
  5
1A9
  8
DEFPOINTS
  6
BYBLOCK
 62
     0
 10
401.0
 20
2615.700049
 30
0.0
  0
ENDBLK
  5
1AA
  8
0
  0
BLOCK
  8
0
  2
*D32
 70
     1
 10
0.0
 20
0.0
 30
0.0
  3
*D32
  1

  0
LINE
  5
1AD
  8
0
  6
BYBLOCK
 62
     0
 10
-330.0
 20
30.0
 30
0.0
 11
-330.0
 21
-360.1
 31
0.0
  0
LINE
  5
1AE
  8
0
  6
BYBLOCK
 62
     0
 10
-369.0
 20
-2.0
 30
0.0
 11
-369.0
 21
-360.1
 31
0.0
  0
LINE
  5
1AF
  8
0
  6
BYBLOCK
 62
     0
 10
-320.0
 20
-347.6
 30
0.0
 11
-310.0
 21
-347.6
 31
0.0
  0
LINE
  5
1B0
  8
0
  6
BYBLOCK
 62
     0
 10
-379.0
 20
-347.6
 30
0.0
 11
-460.514976
 21
-347.6
 31
0.0
  0
LINE
  5
1B1
  8
0
  6
BYBLOCK
 62
     0
 10
-330.0
 20
-347.6
 30
0.0
 11
-369.0
 21
-347.6
 31
0.0
  0
INSERT
  5
1B2
  8
0
  6
BYBLOCK
 62
     0
  2
_ORIGIN
 10
-330.0
 20
-347.6
 30
0.0
 41
10.0
 42
10.0
 43
10.0
 50
180.0
  0
INSERT
  5
1B3
  8
0
  6
BYBLOCK
 62
     0
  2
_ORIGIN
 10
-369.0
 20
-347.6
 30
0.0
 41
10.0
 42
10.0
 43
10.0
  0
TEXT
  5
1B4
  8
0
  6
BYBLOCK
 62
     0
 10
-450.514976
 20
-337.6
 30
0.0
 40
30.0
  1
39
 72
     1
 11
-425.514976
 21
-337.6
 31
0.0
  0
POINT
  5
1B5
  8
DEFPOINTS
  6
BYBLOCK
 62
     0
 10
-330.0
 20
40.0
 30
0.0
  0
POINT
  5
1B6
  8
DEFPOINTS
  6
BYBLOCK
 62
     0
 10
-369.0
 20
8.0
 30
0.0
  0
POINT
  5
1B7
  8
DEFPOINTS
  6
BYBLOCK
 62
     0
 10
-369.0
 20
-347.6
 30
0.0
  0
ENDBLK
  5
1B8
  8
0
  0
BLOCK
  8
0
  2
*D33
 70
     1
 10
0.0
 20
0.0
 30
0.0
  3
*D33
  1

  0
LINE
  5
1BB
  8
0
  6
BYBLOCK
 62
     0
 10
222.300369
 20
0.0
 30
0.0
 11
239.922754
 21
0.0
 31
0.0
  0
LINE
  5
1BC
  8
0
  6
BYBLOCK
 62
     0
 10
230.0
 20
23.0
 30
0.0
 11
214.922754
 21
23.0
 31
0.0
  0
LINE
  5
1BD
  8
0
  6
BYBLOCK
 62
     0
 10
227.422754
 20
33.0
 30
0.0
 11
227.422754
 21
43.0
 31
0.0
  0
LINE
  5
1BE
  8
0
  6
BYBLOCK
 62
     0
 10
227.422754
 20
-10.0
 30
0.0
 11
227.422754
 21
-122.183738
 31
0.0
  0
LINE
  5
1BF
  8
0
  6
BYBLOCK
 62
     0
 10
227.422754
 20
23.0
 30
0.0
 11
227.422754
 21
0.0
 31
0.0
  0
INSERT
  5
1C0
  8
0
  6
BYBLOCK
 62
     0
  2
_ORIGIN
 10
227.422754
 20
23.0
 30
0.0
 41
10.0
 42
10.0
 43
10.0
 50
270.0
  0
INSERT
  5
1C1
  8
0
  6
BYBLOCK
 62
     0
  2
_ORIGIN
 10
227.422754
 20
0.0
 30
0.0
 41
10.0
 42
10.0
 43
10.0
 50
90.0
  0
TEXT
  5
1C2
  8
0
  6
BYBLOCK
 62
     0
 10
217.422754
 20
-112.183738
 30
0.0
 40
30.0
  1
23
 50
90.0
 72
     1
 11
217.422754
 21
-87.183738
 31
0.0
  0
POINT
  5
1C3
  8
DEFPOINTS
  6
BYBLOCK
 62
     0
 10
212.300369
 20
0.0
 30
0.0
  0
POINT
  5
1C4
  8
DEFPOINTS
  6
BYBLOCK
 62
     0
 10
240.0
 20
23.0
 30
0.0
  0
POINT
  5
1C5
  8
DEFPOINTS
  6
BYBLOCK
 62
     0
 10
227.422754
 20
23.0
 30
0.0
  0
ENDBLK
  5
1C6
  8
0
  0
ENDSEC
  0
SECTION
  2
ENTITIES
  0
ARC
  5
1C7
  8
OUTLINE
  6
CONTINUOUS
 10
323.4
 20
1947.106114
 30
0.0
 40
6.6
 50
0.0
 51
86.027799
  0
ARC
  5
1C8
  8
OUTLINE
  6
CONTINUOUS
 10
-323.4
 20
1947.106114
 30
0.0
 40
6.6
 50
93.972201
 51
180.0
  0
ARC
  5
1C9
  8
OUTLINE
  6
CONTINUOUS
 10
-46.725779
 20
-2037.299409
 30
0.0
 40
4000.6
 50
89.968859
 51
93.972201
  0
LINE
  5
1CA
  8
OUTLINE
  6
CONTINUOUS
 10
-325.679425
 20
1953.3
 30
0.0
 11
325.679425
 21
1953.3
 31
0.0
  0
LINE
  5
1CB
  8
OUTLINE
  6
CONTINUOUS
 10
-44.551394
 20
1963.3
 30
0.0
 11
48.900163
 21
1963.3
 31
0.0
  0
LINE
  5
1CC
  8
OUTLINE
  6
CONTINUOUS
 10
-330.0
 20
1927.7
 30
0.0
 11
330.0
 21
1927.7
 31
0.0
  0
ARC
  5
1CD
  8
OUTLINE
  6
CONTINUOUS
 10
46.725779
 20
-2037.299409
 30
0.0
 40
4000.6
 50
86.027799
 51
89.968859
  0
LINE
  5
1CE
  8
OUTLINE
  6
CONTINUOUS
 10
-330.0
 20
40.0
 30
0.0
 11
-330.0
 21
1947.106114
 31
0.0
  0
LINE
  5
1CF
  8
OUTLINE
  6
CONTINUOUS
 10
330.0
 20
40.0
 30
0.0
 11
-330.0
 21
40.0
 31
0.0
  0
LINE
  5
1D0
  8
OUTLINE
  6
CONTINUOUS
 10
330.0
 20
40.0
 30
0.0
 11
330.0
 21
1947.106114
 31
0.0
  0
LINE
  5
1D1
  8
OUTLINE
  6
CONTINUOUS
 10
-266.178714
 20
31.543769
 30
0.0
 11
-262.5
 21
8.0
 31
0.0
  0
ARC
  5
1D2
  8
OUTLINE
  6
CONTINUOUS
 10
-341.708522
 20
13.6
 30
0.0
 40
10.0
 50
325.944202
 51
345.403424
  0
LINE
  5
1D3
  8
OUTLINE
  6
CONTINUOUS
 10
-253.6
 20
0.0
 30
0.0
 11
-365.8
 21
0.0
 31
0.0
  0
ARC
  5
1D4
  8
OUTLINE
  6
CONTINUOUS
 10
-365.8
 20
3.2
 30
0.0
 40
3.2
 50
180.0
 51
270.0
  0
LINE
  5
1D5
  8
OUTLINE
  6
CONTINUOUS
 10
-369.0
 20
8.0
 30
0.0
 11
-369.0
 21
3.2
 31
0.0
  0
LINE
  5
1D6
  8
OUTLINE
  6
CONTINUOUS
 10
-369.0
 20
8.0
 30
0.0
 11
-250.0
 21
8.0
 31
0.0
  0
LINE
  5
1D7
  8
OUTLINE
  6
CONTINUOUS
 10
-250.0
 20
8.0
 30
0.0
 11
-250.0
 21
3.6
 31
0.0
  0
ARC
  5
1D8
  8
OUTLINE
  6
CONTINUOUS
 10
-253.6
 20
3.6
 30
0.0
 40
3.6
 50
270.0
 51
0.0
  0
LINE
  5
1D9
  8
OUTLINE
  6
CONTINUOUS
 10
-326.447887
 20
32.520115
 30
0.0
 11
-332.03128
 21
11.079885
 31
0.0
  0
ARC
  5
1DA
  8
OUTLINE
  6
CONTINUOUS
 10
-316.770644
 20
30.0
 30
0.0
 40
10.0
 50
90.0
 51
165.403424
  0
ARC
  5
1DB
  8
OUTLINE
  6
CONTINUOUS
 10
-276.058834
 20
30.0
 30
0.0
 40
10.0
 50
8.880659
 51
90.0
  0
ARC
  5
1DC
  8
OUTLINE
  6
CONTINUOUS
 10
176.381982
 20
30.0
 30
0.0
 40
10.0
 50
12.709145
 51
90.0
  0
ARC
  5
1DD
  8
OUTLINE
  6
CONTINUOUS
 10
121.616611
 20
30.0
 30
0.0
 40
10.0
 50
12.709145
 51
90.0
  0
ARC
  5
1DE
  8
OUTLINE
  6
CONTINUOUS
 10
118.366822
 20
30.0
 30
0.0
 40
10.0
 50
90.0
 51
175.532841
  0
ARC
  5
1DF
  8
OUTLINE
  6
CONTINUOUS
 10
201.034006
 20
11.6
 30
0.0
 40
10.0
 50
192.709145
 51
201.100196
  0
ARC
  5
1E0
  8
OUTLINE
  6
CONTINUOUS
 10
146.268634
 20
11.6
 30
0.0
 40
10.0
 50
192.709145
 51
201.100196
  0
ARC
  5
1E1
  8
OUTLINE
  6
CONTINUOUS
 10
146.268634
 20
11.6
 30
0.0
 40
10.0
 50
192.709145
 51
201.100196
  0
LINE
  5
1E2
  8
OUTLINE
  6
CONTINUOUS
 10
186.136977
 20
32.200019
 30
0.0
 11
191.279011
 21
9.399981
 31
0.0
  0
LINE
  5
1E3
  8
OUTLINE
  6
CONTINUOUS
 10
106.617601
 20
8.0
 30
0.0
 11
108.397201
 21
30.778877
 31
0.0
  0
LINE
  5
1E4
  8
OUTLINE
  6
CONTINUOUS
 10
131.371605
 20
32.200019
 30
0.0
 11
136.513639
 21
9.399981
 31
0.0
  0
ARC
  5
1E5
  8
OUTLINE
  6
CONTINUOUS
 10
212.30037
 20
3.2
 30
0.0
 40
3.2
 50
270.0
 51
0.0
  0
LINE
  5
1E6
  8
OUTLINE
  6
CONTINUOUS
 10
215.50037
 20
3.2
 30
0.0
 11
215.50037
 21
8.0
 31
0.0
  0
LINE
  5
1E7
  8
OUTLINE
  6
CONTINUOUS
 10
95.103917
 20
0.0
 30
0.0
 11
212.30037
 21
0.0
 31
0.0
  0
ARC
  5
1E8
  8
OUTLINE
  6
CONTINUOUS
 10
95.103917
 20
3.2
 30
0.0
 40
3.2
 50
180.0
 51
270.0
  0
LINE
  5
1E9
  8
OUTLINE
  6
CONTINUOUS
 10
91.903917
 20
8.0
 30
0.0
 11
215.50037
 21
8.0
 31
0.0
  0
LINE
  5
1EA
  8
OUTLINE
  6
CONTINUOUS
 10
91.903917
 20
3.2
 30
0.0
 11
91.903917
 21
8.0
 31
0.0
  0
LINE
  5
1EB
  8
OUTLINE
  6
CONTINUOUS
 10
330.0
 20
1867.7
 30
0.0
 11
333.908813
 21
1867.7
 31
0.0
  0
ARC
  5
1EC
  8
OUTLINE
  6
CONTINUOUS
 10
371.000015
 20
1820.523685
 30
0.0
 40
30.0
 50
359.999981
 51
67.499954
  0
LINE
  5
1ED
  8
OUTLINE
  6
CONTINUOUS
 10
336.970286
 20
1867.091025
 30
0.0
 11
382.480515
 21
1848.240069
 31
0.0
  0
ARC
  5
1EE
  8
OUTLINE
  6
CONTINUOUS
 10
333.908813
 20
1859.699969
 30
0.0
 40
8.0
 50
67.4999
 51
90.0
  0
LINE
  5
1EF
  8
OUTLINE
  6
CONTINUOUS
 10
330.0
 20
200.7
 30
0.0
 11
332.784366
 21
200.7
 31
0.0
  0
LINE
  5
1F0
  8
OUTLINE
  6
CONTINUOUS
 10
337.654457
 20
202.353173
 30
0.0
 11
389.262843
 21
241.95368
 31
0.0
  0
ARC
  5
1F1
  8
OUTLINE
  6
CONTINUOUS
 10
371.0
 20
265.75428
 30
0.0
 40
30.0
 50
307.5
 51
0.0
  0
ARC
  5
1F2
  8
OUTLINE
  6
CONTINUOUS
 10
332.784366
 20
208.7
 30
0.0
 40
8.0
 50
270.0
 51
307.5
  0
LINE
  5
1F3
  8
OUTLINE
  6
CONTINUOUS
 10
401.0
 20
340.7
 30
0.0
 11
401.0
 21
265.75428
 31
0.0
  0
LINE
  5
1F4
  8
OUTLINE
  6
CONTINUOUS
 10
401.0
 20
340.7
 30
0.0
 11
401.0
 21
1810.7
 31
0.0
  0
LINE
  5
1F5
  8
OUTLINE
  6
CONTINUOUS
 10
401.0
 20
1810.7
 30
0.0
 11
401.0
 21
1820.523685
 31
0.0
  0
LINE
  5
1F6
  8
DETAIL
  6
CONTINUOUS
 10
401.0
 20
1810.7
 30
0.0
 11
401.0
 21
1820.523685
 31
0.0
  0
LINE
  5
1F7
  8
DETAIL
  6
CONTINUOUS
 10
401.0
 20
340.7
 30
0.0
 11
401.0
 21
1810.7
 31
0.0
  0
LINE
  5
1F8
  8
DETAIL
  6
CONTINUOUS
 10
401.0
 20
340.7
 30
0.0
 11
401.0
 21
265.75428
 31
0.0
  0
ARC
  5
1F9
  8
DETAIL
  6
CONTINUOUS
 10
332.784366
 20
208.7
 30
0.0
 40
8.0
 50
270.0
 51
307.5
  0
ARC
  5
1FA
  8
DETAIL
  6
CONTINUOUS
 10
371.0
 20
265.75428
 30
0.0
 40
30.0
 50
307.5
 51
0.0
  0
LINE
  5
1FB
  8
DETAIL
  6
CONTINUOUS
 10
337.654457
 20
202.353173
 30
0.0
 11
389.262843
 21
241.95368
 31
0.0
  0
LINE
  5
1FC
  8
DETAIL
  6
CONTINUOUS
 10
330.0
 20
200.7
 30
0.0
 11
332.784366
 21
200.7
 31
0.0
  0
ARC
  5
1FD
  8
DETAIL
  6
CONTINUOUS
 10
333.908813
 20
1859.699969
 30
0.0
 40
8.0
 50
67.4999
 51
90.0
  0
LINE
  5
1FE
  8
DETAIL
  6
CONTINUOUS
 10
336.970286
 20
1867.091025
 30
0.0
 11
382.480515
 21
1848.240069
 31
0.0
  0
ARC
  5
1FF
  8
DETAIL
  6
CONTINUOUS
 10
371.000015
 20
1820.523685
 30
0.0
 40
30.0
 50
359.999981
 51
67.499954
  0
LINE
  5
200
  8
DETAIL
  6
CONTINUOUS
 10
330.0
 20
1867.7
 30
0.0
 11
333.908813
 21
1867.7
 31
0.0
  0
LINE
  5
201
  8
DETAIL
  6
CONTINUOUS
 10
91.903917
 20
3.2
 30
0.0
 11
91.903917
 21
8.0
 31
0.0
  0
LINE
  5
202
  8
DETAIL
  6
CONTINUOUS
 10
91.903917
 20
8.0
 30
0.0
 11
215.50037
 21
8.0
 31
0.0
  0
ARC
  5
203
  8
DETAIL
  6
CONTINUOUS
 10
95.103917
 20
3.2
 30
0.0
 40
3.2
 50
180.0
 51
270.0
  0
LINE
  5
204
  8
DETAIL
  6
CONTINUOUS
 10
95.103917
 20
0.0
 30
0.0
 11
212.30037
 21
0.0
 31
0.0
  0
LINE
  5
205
  8
DETAIL
  6
CONTINUOUS
 10
215.50037
 20
3.2
 30
0.0
 11
215.50037
 21
8.0
 31
0.0
  0
ARC
  5
206
  8
DETAIL
  6
CONTINUOUS
 10
212.30037
 20
3.2
 30
0.0
 40
3.2
 50
270.0
 51
0.0
  0
LINE
  5
207
  8
DETAIL
  6
CONTINUOUS
 10
131.371605
 20
32.200019
 30
0.0
 11
136.513639
 21
9.399981
 31
0.0
  0
LINE
  5
208
  8
DETAIL
  6
CONTINUOUS
 10
106.617601
 20
8.0
 30
0.0
 11
108.397201
 21
30.778877
 31
0.0
  0
LINE
  5
209
  8
DETAIL
  6
CONTINUOUS
 10
186.136977
 20
32.200019
 30
0.0
 11
191.279011
 21
9.399981
 31
0.0
  0
ARC
  5
20A
  8
DETAIL
  6
CONTINUOUS
 10
146.268634
 20
11.6
 30
0.0
 40
10.0
 50
192.709145
 51
201.100196
  0
ARC
  5
20B
  8
DETAIL
  6
CONTINUOUS
 10
146.268634
 20
11.6
 30
0.0
 40
10.0
 50
192.709145
 51
201.100196
  0
ARC
  5
20C
  8
DETAIL
  6
CONTINUOUS
 10
201.034006
 20
11.6
 30
0.0
 40
10.0
 50
192.709145
 51
201.100196
  0
ARC
  5
20D
  8
DETAIL
  6
CONTINUOUS
 10
118.366822
 20
30.0
 30
0.0
 40
10.0
 50
90.0
 51
175.532841
  0
ARC
  5
20E
  8
DETAIL
  6
CONTINUOUS
 10
121.616611
 20
30.0
 30
0.0
 40
10.0
 50
12.709145
 51
90.0
  0
ARC
  5
20F
  8
DETAIL
  6
CONTINUOUS
 10
176.381982
 20
30.0
 30
0.0
 40
10.0
 50
12.709145
 51
90.0
  0
ARC
  5
210
  8
DETAIL
  6
CONTINUOUS
 10
-276.058834
 20
30.0
 30
0.0
 40
10.0
 50
8.880659
 51
90.0
  0
ARC
  5
211
  8
DETAIL
  6
CONTINUOUS
 10
-316.770644
 20
30.0
 30
0.0
 40
10.0
 50
90.0
 51
165.403424
  0
LINE
  5
212
  8
DETAIL
  6
CONTINUOUS
 10
-326.447887
 20
32.520115
 30
0.0
 11
-332.03128
 21
11.079885
 31
0.0
  0
ARC
  5
213
  8
DETAIL
  6
CONTINUOUS
 10
-253.6
 20
3.6
 30
0.0
 40
3.6
 50
270.0
 51
0.0
  0
LINE
  5
214
  8
DETAIL
  6
CONTINUOUS
 10
-250.0
 20
8.0
 30
0.0
 11
-250.0
 21
3.6
 31
0.0
  0
LINE
  5
215
  8
DETAIL
  6
CONTINUOUS
 10
-369.0
 20
8.0
 30
0.0
 11
-250.0
 21
8.0
 31
0.0
  0
LINE
  5
216
  8
DETAIL
  6
CONTINUOUS
 10
-369.0
 20
8.0
 30
0.0
 11
-369.0
 21
3.2
 31
0.0
  0
ARC
  5
217
  8
DETAIL
  6
CONTINUOUS
 10
-365.8
 20
3.2
 30
0.0
 40
3.2
 50
180.0
 51
270.0
  0
LINE
  5
218
  8
DETAIL
  6
CONTINUOUS
 10
-253.6
 20
0.0
 30
0.0
 11
-365.8
 21
0.0
 31
0.0
  0
ARC
  5
219
  8
DETAIL
  6
CONTINUOUS
 10
-341.708522
 20
13.6
 30
0.0
 40
10.0
 50
325.944202
 51
345.403424
  0
LINE
  5
21A
  8
DETAIL
  6
CONTINUOUS
 10
-266.178714
 20
31.543769
 30
0.0
 11
-262.5
 21
8.0
 31
0.0
  0
LINE
  5
21B
  8
DETAIL
  6
CONTINUOUS
 10
330.0
 20
40.0
 30
0.0
 11
330.0
 21
1947.106114
 31
0.0
  0
LINE
  5
21C
  8
DETAIL
  6
CONTINUOUS
 10
330.0
 20
40.0
 30
0.0
 11
-330.0
 21
40.0
 31
0.0
  0
LINE
  5
21D
  8
DETAIL
  6
CONTINUOUS
 10
-330.0
 20
40.0
 30
0.0
 11
-330.0
 21
1947.106114
 31
0.0
  0
ARC
  5
21E
  8
DETAIL
  6
CONTINUOUS
 10
46.725779
 20
-2037.299409
 30
0.0
 40
4000.6
 50
86.027799
 51
89.968859
  0
LINE
  5
21F
  8
DETAIL
  6
CONTINUOUS
 10
-330.0
 20
1927.7
 30
0.0
 11
330.0
 21
1927.7
 31
0.0
  0
LINE
  5
220
  8
DETAIL
  6
CONTINUOUS
 10
-44.551394
 20
1963.3
 30
0.0
 11
48.900163
 21
1963.3
 31
0.0
  0
LINE
  5
221
  8
DETAIL
  6
CONTINUOUS
 10
-325.679425
 20
1953.3
 30
0.0
 11
325.679425
 21
1953.3
 31
0.0
  0
ARC
  5
222
  8
DETAIL
  6
CONTINUOUS
 10
-46.725779
 20
-2037.299409
 30
0.0
 40
4000.6
 50
89.968859
 51
93.972201
  0
ARC
  5
223
  8
DETAIL
  6
CONTINUOUS
 10
-323.4
 20
1947.106114
 30
0.0
 40
6.6
 50
93.972201
 51
180.0
  0
ARC
  5
224
  8
DETAIL
  6
CONTINUOUS
 10
323.4
 20
1947.106114
 30
0.0
 40
6.6
 50
0.0
 51
86.027799
  0
POLYLINE
  5
225
  8
DETAIL
  6
CONTINUOUS
 66
     1
 10
0.0
 20
0.0
 30
0.0
  0
VERTEX
  5
226
  8
DETAIL
  6
CONTINUOUS
 10
271.060894
 20
113.562677
 30
0.0
  0
VERTEX
  5
227
  8
DETAIL
  6
CONTINUOUS
 10
269.372253
 20
113.503148
 30
0.0
  0
VERTEX
  5
228
  8
DETAIL
  6
CONTINUOUS
 10
267.722491
 20
112.939515
 30
0.0
  0
VERTEX
  5
229
  8
DETAIL
  6
CONTINUOUS
 10
266.173198
 20
111.89282
 30
0.0
  0
VERTEX
  5
22A
  8
DETAIL
  6
CONTINUOUS
 10
264.782212
 20
110.402138
 30
0.0
  0
VERTEX
  5
22B
  8
DETAIL
  6
CONTINUOUS
 10
263.601462
 20
108.523121
 30
0.0
  0
VERTEX
  5
22C
  8
DETAIL
  6
CONTINUOUS
 10
262.675028
 20
106.325916
 30
0.0
  0
VERTEX
  5
22D
  8
DETAIL
  6
CONTINUOUS
 10
262.037496
 20
103.892551
 30
0.0
  0
VERTEX
  5
22E
  8
DETAIL
  6
CONTINUOUS
 10
261.712667
 20
101.313867
 30
0.0
  0
VERTEX
  5
22F
  8
DETAIL
  6
CONTINUOUS
 10
261.712667
 20
98.686133
 30
0.0
  0
VERTEX
  5
230
  8
DETAIL
  6
CONTINUOUS
 10
262.037496
 20
96.107449
 30
0.0
  0
VERTEX
  5
231
  8
DETAIL
  6
CONTINUOUS
 10
262.675028
 20
93.674084
 30
0.0
  0
VERTEX
  5
232
  8
DETAIL
  6
CONTINUOUS
 10
263.601462
 20
91.476879
 30
0.0
  0
VERTEX
  5
233
  8
DETAIL
  6
CONTINUOUS
 10
264.782212
 20
89.597862
 30
0.0
  0
VERTEX
  5
234
  8
DETAIL
  6
CONTINUOUS
 10
266.173198
 20
88.10718
 30
0.0
  0
VERTEX
  5
235
  8
DETAIL
  6
CONTINUOUS
 10
267.722491
 20
87.060485
 30
0.0
  0
VERTEX
  5
236
  8
DETAIL
  6
CONTINUOUS
 10
269.372253
 20
86.496852
 30
0.0
  0
VERTEX
  5
237
  8
DETAIL
  6
CONTINUOUS
 10
271.060894
 20
86.437323
 30
0.0
  0
SEQEND
  5
238
  8
DETAIL
  6
CONTINUOUS
  0
POLYLINE
  5
239
  8
DETAIL
  6
CONTINUOUS
 66
     1
 10
0.0
 20
0.0
 30
0.0
  0
VERTEX
  5
23A
  8
DETAIL
  6
CONTINUOUS
 10
273.410032
 20
113.291364
 30
0.0
  0
VERTEX
  5
23B
  8
DETAIL
  6
CONTINUOUS
 10
271.424475
 20
119.161131
 30
0.0
  0
VERTEX
  5
23C
  8
DETAIL
  6
CONTINUOUS
 10
268.762756
 20
124.342725
 30
0.0
  0
VERTEX
  5
23D
  8
DETAIL
  6
CONTINUOUS
 10
265.520473
 20
128.650048
 30
0.0
  0
VERTEX
  5
23E
  8
DETAIL
  6
CONTINUOUS
 10
261.814071
 20
131.928403
 30
0.0
  0
VERTEX
  5
23F
  8
DETAIL
  6
CONTINUOUS
 10
257.776666
 20
134.060047
 30
0.0
  0
VERTEX
  5
240
  8
DETAIL
  6
CONTINUOUS
 10
253.553263
 20
134.968422
 30
0.0
  0
VERTEX
  5
241
  8
DETAIL
  6
CONTINUOUS
 10
249.295544
 20
134.620904
 30
0.0
  0
VERTEX
  5
242
  8
DETAIL
  6
CONTINUOUS
 10
245.156426
 20
133.029974
 30
0.0
  0
VERTEX
  5
243
  8
DETAIL
  6
CONTINUOUS
 10
241.284566
 20
130.252771
 30
0.0
  0
VERTEX
  5
244
  8
DETAIL
  6
CONTINUOUS
 10
237.819021
 20
126.389037
 30
0.0
  0
VERTEX
  5
245
  8
DETAIL
  6
CONTINUOUS
 10
234.884258
 20
121.577539
 30
0.0
  0
VERTEX
  5
246
  8
DETAIL
  6
CONTINUOUS
 10
232.585678
 20
115.991083
 30
0.0
  0
VERTEX
  5
247
  8
DETAIL
  6
CONTINUOUS
 10
231.005835
 20
109.830306
 30
0.0
  0
VERTEX
  5
248
  8
DETAIL
  6
CONTINUOUS
 10
230.201469
 20
103.316472
 30
0.0
  0
VERTEX
  5
249
  8
DETAIL
  6
CONTINUOUS
 10
230.201469
 20
96.683528
 30
0.0
  0
VERTEX
  5
24A
  8
DETAIL
  6
CONTINUOUS
 10
231.005835
 20
90.169694
 30
0.0
  0
VERTEX
  5
24B
  8
DETAIL
  6
CONTINUOUS
 10
232.585678
 20
84.008917
 30
0.0
  0
VERTEX
  5
24C
  8
DETAIL
  6
CONTINUOUS
 10
234.884258
 20
78.422461
 30
0.0
  0
VERTEX
  5
24D
  8
DETAIL
  6
CONTINUOUS
 10
237.819021
 20
73.610963
 30
0.0
  0
VERTEX
  5
24E
  8
DETAIL
  6
CONTINUOUS
 10
241.284566
 20
69.747229
 30
0.0
  0
VERTEX
  5
24F
  8
DETAIL
  6
CONTINUOUS
 10
245.156426
 20
66.970026
 30
0.0
  0
VERTEX
  5
250
  8
DETAIL
  6
CONTINUOUS
 10
249.295544
 20
65.379096
 30
0.0
  0
VERTEX
  5
251
  8
DETAIL
  6
CONTINUOUS
 10
253.553263
 20
65.031578
 30
0.0
  0
VERTEX
  5
252
  8
DETAIL
  6
CONTINUOUS
 10
257.776666
 20
65.939953
 30
0.0
  0
VERTEX
  5
253
  8
DETAIL
  6
CONTINUOUS
 10
261.814071
 20
68.071597
 30
0.0
  0
VERTEX
  5
254
  8
DETAIL
  6
CONTINUOUS
 10
265.520473
 20
71.349952
 30
0.0
  0
VERTEX
  5
255
  8
DETAIL
  6
CONTINUOUS
 10
268.762756
 20
75.657275
 30
0.0
  0
VERTEX
  5
256
  8
DETAIL
  6
CONTINUOUS
 10
271.424475
 20
80.838869
 30
0.0
  0
VERTEX
  5
257
  8
DETAIL
  6
CONTINUOUS
 10
273.410032
 20
86.708636
 30
0.0
  0
SEQEND
  5
258
  8
DETAIL
  6
CONTINUOUS
  0
LINE
  5
259
  8
DETAIL
  6
CONTINUOUS
 10
284.013472
 20
87.933276
 30
0.0
 11
271.060894
 21
86.437323
 31
0.0
  0
LINE
  5
25A
  8
DETAIL
  6
CONTINUOUS
 10
271.060894
 20
113.562677
 30
0.0
 11
284.013472
 21
112.066724
 31
0.0
  0
LINE
  5
25B
  8
DETAIL
  6
CONTINUOUS
 10
270.413688
 20
86.4
 30
0.0
 11
252.597808
 21
86.4
 31
0.0
  0
LINE
  5
25C
  8
DETAIL
  6
CONTINUOUS
 10
270.413688
 20
113.6
 30
0.0
 11
252.597808
 21
113.6
 31
0.0
  0
POLYLINE
  5
25D
  8
DETAIL
  6
CONTINUOUS
 66
     1
 10
0.0
 20
0.0
 30
0.0
 70
     1
  0
VERTEX
  5
25E
  8
DETAIL
  6
CONTINUOUS
 10
283.436444
 20
112.1
 30
0.0
  0
VERTEX
  5
25F
  8
DETAIL
  6
CONTINUOUS
 10
281.917492
 20
111.867502
 30
0.0
  0
VERTEX
  5
260
  8
DETAIL
  6
CONTINUOUS
 10
280.456913
 20
111.178942
 30
0.0
  0
VERTEX
  5
261
  8
DETAIL
  6
CONTINUOUS
 10
279.110836
 20
110.060782
 30
0.0
  0
VERTEX
  5
262
  8
DETAIL
  6
CONTINUOUS
 10
277.930989
 20
108.555992
 30
0.0
  0
VERTEX
  5
263
  8
DETAIL
  6
CONTINUOUS
 10
276.962714
 20
106.7224
 30
0.0
  0
VERTEX
  5
264
  8
DETAIL
  6
CONTINUOUS
 10
276.243221
 20
104.63047
 30
0.0
  0
VERTEX
  5
265
  8
DETAIL
  6
CONTINUOUS
 10
275.800159
 20
102.360593
 30
0.0
  0
VERTEX
  5
266
  8
DETAIL
  6
CONTINUOUS
 10
275.650555
 20
100.0
 30
0.0
  0
VERTEX
  5
267
  8
DETAIL
  6
CONTINUOUS
 10
275.800159
 20
97.639407
 30
0.0
  0
VERTEX
  5
268
  8
DETAIL
  6
CONTINUOUS
 10
276.243221
 20
95.36953
 30
0.0
  0
VERTEX
  5
269
  8
DETAIL
  6
CONTINUOUS
 10
276.962714
 20
93.2776
 30
0.0
  0
VERTEX
  5
26A
  8
DETAIL
  6
CONTINUOUS
 10
277.930989
 20
91.444008
 30
0.0
  0
VERTEX
  5
26B
  8
DETAIL
  6
CONTINUOUS
 10
279.110836
 20
89.939218
 30
0.0
  0
VERTEX
  5
26C
  8
DETAIL
  6
CONTINUOUS
 10
280.456913
 20
88.821058
 30
0.0
  0
VERTEX
  5
26D
  8
DETAIL
  6
CONTINUOUS
 10
281.917492
 20
88.132498
 30
0.0
  0
VERTEX
  5
26E
  8
DETAIL
  6
CONTINUOUS
 10
283.436444
 20
87.9
 30
0.0
  0
VERTEX
  5
26F
  8
DETAIL
  6
CONTINUOUS
 10
284.955396
 20
88.132498
 30
0.0
  0
VERTEX
  5
270
  8
DETAIL
  6
CONTINUOUS
 10
286.415975
 20
88.821058
 30
0.0
  0
VERTEX
  5
271
  8
DETAIL
  6
CONTINUOUS
 10
287.762052
 20
89.939218
 30
0.0
  0
VERTEX
  5
272
  8
DETAIL
  6
CONTINUOUS
 10
288.941899
 20
91.444008
 30
0.0
  0
VERTEX
  5
273
  8
DETAIL
  6
CONTINUOUS
 10
289.910174
 20
93.2776
 30
0.0
  0
VERTEX
  5
274
  8
DETAIL
  6
CONTINUOUS
 10
290.629667
 20
95.36953
 30
0.0
  0
VERTEX
  5
275
  8
DETAIL
  6
CONTINUOUS
 10
291.072729
 20
97.639407
 30
0.0
  0
VERTEX
  5
276
  8
DETAIL
  6
CONTINUOUS
 10
291.222333
 20
100.0
 30
0.0
  0
VERTEX
  5
277
  8
DETAIL
  6
CONTINUOUS
 10
291.072729
 20
102.360593
 30
0.0
  0
VERTEX
  5
278
  8
DETAIL
  6
CONTINUOUS
 10
290.629667
 20
104.63047
 30
0.0
  0
VERTEX
  5
279
  8
DETAIL
  6
CONTINUOUS
 10
289.910174
 20
106.7224
 30
0.0
  0
VERTEX
  5
27A
  8
DETAIL
  6
CONTINUOUS
 10
288.941899
 20
108.555992
 30
0.0
  0
VERTEX
  5
27B
  8
DETAIL
  6
CONTINUOUS
 10
287.762052
 20
110.060782
 30
0.0
  0
VERTEX
  5
27C
  8
DETAIL
  6
CONTINUOUS
 10
286.415975
 20
111.178942
 30
0.0
  0
VERTEX
  5
27D
  8
DETAIL
  6
CONTINUOUS
 10
284.955396
 20
111.867502
 30
0.0
  0
SEQEND
  5
27E
  8
DETAIL
  6
CONTINUOUS
  0
POLYLINE
  5
27F
  8
DETAIL
  6
CONTINUOUS
 66
     1
 10
0.0
 20
0.0
 30
0.0
  0
VERTEX
  5
280
  8
DETAIL
  6
CONTINUOUS
 10
252.597808
 20
113.6
 30
0.0
  0
VERTEX
  5
281
  8
DETAIL
  6
CONTINUOUS
 10
250.892345
 20
113.33868
 30
0.0
  0
VERTEX
  5
282
  8
DETAIL
  6
CONTINUOUS
 10
249.252423
 20
112.564762
 30
0.0
  0
VERTEX
  5
283
  8
DETAIL
  6
CONTINUOUS
 10
247.741062
 20
111.307987
 30
0.0
  0
VERTEX
  5
284
  8
DETAIL
  6
CONTINUOUS
 10
246.416343
 20
109.616652
 30
0.0
  0
VERTEX
  5
285
  8
DETAIL
  6
CONTINUOUS
 10
245.329174
 20
107.555755
 30
0.0
  0
VERTEX
  5
286
  8
DETAIL
  6
CONTINUOUS
 10
244.521335
 20
105.204495
 30
0.0
  0
VERTEX
  5
287
  8
DETAIL
  6
CONTINUOUS
 10
244.02387
 20
102.653228
 30
0.0
  0
VERTEX
  5
288
  8
DETAIL
  6
CONTINUOUS
 10
243.855896
 20
100.0
 30
0.0
  0
VERTEX
  5
289
  8
DETAIL
  6
CONTINUOUS
 10
244.02387
 20
97.346772
 30
0.0
  0
VERTEX
  5
28A
  8
DETAIL
  6
CONTINUOUS
 10
244.521335
 20
94.795505
 30
0.0
  0
VERTEX
  5
28B
  8
DETAIL
  6
CONTINUOUS
 10
245.329174
 20
92.444245
 30
0.0
  0
VERTEX
  5
28C
  8
DETAIL
  6
CONTINUOUS
 10
246.416343
 20
90.383348
 30
0.0
  0
VERTEX
  5
28D
  8
DETAIL
  6
CONTINUOUS
 10
247.741062
 20
88.692013
 30
0.0
  0
VERTEX
  5
28E
  8
DETAIL
  6
CONTINUOUS
 10
249.252423
 20
87.435238
 30
0.0
  0
VERTEX
  5
28F
  8
DETAIL
  6
CONTINUOUS
 10
250.892345
 20
86.66132
 30
0.0
  0
VERTEX
  5
290
  8
DETAIL
  6
CONTINUOUS
 10
252.597808
 20
86.4
 30
0.0
  0
SEQEND
  5
291
  8
DETAIL
  6
CONTINUOUS
  0
LINE
  5
292
  8
DETAIL
  6
CONTINUOUS
 10
411.0
 20
715.25
 30
0.0
 11
416.0
 21
715.25
 31
0.0
  0
LINE
  5
293
  8
DETAIL
  6
CONTINUOUS
 10
411.0
 20
698.75
 30
0.0
 11
416.0
 21
698.75
 31
0.0
  0
LINE
  5
294
  8
DETAIL
  6
CONTINUOUS
 10
416.0
 20
698.75
 30
0.0
 11
416.0
 21
715.25
 31
0.0
  0
LINE
  5
295
  8
DETAIL
  6
CONTINUOUS
 10
401.0
 20
691.5
 30
0.0
 11
409.794174
 21
693.258835
 31
0.0
  0
LINE
  5
296
  8
DETAIL
  6
CONTINUOUS
 10
401.0
 20
886.0
 30
0.0
 11
409.794174
 21
884.241165
 31
0.0
  0
LINE
  5
297
  8
DETAIL
  6
CONTINUOUS
 10
411.0
 20
694.729706
 30
0.0
 11
411.0
 21
882.770294
 31
0.0
  0
ARC
  5
298
  8
DETAIL
  6
CONTINUOUS
 10
409.5
 20
694.729706
 30
0.0
 40
1.5
 50
281.309932
 51
0.0
  0
ARC
  5
299
  8
DETAIL
  6
CONTINUOUS
 10
409.5
 20
882.770294
 30
0.0
 40
1.5
 50
0.0
 51
78.690068
  0
LINE
  5
29A
  8
DETAIL
  6
CONTINUOUS
 10
330.0
 20
1810.7
 30
0.0
 11
401.0
 21
1810.7
 31
0.0
  0
LINE
  5
29B
  8
DETAIL
  6
CONTINUOUS
 10
401.0
 20
340.7
 30
0.0
 11
330.0
 21
340.7
 31
0.0
  0
LINE
  5
29C
  8
DETAIL
  6
CONTINUOUS
 10
223.0
 20
32.0
 30
0.0
 11
186.179941
 21
32.0
 31
0.0
  0
LINE
  5
29D
  8
DETAIL
  6
CONTINUOUS
 10
269.0
 20
38.0
 30
0.0
 11
269.0
 21
26.0
 31
0.0
  0
LINE
  5
29E
  8
DETAIL
  6
CONTINUOUS
 10
269.0
 20
26.0
 30
0.0
 11
251.0
 21
26.0
 31
0.0
  0
LINE
  5
29F
  8
DETAIL
  6
CONTINUOUS
 10
268.0
 20
23.0
 30
0.0
 11
252.0
 21
23.0
 31
0.0
  0
LINE
  5
2A0
  8
DETAIL
  6
CONTINUOUS
 10
269.0
 20
26.0
 30
0.0
 11
268.0
 21
23.0
 31
0.0
  0
LINE
  5
2A1
  8
DETAIL
  6
CONTINUOUS
 10
251.0
 20
26.0
 30
0.0
 11
252.0
 21
23.0
 31
0.0
  0
LINE
  5
2A2
  8
DETAIL
  6
CONTINUOUS
 10
251.0
 20
38.0
 30
0.0
 11
251.0
 21
26.0
 31
0.0
  0
LINE
  5
2A3
  8
DETAIL
  6
CONTINUOUS
 10
280.0
 20
40.0
 30
0.0
 11
280.0
 21
38.0
 31
0.0
  0
LINE
  5
2A4
  8
DETAIL
  6
CONTINUOUS
 10
240.0
 20
40.0
 30
0.0
 11
240.0
 21
38.0
 31
0.0
  0
LINE
  5
2A5
  8
DETAIL
  6
CONTINUOUS
 10
280.0
 20
38.0
 30
0.0
 11
240.0
 21
38.0
 31
0.0
  0
LINE
  5
2A6
  8
DETAIL
  6
CONTINUOUS
 10
233.0
 20
40.0
 30
0.0
 11
223.0
 21
32.0
 31
0.0
  0
LINE
  5
2A7
  8
DETAIL
  6
CONTINUOUS
 10
-10.0
 20
1996.2
 30
0.0
 11
-13.6
 21
1996.2
 31
0.0
  0
LINE
  5
2A8
  8
DETAIL
  6
CONTINUOUS
 10
13.6
 20
1996.2
 30
0.0
 11
10.0
 21
1996.2
 31
0.0
  0
LINE
  5
2A9
  8
DETAIL
  6
CONTINUOUS
 10
10.0
 20
1963.3
 30
0.0
 11
10.0
 21
1998.3
 31
0.0
  0
LINE
  5
2AA
  8
DETAIL
  6
CONTINUOUS
 10
-10.0
 20
1998.3
 30
0.0
 11
10.0
 21
1998.3
 31
0.0
  0
LINE
  5
2AB
  8
DETAIL
  6
CONTINUOUS
 10
-10.0
 20
1963.3
 30
0.0
 11
-10.0
 21
1998.3
 31
0.0
  0
LINE
  5
2AC
  8
DETAIL
  6
CONTINUOUS
 10
12.112693
 20
2013.2
 30
0.0
 11
13.6
 21
1996.2
 31
0.0
  0
LINE
  5
2AD
  8
DETAIL
  6
CONTINUOUS
 10
11.108873
 20
2013.2
 30
0.0
 11
12.59618
 21
1996.2
 31
0.0
  0
LINE
  5
2AE
  8
DETAIL
  6
CONTINUOUS
 10
12.112693
 20
2013.2
 30
0.0
 11
-12.112693
 21
2013.2
 31
0.0
  0
LINE
  5
2AF
  8
DETAIL
  6
CONTINUOUS
 10
13.6
 20
1963.3
 30
0.0
 11
13.6
 21
1996.2
 31
0.0
  0
LINE
  5
2B0
  8
DETAIL
  6
CONTINUOUS
 10
-11.108873
 20
2013.2
 30
0.0
 11
-12.59618
 21
1996.2
 31
0.0
  0
LINE
  5
2B1
  8
DETAIL
  6
CONTINUOUS
 10
-12.112693
 20
2013.2
 30
0.0
 11
-13.6
 21
1996.2
 31
0.0
  0
LINE
  5
2B2
  8
DETAIL
  6
CONTINUOUS
 10
-13.6
 20
1963.3
 30
0.0
 11
-13.6
 21
1996.2
 31
0.0
  0
LINE
  5
2B3
  8
DETAIL
  6
CONTINUOUS
 10
-13.6
 20
1963.3
 30
0.0
 11
-13.6
 21
1996.2
 31
0.0
  0
LINE
  5
2B4
  8
DETAIL
  6
CONTINUOUS
 10
-12.112693
 20
2013.2
 30
0.0
 11
-13.6
 21
1996.2
 31
0.0
  0
LINE
  5
2B5
  8
DETAIL
  6
CONTINUOUS
 10
-11.108873
 20
2013.2
 30
0.0
 11
-12.59618
 21
1996.2
 31
0.0
  0
LINE
  5
2B6
  8
DETAIL
  6
CONTINUOUS
 10
13.6
 20
1963.3
 30
0.0
 11
13.6
 21
1996.2
 31
0.0
  0
LINE
  5
2B7
  8
DETAIL
  6
CONTINUOUS
 10
12.112693
 20
2013.2
 30
0.0
 11
-12.112693
 21
2013.2
 31
0.0
  0
LINE
  5
2B8
  8
DETAIL
  6
CONTINUOUS
 10
11.108873
 20
2013.2
 30
0.0
 11
12.59618
 21
1996.2
 31
0.0
  0
LINE
  5
2B9
  8
DETAIL
  6
CONTINUOUS
 10
12.112693
 20
2013.2
 30
0.0
 11
13.6
 21
1996.2
 31
0.0
  0
LINE
  5
2BA
  8
DETAIL
  6
CONTINUOUS
 10
-10.0
 20
1963.3
 30
0.0
 11
-10.0
 21
1998.3
 31
0.0
  0
LINE
  5
2BB
  8
DETAIL
  6
CONTINUOUS
 10
-10.0
 20
1998.3
 30
0.0
 11
10.0
 21
1998.3
 31
0.0
  0
LINE
  5
2BC
  8
DETAIL
  6
CONTINUOUS
 10
10.0
 20
1963.3
 30
0.0
 11
10.0
 21
1998.3
 31
0.0
  0
LINE
  5
2BD
  8
DETAIL
  6
CONTINUOUS
 10
13.6
 20
1996.2
 30
0.0
 11
10.0
 21
1996.2
 31
0.0
  0
LINE
  5
2BE
  8
DETAIL
  6
CONTINUOUS
 10
-10.0
 20
1996.2
 30
0.0
 11
-13.6
 21
1996.2
 31
0.0
  0
LINE
  5
2BF
  8
DETAIL
  6
CONTINUOUS
 10
233.0
 20
40.0
 30
0.0
 11
223.0
 21
32.0
 31
0.0
  0
LINE
  5
2C0
  8
DETAIL
  6
CONTINUOUS
 10
280.0
 20
38.0
 30
0.0
 11
240.0
 21
38.0
 31
0.0
  0
LINE
  5
2C1
  8
DETAIL
  6
CONTINUOUS
 10
240.0
 20
40.0
 30
0.0
 11
240.0
 21
38.0
 31
0.0
  0
LINE
  5
2C2
  8
DETAIL
  6
CONTINUOUS
 10
280.0
 20
40.0
 30
0.0
 11
280.0
 21
38.0
 31
0.0
  0
LINE
  5
2C3
  8
DETAIL
  6
CONTINUOUS
 10
251.0
 20
38.0
 30
0.0
 11
251.0
 21
26.0
 31
0.0
  0
LINE
  5
2C4
  8
DETAIL
  6
CONTINUOUS
 10
251.0
 20
26.0
 30
0.0
 11
252.0
 21
23.0
 31
0.0
  0
LINE
  5
2C5
  8
DETAIL
  6
CONTINUOUS
 10
269.0
 20
26.0
 30
0.0
 11
268.0
 21
23.0
 31
0.0
  0
LINE
  5
2C6
  8
DETAIL
  6
CONTINUOUS
 10
268.0
 20
23.0
 30
0.0
 11
252.0
 21
23.0
 31
0.0
  0
LINE
  5
2C7
  8
DETAIL
  6
CONTINUOUS
 10
269.0
 20
26.0
 30
0.0
 11
251.0
 21
26.0
 31
0.0
  0
LINE
  5
2C8
  8
DETAIL
  6
CONTINUOUS
 10
269.0
 20
38.0
 30
0.0
 11
269.0
 21
26.0
 31
0.0
  0
LINE
  5
2C9
  8
DETAIL
  6
CONTINUOUS
 10
223.0
 20
32.0
 30
0.0
 11
186.179941
 21
32.0
 31
0.0
  0
LINE
  5
2CA
  8
DETAIL
  6
CONTINUOUS
 10
401.0
 20
340.7
 30
0.0
 11
330.0
 21
340.7
 31
0.0
  0
LINE
  5
2CB
  8
DETAIL
  6
CONTINUOUS
 10
330.0
 20
1810.7
 30
0.0
 11
401.0
 21
1810.7
 31
0.0
  0
ARC
  5
2CC
  8
DETAIL
  6
CONTINUOUS
 10
409.5
 20
882.770294
 30
0.0
 40
1.5
 50
0.0
 51
78.690068
  0
ARC
  5
2CD
  8
DETAIL
  6
CONTINUOUS
 10
409.5
 20
694.729706
 30
0.0
 40
1.5
 50
281.309932
 51
0.0
  0
LINE
  5
2CE
  8
DETAIL
  6
CONTINUOUS
 10
411.0
 20
694.729706
 30
0.0
 11
411.0
 21
882.770294
 31
0.0
  0
LINE
  5
2CF
  8
DETAIL
  6
CONTINUOUS
 10
401.0
 20
886.0
 30
0.0
 11
409.794174
 21
884.241165
 31
0.0
  0
LINE
  5
2D0
  8
DETAIL
  6
CONTINUOUS
 10
401.0
 20
691.5
 30
0.0
 11
409.794174
 21
693.258835
 31
0.0
  0
LINE
  5
2D1
  8
DETAIL
  6
CONTINUOUS
 10
416.0
 20
698.75
 30
0.0
 11
416.0
 21
715.25
 31
0.0
  0
LINE
  5
2D2
  8
DETAIL
  6
CONTINUOUS
 10
411.0
 20
698.75
 30
0.0
 11
416.0
 21
698.75
 31
0.0
  0
LINE
  5
2D3
  8
DETAIL
  6
CONTINUOUS
 10
411.0
 20
715.25
 30
0.0
 11
416.0
 21
715.25
 31
0.0
  0
POLYLINE
  5
2D4
  8
DETAIL
  6
CONTINUOUS
 66
     1
 10
0.0
 20
0.0
 30
0.0
  0
VERTEX
  5
2D5
  8
DETAIL
  6
CONTINUOUS
 10
252.597808
 20
113.6
 30
0.0
  0
VERTEX
  5
2D6
  8
DETAIL
  6
CONTINUOUS
 10
250.892345
 20
113.33868
 30
0.0
  0
VERTEX
  5
2D7
  8
DETAIL
  6
CONTINUOUS
 10
249.252423
 20
112.564762
 30
0.0
  0
VERTEX
  5
2D8
  8
DETAIL
  6
CONTINUOUS
 10
247.741062
 20
111.307987
 30
0.0
  0
VERTEX
  5
2D9
  8
DETAIL
  6
CONTINUOUS
 10
246.416343
 20
109.616652
 30
0.0
  0
VERTEX
  5
2DA
  8
DETAIL
  6
CONTINUOUS
 10
245.329174
 20
107.555755
 30
0.0
  0
VERTEX
  5
2DB
  8
DETAIL
  6
CONTINUOUS
 10
244.521335
 20
105.204495
 30
0.0
  0
VERTEX
  5
2DC
  8
DETAIL
  6
CONTINUOUS
 10
244.02387
 20
102.653228
 30
0.0
  0
VERTEX
  5
2DD
  8
DETAIL
  6
CONTINUOUS
 10
243.855896
 20
100.0
 30
0.0
  0
VERTEX
  5
2DE
  8
DETAIL
  6
CONTINUOUS
 10
244.02387
 20
97.346772
 30
0.0
  0
VERTEX
  5
2DF
  8
DETAIL
  6
CONTINUOUS
 10
244.521335
 20
94.795505
 30
0.0
  0
VERTEX
  5
2E0
  8
DETAIL
  6
CONTINUOUS
 10
245.329174
 20
92.444245
 30
0.0
  0
VERTEX
  5
2E1
  8
DETAIL
  6
CONTINUOUS
 10
246.416343
 20
90.383348
 30
0.0
  0
VERTEX
  5
2E2
  8
DETAIL
  6
CONTINUOUS
 10
247.741062
 20
88.692013
 30
0.0
  0
VERTEX
  5
2E3
  8
DETAIL
  6
CONTINUOUS
 10
249.252423
 20
87.435238
 30
0.0
  0
VERTEX
  5
2E4
  8
DETAIL
  6
CONTINUOUS
 10
250.892345
 20
86.66132
 30
0.0
  0
VERTEX
  5
2E5
  8
DETAIL
  6
CONTINUOUS
 10
252.597808
 20
86.4
 30
0.0
  0
SEQEND
  5
2E6
  8
DETAIL
  6
CONTINUOUS
  0
POLYLINE
  5
2E7
  8
DETAIL
  6
CONTINUOUS
 66
     1
 10
0.0
 20
0.0
 30
0.0
 70
     1
  0
VERTEX
  5
2E8
  8
DETAIL
  6
CONTINUOUS
 10
283.436444
 20
112.1
 30
0.0
  0
VERTEX
  5
2E9
  8
DETAIL
  6
CONTINUOUS
 10
281.917492
 20
111.867502
 30
0.0
  0
VERTEX
  5
2EA
  8
DETAIL
  6
CONTINUOUS
 10
280.456913
 20
111.178942
 30
0.0
  0
VERTEX
  5
2EB
  8
DETAIL
  6
CONTINUOUS
 10
279.110836
 20
110.060782
 30
0.0
  0
VERTEX
  5
2EC
  8
DETAIL
  6
CONTINUOUS
 10
277.930989
 20
108.555992
 30
0.0
  0
VERTEX
  5
2ED
  8
DETAIL
  6
CONTINUOUS
 10
276.962714
 20
106.7224
 30
0.0
  0
VERTEX
  5
2EE
  8
DETAIL
  6
CONTINUOUS
 10
276.243221
 20
104.63047
 30
0.0
  0
VERTEX
  5
2EF
  8
DETAIL
  6
CONTINUOUS
 10
275.800159
 20
102.360593
 30
0.0
  0
VERTEX
  5
2F0
  8
DETAIL
  6
CONTINUOUS
 10
275.650555
 20
100.0
 30
0.0
  0
VERTEX
  5
2F1
  8
DETAIL
  6
CONTINUOUS
 10
275.800159
 20
97.639407
 30
0.0
  0
VERTEX
  5
2F2
  8
DETAIL
  6
CONTINUOUS
 10
276.243221
 20
95.36953
 30
0.0
  0
VERTEX
  5
2F3
  8
DETAIL
  6
CONTINUOUS
 10
276.962714
 20
93.2776
 30
0.0
  0
VERTEX
  5
2F4
  8
DETAIL
  6
CONTINUOUS
 10
277.930989
 20
91.444008
 30
0.0
  0
VERTEX
  5
2F5
  8
DETAIL
  6
CONTINUOUS
 10
279.110836
 20
89.939218
 30
0.0
  0
VERTEX
  5
2F6
  8
DETAIL
  6
CONTINUOUS
 10
280.456913
 20
88.821058
 30
0.0
  0
VERTEX
  5
2F7
  8
DETAIL
  6
CONTINUOUS
 10
281.917492
 20
88.132498
 30
0.0
  0
VERTEX
  5
2F8
  8
DETAIL
  6
CONTINUOUS
 10
283.436444
 20
87.9
 30
0.0
  0
VERTEX
  5
2F9
  8
DETAIL
  6
CONTINUOUS
 10
284.955396
 20
88.132498
 30
0.0
  0
VERTEX
  5
2FA
  8
DETAIL
  6
CONTINUOUS
 10
286.415975
 20
88.821058
 30
0.0
  0
VERTEX
  5
2FB
  8
DETAIL
  6
CONTINUOUS
 10
287.762052
 20
89.939218
 30
0.0
  0
VERTEX
  5
2FC
  8
DETAIL
  6
CONTINUOUS
 10
288.941899
 20
91.444008
 30
0.0
  0
VERTEX
  5
2FD
  8
DETAIL
  6
CONTINUOUS
 10
289.910174
 20
93.2776
 30
0.0
  0
VERTEX
  5
2FE
  8
DETAIL
  6
CONTINUOUS
 10
290.629667
 20
95.36953
 30
0.0
  0
VERTEX
  5
2FF
  8
DETAIL
  6
CONTINUOUS
 10
291.072729
 20
97.639407
 30
0.0
  0
VERTEX
  5
300
  8
DETAIL
  6
CONTINUOUS
 10
291.222333
 20
100.0
 30
0.0
  0
VERTEX
  5
301
  8
DETAIL
  6
CONTINUOUS
 10
291.072729
 20
102.360593
 30
0.0
  0
VERTEX
  5
302
  8
DETAIL
  6
CONTINUOUS
 10
290.629667
 20
104.63047
 30
0.0
  0
VERTEX
  5
303
  8
DETAIL
  6
CONTINUOUS
 10
289.910174
 20
106.7224
 30
0.0
  0
VERTEX
  5
304
  8
DETAIL
  6
CONTINUOUS
 10
288.941899
 20
108.555992
 30
0.0
  0
VERTEX
  5
305
  8
DETAIL
  6
CONTINUOUS
 10
287.762052
 20
110.060782
 30
0.0
  0
VERTEX
  5
306
  8
DETAIL
  6
CONTINUOUS
 10
286.415975
 20
111.178942
 30
0.0
  0
VERTEX
  5
307
  8
DETAIL
  6
CONTINUOUS
 10
284.955396
 20
111.867502
 30
0.0
  0
SEQEND
  5
308
  8
DETAIL
  6
CONTINUOUS
  0
LINE
  5
309
  8
DETAIL
  6
CONTINUOUS
 10
270.413688
 20
113.6
 30
0.0
 11
252.597808
 21
113.6
 31
0.0
  0
LINE
  5
30A
  8
DETAIL
  6
CONTINUOUS
 10
270.413688
 20
86.4
 30
0.0
 11
252.597808
 21
86.4
 31
0.0
  0
LINE
  5
30B
  8
DETAIL
  6
CONTINUOUS
 10
271.060894
 20
113.562677
 30
0.0
 11
284.013472
 21
112.066724
 31
0.0
  0
LINE
  5
30C
  8
DETAIL
  6
CONTINUOUS
 10
284.013472
 20
87.933276
 30
0.0
 11
271.060894
 21
86.437323
 31
0.0
  0
POLYLINE
  5
30D
  8
DETAIL
  6
CONTINUOUS
 66
     1
 10
0.0
 20
0.0
 30
0.0
  0
VERTEX
  5
30E
  8
DETAIL
  6
CONTINUOUS
 10
273.410032
 20
113.291364
 30
0.0
  0
VERTEX
  5
30F
  8
DETAIL
  6
CONTINUOUS
 10
271.424475
 20
119.161131
 30
0.0
  0
VERTEX
  5
310
  8
DETAIL
  6
CONTINUOUS
 10
268.762756
 20
124.342725
 30
0.0
  0
VERTEX
  5
311
  8
DETAIL
  6
CONTINUOUS
 10
265.520473
 20
128.650048
 30
0.0
  0
VERTEX
  5
312
  8
DETAIL
  6
CONTINUOUS
 10
261.814071
 20
131.928403
 30
0.0
  0
VERTEX
  5
313
  8
DETAIL
  6
CONTINUOUS
 10
257.776666
 20
134.060047
 30
0.0
  0
VERTEX
  5
314
  8
DETAIL
  6
CONTINUOUS
 10
253.553263
 20
134.968422
 30
0.0
  0
VERTEX
  5
315
  8
DETAIL
  6
CONTINUOUS
 10
249.295544
 20
134.620904
 30
0.0
  0
VERTEX
  5
316
  8
DETAIL
  6
CONTINUOUS
 10
245.156426
 20
133.029974
 30
0.0
  0
VERTEX
  5
317
  8
DETAIL
  6
CONTINUOUS
 10
241.284566
 20
130.252771
 30
0.0
  0
VERTEX
  5
318
  8
DETAIL
  6
CONTINUOUS
 10
237.819021
 20
126.389037
 30
0.0
  0
VERTEX
  5
319
  8
DETAIL
  6
CONTINUOUS
 10
234.884258
 20
121.577539
 30
0.0
  0
VERTEX
  5
31A
  8
DETAIL
  6
CONTINUOUS
 10
232.585678
 20
115.991083
 30
0.0
  0
VERTEX
  5
31B
  8
DETAIL
  6
CONTINUOUS
 10
231.005835
 20
109.830306
 30
0.0
  0
VERTEX
  5
31C
  8
DETAIL
  6
CONTINUOUS
 10
230.201469
 20
103.316472
 30
0.0
  0
VERTEX
  5
31D
  8
DETAIL
  6
CONTINUOUS
 10
230.201469
 20
96.683528
 30
0.0
  0
VERTEX
  5
31E
  8
DETAIL
  6
CONTINUOUS
 10
231.005835
 20
90.169694
 30
0.0
  0
VERTEX
  5
31F
  8
DETAIL
  6
CONTINUOUS
 10
232.585678
 20
84.008917
 30
0.0
  0
VERTEX
  5
320
  8
DETAIL
  6
CONTINUOUS
 10
234.884258
 20
78.422461
 30
0.0
  0
VERTEX
  5
321
  8
DETAIL
  6
CONTINUOUS
 10
237.819021
 20
73.610963
 30
0.0
  0
VERTEX
  5
322
  8
DETAIL
  6
CONTINUOUS
 10
241.284566
 20
69.747229
 30
0.0
  0
VERTEX
  5
323
  8
DETAIL
  6
CONTINUOUS
 10
245.156426
 20
66.970026
 30
0.0
  0
VERTEX
  5
324
  8
DETAIL
  6
CONTINUOUS
 10
249.295544
 20
65.379096
 30
0.0
  0
VERTEX
  5
325
  8
DETAIL
  6
CONTINUOUS
 10
253.553263
 20
65.031578
 30
0.0
  0
VERTEX
  5
326
  8
DETAIL
  6
CONTINUOUS
 10
257.776666
 20
65.939953
 30
0.0
  0
VERTEX
  5
327
  8
DETAIL
  6
CONTINUOUS
 10
261.814071
 20
68.071597
 30
0.0
  0
VERTEX
  5
328
  8
DETAIL
  6
CONTINUOUS
 10
265.520473
 20
71.349952
 30
0.0
  0
VERTEX
  5
329
  8
DETAIL
  6
CONTINUOUS
 10
268.762756
 20
75.657275
 30
0.0
  0
VERTEX
  5
32A
  8
DETAIL
  6
CONTINUOUS
 10
271.424475
 20
80.838869
 30
0.0
  0
VERTEX
  5
32B
  8
DETAIL
  6
CONTINUOUS
 10
273.410032
 20
86.708636
 30
0.0
  0
SEQEND
  5
32C
  8
DETAIL
  6
CONTINUOUS
  0
POLYLINE
  5
32D
  8
DETAIL
  6
CONTINUOUS
 66
     1
 10
0.0
 20
0.0
 30
0.0
  0
VERTEX
  5
32E
  8
DETAIL
  6
CONTINUOUS
 10
271.060894
 20
113.562677
 30
0.0
  0
VERTEX
  5
32F
  8
DETAIL
  6
CONTINUOUS
 10
269.372253
 20
113.503148
 30
0.0
  0
VERTEX
  5
330
  8
DETAIL
  6
CONTINUOUS
 10
267.722491
 20
112.939515
 30
0.0
  0
VERTEX
  5
331
  8
DETAIL
  6
CONTINUOUS
 10
266.173198
 20
111.89282
 30
0.0
  0
VERTEX
  5
332
  8
DETAIL
  6
CONTINUOUS
 10
264.782212
 20
110.402138
 30
0.0
  0
VERTEX
  5
333
  8
DETAIL
  6
CONTINUOUS
 10
263.601462
 20
108.523121
 30
0.0
  0
VERTEX
  5
334
  8
DETAIL
  6
CONTINUOUS
 10
262.675028
 20
106.325916
 30
0.0
  0
VERTEX
  5
335
  8
DETAIL
  6
CONTINUOUS
 10
262.037496
 20
103.892551
 30
0.0
  0
VERTEX
  5
336
  8
DETAIL
  6
CONTINUOUS
 10
261.712667
 20
101.313867
 30
0.0
  0
VERTEX
  5
337
  8
DETAIL
  6
CONTINUOUS
 10
261.712667
 20
98.686133
 30
0.0
  0
VERTEX
  5
338
  8
DETAIL
  6
CONTINUOUS
 10
262.037496
 20
96.107449
 30
0.0
  0
VERTEX
  5
339
  8
DETAIL
  6
CONTINUOUS
 10
262.675028
 20
93.674084
 30
0.0
  0
VERTEX
  5
33A
  8
DETAIL
  6
CONTINUOUS
 10
263.601462
 20
91.476879
 30
0.0
  0
VERTEX
  5
33B
  8
DETAIL
  6
CONTINUOUS
 10
264.782212
 20
89.597862
 30
0.0
  0
VERTEX
  5
33C
  8
DETAIL
  6
CONTINUOUS
 10
266.173198
 20
88.10718
 30
0.0
  0
VERTEX
  5
33D
  8
DETAIL
  6
CONTINUOUS
 10
267.722491
 20
87.060485
 30
0.0
  0
VERTEX
  5
33E
  8
DETAIL
  6
CONTINUOUS
 10
269.372253
 20
86.496852
 30
0.0
  0
VERTEX
  5
33F
  8
DETAIL
  6
CONTINUOUS
 10
271.060894
 20
86.437323
 30
0.0
  0
SEQEND
  5
340
  8
DETAIL
  6
CONTINUOUS
  0
LINE
  5
341
  8
BASIS
  6
DASHDOT
 10
0.0
 20
-42.213895
 30
0.0
 11
0.0
 21
2044.724599
 31
0.0
  0
LINE
  5
342
  8
SIZE
  6
CONTINUOUS
 62
    30
 10
222.300369
 20
0.0
 30
0.0
 11
239.922754
 21
0.0
 31
0.0
  0
LINE
  5
343
  8
SIZE
  6
CONTINUOUS
 62
    30
 10
230.0
 20
23.0
 30
0.0
 11
214.922754
 21
23.0
 31
0.0
  0
LINE
  5
344
  8
SIZE
  6
CONTINUOUS
 62
    30
 10
227.422754
 20
33.0
 30
0.0
 11
227.422754
 21
43.0
 31
0.0
  0
LINE
  5
345
  8
SIZE
  6
CONTINUOUS
 62
    30
 10
227.422754
 20
-10.0
 30
0.0
 11
227.422754
 21
-122.183738
 31
0.0
  0
LINE
  5
346
  8
SIZE
  6
CONTINUOUS
 62
    30
 10
227.422754
 20
23.0
 30
0.0
 11
227.422754
 21
0.0
 31
0.0
  0
CIRCLE
  5
347
  8
SIZE
  6
CONTINUOUS
 62
    30
 10
227.422754
 20
23.0
 30
0.0
 40
5.0
  0
LINE
  5
348
  8
SIZE
  6
CONTINUOUS
 62
    30
 10
227.422754
 20
23.0
 30
0.0
 11
227.422754
 21
33.0
 31
0.0
  0
CIRCLE
  5
349
  8
SIZE
  6
CONTINUOUS
 62
    30
 10
227.422754
 20
0.0
 30
0.0
 40
5.0
  0
LINE
  5
34A
  8
SIZE
  6
CONTINUOUS
 62
    30
 10
227.422754
 20
0.0
 30
0.0
 11
227.422754
 21
-10.0
 31
0.0
  0
TEXT
  5
34B
  8
SIZE
  6
CONTINUOUS
 62
    30
 10
217.422754
 20
-112.183738
 30
0.0
 40
30.0
  1
23
 50
90.0
 72
     1
 11
217.422754
 21
-87.183738
 31
0.0
  0
POINT
  5
34C
  8
DEFPOINTS
  6
CONTINUOUS
 62
    30
 10
212.300369
 20
0.0
 30
0.0
  0
POINT
  5
34D
  8
DEFPOINTS
  6
CONTINUOUS
 62
    30
 10
240.0
 20
23.0
 30
0.0
  0
POINT
  5
34E
  8
DEFPOINTS
  6
CONTINUOUS
 62
    30
 10
227.422754
 20
23.0
 30
0.0
  0
LINE
  5
34F
  8
SIZE
  6
CONTINUOUS
 62
    30
 10
-330.0
 20
30.0
 30
0.0
 11
-330.0
 21
-360.1
 31
0.0
  0
LINE
  5
350
  8
SIZE
  6
CONTINUOUS
 62
    30
 10
-369.0
 20
-2.0
 30
0.0
 11
-369.0
 21
-360.1
 31
0.0
  0
LINE
  5
351
  8
SIZE
  6
CONTINUOUS
 62
    30
 10
-320.0
 20
-347.6
 30
0.0
 11
-310.0
 21
-347.6
 31
0.0
  0
LINE
  5
352
  8
SIZE
  6
CONTINUOUS
 62
    30
 10
-379.0
 20
-347.6
 30
0.0
 11
-460.514976
 21
-347.6
 31
0.0
  0
LINE
  5
353
  8
SIZE
  6
CONTINUOUS
 62
    30
 10
-330.0
 20
-347.6
 30
0.0
 11
-369.0
 21
-347.6
 31
0.0
  0
CIRCLE
  5
354
  8
SIZE
  6
CONTINUOUS
 62
    30
 10
-330.0
 20
-347.6
 30
0.0
 40
5.0
  0
LINE
  5
355
  8
SIZE
  6
CONTINUOUS
 62
    30
 10
-330.0
 20
-347.6
 30
0.0
 11
-320.0
 21
-347.6
 31
0.0
  0
CIRCLE
  5
356
  8
SIZE
  6
CONTINUOUS
 62
    30
 10
-369.0
 20
-347.6
 30
0.0
 40
5.0
  0
LINE
  5
357
  8
SIZE
  6
CONTINUOUS
 62
    30
 10
-369.0
 20
-347.6
 30
0.0
 11
-379.0
 21
-347.6
 31
0.0
  0
TEXT
  5
358
  8
SIZE
  6
CONTINUOUS
 62
    30
 10
-450.514976
 20
-337.6
 30
0.0
 40
30.0
  1
39
 72
     1
 11
-425.514976
 21
-337.6
 31
0.0
  0
POINT
  5
359
  8
DEFPOINTS
  6
CONTINUOUS
 62
    30
 10
-330.0
 20
40.0
 30
0.0
  0
POINT
  5
35A
  8
DEFPOINTS
  6
CONTINUOUS
 62
    30
 10
-369.0
 20
8.0
 30
0.0
  0
POINT
  5
35B
  8
DEFPOINTS
  6
CONTINUOUS
 62
    30
 10
-369.0
 20
-347.6
 30
0.0
  0
LINE
  5
35C
  8
SIZE
  6
CONTINUOUS
 62
    30
 10
-330.0
 20
2473.300049
 30
0.0
 11
-330.0
 21
2628.200049
 31
0.0
  0
LINE
  5
35D
  8
SIZE
  6
CONTINUOUS
 62
    30
 10
401.0
 20
2473.300049
 30
0.0
 11
401.0
 21
2628.200049
 31
0.0
  0
LINE
  5
35E
  8
SIZE
  6
CONTINUOUS
 62
    30
 10
-320.0
 20
2615.700049
 30
0.0
 11
391.0
 21
2615.700049
 31
0.0
  0
CIRCLE
  5
35F
  8
SIZE
  6
CONTINUOUS
 62
    30
 10
-330.0
 20
2615.700049
 30
0.0
 40
5.0
  0
LINE
  5
360
  8
SIZE
  6
CONTINUOUS
 62
    30
 10
-330.0
 20
2615.700049
 30
0.0
 11
-320.0
 21
2615.700049
 31
0.0
  0
CIRCLE
  5
361
  8
SIZE
  6
CONTINUOUS
 62
    30
 10
401.0
 20
2615.700049
 30
0.0
 40
5.0
  0
LINE
  5
362
  8
SIZE
  6
CONTINUOUS
 62
    30
 10
401.0
 20
2615.700049
 30
0.0
 11
391.0
 21
2615.700049
 31
0.0
  0
TEXT
  5
363
  8
SIZE
  6
CONTINUOUS
 62
    30
 10
0.5
 20
2625.700049
 30
0.0
 40
30.0
  1
731
 72
     1
 11
35.5
 21
2625.700049
 31
0.0
  0
POINT
  5
364
  8
DEFPOINTS
  6
CONTINUOUS
 62
    30
 10
-330.0
 20
2463.300049
 30
0.0
  0
POINT
  5
365
  8
DEFPOINTS
  6
CONTINUOUS
 62
    30
 10
401.0
 20
2463.300049
 30
0.0
  0
POINT
  5
366
  8
DEFPOINTS
  6
CONTINUOUS
 62
    30
 10
401.0
 20
2615.700049
 30
0.0
  0
LINE
  5
367
  8
SIZE
  6
CONTINUOUS
 62
    30
 10
401.0
 20
2473.300049
 30
0.0
 11
401.0
 21
2628.200049
 31
0.0
  0
LINE
  5
368
  8
SIZE
  6
CONTINUOUS
 62
    30
 10
1701.0
 20
2473.300049
 30
0.0
 11
1701.0
 21
2628.200049
 31
0.0
  0
LINE
  5
369
  8
SIZE
  6
CONTINUOUS
 62
    30
 10
411.0
 20
2615.700049
 30
0.0
 11
1691.0
 21
2615.700049
 31
0.0
  0
CIRCLE
  5
36A
  8
SIZE
  6
CONTINUOUS
 62
    30
 10
401.0
 20
2615.700049
 30
0.0
 40
5.0
  0
LINE
  5
36B
  8
SIZE
  6
CONTINUOUS
 62
    30
 10
401.0
 20
2615.700049
 30
0.0
 11
411.0
 21
2615.700049
 31
0.0
  0
CIRCLE
  5
36C
  8
SIZE
  6
CONTINUOUS
 62
    30
 10
1701.0
 20
2615.700049
 30
0.0
 40
5.0
  0
LINE
  5
36D
  8
SIZE
  6
CONTINUOUS
 62
    30
 10
1701.0
 20
2615.700049
 30
0.0
 11
1691.0
 21
2615.700049
 31
0.0
  0
TEXT
  5
36E
  8
SIZE
  6
CONTINUOUS
 62
    30
 10
1006.0
 20
2625.700049
 30
0.0
 40
30.0
  1
1300
 72
     1
 11
1051.0
 21
2625.700049
 31
0.0
  0
POINT
  5
36F
  8
DEFPOINTS
  6
CONTINUOUS
 62
    30
 10
401.0
 20
2463.300049
 30
0.0
  0
POINT
  5
370
  8
DEFPOINTS
  6
CONTINUOUS
 62
    30
 10
1701.0
 20
2463.300049
 30
0.0
  0
POINT
  5
371
  8
DEFPOINTS
  6
CONTINUOUS
 62
    30
 10
1701.0
 20
2615.700049
 30
0.0
  0
LINE
  5
372
  8
SIZE
  6
CONTINUOUS
 62
    30
 10
0.0
 20
-52.213894
 30
0.0
 11
0.0
 21
-260.1
 31
0.0
  0
LINE
  5
373
  8
SIZE
  6
CONTINUOUS
 62
    30
 10
260.0
 20
-7.0
 30
0.0
 11
260.0
 21
-260.1
 31
0.0
  0
LINE
  5
374
  8
SIZE
  6
CONTINUOUS
 62
    30
 10
10.0
 20
-247.6
 30
0.0
 11
250.0
 21
-247.6
 31
0.0
  0
CIRCLE
  5
375
  8
SIZE
  6
CONTINUOUS
 62
    30
 10
0.0
 20
-247.6
 30
0.0
 40
5.0
  0
LINE
  5
376
  8
SIZE
  6
CONTINUOUS
 62
    30
 10
0.0
 20
-247.6
 30
0.0
 11
10.0
 21
-247.6
 31
0.0
  0
CIRCLE
  5
377
  8
SIZE
  6
CONTINUOUS
 62
    30
 10
260.0
 20
-247.6
 30
0.0
 40
5.0
  0
LINE
  5
378
  8
SIZE
  6
CONTINUOUS
 62
    30
 10
260.0
 20
-247.6
 30
0.0
 11
250.0
 21
-247.6
 31
0.0
  0
TEXT
  5
379
  8
SIZE
  6
CONTINUOUS
 62
    30
 10
92.5
 20
-237.6
 30
0.0
 40
30.0
  1
260
 72
     1
 11
130.0
 21
-237.6
 31
0.0
  0
POINT
  5
37A
  8
DEFPOINTS
  6
CONTINUOUS
 62
    30
 10
0.0
 20
-42.213894
 30
0.0
  0
POINT
  5
37B
  8
DEFPOINTS
  6
CONTINUOUS
 62
    30
 10
260.0
 20
3.0
 30
0.0
  0
POINT
  5
37C
  8
DEFPOINTS
  6
CONTINUOUS
 62
    30
 10
260.0
 20
-247.6
 30
0.0
  0
LINE
  5
37D
  8
SIZE
  6
CONTINUOUS
 62
    30
 10
-352.0
 20
-30.0
 30
0.0
 11
-352.0
 21
-160.1
 31
0.0
  0
LINE
  5
37E
  8
SIZE
  6
CONTINUOUS
 62
    30
 10
0.0
 20
-52.213894
 30
0.0
 11
0.0
 21
-160.1
 31
0.0
  0
LINE
  5
37F
  8
SIZE
  6
CONTINUOUS
 62
    30
 10
-342.0
 20
-147.6
 30
0.0
 11
-10.0
 21
-147.6
 31
0.0
  0
CIRCLE
  5
380
  8
SIZE
  6
CONTINUOUS
 62
    30
 10
-352.0
 20
-147.6
 30
0.0
 40
5.0
  0
LINE
  5
381
  8
SIZE
  6
CONTINUOUS
 62
    30
 10
-352.0
 20
-147.6
 30
0.0
 11
-342.0
 21
-147.6
 31
0.0
  0
CIRCLE
  5
382
  8
SIZE
  6
CONTINUOUS
 62
    30
 10
0.0
 20
-147.6
 30
0.0
 40
5.0
  0
LINE
  5
383
  8
SIZE
  6
CONTINUOUS
 62
    30
 10
0.0
 20
-147.6
 30
0.0
 11
-10.0
 21
-147.6
 31
0.0
  0
TEXT
  5
384
  8
SIZE
  6
CONTINUOUS
 62
    30
 10
-216.0
 20
-137.6
 30
0.0
 40
30.0
  1
352
 72
     1
 11
-176.0
 21
-137.6
 31
0.0
  0
POINT
  5
385
  8
DEFPOINTS
  6
CONTINUOUS
 62
    30
 10
-352.0
 20
-20.0
 30
0.0
  0
POINT
  5
386
  8
DEFPOINTS
  6
CONTINUOUS
 62
    30
 10
0.0
 20
-42.213894
 30
0.0
  0
POINT
  5
387
  8
DEFPOINTS
  6
CONTINUOUS
 62
    30
 10
0.0
 20
-147.6
 30
0.0
  0
LINE
  5
388
  8
SIZE
  6
CONTINUOUS
 62
    30
 10
176.0
 20
-30.0
 30
0.0
 11
176.0
 21
-160.1
 31
0.0
  0
LINE
  5
389
  8
SIZE
  6
CONTINUOUS
 62
    30
 10
0.0
 20
-52.213894
 30
0.0
 11
0.0
 21
-160.1
 31
0.0
  0
LINE
  5
38A
  8
SIZE
  6
CONTINUOUS
 62
    30
 10
166.0
 20
-147.6
 30
0.0
 11
10.0
 21
-147.6
 31
0.0
  0
CIRCLE
  5
38B
  8
SIZE
  6
CONTINUOUS
 62
    30
 10
176.0
 20
-147.6
 30
0.0
 40
5.0
  0
LINE
  5
38C
  8
SIZE
  6
CONTINUOUS
 62
    30
 10
176.0
 20
-147.6
 30
0.0
 11
166.0
 21
-147.6
 31
0.0
  0
CIRCLE
  5
38D
  8
SIZE
  6
CONTINUOUS
 62
    30
 10
0.0
 20
-147.6
 30
0.0
 40
5.0
  0
LINE
  5
38E
  8
SIZE
  6
CONTINUOUS
 62
    30
 10
0.0
 20
-147.6
 30
0.0
 11
10.0
 21
-147.6
 31
0.0
  0
TEXT
  5
38F
  8
SIZE
  6
CONTINUOUS
 62
    30
 10
53.0
 20
-137.6
 30
0.0
 40
30.0
  1
176
 72
     1
 11
88.0
 21
-137.6
 31
0.0
  0
POINT
  5
390
  8
DEFPOINTS
  6
CONTINUOUS
 62
    30
 10
176.0
 20
-20.0
 30
0.0
  0
POINT
  5
391
  8
DEFPOINTS
  6
CONTINUOUS
 62
    30
 10
0.0
 20
-42.213894
 30
0.0
  0
POINT
  5
392
  8
DEFPOINTS
  6
CONTINUOUS
 62
    30
 10
0.0
 20
-147.6
 30
0.0
  0
LINE
  5
393
  8
SIZE
  6
CONTINUOUS
 62
    30
 10
-22.112693
 20
2013.199951
 30
0.0
 11
-594.9
 21
2013.199951
 31
0.0
  0
LINE
  5
394
  8
SIZE
  6
CONTINUOUS
 62
    30
 10
-54.551395
 20
1963.300049
 30
0.0
 11
-594.9
 21
1963.300049
 31
0.0
  0
LINE
  5
395
  8
SIZE
  6
CONTINUOUS
 62
    30
 10
-582.4
 20
2003.199951
 30
0.0
 11
-582.4
 21
1973.300049
 31
0.0
  0
CIRCLE
  5
396
  8
SIZE
  6
CONTINUOUS
 62
    30
 10
-582.4
 20
2013.199951
 30
0.0
 40
5.0
  0
LINE
  5
397
  8
SIZE
  6
CONTINUOUS
 62
    30
 10
-582.4
 20
2013.199951
 30
0.0
 11
-582.4
 21
2003.199951
 31
0.0
  0
CIRCLE
  5
398
  8
SIZE
  6
CONTINUOUS
 62
    30
 10
-582.4
 20
1963.300049
 30
0.0
 40
5.0
  0
LINE
  5
399
  8
SIZE
  6
CONTINUOUS
 62
    30
 10
-582.4
 20
1963.300049
 30
0.0
 11
-582.4
 21
1973.300049
 31
0.0
  0
TEXT
  5
39A
  8
SIZE
  6
CONTINUOUS
 62
    30
 10
-592.4
 20
1965.75
 30
0.0
 40
30.0
  1
50
 50
90.0
 72
     1
 11
-592.4
 21
1988.25
 31
0.0
  0
POINT
  5
39B
  8
DEFPOINTS
  6
CONTINUOUS
 62
    30
 10
-12.112693
 20
2013.199951
 30
0.0
  0
POINT
  5
39C
  8
DEFPOINTS
  6
CONTINUOUS
 62
    30
 10
-44.551395
 20
1963.300049
 30
0.0
  0
POINT
  5
39D
  8
DEFPOINTS
  6
CONTINUOUS
 62
    30
 10
-582.4
 20
1963.300049
 30
0.0
  0
LINE
  5
39E
  8
SIZE
  6
CONTINUOUS
 62
    30
 10
-340.0
 20
40.0
 30
0.0
 11
-594.9
 21
40.0
 31
0.0
  0
LINE
  5
39F
  8
SIZE
  6
CONTINUOUS
 62
    30
 10
-54.551395
 20
1963.300049
 30
0.0
 11
-594.9
 21
1963.300049
 31
0.0
  0
LINE
  5
3A0
  8
SIZE
  6
CONTINUOUS
 62
    30
 10
-582.4
 20
50.0
 30
0.0
 11
-582.4
 21
1953.300049
 31
0.0
  0
CIRCLE
  5
3A1
  8
SIZE
  6
CONTINUOUS
 62
    30
 10
-582.4
 20
40.0
 30
0.0
 40
5.0
  0
LINE
  5
3A2
  8
SIZE
  6
CONTINUOUS
 62
    30
 10
-582.4
 20
40.0
 30
0.0
 11
-582.4
 21
50.0
 31
0.0
  0
CIRCLE
  5
3A3
  8
SIZE
  6
CONTINUOUS
 62
    30
 10
-582.4
 20
1963.300049
 30
0.0
 40
5.0
  0
LINE
  5
3A4
  8
SIZE
  6
CONTINUOUS
 62
    30
 10
-582.4
 20
1963.300049
 30
0.0
 11
-582.4
 21
1953.300049
 31
0.0
  0
TEXT
  5
3A5
  8
SIZE
  6
CONTINUOUS
 62
    30
 10
-592.4
 20
951.650024
 30
0.0
 40
30.0
  1
1923
 50
90.0
 72
     1
 11
-592.4
 21
1001.650024
 31
0.0
  0
POINT
  5
3A6
  8
DEFPOINTS
  6
CONTINUOUS
 62
    30
 10
-330.0
 20
40.0
 30
0.0
  0
POINT
  5
3A7
  8
DEFPOINTS
  6
CONTINUOUS
 62
    30
 10
-44.551395
 20
1963.300049
 30
0.0
  0
POINT
  5
3A8
  8
DEFPOINTS
  6
CONTINUOUS
 62
    30
 10
-582.4
 20
1963.300049
 30
0.0
  0
LINE
  5
3A9
  8
SIZE
  6
CONTINUOUS
 62
    30
 10
-375.799988
 20
0.0
 30
0.0
 11
-694.9
 21
0.0
 31
0.0
  0
LINE
  5
3AA
  8
SIZE
  6
CONTINUOUS
 62
    30
 10
-22.112693
 20
2013.199951
 30
0.0
 11
-694.9
 21
2013.199951
 31
0.0
  0
LINE
  5
3AB
  8
SIZE
  6
CONTINUOUS
 62
    30
 10
-682.4
 20
10.0
 30
0.0
 11
-682.4
 21
2003.199951
 31
0.0
  0
CIRCLE
  5
3AC
  8
SIZE
  6
CONTINUOUS
 62
    30
 10
-682.4
 20
0.0
 30
0.0
 40
5.0
  0
LINE
  5
3AD
  8
SIZE
  6
CONTINUOUS
 62
    30
 10
-682.4
 20
0.0
 30
0.0
 11
-682.4
 21
10.0
 31
0.0
  0
CIRCLE
  5
3AE
  8
SIZE
  6
CONTINUOUS
 62
    30
 10
-682.4
 20
2013.199951
 30
0.0
 40
5.0
  0
LINE
  5
3AF
  8
SIZE
  6
CONTINUOUS
 62
    30
 10
-682.4
 20
2013.199951
 30
0.0
 11
-682.4
 21
2003.199951
 31
0.0
  0
TEXT
  5
3B0
  8
SIZE
  6
CONTINUOUS
 62
    30
 10
-692.4
 20
952.228943
 30
0.0
 40
30.0
  1
2013
 50
90.0
 72
     1
 11
-692.4
 21
999.728943
 31
0.0
  0
POINT
  5
3B1
  8
DEFPOINTS
  6
CONTINUOUS
 62
    30
 10
-365.799988
 20
0.0
 30
0.0
  0
POINT
  5
3B2
  8
DEFPOINTS
  6
CONTINUOUS
 62
    30
 10
-12.112693
 20
2013.199951
 30
0.0
  0
POINT
  5
3B3
  8
DEFPOINTS
  6
CONTINUOUS
 62
    30
 10
-682.4
 20
2013.199951
 30
0.0
  0
LINE
  5
3B4
  8
SIZE
  6
CONTINUOUS
 62
    30
 10
-340.0
 20
40.0
 30
0.0
 11
-594.9
 21
40.0
 31
0.0
  0
LINE
  5
3B5
  8
SIZE
  6
CONTINUOUS
 62
    30
 10
-375.799988
 20
0.0
 30
0.0
 11
-594.9
 21
0.0
 31
0.0
  0
LINE
  5
3B6
  8
SIZE
  6
CONTINUOUS
 62
    30
 10
-582.4
 20
50.0
 30
0.0
 11
-582.4
 21
60.0
 31
0.0
  0
LINE
  5
3B7
  8
SIZE
  6
CONTINUOUS
 62
    30
 10
-582.4
 20
-10.0
 30
0.0
 11
-582.4
 21
-108.2536
 31
0.0
  0
LINE
  5
3B8
  8
SIZE
  6
CONTINUOUS
 62
    30
 10
-582.4
 20
40.0
 30
0.0
 11
-582.4
 21
0.0
 31
0.0
  0
CIRCLE
  5
3B9
  8
SIZE
  6
CONTINUOUS
 62
    30
 10
-582.4
 20
40.0
 30
0.0
 40
5.0
  0
LINE
  5
3BA
  8
SIZE
  6
CONTINUOUS
 62
    30
 10
-582.4
 20
40.0
 30
0.0
 11
-582.4
 21
50.0
 31
0.0
  0
CIRCLE
  5
3BB
  8
SIZE
  6
CONTINUOUS
 62
    30
 10
-582.4
 20
0.0
 30
0.0
 40
5.0
  0
LINE
  5
3BC
  8
SIZE
  6
CONTINUOUS
 62
    30
 10
-582.4
 20
0.0
 30
0.0
 11
-582.4
 21
-10.0
 31
0.0
  0
TEXT
  5
3BD
  8
SIZE
  6
CONTINUOUS
 62
    30
 10
-592.4
 20
-98.2536
 30
0.0
 40
30.0
  1
40
 50
90.0
 72
     1
 11
-592.4
 21
-75.7536
 31
0.0
  0
POINT
  5
3BE
  8
DEFPOINTS
  6
CONTINUOUS
 62
    30
 10
-330.0
 20
40.0
 30
0.0
  0
POINT
  5
3BF
  8
DEFPOINTS
  6
CONTINUOUS
 62
    30
 10
-365.799988
 20
0.0
 30
0.0
  0
POINT
  5
3C0
  8
DEFPOINTS
  6
CONTINUOUS
 62
    30
 10
-582.4
 20
0.0
 30
0.0
  0
LINE
  5
3C1
  8
SIZE
  6
CONTINUOUS
 62
    30
 10
401.0
 20
-10.0
 30
0.0
 11
401.0
 21
-460.1
 31
0.0
  0
LINE
  5
3C2
  8
SIZE
  6
CONTINUOUS
 62
    30
 10
0.0
 20
-52.213894
 30
0.0
 11
0.0
 21
-460.1
 31
0.0
  0
LINE
  5
3C3
  8
SIZE
  6
CONTINUOUS
 62
    30
 10
391.0
 20
-447.6
 30
0.0
 11
10.0
 21
-447.6
 31
0.0
  0
CIRCLE
  5
3C4
  8
SIZE
  6
CONTINUOUS
 62
    30
 10
401.0
 20
-447.6
 30
0.0
 40
5.0
  0
LINE
  5
3C5
  8
SIZE
  6
CONTINUOUS
 62
    30
 10
401.0
 20
-447.6
 30
0.0
 11
391.0
 21
-447.6
 31
0.0
  0
CIRCLE
  5
3C6
  8
SIZE
  6
CONTINUOUS
 62
    30
 10
0.0
 20
-447.6
 30
0.0
 40
5.0
  0
LINE
  5
3C7
  8
SIZE
  6
CONTINUOUS
 62
    30
 10
0.0
 20
-447.6
 30
0.0
 11
10.0
 21
-447.6
 31
0.0
  0
TEXT
  5
3C8
  8
SIZE
  6
CONTINUOUS
 62
    30
 10
168.0
 20
-437.6
 30
0.0
 40
30.0
  1
401
 72
     1
 11
200.5
 21
-437.6
 31
0.0
  0
POINT
  5
3C9
  8
DEFPOINTS
  6
CONTINUOUS
 62
    30
 10
401.0
 20
0.0
 30
0.0
  0
POINT
  5
3CA
  8
DEFPOINTS
  6
CONTINUOUS
 62
    30
 10
0.0
 20
-42.213894
 30
0.0
  0
POINT
  5
3CB
  8
DEFPOINTS
  6
CONTINUOUS
 62
    30
 10
0.0
 20
-447.6
 30
0.0
  0
LINE
  5
3CC
  8
SIZE
  6
CONTINUOUS
 62
    30
 10
-330.0
 20
30.0
 30
0.0
 11
-330.0
 21
-362.5
 31
0.0
  0
LINE
  5
3CD
  8
SIZE
  6
CONTINUOUS
 62
    30
 10
330.0
 20
30.0
 30
0.0
 11
330.0
 21
-362.5
 31
0.0
  0
LINE
  5
3CE
  8
SIZE
  6
CONTINUOUS
 62
    30
 10
-320.0
 20
-350.0
 30
0.0
 11
320.0
 21
-350.0
 31
0.0
  0
CIRCLE
  5
3CF
  8
SIZE
  6
CONTINUOUS
 62
    30
 10
-330.0
 20
-350.0
 30
0.0
 40
5.0
  0
LINE
  5
3D0
  8
SIZE
  6
CONTINUOUS
 62
    30
 10
-330.0
 20
-350.0
 30
0.0
 11
-320.0
 21
-350.0
 31
0.0
  0
CIRCLE
  5
3D1
  8
SIZE
  6
CONTINUOUS
 62
    30
 10
330.0
 20
-350.0
 30
0.0
 40
5.0
  0
LINE
  5
3D2
  8
SIZE
  6
CONTINUOUS
 62
    30
 10
330.0
 20
-350.0
 30
0.0
 11
320.0
 21
-350.0
 31
0.0
  0
TEXT
  5
3D3
  8
SIZE
  6
CONTINUOUS
 62
    30
 10
-37.5
 20
-340.0
 30
0.0
 40
30.0
  1
660
 72
     1
 11
0.0
 21
-340.0
 31
0.0
  0
POINT
  5
3D4
  8
DEFPOINTS
  6
CONTINUOUS
 62
    30
 10
-330.0
 20
40.0
 30
0.0
  0
POINT
  5
3D5
  8
DEFPOINTS
  6
CONTINUOUS
 62
    30
 10
330.0
 20
40.0
 30
0.0
  0
POINT
  5
3D6
  8
DEFPOINTS
  6
CONTINUOUS
 62
    30
 10
330.0
 20
-350.0
 30
0.0
  0
LINE
  5
3D7
  8
SIZE
  6
CONTINUOUS
 62
    30
 10
222.300369
 20
0.0
 30
0.0
 11
394.112207
 21
0.0
 31
0.0
  0
LINE
  5
3D8
  8
SIZE
  6
CONTINUOUS
 62
    30
 10
310.728882
 20
100.0
 30
0.0
 11
394.112207
 21
100.0
 31
0.0
  0
LINE
  5
3D9
  8
SIZE
  6
CONTINUOUS
 62
    30
 10
381.612207
 20
10.0
 30
0.0
 11
381.612207
 21
90.0
 31
0.0
  0
CIRCLE
  5
3DA
  8
SIZE
  6
CONTINUOUS
 62
    30
 10
381.612207
 20
0.0
 30
0.0
 40
5.0
  0
LINE
  5
3DB
  8
SIZE
  6
CONTINUOUS
 62
    30
 10
381.612207
 20
0.0
 30
0.0
 11
381.612207
 21
10.0
 31
0.0
  0
CIRCLE
  5
3DC
  8
SIZE
  6
CONTINUOUS
 62
    30
 10
381.612207
 20
100.0
 30
0.0
 40
5.0
  0
LINE
  5
3DD
  8
SIZE
  6
CONTINUOUS
 62
    30
 10
381.612207
 20
100.0
 30
0.0
 11
381.612207
 21
90.0
 31
0.0
  0
TEXT
  5
3DE
  8
SIZE
  6
CONTINUOUS
 62
    30
 10
371.612207
 20
20.0
 30
0.0
 40
30.0
  1
100
 50
90.0
 72
     1
 11
371.612207
 21
50.0
 31
0.0
  0
POINT
  5
3DF
  8
DEFPOINTS
  6
CONTINUOUS
 62
    30
 10
212.300369
 20
0.0
 30
0.0
  0
POINT
  5
3E0
  8
DEFPOINTS
  6
CONTINUOUS
 62
    30
 10
300.728882
 20
100.0
 30
0.0
  0
POINT
  5
3E1
  8
DEFPOINTS
  6
CONTINUOUS
 62
    30
 10
381.612207
 20
100.0
 30
0.0
  0
LINE
  5
3E2
  8
SIZE
  6
CONTINUOUS
 62
    30
 10
-340.0
 20
1963.300049
 30
0.0
 11
-494.9
 21
1963.300049
 31
0.0
  0
LINE
  5
3E3
  8
SIZE
  6
CONTINUOUS
 62
    30
 10
-340.0
 20
2463.300049
 30
0.0
 11
-494.9
 21
2463.300049
 31
0.0
  0
LINE
  5
3E4
  8
SIZE
  6
CONTINUOUS
 62
    30
 10
-482.4
 20
1973.300049
 30
0.0
 11
-482.4
 21
2453.300049
 31
0.0
  0
CIRCLE
  5
3E5
  8
SIZE
  6
CONTINUOUS
 62
    30
 10
-482.4
 20
1963.300049
 30
0.0
 40
5.0
  0
LINE
  5
3E6
  8
SIZE
  6
CONTINUOUS
 62
    30
 10
-482.4
 20
1963.300049
 30
0.0
 11
-482.4
 21
1973.300049
 31
0.0
  0
CIRCLE
  5
3E7
  8
SIZE
  6
CONTINUOUS
 62
    30
 10
-482.4
 20
2463.300049
 30
0.0
 40
5.0
  0
LINE
  5
3E8
  8
SIZE
  6
CONTINUOUS
 62
    30
 10
-482.4
 20
2463.300049
 30
0.0
 11
-482.4
 21
2453.300049
 31
0.0
  0
TEXT
  5
3E9
  8
SIZE
  6
CONTINUOUS
 62
    30
 10
-492.4
 20
2181.065674
 30
0.0
 40
30.0
  1
500
 50
90.0
 72
     1
 11
-492.4
 21
2216.065674
 31
0.0
  0
POINT
  5
3EA
  8
DEFPOINTS
  6
CONTINUOUS
 62
    30
 10
-330.0
 20
1963.300049
 30
0.0
  0
POINT
  5
3EB
  8
DEFPOINTS
  6
CONTINUOUS
 62
    30
 10
-330.0
 20
2463.300049
 30
0.0
  0
POINT
  5
3EC
  8
DEFPOINTS
  6
CONTINUOUS
 62
    30
 10
-482.4
 20
2463.300049
 30
0.0
  0
LINE
  5
3ED
  8
SIZE
  6
CONTINUOUS
 62
    30
 10
1711.0
 20
2463.300049
 30
0.0
 11
1861.1
 21
2463.300049
 31
0.0
  0
LINE
  5
3EE
  8
SIZE
  6
CONTINUOUS
 62
    30
 10
1711.0
 20
0.0
 30
0.0
 11
1861.1
 21
0.0
 31
0.0
  0
LINE
  5
3EF
  8
SIZE
  6
CONTINUOUS
 62
    30
 10
1848.6
 20
2453.300049
 30
0.0
 11
1848.6
 21
10.0
 31
0.0
  0
CIRCLE
  5
3F0
  8
SIZE
  6
CONTINUOUS
 62
    30
 10
1848.6
 20
2463.300049
 30
0.0
 40
5.0
  0
LINE
  5
3F1
  8
SIZE
  6
CONTINUOUS
 62
    30
 10
1848.6
 20
2463.300049
 30
0.0
 11
1848.6
 21
2453.300049
 31
0.0
  0
CIRCLE
  5
3F2
  8
SIZE
  6
CONTINUOUS
 62
    30
 10
1848.6
 20
0.0
 30
0.0
 40
5.0
  0
LINE
  5
3F3
  8
SIZE
  6
CONTINUOUS
 62
    30
 10
1848.6
 20
0.0
 30
0.0
 11
1848.6
 21
10.0
 31
0.0
  0
TEXT
  5
3F4
  8
SIZE
  6
CONTINUOUS
 62
    30
 10
1838.6
 20
1176.650024
 30
0.0
 40
30.0
  1
2463
 50
90.0
 72
     1
 11
1838.6
 21
1231.650024
 31
0.0
  0
POINT
  5
3F5
  8
DEFPOINTS
  6
CONTINUOUS
 62
    30
 10
1701.0
 20
2463.300049
 30
0.0
  0
POINT
  5
3F6
  8
DEFPOINTS
  6
CONTINUOUS
 62
    30
 10
1701.0
 20
0.0
 30
0.0
  0
POINT
  5
3F7
  8
DEFPOINTS
  6
CONTINUOUS
 62
    30
 10
1848.6
 20
0.0
 30
0.0
  0
LINE
  5
3F8
  8
NOTE
  6
CONTINUOUS
 10
919.071594
 20
2210.234375
 30
0.0
 11
507.071594
 21
2210.234375
 31
0.0
  0
LINE
  5
3F9
  8
NOTE
  6
CONTINUOUS
 10
507.071594
 20
2210.234375
 30
0.0
 11
-0.851183
 21
2013.199951
 31
0.0
  0
LINE
  5
3FA
  8
NOTE
  6
CONTINUOUS
 10
-0.851183
 20
2013.199951
 30
0.0
 11
0.762689
 21
2014.381229
 31
0.0
  0
LINE
  5
3FB
  8
NOTE
  6
CONTINUOUS
 10
-0.851183
 20
2013.199951
 30
0.0
 11
1.13711
 21
2013.416032
 31
0.0
  0
TEXT
  5
3FC
  8
NOTE
  6
CONTINUOUS
 10
567.071594
 20
2211.234375
 30
0.0
 40
40.0
  1
HW R3/4(φ27.2)
 50
359.999996
 41
0.637681
  7
STANDARD1
  0
TEXT
  5
3FD
  8
NOTE
  6
CONTINUOUS
 10
-149.993515
 20
2558.092529
 30
0.0
 40
40.0
  1
メンテナンススペ－ス
 50
0.000003
 41
0.833333
  7
STANDARD1
  0
LINE
  5
3FE
  8
NOTE
  6
CONTINUOUS
 10
280.0
 20
23.0
 30
0.0
 11
240.0
 21
23.0
 31
0.0
  0
LINE
  5
3FF
  8
NOTE
  6
CONTINUOUS
 10
260.0
 20
3.0
 30
0.0
 11
260.0
 21
43.0
 31
0.0
  0
LINE
  5
400
  8
NOTE
  6
CONTINUOUS
 10
845.024597
 20
-251.010345
 30
0.0
 11
465.024597
 21
-251.010345
 31
0.0
  0
LINE
  5
401
  8
NOTE
  6
CONTINUOUS
 10
465.024597
 20
-251.010345
 30
0.0
 11
260.0
 21
23.0
 31
0.0
  0
LINE
  5
402
  8
NOTE
  6
CONTINUOUS
 10
260.0
 20
23.0
 30
0.0
 11
261.571826
 21
21.763325
 31
0.0
  0
LINE
  5
403
  8
NOTE
  6
CONTINUOUS
 10
260.0
 20
23.0
 30
0.0
 11
260.742904
 21
21.143096
 31
0.0
  0
TEXT
  5
404
  8
NOTE
  6
CONTINUOUS
 10
525.024597
 20
-250.010345
 30
0.0
 40
40.0
  1
缶体保護弁排水口
 50
0.000003
 41
0.833333
  7
STANDARD1
  0
LINE
  5
405
  8
NOTE
  6
CONTINUOUS
 10
-770.012329
 20
-182.899094
 30
0.0
 11
-518.012329
 21
-182.899094
 31
0.0
  0
LINE
  5
406
  8
NOTE
  6
CONTINUOUS
 10
-518.012329
 20
-182.899094
 30
0.0
 11
-352.0
 21
0.0
 31
0.0
  0
LINE
  5
407
  8
NOTE
  6
CONTINUOUS
 10
-352.0
 20
0.0
 30
0.0
 11
-352.9151
 21
-1.778368
 31
0.0
  0
LINE
  5
408
  8
NOTE
  6
CONTINUOUS
 10
-352.0
 20
0.0
 30
0.0
 11
-353.681684
 21
-1.082561
 31
0.0
  0
TEXT
  5
409
  8
NOTE
  6
CONTINUOUS
 10
-770.012329
 20
-181.899078
 30
0.0
 40
40.0
  1
AH 3-M12
 50
359.999996
 41
0.631579
  7
STANDARD1
  0
LINE
  5
40A
  8
NOTE
  6
CONTINUOUS
 10
-332.0
 20
0.0
 30
0.0
 11
-372.0
 21
0.0
 31
0.0
  0
LINE
  5
40B
  8
NOTE
  6
CONTINUOUS
 10
196.0
 20
0.0
 30
0.0
 11
156.0
 21
0.0
 31
0.0
  0
LINE
  5
40C
  8
NOTE
  6
CONTINUOUS
 10
176.0
 20
-20.0
 30
0.0
 11
176.0
 21
20.0
 31
0.0
  0
LINE
  5
40D
  8
NOTE
  6
CONTINUOUS
 10
303.436444
 20
100.0
 30
0.0
 11
263.436444
 21
100.0
 31
0.0
  0
LINE
  5
40E
  8
NOTE
  6
CONTINUOUS
 10
283.436444
 20
80.0
 30
0.0
 11
283.436444
 21
120.0
 31
0.0
  0
LINE
  5
40F
  8
NOTE
  6
CONTINUOUS
 10
930.871704
 20
-106.583984
 30
0.0
 11
422.871643
 21
-106.583984
 31
0.0
  0
LINE
  5
410
  8
NOTE
  6
CONTINUOUS
 10
422.871643
 20
-106.583984
 30
0.0
 11
283.436432
 21
100.0
 31
0.0
  0
LINE
  5
411
  8
NOTE
  6
CONTINUOUS
 10
283.436432
 20
100.0
 30
0.0
 11
284.946255
 21
98.688347
 31
0.0
  0
LINE
  5
412
  8
NOTE
  6
CONTINUOUS
 10
283.436432
 20
100.0
 30
0.0
 11
284.08815
 21
98.109163
 31
0.0
  0
TEXT
  5
413
  8
NOTE
  6
CONTINUOUS
 10
482.871643
 20
-105.583984
 30
0.0
 40
40.0
  1
CW(WD) R3/4(φ27.2)
 50
0.000003
 41
0.629214
  7
STANDARD1
  0
TEXT
  5
414
  8
NOTE
  6
CONTINUOUS
 10
1905.147583
 20
1079.970825
 30
0.0
 40
40.0
  1
メンテナンススペ－ス
 50
90.000005
 41
0.833333
  7
STANDARD1
  0
TEXT
  5
415
  8
NOTE
  6
CONTINUOUS
 10
-427.577179
 20
2031.034912
 30
0.0
 40
40.0
  1
メンテナンススペ－ス
 50
90.000005
 41
0.833333
  7
STANDARD1
  0
TEXT
  5
416
  8
NOTE
  6
CONTINUOUS
 10
847.902161
 20
2561.606201
 30
0.0
 40
40.0
  1
メンテナンススペ－ス
 50
0.000003
 41
0.833333
  7
STANDARD1
  0
LINE
  5
417
  8
NOTE
  6
CONTINUOUS
 10
0.0
 20
1993.2
 30
0.0
 11
0.0
 21
2033.2
 31
0.0
  0
LINE
  5
418
  8
NOTE
  6
CONTINUOUS
 10
20.0
 20
2013.2
 30
0.0
 11
-20.0
 21
2013.2
 31
0.0
  0
LINE
  5
419
  8
NOTE
  6
CONTINUOUS
 10
-352.0
 20
-20.0
 30
0.0
 11
-352.0
 21
20.0
 31
0.0
  0
CIRCLE
  5
41A
  8
ARRANGE
  6
CONTINUOUS
 10
0.0
 20
0.0
 30
0.0
 40
15.0
  0
CIRCLE
  5
41B
  8
FIX
  6
CONTINUOUS
 10
176.0
 20
0.0
 30
0.0
 40
6.0
  0
CIRCLE
  5
41C
  8
FIX
  6
CONTINUOUS
 10
-352.0
 20
0.0
 30
0.0
 40
6.0
  0
LINE
  5
41D
  8
SERVICESPACE
  6
DASHDOT
 10
401.0
 20
2463.3
 30
0.0
 11
1701.0
 21
0.0
 31
0.0
  0
LINE
  5
41E
  8
SERVICESPACE
  6
DASHDOT
 10
-330.0
 20
2463.3
 30
0.0
 11
401.0
 21
1963.3
 31
0.0
  0
LINE
  5
41F
  8
SERVICESPACE
  6
DASHDOT
 10
401.0
 20
2463.3
 30
0.0
 11
-330.0
 21
1963.3
 31
0.0
  0
LINE
  5
420
  8
SERVICESPACE
  6
DASHDOT
 10
1701.0
 20
2463.3
 30
0.0
 11
401.0
 21
0.0
 31
0.0
  0
LINE
  5
421
  8
SERVICESPACE
  6
DASHDOT
 10
401.0
 20
2463.3
 30
0.0
 11
401.0
 21
0.0
 31
0.0
  0
LINE
  5
422
  8
SERVICESPACE
  6
DASHDOT
 10
401.0
 20
1963.3
 30
0.0
 11
-330.0
 21
1963.3
 31
0.0
  0
LINE
  5
423
  8
SERVICESPACE
  6
DASHDOT
 10
-330.0
 20
1963.3
 30
0.0
 11
-330.0
 21
2463.3
 31
0.0
  0
LINE
  5
424
  8
SERVICESPACE
  6
DASHDOT
 10
1701.0
 20
2463.3
 30
0.0
 11
-330.0
 21
2463.3
 31
0.0
  0
LINE
  5
425
  8
SERVICESPACE
  6
DASHDOT
 10
1701.0
 20
0.0
 30
0.0
 11
1701.0
 21
2463.3
 31
0.0
  0
LINE
  5
426
  8
SERVICESPACE
  6
DASHDOT
 10
401.0
 20
0.0
 30
0.0
 11
1701.0
 21
0.0
 31
0.0
  0
TEXT
  5
427
  8
ETC
  6
CONTINUOUS
 10
1075.065063
 20
2285.943359
 30
0.0
 40
40.0
  1
TG4656L5
 50
0.000003
 41
0.6
  7
STANDARD1
  0
TEXT
  5
428
  8
ETC
  6
CONTINUOUS
 10
1075.065063
 20
2215.943359
 30
0.0
 40
40.0
  1
電気温水器
 50
0.000003
 41
0.833333
  7
STANDARD1
  0
ENDSEC
  0
EOF
