  0
SECTION
  2
HEADER
  9
$ACADVER
  1
AC1009
  9
$INSBASE
 10
0.0
 20
0.0
 30
0.0
  9
$EXTMIN
 10
-602.4
 20
-463.595276
 30
0.0
  9
$EXTMAX
 10
894.648559
 20
2417.700049
 30
0.0
  9
$LIMMIN
 10
0.0
 20
0.0
  9
$LIMMAX
 10
12.0
 20
9.0
  9
$ORTHOMODE
 70
     0
  9
$REGENMODE
 70
     1
  9
$FILLMODE
 70
     1
  9
$QTEXTMODE
 70
     0
  9
$MIRRTEXT
 70
     1
  9
$DRAGMODE
 70
     2
  9
$LTSCALE
 40
1.0
  9
$OSMODE
 70
     0
  9
$ATTMODE
 70
     1
  9
$TEXTSIZE
 40
40.0
  9
$TRACEWID
 40
0.05
  9
$TEXTSTYLE
  7
STANDARD1
  9
$CLAYER
  8
0
  9
$CELTYPE
  6
CONTINUOUS
  9
$CECOLOR
 62
   256
  9
$DIMSCALE
 40
1.0
  9
$DIMASZ
 40
10.0
  9
$DIMEXO
 40
10.0
  9
$DIMDLI
 40
8.0
  9
$DIMRND
 40
0.0
  9
$DIMDLE
 40
0.0
  9
$DIMEXE
 40
12.5
  9
$DIMTP
 40
0.0
  9
$DIMTM
 40
0.0
  9
$DIMTXT
 40
30.0
  9
$DIMCEN
 40
2.5
  9
$DIMTSZ
 40
0.0
  9
$DIMTOL
 70
     0
  9
$DIMLIM
 70
     0
  9
$DIMTIH
 70
     0
  9
$DIMTOH
 70
     0
  9
$DIMSE1
 70
     0
  9
$DIMSE2
 70
     0
  9
$DIMTAD
 70
     3
  9
$DIMZIN
 70
    12
  9
$DIMBLK
  1

  9
$DIMASO
 70
     1
  9
$DIMSHO
 70
     1
  9
$DIMPOST
  1

  9
$DIMAPOST
  1

  9
$DIMALT
 70
     0
  9
$DIMALTD
 70
     4
  9
$DIMALTF
 40
25.4
  9
$DIMLFAC
 40
1.0
  9
$DIMTOFL
 70
     1
  9
$DIMTVP
 40
0.0
  9
$DIMTIX
 70
     0
  9
$DIMSOXD
 70
     0
  9
$DIMSAH
 70
     1
  9
$DIMBLK1
  1
_ORIGIN
  9
$DIMBLK2
  1
_ORIGIN
  9
$DIMSTYLE
  2
STANDARD
  9
$DIMCLRD
 70
     0
  9
$DIMCLRE
 70
     0
  9
$DIMCLRT
 70
     0
  9
$DIMTFAC
 40
1.0
  9
$DIMGAP
 40
0.09
  9
$LUNITS
 70
     2
  9
$LUPREC
 70
     3
  9
$SKETCHINC
 40
0.1
  9
$FILLETRAD
 40
0.0
  9
$AUNITS
 70
     0
  9
$AUPREC
 70
     0
  9
$MENU
  1
acad
  9
$ELEVATION
 40
0.0
  9
$PELEVATION
 40
0.0
  9
$THICKNESS
 40
0.0
  9
$LIMCHECK
 70
     0
  9
$BLIPMODE
 70
     0
  9
$CHAMFERA
 40
0.0
  9
$CHAMFERB
 40
0.0
  9
$SKPOLY
 70
     0
  9
$TDCREATE
 40
2451878.920116
  9
$TDUPDATE
 40
2451878.920116
  9
$TDINDWG
 40
0.0
  9
$TDUSRTIMER
 40
0.0
  9
$USRTIMER
 70
     1
  9
$ANGBASE
 50
0.0
  9
$ANGDIR
 70
     0
  9
$PDMODE
 70
     0
  9
$PDSIZE
 40
0.0
  9
$PLINEWID
 40
0.0
  9
$COORDS
 70
     1
  9
$SPLFRAME
 70
     0
  9
$SPLINETYPE
 70
     6
  9
$SPLINESEGS
 70
     8
  9
$ATTDIA
 70
     0
  9
$ATTREQ
 70
     1
  9
$HANDLING
 70
     1
  9
$HANDSEED
  5
372
  9
$SURFTAB1
 70
     6
  9
$SURFTAB2
 70
     6
  9
$SURFTYPE
 70
     6
  9
$SURFU
 70
     6
  9
$SURFV
 70
     6
  9
$UCSNAME
  2

  9
$UCSORG
 10
0.0
 20
0.0
 30
0.0
  9
$UCSXDIR
 10
1.0
 20
0.0
 30
0.0
  9
$UCSYDIR
 10
0.0
 20
1.0
 30
0.0
  9
$PUCSNAME
  2

  9
$PUCSORG
 10
0.0
 20
0.0
 30
0.0
  9
$PUCSXDIR
 10
1.0
 20
0.0
 30
0.0
  9
$PUCSYDIR
 10
0.0
 20
1.0
 30
0.0
  9
$USERI1
 70
     0
  9
$USERI2
 70
     0
  9
$USERI3
 70
     0
  9
$USERI4
 70
     0
  9
$USERI5
 70
     0
  9
$USERR1
 40
0.0
  9
$USERR2
 40
0.0
  9
$USERR3
 40
0.0
  9
$USERR4
 40
0.0
  9
$USERR5
 40
0.0
  9
$WORLDVIEW
 70
     1
  9
$SHADEDGE
 70
     3
  9
$SHADEDIF
 70
    70
  9
$TILEMODE
 70
     1
  9
$MAXACTVP
 70
    48
  9
$PLIMCHECK
 70
     0
  9
$PEXTMIN
 10
1.000000E+020
 20
1.000000E+020
 30
1.000000E+020
  9
$PEXTMAX
 10
-1.000000E+020
 20
-1.000000E+020
 30
-1.000000E+020
  9
$PLIMMIN
 10
0.0
 20
0.0
  9
$PLIMMAX
 10
12.0
 20
9.0
  9
$UNITMODE
 70
     0
  9
$VISRETAIN
 70
     1
  9
$PLINEGEN
 70
     0
  9
$PSLTSCALE
 70
     1
  0
ENDSEC
  0
SECTION
  2
TABLES
  0
TABLE
  2
VPORT
 70
     2
  0
VPORT
  2
*ACTIVE
 70
     0
 10
0.0
 20
0.0
 11
1.0
 21
1.0
 12
146.12428
 22
977.052387
 13
0.0
 23
0.0
 14
1.0
 24
1.0
 15
0.0
 25
0.0
 16
0.0
 26
0.0
 36
1.0
 17
0.0
 27
0.0
 37
0.0
 40
2936.351924
 41
2.827476
 42
50.0
 43
0.0
 44
0.0
 50
0.0
 51
0.0
 71
     0
 72
   100
 73
     1
 74
     1
 75
     0
 76
     0
 77
     0
 78
     0
  0
ENDTAB
  0
TABLE
  2
LTYPE
 70
     4
  0
LTYPE
  2
CONTINUOUS
 70
     0
  3
Solid line
 72
    65
 73
     0
 40
0.0
  0
LTYPE
  2
DASHED
 70
     0
  3
-- -- -- -- -- -- -- -- -- -- -- -- -- -- --
 72
    65
 73
     2
 40
0.75
 49
0.5
 49
-0.25
  0
LTYPE
  2
DASHDOT
 70
     0
  3
__ . __ . __ . __ . __ . __ . __ . __ . __ . __
 72
    65
 73
     4
 40
125.0
 49
80.0
 49
-20.0
 49
5.0
 49
-20.0
  0
LTYPE
  2
DIVIDE
 70
     0
  3
__ . . __ . . __ . . __ . . __ . . __ . . __
 72
    65
 73
     6
 40
1.25
 49
0.5
 49
-0.25
 49
0.0
 49
-0.25
 49
0.0
 49
-0.25
  0
ENDTAB
  0
TABLE
  2
LAYER
 70
    12
  0
LAYER
  2
0
 70
     0
 62
     3
  6
CONTINUOUS
  0
LAYER
  2
OUTLINE
 70
     0
 62
     3
  6
CONTINUOUS
  0
LAYER
  2
DETAIL
 70
     0
 62
     5
  6
CONTINUOUS
  0
LAYER
  2
BASIS
 70
     0
 62
     6
  6
CONTINUOUS
  0
LAYER
  2
SIZE
 70
     0
 62
    30
  6
CONTINUOUS
  0
LAYER
  2
NOTE
 70
     0
 62
     4
  6
CONTINUOUS
  0
LAYER
  2
ARRANGE
 70
     0
 62
     1
  6
CONTINUOUS
  0
LAYER
  2
FIX
 70
     0
 62
    11
  6
CONTINUOUS
  0
LAYER
  2
SERVICESPACE
 70
     0
 62
     2
  6
CONTINUOUS
  0
LAYER
  2
ETC
 70
     0
 62
    61
  6
CONTINUOUS
  0
LAYER
  2
SYMBOLLINE
 70
     0
 62
     7
  6
CONTINUOUS
  0
LAYER
  2
DEFPOINTS
 70
     0
 62
     7
  6
CONTINUOUS
  0
ENDTAB
  0
TABLE
  2
STYLE
 70
     5
  0
STYLE
  2
STANDARD
 70
     0
 40
0.0
 41
1.0
 50
0.0
 71
     0
 42
0.2
  3
txt
  4

  0
STYLE
  2
STANDARD1
 70
     0
 40
0.0
 41
1.0
 50
0.0
 71
     0
 42
40.0
  3
MONOTXT
  4
BIGFONT
  0
STYLE
  2
STANDARD2
 70
     4
 40
0.0
 41
1.0
 50
0.0
 71
     0
 42
40.0
  3
MONOTXT
  4
BIGFONT
  0
STYLE
  2
STANDARD3
 70
     0
 40
0.0
 41
1.0
 50
0.0
 71
     0
 42
40.0
  3
MONOTXT
  4

  0
STYLE
  2
STANDARD4
 70
     4
 40
0.0
 41
1.0
 50
0.0
 71
     0
 42
40.0
  3
MONOTXT
  4

  0
ENDTAB
  0
TABLE
  2
VIEW
 70
     0
  0
ENDTAB
  0
TABLE
  2
UCS
 70
     0
  0
ENDTAB
  0
TABLE
  2
APPID
 70
     1
  0
APPID
  2
ACAD
 70
     0
  0
ENDTAB
  0
TABLE
  2
DIMSTYLE
 70
     1
  0
DIMSTYLE
  2
STANDARD
 70
     0
  3

  4

  5

  6

  7

 40
1.0
 41
0.18
 42
0.0625
 43
0.38
 44
0.18
 45
0.0
 46
0.0
 47
0.0
 48
0.0
140
0.18
141
0.09
142
0.0
143
25.4
144
1.0
145
0.0
146
1.0
147
0.09
 71
     0
 72
     0
 73
     1
 74
     1
 75
     0
 76
     0
 77
     0
 78
     0
170
     0
171
     2
172
     0
173
     0
174
     0
175
     0
176
     0
177
     0
178
     0
  0
ENDTAB
  0
ENDSEC
  0
SECTION
  2
BLOCKS
  0
BLOCK
  8
0
  2
$MODEL_SPACE
 70
     0
 10
0.0
 20
0.0
 30
0.0
  3
$MODEL_SPACE
  1

  0
ENDBLK
  5
1A
  8
0
  0
BLOCK
 67
     1
  8
0
  2
$PAPER_SPACE
 70
     0
 10
0.0
 20
0.0
 30
0.0
  3
$PAPER_SPACE
  1

  0
ENDBLK
  5
17
 67
     1
  8
0
  0
BLOCK
  8
SIZE
  2
*D0
 70
     1
 10
0.0
 20
0.0
 30
0.0
  3
*D0
  1

  0
TEXT
  5
35
  8
SIZE
  6
CONTINUOUS
 10
1.24319
 20
-350.095282
 30
0.0
 40
2.8
  1
662
 50
0.000003
 41
0.7
  7
STANDARD1
  0
LINE
  5
36
  8
SIZE
  6
CONTINUOUS
 10
330.821716
 20
-21.0
 30
0.0
 11
330.821716
 21
-353.095276
 31
0.0
  0
LINE
  5
37
  8
SIZE
  6
CONTINUOUS
 10
-330.821716
 20
-21.0
 30
0.0
 11
-330.821716
 21
-353.095276
 31
0.0
  0
LINE
  5
38
  8
SIZE
  6
CONTINUOUS
 10
330.821716
 20
-351.095276
 30
0.0
 11
-330.821716
 21
-351.095276
 31
0.0
  0
INSERT
  5
3A
  8
SIZE
  2
DOT
 10
330.821716
 20
-351.095276
 30
0.0
  0
INSERT
  5
3B
  8
SIZE
  2
DOT
 10
-330.821716
 20
-351.095276
 30
0.0
 50
180.0
  0
POINT
  5
3C
  8
DEFPOINTS
  6
BYBLOCK
 10
-330.821716
 20
-20.0
 30
0.0
  0
POINT
  5
3D
  8
DEFPOINTS
  6
BYBLOCK
 10
330.821716
 20
-20.0
 30
0.0
  0
POINT
  5
3E
  8
DEFPOINTS
  6
BYBLOCK
 10
330.821716
 20
-351.095276
 30
0.0
  0
ENDBLK
  5
3F
  8
SIZE
  0
BLOCK
  8
SIZE
  2
DOT
 70
     0
 10
0.0
 20
0.0
 30
0.0
  3
DOT
  1

  0
POLYLINE
  5
41
  8
0
  6
BYBLOCK
 66
     1
 10
0.0
 20
0.0
 30
0.0
 70
     1
 40
0.5
 41
0.5
  0
VERTEX
  5
42
  8
0
  6
BYBLOCK
 10
-0.25
 20
0.0
 30
0.0
 42
1.0
  0
VERTEX
  5
43
  8
0
  6
BYBLOCK
 10
0.25
 20
0.0
 30
0.0
 42
1.0
  0
SEQEND
  5
44
  8
0
  6
BYBLOCK
  0
LINE
  5
45
  8
0
  6
BYBLOCK
 10
-0.5
 20
0.0
 30
0.0
 11
-1.0
 21
0.0
 31
0.0
  0
ENDBLK
  5
46
  8
SIZE
  0
BLOCK
  8
SIZE
  2
*D2
 70
     1
 10
0.0
 20
0.0
 30
0.0
  3
*D2
  1

  0
TEXT
  5
49
  8
SIZE
  6
CONTINUOUS
 10
-2.94
 20
-150.095282
 30
0.0
 40
2.8
  1
160
 50
0.000003
 41
0.7
  7
STANDARD1
  0
LINE
  5
4A
  8
SIZE
  6
CONTINUOUS
 10
-80.0
 20
-21.0
 30
0.0
 11
-80.0
 21
-153.095276
 31
0.0
  0
LINE
  5
4B
  8
SIZE
  6
CONTINUOUS
 10
80.0
 20
-21.0
 30
0.0
 11
80.0
 21
-153.095276
 31
0.0
  0
LINE
  5
4C
  8
SIZE
  6
CONTINUOUS
 10
-80.0
 20
-151.095276
 30
0.0
 11
80.0
 21
-151.095276
 31
0.0
  0
INSERT
  5
4D
  8
SIZE
  2
DOT
 10
-80.0
 20
-151.095276
 30
0.0
 50
180.0
  0
INSERT
  5
4E
  8
SIZE
  2
DOT
 10
80.0
 20
-151.095276
 30
0.0
  0
POINT
  5
4F
  8
DEFPOINTS
  6
BYBLOCK
 10
80.0
 20
-20.0
 30
0.0
  0
POINT
  5
50
  8
DEFPOINTS
  6
BYBLOCK
 10
-80.0
 20
-20.0
 30
0.0
  0
POINT
  5
51
  8
DEFPOINTS
  6
BYBLOCK
 10
-80.0
 20
-151.095276
 30
0.0
  0
ENDBLK
  5
52
  8
SIZE
  0
BLOCK
  8
SIZE
  2
*D3
 70
     1
 10
0.0
 20
0.0
 30
0.0
  3
*D3
  1

  0
TEXT
  5
55
  8
SIZE
  6
CONTINUOUS
 10
-166.167688
 20
-59.60022
 30
0.0
 40
2.8
  1
25
 50
90.000005
 41
0.7
  7
STANDARD1
  0
LINE
  5
56
  8
SIZE
  6
CONTINUOUS
 10
-101.0
 20
0.0
 30
0.0
 11
-167.167694
 21
0.0
 31
0.0
  0
LINE
  5
57
  8
SIZE
  6
CONTINUOUS
 10
-47.799999
 20
25.1
 30
0.0
 11
-167.167694
 21
25.1
 31
0.0
  0
LINE
  5
58
  8
SIZE
  6
CONTINUOUS
 10
-165.167694
 20
-61.000221
 30
0.0
 11
-165.167694
 21
30.1
 31
0.0
  0
INSERT
  5
59
  8
SIZE
  2
DOT
 10
-165.167694
 20
0.0
 30
0.0
 50
270.0
  0
INSERT
  5
5A
  8
SIZE
  2
DOT
 10
-165.167694
 20
25.1
 30
0.0
 50
90.0
  0
POINT
  5
5B
  8
DEFPOINTS
  6
BYBLOCK
 10
-46.799999
 20
25.1
 30
0.0
  0
POINT
  5
5C
  8
DEFPOINTS
  6
BYBLOCK
 10
-100.0
 20
0.0
 30
0.0
  0
POINT
  5
5D
  8
DEFPOINTS
  6
BYBLOCK
 10
-165.167694
 20
0.0
 30
0.0
  0
ENDBLK
  5
5E
  8
SIZE
  0
BLOCK
  8
SIZE
  2
*D4
 70
     1
 10
0.0
 20
0.0
 30
0.0
  3
*D4
  1

  0
TEXT
  5
61
  8
SIZE
  6
CONTINUOUS
 10
-4.162216
 20
-250.095282
 30
0.0
 40
2.8
  1
195
 50
0.000003
 41
0.7
  7
STANDARD1
  0
LINE
  5
62
  8
SIZE
  6
CONTINUOUS
 10
97.5
 20
-1.0
 30
0.0
 11
97.5
 21
-253.095276
 31
0.0
  0
LINE
  5
63
  8
SIZE
  6
CONTINUOUS
 10
-97.5
 20
-1.0
 30
0.0
 11
-97.5
 21
-253.095276
 31
0.0
  0
LINE
  5
64
  8
SIZE
  6
CONTINUOUS
 10
97.5
 20
-251.095276
 30
0.0
 11
-97.5
 21
-251.095276
 31
0.0
  0
INSERT
  5
65
  8
SIZE
  2
DOT
 10
97.5
 20
-251.095276
 30
0.0
  0
INSERT
  5
66
  8
SIZE
  2
DOT
 10
-97.5
 20
-251.095276
 30
0.0
 50
180.0
  0
POINT
  5
67
  8
DEFPOINTS
  6
BYBLOCK
 10
-97.5
 20
0.0
 30
0.0
  0
POINT
  5
68
  8
DEFPOINTS
  6
BYBLOCK
 10
97.5
 20
0.0
 30
0.0
  0
POINT
  5
69
  8
DEFPOINTS
  6
BYBLOCK
 10
97.5
 20
-251.095276
 30
0.0
  0
ENDBLK
  5
6A
  8
SIZE
  0
BLOCK
  8
SIZE
  2
*D5
 70
     1
 10
0.0
 20
0.0
 30
0.0
  3
*D5
  1

  0
TEXT
  5
6D
  8
SIZE
  6
CONTINUOUS
 10
508.570044
 20
1841.363403
 30
0.0
 40
2.8
  1
35
 50
90.000005
 41
0.7
  7
STANDARD1
  0
LINE
  5
6E
  8
SIZE
  6
CONTINUOUS
 10
51.000336
 20
1775.300049
 30
0.0
 11
511.570038
 21
1775.300049
 31
0.0
  0
LINE
  5
6F
  8
SIZE
  6
CONTINUOUS
 10
162.21701
 20
1810.307129
 30
0.0
 11
511.570038
 21
1810.307129
 31
0.0
  0
LINE
  5
70
  8
SIZE
  6
CONTINUOUS
 10
509.570038
 20
1770.300049
 30
0.0
 11
509.570038
 21
1846.68335
 31
0.0
  0
INSERT
  5
71
  8
SIZE
  2
DOT
 10
509.570038
 20
1775.300049
 30
0.0
 50
270.0
  0
INSERT
  5
72
  8
SIZE
  2
DOT
 10
509.570038
 20
1810.307129
 30
0.0
 50
90.0
  0
POINT
  5
73
  8
DEFPOINTS
  6
BYBLOCK
 10
161.21701
 20
1810.307129
 30
0.0
  0
POINT
  5
74
  8
DEFPOINTS
  6
BYBLOCK
 10
50.000336
 20
1775.300049
 30
0.0
  0
POINT
  5
75
  8
DEFPOINTS
  6
BYBLOCK
 10
509.570038
 20
1775.300049
 30
0.0
  0
ENDBLK
  5
76
  8
SIZE
  0
BLOCK
  8
SIZE
  2
*D6
 70
     1
 10
0.0
 20
0.0
 30
0.0
  3
*D6
  1

  0
TEXT
  5
79
  8
SIZE
  6
CONTINUOUS
 10
-460.999994
 20
1704.247925
 30
0.0
 40
2.8
  1
15
 50
90.000005
 41
0.7
  7
STANDARD1
  0
LINE
  5
7A
  8
SIZE
  6
CONTINUOUS
 10
-51.000336
 20
1775.300049
 30
0.0
 11
-462.0
 21
1775.300049
 31
0.0
  0
LINE
  5
7B
  8
SIZE
  6
CONTINUOUS
 10
-86.0
 20
1790.300049
 30
0.0
 11
-462.0
 21
1790.300049
 31
0.0
  0
LINE
  5
7C
  8
SIZE
  6
CONTINUOUS
 10
-460.0
 20
1702.8479
 30
0.0
 11
-460.0
 21
1795.300049
 31
0.0
  0
INSERT
  5
7D
  8
SIZE
  2
DOT
 10
-460.0
 20
1775.300049
 30
0.0
 50
270.0
  0
INSERT
  5
7E
  8
SIZE
  2
DOT
 10
-460.0
 20
1790.300049
 30
0.0
 50
90.0
  0
POINT
  5
7F
  8
DEFPOINTS
  6
BYBLOCK
 10
-85.0
 20
1790.300049
 30
0.0
  0
POINT
  5
80
  8
DEFPOINTS
  6
BYBLOCK
 10
-50.000336
 20
1775.300049
 30
0.0
  0
POINT
  5
81
  8
DEFPOINTS
  6
BYBLOCK
 10
-460.0
 20
1775.300049
 30
0.0
  0
ENDBLK
  5
82
  8
SIZE
  0
BLOCK
  8
SIZE
  2
*D7
 70
     1
 10
0.0
 20
0.0
 30
0.0
  3
*D7
  1

  0
TEXT
  5
85
  8
SIZE
  6
CONTINUOUS
 10
-460.999994
 20
1845.782227
 30
0.0
 40
2.8
  1
18
 50
90.000005
 41
0.7
  7
STANDARD1
  0
LINE
  5
86
  8
SIZE
  6
CONTINUOUS
 10
-86.0
 20
1790.300049
 30
0.0
 11
-462.0
 21
1790.300049
 31
0.0
  0
LINE
  5
87
  8
SIZE
  6
CONTINUOUS
 10
-56.204582
 20
1808.300049
 30
0.0
 11
-462.0
 21
1808.300049
 31
0.0
  0
LINE
  5
88
  8
SIZE
  6
CONTINUOUS
 10
-460.0
 20
1785.300049
 30
0.0
 11
-460.0
 21
1851.102173
 31
0.0
  0
INSERT
  5
89
  8
SIZE
  2
DOT
 10
-460.0
 20
1790.300049
 30
0.0
 50
270.0
  0
INSERT
  5
8A
  8
SIZE
  2
DOT
 10
-460.0
 20
1808.300049
 30
0.0
 50
90.0
  0
POINT
  5
8B
  8
DEFPOINTS
  6
BYBLOCK
 10
-55.204582
 20
1808.300049
 30
0.0
  0
POINT
  5
8C
  8
DEFPOINTS
  6
BYBLOCK
 10
-85.0
 20
1790.300049
 30
0.0
  0
POINT
  5
8D
  8
DEFPOINTS
  6
BYBLOCK
 10
-460.0
 20
1790.300049
 30
0.0
  0
ENDBLK
  5
8E
  8
SIZE
  0
BLOCK
  8
SIZE
  2
*D8
 70
     1
 10
0.0
 20
0.0
 30
0.0
  3
*D8
  1

  0
TEXT
  5
91
  8
SIZE
  6
CONTINUOUS
 10
609.126868
 20
72.059998
 30
0.0
 40
2.8
  1
150
 50
90.000005
 41
0.7
  7
STANDARD1
  0
LINE
  5
92
  8
SIZE
  6
CONTINUOUS
 10
361.0
 20
150.0
 30
0.0
 11
612.126892
 21
150.0
 31
0.0
  0
LINE
  5
93
  8
SIZE
  6
CONTINUOUS
 10
359.351593
 20
0.0
 30
0.0
 11
612.126892
 21
0.0
 31
0.0
  0
LINE
  5
94
  8
SIZE
  6
CONTINUOUS
 10
610.126892
 20
150.0
 30
0.0
 11
610.126892
 21
0.0
 31
0.0
  0
INSERT
  5
95
  8
SIZE
  2
DOT
 10
610.126892
 20
150.0
 30
0.0
 50
90.0
  0
INSERT
  5
96
  8
SIZE
  2
DOT
 10
610.126892
 20
0.0
 30
0.0
 50
270.0
  0
POINT
  5
97
  8
DEFPOINTS
  6
BYBLOCK
 10
358.351593
 20
0.0
 30
0.0
  0
POINT
  5
98
  8
DEFPOINTS
  6
BYBLOCK
 10
360.0
 20
150.0
 30
0.0
  0
POINT
  5
99
  8
DEFPOINTS
  6
BYBLOCK
 10
610.126892
 20
150.0
 30
0.0
  0
ENDBLK
  5
9A
  8
SIZE
  0
BLOCK
  8
SIZE
  2
*D9
 70
     1
 10
0.0
 20
0.0
 30
0.0
  3
*D9
  1

  0
TEXT
  5
9D
  8
SIZE
  6
CONTINUOUS
 10
607.493445
 20
1798.20459
 30
0.0
 40
2.8
  1
50
 50
90.000005
 41
0.7
  7
STANDARD1
  0
LINE
  5
9E
  8
SIZE
  6
CONTINUOUS
 10
51.000336
 20
1775.300049
 30
0.0
 11
610.493469
 21
1775.300049
 31
0.0
  0
LINE
  5
9F
  8
SIZE
  6
CONTINUOUS
 10
13.112693
 20
1825.199951
 30
0.0
 11
610.493469
 21
1825.199951
 31
0.0
  0
LINE
  5
A0
  8
SIZE
  6
CONTINUOUS
 10
608.493469
 20
1775.300049
 30
0.0
 11
608.493469
 21
1825.199951
 31
0.0
  0
INSERT
  5
A1
  8
SIZE
  2
DOT
 10
608.493469
 20
1775.300049
 30
0.0
 50
270.0
  0
INSERT
  5
A2
  8
SIZE
  2
DOT
 10
608.493469
 20
1825.199951
 30
0.0
 50
90.0
  0
POINT
  5
A3
  8
DEFPOINTS
  6
BYBLOCK
 10
12.112693
 20
1825.199951
 30
0.0
  0
POINT
  5
A4
  8
DEFPOINTS
  6
BYBLOCK
 10
50.000336
 20
1775.300049
 30
0.0
  0
POINT
  5
A5
  8
DEFPOINTS
  6
BYBLOCK
 10
608.493469
 20
1775.300049
 30
0.0
  0
ENDBLK
  5
A6
  8
SIZE
  0
BLOCK
  8
SIZE
  2
*D10
 70
     1
 10
0.0
 20
0.0
 30
0.0
  3
*D10
  1

  0
TEXT
  5
A9
  8
SIZE
  6
CONTINUOUS
 10
608.570044
 20
958.730042
 30
0.0
 40
2.8
  1
1625
 50
90.000005
 41
0.7
  7
STANDARD1
  0
LINE
  5
AA
  8
SIZE
  6
CONTINUOUS
 10
51.000336
 20
1775.300049
 30
0.0
 11
611.570068
 21
1775.300049
 31
0.0
  0
LINE
  5
AB
  8
SIZE
  6
CONTINUOUS
 10
361.0
 20
150.0
 30
0.0
 11
611.570068
 21
150.0
 31
0.0
  0
LINE
  5
AC
  8
SIZE
  6
CONTINUOUS
 10
609.570068
 20
1775.300049
 30
0.0
 11
609.570068
 21
150.0
 31
0.0
  0
INSERT
  5
AD
  8
SIZE
  2
DOT
 10
609.570068
 20
1775.300049
 30
0.0
 50
90.0
  0
INSERT
  5
AE
  8
SIZE
  2
DOT
 10
609.570068
 20
150.0
 30
0.0
 50
270.0
  0
POINT
  5
AF
  8
DEFPOINTS
  6
BYBLOCK
 10
360.0
 20
150.0
 30
0.0
  0
POINT
  5
B0
  8
DEFPOINTS
  6
BYBLOCK
 10
50.000336
 20
1775.300049
 30
0.0
  0
POINT
  5
B1
  8
DEFPOINTS
  6
BYBLOCK
 10
609.570068
 20
1775.300049
 30
0.0
  0
ENDBLK
  5
B2
  8
SIZE
  0
BLOCK
  8
SIZE
  2
*D11
 70
     1
 10
0.0
 20
0.0
 30
0.0
  3
*D11
  1

  0
TEXT
  5
B5
  8
SIZE
  6
CONTINUOUS
 10
708.570044
 20
959.217774
 30
0.0
 40
2.8
  1
1825
 50
90.000005
 41
0.7
  7
STANDARD1
  0
LINE
  5
B6
  8
SIZE
  6
CONTINUOUS
 10
359.351593
 20
0.0
 30
0.0
 11
711.570068
 21
0.0
 31
0.0
  0
LINE
  5
B7
  8
SIZE
  6
CONTINUOUS
 10
13.112693
 20
1825.199951
 30
0.0
 11
711.570068
 21
1825.199951
 31
0.0
  0
LINE
  5
B8
  8
SIZE
  6
CONTINUOUS
 10
709.570068
 20
0.0
 30
0.0
 11
709.570068
 21
1825.199951
 31
0.0
  0
INSERT
  5
B9
  8
SIZE
  2
DOT
 10
709.570068
 20
0.0
 30
0.0
 50
270.0
  0
INSERT
  5
BA
  8
SIZE
  2
DOT
 10
709.570068
 20
1825.199951
 30
0.0
 50
90.0
  0
POINT
  5
BB
  8
DEFPOINTS
  6
BYBLOCK
 10
12.112693
 20
1825.199951
 30
0.0
  0
POINT
  5
BC
  8
DEFPOINTS
  6
BYBLOCK
 10
358.351593
 20
0.0
 30
0.0
  0
POINT
  5
BD
  8
DEFPOINTS
  6
BYBLOCK
 10
709.570068
 20
0.0
 30
0.0
  0
ENDBLK
  5
BE
  8
SIZE
  0
BLOCK
  8
SIZE
  2
*D12
 70
     1
 10
0.0
 20
0.0
 30
0.0
  3
*D12
  1

  0
TEXT
  5
C1
  8
SIZE
  6
CONTINUOUS
 10
-561.000024
 20
2022.360108
 30
0.0
 40
2.8
  1
500
 50
90.000005
 41
0.7
  7
STANDARD1
  0
LINE
  5
C2
  8
SIZE
  6
CONTINUOUS
 10
-361.0
 20
1775.300049
 30
0.0
 11
-562.0
 21
1775.300049
 31
0.0
  0
LINE
  5
C3
  8
SIZE
  6
CONTINUOUS
 10
-361.0
 20
2275.300049
 30
0.0
 11
-562.0
 21
2275.300049
 31
0.0
  0
LINE
  5
C4
  8
SIZE
  6
CONTINUOUS
 10
-560.0
 20
1775.300049
 30
0.0
 11
-560.0
 21
2275.300049
 31
0.0
  0
INSERT
  5
C5
  8
SIZE
  2
DOT
 10
-560.0
 20
1775.300049
 30
0.0
 50
270.0
  0
INSERT
  5
C6
  8
SIZE
  2
DOT
 10
-560.0
 20
2275.300049
 30
0.0
 50
90.0
  0
POINT
  5
C7
  8
DEFPOINTS
  6
BYBLOCK
 10
-360.0
 20
2275.300049
 30
0.0
  0
POINT
  5
C8
  8
DEFPOINTS
  6
BYBLOCK
 10
-360.0
 20
1775.300049
 30
0.0
  0
POINT
  5
C9
  8
DEFPOINTS
  6
BYBLOCK
 10
-560.0
 20
1775.300049
 30
0.0
  0
ENDBLK
  5
CA
  8
SIZE
  0
BLOCK
  8
SIZE
  2
*D13
 70
     1
 10
0.0
 20
0.0
 30
0.0
  3
*D13
  1

  0
TEXT
  5
CD
  8
SIZE
  6
CONTINUOUS
 10
-2.94
 20
2376.299951
 30
0.0
 40
2.8
  1
720
 50
0.000003
 41
0.7
  7
STANDARD1
  0
LINE
  5
CE
  8
SIZE
  6
CONTINUOUS
 10
360.0
 20
2276.300049
 30
0.0
 11
360.0
 21
2377.300049
 31
0.0
  0
LINE
  5
CF
  8
SIZE
  6
CONTINUOUS
 10
-360.0
 20
2276.300049
 30
0.0
 11
-360.0
 21
2377.300049
 31
0.0
  0
LINE
  5
D0
  8
SIZE
  6
CONTINUOUS
 10
360.0
 20
2375.300049
 30
0.0
 11
-360.0
 21
2375.300049
 31
0.0
  0
INSERT
  5
D1
  8
SIZE
  2
DOT
 10
360.0
 20
2375.300049
 30
0.0
  0
INSERT
  5
D2
  8
SIZE
  2
DOT
 10
-360.0
 20
2375.300049
 30
0.0
 50
180.0
  0
POINT
  5
D3
  8
DEFPOINTS
  6
BYBLOCK
 10
-360.0
 20
2275.300049
 30
0.0
  0
POINT
  5
D4
  8
DEFPOINTS
  6
BYBLOCK
 10
360.0
 20
2275.300049
 30
0.0
  0
POINT
  5
D5
  8
DEFPOINTS
  6
BYBLOCK
 10
360.0
 20
2375.300049
 30
0.0
  0
ENDBLK
  5
D6
  8
SIZE
  0
BLOCK
  8
SIZE
  2
*D14
 70
     1
 10
0.0
 20
0.0
 30
0.0
  3
*D14
  1

  0
TEXT
  5
D9
  8
SIZE
  6
CONTINUOUS
 10
-2.439513
 20
-450.095282
 30
0.0
 40
2.8
  1
φ
 50
0.000003
 41
0.583333
  7
STANDARD1
  0
TEXT
  5
DA
  8
SIZE
  6
CONTINUOUS
 10
-0.479513
 20
-450.095282
 30
0.0
 40
2.8
  1
720
 50
0.000003
 41
0.7
  7
STANDARD1
  0
LINE
  5
DB
  8
SIZE
  6
CONTINUOUS
 10
360.0
 20
149.0
 30
0.0
 11
360.0
 21
-453.095276
 31
0.0
  0
LINE
  5
DC
  8
SIZE
  6
CONTINUOUS
 10
-360.0
 20
149.0
 30
0.0
 11
-360.0
 21
-453.095276
 31
0.0
  0
LINE
  5
DD
  8
SIZE
  6
CONTINUOUS
 10
360.0
 20
-451.095276
 30
0.0
 11
-360.0
 21
-451.095276
 31
0.0
  0
INSERT
  5
DE
  8
SIZE
  2
DOT
 10
360.0
 20
-451.095276
 30
0.0
  0
INSERT
  5
DF
  8
SIZE
  2
DOT
 10
-360.0
 20
-451.095276
 30
0.0
 50
180.0
  0
POINT
  5
E0
  8
DEFPOINTS
  6
BYBLOCK
 10
-360.0
 20
150.0
 30
0.0
  0
POINT
  5
E1
  8
DEFPOINTS
  6
BYBLOCK
 10
360.0
 20
150.0
 30
0.0
  0
POINT
  5
E2
  8
DEFPOINTS
  6
BYBLOCK
 10
360.0
 20
-451.095276
 30
0.0
  0
ENDBLK
  5
E3
  8
SIZE
  0
BLOCK
  8
0
  2
_ORIGIN
 70
     0
 10
0.0
 20
0.0
 30
0.0
  3
_ORIGIN
  1

  0
CIRCLE
  5
E6
  8
0
  6
BYBLOCK
 62
     0
 10
0.0
 20
0.0
 30
0.0
 40
0.5
  0
LINE
  5
E7
  8
0
  6
BYBLOCK
 62
     0
 10
0.0
 20
0.0
 30
0.0
 11
-1.0
 21
0.0
 31
0.0
  0
ENDBLK
  5
E8
  8
0
  0
BLOCK
  8
0
  2
*D16
 70
     1
 10
0.0
 20
0.0
 30
0.0
  3
*D16
  1

  0
LINE
  5
EB
  8
0
  6
BYBLOCK
 62
     0
 10
-360.0
 20
140.0
 30
0.0
 11
-360.0
 21
-463.595276
 31
0.0
  0
LINE
  5
EC
  8
0
  6
BYBLOCK
 62
     0
 10
360.0
 20
140.0
 30
0.0
 11
360.0
 21
-463.595276
 31
0.0
  0
LINE
  5
ED
  8
0
  6
BYBLOCK
 62
     0
 10
-350.0
 20
-451.095276
 30
0.0
 11
350.0
 21
-451.095276
 31
0.0
  0
INSERT
  5
EE
  8
0
  6
BYBLOCK
 62
     0
  2
_ORIGIN
 10
-360.0
 20
-451.095276
 30
0.0
 41
10.0
 42
10.0
 43
10.0
 50
180.0
  0
INSERT
  5
EF
  8
0
  6
BYBLOCK
 62
     0
  2
_ORIGIN
 10
360.0
 20
-451.095276
 30
0.0
 41
10.0
 42
10.0
 43
10.0
  0
TEXT
  5
F0
  8
0
  6
BYBLOCK
 62
     0
 10
-37.5
 20
-441.095276
 30
0.0
 40
30.0
  1
720
 72
     1
 11
0.0
 21
-441.095276
 31
0.0
  0
POINT
  5
F1
  8
DEFPOINTS
  6
BYBLOCK
 62
     0
 10
-360.0
 20
150.0
 30
0.0
  0
POINT
  5
F2
  8
DEFPOINTS
  6
BYBLOCK
 62
     0
 10
360.0
 20
150.0
 30
0.0
  0
POINT
  5
F3
  8
DEFPOINTS
  6
BYBLOCK
 62
     0
 10
360.0
 20
-451.095276
 30
0.0
  0
ENDBLK
  5
F4
  8
0
  0
BLOCK
  8
0
  2
*D17
 70
     1
 10
0.0
 20
0.0
 30
0.0
  3
*D17
  1

  0
LINE
  5
F7
  8
0
  6
BYBLOCK
 62
     0
 10
-360.0
 20
2285.300049
 30
0.0
 11
-360.0
 21
2390.200049
 31
0.0
  0
LINE
  5
F8
  8
0
  6
BYBLOCK
 62
     0
 10
360.0
 20
2285.300049
 30
0.0
 11
360.0
 21
2390.200049
 31
0.0
  0
LINE
  5
F9
  8
0
  6
BYBLOCK
 62
     0
 10
-350.0
 20
2377.700049
 30
0.0
 11
350.0
 21
2377.700049
 31
0.0
  0
INSERT
  5
FA
  8
0
  6
BYBLOCK
 62
     0
  2
_ORIGIN
 10
-360.0
 20
2377.700049
 30
0.0
 41
10.0
 42
10.0
 43
10.0
 50
180.0
  0
INSERT
  5
FB
  8
0
  6
BYBLOCK
 62
     0
  2
_ORIGIN
 10
360.0
 20
2377.700049
 30
0.0
 41
10.0
 42
10.0
 43
10.0
  0
TEXT
  5
FC
  8
0
  6
BYBLOCK
 62
     0
 10
-37.5
 20
2387.700049
 30
0.0
 40
30.0
  1
720
 72
     1
 11
0.0
 21
2387.700049
 31
0.0
  0
POINT
  5
FD
  8
DEFPOINTS
  6
BYBLOCK
 62
     0
 10
-360.0
 20
2275.300049
 30
0.0
  0
POINT
  5
FE
  8
DEFPOINTS
  6
BYBLOCK
 62
     0
 10
360.0
 20
2275.300049
 30
0.0
  0
POINT
  5
FF
  8
DEFPOINTS
  6
BYBLOCK
 62
     0
 10
360.0
 20
2377.700049
 30
0.0
  0
ENDBLK
  5
100
  8
0
  0
BLOCK
  8
0
  2
*D18
 70
     1
 10
0.0
 20
0.0
 30
0.0
  3
*D18
  1

  0
LINE
  5
103
  8
0
  6
BYBLOCK
 62
     0
 10
-370.0
 20
2275.300049
 30
0.0
 11
-574.9
 21
2275.300049
 31
0.0
  0
LINE
  5
104
  8
0
  6
BYBLOCK
 62
     0
 10
-370.0
 20
1775.300049
 30
0.0
 11
-574.9
 21
1775.300049
 31
0.0
  0
LINE
  5
105
  8
0
  6
BYBLOCK
 62
     0
 10
-562.4
 20
2265.300049
 30
0.0
 11
-562.4
 21
1785.300049
 31
0.0
  0
INSERT
  5
106
  8
0
  6
BYBLOCK
 62
     0
  2
_ORIGIN
 10
-562.4
 20
2275.300049
 30
0.0
 41
10.0
 42
10.0
 43
10.0
 50
90.0
  0
INSERT
  5
107
  8
0
  6
BYBLOCK
 62
     0
  2
_ORIGIN
 10
-562.4
 20
1775.300049
 30
0.0
 41
10.0
 42
10.0
 43
10.0
 50
270.0
  0
TEXT
  5
108
  8
0
  6
BYBLOCK
 62
     0
 10
-572.4
 20
1990.300049
 30
0.0
 40
30.0
  1
500
 50
90.0
 72
     1
 11
-572.4
 21
2025.300049
 31
0.0
  0
POINT
  5
109
  8
DEFPOINTS
  6
BYBLOCK
 62
     0
 10
-360.0
 20
2275.300049
 30
0.0
  0
POINT
  5
10A
  8
DEFPOINTS
  6
BYBLOCK
 62
     0
 10
-360.0
 20
1775.300049
 30
0.0
  0
POINT
  5
10B
  8
DEFPOINTS
  6
BYBLOCK
 62
     0
 10
-562.4
 20
1775.300049
 30
0.0
  0
ENDBLK
  5
10C
  8
0
  0
BLOCK
  8
0
  2
*D19
 70
     1
 10
0.0
 20
0.0
 30
0.0
  3
*D19
  1

  0
LINE
  5
10F
  8
0
  6
BYBLOCK
 62
     0
 10
22.112693
 20
1825.199951
 30
0.0
 11
719.670068
 21
1825.199951
 31
0.0
  0
LINE
  5
110
  8
0
  6
BYBLOCK
 62
     0
 10
368.351593
 20
0.0
 30
0.0
 11
719.670068
 21
0.0
 31
0.0
  0
LINE
  5
111
  8
0
  6
BYBLOCK
 62
     0
 10
707.170068
 20
1815.199951
 30
0.0
 11
707.170068
 21
10.0
 31
0.0
  0
INSERT
  5
112
  8
0
  6
BYBLOCK
 62
     0
  2
_ORIGIN
 10
707.170068
 20
1825.199951
 30
0.0
 41
10.0
 42
10.0
 43
10.0
 50
90.0
  0
INSERT
  5
113
  8
0
  6
BYBLOCK
 62
     0
  2
_ORIGIN
 10
707.170068
 20
0.0
 30
0.0
 41
10.0
 42
10.0
 43
10.0
 50
270.0
  0
TEXT
  5
114
  8
0
  6
BYBLOCK
 62
     0
 10
697.170068
 20
913.137756
 30
0.0
 40
30.0
  1
1825
 50
90.0
 72
     1
 11
697.170068
 21
963.137756
 31
0.0
  0
POINT
  5
115
  8
DEFPOINTS
  6
BYBLOCK
 62
     0
 10
12.112693
 20
1825.199951
 30
0.0
  0
POINT
  5
116
  8
DEFPOINTS
  6
BYBLOCK
 62
     0
 10
358.351593
 20
0.0
 30
0.0
  0
POINT
  5
117
  8
DEFPOINTS
  6
BYBLOCK
 62
     0
 10
707.170068
 20
0.0
 30
0.0
  0
ENDBLK
  5
118
  8
0
  0
BLOCK
  8
0
  2
*D20
 70
     1
 10
0.0
 20
0.0
 30
0.0
  3
*D20
  1

  0
LINE
  5
11B
  8
0
  6
BYBLOCK
 62
     0
 10
370.0
 20
150.0
 30
0.0
 11
619.670068
 21
150.0
 31
0.0
  0
LINE
  5
11C
  8
0
  6
BYBLOCK
 62
     0
 10
60.000336
 20
1775.300049
 30
0.0
 11
619.670068
 21
1775.300049
 31
0.0
  0
LINE
  5
11D
  8
0
  6
BYBLOCK
 62
     0
 10
607.170068
 20
160.0
 30
0.0
 11
607.170068
 21
1765.300049
 31
0.0
  0
INSERT
  5
11E
  8
0
  6
BYBLOCK
 62
     0
  2
_ORIGIN
 10
607.170068
 20
150.0
 30
0.0
 41
10.0
 42
10.0
 43
10.0
 50
270.0
  0
INSERT
  5
11F
  8
0
  6
BYBLOCK
 62
     0
  2
_ORIGIN
 10
607.170068
 20
1775.300049
 30
0.0
 41
10.0
 42
10.0
 43
10.0
 50
90.0
  0
TEXT
  5
120
  8
0
  6
BYBLOCK
 62
     0
 10
597.170068
 20
912.650024
 30
0.0
 40
30.0
  1
1625
 50
90.0
 72
     1
 11
597.170068
 21
962.650024
 31
0.0
  0
POINT
  5
121
  8
DEFPOINTS
  6
BYBLOCK
 62
     0
 10
360.0
 20
150.0
 30
0.0
  0
POINT
  5
122
  8
DEFPOINTS
  6
BYBLOCK
 62
     0
 10
50.000336
 20
1775.300049
 30
0.0
  0
POINT
  5
123
  8
DEFPOINTS
  6
BYBLOCK
 62
     0
 10
607.170068
 20
1775.300049
 30
0.0
  0
ENDBLK
  5
124
  8
0
  0
BLOCK
  8
0
  2
*D21
 70
     1
 10
0.0
 20
0.0
 30
0.0
  3
*D21
  1

  0
LINE
  5
127
  8
0
  6
BYBLOCK
 62
     0
 10
22.112693
 20
1825.199951
 30
0.0
 11
618.593469
 21
1825.199951
 31
0.0
  0
LINE
  5
128
  8
0
  6
BYBLOCK
 62
     0
 10
60.000336
 20
1775.300049
 30
0.0
 11
618.593469
 21
1775.300049
 31
0.0
  0
LINE
  5
129
  8
0
  6
BYBLOCK
 62
     0
 10
606.093469
 20
1815.199951
 30
0.0
 11
606.093469
 21
1785.300049
 31
0.0
  0
INSERT
  5
12A
  8
0
  6
BYBLOCK
 62
     0
  2
_ORIGIN
 10
606.093469
 20
1825.199951
 30
0.0
 41
10.0
 42
10.0
 43
10.0
 50
90.0
  0
INSERT
  5
12B
  8
0
  6
BYBLOCK
 62
     0
  2
_ORIGIN
 10
606.093469
 20
1775.300049
 30
0.0
 41
10.0
 42
10.0
 43
10.0
 50
270.0
  0
TEXT
  5
12C
  8
0
  6
BYBLOCK
 62
     0
 10
596.093469
 20
1777.75
 30
0.0
 40
30.0
  1
50
 50
90.0
 72
     1
 11
596.093469
 21
1800.25
 31
0.0
  0
POINT
  5
12D
  8
DEFPOINTS
  6
BYBLOCK
 62
     0
 10
12.112693
 20
1825.199951
 30
0.0
  0
POINT
  5
12E
  8
DEFPOINTS
  6
BYBLOCK
 62
     0
 10
50.000336
 20
1775.300049
 30
0.0
  0
POINT
  5
12F
  8
DEFPOINTS
  6
BYBLOCK
 62
     0
 10
606.093469
 20
1775.300049
 30
0.0
  0
ENDBLK
  5
130
  8
0
  0
BLOCK
  8
0
  2
*D22
 70
     1
 10
0.0
 20
0.0
 30
0.0
  3
*D22
  1

  0
LINE
  5
133
  8
0
  6
BYBLOCK
 62
     0
 10
368.351593
 20
0.0
 30
0.0
 11
620.226892
 21
0.0
 31
0.0
  0
LINE
  5
134
  8
0
  6
BYBLOCK
 62
     0
 10
370.0
 20
150.0
 30
0.0
 11
620.226892
 21
150.0
 31
0.0
  0
LINE
  5
135
  8
0
  6
BYBLOCK
 62
     0
 10
607.726892
 20
10.0
 30
0.0
 11
607.726892
 21
140.0
 31
0.0
  0
INSERT
  5
136
  8
0
  6
BYBLOCK
 62
     0
  2
_ORIGIN
 10
607.726892
 20
0.0
 30
0.0
 41
10.0
 42
10.0
 43
10.0
 50
270.0
  0
INSERT
  5
137
  8
0
  6
BYBLOCK
 62
     0
  2
_ORIGIN
 10
607.726892
 20
150.0
 30
0.0
 41
10.0
 42
10.0
 43
10.0
 50
90.0
  0
TEXT
  5
138
  8
0
  6
BYBLOCK
 62
     0
 10
597.726892
 20
42.5
 30
0.0
 40
30.0
  1
150
 50
90.0
 72
     1
 11
597.726892
 21
75.0
 31
0.0
  0
POINT
  5
139
  8
DEFPOINTS
  6
BYBLOCK
 62
     0
 10
358.351593
 20
0.0
 30
0.0
  0
POINT
  5
13A
  8
DEFPOINTS
  6
BYBLOCK
 62
     0
 10
360.0
 20
150.0
 30
0.0
  0
POINT
  5
13B
  8
DEFPOINTS
  6
BYBLOCK
 62
     0
 10
607.726892
 20
150.0
 30
0.0
  0
ENDBLK
  5
13C
  8
0
  0
BLOCK
  8
0
  2
*D23
 70
     1
 10
0.0
 20
0.0
 30
0.0
  3
*D23
  1

  0
LINE
  5
13F
  8
0
  6
BYBLOCK
 62
     0
 10
-65.204582
 20
1808.300049
 30
0.0
 11
-474.9
 21
1808.300049
 31
0.0
  0
LINE
  5
140
  8
0
  6
BYBLOCK
 62
     0
 10
-95.0
 20
1790.300049
 30
0.0
 11
-474.9
 21
1790.300049
 31
0.0
  0
LINE
  5
141
  8
0
  6
BYBLOCK
 62
     0
 10
-462.4
 20
1780.300049
 30
0.0
 11
-462.4
 21
1770.300049
 31
0.0
  0
LINE
  5
142
  8
0
  6
BYBLOCK
 62
     0
 10
-462.4
 20
1818.300049
 30
0.0
 11
-462.4
 21
1888.300049
 31
0.0
  0
LINE
  5
143
  8
0
  6
BYBLOCK
 62
     0
 10
-462.4
 20
1790.300049
 30
0.0
 11
-462.4
 21
1808.300049
 31
0.0
  0
INSERT
  5
144
  8
0
  6
BYBLOCK
 62
     0
  2
_ORIGIN
 10
-462.4
 20
1790.300049
 30
0.0
 41
10.0
 42
10.0
 43
10.0
 50
90.0
  0
INSERT
  5
145
  8
0
  6
BYBLOCK
 62
     0
  2
_ORIGIN
 10
-462.4
 20
1808.300049
 30
0.0
 41
10.0
 42
10.0
 43
10.0
 50
270.0
  0
TEXT
  5
146
  8
0
  6
BYBLOCK
 62
     0
 10
-472.4
 20
1838.300049
 30
0.0
 40
30.0
  1
18
 50
90.0
 72
     1
 11
-472.4
 21
1858.300049
 31
0.0
  0
POINT
  5
147
  8
DEFPOINTS
  6
BYBLOCK
 62
     0
 10
-55.204582
 20
1808.300049
 30
0.0
  0
POINT
  5
148
  8
DEFPOINTS
  6
BYBLOCK
 62
     0
 10
-85.0
 20
1790.300049
 30
0.0
  0
POINT
  5
149
  8
DEFPOINTS
  6
BYBLOCK
 62
     0
 10
-462.4
 20
1790.300049
 30
0.0
  0
ENDBLK
  5
14A
  8
0
  0
BLOCK
  8
0
  2
*D24
 70
     1
 10
0.0
 20
0.0
 30
0.0
  3
*D24
  1

  0
LINE
  5
14D
  8
0
  6
BYBLOCK
 62
     0
 10
-95.0
 20
1790.300049
 30
0.0
 11
-474.9
 21
1790.300049
 31
0.0
  0
LINE
  5
14E
  8
0
  6
BYBLOCK
 62
     0
 10
-60.000336
 20
1775.300049
 30
0.0
 11
-474.9
 21
1775.300049
 31
0.0
  0
LINE
  5
14F
  8
0
  6
BYBLOCK
 62
     0
 10
-462.4
 20
1800.300049
 30
0.0
 11
-462.4
 21
1810.300049
 31
0.0
  0
LINE
  5
150
  8
0
  6
BYBLOCK
 62
     0
 10
-462.4
 20
1765.300049
 30
0.0
 11
-462.4
 21
1676.207886
 31
0.0
  0
LINE
  5
151
  8
0
  6
BYBLOCK
 62
     0
 10
-462.4
 20
1790.300049
 30
0.0
 11
-462.4
 21
1775.300049
 31
0.0
  0
INSERT
  5
152
  8
0
  6
BYBLOCK
 62
     0
  2
_ORIGIN
 10
-462.4
 20
1790.300049
 30
0.0
 41
10.0
 42
10.0
 43
10.0
 50
270.0
  0
INSERT
  5
153
  8
0
  6
BYBLOCK
 62
     0
  2
_ORIGIN
 10
-462.4
 20
1775.300049
 30
0.0
 41
10.0
 42
10.0
 43
10.0
 50
90.0
  0
TEXT
  5
154
  8
0
  6
BYBLOCK
 62
     0
 10
-472.4
 20
1686.207886
 30
0.0
 40
30.0
  1
15
 50
90.0
 72
     1
 11
-472.4
 21
1706.207886
 31
0.0
  0
POINT
  5
155
  8
DEFPOINTS
  6
BYBLOCK
 62
     0
 10
-85.0
 20
1790.300049
 30
0.0
  0
POINT
  5
156
  8
DEFPOINTS
  6
BYBLOCK
 62
     0
 10
-50.000336
 20
1775.300049
 30
0.0
  0
POINT
  5
157
  8
DEFPOINTS
  6
BYBLOCK
 62
     0
 10
-462.4
 20
1775.300049
 30
0.0
  0
ENDBLK
  5
158
  8
0
  0
BLOCK
  8
0
  2
*D25
 70
     1
 10
0.0
 20
0.0
 30
0.0
  3
*D25
  1

  0
LINE
  5
15B
  8
0
  6
BYBLOCK
 62
     0
 10
171.21701
 20
1810.307129
 30
0.0
 11
519.670038
 21
1810.307129
 31
0.0
  0
LINE
  5
15C
  8
0
  6
BYBLOCK
 62
     0
 10
60.000336
 20
1775.300049
 30
0.0
 11
519.670038
 21
1775.300049
 31
0.0
  0
LINE
  5
15D
  8
0
  6
BYBLOCK
 62
     0
 10
507.170038
 20
1765.300049
 30
0.0
 11
507.170038
 21
1755.300049
 31
0.0
  0
LINE
  5
15E
  8
0
  6
BYBLOCK
 62
     0
 10
507.170038
 20
1820.307129
 30
0.0
 11
507.170038
 21
1900.307129
 31
0.0
  0
LINE
  5
15F
  8
0
  6
BYBLOCK
 62
     0
 10
507.170038
 20
1775.300049
 30
0.0
 11
507.170038
 21
1810.307129
 31
0.0
  0
INSERT
  5
160
  8
0
  6
BYBLOCK
 62
     0
  2
_ORIGIN
 10
507.170038
 20
1775.300049
 30
0.0
 41
10.0
 42
10.0
 43
10.0
 50
90.0
  0
INSERT
  5
161
  8
0
  6
BYBLOCK
 62
     0
  2
_ORIGIN
 10
507.170038
 20
1810.307129
 30
0.0
 41
10.0
 42
10.0
 43
10.0
 50
270.0
  0
TEXT
  5
162
  8
0
  6
BYBLOCK
 62
     0
 10
497.170038
 20
1840.307129
 30
0.0
 40
30.0
  1
35
 50
90.0
 72
     1
 11
497.170038
 21
1865.307129
 31
0.0
  0
POINT
  5
163
  8
DEFPOINTS
  6
BYBLOCK
 62
     0
 10
161.21701
 20
1810.307129
 30
0.0
  0
POINT
  5
164
  8
DEFPOINTS
  6
BYBLOCK
 62
     0
 10
50.000336
 20
1775.300049
 30
0.0
  0
POINT
  5
165
  8
DEFPOINTS
  6
BYBLOCK
 62
     0
 10
507.170038
 20
1775.300049
 30
0.0
  0
ENDBLK
  5
166
  8
0
  0
BLOCK
  8
0
  2
*D26
 70
     1
 10
0.0
 20
0.0
 30
0.0
  3
*D26
  1

  0
LINE
  5
169
  8
0
  6
BYBLOCK
 62
     0
 10
-97.5
 20
-10.0
 30
0.0
 11
-97.5
 21
-261.195276
 31
0.0
  0
LINE
  5
16A
  8
0
  6
BYBLOCK
 62
     0
 10
97.5
 20
-10.0
 30
0.0
 11
97.5
 21
-261.195276
 31
0.0
  0
LINE
  5
16B
  8
0
  6
BYBLOCK
 62
     0
 10
-87.5
 20
-248.695276
 30
0.0
 11
87.5
 21
-248.695276
 31
0.0
  0
INSERT
  5
16C
  8
0
  6
BYBLOCK
 62
     0
  2
_ORIGIN
 10
-97.5
 20
-248.695276
 30
0.0
 41
10.0
 42
10.0
 43
10.0
 50
180.0
  0
INSERT
  5
16D
  8
0
  6
BYBLOCK
 62
     0
  2
_ORIGIN
 10
97.5
 20
-248.695276
 30
0.0
 41
10.0
 42
10.0
 43
10.0
  0
TEXT
  5
16E
  8
0
  6
BYBLOCK
 62
     0
 10
-36.222216
 20
-238.695276
 30
0.0
 40
30.0
  1
195
 72
     1
 11
-1.222216
 21
-238.695276
 31
0.0
  0
POINT
  5
16F
  8
DEFPOINTS
  6
BYBLOCK
 62
     0
 10
-97.5
 20
0.0
 30
0.0
  0
POINT
  5
170
  8
DEFPOINTS
  6
BYBLOCK
 62
     0
 10
97.5
 20
0.0
 30
0.0
  0
POINT
  5
171
  8
DEFPOINTS
  6
BYBLOCK
 62
     0
 10
97.5
 20
-248.695276
 30
0.0
  0
ENDBLK
  5
172
  8
0
  0
BLOCK
  8
0
  2
*D27
 70
     1
 10
0.0
 20
0.0
 30
0.0
  3
*D27
  1

  0
LINE
  5
175
  8
0
  6
BYBLOCK
 62
     0
 10
-56.799999
 20
25.1
 30
0.0
 11
-180.067694
 21
25.1
 31
0.0
  0
LINE
  5
176
  8
0
  6
BYBLOCK
 62
     0
 10
-110.0
 20
0.0
 30
0.0
 11
-180.067694
 21
0.0
 31
0.0
  0
LINE
  5
177
  8
0
  6
BYBLOCK
 62
     0
 10
-167.567694
 20
35.1
 30
0.0
 11
-167.567694
 21
45.1
 31
0.0
  0
LINE
  5
178
  8
0
  6
BYBLOCK
 62
     0
 10
-167.567694
 20
-10.0
 30
0.0
 11
-167.567694
 21
-92.640221
 31
0.0
  0
LINE
  5
179
  8
0
  6
BYBLOCK
 62
     0
 10
-167.567694
 20
25.1
 30
0.0
 11
-167.567694
 21
0.0
 31
0.0
  0
INSERT
  5
17A
  8
0
  6
BYBLOCK
 62
     0
  2
_ORIGIN
 10
-167.567694
 20
25.1
 30
0.0
 41
10.0
 42
10.0
 43
10.0
 50
270.0
  0
INSERT
  5
17B
  8
0
  6
BYBLOCK
 62
     0
  2
_ORIGIN
 10
-167.567694
 20
0.0
 30
0.0
 41
10.0
 42
10.0
 43
10.0
 50
90.0
  0
TEXT
  5
17C
  8
0
  6
BYBLOCK
 62
     0
 10
-177.567694
 20
-82.640221
 30
0.0
 40
30.0
  1
25
 50
90.0
 72
     1
 11
-177.567694
 21
-57.640221
 31
0.0
  0
POINT
  5
17D
  8
DEFPOINTS
  6
BYBLOCK
 62
     0
 10
-46.799999
 20
25.1
 30
0.0
  0
POINT
  5
17E
  8
DEFPOINTS
  6
BYBLOCK
 62
     0
 10
-100.0
 20
0.0
 30
0.0
  0
POINT
  5
17F
  8
DEFPOINTS
  6
BYBLOCK
 62
     0
 10
-167.567694
 20
0.0
 30
0.0
  0
ENDBLK
  5
180
  8
0
  0
BLOCK
  8
0
  2
*D28
 70
     1
 10
0.0
 20
0.0
 30
0.0
  3
*D28
  1

  0
LINE
  5
183
  8
0
  6
BYBLOCK
 62
     0
 10
80.0
 20
-30.0
 30
0.0
 11
80.0
 21
-161.195276
 31
0.0
  0
LINE
  5
184
  8
0
  6
BYBLOCK
 62
     0
 10
-80.0
 20
-30.0
 30
0.0
 11
-80.0
 21
-161.195276
 31
0.0
  0
LINE
  5
185
  8
0
  6
BYBLOCK
 62
     0
 10
70.0
 20
-148.695276
 30
0.0
 11
-70.0
 21
-148.695276
 31
0.0
  0
INSERT
  5
186
  8
0
  6
BYBLOCK
 62
     0
  2
_ORIGIN
 10
80.0
 20
-148.695276
 30
0.0
 41
10.0
 42
10.0
 43
10.0
  0
INSERT
  5
187
  8
0
  6
BYBLOCK
 62
     0
  2
_ORIGIN
 10
-80.0
 20
-148.695276
 30
0.0
 41
10.0
 42
10.0
 43
10.0
 50
180.0
  0
TEXT
  5
188
  8
0
  6
BYBLOCK
 62
     0
 10
-32.5
 20
-138.695276
 30
0.0
 40
30.0
  1
160
 72
     1
 11
0.0
 21
-138.695276
 31
0.0
  0
POINT
  5
189
  8
DEFPOINTS
  6
BYBLOCK
 62
     0
 10
80.0
 20
-20.0
 30
0.0
  0
POINT
  5
18A
  8
DEFPOINTS
  6
BYBLOCK
 62
     0
 10
-80.0
 20
-20.0
 30
0.0
  0
POINT
  5
18B
  8
DEFPOINTS
  6
BYBLOCK
 62
     0
 10
-80.0
 20
-148.695276
 30
0.0
  0
ENDBLK
  5
18C
  8
0
  0
BLOCK
  8
0
  2
*D29
 70
     1
 10
0.0
 20
0.0
 30
0.0
  3
*D29
  1

  0
LINE
  5
18F
  8
0
  6
BYBLOCK
 62
     0
 10
-330.821716
 20
-30.0
 30
0.0
 11
-330.821716
 21
-361.195276
 31
0.0
  0
LINE
  5
190
  8
0
  6
BYBLOCK
 62
     0
 10
330.821716
 20
-30.0
 30
0.0
 11
330.821716
 21
-361.195276
 31
0.0
  0
LINE
  5
191
  8
0
  6
BYBLOCK
 62
     0
 10
-320.821716
 20
-348.695276
 30
0.0
 11
320.821716
 21
-348.695276
 31
0.0
  0
INSERT
  5
192
  8
0
  6
BYBLOCK
 62
     0
  2
_ORIGIN
 10
-330.821716
 20
-348.695276
 30
0.0
 41
10.0
 42
10.0
 43
10.0
 50
180.0
  0
INSERT
  5
193
  8
0
  6
BYBLOCK
 62
     0
  2
_ORIGIN
 10
330.821716
 20
-348.695276
 30
0.0
 41
10.0
 42
10.0
 43
10.0
  0
TEXT
  5
194
  8
0
  6
BYBLOCK
 62
     0
 10
-35.81681
 20
-338.695276
 30
0.0
 40
30.0
  1
662
 72
     1
 11
4.18319
 21
-338.695276
 31
0.0
  0
POINT
  5
195
  8
DEFPOINTS
  6
BYBLOCK
 62
     0
 10
-330.821716
 20
-20.0
 30
0.0
  0
POINT
  5
196
  8
DEFPOINTS
  6
BYBLOCK
 62
     0
 10
330.821716
 20
-20.0
 30
0.0
  0
POINT
  5
197
  8
DEFPOINTS
  6
BYBLOCK
 62
     0
 10
330.821716
 20
-348.695276
 30
0.0
  0
ENDBLK
  5
198
  8
0
  0
ENDSEC
  0
SECTION
  2
ENTITIES
  0
LINE
  5
199
  8
OUTLINE
  6
CONTINUOUS
 10
356.146602
 20
1765.3
 30
0.0
 11
-356.146602
 21
1765.3
 31
0.0
  0
ARC
  5
19A
  8
OUTLINE
  6
CONTINUOUS
 10
44.380536
 20
-3225.296842
 30
0.0
 40
5000.6
 50
86.445908
 51
89.93561
  0
LINE
  5
19B
  8
OUTLINE
  6
CONTINUOUS
 10
360.0
 20
1739.7
 30
0.0
 11
-360.0
 21
1739.7
 31
0.0
  0
LINE
  5
19C
  8
OUTLINE
  6
CONTINUOUS
 10
50.000337
 20
1775.3
 30
0.0
 11
-50.000337
 21
1775.3
 31
0.0
  0
ARC
  5
19D
  8
OUTLINE
  6
CONTINUOUS
 10
-44.380536
 20
-3225.296842
 30
0.0
 40
5000.6
 50
90.06439
 51
93.554092
  0
ARC
  5
19E
  8
OUTLINE
  6
CONTINUOUS
 10
354.0
 20
1759.697135
 30
0.0
 40
6.0
 50
0.0
 51
86.445908
  0
ARC
  5
19F
  8
OUTLINE
  6
CONTINUOUS
 10
-354.0
 20
1759.697135
 30
0.0
 40
6.0
 50
93.554092
 51
180.0
  0
LINE
  5
1A0
  8
OUTLINE
  6
CONTINUOUS
 10
-360.0
 20
150.0
 30
0.0
 11
360.0
 21
150.0
 31
0.0
  0
LINE
  5
1A1
  8
OUTLINE
  6
CONTINUOUS
 10
360.0
 20
150.0
 30
0.0
 11
360.0
 21
1759.697135
 31
0.0
  0
LINE
  5
1A2
  8
OUTLINE
  6
CONTINUOUS
 10
-360.0
 20
150.0
 30
0.0
 11
-360.0
 21
1759.697135
 31
0.0
  0
LINE
  5
1A3
  8
OUTLINE
  6
CONTINUOUS
 10
36.6
 20
150.0
 30
0.0
 11
36.6
 21
28.3
 31
0.0
  0
LINE
  5
1A4
  8
OUTLINE
  6
CONTINUOUS
 10
36.6
 20
0.0
 30
0.0
 11
-36.6
 21
0.0
 31
0.0
  0
LINE
  5
1A5
  8
OUTLINE
  6
CONTINUOUS
 10
-36.6
 20
0.0
 30
0.0
 11
-36.6
 21
25.1
 31
0.0
  0
LINE
  5
1A6
  8
OUTLINE
  6
CONTINUOUS
 10
348.351604
 20
20.0
 30
0.0
 11
321.492896
 21
20.0
 31
0.0
  0
LINE
  5
1A7
  8
OUTLINE
  6
CONTINUOUS
 10
321.492896
 20
20.0
 30
0.0
 11
321.492896
 21
150.0
 31
0.0
  0
LINE
  5
1A8
  8
OUTLINE
  6
CONTINUOUS
 10
239.645216
 20
20.0
 30
0.0
 11
239.645216
 21
150.0
 31
0.0
  0
LINE
  5
1A9
  8
OUTLINE
  6
CONTINUOUS
 10
239.645216
 20
20.0
 30
0.0
 11
224.710864
 21
20.0
 31
0.0
  0
ARC
  5
1AA
  8
OUTLINE
  6
CONTINUOUS
 10
348.598014
 20
10.0
 30
0.0
 40
10.0
 50
0.0
 51
90.0
  0
LINE
  5
1AB
  8
OUTLINE
  6
CONTINUOUS
 10
358.598014
 20
10.0
 30
0.0
 11
358.598014
 21
0.0
 31
0.0
  0
ARC
  5
1AC
  8
OUTLINE
  6
CONTINUOUS
 10
224.710864
 20
10.0
 30
0.0
 40
10.0
 50
90.0
 51
180.0
  0
LINE
  5
1AD
  8
OUTLINE
  6
CONTINUOUS
 10
214.710864
 20
10.0
 30
0.0
 11
214.710864
 21
0.0
 31
0.0
  0
LINE
  5
1AE
  8
OUTLINE
  6
CONTINUOUS
 10
358.351604
 20
0.0
 30
0.0
 11
214.710864
 21
0.0
 31
0.0
  0
LINE
  5
1AF
  8
OUTLINE
  6
CONTINUOUS
 10
276.145186
 20
20.0
 30
0.0
 11
276.145186
 21
150.0
 31
0.0
  0
LINE
  5
1B0
  8
OUTLINE
  6
CONTINUOUS
 10
276.145186
 20
20.0
 30
0.0
 11
261.210834
 21
20.0
 31
0.0
  0
ARC
  5
1B1
  8
OUTLINE
  6
CONTINUOUS
 10
261.210834
 20
10.0
 30
0.0
 40
10.0
 50
90.0
 51
180.0
  0
LINE
  5
1B2
  8
OUTLINE
  6
CONTINUOUS
 10
251.210834
 20
10.0
 30
0.0
 11
251.210834
 21
0.0
 31
0.0
  0
LINE
  5
1B3
  8
OUTLINE
  6
CONTINUOUS
 10
-348.351604
 20
20.0
 30
0.0
 11
-321.492896
 21
20.0
 31
0.0
  0
LINE
  5
1B4
  8
OUTLINE
  6
CONTINUOUS
 10
-276.145186
 20
20.0
 30
0.0
 11
-276.145186
 21
150.0
 31
0.0
  0
LINE
  5
1B5
  8
OUTLINE
  6
CONTINUOUS
 10
-276.145186
 20
20.0
 30
0.0
 11
-261.210834
 21
20.0
 31
0.0
  0
ARC
  5
1B6
  8
OUTLINE
  6
CONTINUOUS
 10
-261.210834
 20
10.0
 30
0.0
 40
10.0
 50
0.0
 51
90.0
  0
LINE
  5
1B7
  8
OUTLINE
  6
CONTINUOUS
 10
-251.210834
 20
10.0
 30
0.0
 11
-251.210834
 21
0.0
 31
0.0
  0
LINE
  5
1B8
  8
OUTLINE
  6
CONTINUOUS
 10
-321.492896
 20
20.0
 30
0.0
 11
-321.492896
 21
150.0
 31
0.0
  0
LINE
  5
1B9
  8
OUTLINE
  6
CONTINUOUS
 10
-239.645216
 20
20.0
 30
0.0
 11
-239.645216
 21
150.0
 31
0.0
  0
LINE
  5
1BA
  8
OUTLINE
  6
CONTINUOUS
 10
-239.645216
 20
20.0
 30
0.0
 11
-224.710864
 21
20.0
 31
0.0
  0
ARC
  5
1BB
  8
OUTLINE
  6
CONTINUOUS
 10
-348.598014
 20
10.0
 30
0.0
 40
10.0
 50
90.0
 51
180.0
  0
LINE
  5
1BC
  8
OUTLINE
  6
CONTINUOUS
 10
-358.598014
 20
10.0
 30
0.0
 11
-358.598014
 21
0.0
 31
0.0
  0
ARC
  5
1BD
  8
OUTLINE
  6
CONTINUOUS
 10
-224.710864
 20
10.0
 30
0.0
 40
10.0
 50
0.0
 51
90.0
  0
LINE
  5
1BE
  8
OUTLINE
  6
CONTINUOUS
 10
-214.710864
 20
10.0
 30
0.0
 11
-214.710864
 21
0.0
 31
0.0
  0
LINE
  5
1BF
  8
OUTLINE
  6
CONTINUOUS
 10
-358.351604
 20
0.0
 30
0.0
 11
-214.710864
 21
0.0
 31
0.0
  0
LINE
  5
1C0
  8
OUTLINE
  6
CONTINUOUS
 10
36.6
 20
25.1
 30
0.0
 11
36.6
 21
0.0
 31
0.0
  0
LINE
  5
1C1
  8
OUTLINE
  6
CONTINUOUS
 10
-36.6
 20
28.3
 30
0.0
 11
-36.6
 21
150.0
 31
0.0
  0
LINE
  5
1C2
  8
DETAIL
  6
CONTINUOUS
 10
58.2
 20
3.2
 30
0.0
 11
97.5
 21
3.2
 31
0.0
  0
LINE
  5
1C3
  8
DETAIL
  6
CONTINUOUS
 10
58.2
 20
0.0
 30
0.0
 11
97.5
 21
0.0
 31
0.0
  0
LINE
  5
1C4
  8
DETAIL
  6
CONTINUOUS
 10
97.5
 20
3.2
 30
0.0
 11
97.5
 21
0.0
 31
0.0
  0
ARC
  5
1C5
  8
DETAIL
  6
CONTINUOUS
 10
58.2
 20
8.2
 30
0.0
 40
5.0
 50
180.0
 51
270.0
  0
ARC
  5
1C6
  8
DETAIL
  6
CONTINUOUS
 10
58.2
 20
8.2
 30
0.0
 40
8.2
 50
180.0
 51
270.0
  0
LINE
  5
1C7
  8
DETAIL
  6
CONTINUOUS
 10
53.2
 20
8.2
 30
0.0
 11
53.2
 21
21.9
 31
0.0
  0
ARC
  5
1C8
  8
DETAIL
  6
CONTINUOUS
 10
46.8
 20
21.9
 30
0.0
 40
3.2
 50
0.0
 51
90.0
  0
ARC
  5
1C9
  8
DETAIL
  6
CONTINUOUS
 10
46.8
 20
21.9
 30
0.0
 40
6.4
 50
0.0
 51
90.0
  0
LINE
  5
1CA
  8
DETAIL
  6
CONTINUOUS
 10
50.0
 20
8.2
 30
0.0
 11
50.0
 21
21.9
 31
0.0
  0
ARC
  5
1CB
  8
DETAIL
  6
CONTINUOUS
 10
-58.2
 20
8.2
 30
0.0
 40
8.2
 50
270.0
 51
0.0
  0
ARC
  5
1CC
  8
DETAIL
  6
CONTINUOUS
 10
-46.8
 20
21.9
 30
0.0
 40
6.4
 50
90.0
 51
180.0
  0
ARC
  5
1CD
  8
DETAIL
  6
CONTINUOUS
 10
-58.2
 20
8.2
 30
0.0
 40
5.0
 50
270.0
 51
0.0
  0
ARC
  5
1CE
  8
DETAIL
  6
CONTINUOUS
 10
-46.8
 20
21.9
 30
0.0
 40
3.2
 50
90.0
 51
180.0
  0
LINE
  5
1CF
  8
DETAIL
  6
CONTINUOUS
 10
46.8
 20
25.1
 30
0.0
 11
-46.8
 21
25.1
 31
0.0
  0
LINE
  5
1D0
  8
DETAIL
  6
CONTINUOUS
 10
-53.2
 20
8.2
 30
0.0
 11
-53.2
 21
21.9
 31
0.0
  0
LINE
  5
1D1
  8
DETAIL
  6
CONTINUOUS
 10
-50.0
 20
8.2
 30
0.0
 11
-50.0
 21
21.9
 31
0.0
  0
LINE
  5
1D2
  8
DETAIL
  6
CONTINUOUS
 10
-58.2
 20
3.2
 30
0.0
 11
-97.5
 21
3.2
 31
0.0
  0
LINE
  5
1D3
  8
DETAIL
  6
CONTINUOUS
 10
-58.2
 20
0.0
 30
0.0
 11
-97.5
 21
0.0
 31
0.0
  0
LINE
  5
1D4
  8
DETAIL
  6
CONTINUOUS
 10
46.8
 20
28.3
 30
0.0
 11
-46.8
 21
28.3
 31
0.0
  0
LINE
  5
1D5
  8
DETAIL
  6
CONTINUOUS
 10
-97.5
 20
3.2
 30
0.0
 11
-97.5
 21
0.0
 31
0.0
  0
LINE
  5
1D6
  8
DETAIL
  6
CONTINUOUS
 10
-46.204581
 20
1790.3
 30
0.0
 11
-46.204581
 21
1808.3
 31
0.0
  0
LINE
  5
1D7
  8
DETAIL
  6
CONTINUOUS
 10
-54.204581
 20
1790.3
 30
0.0
 11
-54.204581
 21
1808.3
 31
0.0
  0
LINE
  5
1D8
  8
DETAIL
  6
CONTINUOUS
 10
-45.204581
 20
1790.3
 30
0.0
 11
-45.204581
 21
1808.3
 31
0.0
  0
LINE
  5
1D9
  8
DETAIL
  6
CONTINUOUS
 10
-55.204581
 20
1790.3
 30
0.0
 11
-55.204581
 21
1808.3
 31
0.0
  0
LINE
  5
1DA
  8
DETAIL
  6
CONTINUOUS
 10
-45.204581
 20
1808.3
 30
0.0
 11
-55.204581
 21
1808.3
 31
0.0
  0
LINE
  5
1DB
  8
DETAIL
  6
CONTINUOUS
 10
46.204581
 20
1790.3
 30
0.0
 11
46.204581
 21
1808.3
 31
0.0
  0
LINE
  5
1DC
  8
DETAIL
  6
CONTINUOUS
 10
54.204581
 20
1790.3
 30
0.0
 11
54.204581
 21
1808.3
 31
0.0
  0
LINE
  5
1DD
  8
DETAIL
  6
CONTINUOUS
 10
45.204581
 20
1808.3
 30
0.0
 11
55.204581
 21
1808.3
 31
0.0
  0
LINE
  5
1DE
  8
DETAIL
  6
CONTINUOUS
 10
55.204581
 20
1790.3
 30
0.0
 11
55.204581
 21
1808.3
 31
0.0
  0
LINE
  5
1DF
  8
DETAIL
  6
CONTINUOUS
 10
45.204581
 20
1790.3
 30
0.0
 11
45.204581
 21
1808.3
 31
0.0
  0
ARC
  5
1E0
  8
DETAIL
  6
CONTINUOUS
 10
85.0
 20
1784.3
 30
0.0
 40
6.0
 50
0.0
 51
90.0
  0
LINE
  5
1E1
  8
DETAIL
  6
CONTINUOUS
 10
-85.0
 20
1790.3
 30
0.0
 11
85.0
 21
1790.3
 31
0.0
  0
ARC
  5
1E2
  8
DETAIL
  6
CONTINUOUS
 10
-85.0
 20
1784.3
 30
0.0
 40
6.0
 50
90.0
 51
180.0
  0
LINE
  5
1E3
  8
DETAIL
  6
CONTINUOUS
 10
-91.0
 20
1781.3
 30
0.0
 11
-91.0
 21
1784.3
 31
0.0
  0
LINE
  5
1E4
  8
DETAIL
  6
CONTINUOUS
 10
-95.0
 20
1777.3
 30
0.0
 11
-102.0
 21
1777.3
 31
0.0
  0
ARC
  5
1E5
  8
DETAIL
  6
CONTINUOUS
 10
-95.0
 20
1781.3
 30
0.0
 40
4.0
 50
270.0
 51
0.0
  0
LINE
  5
1E6
  8
DETAIL
  6
CONTINUOUS
 10
-102.0
 20
1775.3
 30
0.0
 11
-102.0
 21
1777.3
 31
0.0
  0
LINE
  5
1E7
  8
DETAIL
  6
CONTINUOUS
 10
91.0
 20
1781.3
 30
0.0
 11
91.0
 21
1784.3
 31
0.0
  0
LINE
  5
1E8
  8
DETAIL
  6
CONTINUOUS
 10
102.0
 20
1775.3
 30
0.0
 11
102.0
 21
1777.3
 31
0.0
  0
LINE
  5
1E9
  8
DETAIL
  6
CONTINUOUS
 10
95.0
 20
1777.3
 30
0.0
 11
102.0
 21
1777.3
 31
0.0
  0
ARC
  5
1EA
  8
DETAIL
  6
CONTINUOUS
 10
95.0
 20
1781.3
 30
0.0
 40
4.0
 50
180.0
 51
270.0
  0
LINE
  5
1EB
  8
DETAIL
  6
CONTINUOUS
 10
-102.0
 20
1775.3
 30
0.0
 11
102.0
 21
1775.3
 31
0.0
  0
LINE
  5
1EC
  8
DETAIL
  6
CONTINUOUS
 10
-12.112693
 20
1825.2
 30
0.0
 11
-13.6
 21
1808.2
 31
0.0
  0
LINE
  5
1ED
  8
DETAIL
  6
CONTINUOUS
 10
-11.108873
 20
1825.2
 30
0.0
 11
-12.59618
 21
1808.2
 31
0.0
  0
LINE
  5
1EE
  8
DETAIL
  6
CONTINUOUS
 10
-13.6
 20
1808.2
 30
0.0
 11
13.6
 21
1808.2
 31
0.0
  0
LINE
  5
1EF
  8
DETAIL
  6
CONTINUOUS
 10
-12.112693
 20
1825.2
 30
0.0
 11
12.112693
 21
1825.2
 31
0.0
  0
LINE
  5
1F0
  8
DETAIL
  6
CONTINUOUS
 10
-13.6
 20
1790.3
 30
0.0
 11
-13.6
 21
1808.2
 31
0.0
  0
LINE
  5
1F1
  8
DETAIL
  6
CONTINUOUS
 10
11.108873
 20
1825.2
 30
0.0
 11
12.59618
 21
1808.2
 31
0.0
  0
LINE
  5
1F2
  8
DETAIL
  6
CONTINUOUS
 10
12.112693
 20
1825.2
 30
0.0
 11
13.6
 21
1808.2
 31
0.0
  0
LINE
  5
1F3
  8
DETAIL
  6
CONTINUOUS
 10
13.6
 20
1790.3
 30
0.0
 11
13.6
 21
1808.2
 31
0.0
  0
LINE
  5
1F4
  8
DETAIL
  6
CONTINUOUS
 10
137.525769
 20
1779.602268
 30
0.0
 11
135.203054
 21
1779.681957
 31
0.0
  0
ARC
  5
1F5
  8
DETAIL
  6
CONTINUOUS
 10
137.697211
 20
1784.599328
 30
0.0
 40
5.0
 50
268.035034
 51
324.344966
  0
LINE
  5
1F6
  8
DETAIL
  6
CONTINUOUS
 10
135.031612
 20
1774.684897
 30
0.0
 11
135.203054
 21
1779.681957
 31
0.0
  0
ARC
  5
1F7
  8
DETAIL
  6
CONTINUOUS
 10
171.228619
 20
1788.451854
 30
0.0
 40
20.0
 50
88.035034
 51
144.344966
  0
LINE
  5
1F8
  8
DETAIL
  6
CONTINUOUS
 10
163.221659
 20
1793.319053
 30
0.0
 11
155.019851
 21
1773.999129
 31
0.0
  0
ARC
  5
1F9
  8
DETAIL
  6
CONTINUOUS
 10
172.426538
 20
1789.411344
 30
0.0
 40
10.0
 50
88.035034
 51
156.997523
  0
LINE
  5
1FA
  8
DETAIL
  6
CONTINUOUS
 10
171.914387
 20
1808.440094
 30
0.0
 11
260.454942
 21
1805.402393
 31
0.0
  0
LINE
  5
1FB
  8
DETAIL
  6
CONTINUOUS
 10
172.769422
 20
1799.405464
 30
0.0
 11
258.982715
 21
1796.447607
 31
0.0
  0
LINE
  5
1FC
  8
DETAIL
  6
CONTINUOUS
 10
154.977794
 20
1800.109928
 30
0.0
 11
141.759917
 21
1781.684809
 31
0.0
  0
LINE
  5
1FD
  8
DETAIL
  6
CONTINUOUS
 10
276.78079
 20
1795.93104
 30
0.0
 11
288.704794
 21
1776.643338
 31
0.0
  0
ARC
  5
1FE
  8
DETAIL
  6
CONTINUOUS
 10
258.639831
 20
1786.453488
 30
0.0
 40
10.0
 50
19.072545
 51
88.035034
  0
ARC
  5
1FF
  8
DETAIL
  6
CONTINUOUS
 10
259.769174
 20
1785.414153
 30
0.0
 40
20.0
 50
31.725101
 51
88.035034
  0
LINE
  5
200
  8
DETAIL
  6
CONTINUOUS
 10
294.937529
 20
1769.198751
 30
0.0
 11
295.108971
 21
1774.195811
 31
0.0
  0
LINE
  5
201
  8
DETAIL
  6
CONTINUOUS
 10
292.786256
 20
1774.2755
 30
0.0
 11
295.108971
 21
1774.195811
 31
0.0
  0
ARC
  5
202
  8
DETAIL
  6
CONTINUOUS
 10
292.957698
 20
1779.27256
 30
0.0
 40
5.0
 50
211.725101
 51
268.035034
  0
LINE
  5
203
  8
DETAIL
  6
CONTINUOUS
 10
268.090887
 20
1789.721138
 30
0.0
 11
274.949289
 21
1769.884519
 31
0.0
  0
LINE
  5
204
  8
DETAIL
  6
CONTINUOUS
 10
155.019851
 20
1773.999129
 30
0.0
 11
135.031612
 21
1774.684897
 31
0.0
  0
LINE
  5
205
  8
DETAIL
  6
CONTINUOUS
 10
274.949289
 20
1769.884519
 30
0.0
 11
294.937529
 21
1769.198751
 31
0.0
  0
LINE
  5
206
  8
DETAIL
  6
CONTINUOUS
 10
-137.525769
 20
1779.602268
 30
0.0
 11
-135.203054
 21
1779.681957
 31
0.0
  0
ARC
  5
207
  8
DETAIL
  6
CONTINUOUS
 10
-137.697211
 20
1784.599328
 30
0.0
 40
5.0
 50
215.655034
 51
271.964966
  0
LINE
  5
208
  8
DETAIL
  6
CONTINUOUS
 10
-135.031612
 20
1774.684897
 30
0.0
 11
-135.203054
 21
1779.681957
 31
0.0
  0
ARC
  5
209
  8
DETAIL
  6
CONTINUOUS
 10
-171.228619
 20
1788.451854
 30
0.0
 40
20.0
 50
35.655034
 51
91.964966
  0
LINE
  5
20A
  8
DETAIL
  6
CONTINUOUS
 10
-163.221659
 20
1793.319053
 30
0.0
 11
-155.019851
 21
1773.999129
 31
0.0
  0
ARC
  5
20B
  8
DETAIL
  6
CONTINUOUS
 10
-172.426538
 20
1789.411344
 30
0.0
 40
10.0
 50
23.002477
 51
91.964966
  0
LINE
  5
20C
  8
DETAIL
  6
CONTINUOUS
 10
-171.914387
 20
1808.440094
 30
0.0
 11
-260.454942
 21
1805.402393
 31
0.0
  0
LINE
  5
20D
  8
DETAIL
  6
CONTINUOUS
 10
-172.769422
 20
1799.405464
 30
0.0
 11
-258.982715
 21
1796.447607
 31
0.0
  0
LINE
  5
20E
  8
DETAIL
  6
CONTINUOUS
 10
-154.977794
 20
1800.109928
 30
0.0
 11
-141.759917
 21
1781.684809
 31
0.0
  0
LINE
  5
20F
  8
DETAIL
  6
CONTINUOUS
 10
-276.78079
 20
1795.93104
 30
0.0
 11
-288.704794
 21
1776.643338
 31
0.0
  0
ARC
  5
210
  8
DETAIL
  6
CONTINUOUS
 10
-258.639831
 20
1786.453488
 30
0.0
 40
10.0
 50
91.964966
 51
160.927455
  0
ARC
  5
211
  8
DETAIL
  6
CONTINUOUS
 10
-259.769174
 20
1785.414153
 30
0.0
 40
20.0
 50
91.964966
 51
148.274899
  0
LINE
  5
212
  8
DETAIL
  6
CONTINUOUS
 10
-294.937529
 20
1769.198751
 30
0.0
 11
-295.108971
 21
1774.195811
 31
0.0
  0
LINE
  5
213
  8
DETAIL
  6
CONTINUOUS
 10
-292.786256
 20
1774.2755
 30
0.0
 11
-295.108971
 21
1774.195811
 31
0.0
  0
ARC
  5
214
  8
DETAIL
  6
CONTINUOUS
 10
-292.957698
 20
1779.27256
 30
0.0
 40
5.0
 50
271.964966
 51
328.274899
  0
LINE
  5
215
  8
DETAIL
  6
CONTINUOUS
 10
-268.090887
 20
1789.721138
 30
0.0
 11
-274.949289
 21
1769.884519
 31
0.0
  0
LINE
  5
216
  8
DETAIL
  6
CONTINUOUS
 10
-155.019851
 20
1773.999129
 30
0.0
 11
-135.031612
 21
1774.684897
 31
0.0
  0
LINE
  5
217
  8
DETAIL
  6
CONTINUOUS
 10
-274.949289
 20
1769.884519
 30
0.0
 11
-294.937529
 21
1769.198751
 31
0.0
  0
LINE
  5
218
  8
DETAIL
  6
CONTINUOUS
 10
-36.6
 20
28.3
 30
0.0
 11
-36.6
 21
150.0
 31
0.0
  0
LINE
  5
219
  8
DETAIL
  6
CONTINUOUS
 10
36.6
 20
25.1
 30
0.0
 11
36.6
 21
0.0
 31
0.0
  0
LINE
  5
21A
  8
DETAIL
  6
CONTINUOUS
 10
-358.351604
 20
0.0
 30
0.0
 11
-214.710864
 21
0.0
 31
0.0
  0
LINE
  5
21B
  8
DETAIL
  6
CONTINUOUS
 10
-214.710864
 20
10.0
 30
0.0
 11
-214.710864
 21
0.0
 31
0.0
  0
ARC
  5
21C
  8
DETAIL
  6
CONTINUOUS
 10
-224.710864
 20
10.0
 30
0.0
 40
10.0
 50
0.0
 51
90.0
  0
LINE
  5
21D
  8
DETAIL
  6
CONTINUOUS
 10
-358.598014
 20
10.0
 30
0.0
 11
-358.598014
 21
0.0
 31
0.0
  0
ARC
  5
21E
  8
DETAIL
  6
CONTINUOUS
 10
-348.598014
 20
10.0
 30
0.0
 40
10.0
 50
90.0
 51
180.0
  0
LINE
  5
21F
  8
DETAIL
  6
CONTINUOUS
 10
-239.645216
 20
20.0
 30
0.0
 11
-224.710864
 21
20.0
 31
0.0
  0
LINE
  5
220
  8
DETAIL
  6
CONTINUOUS
 10
-239.645216
 20
20.0
 30
0.0
 11
-239.645216
 21
150.0
 31
0.0
  0
LINE
  5
221
  8
DETAIL
  6
CONTINUOUS
 10
-321.492896
 20
20.0
 30
0.0
 11
-321.492896
 21
150.0
 31
0.0
  0
LINE
  5
222
  8
DETAIL
  6
CONTINUOUS
 10
-251.210834
 20
10.0
 30
0.0
 11
-251.210834
 21
0.0
 31
0.0
  0
ARC
  5
223
  8
DETAIL
  6
CONTINUOUS
 10
-261.210834
 20
10.0
 30
0.0
 40
10.0
 50
0.0
 51
90.0
  0
LINE
  5
224
  8
DETAIL
  6
CONTINUOUS
 10
-276.145186
 20
20.0
 30
0.0
 11
-261.210834
 21
20.0
 31
0.0
  0
LINE
  5
225
  8
DETAIL
  6
CONTINUOUS
 10
-276.145186
 20
20.0
 30
0.0
 11
-276.145186
 21
150.0
 31
0.0
  0
LINE
  5
226
  8
DETAIL
  6
CONTINUOUS
 10
-348.351604
 20
20.0
 30
0.0
 11
-321.492896
 21
20.0
 31
0.0
  0
LINE
  5
227
  8
DETAIL
  6
CONTINUOUS
 10
251.210834
 20
10.0
 30
0.0
 11
251.210834
 21
0.0
 31
0.0
  0
ARC
  5
228
  8
DETAIL
  6
CONTINUOUS
 10
261.210834
 20
10.0
 30
0.0
 40
10.0
 50
90.0
 51
180.0
  0
LINE
  5
229
  8
DETAIL
  6
CONTINUOUS
 10
276.145186
 20
20.0
 30
0.0
 11
261.210834
 21
20.0
 31
0.0
  0
LINE
  5
22A
  8
DETAIL
  6
CONTINUOUS
 10
276.145186
 20
20.0
 30
0.0
 11
276.145186
 21
150.0
 31
0.0
  0
LINE
  5
22B
  8
DETAIL
  6
CONTINUOUS
 10
358.351604
 20
0.0
 30
0.0
 11
214.710864
 21
0.0
 31
0.0
  0
LINE
  5
22C
  8
DETAIL
  6
CONTINUOUS
 10
214.710864
 20
10.0
 30
0.0
 11
214.710864
 21
0.0
 31
0.0
  0
ARC
  5
22D
  8
DETAIL
  6
CONTINUOUS
 10
224.710864
 20
10.0
 30
0.0
 40
10.0
 50
90.0
 51
180.0
  0
LINE
  5
22E
  8
DETAIL
  6
CONTINUOUS
 10
358.598014
 20
10.0
 30
0.0
 11
358.598014
 21
0.0
 31
0.0
  0
ARC
  5
22F
  8
DETAIL
  6
CONTINUOUS
 10
348.598014
 20
10.0
 30
0.0
 40
10.0
 50
0.0
 51
90.0
  0
LINE
  5
230
  8
DETAIL
  6
CONTINUOUS
 10
239.645216
 20
20.0
 30
0.0
 11
224.710864
 21
20.0
 31
0.0
  0
LINE
  5
231
  8
DETAIL
  6
CONTINUOUS
 10
239.645216
 20
20.0
 30
0.0
 11
239.645216
 21
150.0
 31
0.0
  0
LINE
  5
232
  8
DETAIL
  6
CONTINUOUS
 10
321.492896
 20
20.0
 30
0.0
 11
321.492896
 21
150.0
 31
0.0
  0
LINE
  5
233
  8
DETAIL
  6
CONTINUOUS
 10
348.351604
 20
20.0
 30
0.0
 11
321.492896
 21
20.0
 31
0.0
  0
LINE
  5
234
  8
DETAIL
  6
CONTINUOUS
 10
-36.6
 20
0.0
 30
0.0
 11
-36.6
 21
25.1
 31
0.0
  0
LINE
  5
235
  8
DETAIL
  6
CONTINUOUS
 10
36.6
 20
0.0
 30
0.0
 11
-36.6
 21
0.0
 31
0.0
  0
LINE
  5
236
  8
DETAIL
  6
CONTINUOUS
 10
36.6
 20
150.0
 30
0.0
 11
36.6
 21
28.3
 31
0.0
  0
LINE
  5
237
  8
DETAIL
  6
CONTINUOUS
 10
-360.0
 20
150.0
 30
0.0
 11
-360.0
 21
1759.697135
 31
0.0
  0
LINE
  5
238
  8
DETAIL
  6
CONTINUOUS
 10
360.0
 20
150.0
 30
0.0
 11
360.0
 21
1759.697135
 31
0.0
  0
LINE
  5
239
  8
DETAIL
  6
CONTINUOUS
 10
-360.0
 20
150.0
 30
0.0
 11
360.0
 21
150.0
 31
0.0
  0
ARC
  5
23A
  8
DETAIL
  6
CONTINUOUS
 10
-354.0
 20
1759.697135
 30
0.0
 40
6.0
 50
93.554092
 51
180.0
  0
ARC
  5
23B
  8
DETAIL
  6
CONTINUOUS
 10
354.0
 20
1759.697135
 30
0.0
 40
6.0
 50
0.0
 51
86.445908
  0
ARC
  5
23C
  8
DETAIL
  6
CONTINUOUS
 10
-44.380536
 20
-3225.296842
 30
0.0
 40
5000.6
 50
90.06439
 51
93.554092
  0
LINE
  5
23D
  8
DETAIL
  6
CONTINUOUS
 10
50.000337
 20
1775.3
 30
0.0
 11
-50.000337
 21
1775.3
 31
0.0
  0
LINE
  5
23E
  8
DETAIL
  6
CONTINUOUS
 10
360.0
 20
1739.7
 30
0.0
 11
-360.0
 21
1739.7
 31
0.0
  0
ARC
  5
23F
  8
DETAIL
  6
CONTINUOUS
 10
44.380536
 20
-3225.296842
 30
0.0
 40
5000.6
 50
86.445908
 51
89.93561
  0
LINE
  5
240
  8
DETAIL
  6
CONTINUOUS
 10
356.146602
 20
1765.3
 30
0.0
 11
-356.146602
 21
1765.3
 31
0.0
  0
LINE
  5
241
  8
DETAIL
  6
CONTINUOUS
 10
-274.949289
 20
1769.884519
 30
0.0
 11
-294.937529
 21
1769.198751
 31
0.0
  0
LINE
  5
242
  8
DETAIL
  6
CONTINUOUS
 10
-155.019851
 20
1773.999129
 30
0.0
 11
-135.031612
 21
1774.684897
 31
0.0
  0
LINE
  5
243
  8
DETAIL
  6
CONTINUOUS
 10
-268.090887
 20
1789.721138
 30
0.0
 11
-274.949289
 21
1769.884519
 31
0.0
  0
ARC
  5
244
  8
DETAIL
  6
CONTINUOUS
 10
-292.957698
 20
1779.27256
 30
0.0
 40
5.0
 50
271.964966
 51
328.274899
  0
LINE
  5
245
  8
DETAIL
  6
CONTINUOUS
 10
-292.786256
 20
1774.2755
 30
0.0
 11
-295.108971
 21
1774.195811
 31
0.0
  0
LINE
  5
246
  8
DETAIL
  6
CONTINUOUS
 10
-294.937529
 20
1769.198751
 30
0.0
 11
-295.108971
 21
1774.195811
 31
0.0
  0
ARC
  5
247
  8
DETAIL
  6
CONTINUOUS
 10
-259.769174
 20
1785.414153
 30
0.0
 40
20.0
 50
91.964966
 51
148.274899
  0
ARC
  5
248
  8
DETAIL
  6
CONTINUOUS
 10
-258.639831
 20
1786.453488
 30
0.0
 40
10.0
 50
91.964966
 51
160.927455
  0
LINE
  5
249
  8
DETAIL
  6
CONTINUOUS
 10
-276.78079
 20
1795.93104
 30
0.0
 11
-288.704794
 21
1776.643338
 31
0.0
  0
LINE
  5
24A
  8
DETAIL
  6
CONTINUOUS
 10
-154.977794
 20
1800.109928
 30
0.0
 11
-141.759917
 21
1781.684809
 31
0.0
  0
LINE
  5
24B
  8
DETAIL
  6
CONTINUOUS
 10
-172.769422
 20
1799.405464
 30
0.0
 11
-258.982715
 21
1796.447607
 31
0.0
  0
LINE
  5
24C
  8
DETAIL
  6
CONTINUOUS
 10
-171.914387
 20
1808.440094
 30
0.0
 11
-260.454942
 21
1805.402393
 31
0.0
  0
ARC
  5
24D
  8
DETAIL
  6
CONTINUOUS
 10
-172.426538
 20
1789.411344
 30
0.0
 40
10.0
 50
23.002477
 51
91.964966
  0
LINE
  5
24E
  8
DETAIL
  6
CONTINUOUS
 10
-163.221659
 20
1793.319053
 30
0.0
 11
-155.019851
 21
1773.999129
 31
0.0
  0
ARC
  5
24F
  8
DETAIL
  6
CONTINUOUS
 10
-171.228619
 20
1788.451854
 30
0.0
 40
20.0
 50
35.655034
 51
91.964966
  0
LINE
  5
250
  8
DETAIL
  6
CONTINUOUS
 10
-135.031612
 20
1774.684897
 30
0.0
 11
-135.203054
 21
1779.681957
 31
0.0
  0
ARC
  5
251
  8
DETAIL
  6
CONTINUOUS
 10
-137.697211
 20
1784.599328
 30
0.0
 40
5.0
 50
215.655034
 51
271.964966
  0
LINE
  5
252
  8
DETAIL
  6
CONTINUOUS
 10
-137.525769
 20
1779.602268
 30
0.0
 11
-135.203054
 21
1779.681957
 31
0.0
  0
LINE
  5
253
  8
DETAIL
  6
CONTINUOUS
 10
274.949289
 20
1769.884519
 30
0.0
 11
294.937529
 21
1769.198751
 31
0.0
  0
LINE
  5
254
  8
DETAIL
  6
CONTINUOUS
 10
155.019851
 20
1773.999129
 30
0.0
 11
135.031612
 21
1774.684897
 31
0.0
  0
LINE
  5
255
  8
DETAIL
  6
CONTINUOUS
 10
268.090887
 20
1789.721138
 30
0.0
 11
274.949289
 21
1769.884519
 31
0.0
  0
ARC
  5
256
  8
DETAIL
  6
CONTINUOUS
 10
292.957698
 20
1779.27256
 30
0.0
 40
5.0
 50
211.725101
 51
268.035034
  0
LINE
  5
257
  8
DETAIL
  6
CONTINUOUS
 10
292.786256
 20
1774.2755
 30
0.0
 11
295.108971
 21
1774.195811
 31
0.0
  0
LINE
  5
258
  8
DETAIL
  6
CONTINUOUS
 10
294.937529
 20
1769.198751
 30
0.0
 11
295.108971
 21
1774.195811
 31
0.0
  0
ARC
  5
259
  8
DETAIL
  6
CONTINUOUS
 10
259.769174
 20
1785.414153
 30
0.0
 40
20.0
 50
31.725101
 51
88.035034
  0
ARC
  5
25A
  8
DETAIL
  6
CONTINUOUS
 10
258.639831
 20
1786.453488
 30
0.0
 40
10.0
 50
19.072545
 51
88.035034
  0
LINE
  5
25B
  8
DETAIL
  6
CONTINUOUS
 10
276.78079
 20
1795.93104
 30
0.0
 11
288.704794
 21
1776.643338
 31
0.0
  0
LINE
  5
25C
  8
DETAIL
  6
CONTINUOUS
 10
154.977794
 20
1800.109928
 30
0.0
 11
141.759917
 21
1781.684809
 31
0.0
  0
LINE
  5
25D
  8
DETAIL
  6
CONTINUOUS
 10
172.769422
 20
1799.405464
 30
0.0
 11
258.982715
 21
1796.447607
 31
0.0
  0
LINE
  5
25E
  8
DETAIL
  6
CONTINUOUS
 10
171.914387
 20
1808.440094
 30
0.0
 11
260.454942
 21
1805.402393
 31
0.0
  0
ARC
  5
25F
  8
DETAIL
  6
CONTINUOUS
 10
172.426538
 20
1789.411344
 30
0.0
 40
10.0
 50
88.035034
 51
156.997523
  0
LINE
  5
260
  8
DETAIL
  6
CONTINUOUS
 10
163.221659
 20
1793.319053
 30
0.0
 11
155.019851
 21
1773.999129
 31
0.0
  0
ARC
  5
261
  8
DETAIL
  6
CONTINUOUS
 10
171.228619
 20
1788.451854
 30
0.0
 40
20.0
 50
88.035034
 51
144.344966
  0
LINE
  5
262
  8
DETAIL
  6
CONTINUOUS
 10
135.031612
 20
1774.684897
 30
0.0
 11
135.203054
 21
1779.681957
 31
0.0
  0
ARC
  5
263
  8
DETAIL
  6
CONTINUOUS
 10
137.697211
 20
1784.599328
 30
0.0
 40
5.0
 50
268.035034
 51
324.344966
  0
LINE
  5
264
  8
DETAIL
  6
CONTINUOUS
 10
137.525769
 20
1779.602268
 30
0.0
 11
135.203054
 21
1779.681957
 31
0.0
  0
LINE
  5
265
  8
DETAIL
  6
CONTINUOUS
 10
13.6
 20
1790.3
 30
0.0
 11
13.6
 21
1808.2
 31
0.0
  0
LINE
  5
266
  8
DETAIL
  6
CONTINUOUS
 10
12.112693
 20
1825.2
 30
0.0
 11
13.6
 21
1808.2
 31
0.0
  0
LINE
  5
267
  8
DETAIL
  6
CONTINUOUS
 10
11.108873
 20
1825.2
 30
0.0
 11
12.59618
 21
1808.2
 31
0.0
  0
LINE
  5
268
  8
DETAIL
  6
CONTINUOUS
 10
-13.6
 20
1790.3
 30
0.0
 11
-13.6
 21
1808.2
 31
0.0
  0
LINE
  5
269
  8
DETAIL
  6
CONTINUOUS
 10
-12.112693
 20
1825.2
 30
0.0
 11
12.112693
 21
1825.2
 31
0.0
  0
LINE
  5
26A
  8
DETAIL
  6
CONTINUOUS
 10
-13.6
 20
1808.2
 30
0.0
 11
13.6
 21
1808.2
 31
0.0
  0
LINE
  5
26B
  8
DETAIL
  6
CONTINUOUS
 10
-11.108873
 20
1825.2
 30
0.0
 11
-12.59618
 21
1808.2
 31
0.0
  0
LINE
  5
26C
  8
DETAIL
  6
CONTINUOUS
 10
-12.112693
 20
1825.2
 30
0.0
 11
-13.6
 21
1808.2
 31
0.0
  0
LINE
  5
26D
  8
DETAIL
  6
CONTINUOUS
 10
-102.0
 20
1775.3
 30
0.0
 11
102.0
 21
1775.3
 31
0.0
  0
ARC
  5
26E
  8
DETAIL
  6
CONTINUOUS
 10
95.0
 20
1781.3
 30
0.0
 40
4.0
 50
180.0
 51
270.0
  0
LINE
  5
26F
  8
DETAIL
  6
CONTINUOUS
 10
95.0
 20
1777.3
 30
0.0
 11
102.0
 21
1777.3
 31
0.0
  0
LINE
  5
270
  8
DETAIL
  6
CONTINUOUS
 10
102.0
 20
1775.3
 30
0.0
 11
102.0
 21
1777.3
 31
0.0
  0
LINE
  5
271
  8
DETAIL
  6
CONTINUOUS
 10
91.0
 20
1781.3
 30
0.0
 11
91.0
 21
1784.3
 31
0.0
  0
LINE
  5
272
  8
DETAIL
  6
CONTINUOUS
 10
-102.0
 20
1775.3
 30
0.0
 11
-102.0
 21
1777.3
 31
0.0
  0
ARC
  5
273
  8
DETAIL
  6
CONTINUOUS
 10
-95.0
 20
1781.3
 30
0.0
 40
4.0
 50
270.0
 51
0.0
  0
LINE
  5
274
  8
DETAIL
  6
CONTINUOUS
 10
-95.0
 20
1777.3
 30
0.0
 11
-102.0
 21
1777.3
 31
0.0
  0
LINE
  5
275
  8
DETAIL
  6
CONTINUOUS
 10
-91.0
 20
1781.3
 30
0.0
 11
-91.0
 21
1784.3
 31
0.0
  0
ARC
  5
276
  8
DETAIL
  6
CONTINUOUS
 10
-85.0
 20
1784.3
 30
0.0
 40
6.0
 50
90.0
 51
180.0
  0
LINE
  5
277
  8
DETAIL
  6
CONTINUOUS
 10
-85.0
 20
1790.3
 30
0.0
 11
85.0
 21
1790.3
 31
0.0
  0
ARC
  5
278
  8
DETAIL
  6
CONTINUOUS
 10
85.0
 20
1784.3
 30
0.0
 40
6.0
 50
0.0
 51
90.0
  0
LINE
  5
279
  8
DETAIL
  6
CONTINUOUS
 10
45.204581
 20
1790.3
 30
0.0
 11
45.204581
 21
1808.3
 31
0.0
  0
LINE
  5
27A
  8
DETAIL
  6
CONTINUOUS
 10
55.204581
 20
1790.3
 30
0.0
 11
55.204581
 21
1808.3
 31
0.0
  0
LINE
  5
27B
  8
DETAIL
  6
CONTINUOUS
 10
45.204581
 20
1808.3
 30
0.0
 11
55.204581
 21
1808.3
 31
0.0
  0
LINE
  5
27C
  8
DETAIL
  6
CONTINUOUS
 10
54.204581
 20
1790.3
 30
0.0
 11
54.204581
 21
1808.3
 31
0.0
  0
LINE
  5
27D
  8
DETAIL
  6
CONTINUOUS
 10
46.204581
 20
1790.3
 30
0.0
 11
46.204581
 21
1808.3
 31
0.0
  0
LINE
  5
27E
  8
DETAIL
  6
CONTINUOUS
 10
-45.204581
 20
1808.3
 30
0.0
 11
-55.204581
 21
1808.3
 31
0.0
  0
LINE
  5
27F
  8
DETAIL
  6
CONTINUOUS
 10
-55.204581
 20
1790.3
 30
0.0
 11
-55.204581
 21
1808.3
 31
0.0
  0
LINE
  5
280
  8
DETAIL
  6
CONTINUOUS
 10
-45.204581
 20
1790.3
 30
0.0
 11
-45.204581
 21
1808.3
 31
0.0
  0
LINE
  5
281
  8
DETAIL
  6
CONTINUOUS
 10
-54.204581
 20
1790.3
 30
0.0
 11
-54.204581
 21
1808.3
 31
0.0
  0
LINE
  5
282
  8
DETAIL
  6
CONTINUOUS
 10
-46.204581
 20
1790.3
 30
0.0
 11
-46.204581
 21
1808.3
 31
0.0
  0
LINE
  5
283
  8
DETAIL
  6
CONTINUOUS
 10
-97.5
 20
3.2
 30
0.0
 11
-97.5
 21
0.0
 31
0.0
  0
LINE
  5
284
  8
DETAIL
  6
CONTINUOUS
 10
46.8
 20
28.3
 30
0.0
 11
-46.8
 21
28.3
 31
0.0
  0
LINE
  5
285
  8
DETAIL
  6
CONTINUOUS
 10
-58.2
 20
0.0
 30
0.0
 11
-97.5
 21
0.0
 31
0.0
  0
LINE
  5
286
  8
DETAIL
  6
CONTINUOUS
 10
-58.2
 20
3.2
 30
0.0
 11
-97.5
 21
3.2
 31
0.0
  0
LINE
  5
287
  8
DETAIL
  6
CONTINUOUS
 10
-50.0
 20
8.2
 30
0.0
 11
-50.0
 21
21.9
 31
0.0
  0
LINE
  5
288
  8
DETAIL
  6
CONTINUOUS
 10
-53.2
 20
8.2
 30
0.0
 11
-53.2
 21
21.9
 31
0.0
  0
LINE
  5
289
  8
DETAIL
  6
CONTINUOUS
 10
46.8
 20
25.1
 30
0.0
 11
-46.8
 21
25.1
 31
0.0
  0
ARC
  5
28A
  8
DETAIL
  6
CONTINUOUS
 10
-46.8
 20
21.9
 30
0.0
 40
3.2
 50
90.0
 51
180.0
  0
ARC
  5
28B
  8
DETAIL
  6
CONTINUOUS
 10
-58.2
 20
8.2
 30
0.0
 40
5.0
 50
270.0
 51
0.0
  0
ARC
  5
28C
  8
DETAIL
  6
CONTINUOUS
 10
-46.8
 20
21.9
 30
0.0
 40
6.4
 50
90.0
 51
180.0
  0
ARC
  5
28D
  8
DETAIL
  6
CONTINUOUS
 10
-58.2
 20
8.2
 30
0.0
 40
8.2
 50
270.0
 51
0.0
  0
LINE
  5
28E
  8
DETAIL
  6
CONTINUOUS
 10
50.0
 20
8.2
 30
0.0
 11
50.0
 21
21.9
 31
0.0
  0
ARC
  5
28F
  8
DETAIL
  6
CONTINUOUS
 10
46.8
 20
21.9
 30
0.0
 40
6.4
 50
0.0
 51
90.0
  0
ARC
  5
290
  8
DETAIL
  6
CONTINUOUS
 10
46.8
 20
21.9
 30
0.0
 40
3.2
 50
0.0
 51
90.0
  0
LINE
  5
291
  8
DETAIL
  6
CONTINUOUS
 10
53.2
 20
8.2
 30
0.0
 11
53.2
 21
21.9
 31
0.0
  0
ARC
  5
292
  8
DETAIL
  6
CONTINUOUS
 10
58.2
 20
8.2
 30
0.0
 40
8.2
 50
180.0
 51
270.0
  0
ARC
  5
293
  8
DETAIL
  6
CONTINUOUS
 10
58.2
 20
8.2
 30
0.0
 40
5.0
 50
180.0
 51
270.0
  0
LINE
  5
294
  8
DETAIL
  6
CONTINUOUS
 10
97.5
 20
3.2
 30
0.0
 11
97.5
 21
0.0
 31
0.0
  0
LINE
  5
295
  8
DETAIL
  6
CONTINUOUS
 10
58.2
 20
0.0
 30
0.0
 11
97.5
 21
0.0
 31
0.0
  0
LINE
  5
296
  8
DETAIL
  6
CONTINUOUS
 10
58.2
 20
3.2
 30
0.0
 11
97.5
 21
3.2
 31
0.0
  0
LINE
  5
297
  8
BASIS
  6
DASHDOT
 10
0.0
 20
-16.5774
 30
0.0
 11
0.0
 21
1888.610868
 31
0.0
  0
LINE
  5
298
  8
SIZE
  6
CONTINUOUS
 62
    30
 10
-330.821716
 20
-30.0
 30
0.0
 11
-330.821716
 21
-361.195276
 31
0.0
  0
LINE
  5
299
  8
SIZE
  6
CONTINUOUS
 62
    30
 10
330.821716
 20
-30.0
 30
0.0
 11
330.821716
 21
-361.195276
 31
0.0
  0
LINE
  5
29A
  8
SIZE
  6
CONTINUOUS
 62
    30
 10
-320.821716
 20
-348.695276
 30
0.0
 11
320.821716
 21
-348.695276
 31
0.0
  0
CIRCLE
  5
29B
  8
SIZE
  6
CONTINUOUS
 62
    30
 10
-330.821716
 20
-348.695276
 30
0.0
 40
5.0
  0
LINE
  5
29C
  8
SIZE
  6
CONTINUOUS
 62
    30
 10
-330.821716
 20
-348.695276
 30
0.0
 11
-320.821716
 21
-348.695276
 31
0.0
  0
CIRCLE
  5
29D
  8
SIZE
  6
CONTINUOUS
 62
    30
 10
330.821716
 20
-348.695276
 30
0.0
 40
5.0
  0
LINE
  5
29E
  8
SIZE
  6
CONTINUOUS
 62
    30
 10
330.821716
 20
-348.695276
 30
0.0
 11
320.821716
 21
-348.695276
 31
0.0
  0
TEXT
  5
29F
  8
SIZE
  6
CONTINUOUS
 62
    30
 10
-35.81681
 20
-338.695276
 30
0.0
 40
30.0
  1
662
 72
     1
 11
4.18319
 21
-338.695276
 31
0.0
  0
POINT
  5
2A0
  8
DEFPOINTS
  6
CONTINUOUS
 62
    30
 10
-330.821716
 20
-20.0
 30
0.0
  0
POINT
  5
2A1
  8
DEFPOINTS
  6
CONTINUOUS
 62
    30
 10
330.821716
 20
-20.0
 30
0.0
  0
POINT
  5
2A2
  8
DEFPOINTS
  6
CONTINUOUS
 62
    30
 10
330.821716
 20
-348.695276
 30
0.0
  0
LINE
  5
2A3
  8
SIZE
  6
CONTINUOUS
 62
    30
 10
80.0
 20
-30.0
 30
0.0
 11
80.0
 21
-161.195276
 31
0.0
  0
LINE
  5
2A4
  8
SIZE
  6
CONTINUOUS
 62
    30
 10
-80.0
 20
-30.0
 30
0.0
 11
-80.0
 21
-161.195276
 31
0.0
  0
LINE
  5
2A5
  8
SIZE
  6
CONTINUOUS
 62
    30
 10
70.0
 20
-148.695276
 30
0.0
 11
-70.0
 21
-148.695276
 31
0.0
  0
CIRCLE
  5
2A6
  8
SIZE
  6
CONTINUOUS
 62
    30
 10
80.0
 20
-148.695276
 30
0.0
 40
5.0
  0
LINE
  5
2A7
  8
SIZE
  6
CONTINUOUS
 62
    30
 10
80.0
 20
-148.695276
 30
0.0
 11
70.0
 21
-148.695276
 31
0.0
  0
CIRCLE
  5
2A8
  8
SIZE
  6
CONTINUOUS
 62
    30
 10
-80.0
 20
-148.695276
 30
0.0
 40
5.0
  0
LINE
  5
2A9
  8
SIZE
  6
CONTINUOUS
 62
    30
 10
-80.0
 20
-148.695276
 30
0.0
 11
-70.0
 21
-148.695276
 31
0.0
  0
TEXT
  5
2AA
  8
SIZE
  6
CONTINUOUS
 62
    30
 10
-32.5
 20
-138.695276
 30
0.0
 40
30.0
  1
160
 72
     1
 11
0.0
 21
-138.695276
 31
0.0
  0
POINT
  5
2AB
  8
DEFPOINTS
  6
CONTINUOUS
 62
    30
 10
80.0
 20
-20.0
 30
0.0
  0
POINT
  5
2AC
  8
DEFPOINTS
  6
CONTINUOUS
 62
    30
 10
-80.0
 20
-20.0
 30
0.0
  0
POINT
  5
2AD
  8
DEFPOINTS
  6
CONTINUOUS
 62
    30
 10
-80.0
 20
-148.695276
 30
0.0
  0
LINE
  5
2AE
  8
SIZE
  6
CONTINUOUS
 62
    30
 10
-56.799999
 20
25.1
 30
0.0
 11
-180.067694
 21
25.1
 31
0.0
  0
LINE
  5
2AF
  8
SIZE
  6
CONTINUOUS
 62
    30
 10
-110.0
 20
0.0
 30
0.0
 11
-180.067694
 21
0.0
 31
0.0
  0
LINE
  5
2B0
  8
SIZE
  6
CONTINUOUS
 62
    30
 10
-167.567694
 20
35.1
 30
0.0
 11
-167.567694
 21
45.1
 31
0.0
  0
LINE
  5
2B1
  8
SIZE
  6
CONTINUOUS
 62
    30
 10
-167.567694
 20
-10.0
 30
0.0
 11
-167.567694
 21
-92.640221
 31
0.0
  0
LINE
  5
2B2
  8
SIZE
  6
CONTINUOUS
 62
    30
 10
-167.567694
 20
25.1
 30
0.0
 11
-167.567694
 21
0.0
 31
0.0
  0
CIRCLE
  5
2B3
  8
SIZE
  6
CONTINUOUS
 62
    30
 10
-167.567694
 20
25.1
 30
0.0
 40
5.0
  0
LINE
  5
2B4
  8
SIZE
  6
CONTINUOUS
 62
    30
 10
-167.567694
 20
25.1
 30
0.0
 11
-167.567694
 21
35.1
 31
0.0
  0
CIRCLE
  5
2B5
  8
SIZE
  6
CONTINUOUS
 62
    30
 10
-167.567694
 20
0.0
 30
0.0
 40
5.0
  0
LINE
  5
2B6
  8
SIZE
  6
CONTINUOUS
 62
    30
 10
-167.567694
 20
0.0
 30
0.0
 11
-167.567694
 21
-10.0
 31
0.0
  0
TEXT
  5
2B7
  8
SIZE
  6
CONTINUOUS
 62
    30
 10
-177.567694
 20
-82.640221
 30
0.0
 40
30.0
  1
25
 50
90.0
 72
     1
 11
-177.567694
 21
-57.640221
 31
0.0
  0
POINT
  5
2B8
  8
DEFPOINTS
  6
CONTINUOUS
 62
    30
 10
-46.799999
 20
25.1
 30
0.0
  0
POINT
  5
2B9
  8
DEFPOINTS
  6
CONTINUOUS
 62
    30
 10
-100.0
 20
0.0
 30
0.0
  0
POINT
  5
2BA
  8
DEFPOINTS
  6
CONTINUOUS
 62
    30
 10
-167.567694
 20
0.0
 30
0.0
  0
LINE
  5
2BB
  8
SIZE
  6
CONTINUOUS
 62
    30
 10
-97.5
 20
-10.0
 30
0.0
 11
-97.5
 21
-261.195276
 31
0.0
  0
LINE
  5
2BC
  8
SIZE
  6
CONTINUOUS
 62
    30
 10
97.5
 20
-10.0
 30
0.0
 11
97.5
 21
-261.195276
 31
0.0
  0
LINE
  5
2BD
  8
SIZE
  6
CONTINUOUS
 62
    30
 10
-87.5
 20
-248.695276
 30
0.0
 11
87.5
 21
-248.695276
 31
0.0
  0
CIRCLE
  5
2BE
  8
SIZE
  6
CONTINUOUS
 62
    30
 10
-97.5
 20
-248.695276
 30
0.0
 40
5.0
  0
LINE
  5
2BF
  8
SIZE
  6
CONTINUOUS
 62
    30
 10
-97.5
 20
-248.695276
 30
0.0
 11
-87.5
 21
-248.695276
 31
0.0
  0
CIRCLE
  5
2C0
  8
SIZE
  6
CONTINUOUS
 62
    30
 10
97.5
 20
-248.695276
 30
0.0
 40
5.0
  0
LINE
  5
2C1
  8
SIZE
  6
CONTINUOUS
 62
    30
 10
97.5
 20
-248.695276
 30
0.0
 11
87.5
 21
-248.695276
 31
0.0
  0
TEXT
  5
2C2
  8
SIZE
  6
CONTINUOUS
 62
    30
 10
-36.222216
 20
-238.695276
 30
0.0
 40
30.0
  1
195
 72
     1
 11
-1.222216
 21
-238.695276
 31
0.0
  0
POINT
  5
2C3
  8
DEFPOINTS
  6
CONTINUOUS
 62
    30
 10
-97.5
 20
0.0
 30
0.0
  0
POINT
  5
2C4
  8
DEFPOINTS
  6
CONTINUOUS
 62
    30
 10
97.5
 20
0.0
 30
0.0
  0
POINT
  5
2C5
  8
DEFPOINTS
  6
CONTINUOUS
 62
    30
 10
97.5
 20
-248.695276
 30
0.0
  0
LINE
  5
2C6
  8
SIZE
  6
CONTINUOUS
 62
    30
 10
171.21701
 20
1810.307129
 30
0.0
 11
519.670038
 21
1810.307129
 31
0.0
  0
LINE
  5
2C7
  8
SIZE
  6
CONTINUOUS
 62
    30
 10
60.000336
 20
1775.300049
 30
0.0
 11
519.670038
 21
1775.300049
 31
0.0
  0
LINE
  5
2C8
  8
SIZE
  6
CONTINUOUS
 62
    30
 10
507.170038
 20
1765.300049
 30
0.0
 11
507.170038
 21
1755.300049
 31
0.0
  0
LINE
  5
2C9
  8
SIZE
  6
CONTINUOUS
 62
    30
 10
507.170038
 20
1820.307129
 30
0.0
 11
507.170038
 21
1900.307129
 31
0.0
  0
LINE
  5
2CA
  8
SIZE
  6
CONTINUOUS
 62
    30
 10
507.170038
 20
1775.300049
 30
0.0
 11
507.170038
 21
1810.307129
 31
0.0
  0
CIRCLE
  5
2CB
  8
SIZE
  6
CONTINUOUS
 62
    30
 10
507.170038
 20
1775.300049
 30
0.0
 40
5.0
  0
LINE
  5
2CC
  8
SIZE
  6
CONTINUOUS
 62
    30
 10
507.170038
 20
1775.300049
 30
0.0
 11
507.170038
 21
1765.300049
 31
0.0
  0
CIRCLE
  5
2CD
  8
SIZE
  6
CONTINUOUS
 62
    30
 10
507.170038
 20
1810.307129
 30
0.0
 40
5.0
  0
LINE
  5
2CE
  8
SIZE
  6
CONTINUOUS
 62
    30
 10
507.170038
 20
1810.307129
 30
0.0
 11
507.170038
 21
1820.307129
 31
0.0
  0
TEXT
  5
2CF
  8
SIZE
  6
CONTINUOUS
 62
    30
 10
497.170038
 20
1840.307129
 30
0.0
 40
30.0
  1
35
 50
90.0
 72
     1
 11
497.170038
 21
1865.307129
 31
0.0
  0
POINT
  5
2D0
  8
DEFPOINTS
  6
CONTINUOUS
 62
    30
 10
161.21701
 20
1810.307129
 30
0.0
  0
POINT
  5
2D1
  8
DEFPOINTS
  6
CONTINUOUS
 62
    30
 10
50.000336
 20
1775.300049
 30
0.0
  0
POINT
  5
2D2
  8
DEFPOINTS
  6
CONTINUOUS
 62
    30
 10
507.170038
 20
1775.300049
 30
0.0
  0
LINE
  5
2D3
  8
SIZE
  6
CONTINUOUS
 62
    30
 10
-95.0
 20
1790.300049
 30
0.0
 11
-474.9
 21
1790.300049
 31
0.0
  0
LINE
  5
2D4
  8
SIZE
  6
CONTINUOUS
 62
    30
 10
-60.000336
 20
1775.300049
 30
0.0
 11
-474.9
 21
1775.300049
 31
0.0
  0
LINE
  5
2D5
  8
SIZE
  6
CONTINUOUS
 62
    30
 10
-462.4
 20
1800.300049
 30
0.0
 11
-462.4
 21
1810.300049
 31
0.0
  0
LINE
  5
2D6
  8
SIZE
  6
CONTINUOUS
 62
    30
 10
-462.4
 20
1765.300049
 30
0.0
 11
-462.4
 21
1676.207886
 31
0.0
  0
LINE
  5
2D7
  8
SIZE
  6
CONTINUOUS
 62
    30
 10
-462.4
 20
1790.300049
 30
0.0
 11
-462.4
 21
1775.300049
 31
0.0
  0
CIRCLE
  5
2D8
  8
SIZE
  6
CONTINUOUS
 62
    30
 10
-462.4
 20
1790.300049
 30
0.0
 40
5.0
  0
LINE
  5
2D9
  8
SIZE
  6
CONTINUOUS
 62
    30
 10
-462.4
 20
1790.300049
 30
0.0
 11
-462.4
 21
1800.300049
 31
0.0
  0
CIRCLE
  5
2DA
  8
SIZE
  6
CONTINUOUS
 62
    30
 10
-462.4
 20
1775.300049
 30
0.0
 40
5.0
  0
LINE
  5
2DB
  8
SIZE
  6
CONTINUOUS
 62
    30
 10
-462.4
 20
1775.300049
 30
0.0
 11
-462.4
 21
1765.300049
 31
0.0
  0
TEXT
  5
2DC
  8
SIZE
  6
CONTINUOUS
 62
    30
 10
-472.4
 20
1686.207886
 30
0.0
 40
30.0
  1
15
 50
90.0
 72
     1
 11
-472.4
 21
1706.207886
 31
0.0
  0
POINT
  5
2DD
  8
DEFPOINTS
  6
CONTINUOUS
 62
    30
 10
-85.0
 20
1790.300049
 30
0.0
  0
POINT
  5
2DE
  8
DEFPOINTS
  6
CONTINUOUS
 62
    30
 10
-50.000336
 20
1775.300049
 30
0.0
  0
POINT
  5
2DF
  8
DEFPOINTS
  6
CONTINUOUS
 62
    30
 10
-462.4
 20
1775.300049
 30
0.0
  0
LINE
  5
2E0
  8
SIZE
  6
CONTINUOUS
 62
    30
 10
-65.204582
 20
1808.300049
 30
0.0
 11
-474.9
 21
1808.300049
 31
0.0
  0
LINE
  5
2E1
  8
SIZE
  6
CONTINUOUS
 62
    30
 10
-95.0
 20
1790.300049
 30
0.0
 11
-474.9
 21
1790.300049
 31
0.0
  0
LINE
  5
2E2
  8
SIZE
  6
CONTINUOUS
 62
    30
 10
-462.4
 20
1780.300049
 30
0.0
 11
-462.4
 21
1770.300049
 31
0.0
  0
LINE
  5
2E3
  8
SIZE
  6
CONTINUOUS
 62
    30
 10
-462.4
 20
1818.300049
 30
0.0
 11
-462.4
 21
1888.300049
 31
0.0
  0
LINE
  5
2E4
  8
SIZE
  6
CONTINUOUS
 62
    30
 10
-462.4
 20
1790.300049
 30
0.0
 11
-462.4
 21
1808.300049
 31
0.0
  0
CIRCLE
  5
2E5
  8
SIZE
  6
CONTINUOUS
 62
    30
 10
-462.4
 20
1790.300049
 30
0.0
 40
5.0
  0
LINE
  5
2E6
  8
SIZE
  6
CONTINUOUS
 62
    30
 10
-462.4
 20
1790.300049
 30
0.0
 11
-462.4
 21
1780.300049
 31
0.0
  0
CIRCLE
  5
2E7
  8
SIZE
  6
CONTINUOUS
 62
    30
 10
-462.4
 20
1808.300049
 30
0.0
 40
5.0
  0
LINE
  5
2E8
  8
SIZE
  6
CONTINUOUS
 62
    30
 10
-462.4
 20
1808.300049
 30
0.0
 11
-462.4
 21
1818.300049
 31
0.0
  0
TEXT
  5
2E9
  8
SIZE
  6
CONTINUOUS
 62
    30
 10
-472.4
 20
1838.300049
 30
0.0
 40
30.0
  1
18
 50
90.0
 72
     1
 11
-472.4
 21
1858.300049
 31
0.0
  0
POINT
  5
2EA
  8
DEFPOINTS
  6
CONTINUOUS
 62
    30
 10
-55.204582
 20
1808.300049
 30
0.0
  0
POINT
  5
2EB
  8
DEFPOINTS
  6
CONTINUOUS
 62
    30
 10
-85.0
 20
1790.300049
 30
0.0
  0
POINT
  5
2EC
  8
DEFPOINTS
  6
CONTINUOUS
 62
    30
 10
-462.4
 20
1790.300049
 30
0.0
  0
LINE
  5
2ED
  8
SIZE
  6
CONTINUOUS
 62
    30
 10
368.351593
 20
0.0
 30
0.0
 11
620.226892
 21
0.0
 31
0.0
  0
LINE
  5
2EE
  8
SIZE
  6
CONTINUOUS
 62
    30
 10
370.0
 20
150.0
 30
0.0
 11
620.226892
 21
150.0
 31
0.0
  0
LINE
  5
2EF
  8
SIZE
  6
CONTINUOUS
 62
    30
 10
607.726892
 20
10.0
 30
0.0
 11
607.726892
 21
140.0
 31
0.0
  0
CIRCLE
  5
2F0
  8
SIZE
  6
CONTINUOUS
 62
    30
 10
607.726892
 20
0.0
 30
0.0
 40
5.0
  0
LINE
  5
2F1
  8
SIZE
  6
CONTINUOUS
 62
    30
 10
607.726892
 20
0.0
 30
0.0
 11
607.726892
 21
10.0
 31
0.0
  0
CIRCLE
  5
2F2
  8
SIZE
  6
CONTINUOUS
 62
    30
 10
607.726892
 20
150.0
 30
0.0
 40
5.0
  0
LINE
  5
2F3
  8
SIZE
  6
CONTINUOUS
 62
    30
 10
607.726892
 20
150.0
 30
0.0
 11
607.726892
 21
140.0
 31
0.0
  0
TEXT
  5
2F4
  8
SIZE
  6
CONTINUOUS
 62
    30
 10
597.726892
 20
42.5
 30
0.0
 40
30.0
  1
150
 50
90.0
 72
     1
 11
597.726892
 21
75.0
 31
0.0
  0
POINT
  5
2F5
  8
DEFPOINTS
  6
CONTINUOUS
 62
    30
 10
358.351593
 20
0.0
 30
0.0
  0
POINT
  5
2F6
  8
DEFPOINTS
  6
CONTINUOUS
 62
    30
 10
360.0
 20
150.0
 30
0.0
  0
POINT
  5
2F7
  8
DEFPOINTS
  6
CONTINUOUS
 62
    30
 10
607.726892
 20
150.0
 30
0.0
  0
LINE
  5
2F8
  8
SIZE
  6
CONTINUOUS
 62
    30
 10
22.112693
 20
1825.199951
 30
0.0
 11
618.593469
 21
1825.199951
 31
0.0
  0
LINE
  5
2F9
  8
SIZE
  6
CONTINUOUS
 62
    30
 10
60.000336
 20
1775.300049
 30
0.0
 11
618.593469
 21
1775.300049
 31
0.0
  0
LINE
  5
2FA
  8
SIZE
  6
CONTINUOUS
 62
    30
 10
606.093469
 20
1815.199951
 30
0.0
 11
606.093469
 21
1785.300049
 31
0.0
  0
CIRCLE
  5
2FB
  8
SIZE
  6
CONTINUOUS
 62
    30
 10
606.093469
 20
1825.199951
 30
0.0
 40
5.0
  0
LINE
  5
2FC
  8
SIZE
  6
CONTINUOUS
 62
    30
 10
606.093469
 20
1825.199951
 30
0.0
 11
606.093469
 21
1815.199951
 31
0.0
  0
CIRCLE
  5
2FD
  8
SIZE
  6
CONTINUOUS
 62
    30
 10
606.093469
 20
1775.300049
 30
0.0
 40
5.0
  0
LINE
  5
2FE
  8
SIZE
  6
CONTINUOUS
 62
    30
 10
606.093469
 20
1775.300049
 30
0.0
 11
606.093469
 21
1785.300049
 31
0.0
  0
TEXT
  5
2FF
  8
SIZE
  6
CONTINUOUS
 62
    30
 10
596.093469
 20
1777.75
 30
0.0
 40
30.0
  1
50
 50
90.0
 72
     1
 11
596.093469
 21
1800.25
 31
0.0
  0
POINT
  5
300
  8
DEFPOINTS
  6
CONTINUOUS
 62
    30
 10
12.112693
 20
1825.199951
 30
0.0
  0
POINT
  5
301
  8
DEFPOINTS
  6
CONTINUOUS
 62
    30
 10
50.000336
 20
1775.300049
 30
0.0
  0
POINT
  5
302
  8
DEFPOINTS
  6
CONTINUOUS
 62
    30
 10
606.093469
 20
1775.300049
 30
0.0
  0
LINE
  5
303
  8
SIZE
  6
CONTINUOUS
 62
    30
 10
370.0
 20
150.0
 30
0.0
 11
619.670068
 21
150.0
 31
0.0
  0
LINE
  5
304
  8
SIZE
  6
CONTINUOUS
 62
    30
 10
60.000336
 20
1775.300049
 30
0.0
 11
619.670068
 21
1775.300049
 31
0.0
  0
LINE
  5
305
  8
SIZE
  6
CONTINUOUS
 62
    30
 10
607.170068
 20
160.0
 30
0.0
 11
607.170068
 21
1765.300049
 31
0.0
  0
CIRCLE
  5
306
  8
SIZE
  6
CONTINUOUS
 62
    30
 10
607.170068
 20
150.0
 30
0.0
 40
5.0
  0
LINE
  5
307
  8
SIZE
  6
CONTINUOUS
 62
    30
 10
607.170068
 20
150.0
 30
0.0
 11
607.170068
 21
160.0
 31
0.0
  0
CIRCLE
  5
308
  8
SIZE
  6
CONTINUOUS
 62
    30
 10
607.170068
 20
1775.300049
 30
0.0
 40
5.0
  0
LINE
  5
309
  8
SIZE
  6
CONTINUOUS
 62
    30
 10
607.170068
 20
1775.300049
 30
0.0
 11
607.170068
 21
1765.300049
 31
0.0
  0
TEXT
  5
30A
  8
SIZE
  6
CONTINUOUS
 62
    30
 10
597.170068
 20
912.650024
 30
0.0
 40
30.0
  1
1625
 50
90.0
 72
     1
 11
597.170068
 21
962.650024
 31
0.0
  0
POINT
  5
30B
  8
DEFPOINTS
  6
CONTINUOUS
 62
    30
 10
360.0
 20
150.0
 30
0.0
  0
POINT
  5
30C
  8
DEFPOINTS
  6
CONTINUOUS
 62
    30
 10
50.000336
 20
1775.300049
 30
0.0
  0
POINT
  5
30D
  8
DEFPOINTS
  6
CONTINUOUS
 62
    30
 10
607.170068
 20
1775.300049
 30
0.0
  0
LINE
  5
30E
  8
SIZE
  6
CONTINUOUS
 62
    30
 10
22.112693
 20
1825.199951
 30
0.0
 11
719.670068
 21
1825.199951
 31
0.0
  0
LINE
  5
30F
  8
SIZE
  6
CONTINUOUS
 62
    30
 10
368.351593
 20
0.0
 30
0.0
 11
719.670068
 21
0.0
 31
0.0
  0
LINE
  5
310
  8
SIZE
  6
CONTINUOUS
 62
    30
 10
707.170068
 20
1815.199951
 30
0.0
 11
707.170068
 21
10.0
 31
0.0
  0
CIRCLE
  5
311
  8
SIZE
  6
CONTINUOUS
 62
    30
 10
707.170068
 20
1825.199951
 30
0.0
 40
5.0
  0
LINE
  5
312
  8
SIZE
  6
CONTINUOUS
 62
    30
 10
707.170068
 20
1825.199951
 30
0.0
 11
707.170068
 21
1815.199951
 31
0.0
  0
CIRCLE
  5
313
  8
SIZE
  6
CONTINUOUS
 62
    30
 10
707.170068
 20
0.0
 30
0.0
 40
5.0
  0
LINE
  5
314
  8
SIZE
  6
CONTINUOUS
 62
    30
 10
707.170068
 20
0.0
 30
0.0
 11
707.170068
 21
10.0
 31
0.0
  0
TEXT
  5
315
  8
SIZE
  6
CONTINUOUS
 62
    30
 10
697.170068
 20
913.137756
 30
0.0
 40
30.0
  1
1825
 50
90.0
 72
     1
 11
697.170068
 21
963.137756
 31
0.0
  0
POINT
  5
316
  8
DEFPOINTS
  6
CONTINUOUS
 62
    30
 10
12.112693
 20
1825.199951
 30
0.0
  0
POINT
  5
317
  8
DEFPOINTS
  6
CONTINUOUS
 62
    30
 10
358.351593
 20
0.0
 30
0.0
  0
POINT
  5
318
  8
DEFPOINTS
  6
CONTINUOUS
 62
    30
 10
707.170068
 20
0.0
 30
0.0
  0
LINE
  5
319
  8
SIZE
  6
CONTINUOUS
 62
    30
 10
-370.0
 20
2275.300049
 30
0.0
 11
-574.9
 21
2275.300049
 31
0.0
  0
LINE
  5
31A
  8
SIZE
  6
CONTINUOUS
 62
    30
 10
-370.0
 20
1775.300049
 30
0.0
 11
-574.9
 21
1775.300049
 31
0.0
  0
LINE
  5
31B
  8
SIZE
  6
CONTINUOUS
 62
    30
 10
-562.4
 20
2265.300049
 30
0.0
 11
-562.4
 21
1785.300049
 31
0.0
  0
CIRCLE
  5
31C
  8
SIZE
  6
CONTINUOUS
 62
    30
 10
-562.4
 20
2275.300049
 30
0.0
 40
5.0
  0
LINE
  5
31D
  8
SIZE
  6
CONTINUOUS
 62
    30
 10
-562.4
 20
2275.300049
 30
0.0
 11
-562.4
 21
2265.300049
 31
0.0
  0
CIRCLE
  5
31E
  8
SIZE
  6
CONTINUOUS
 62
    30
 10
-562.4
 20
1775.300049
 30
0.0
 40
5.0
  0
LINE
  5
31F
  8
SIZE
  6
CONTINUOUS
 62
    30
 10
-562.4
 20
1775.300049
 30
0.0
 11
-562.4
 21
1785.300049
 31
0.0
  0
TEXT
  5
320
  8
SIZE
  6
CONTINUOUS
 62
    30
 10
-572.4
 20
1990.300049
 30
0.0
 40
30.0
  1
500
 50
90.0
 72
     1
 11
-572.4
 21
2025.300049
 31
0.0
  0
POINT
  5
321
  8
DEFPOINTS
  6
CONTINUOUS
 62
    30
 10
-360.0
 20
2275.300049
 30
0.0
  0
POINT
  5
322
  8
DEFPOINTS
  6
CONTINUOUS
 62
    30
 10
-360.0
 20
1775.300049
 30
0.0
  0
POINT
  5
323
  8
DEFPOINTS
  6
CONTINUOUS
 62
    30
 10
-562.4
 20
1775.300049
 30
0.0
  0
LINE
  5
324
  8
SIZE
  6
CONTINUOUS
 62
    30
 10
-360.0
 20
2285.300049
 30
0.0
 11
-360.0
 21
2390.200049
 31
0.0
  0
LINE
  5
325
  8
SIZE
  6
CONTINUOUS
 62
    30
 10
360.0
 20
2285.300049
 30
0.0
 11
360.0
 21
2390.200049
 31
0.0
  0
LINE
  5
326
  8
SIZE
  6
CONTINUOUS
 62
    30
 10
-350.0
 20
2377.700049
 30
0.0
 11
350.0
 21
2377.700049
 31
0.0
  0
CIRCLE
  5
327
  8
SIZE
  6
CONTINUOUS
 62
    30
 10
-360.0
 20
2377.700049
 30
0.0
 40
5.0
  0
LINE
  5
328
  8
SIZE
  6
CONTINUOUS
 62
    30
 10
-360.0
 20
2377.700049
 30
0.0
 11
-350.0
 21
2377.700049
 31
0.0
  0
CIRCLE
  5
329
  8
SIZE
  6
CONTINUOUS
 62
    30
 10
360.0
 20
2377.700049
 30
0.0
 40
5.0
  0
LINE
  5
32A
  8
SIZE
  6
CONTINUOUS
 62
    30
 10
360.0
 20
2377.700049
 30
0.0
 11
350.0
 21
2377.700049
 31
0.0
  0
TEXT
  5
32B
  8
SIZE
  6
CONTINUOUS
 62
    30
 10
-37.5
 20
2387.700049
 30
0.0
 40
30.0
  1
720
 72
     1
 11
0.0
 21
2387.700049
 31
0.0
  0
POINT
  5
32C
  8
DEFPOINTS
  6
CONTINUOUS
 62
    30
 10
-360.0
 20
2275.300049
 30
0.0
  0
POINT
  5
32D
  8
DEFPOINTS
  6
CONTINUOUS
 62
    30
 10
360.0
 20
2275.300049
 30
0.0
  0
POINT
  5
32E
  8
DEFPOINTS
  6
CONTINUOUS
 62
    30
 10
360.0
 20
2377.700049
 30
0.0
  0
LINE
  5
32F
  8
SIZE
  6
CONTINUOUS
 62
    30
 10
-360.0
 20
140.0
 30
0.0
 11
-360.0
 21
-463.595276
 31
0.0
  0
LINE
  5
330
  8
SIZE
  6
CONTINUOUS
 62
    30
 10
360.0
 20
140.0
 30
0.0
 11
360.0
 21
-463.595276
 31
0.0
  0
LINE
  5
331
  8
SIZE
  6
CONTINUOUS
 62
    30
 10
-350.0
 20
-451.095276
 30
0.0
 11
350.0
 21
-451.095276
 31
0.0
  0
CIRCLE
  5
332
  8
SIZE
  6
CONTINUOUS
 62
    30
 10
-360.0
 20
-451.095276
 30
0.0
 40
5.0
  0
LINE
  5
333
  8
SIZE
  6
CONTINUOUS
 62
    30
 10
-360.0
 20
-451.095276
 30
0.0
 11
-350.0
 21
-451.095276
 31
0.0
  0
CIRCLE
  5
334
  8
SIZE
  6
CONTINUOUS
 62
    30
 10
360.0
 20
-451.095276
 30
0.0
 40
5.0
  0
LINE
  5
335
  8
SIZE
  6
CONTINUOUS
 62
    30
 10
360.0
 20
-451.095276
 30
0.0
 11
350.0
 21
-451.095276
 31
0.0
  0
TEXT
  5
336
  8
SIZE
  6
CONTINUOUS
 62
    30
 10
-37.5
 20
-441.095276
 30
0.0
 40
30.0
  1
720
 72
     1
 11
0.0
 21
-441.095276
 31
0.0
  0
POINT
  5
337
  8
DEFPOINTS
  6
CONTINUOUS
 62
    30
 10
-360.0
 20
150.0
 30
0.0
  0
POINT
  5
338
  8
DEFPOINTS
  6
CONTINUOUS
 62
    30
 10
360.0
 20
150.0
 30
0.0
  0
POINT
  5
339
  8
DEFPOINTS
  6
CONTINUOUS
 62
    30
 10
360.0
 20
-451.095276
 30
0.0
  0
TEXT
  5
33A
  8
NOTE
  6
CONTINUOUS
 10
435.64856
 20
-311.572754
 30
0.0
 40
40.0
  1
（脚固定金具使用時のみ）
 50
0.000003
 41
0.84375
  7
STANDARD1
  0
LINE
  5
33B
  8
NOTE
  6
CONTINUOUS
 10
713.425964
 20
-255.270248
 30
0.0
 11
457.175995
 21
-255.270248
 31
0.0
  0
LINE
  5
33C
  8
NOTE
  6
CONTINUOUS
 10
457.175995
 20
-255.270248
 30
0.0
 11
80.0
 21
0.0
 31
0.0
  0
LINE
  5
33D
  8
NOTE
  6
CONTINUOUS
 10
80.0
 20
0.0
 30
0.0
 11
81.890013
 21
-0.654102
 31
0.0
  0
LINE
  5
33E
  8
NOTE
  6
CONTINUOUS
 10
80.0
 20
0.0
 30
0.0
 11
81.309748
 21
-1.511476
 31
0.0
  0
TEXT
  5
33F
  8
NOTE
  6
CONTINUOUS
 10
517.925964
 20
-254.270248
 30
0.0
 40
40.0
  1
AH 2-M12
 50
0.000003
 41
0.644737
  7
STANDARD1
  0
LINE
  5
340
  8
NOTE
  6
CONTINUOUS
 10
100.0
 20
0.0
 30
0.0
 11
60.0
 21
0.0
 31
0.0
  0
LINE
  5
341
  8
NOTE
  6
CONTINUOUS
 10
80.0
 20
20.0
 30
0.0
 11
80.0
 21
-20.0
 31
0.0
  0
LINE
  5
342
  8
NOTE
  6
CONTINUOUS
 10
-80.0
 20
20.0
 30
0.0
 11
-80.0
 21
-20.0
 31
0.0
  0
LINE
  5
343
  8
NOTE
  6
CONTINUOUS
 10
-60.0
 20
0.0
 30
0.0
 11
-100.0
 21
0.0
 31
0.0
  0
LINE
  5
344
  8
NOTE
  6
CONTINUOUS
 10
727.515686
 20
1966.880371
 30
0.0
 11
343.265656
 21
1966.880371
 31
0.0
  0
LINE
  5
345
  8
NOTE
  6
CONTINUOUS
 10
343.265656
 20
1966.880371
 30
0.0
 11
73.0
 21
1790.300049
 31
0.0
  0
LINE
  5
346
  8
NOTE
  6
CONTINUOUS
 10
73.0
 20
1790.300049
 30
0.0
 11
74.334133
 21
1791.790045
 31
0.0
  0
LINE
  5
347
  8
NOTE
  6
CONTINUOUS
 10
73.0
 20
1790.300049
 30
0.0
 11
74.900391
 21
1790.923357
 31
0.0
  0
TEXT
  5
348
  8
NOTE
  6
CONTINUOUS
 10
404.015656
 20
1967.880371
 30
0.0
 40
40.0
  1
上部振れ止め金具
 50
0.000003
 41
0.84375
  7
STANDARD1
  0
LINE
  5
349
  8
NOTE
  6
CONTINUOUS
 10
310.821704
 20
0.0
 30
0.0
 11
350.821704
 21
0.0
 31
0.0
  0
LINE
  5
34A
  8
NOTE
  6
CONTINUOUS
 10
330.821704
 20
-20.0
 30
0.0
 11
330.821704
 21
20.0
 31
0.0
  0
TEXT
  5
34B
  8
NOTE
  6
CONTINUOUS
 10
-190.192749
 20
2327.486328
 30
0.0
 40
40.0
  1
メンテナンススペ－ス
 50
0.000003
 41
0.84375
  7
STANDARD1
  0
TEXT
  5
34C
  8
NOTE
  6
CONTINUOUS
 10
-509.075684
 20
1820.849976
 30
0.0
 40
40.0
  1
メンテナンススペ－ス
 50
90.000005
 41
0.84375
  7
STANDARD1
  0
LINE
  5
34D
  8
NOTE
  6
CONTINUOUS
 10
721.14624
 20
-127.761681
 30
0.0
 11
448.89621
 21
-127.761681
 31
0.0
  0
LINE
  5
34E
  8
NOTE
  6
CONTINUOUS
 10
448.89621
 20
-127.761681
 30
0.0
 11
330.821716
 21
0.0
 31
0.0
  0
LINE
  5
34F
  8
NOTE
  6
CONTINUOUS
 10
330.821716
 20
0.0
 30
0.0
 11
332.513049
 21
-1.067423
 31
0.0
  0
LINE
  5
350
  8
NOTE
  6
CONTINUOUS
 10
330.821716
 20
0.0
 30
0.0
 11
331.752742
 21
-1.770082
 31
0.0
  0
TEXT
  5
351
  8
NOTE
  6
CONTINUOUS
 10
509.64621
 20
-126.761681
 30
0.0
 40
40.0
  1
AH 3－M12
 50
0.000003
 41
0.679487
  7
STANDARD1
  0
LINE
  5
352
  8
NOTE
  6
CONTINUOUS
 10
-350.821704
 20
0.0
 30
0.0
 11
-310.821704
 21
0.0
 31
0.0
  0
LINE
  5
353
  8
NOTE
  6
CONTINUOUS
 10
-330.821704
 20
-20.0
 30
0.0
 11
-330.821704
 21
20.0
 31
0.0
  0
LINE
  5
354
  8
NOTE
  6
CONTINUOUS
 10
0.0
 20
1805.2
 30
0.0
 11
0.0
 21
1845.2
 31
0.0
  0
LINE
  5
355
  8
NOTE
  6
CONTINUOUS
 10
-20.0
 20
1825.2
 30
0.0
 11
20.0
 21
1825.2
 31
0.0
  0
LINE
  5
356
  8
NOTE
  6
CONTINUOUS
 10
0.0
 20
-20.0
 30
0.0
 11
0.0
 21
20.0
 31
0.0
  0
LINE
  5
357
  8
NOTE
  6
CONTINUOUS
 10
-20.0
 20
0.0
 30
0.0
 11
20.0
 21
0.0
 31
0.0
  0
LINE
  5
358
  8
NOTE
  6
CONTINUOUS
 10
753.574951
 20
2092.049316
 30
0.0
 11
334.325012
 21
2092.049316
 31
0.0
  0
LINE
  5
359
  8
NOTE
  6
CONTINUOUS
 10
334.325012
 20
2092.049316
 30
0.0
 11
0.0
 21
1825.199951
 31
0.0
  0
LINE
  5
35A
  8
NOTE
  6
CONTINUOUS
 10
0.0
 20
1825.199951
 30
0.0
 11
1.186952
 21
1826.809655
 31
0.0
  0
LINE
  5
35B
  8
NOTE
  6
CONTINUOUS
 10
0.0
 20
1825.199951
 30
0.0
 11
1.832782
 21
1826.000519
 31
0.0
  0
TEXT
  5
35C
  8
NOTE
  6
CONTINUOUS
 10
395.075012
 20
2093.049316
 30
0.0
 40
40.0
  1
HW R3/4(φ27.2)
 50
0.000003
 41
0.650362
  7
STANDARD1
  0
LINE
  5
35D
  8
NOTE
  6
CONTINUOUS
 10
705.0224
 20
-450.673004
 30
0.0
 11
442.2724
 21
-450.673004
 31
0.0
  0
LINE
  5
35E
  8
NOTE
  6
CONTINUOUS
 10
442.2724
 20
-450.673004
 30
0.0
 11
58.200001
 21
0.0
 31
0.0
  0
LINE
  5
35F
  8
NOTE
  6
CONTINUOUS
 10
58.200001
 20
0.0
 30
0.0
 11
59.847032
 21
-1.134587
 31
0.0
  0
LINE
  5
360
  8
NOTE
  6
CONTINUOUS
 10
58.200001
 20
0.0
 30
0.0
 11
59.059078
 21
-1.806097
 31
0.0
  0
TEXT
  5
361
  8
NOTE
  6
CONTINUOUS
 10
503.0224
 20
-449.673004
 30
0.0
 40
40.0
  1
脚固定金具
 50
0.000003
 41
0.84375
  7
STANDARD1
  0
CIRCLE
  5
362
  8
ARRANGE
  6
CONTINUOUS
 10
0.0
 20
0.0
 30
0.0
 40
15.0
  0
CIRCLE
  5
363
  8
FIX
  6
CONTINUOUS
 10
80.0
 20
0.0
 30
0.0
 40
6.0
  0
CIRCLE
  5
364
  8
FIX
  6
CONTINUOUS
 10
-80.0
 20
0.0
 30
0.0
 40
6.0
  0
CIRCLE
  5
365
  8
FIX
  6
CONTINUOUS
 10
0.0
 20
0.0
 30
0.0
 40
6.0
  0
CIRCLE
  5
366
  8
FIX
  6
CONTINUOUS
 10
-330.821704
 20
0.0
 30
0.0
 40
6.0
  0
CIRCLE
  5
367
  8
FIX
  6
CONTINUOUS
 10
330.821704
 20
0.0
 30
0.0
 40
6.0
  0
LINE
  5
368
  8
SERVICESPACE
  6
DASHDOT
 10
-360.0
 20
1775.3
 30
0.0
 11
360.0
 21
2275.3
 31
0.0
  0
LINE
  5
369
  8
SERVICESPACE
  6
DASHDOT
 10
-360.0
 20
2275.3
 30
0.0
 11
360.0
 21
1775.3
 31
0.0
  0
LINE
  5
36A
  8
SERVICESPACE
  6
DASHDOT
 10
-360.0
 20
2275.3
 30
0.0
 11
360.0
 21
2275.3
 31
0.0
  0
LINE
  5
36B
  8
SERVICESPACE
  6
DASHDOT
 10
-360.0
 20
2275.3
 30
0.0
 11
-360.0
 21
1775.3
 31
0.0
  0
LINE
  5
36C
  8
SERVICESPACE
  6
DASHDOT
 10
360.0
 20
1775.3
 30
0.0
 11
360.0
 21
2275.3
 31
0.0
  0
LINE
  5
36D
  8
SERVICESPACE
  6
DASHDOT
 10
-360.0
 20
1775.3
 30
0.0
 11
360.0
 21
1775.3
 31
0.0
  0
TEXT
  5
36E
  8
ETC
  6
CONTINUOUS
 10
575.569885
 20
2327.547119
 30
0.0
 40
40.0
  1
TG4656M3
 50
0.000003
 41
0.6125
  7
STANDARD1
  0
TEXT
  5
36F
  8
ETC
  6
CONTINUOUS
 10
575.569885
 20
2257.547119
 30
0.0
 40
40.0
  1
電気温水器
 50
0.000003
 41
0.84375
  7
STANDARD1
  0
ENDSEC
  0
EOF
