  0
SECTION
  2
HEADER
  9
$ACADVER
  1
AC1009
  9
$DWGCODEPAGE
  3
dos932
  9
$INSBASE
 10
0.0
 20
0.0
 30
0.0
  9
$EXTMIN
 10
-463.5656799077988
 20
-403.6998893499137
 30
0.0
  9
$EXTMAX
 10
621.2976668834212
 20
732.7049030514996
 30
0.0
  9
$LIMMIN
 10
0.0
 20
0.0
  9
$LIMMAX
 10
12.0
 20
9.0
  9
$ORTHOMODE
 70
     0
  9
$REGENMODE
 70
     1
  9
$FILLMODE
 70
     1
  9
$QTEXTMODE
 70
     0
  9
$MIRRTEXT
 70
     0
  9
$DRAGMODE
 70
     2
  9
$LTSCALE
 40
1.0
  9
$OSMODE
 70
    37
  9
$ATTMODE
 70
     1
  9
$TEXTSIZE
 40
3.200000047683716
  9
$TRACEWID
 40
0.05
  9
$TEXTSTYLE
  7
STANDARD1
  9
$CLAYER
  8
0
  9
$CELTYPE
  6
CONTINUOUS
  9
$CECOLOR
 62
   256
  9
$DIMSCALE
 40
1.0
  9
$DIMASZ
 40
10.0
  9
$DIMEXO
 40
10.0
  9
$DIMDLI
 40
8.0
  9
$DIMRND
 40
0.0
  9
$DIMDLE
 40
0.0
  9
$DIMEXE
 40
12.5
  9
$DIMTP
 40
0.0
  9
$DIMTM
 40
0.0
  9
$DIMTXT
 40
30.0
  9
$DIMCEN
 40
2.5
  9
$DIMTSZ
 40
0.0
  9
$DIMTOL
 70
     0
  9
$DIMLIM
 70
     0
  9
$DIMTIH
 70
     0
  9
$DIMTOH
 70
     0
  9
$DIMSE1
 70
     0
  9
$DIMSE2
 70
     0
  9
$DIMTAD
 70
     3
  9
$DIMZIN
 70
    12
  9
$DIMBLK
  1

  9
$DIMASO
 70
     1
  9
$DIMSHO
 70
     1
  9
$DIMPOST
  1

  9
$DIMAPOST
  1

  9
$DIMALT
 70
     0
  9
$DIMALTD
 70
     4
  9
$DIMALTF
 40
25.4
  9
$DIMLFAC
 40
1.0
  9
$DIMTOFL
 70
     1
  9
$DIMTVP
 40
0.0
  9
$DIMTIX
 70
     0
  9
$DIMSOXD
 70
     0
  9
$DIMSAH
 70
     1
  9
$DIMBLK1
  1
ORIGIN
  9
$DIMBLK2
  1
ORIGIN
  9
$DIMSTYLE
  2
STANDARD
  9
$DIMCLRD
 70
     0
  9
$DIMCLRE
 70
     0
  9
$DIMCLRT
 70
     0
  9
$DIMTFAC
 40
0.7142857313156129
  9
$DIMGAP
 40
10.0
  9
$LUNITS
 70
     2
  9
$LUPREC
 70
     3
  9
$SKETCHINC
 40
0.1
  9
$FILLETRAD
 40
0.0
  9
$AUNITS
 70
     0
  9
$AUPREC
 70
     0
  9
$MENU
  1
.
  9
$ELEVATION
 40
0.0
  9
$PELEVATION
 40
0.0
  9
$THICKNESS
 40
0.0
  9
$LIMCHECK
 70
     0
  9
$CHAMFERA
 40
0.0
  9
$CHAMFERB
 40
0.0
  9
$SKPOLY
 70
     0
  9
$TDCREATE
 40
2455805.41435993
  9
$TDUPDATE
 40
2457459.558295231
  9
$TDINDWG
 40
0.0001811921
  9
$TDUSRTIMER
 40
0.0001811921
  9
$USRTIMER
 70
     1
  9
$ANGBASE
 50
0.0
  9
$ANGDIR
 70
     0
  9
$PDMODE
 70
     0
  9
$PDSIZE
 40
0.0
  9
$PLINEWID
 40
0.0
  9
$COORDS
 70
     1
  9
$SPLFRAME
 70
     0
  9
$SPLINETYPE
 70
     6
  9
$SPLINESEGS
 70
     8
  9
$ATTDIA
 70
     0
  9
$ATTREQ
 70
     1
  9
$HANDLING
 70
     1
  9
$HANDSEED
  5
40D
  9
$SURFTAB1
 70
     6
  9
$SURFTAB2
 70
     6
  9
$SURFTYPE
 70
     6
  9
$SURFU
 70
     6
  9
$SURFV
 70
     6
  9
$UCSNAME
  2

  9
$UCSORG
 10
0.0
 20
0.0
 30
0.0
  9
$UCSXDIR
 10
1.0
 20
0.0
 30
0.0
  9
$UCSYDIR
 10
0.0
 20
1.0
 30
0.0
  9
$PUCSNAME
  2

  9
$PUCSORG
 10
0.0
 20
0.0
 30
0.0
  9
$PUCSXDIR
 10
1.0
 20
0.0
 30
0.0
  9
$PUCSYDIR
 10
0.0
 20
1.0
 30
0.0
  9
$USERI1
 70
     0
  9
$USERI2
 70
     0
  9
$USERI3
 70
     0
  9
$USERI4
 70
     0
  9
$USERI5
 70
     0
  9
$USERR1
 40
0.0
  9
$USERR2
 40
0.0
  9
$USERR3
 40
0.0
  9
$USERR4
 40
0.0
  9
$USERR5
 40
0.0
  9
$WORLDVIEW
 70
     1
  9
$SHADEDGE
 70
     3
  9
$SHADEDIF
 70
    70
  9
$TILEMODE
 70
     1
  9
$MAXACTVP
 70
    64
  9
$PLIMCHECK
 70
     0
  9
$PEXTMIN
 10
1.000000000000000E+20
 20
1.000000000000000E+20
 30
1.000000000000000E+20
  9
$PEXTMAX
 10
-1.000000000000000E+20
 20
-1.000000000000000E+20
 30
-1.000000000000000E+20
  9
$PLIMMIN
 10
0.0
 20
0.0
  9
$PLIMMAX
 10
12.0
 20
9.0
  9
$UNITMODE
 70
     0
  9
$VISRETAIN
 70
     1
  9
$PLINEGEN
 70
     0
  9
$PSLTSCALE
 70
     1
  0
ENDSEC
  0
SECTION
  2
TABLES
  0
TABLE
  2
VPORT
 70
     1
  0
VPORT
  2
*ACTIVE
 70
     0
 10
0.0
 20
0.0
 11
1.0
 21
1.0
 12
98.16599632538316
 22
164.502506850793
 13
0.0
 23
0.0
 14
1.0
 24
1.0
 15
0.0
 25
0.0
 16
0.0
 26
0.0
 36
1.0
 17
0.0
 27
0.0
 37
0.0
 40
1150.123964945495
 41
1.127016129032258
 42
50.0
 43
0.0
 44
0.0
 50
0.0
 51
0.0
 71
     0
 72
   100
 73
     1
 74
     1
 75
     0
 76
     0
 77
     0
 78
     0
  0
ENDTAB
  0
TABLE
  2
LTYPE
 70
     4
  0
LTYPE
  2
CONTINUOUS
 70
     0
  3
Solid line
 72
    65
 73
     0
 40
0.0
  0
LTYPE
  2
DASHED
 70
     0
  3
-- -- -- -- -- -- -- -- -- -- -- -- -- -- --
 72
    65
 73
     2
 40
0.75
 49
0.5
 49
-0.25
  0
LTYPE
  2
DASHDOT
 70
     0
  3
__ . __ . __ . __ . __ . __ . __ . __ . __ . __
 72
    65
 73
     4
 40
125.0
 49
80.0
 49
-20.0
 49
5.0
 49
-20.0
  0
LTYPE
  2
DIVIDE
 70
     0
  3
__ . . __ . . __ . . __ . . __ . . __ . . __
 72
    65
 73
     6
 40
1.25
 49
0.5
 49
-0.25
 49
0.0
 49
-0.25
 49
0.0
 49
-0.25
  0
ENDTAB
  0
TABLE
  2
LAYER
 70
    12
  0
LAYER
  2
0
 70
     0
 62
     3
  6
CONTINUOUS
  0
LAYER
  2
OUTLINE
 70
     0
 62
     3
  6
CONTINUOUS
  0
LAYER
  2
DETAIL
 70
     0
 62
     5
  6
CONTINUOUS
  0
LAYER
  2
BASIS
 70
     0
 62
     6
  6
CONTINUOUS
  0
LAYER
  2
SIZE
 70
     0
 62
    30
  6
CONTINUOUS
  0
LAYER
  2
NOTE
 70
     0
 62
     4
  6
CONTINUOUS
  0
LAYER
  2
ARRANGE
 70
     0
 62
     1
  6
CONTINUOUS
  0
LAYER
  2
FIX
 70
     0
 62
    11
  6
CONTINUOUS
  0
LAYER
  2
SERVICESPACE
 70
     0
 62
     2
  6
CONTINUOUS
  0
LAYER
  2
ETC
 70
     0
 62
    61
  6
CONTINUOUS
  0
LAYER
  2
SYMBOLLINE
 70
     0
 62
     7
  6
CONTINUOUS
  0
LAYER
  2
DEFPOINTS
 70
     0
 62
     7
  6
CONTINUOUS
  0
ENDTAB
  0
TABLE
  2
STYLE
 70
     5
  0
STYLE
  2
STANDARD
 70
     0
 40
0.0
 41
1.0
 50
0.0
 71
     0
 42
0.2
  3
txt
  4

  0
STYLE
  2
STANDARD1
 70
     0
 40
0.0
 41
1.0
 50
0.0
 71
     0
 42
3.200000047683716
  3
MONOTXT
  4
BIGFONT
  0
STYLE
  2
STANDARD2
 70
     4
 40
0.0
 41
1.0
 50
0.0
 71
     0
 42
3.200000047683716
  3
MONOTXT
  4
BIGFONT
  0
STYLE
  2
STANDARD3
 70
     0
 40
0.0
 41
1.0
 50
0.0
 71
     0
 42
3.200000047683716
  3
MONOTXT
  4

  0
STYLE
  2
STANDARD4
 70
     4
 40
0.0
 41
1.0
 50
0.0
 71
     0
 42
3.200000047683716
  3
MONOTXT
  4

  0
ENDTAB
  0
TABLE
  2
VIEW
 70
     0
  0
ENDTAB
  0
TABLE
  2
UCS
 70
     0
  0
ENDTAB
  0
TABLE
  2
APPID
 70
     1
  0
APPID
  2
ACAD
 70
     0
  0
ENDTAB
  0
TABLE
  2
DIMSTYLE
 70
     1
  0
DIMSTYLE
  2
STANDARD
 70
     0
  3

  4

  5

  6

  7

 40
1.0
 41
0.18
 42
0.0625
 43
0.38
 44
0.18
 45
0.0
 46
0.0
 47
0.0
 48
0.0
140
0.18
141
0.09
142
0.0
143
25.4
144
1.0
145
0.0
146
1.0
147
0.09
 71
     0
 72
     0
 73
     1
 74
     1
 75
     0
 76
     0
 77
     0
 78
     0
170
     0
171
     2
172
     0
173
     0
174
     0
175
     0
176
     0
177
     0
178
     0
  0
ENDTAB
  0
ENDSEC
  0
SECTION
  2
BLOCKS
  0
BLOCK
  8
0
  2
$MODEL_SPACE
 70
     0
 10
0.0
 20
0.0
 30
0.0
  3
$MODEL_SPACE
  1

  0
ENDBLK
  5
3E5
  8
0
  0
BLOCK
 67
     1
  8
0
  2
$PAPER_SPACE
 70
     0
 10
0.0
 20
0.0
 30
0.0
  3
$PAPER_SPACE
  1

  0
ENDBLK
  5
3E7
 67
     1
  8
0
  0
BLOCK
  8
SIZE
  2
*D0
 70
     1
 10
0.0
 20
0.0
 30
0.0
  3
*D0
  1

  0
TEXT
  5
1F1
  8
SIZE
  6
CONTINUOUS
 10
-2.939999996024513
 20
-249.0000060796738
 30
0.0
 40
2.799999952316284
  1
625
 50
0.000002504478167
 41
0.6999999829701011
  7
STANDARD1
  0
LINE
  5
1F2
  8
SIZE
  6
CONTINUOUS
 10
-312.5
 20
14.0
 30
0.0
 11
-312.5
 21
-252.0
 31
0.0
  0
LINE
  5
1F3
  8
SIZE
  6
CONTINUOUS
 10
312.5
 20
14.0
 30
0.0
 11
312.5
 21
-252.0
 31
0.0
  0
LINE
  5
1F4
  8
SIZE
  6
CONTINUOUS
 10
-312.5
 20
-250.0
 30
0.0
 11
312.5
 21
-250.0
 31
0.0
  0
CIRCLE
  5
1F5
  8
SIZE
  6
CONTINUOUS
 10
-312.5
 20
-250.0
 30
0.0
 40
0.5
  0
CIRCLE
  5
1F6
  8
SIZE
  6
CONTINUOUS
 10
-312.5
 20
-250.0
 30
0.0
 40
0.4
  0
CIRCLE
  5
1F7
  8
SIZE
  6
CONTINUOUS
 10
-312.5
 20
-250.0
 30
0.0
 40
0.3
  0
CIRCLE
  5
1F8
  8
SIZE
  6
CONTINUOUS
 10
-312.5
 20
-250.0
 30
0.0
 40
0.2
  0
CIRCLE
  5
1F9
  8
SIZE
  6
CONTINUOUS
 10
-312.5
 20
-250.0
 30
0.0
 40
0.1
  0
CIRCLE
  5
1FA
  8
SIZE
  6
CONTINUOUS
 10
312.5
 20
-250.0
 30
0.0
 40
0.5
  0
CIRCLE
  5
1FB
  8
SIZE
  6
CONTINUOUS
 10
312.5
 20
-250.0
 30
0.0
 40
0.4
  0
CIRCLE
  5
1FC
  8
SIZE
  6
CONTINUOUS
 10
312.5
 20
-250.0
 30
0.0
 40
0.3
  0
CIRCLE
  5
1FD
  8
SIZE
  6
CONTINUOUS
 10
312.5
 20
-250.0
 30
0.0
 40
0.2
  0
CIRCLE
  5
1FE
  8
SIZE
  6
CONTINUOUS
 10
312.5
 20
-250.0
 30
0.0
 40
0.1
  0
POINT
  5
1FF
  8
DEFPOINTS
  6
BYBLOCK
 10
312.5
 20
15.0
 30
0.0
  0
POINT
  5
200
  8
DEFPOINTS
  6
BYBLOCK
 10
-312.5
 20
15.0
 30
0.0
  0
POINT
  5
201
  8
DEFPOINTS
  6
BYBLOCK
 10
-312.5
 20
-250.0
 30
0.0
  0
ENDBLK
  5
202
  8
SIZE
  0
BLOCK
  8
SIZE
  2
*D1
 70
     1
 10
0.0
 20
0.0
 30
0.0
  3
*D1
  1

  0
TEXT
  5
205
  8
SIZE
  6
CONTINUOUS
 10
-200.9400023802103
 20
-149.0000060796737
 30
0.0
 40
2.799999952316284
  1
132
 50
0.000002504478167
 41
0.6999999829701011
  7
STANDARD1
  0
LINE
  5
206
  8
SIZE
  6
CONTINUOUS
 10
-132.0
 20
14.0
 30
0.0
 11
-132.0
 21
-152.0
 31
0.0
  0
LINE
  5
207
  8
SIZE
  6
CONTINUOUS
 10
-264.0
 20
14.0
 30
0.0
 11
-264.0
 21
-152.0
 31
0.0
  0
LINE
  5
208
  8
SIZE
  6
CONTINUOUS
 10
-132.0
 20
-150.0
 30
0.0
 11
-264.0
 21
-150.0
 31
0.0
  0
CIRCLE
  5
209
  8
SIZE
  6
CONTINUOUS
 10
-132.0
 20
-150.0
 30
0.0
 40
0.5
  0
CIRCLE
  5
20A
  8
SIZE
  6
CONTINUOUS
 10
-132.0
 20
-150.0
 30
0.0
 40
0.4
  0
CIRCLE
  5
20B
  8
SIZE
  6
CONTINUOUS
 10
-132.0
 20
-150.0
 30
0.0
 40
0.3
  0
CIRCLE
  5
20C
  8
SIZE
  6
CONTINUOUS
 10
-132.0
 20
-150.0
 30
0.0
 40
0.2
  0
CIRCLE
  5
20D
  8
SIZE
  6
CONTINUOUS
 10
-132.0
 20
-150.0
 30
0.0
 40
0.1
  0
CIRCLE
  5
20E
  8
SIZE
  6
CONTINUOUS
 10
-264.0
 20
-150.0
 30
0.0
 40
0.5
  0
CIRCLE
  5
20F
  8
SIZE
  6
CONTINUOUS
 10
-264.0
 20
-150.0
 30
0.0
 40
0.4
  0
CIRCLE
  5
210
  8
SIZE
  6
CONTINUOUS
 10
-264.0
 20
-150.0
 30
0.0
 40
0.3
  0
CIRCLE
  5
211
  8
SIZE
  6
CONTINUOUS
 10
-264.0
 20
-150.0
 30
0.0
 40
0.2
  0
CIRCLE
  5
212
  8
SIZE
  6
CONTINUOUS
 10
-264.0
 20
-150.0
 30
0.0
 40
0.1
  0
POINT
  5
213
  8
DEFPOINTS
  6
BYBLOCK
 10
-264.0
 20
15.0
 30
0.0
  0
POINT
  5
214
  8
DEFPOINTS
  6
BYBLOCK
 10
-132.0
 20
15.0
 30
0.0
  0
POINT
  5
215
  8
DEFPOINTS
  6
BYBLOCK
 10
-132.0
 20
-150.0
 30
0.0
  0
ENDBLK
  5
216
  8
SIZE
  0
BLOCK
  8
SIZE
  2
*D2
 70
     1
 10
0.0
 20
0.0
 30
0.0
  3
*D2
  1

  0
TEXT
  5
219
  8
SIZE
  6
CONTINUOUS
 10
-68.94000238021027
 20
-149.0000060796737
 30
0.0
 40
2.799999952316284
  1
132
 50
0.000002504478167
 41
0.6999999829701011
  7
STANDARD1
  0
LINE
  5
21A
  8
SIZE
  6
CONTINUOUS
 10
0.000000000000004
 20
-1.0
 30
0.0
 11
-0.000000000000023
 21
-152.0
 31
0.0
  0
LINE
  5
21B
  8
SIZE
  6
CONTINUOUS
 10
-132.0
 20
14.0
 30
0.0
 11
-132.0
 21
-152.0
 31
0.0
  0
LINE
  5
21C
  8
SIZE
  6
CONTINUOUS
 10
-0.000000000000023
 20
-150.0
 30
0.0
 11
-132.0
 21
-150.0
 31
0.0
  0
CIRCLE
  5
21D
  8
SIZE
  6
CONTINUOUS
 10
-0.000000000000023
 20
-150.0
 30
0.0
 40
0.5
  0
CIRCLE
  5
21E
  8
SIZE
  6
CONTINUOUS
 10
-0.000000000000023
 20
-150.0
 30
0.0
 40
0.4
  0
CIRCLE
  5
21F
  8
SIZE
  6
CONTINUOUS
 10
-0.000000000000023
 20
-150.0
 30
0.0
 40
0.3
  0
CIRCLE
  5
220
  8
SIZE
  6
CONTINUOUS
 10
-0.000000000000023
 20
-150.0
 30
0.0
 40
0.2
  0
CIRCLE
  5
221
  8
SIZE
  6
CONTINUOUS
 10
-0.000000000000023
 20
-150.0
 30
0.0
 40
0.1
  0
CIRCLE
  5
222
  8
SIZE
  6
CONTINUOUS
 10
-132.0
 20
-150.0
 30
0.0
 40
0.5
  0
CIRCLE
  5
223
  8
SIZE
  6
CONTINUOUS
 10
-132.0
 20
-150.0
 30
0.0
 40
0.4
  0
CIRCLE
  5
224
  8
SIZE
  6
CONTINUOUS
 10
-132.0
 20
-150.0
 30
0.0
 40
0.3
  0
CIRCLE
  5
225
  8
SIZE
  6
CONTINUOUS
 10
-132.0
 20
-150.0
 30
0.0
 40
0.2
  0
CIRCLE
  5
226
  8
SIZE
  6
CONTINUOUS
 10
-132.0
 20
-150.0
 30
0.0
 40
0.1
  0
POINT
  5
227
  8
DEFPOINTS
  6
BYBLOCK
 10
-132.0
 20
15.0
 30
0.0
  0
POINT
  5
228
  8
DEFPOINTS
  6
BYBLOCK
 10
0.000000000000004
 20
0.0
 30
0.0
  0
POINT
  5
229
  8
DEFPOINTS
  6
BYBLOCK
 10
-0.000000000000023
 20
-150.0
 30
0.0
  0
ENDBLK
  5
22A
  8
SIZE
  0
BLOCK
  8
SIZE
  2
*D3
 70
     1
 10
0.0
 20
0.0
 30
0.0
  3
*D3
  1

  0
TEXT
  5
22D
  8
SIZE
  6
CONTINUOUS
 10
63.06000143448696
 20
-149.0000060796737
 30
0.0
 40
2.799999952316284
  1
132
 50
0.000002504478167
 41
0.6999999829701011
  7
STANDARD1
  0
LINE
  5
22E
  8
SIZE
  6
CONTINUOUS
 10
132.0
 20
14.0
 30
0.0
 11
132.0
 21
-152.0
 31
0.0
  0
LINE
  5
22F
  8
SIZE
  6
CONTINUOUS
 10
0.000000000000004
 20
-1.0
 30
0.0
 11
-0.000000000000023
 21
-152.0
 31
0.0
  0
LINE
  5
230
  8
SIZE
  6
CONTINUOUS
 10
132.0
 20
-150.0
 30
0.0
 11
-0.000000000000023
 21
-150.0
 31
0.0
  0
CIRCLE
  5
231
  8
SIZE
  6
CONTINUOUS
 10
132.0
 20
-150.0
 30
0.0
 40
0.5
  0
CIRCLE
  5
232
  8
SIZE
  6
CONTINUOUS
 10
132.0
 20
-150.0
 30
0.0
 40
0.4
  0
CIRCLE
  5
233
  8
SIZE
  6
CONTINUOUS
 10
132.0
 20
-150.0
 30
0.0
 40
0.3
  0
CIRCLE
  5
234
  8
SIZE
  6
CONTINUOUS
 10
132.0
 20
-150.0
 30
0.0
 40
0.2
  0
CIRCLE
  5
235
  8
SIZE
  6
CONTINUOUS
 10
132.0
 20
-150.0
 30
0.0
 40
0.1
  0
CIRCLE
  5
236
  8
SIZE
  6
CONTINUOUS
 10
-0.000000000000023
 20
-150.0
 30
0.0
 40
0.5
  0
CIRCLE
  5
237
  8
SIZE
  6
CONTINUOUS
 10
-0.000000000000023
 20
-150.0
 30
0.0
 40
0.4
  0
CIRCLE
  5
238
  8
SIZE
  6
CONTINUOUS
 10
-0.000000000000023
 20
-150.0
 30
0.0
 40
0.3
  0
CIRCLE
  5
239
  8
SIZE
  6
CONTINUOUS
 10
-0.000000000000023
 20
-150.0
 30
0.0
 40
0.2
  0
CIRCLE
  5
23A
  8
SIZE
  6
CONTINUOUS
 10
-0.000000000000023
 20
-150.0
 30
0.0
 40
0.1
  0
POINT
  5
23B
  8
DEFPOINTS
  6
BYBLOCK
 10
0.000000000000004
 20
0.0
 30
0.0
  0
POINT
  5
23C
  8
DEFPOINTS
  6
BYBLOCK
 10
132.0
 20
15.0
 30
0.0
  0
POINT
  5
23D
  8
DEFPOINTS
  6
BYBLOCK
 10
132.0
 20
-150.0
 30
0.0
  0
ENDBLK
  5
23E
  8
SIZE
  0
BLOCK
  8
SIZE
  2
*D4
 70
     1
 10
0.0
 20
0.0
 30
0.0
  3
*D4
  1

  0
TEXT
  5
241
  8
SIZE
  6
CONTINUOUS
 10
195.0599976197897
 20
-149.0000060796737
 30
0.0
 40
2.799999952316284
  1
132
 50
0.000002504478167
 41
0.6999999829701011
  7
STANDARD1
  0
LINE
  5
242
  8
SIZE
  6
CONTINUOUS
 10
264.0
 20
14.0
 30
0.0
 11
264.0
 21
-152.0
 31
0.0
  0
LINE
  5
243
  8
SIZE
  6
CONTINUOUS
 10
132.0
 20
14.0
 30
0.0
 11
132.0
 21
-152.0
 31
0.0
  0
LINE
  5
244
  8
SIZE
  6
CONTINUOUS
 10
264.0
 20
-150.0
 30
0.0
 11
132.0
 21
-150.0
 31
0.0
  0
CIRCLE
  5
245
  8
SIZE
  6
CONTINUOUS
 10
264.0
 20
-150.0
 30
0.0
 40
0.5
  0
CIRCLE
  5
246
  8
SIZE
  6
CONTINUOUS
 10
264.0
 20
-150.0
 30
0.0
 40
0.4
  0
CIRCLE
  5
247
  8
SIZE
  6
CONTINUOUS
 10
264.0
 20
-150.0
 30
0.0
 40
0.3
  0
CIRCLE
  5
248
  8
SIZE
  6
CONTINUOUS
 10
264.0
 20
-150.0
 30
0.0
 40
0.2
  0
CIRCLE
  5
249
  8
SIZE
  6
CONTINUOUS
 10
264.0
 20
-150.0
 30
0.0
 40
0.1
  0
CIRCLE
  5
24A
  8
SIZE
  6
CONTINUOUS
 10
132.0
 20
-150.0
 30
0.0
 40
0.5
  0
CIRCLE
  5
24B
  8
SIZE
  6
CONTINUOUS
 10
132.0
 20
-150.0
 30
0.0
 40
0.4
  0
CIRCLE
  5
24C
  8
SIZE
  6
CONTINUOUS
 10
132.0
 20
-150.0
 30
0.0
 40
0.3
  0
CIRCLE
  5
24D
  8
SIZE
  6
CONTINUOUS
 10
132.0
 20
-150.0
 30
0.0
 40
0.2
  0
CIRCLE
  5
24E
  8
SIZE
  6
CONTINUOUS
 10
132.0
 20
-150.0
 30
0.0
 40
0.1
  0
POINT
  5
24F
  8
DEFPOINTS
  6
BYBLOCK
 10
132.0
 20
15.0
 30
0.0
  0
POINT
  5
250
  8
DEFPOINTS
  6
BYBLOCK
 10
264.0
 20
15.0
 30
0.0
  0
POINT
  5
251
  8
DEFPOINTS
  6
BYBLOCK
 10
264.0
 20
-150.0
 30
0.0
  0
ENDBLK
  5
252
  8
SIZE
  0
BLOCK
  8
SIZE
  2
*D5
 70
     1
 10
0.0
 20
0.0
 30
0.0
  3
*D5
  1

  0
TEXT
  5
255
  8
SIZE
  6
CONTINUOUS
 10
464.0000060796737
 20
251.5599976809856
 30
0.0
 40
2.799999952316284
  1
479
 50
90.00000500895634
 41
0.6999999829701011
  7
STANDARD1
  0
LINE
  5
256
  8
SIZE
  6
CONTINUOUS
 10
313.5
 20
494.0
 30
0.0
 11
467.0
 21
494.0
 31
0.0
  0
LINE
  5
257
  8
SIZE
  6
CONTINUOUS
 10
313.5
 20
15.0
 30
0.0
 11
467.0
 21
15.0
 31
0.0
  0
LINE
  5
258
  8
SIZE
  6
CONTINUOUS
 10
465.0
 20
494.0
 30
0.0
 11
465.0
 21
15.0
 31
0.0
  0
CIRCLE
  5
259
  8
SIZE
  6
CONTINUOUS
 10
465.0
 20
494.0
 30
0.0
 40
0.5
  0
CIRCLE
  5
25A
  8
SIZE
  6
CONTINUOUS
 10
465.0
 20
494.0
 30
0.0
 40
0.4
  0
CIRCLE
  5
25B
  8
SIZE
  6
CONTINUOUS
 10
465.0
 20
494.0
 30
0.0
 40
0.3
  0
CIRCLE
  5
25C
  8
SIZE
  6
CONTINUOUS
 10
465.0
 20
494.0
 30
0.0
 40
0.2
  0
CIRCLE
  5
25D
  8
SIZE
  6
CONTINUOUS
 10
465.0
 20
494.0
 30
0.0
 40
0.1
  0
CIRCLE
  5
25E
  8
SIZE
  6
CONTINUOUS
 10
465.0
 20
15.0
 30
0.0
 40
0.5
  0
CIRCLE
  5
25F
  8
SIZE
  6
CONTINUOUS
 10
465.0
 20
15.0
 30
0.0
 40
0.4
  0
CIRCLE
  5
260
  8
SIZE
  6
CONTINUOUS
 10
465.0
 20
15.0
 30
0.0
 40
0.3
  0
CIRCLE
  5
261
  8
SIZE
  6
CONTINUOUS
 10
465.0
 20
15.0
 30
0.0
 40
0.2
  0
CIRCLE
  5
262
  8
SIZE
  6
CONTINUOUS
 10
465.0
 20
15.0
 30
0.0
 40
0.1
  0
POINT
  5
263
  8
DEFPOINTS
  6
BYBLOCK
 10
312.5
 20
15.0
 30
0.0
  0
POINT
  5
264
  8
DEFPOINTS
  6
BYBLOCK
 10
312.5
 20
494.0
 30
0.0
  0
POINT
  5
265
  8
DEFPOINTS
  6
BYBLOCK
 10
465.0
 20
494.0
 30
0.0
  0
ENDBLK
  5
266
  8
SIZE
  0
BLOCK
  8
SIZE
  2
*D6
 70
     1
 10
0.0
 20
0.0
 30
0.0
  3
*D6
  1

  0
TEXT
  5
269
  8
SIZE
  6
CONTINUOUS
 10
464.0000060796737
 20
-47.02949893156318
 30
0.0
 40
2.799999952316284
  1
15
 50
90.00000500895634
 41
0.6999999829701011
  7
STANDARD1
  0
LINE
  5
26A
  8
SIZE
  6
CONTINUOUS
 10
313.5
 20
15.0
 30
0.0
 11
467.0
 21
15.0
 31
0.0
  0
LINE
  5
26B
  8
SIZE
  6
CONTINUOUS
 10
316.0
 20
0.0
 30
0.0
 11
467.0
 21
0.0
 31
0.0
  0
LINE
  5
26C
  8
SIZE
  6
CONTINUOUS
 10
465.0
 20
20.0
 30
0.0
 11
465.0
 21
-48.42950057983397
 31
0.0
  0
CIRCLE
  5
26D
  8
SIZE
  6
CONTINUOUS
 10
465.0
 20
15.0
 30
0.0
 40
0.5
  0
CIRCLE
  5
26E
  8
SIZE
  6
CONTINUOUS
 10
465.0
 20
15.0
 30
0.0
 40
0.4
  0
CIRCLE
  5
26F
  8
SIZE
  6
CONTINUOUS
 10
465.0
 20
15.0
 30
0.0
 40
0.3
  0
CIRCLE
  5
270
  8
SIZE
  6
CONTINUOUS
 10
465.0
 20
15.0
 30
0.0
 40
0.2
  0
CIRCLE
  5
271
  8
SIZE
  6
CONTINUOUS
 10
465.0
 20
15.0
 30
0.0
 40
0.1
  0
CIRCLE
  5
272
  8
SIZE
  6
CONTINUOUS
 10
465.0
 20
0.0
 30
0.0
 40
0.5
  0
CIRCLE
  5
273
  8
SIZE
  6
CONTINUOUS
 10
465.0
 20
0.0
 30
0.0
 40
0.4
  0
CIRCLE
  5
274
  8
SIZE
  6
CONTINUOUS
 10
465.0
 20
0.0
 30
0.0
 40
0.3
  0
CIRCLE
  5
275
  8
SIZE
  6
CONTINUOUS
 10
465.0
 20
0.0
 30
0.0
 40
0.2
  0
CIRCLE
  5
276
  8
SIZE
  6
CONTINUOUS
 10
465.0
 20
0.0
 30
0.0
 40
0.1
  0
POINT
  5
277
  8
DEFPOINTS
  6
BYBLOCK
 10
315.0
 20
0.0
 30
0.0
  0
POINT
  5
278
  8
DEFPOINTS
  6
BYBLOCK
 10
312.5
 20
15.0
 30
0.0
  0
POINT
  5
279
  8
DEFPOINTS
  6
BYBLOCK
 10
465.0
 20
15.0
 30
0.0
  0
ENDBLK
  5
27A
  8
SIZE
  0
BLOCK
  8
SIZE
  2
*D7
 70
     1
 10
0.0
 20
0.0
 30
0.0
  3
*D7
  1

  0
TEXT
  5
27D
  8
SIZE
  6
CONTINUOUS
 10
-422.1656738519668
 20
87.05999768098562
 30
0.0
 40
2.799999952316284
  1
150
 50
90.00000500895634
 41
0.6999999829701011
  7
STANDARD1
  0
LINE
  5
27E
  8
SIZE
  6
CONTINUOUS
 10
-313.5
 20
15.0
 30
0.0
 11
-423.1656799316406
 21
15.0
 31
0.0
  0
LINE
  5
27F
  8
SIZE
  6
CONTINUOUS
 10
-255.0
 20
165.0
 30
0.0
 11
-423.1656799316406
 21
165.0
 31
0.0
  0
LINE
  5
280
  8
SIZE
  6
CONTINUOUS
 10
-421.1656799316406
 20
15.0
 30
0.0
 11
-421.1656799316406
 21
165.0
 31
0.0
  0
CIRCLE
  5
281
  8
SIZE
  6
CONTINUOUS
 10
-421.1656799316406
 20
15.0
 30
0.0
 40
0.5
  0
CIRCLE
  5
282
  8
SIZE
  6
CONTINUOUS
 10
-421.1656799316406
 20
15.0
 30
0.0
 40
0.4
  0
CIRCLE
  5
283
  8
SIZE
  6
CONTINUOUS
 10
-421.1656799316406
 20
15.0
 30
0.0
 40
0.3
  0
CIRCLE
  5
284
  8
SIZE
  6
CONTINUOUS
 10
-421.1656799316406
 20
15.0
 30
0.0
 40
0.2
  0
CIRCLE
  5
285
  8
SIZE
  6
CONTINUOUS
 10
-421.1656799316406
 20
15.0
 30
0.0
 40
0.1
  0
CIRCLE
  5
286
  8
SIZE
  6
CONTINUOUS
 10
-421.1656799316406
 20
165.0
 30
0.0
 40
0.5
  0
CIRCLE
  5
287
  8
SIZE
  6
CONTINUOUS
 10
-421.1656799316406
 20
165.0
 30
0.0
 40
0.4
  0
CIRCLE
  5
288
  8
SIZE
  6
CONTINUOUS
 10
-421.1656799316406
 20
165.0
 30
0.0
 40
0.3
  0
CIRCLE
  5
289
  8
SIZE
  6
CONTINUOUS
 10
-421.1656799316406
 20
165.0
 30
0.0
 40
0.2
  0
CIRCLE
  5
28A
  8
SIZE
  6
CONTINUOUS
 10
-421.1656799316406
 20
165.0
 30
0.0
 40
0.1
  0
POINT
  5
28B
  8
DEFPOINTS
  6
BYBLOCK
 10
-254.0
 20
165.0
 30
0.0
  0
POINT
  5
28C
  8
DEFPOINTS
  6
BYBLOCK
 10
-312.5
 20
15.0
 30
0.0
  0
POINT
  5
28D
  8
DEFPOINTS
  6
BYBLOCK
 10
-421.1656799316406
 20
15.0
 30
0.0
  0
ENDBLK
  5
28E
  8
SIZE
  0
BLOCK
  8
SIZE
  2
*D8
 70
     1
 10
0.0
 20
0.0
 30
0.0
  3
*D8
  1

  0
TEXT
  5
291
  8
SIZE
  6
CONTINUOUS
 10
563.9999755620956
 20
247.0599976809856
 30
0.0
 40
2.799999952316284
  1
500
 50
90.00000500895634
 41
0.6999999829701011
  7
STANDARD1
  0
LINE
  5
292
  8
SIZE
  6
CONTINUOUS
 10
316.0
 20
500.0
 30
0.0
 11
567.0
 21
500.0
 31
0.0
  0
LINE
  5
293
  8
SIZE
  6
CONTINUOUS
 10
316.0
 20
0.0
 30
0.0
 11
567.0
 21
0.0
 31
0.0
  0
LINE
  5
294
  8
SIZE
  6
CONTINUOUS
 10
565.0
 20
500.0
 30
0.0
 11
565.0
 21
0.0
 31
0.0
  0
CIRCLE
  5
295
  8
SIZE
  6
CONTINUOUS
 10
565.0
 20
500.0
 30
0.0
 40
0.5
  0
CIRCLE
  5
296
  8
SIZE
  6
CONTINUOUS
 10
565.0
 20
500.0
 30
0.0
 40
0.4
  0
CIRCLE
  5
297
  8
SIZE
  6
CONTINUOUS
 10
565.0
 20
500.0
 30
0.0
 40
0.3
  0
CIRCLE
  5
298
  8
SIZE
  6
CONTINUOUS
 10
565.0
 20
500.0
 30
0.0
 40
0.2
  0
CIRCLE
  5
299
  8
SIZE
  6
CONTINUOUS
 10
565.0
 20
500.0
 30
0.0
 40
0.1
  0
CIRCLE
  5
29A
  8
SIZE
  6
CONTINUOUS
 10
565.0
 20
0.0
 30
0.0
 40
0.5
  0
CIRCLE
  5
29B
  8
SIZE
  6
CONTINUOUS
 10
565.0
 20
0.0
 30
0.0
 40
0.4
  0
CIRCLE
  5
29C
  8
SIZE
  6
CONTINUOUS
 10
565.0
 20
0.0
 30
0.0
 40
0.3
  0
CIRCLE
  5
29D
  8
SIZE
  6
CONTINUOUS
 10
565.0
 20
0.0
 30
0.0
 40
0.2
  0
CIRCLE
  5
29E
  8
SIZE
  6
CONTINUOUS
 10
565.0
 20
0.0
 30
0.0
 40
0.1
  0
POINT
  5
29F
  8
DEFPOINTS
  6
BYBLOCK
 10
315.0
 20
0.0
 30
0.0
  0
POINT
  5
2A0
  8
DEFPOINTS
  6
BYBLOCK
 10
315.0
 20
500.0
 30
0.0
  0
POINT
  5
2A1
  8
DEFPOINTS
  6
BYBLOCK
 10
565.0
 20
500.0
 30
0.0
  0
ENDBLK
  5
2A2
  8
SIZE
  0
BLOCK
  8
SIZE
  2
*D9
 70
     1
 10
0.0
 20
0.0
 30
0.0
  3
*D9
  1

  0
TEXT
  5
2A5
  8
SIZE
  6
CONTINUOUS
 10
-2.939999996024513
 20
-349.0000060796738
 30
0.0
 40
2.799999952316284
  1
630
 50
0.000002504478167
 41
0.6999999829701011
  7
STANDARD1
  0
LINE
  5
2A6
  8
SIZE
  6
CONTINUOUS
 10
315.0
 20
-1.0
 30
0.0
 11
315.0
 21
-352.0
 31
0.0
  0
LINE
  5
2A7
  8
SIZE
  6
CONTINUOUS
 10
-315.0
 20
-1.0
 30
0.0
 11
-315.0
 21
-352.0
 31
0.0
  0
LINE
  5
2A8
  8
SIZE
  6
CONTINUOUS
 10
315.0
 20
-350.0
 30
0.0
 11
-315.0
 21
-350.0
 31
0.0
  0
CIRCLE
  5
2A9
  8
SIZE
  6
CONTINUOUS
 10
315.0
 20
-350.0
 30
0.0
 40
0.5
  0
CIRCLE
  5
2AA
  8
SIZE
  6
CONTINUOUS
 10
315.0
 20
-350.0
 30
0.0
 40
0.4
  0
CIRCLE
  5
2AB
  8
SIZE
  6
CONTINUOUS
 10
315.0
 20
-350.0
 30
0.0
 40
0.3
  0
CIRCLE
  5
2AC
  8
SIZE
  6
CONTINUOUS
 10
315.0
 20
-350.0
 30
0.0
 40
0.2
  0
CIRCLE
  5
2AD
  8
SIZE
  6
CONTINUOUS
 10
315.0
 20
-350.0
 30
0.0
 40
0.1
  0
CIRCLE
  5
2AE
  8
SIZE
  6
CONTINUOUS
 10
-315.0
 20
-350.0
 30
0.0
 40
0.5
  0
CIRCLE
  5
2AF
  8
SIZE
  6
CONTINUOUS
 10
-315.0
 20
-350.0
 30
0.0
 40
0.4
  0
CIRCLE
  5
2B0
  8
SIZE
  6
CONTINUOUS
 10
-315.0
 20
-350.0
 30
0.0
 40
0.3
  0
CIRCLE
  5
2B1
  8
SIZE
  6
CONTINUOUS
 10
-315.0
 20
-350.0
 30
0.0
 40
0.2
  0
CIRCLE
  5
2B2
  8
SIZE
  6
CONTINUOUS
 10
-315.0
 20
-350.0
 30
0.0
 40
0.1
  0
POINT
  5
2B3
  8
DEFPOINTS
  6
BYBLOCK
 10
-315.0
 20
0.0
 30
0.0
  0
POINT
  5
2B4
  8
DEFPOINTS
  6
BYBLOCK
 10
315.0
 20
0.0
 30
0.0
  0
POINT
  5
2B5
  8
DEFPOINTS
  6
BYBLOCK
 10
315.0
 20
-350.0
 30
0.0
  0
ENDBLK
  5
2B6
  8
SIZE
  0
BLOCK
  8
0
  2
_ORIGIN
 70
     0
 10
0.0
 20
0.0
 30
0.0
  3
_ORIGIN
  1

  0
CIRCLE
  5
2B9
  8
0
  6
BYBLOCK
 62
     0
 10
0.0
 20
0.0
 30
0.0
 40
0.5
  0
LINE
  5
2BA
  8
0
  6
BYBLOCK
 62
     0
 10
0.0
 20
0.0
 30
0.0
 11
-1.0
 21
0.0
 31
0.0
  0
ENDBLK
  5
2BB
  8
0
  0
BLOCK
  8
0
  2
*D11
 70
     1
 10
0.0
 20
0.0
 30
0.0
  3
*D11
  1

  0
LINE
  5
2BE
  8
SIZE
 62
     0
 10
-315.0
 20
-10.0
 30
0.0
 11
-315.0
 21
-360.1000000238418
 31
0.0
  0
LINE
  5
2BF
  8
SIZE
 62
     0
 10
315.0
 20
-10.0
 30
0.0
 11
315.0
 21
-360.1000000238418
 31
0.0
  0
LINE
  5
2C0
  8
SIZE
 62
     0
 10
-305.0
 20
-347.6000000238418
 30
0.0
 11
305.0
 21
-347.6000000238418
 31
0.0
  0
INSERT
  5
2C1
  8
SIZE
 62
     0
  2
_ORIGIN
 10
-315.0
 20
-347.6000000238418
 30
0.0
 41
10.0
 42
10.0
 43
10.0
 50
180.0
  0
INSERT
  5
2C2
  8
SIZE
 62
     0
  2
_ORIGIN
 10
315.0
 20
-347.6000000238418
 30
0.0
 41
10.0
 42
10.0
 43
10.0
  0
TEXT
  5
2C3
  8
SIZE
 62
     0
 10
-42.45000010490733
 20
-337.6000000238418
 30
0.0
 40
30.0
  1
630
 72
     1
 11
-0.000000104907329
 21
-337.6000000238418
 31
0.0
  0
POINT
  5
2C4
  8
DEFPOINTS
 62
     0
 10
-315.0
 20
0.0
 30
0.0
  0
POINT
  5
2C5
  8
DEFPOINTS
 62
     0
 10
315.0
 20
0.0
 30
0.0
  0
POINT
  5
2C6
  8
DEFPOINTS
 62
     0
 10
315.0
 20
-347.6000000238418
 30
0.0
  0
ENDBLK
  5
2C7
  8
0
  0
BLOCK
  8
0
  2
*D12
 70
     1
 10
0.0
 20
0.0
 30
0.0
  3
*D12
  1

  0
LINE
  5
2CA
  8
SIZE
 62
     0
 10
325.0
 20
-0.0000000000000028
 30
0.0
 11
575.1000000238417
 21
-0.0000000000000737
 31
0.0
  0
LINE
  5
2CB
  8
SIZE
 62
     0
 10
325.0
 20
500.0
 30
0.0
 11
575.1000000238417
 21
499.9999999999999
 31
0.0
  0
LINE
  5
2CC
  8
SIZE
 62
     0
 10
562.6000000238417
 20
9.99999999999993
 30
0.0
 11
562.6000000238417
 21
489.9999999999999
 31
0.0
  0
INSERT
  5
2CD
  8
SIZE
 62
     0
  2
_ORIGIN
 10
562.6000000238417
 20
-0.0000000000000701
 30
0.0
 41
10.0
 42
10.0
 43
10.0
 50
270.0
  0
INSERT
  5
2CE
  8
SIZE
 62
     0
  2
_ORIGIN
 10
562.6000000238417
 20
499.9999999999999
 30
0.0
 41
10.0
 42
10.0
 43
10.0
 50
90.0
  0
TEXT
  5
2CF
  8
SIZE
 62
     0
 10
552.6000000238417
 20
210.0999998776081
 30
0.0
 40
30.0
  1
500
 50
90.0
 72
     1
 11
552.6000000238417
 21
249.9999998776081
 31
0.0
  0
POINT
  5
2D0
  8
DEFPOINTS
 62
     0
 10
315.0
 20
0.0
 30
0.0
  0
POINT
  5
2D1
  8
DEFPOINTS
 62
     0
 10
315.0
 20
500.0
 30
0.0
  0
POINT
  5
2D2
  8
DEFPOINTS
 62
     0
 10
562.6000000238417
 20
499.9999999999999
 30
0.0
  0
ENDBLK
  5
2D3
  8
0
  0
BLOCK
  8
0
  2
*D13
 70
     1
 10
0.0
 20
0.0
 30
0.0
  3
*D13
  1

  0
LINE
  5
2D6
  8
SIZE
 62
     0
 10
-264.0
 20
165.0
 30
0.0
 11
-436.0656799077987
 21
165.0
 31
0.0
  0
LINE
  5
2D7
  8
SIZE
 62
     0
 10
-322.5
 20
15.0
 30
0.0
 11
-436.0656799077988
 21
15.00000000000003
 31
0.0
  0
LINE
  5
2D8
  8
SIZE
 62
     0
 10
-423.5656799077987
 20
155.0
 30
0.0
 11
-423.5656799077988
 21
25.00000000000003
 31
0.0
  0
INSERT
  5
2D9
  8
SIZE
 62
     0
  2
_ORIGIN
 10
-423.5656799077987
 20
165.0
 30
0.0
 41
10.0
 42
10.0
 43
10.0
 50
90.0
  0
INSERT
  5
2DA
  8
SIZE
 62
     0
  2
_ORIGIN
 10
-423.5656799077988
 20
15.00000000000003
 30
0.0
 41
10.0
 42
10.0
 43
10.0
 50
270.0
  0
TEXT
  5
2DB
  8
SIZE
 62
     0
 10
-433.5656799077988
 20
52.7999998776081
 30
0.0
 40
30.0
  1
150
 50
90.0
 72
     1
 11
-433.5656799077988
 21
89.99999987760809
 31
0.0
  0
POINT
  5
2DC
  8
DEFPOINTS
 62
     0
 10
-254.0
 20
165.0
 30
0.0
  0
POINT
  5
2DD
  8
DEFPOINTS
 62
     0
 10
-312.5
 20
15.0
 30
0.0
  0
POINT
  5
2DE
  8
DEFPOINTS
 62
     0
 10
-423.5656799077988
 20
15.00000000000003
 30
0.0
  0
ENDBLK
  5
2DF
  8
0
  0
BLOCK
  8
0
  2
*D14
 70
     1
 10
0.0
 20
0.0
 30
0.0
  3
*D14
  1

  0
LINE
  5
2E2
  8
SIZE
 62
     0
 10
325.0
 20
-0.0000000000000028
 30
0.0
 11
475.1000000238418
 21
-0.0000000000000454
 31
0.0
  0
LINE
  5
2E3
  8
SIZE
 62
     0
 10
322.5
 20
15.0
 30
0.0
 11
475.1000000238418
 21
14.99999999999995
 31
0.0
  0
LINE
  5
2E4
  8
SIZE
 62
     0
 10
462.6000000238418
 20
24.99999999999996
 30
0.0
 11
462.6000000238418
 21
34.99999999999996
 31
0.0
  0
LINE
  5
2E5
  8
SIZE
 62
     0
 10
462.6000000238418
 20
-10.00000000000004
 30
0.0
 11
462.6000000238418
 21
-80.00000000000001
 31
0.0
  0
LINE
  5
2E6
  8
SIZE
 62
     0
 10
462.6000000238418
 20
14.99999999999996
 30
0.0
 11
462.6000000238418
 21
-0.0000000000000418
 31
0.0
  0
INSERT
  5
2E7
  8
SIZE
 62
     0
  2
_ORIGIN
 10
462.6000000238418
 20
14.99999999999996
 30
0.0
 41
10.0
 42
10.0
 43
10.0
 50
270.0
  0
INSERT
  5
2E8
  8
SIZE
 62
     0
  2
_ORIGIN
 10
462.6000000238418
 20
-0.0000000000000418
 30
0.0
 41
10.0
 42
10.0
 43
10.0
 50
90.0
  0
TEXT
  5
2E9
  8
SIZE
 62
     0
 10
452.6000000238418
 20
-74.74999999999996
 30
0.0
 40
30.0
  1
15
 50
90.0
 72
     1
 11
452.6000000238418
 21
-49.99999999999996
 31
0.0
  0
POINT
  5
2EA
  8
DEFPOINTS
 62
     0
 10
315.0
 20
0.0
 30
0.0
  0
POINT
  5
2EB
  8
DEFPOINTS
 62
     0
 10
312.5
 20
15.0
 30
0.0
  0
POINT
  5
2EC
  8
DEFPOINTS
 62
     0
 10
462.6000000238418
 20
14.99999999999996
 30
0.0
  0
ENDBLK
  5
2ED
  8
0
  0
BLOCK
  8
0
  2
*D15
 70
     1
 10
0.0
 20
0.0
 30
0.0
  3
*D15
  1

  0
LINE
  5
2F0
  8
SIZE
 62
     0
 10
322.5
 20
15.0
 30
0.0
 11
475.1000000238418
 21
14.99999999999995
 31
0.0
  0
LINE
  5
2F1
  8
SIZE
 62
     0
 10
322.5
 20
494.0
 30
0.0
 11
475.1000000238419
 21
493.9999999999999
 31
0.0
  0
LINE
  5
2F2
  8
SIZE
 62
     0
 10
462.6000000238418
 20
24.99999999999996
 30
0.0
 11
462.6000000238419
 21
483.9999999999999
 31
0.0
  0
INSERT
  5
2F3
  8
SIZE
 62
     0
  2
_ORIGIN
 10
462.6000000238418
 20
14.99999999999996
 30
0.0
 41
10.0
 42
10.0
 43
10.0
 50
270.0
  0
INSERT
  5
2F4
  8
SIZE
 62
     0
  2
_ORIGIN
 10
462.6000000238419
 20
493.9999999999999
 30
0.0
 41
10.0
 42
10.0
 43
10.0
 50
90.0
  0
TEXT
  5
2F5
  8
SIZE
 62
     0
 10
452.6000000238418
 20
209.4999998776081
 30
0.0
 40
30.0
  1
479
 50
90.0
 72
     1
 11
452.6000000238418
 21
254.4999998776081
 31
0.0
  0
POINT
  5
2F6
  8
DEFPOINTS
 62
     0
 10
312.5
 20
15.0
 30
0.0
  0
POINT
  5
2F7
  8
DEFPOINTS
 62
     0
 10
312.5
 20
494.0
 30
0.0
  0
POINT
  5
2F8
  8
DEFPOINTS
 62
     0
 10
462.6000000238419
 20
493.9999999999999
 30
0.0
  0
ENDBLK
  5
2F9
  8
0
  0
BLOCK
  8
0
  2
*D16
 70
     1
 10
0.0
 20
0.0
 30
0.0
  3
*D16
  1

  0
LINE
  5
2FC
  8
SIZE
 62
     0
 10
132.0
 20
5.0
 30
0.0
 11
132.0
 21
-160.1000000238419
 31
0.0
  0
LINE
  5
2FD
  8
SIZE
 62
     0
 10
264.0
 20
5.0
 30
0.0
 11
264.0
 21
-160.1000000238419
 31
0.0
  0
LINE
  5
2FE
  8
SIZE
 62
     0
 10
142.0
 20
-147.6000000238419
 30
0.0
 11
254.0
 21
-147.6000000238419
 31
0.0
  0
INSERT
  5
2FF
  8
SIZE
 62
     0
  2
_ORIGIN
 10
132.0
 20
-147.6000000238419
 30
0.0
 41
10.0
 42
10.0
 43
10.0
 50
180.0
  0
INSERT
  5
300
  8
SIZE
 62
     0
  2
_ORIGIN
 10
264.0
 20
-147.6000000238419
 30
0.0
 41
10.0
 42
10.0
 43
10.0
  0
TEXT
  5
301
  8
SIZE
 62
     0
 10
158.249999938804
 20
-137.6000000238419
 30
0.0
 40
30.0
  1
132
 72
     1
 11
197.999999938804
 21
-137.6000000238419
 31
0.0
  0
POINT
  5
302
  8
DEFPOINTS
 62
     0
 10
132.0
 20
15.0
 30
0.0
  0
POINT
  5
303
  8
DEFPOINTS
 62
     0
 10
264.0
 20
15.0
 30
0.0
  0
POINT
  5
304
  8
DEFPOINTS
 62
     0
 10
264.0
 20
-147.6000000238419
 30
0.0
  0
ENDBLK
  5
305
  8
0
  0
BLOCK
  8
0
  2
*D17
 70
     1
 10
0.0
 20
0.0
 30
0.0
  3
*D17
  1

  0
LINE
  5
308
  8
SIZE
 62
     0
 10
0.0000000000000034
 20
-10.0
 30
0.0
 11
-0.0000000000000058
 21
-160.1000000238419
 31
0.0
  0
LINE
  5
309
  8
SIZE
 62
     0
 10
132.0
 20
5.0
 30
0.0
 11
132.0
 21
-160.1000000238419
 31
0.0
  0
LINE
  5
30A
  8
SIZE
 62
     0
 10
9.999999999999995
 20
-147.6000000238419
 30
0.0
 11
122.0
 21
-147.6000000238419
 31
0.0
  0
INSERT
  5
30B
  8
SIZE
 62
     0
  2
_ORIGIN
 10
-0.000000000000005
 20
-147.6000000238419
 30
0.0
 41
10.0
 42
10.0
 43
10.0
 50
180.0
  0
INSERT
  5
30C
  8
SIZE
 62
     0
  2
_ORIGIN
 10
132.0
 20
-147.6000000238419
 30
0.0
 41
10.0
 42
10.0
 43
10.0
  0
TEXT
  5
30D
  8
SIZE
 62
     0
 10
26.24999993880404
 20
-137.6000000238419
 30
0.0
 40
30.0
  1
132
 72
     1
 11
65.99999993880404
 21
-137.6000000238419
 31
0.0
  0
POINT
  5
30E
  8
DEFPOINTS
 62
     0
 10
0.000000000000004
 20
0.0
 30
0.0
  0
POINT
  5
30F
  8
DEFPOINTS
 62
     0
 10
132.0
 20
15.0
 30
0.0
  0
POINT
  5
310
  8
DEFPOINTS
 62
     0
 10
132.0
 20
-147.6000000238419
 30
0.0
  0
ENDBLK
  5
311
  8
0
  0
BLOCK
  8
0
  2
*D18
 70
     1
 10
0.0
 20
0.0
 30
0.0
  3
*D18
  1

  0
LINE
  5
314
  8
SIZE
 62
     0
 10
-132.0
 20
5.0
 30
0.0
 11
-132.0
 21
-160.1000000238419
 31
0.0
  0
LINE
  5
315
  8
SIZE
 62
     0
 10
0.0000000000000034
 20
-10.0
 30
0.0
 11
-0.0000000000000058
 21
-160.1000000238419
 31
0.0
  0
LINE
  5
316
  8
SIZE
 62
     0
 10
-122.0
 20
-147.6000000238419
 30
0.0
 11
-10.0
 21
-147.6000000238419
 31
0.0
  0
INSERT
  5
317
  8
SIZE
 62
     0
  2
_ORIGIN
 10
-132.0
 20
-147.6000000238419
 30
0.0
 41
10.0
 42
10.0
 43
10.0
 50
180.0
  0
INSERT
  5
318
  8
SIZE
 62
     0
  2
_ORIGIN
 10
-0.000000000000005
 20
-147.6000000238419
 30
0.0
 41
10.0
 42
10.0
 43
10.0
  0
TEXT
  5
319
  8
SIZE
 62
     0
 10
-105.7500000611959
 20
-137.6000000238419
 30
0.0
 40
30.0
  1
132
 72
     1
 11
-66.00000006119593
 21
-137.6000000238419
 31
0.0
  0
POINT
  5
31A
  8
DEFPOINTS
 62
     0
 10
-132.0
 20
15.0
 30
0.0
  0
POINT
  5
31B
  8
DEFPOINTS
 62
     0
 10
0.000000000000004
 20
0.0
 30
0.0
  0
POINT
  5
31C
  8
DEFPOINTS
 62
     0
 10
-0.000000000000005
 20
-147.6000000238419
 30
0.0
  0
ENDBLK
  5
31D
  8
0
  0
BLOCK
  8
0
  2
*D19
 70
     1
 10
0.0
 20
0.0
 30
0.0
  3
*D19
  1

  0
LINE
  5
320
  8
SIZE
 62
     0
 10
-264.0
 20
5.0
 30
0.0
 11
-264.0
 21
-160.1000000238419
 31
0.0
  0
LINE
  5
321
  8
SIZE
 62
     0
 10
-132.0
 20
5.0
 30
0.0
 11
-132.0
 21
-160.1000000238419
 31
0.0
  0
LINE
  5
322
  8
SIZE
 62
     0
 10
-254.0
 20
-147.6000000238419
 30
0.0
 11
-142.0
 21
-147.6000000238419
 31
0.0
  0
INSERT
  5
323
  8
SIZE
 62
     0
  2
_ORIGIN
 10
-264.0
 20
-147.6000000238419
 30
0.0
 41
10.0
 42
10.0
 43
10.0
 50
180.0
  0
INSERT
  5
324
  8
SIZE
 62
     0
  2
_ORIGIN
 10
-132.0
 20
-147.6000000238419
 30
0.0
 41
10.0
 42
10.0
 43
10.0
  0
TEXT
  5
325
  8
SIZE
 62
     0
 10
-237.7500000611959
 20
-137.6000000238419
 30
0.0
 40
30.0
  1
132
 72
     1
 11
-198.0000000611959
 21
-137.6000000238419
 31
0.0
  0
POINT
  5
326
  8
DEFPOINTS
 62
     0
 10
-264.0
 20
15.0
 30
0.0
  0
POINT
  5
327
  8
DEFPOINTS
 62
     0
 10
-132.0
 20
15.0
 30
0.0
  0
POINT
  5
328
  8
DEFPOINTS
 62
     0
 10
-132.0
 20
-147.6000000238419
 30
0.0
  0
ENDBLK
  5
329
  8
0
  0
BLOCK
  8
0
  2
*D20
 70
     1
 10
0.0
 20
0.0
 30
0.0
  3
*D20
  1

  0
LINE
  5
32C
  8
SIZE
 62
     0
 10
312.5
 20
5.0
 30
0.0
 11
312.5
 21
-260.1000000238419
 31
0.0
  0
LINE
  5
32D
  8
SIZE
 62
     0
 10
-312.5
 20
5.0
 30
0.0
 11
-312.5
 21
-260.1000000238419
 31
0.0
  0
LINE
  5
32E
  8
SIZE
 62
     0
 10
302.5
 20
-247.6000000238419
 30
0.0
 11
-302.5
 21
-247.6000000238419
 31
0.0
  0
INSERT
  5
32F
  8
SIZE
 62
     0
  2
_ORIGIN
 10
312.5
 20
-247.6000000238419
 30
0.0
 41
10.0
 42
10.0
 43
10.0
  0
INSERT
  5
330
  8
SIZE
 62
     0
  2
_ORIGIN
 10
-312.5
 20
-247.6000000238419
 30
0.0
 41
10.0
 42
10.0
 43
10.0
 50
180.0
  0
TEXT
  5
331
  8
SIZE
 62
     0
 10
-45.00000010490733
 20
-237.6000000238419
 30
0.0
 40
30.0
  1
625
 72
     1
 11
-0.000000104907329
 21
-237.6000000238419
 31
0.0
  0
POINT
  5
332
  8
DEFPOINTS
 62
     0
 10
312.5
 20
15.0
 30
0.0
  0
POINT
  5
333
  8
DEFPOINTS
 62
     0
 10
-312.5
 20
15.0
 30
0.0
  0
POINT
  5
334
  8
DEFPOINTS
 62
     0
 10
-312.5
 20
-247.6000000238419
 30
0.0
  0
ENDBLK
  5
335
  8
0
  0
ENDSEC
  0
SECTION
  2
ENTITIES
  0
LINE
  5
336
  8
OUTLINE
  6
CONTINUOUS
 10
-312.4630593185047
 20
15.28231779205635
 30
0.0
 11
312.5369406814953
 21
15.28231779205635
 31
0.0
  0
LINE
  5
337
  8
OUTLINE
  6
CONTINUOUS
 10
312.5369406814953
 20
15.28231779205635
 30
0.0
 11
312.5369406814953
 21
494.2823177920563
 31
0.0
  0
LINE
  5
338
  8
OUTLINE
  6
CONTINUOUS
 10
-312.4630593185047
 20
494.2823177920563
 30
0.0
 11
-312.4630593185047
 21
15.28231779205635
 31
0.0
  0
LINE
  5
339
  8
OUTLINE
  6
CONTINUOUS
 10
-312.4630593185047
 20
494.2823177920563
 30
0.0
 11
312.5369406814953
 21
494.2823177920563
 31
0.0
  0
LINE
  5
33A
  8
DETAIL
  6
CONTINUOUS
 10
-263.9630593185047
 20
15.28231779205635
 30
0.0
 11
-263.9630593185047
 21
155.2823177920563
 31
0.0
  0
LINE
  5
33B
  8
DETAIL
  6
CONTINUOUS
 10
-131.9630593185047
 20
15.28231779205635
 30
0.0
 11
-131.9630593185047
 21
165.2823177920563
 31
0.0
  0
LINE
  5
33C
  8
DETAIL
  6
CONTINUOUS
 10
0.036940681495253
 20
15.28231779205635
 30
0.0
 11
0.036940681495253
 21
165.2823177920563
 31
0.0
  0
LINE
  5
33D
  8
DETAIL
  6
CONTINUOUS
 10
132.0369406814953
 20
15.28231779205635
 30
0.0
 11
132.0369406814953
 21
165.2823177920563
 31
0.0
  0
LINE
  5
33E
  8
DETAIL
  6
CONTINUOUS
 10
-312.4630593185047
 20
494.2823177920563
 30
0.0
 11
312.5369406814953
 21
494.2823177920563
 31
0.0
  0
LINE
  5
33F
  8
DETAIL
  6
CONTINUOUS
 10
-312.4630593185047
 20
494.2823177920563
 30
0.0
 11
-312.4630593185047
 21
15.28231779205635
 31
0.0
  0
LINE
  5
340
  8
DETAIL
  6
CONTINUOUS
 10
-312.4630593185047
 20
15.28231779205635
 30
0.0
 11
312.5369406814953
 21
15.28231779205635
 31
0.0
  0
LINE
  5
341
  8
DETAIL
  6
CONTINUOUS
 10
312.5369406814953
 20
15.28231779205635
 30
0.0
 11
312.5369406814953
 21
494.2823177920563
 31
0.0
  0
LINE
  5
342
  8
DETAIL
  6
CONTINUOUS
 10
-253.9630593185047
 20
165.2823177920563
 30
0.0
 11
254.0369406814953
 21
165.2823177920563
 31
0.0
  0
LINE
  5
343
  8
DETAIL
  6
CONTINUOUS
 10
264.0369406814953
 20
15.28231779205635
 30
0.0
 11
264.0369406814953
 21
155.2823177920563
 31
0.0
  0
ARC
  5
344
  8
DETAIL
  6
CONTINUOUS
 10
254.0369406814953
 20
155.2823177920563
 30
0.0
 40
10.0
 50
0.0
 51
90.0
  0
ARC
  5
345
  8
DETAIL
  6
CONTINUOUS
 10
-253.9630593185047
 20
155.2823177920563
 30
0.0
 40
10.0
 50
90.0
 51
180.0
  0
LINE
  5
346
  8
BASIS
  6
DASHDOT
 10
0.036940681495191
 20
544.2823177920563
 30
0.0
 11
0.036940681495257
 21
0.282317792056347
 31
0.0
  0
LINE
  5
347
  8
SIZE
  6
CONTINUOUS
 62
    30
 10
312.5369406814953
 20
5.282317792056347
 30
0.0
 11
312.5369406814953
 21
-259.8176822317856
 31
0.0
  0
LINE
  5
348
  8
SIZE
  6
CONTINUOUS
 62
    30
 10
-312.4630593185047
 20
5.282317792056347
 30
0.0
 11
-312.4630593185047
 21
-259.8176822317856
 31
0.0
  0
LINE
  5
349
  8
SIZE
  6
CONTINUOUS
 62
    30
 10
302.5369406814953
 20
-247.3176822317855
 30
0.0
 11
-302.4630593185047
 21
-247.3176822317855
 31
0.0
  0
CIRCLE
  5
34A
  8
SIZE
  6
CONTINUOUS
 62
    30
 10
312.5369406814953
 20
-247.3176822317855
 30
0.0
 40
5.0
  0
LINE
  5
34B
  8
SIZE
  6
CONTINUOUS
 62
    30
 10
312.5369406814953
 20
-247.3176822317855
 30
0.0
 11
302.5369406814953
 21
-247.3176822317855
 31
0.0
  0
CIRCLE
  5
34C
  8
SIZE
  6
CONTINUOUS
 62
    30
 10
-312.4630593185047
 20
-247.3176822317855
 30
0.0
 40
5.0
  0
LINE
  5
34D
  8
SIZE
  6
CONTINUOUS
 62
    30
 10
-312.4630593185047
 20
-247.3176822317855
 30
0.0
 11
-302.4630593185047
 21
-247.3176822317855
 31
0.0
  0
TEXT
  5
34E
  8
SIZE
  6
CONTINUOUS
 62
    30
 10
-43.53448799484065
 20
-237.3176822317855
 30
0.0
 40
30.0
  1
625
 72
     1
 11
0.036940576587924
 21
-237.3176822317855
 31
0.0
  0
POINT
  5
34F
  8
DEFPOINTS
  6
CONTINUOUS
 62
    30
 10
312.5369406814953
 20
15.28231779205635
 30
0.0
  0
POINT
  5
350
  8
DEFPOINTS
  6
CONTINUOUS
 62
    30
 10
-312.4630593185047
 20
15.28231779205635
 30
0.0
  0
POINT
  5
351
  8
DEFPOINTS
  6
CONTINUOUS
 62
    30
 10
-312.4630593185047
 20
-247.3176822317855
 30
0.0
  0
LINE
  5
352
  8
SIZE
  6
CONTINUOUS
 62
    30
 10
-263.9630593185047
 20
5.282317792056347
 30
0.0
 11
-263.9630593185047
 21
-159.8176822317855
 31
0.0
  0
LINE
  5
353
  8
SIZE
  6
CONTINUOUS
 62
    30
 10
-131.9630593185047
 20
5.282317792056347
 30
0.0
 11
-131.9630593185047
 21
-159.8176822317855
 31
0.0
  0
LINE
  5
354
  8
SIZE
  6
CONTINUOUS
 62
    30
 10
-253.9630593185047
 20
-147.3176822317855
 30
0.0
 11
-141.9630593185047
 21
-147.3176822317855
 31
0.0
  0
CIRCLE
  5
355
  8
SIZE
  6
CONTINUOUS
 62
    30
 10
-263.9630593185047
 20
-147.3176822317855
 30
0.0
 40
5.0
  0
LINE
  5
356
  8
SIZE
  6
CONTINUOUS
 62
    30
 10
-263.9630593185047
 20
-147.3176822317855
 30
0.0
 11
-253.9630593185047
 21
-147.3176822317855
 31
0.0
  0
CIRCLE
  5
357
  8
SIZE
  6
CONTINUOUS
 62
    30
 10
-131.9630593185047
 20
-147.3176822317855
 30
0.0
 40
5.0
  0
LINE
  5
358
  8
SIZE
  6
CONTINUOUS
 62
    30
 10
-131.9630593185047
 20
-147.3176822317855
 30
0.0
 11
-141.9630593185047
 21
-147.3176822317855
 31
0.0
  0
TEXT
  5
359
  8
SIZE
  6
CONTINUOUS
 62
    30
 10
-242.9630593797006
 20
-137.3176822317856
 30
0.0
 40
30.0
  1
132
 72
     1
 11
-197.9630593797006
 21
-137.3176822317856
 31
0.0
  0
POINT
  5
35A
  8
DEFPOINTS
  6
CONTINUOUS
 62
    30
 10
-263.9630593185047
 20
15.28231779205635
 30
0.0
  0
POINT
  5
35B
  8
DEFPOINTS
  6
CONTINUOUS
 62
    30
 10
-131.9630593185047
 20
15.28231779205635
 30
0.0
  0
POINT
  5
35C
  8
DEFPOINTS
  6
CONTINUOUS
 62
    30
 10
-131.9630593185047
 20
-147.3176822317855
 30
0.0
  0
LINE
  5
35D
  8
SIZE
  6
CONTINUOUS
 62
    30
 10
-131.9630593185047
 20
5.282317792056347
 30
0.0
 11
-131.9630593185047
 21
-159.8176822317855
 31
0.0
  0
LINE
  5
35E
  8
SIZE
  6
CONTINUOUS
 62
    30
 10
0.0369406814952564
 20
-9.717682207943653
 30
0.0
 11
0.0369406814952472
 21
-159.8176822317855
 31
0.0
  0
LINE
  5
35F
  8
SIZE
  6
CONTINUOUS
 62
    30
 10
-121.9630593185047
 20
-147.3176822317855
 30
0.0
 11
-9.963059318504747
 21
-147.3176822317855
 31
0.0
  0
CIRCLE
  5
360
  8
SIZE
  6
CONTINUOUS
 62
    30
 10
-131.9630593185047
 20
-147.3176822317855
 30
0.0
 40
5.0
  0
LINE
  5
361
  8
SIZE
  6
CONTINUOUS
 62
    30
 10
-131.9630593185047
 20
-147.3176822317855
 30
0.0
 11
-121.9630593185047
 21
-147.3176822317855
 31
0.0
  0
CIRCLE
  5
362
  8
SIZE
  6
CONTINUOUS
 62
    30
 10
0.036940681495248
 20
-147.3176822317855
 30
0.0
 40
5.0
  0
LINE
  5
363
  8
SIZE
  6
CONTINUOUS
 62
    30
 10
0.036940681495248
 20
-147.3176822317855
 30
0.0
 11
-9.963059318504753
 21
-147.3176822317855
 31
0.0
  0
TEXT
  5
364
  8
SIZE
  6
CONTINUOUS
 62
    30
 10
-110.9630593797007
 20
-137.3176822317856
 30
0.0
 40
30.0
  1
132
 72
     1
 11
-65.96305937970068
 21
-137.3176822317856
 31
0.0
  0
POINT
  5
365
  8
DEFPOINTS
  6
CONTINUOUS
 62
    30
 10
-131.9630593185047
 20
15.28231779205635
 30
0.0
  0
POINT
  5
366
  8
DEFPOINTS
  6
CONTINUOUS
 62
    30
 10
0.036940681495257
 20
0.282317792056347
 30
0.0
  0
POINT
  5
367
  8
DEFPOINTS
  6
CONTINUOUS
 62
    30
 10
0.036940681495248
 20
-147.3176822317855
 30
0.0
  0
LINE
  5
368
  8
SIZE
  6
CONTINUOUS
 62
    30
 10
0.0369406814952564
 20
-9.717682207943653
 30
0.0
 11
0.0369406814952472
 21
-159.8176822317855
 31
0.0
  0
LINE
  5
369
  8
SIZE
  6
CONTINUOUS
 62
    30
 10
132.0369406814953
 20
5.282317792056347
 30
0.0
 11
132.0369406814953
 21
-159.8176822317855
 31
0.0
  0
LINE
  5
36A
  8
SIZE
  6
CONTINUOUS
 62
    30
 10
10.03694068149525
 20
-147.3176822317855
 30
0.0
 11
122.0369406814953
 21
-147.3176822317855
 31
0.0
  0
CIRCLE
  5
36B
  8
SIZE
  6
CONTINUOUS
 62
    30
 10
0.036940681495248
 20
-147.3176822317855
 30
0.0
 40
5.0
  0
LINE
  5
36C
  8
SIZE
  6
CONTINUOUS
 62
    30
 10
0.036940681495248
 20
-147.3176822317855
 30
0.0
 11
10.03694068149525
 21
-147.3176822317855
 31
0.0
  0
CIRCLE
  5
36D
  8
SIZE
  6
CONTINUOUS
 62
    30
 10
132.0369406814953
 20
-147.3176822317855
 30
0.0
 40
5.0
  0
LINE
  5
36E
  8
SIZE
  6
CONTINUOUS
 62
    30
 10
132.0369406814953
 20
-147.3176822317855
 30
0.0
 11
122.0369406814953
 21
-147.3176822317855
 31
0.0
  0
TEXT
  5
36F
  8
SIZE
  6
CONTINUOUS
 62
    30
 10
21.03694062029929
 20
-137.3176822317856
 30
0.0
 40
30.0
  1
132
 72
     1
 11
66.03694062029929
 21
-137.3176822317856
 31
0.0
  0
POINT
  5
370
  8
DEFPOINTS
  6
CONTINUOUS
 62
    30
 10
0.036940681495257
 20
0.282317792056347
 30
0.0
  0
POINT
  5
371
  8
DEFPOINTS
  6
CONTINUOUS
 62
    30
 10
132.0369406814953
 20
15.28231779205635
 30
0.0
  0
POINT
  5
372
  8
DEFPOINTS
  6
CONTINUOUS
 62
    30
 10
132.0369406814953
 20
-147.3176822317855
 30
0.0
  0
LINE
  5
373
  8
SIZE
  6
CONTINUOUS
 62
    30
 10
132.0369406814953
 20
5.282317792056347
 30
0.0
 11
132.0369406814953
 21
-159.8176822317855
 31
0.0
  0
LINE
  5
374
  8
SIZE
  6
CONTINUOUS
 62
    30
 10
264.0369406814953
 20
5.282317792056347
 30
0.0
 11
264.0369406814953
 21
-159.8176822317855
 31
0.0
  0
LINE
  5
375
  8
SIZE
  6
CONTINUOUS
 62
    30
 10
142.0369406814953
 20
-147.3176822317855
 30
0.0
 11
254.0369406814953
 21
-147.3176822317855
 31
0.0
  0
CIRCLE
  5
376
  8
SIZE
  6
CONTINUOUS
 62
    30
 10
132.0369406814953
 20
-147.3176822317855
 30
0.0
 40
5.0
  0
LINE
  5
377
  8
SIZE
  6
CONTINUOUS
 62
    30
 10
132.0369406814953
 20
-147.3176822317855
 30
0.0
 11
142.0369406814953
 21
-147.3176822317855
 31
0.0
  0
CIRCLE
  5
378
  8
SIZE
  6
CONTINUOUS
 62
    30
 10
264.0369406814953
 20
-147.3176822317855
 30
0.0
 40
5.0
  0
LINE
  5
379
  8
SIZE
  6
CONTINUOUS
 62
    30
 10
264.0369406814953
 20
-147.3176822317855
 30
0.0
 11
254.0369406814953
 21
-147.3176822317855
 31
0.0
  0
TEXT
  5
37A
  8
SIZE
  6
CONTINUOUS
 62
    30
 10
153.0369406202992
 20
-137.3176822317856
 30
0.0
 40
30.0
  1
132
 72
     1
 11
198.0369406202992
 21
-137.3176822317856
 31
0.0
  0
POINT
  5
37B
  8
DEFPOINTS
  6
CONTINUOUS
 62
    30
 10
132.0369406814953
 20
15.28231779205635
 30
0.0
  0
POINT
  5
37C
  8
DEFPOINTS
  6
CONTINUOUS
 62
    30
 10
264.0369406814953
 20
15.28231779205635
 30
0.0
  0
POINT
  5
37D
  8
DEFPOINTS
  6
CONTINUOUS
 62
    30
 10
264.0369406814953
 20
-147.3176822317855
 30
0.0
  0
LINE
  5
37E
  8
SIZE
  6
CONTINUOUS
 62
    30
 10
322.5369406814953
 20
15.28231779205635
 30
0.0
 11
475.1369407053371
 21
15.2823177920563
 31
0.0
  0
LINE
  5
37F
  8
SIZE
  6
CONTINUOUS
 62
    30
 10
322.5369406814953
 20
494.2823177920563
 30
0.0
 11
475.1369407053372
 21
494.2823177920562
 31
0.0
  0
LINE
  5
380
  8
SIZE
  6
CONTINUOUS
 62
    30
 10
462.6369407053371
 20
25.28231779205631
 30
0.0
 11
462.6369407053372
 21
484.2823177920562
 31
0.0
  0
CIRCLE
  5
381
  8
SIZE
  6
CONTINUOUS
 62
    30
 10
462.6369407053371
 20
15.28231779205631
 30
0.0
 40
5.0
  0
LINE
  5
382
  8
SIZE
  6
CONTINUOUS
 62
    30
 10
462.6369407053371
 20
15.28231779205631
 30
0.0
 11
462.6369407053371
 21
25.2823177920563
 31
0.0
  0
CIRCLE
  5
383
  8
SIZE
  6
CONTINUOUS
 62
    30
 10
462.6369407053372
 20
494.2823177920562
 30
0.0
 40
5.0
  0
LINE
  5
384
  8
SIZE
  6
CONTINUOUS
 62
    30
 10
462.6369407053372
 20
494.2823177920562
 30
0.0
 11
462.6369407053372
 21
484.2823177920562
 31
0.0
  0
TEXT
  5
385
  8
SIZE
  6
CONTINUOUS
 62
    30
 10
452.6369407053371
 20
212.6394605268073
 30
0.0
 40
30.0
  1
479
 50
90.0
 72
     1
 11
452.6369407053371
 21
254.7823176696645
 31
0.0
  0
POINT
  5
386
  8
DEFPOINTS
  6
CONTINUOUS
 62
    30
 10
312.5369406814953
 20
15.28231779205635
 30
0.0
  0
POINT
  5
387
  8
DEFPOINTS
  6
CONTINUOUS
 62
    30
 10
312.5369406814953
 20
494.2823177920563
 30
0.0
  0
POINT
  5
388
  8
DEFPOINTS
  6
CONTINUOUS
 62
    30
 10
462.6369407053372
 20
494.2823177920562
 30
0.0
  0
LINE
  5
389
  8
SIZE
  6
CONTINUOUS
 62
    30
 10
325.0369406814953
 20
0.2823177920563442
 30
0.0
 11
475.1369407053371
 21
0.2823177920563016
 31
0.0
  0
LINE
  5
38A
  8
SIZE
  6
CONTINUOUS
 62
    30
 10
322.5369406814953
 20
15.28231779205635
 30
0.0
 11
475.1369407053371
 21
15.2823177920563
 31
0.0
  0
LINE
  5
38B
  8
SIZE
  6
CONTINUOUS
 62
    30
 10
462.6369407053371
 20
25.28231779205631
 30
0.0
 11
462.6369407053371
 21
35.2823177920563
 31
0.0
  0
LINE
  5
38C
  8
SIZE
  6
CONTINUOUS
 62
    30
 10
462.6369407053371
 20
-9.717682207943694
 30
0.0
 11
462.6369407053371
 21
-79.71768220794367
 31
0.0
  0
LINE
  5
38D
  8
SIZE
  6
CONTINUOUS
 62
    30
 10
462.6369407053371
 20
15.28231779205631
 30
0.0
 11
462.6369407053371
 21
0.2823177920563052
 31
0.0
  0
CIRCLE
  5
38E
  8
SIZE
  6
CONTINUOUS
 62
    30
 10
462.6369407053371
 20
15.28231779205631
 30
0.0
 40
5.0
  0
LINE
  5
38F
  8
SIZE
  6
CONTINUOUS
 62
    30
 10
462.6369407053371
 20
15.28231779205631
 30
0.0
 11
462.6369407053371
 21
25.2823177920563
 31
0.0
  0
CIRCLE
  5
390
  8
SIZE
  6
CONTINUOUS
 62
    30
 10
462.6369407053371
 20
0.2823177920563052
 30
0.0
 40
5.0
  0
LINE
  5
391
  8
SIZE
  6
CONTINUOUS
 62
    30
 10
462.6369407053371
 20
0.2823177920563052
 30
0.0
 11
462.6369407053371
 21
-9.717682207943696
 31
0.0
  0
TEXT
  5
392
  8
SIZE
  6
CONTINUOUS
 62
    30
 10
452.6369407053371
 20
-80.43196792222932
 30
0.0
 40
30.0
  1
15
 50
90.0
 72
     1
 11
452.6369407053371
 21
-49.71768220794361
 31
0.0
  0
POINT
  5
393
  8
DEFPOINTS
  6
CONTINUOUS
 62
    30
 10
315.0369406814953
 20
0.282317792056347
 30
0.0
  0
POINT
  5
394
  8
DEFPOINTS
  6
CONTINUOUS
 62
    30
 10
312.5369406814953
 20
15.28231779205635
 30
0.0
  0
POINT
  5
395
  8
DEFPOINTS
  6
CONTINUOUS
 62
    30
 10
462.6369407053371
 20
15.28231779205631
 30
0.0
  0
LINE
  5
396
  8
SIZE
  6
CONTINUOUS
 62
    30
 10
-263.9630593185047
 20
165.2823177920563
 30
0.0
 11
-436.0287392263035
 21
165.2823177920563
 31
0.0
  0
LINE
  5
397
  8
SIZE
  6
CONTINUOUS
 62
    30
 10
-322.4630593185047
 20
15.28231779205635
 30
0.0
 11
-436.0287392263036
 21
15.28231779205638
 31
0.0
  0
LINE
  5
398
  8
SIZE
  6
CONTINUOUS
 62
    30
 10
-423.5287392263035
 20
155.2823177920563
 30
0.0
 11
-423.5287392263036
 21
25.28231779205638
 31
0.0
  0
CIRCLE
  5
399
  8
SIZE
  6
CONTINUOUS
 62
    30
 10
-423.5287392263035
 20
165.2823177920563
 30
0.0
 40
5.0
  0
LINE
  5
39A
  8
SIZE
  6
CONTINUOUS
 62
    30
 10
-423.5287392263035
 20
165.2823177920563
 30
0.0
 11
-423.5287392263035
 21
155.2823177920563
 31
0.0
  0
CIRCLE
  5
39B
  8
SIZE
  6
CONTINUOUS
 62
    30
 10
-423.5287392263036
 20
15.28231779205638
 30
0.0
 40
5.0
  0
LINE
  5
39C
  8
SIZE
  6
CONTINUOUS
 62
    30
 10
-423.5287392263036
 20
15.28231779205638
 30
0.0
 11
-423.5287392263036
 21
25.28231779205638
 31
0.0
  0
TEXT
  5
39D
  8
SIZE
  6
CONTINUOUS
 62
    30
 10
-433.5287392263036
 20
45.28231766966444
 30
0.0
 40
30.0
  1
150
 50
90.0
 72
     1
 11
-433.5287392263036
 21
90.28231766966444
 31
0.0
  0
POINT
  5
39E
  8
DEFPOINTS
  6
CONTINUOUS
 62
    30
 10
-253.9630593185047
 20
165.2823177920563
 30
0.0
  0
POINT
  5
39F
  8
DEFPOINTS
  6
CONTINUOUS
 62
    30
 10
-312.4630593185047
 20
15.28231779205635
 30
0.0
  0
POINT
  5
3A0
  8
DEFPOINTS
  6
CONTINUOUS
 62
    30
 10
-423.5287392263036
 20
15.28231779205638
 30
0.0
  0
LINE
  5
3A1
  8
SIZE
  6
CONTINUOUS
 62
    30
 10
325.0369406814953
 20
0.2823177920563442
 30
0.0
 11
575.136940705337
 21
0.2823177920562733
 31
0.0
  0
LINE
  5
3A2
  8
SIZE
  6
CONTINUOUS
 62
    30
 10
325.0369406814953
 20
500.2823177920563
 30
0.0
 11
575.136940705337
 21
500.2823177920562
 31
0.0
  0
LINE
  5
3A3
  8
SIZE
  6
CONTINUOUS
 62
    30
 10
562.636940705337
 20
10.28231779205628
 30
0.0
 11
562.636940705337
 21
490.2823177920562
 31
0.0
  0
CIRCLE
  5
3A4
  8
SIZE
  6
CONTINUOUS
 62
    30
 10
562.636940705337
 20
0.2823177920562769
 30
0.0
 40
5.0
  0
LINE
  5
3A5
  8
SIZE
  6
CONTINUOUS
 62
    30
 10
562.636940705337
 20
0.2823177920562769
 30
0.0
 11
562.636940705337
 21
10.28231779205628
 31
0.0
  0
CIRCLE
  5
3A6
  8
SIZE
  6
CONTINUOUS
 62
    30
 10
562.636940705337
 20
500.2823177920562
 30
0.0
 40
5.0
  0
LINE
  5
3A7
  8
SIZE
  6
CONTINUOUS
 62
    30
 10
562.636940705337
 20
500.2823177920562
 30
0.0
 11
562.636940705337
 21
490.2823177920562
 31
0.0
  0
TEXT
  5
3A8
  8
SIZE
  6
CONTINUOUS
 62
    30
 10
552.636940705337
 20
207.4251748125216
 30
0.0
 40
30.0
  1
500
 50
90.0
 72
     1
 11
552.636940705337
 21
250.2823176696645
 31
0.0
  0
POINT
  5
3A9
  8
DEFPOINTS
  6
CONTINUOUS
 62
    30
 10
315.0369406814953
 20
0.282317792056347
 30
0.0
  0
POINT
  5
3AA
  8
DEFPOINTS
  6
CONTINUOUS
 62
    30
 10
315.0369406814953
 20
500.2823177920563
 30
0.0
  0
POINT
  5
3AB
  8
DEFPOINTS
  6
CONTINUOUS
 62
    30
 10
562.636940705337
 20
500.2823177920562
 30
0.0
  0
LINE
  5
3AC
  8
SIZE
  6
CONTINUOUS
 62
    30
 10
-314.9630593185047
 20
-9.717682207943653
 30
0.0
 11
-314.9630593185047
 21
-359.8176822317855
 31
0.0
  0
LINE
  5
3AD
  8
SIZE
  6
CONTINUOUS
 62
    30
 10
315.0369406814953
 20
-9.717682207943653
 30
0.0
 11
315.0369406814953
 21
-359.8176822317855
 31
0.0
  0
LINE
  5
3AE
  8
SIZE
  6
CONTINUOUS
 62
    30
 10
-304.9630593185047
 20
-347.3176822317855
 30
0.0
 11
305.0369406814953
 21
-347.3176822317855
 31
0.0
  0
CIRCLE
  5
3AF
  8
SIZE
  6
CONTINUOUS
 62
    30
 10
-314.9630593185047
 20
-347.3176822317855
 30
0.0
 40
5.0
  0
LINE
  5
3B0
  8
SIZE
  6
CONTINUOUS
 62
    30
 10
-314.9630593185047
 20
-347.3176822317855
 30
0.0
 11
-304.9630593185047
 21
-347.3176822317855
 31
0.0
  0
CIRCLE
  5
3B1
  8
SIZE
  6
CONTINUOUS
 62
    30
 10
315.0369406814953
 20
-347.3176822317855
 30
0.0
 40
5.0
  0
LINE
  5
3B2
  8
SIZE
  6
CONTINUOUS
 62
    30
 10
315.0369406814953
 20
-347.3176822317855
 30
0.0
 11
305.0369406814953
 21
-347.3176822317855
 31
0.0
  0
TEXT
  5
3B3
  8
SIZE
  6
CONTINUOUS
 62
    30
 10
-43.53448799484065
 20
-337.3176822317855
 30
0.0
 40
30.0
  1
630
 72
     1
 11
0.036940576587924
 21
-337.3176822317855
 31
0.0
  0
POINT
  5
3B4
  8
DEFPOINTS
  6
CONTINUOUS
 62
    30
 10
-314.9630593185047
 20
0.282317792056347
 30
0.0
  0
POINT
  5
3B5
  8
DEFPOINTS
  6
CONTINUOUS
 62
    30
 10
315.0369406814953
 20
0.282317792056347
 30
0.0
  0
POINT
  5
3B6
  8
DEFPOINTS
  6
CONTINUOUS
 62
    30
 10
315.0369406814953
 20
-347.3176822317855
 30
0.0
  0
TEXT
  5
3B7
  8
NOTE
  6
CONTINUOUS
 10
-188.0898903731922
 20
-403.4175723446625
 30
0.0
 40
39.99999999999999
  1
電気給湯機外形寸法
 50
0.0000025613209388
 41
0.84375
  7
STANDARD1
  0
TEXT
  5
3B8
  8
NOTE
  6
CONTINUOUS
 10
621.3346091385265
 20
-29.06655916106865
 30
0.0
 40
40.0
  1
電気給湯機けこみ部寸法
 50
90.00000500895634
 41
0.84375
  7
STANDARD1
  0
CIRCLE
  5
3B9
  8
ARRANGE
  6
CONTINUOUS
 10
0.0
 20
0.0
 30
0.0
 40
15.0
  0
TEXT
  5
3BA
  8
ETC
  6
CONTINUOUS
 10
382.2469016189953
 20
692.9872128115876
 30
0.0
 40
39.99999999999999
  1
TGTL4602
 50
0.0000024148365395
 41
0.612500023841858
  7
STANDARD1
  0
TEXT
  5
3BB
  8
ETC
  6
CONTINUOUS
 10
382.2469016189953
 20
622.9872128115876
 30
0.0
 40
39.99999999999999
  1
脚部カバー
 50
0.0000025613209388
 41
0.84375
  7
STANDARD1
  0
LINE
  5
3BC
  8
SYMBOLLINE
  6
DIVIDE
 10
315.0369406814953
 20
0.282317792056347
 30
0.0
 11
315.0369406814954
 21
673.2546604421266
 31
0.0
  0
LINE
  5
3BD
  8
SYMBOLLINE
  6
DIVIDE
 10
-314.9630593185047
 20
0.282317792056347
 30
0.0
 11
-314.9630593185046
 21
673.2546604421264
 31
0.0
  0
LINE
  5
3BE
  8
SYMBOLLINE
  6
DIVIDE
 10
-314.9630593185047
 20
0.282317792056347
 30
0.0
 11
315.0369406814953
 21
0.282317792056347
 31
0.0
  0
ARC
  5
3BF
  8
SYMBOLLINE
  6
DIVIDE
 10
157.5369406814953
 20
400.4566582500283
 30
0.0
 40
315.0000000000001
 50
59.99999999999999
 51
120.0
  0
ARC
  5
3C0
  8
SYMBOLLINE
  6
DIVIDE
 10
-157.4630593185049
 20
946.0526626342247
 30
0.0
 40
315.0000000000001
 50
239.9999999999999
 51
300.0
  0
LINE
  5
3C1
  8
SYMBOLLINE
  6
DIVIDE
 10
-314.9630593185047
 20
500.2823177920563
 30
0.0
 11
315.0369406814953
 21
500.2823177920563
 31
0.0
  0
ENDSEC
  0
EOF
