  0
SECTION
  2
HEADER
  9
$ACADVER
  1
AC1009
  9
$DWGCODEPAGE
  3
dos932
  9
$INSBASE
 10
0.0
 20
0.0
 30
0.0
  9
$EXTMIN
 10
-777.429724
 20
-560.135156
 30
0.0
  9
$EXTMAX
 10
888.484191
 20
1074.289316
 30
0.0
  9
$LIMMIN
 10
0.0
 20
0.0
  9
$LIMMAX
 10
12.0
 20
9.0
  9
$ORTHOMODE
 70
     0
  9
$REGENMODE
 70
     1
  9
$FILLMODE
 70
     1
  9
$QTEXTMODE
 70
     0
  9
$MIRRTEXT
 70
     1
  9
$DRAGMODE
 70
     2
  9
$LTSCALE
 40
1.0
  9
$OSMODE
 70
    37
  9
$ATTMODE
 70
     1
  9
$TEXTSIZE
 40
2.8
  9
$TRACEWID
 40
0.05
  9
$TEXTSTYLE
  7
STANDARD1
  9
$CLAYER
  8
0
  9
$CELTYPE
  6
CONTINUOUS
  9
$CECOLOR
 62
   256
  9
$DIMSCALE
 40
1.0
  9
$DIMASZ
 40
10.0
  9
$DIMEXO
 40
10.0
  9
$DIMDLI
 40
8.0
  9
$DIMRND
 40
0.0
  9
$DIMDLE
 40
0.0
  9
$DIMEXE
 40
12.5
  9
$DIMTP
 40
0.0
  9
$DIMTM
 40
0.0
  9
$DIMTXT
 40
30.0
  9
$DIMCEN
 40
2.5
  9
$DIMTSZ
 40
0.0
  9
$DIMTOL
 70
     0
  9
$DIMLIM
 70
     0
  9
$DIMTIH
 70
     0
  9
$DIMTOH
 70
     0
  9
$DIMSE1
 70
     0
  9
$DIMSE2
 70
     0
  9
$DIMTAD
 70
     3
  9
$DIMZIN
 70
    12
  9
$DIMBLK
  1

  9
$DIMASO
 70
     1
  9
$DIMSHO
 70
     1
  9
$DIMPOST
  1

  9
$DIMAPOST
  1

  9
$DIMALT
 70
     0
  9
$DIMALTD
 70
     4
  9
$DIMALTF
 40
25.4
  9
$DIMLFAC
 40
1.0
  9
$DIMTOFL
 70
     1
  9
$DIMTVP
 40
0.0
  9
$DIMTIX
 70
     0
  9
$DIMSOXD
 70
     0
  9
$DIMSAH
 70
     1
  9
$DIMBLK1
  1
ORIGIN
  9
$DIMBLK2
  1
ORIGIN
  9
$DIMSTYLE
  2
STANDARD
  9
$DIMCLRD
 70
     0
  9
$DIMCLRE
 70
     0
  9
$DIMCLRT
 70
     0
  9
$DIMTFAC
 40
0.714286
  9
$DIMGAP
 40
10.0
  9
$LUNITS
 70
     2
  9
$LUPREC
 70
     3
  9
$SKETCHINC
 40
0.1
  9
$FILLETRAD
 40
0.0
  9
$AUNITS
 70
     0
  9
$AUPREC
 70
     0
  9
$MENU
  1
acad
  9
$ELEVATION
 40
0.0
  9
$PELEVATION
 40
0.0
  9
$THICKNESS
 40
0.0
  9
$LIMCHECK
 70
     0
  9
$CHAMFERA
 40
0.0
  9
$CHAMFERB
 40
0.0
  9
$SKPOLY
 70
     0
  9
$TDCREATE
 40
2454826.703495359
  9
$TDUPDATE
 40
2457459.559136447
  9
$TDINDWG
 40
0.0
  9
$TDUSRTIMER
 40
0.0
  9
$USRTIMER
 70
     1
  9
$ANGBASE
 50
0.0
  9
$ANGDIR
 70
     0
  9
$PDMODE
 70
     0
  9
$PDSIZE
 40
0.0
  9
$PLINEWID
 40
0.0
  9
$COORDS
 70
     1
  9
$SPLFRAME
 70
     0
  9
$SPLINETYPE
 70
     6
  9
$SPLINESEGS
 70
     8
  9
$ATTDIA
 70
     0
  9
$ATTREQ
 70
     1
  9
$HANDLING
 70
     1
  9
$HANDSEED
  5
727
  9
$SURFTAB1
 70
     6
  9
$SURFTAB2
 70
     6
  9
$SURFTYPE
 70
     6
  9
$SURFU
 70
     6
  9
$SURFV
 70
     6
  9
$UCSNAME
  2

  9
$UCSORG
 10
0.0
 20
0.0
 30
0.0
  9
$UCSXDIR
 10
1.0
 20
0.0
 30
0.0
  9
$UCSYDIR
 10
0.0
 20
1.0
 30
0.0
  9
$PUCSNAME
  2

  9
$PUCSORG
 10
0.0
 20
0.0
 30
0.0
  9
$PUCSXDIR
 10
1.0
 20
0.0
 30
0.0
  9
$PUCSYDIR
 10
0.0
 20
1.0
 30
0.0
  9
$USERI1
 70
     0
  9
$USERI2
 70
     0
  9
$USERI3
 70
     0
  9
$USERI4
 70
     0
  9
$USERI5
 70
     0
  9
$USERR1
 40
0.0
  9
$USERR2
 40
0.0
  9
$USERR3
 40
0.0
  9
$USERR4
 40
0.0
  9
$USERR5
 40
0.0
  9
$WORLDVIEW
 70
     1
  9
$SHADEDGE
 70
     3
  9
$SHADEDIF
 70
    70
  9
$TILEMODE
 70
     1
  9
$MAXACTVP
 70
    48
  9
$PLIMCHECK
 70
     0
  9
$PEXTMIN
 10
1.000000000000000E+20
 20
1.000000000000000E+20
 30
1.000000000000000E+20
  9
$PEXTMAX
 10
-1.000000000000000E+20
 20
-1.000000000000000E+20
 30
-1.000000000000000E+20
  9
$PLIMMIN
 10
0.0
 20
0.0
  9
$PLIMMAX
 10
12.0
 20
9.0
  9
$UNITMODE
 70
     0
  9
$VISRETAIN
 70
     1
  9
$PLINEGEN
 70
     0
  9
$PSLTSCALE
 70
     1
  0
ENDSEC
  0
SECTION
  2
TABLES
  0
TABLE
  2
VPORT
 70
     1
  0
VPORT
  2
*ACTIVE
 70
     0
 10
0.0
 20
0.0
 11
1.0
 21
1.0
 12
74.827221
 22
261.12708
 13
0.0
 23
0.0
 14
1.0
 24
1.0
 15
0.0
 25
0.0
 16
0.0
 26
0.0
 36
1.0
 17
0.0
 27
0.0
 37
0.0
 40
1643.294814
 41
1.182927
 42
50.0
 43
0.0
 44
0.0
 50
0.0
 51
0.0
 71
     0
 72
   100
 73
     1
 74
     1
 75
     0
 76
     0
 77
     0
 78
     0
  0
ENDTAB
  0
TABLE
  2
LTYPE
 70
     4
  0
LTYPE
  2
CONTINUOUS
 70
     0
  3
Solid line
 72
    65
 73
     0
 40
0.0
  0
LTYPE
  2
DASHED
 70
     0
  3
-- -- -- -- -- -- -- -- -- -- -- -- -- -- --
 72
    65
 73
     2
 40
0.75
 49
0.5
 49
-0.25
  0
LTYPE
  2
DASHDOT
 70
     0
  3
__ . __ . __ . __ . __ . __ . __ . __ . __ . __
 72
    65
 73
     4
 40
125.0
 49
80.0
 49
-20.0
 49
5.0
 49
-20.0
  0
LTYPE
  2
DIVIDE
 70
     0
  3
__ . . __ . . __ . . __ . . __ . . __ . . __
 72
    65
 73
     6
 40
1.25
 49
0.5
 49
-0.25
 49
0.0
 49
-0.25
 49
0.0
 49
-0.25
  0
ENDTAB
  0
TABLE
  2
LAYER
 70
    12
  0
LAYER
  2
0
 70
     0
 62
     3
  6
CONTINUOUS
  0
LAYER
  2
OUTLINE
 70
     0
 62
     3
  6
CONTINUOUS
  0
LAYER
  2
DETAIL
 70
     0
 62
     5
  6
CONTINUOUS
  0
LAYER
  2
BASIS
 70
     0
 62
     6
  6
CONTINUOUS
  0
LAYER
  2
SIZE
 70
     0
 62
    30
  6
CONTINUOUS
  0
LAYER
  2
NOTE
 70
     0
 62
     4
  6
CONTINUOUS
  0
LAYER
  2
ARRANGE
 70
     0
 62
     1
  6
CONTINUOUS
  0
LAYER
  2
FIX
 70
     0
 62
    11
  6
CONTINUOUS
  0
LAYER
  2
SERVICESPACE
 70
     0
 62
     2
  6
CONTINUOUS
  0
LAYER
  2
ETC
 70
     0
 62
    61
  6
CONTINUOUS
  0
LAYER
  2
SYMBOLLINE
 70
     0
 62
     7
  6
CONTINUOUS
  0
LAYER
  2
DEFPOINTS
 70
     0
 62
     7
  6
CONTINUOUS
  0
ENDTAB
  0
TABLE
  2
STYLE
 70
     5
  0
STYLE
  2
STANDARD
 70
     0
 40
0.0
 41
1.0
 50
0.0
 71
     0
 42
0.2
  3
txt
  4

  0
STYLE
  2
STANDARD1
 70
     0
 40
0.0
 41
1.0
 50
0.0
 71
     0
 42
2.8
  3
MONOTXT
  4
BIGFONT
  0
STYLE
  2
STANDARD2
 70
     4
 40
0.0
 41
1.0
 50
0.0
 71
     0
 42
2.8
  3
MONOTXT
  4
BIGFONT
  0
STYLE
  2
STANDARD3
 70
     0
 40
0.0
 41
1.0
 50
0.0
 71
     0
 42
2.8
  3
MONOTXT
  4

  0
STYLE
  2
STANDARD4
 70
     4
 40
0.0
 41
1.0
 50
0.0
 71
     0
 42
2.8
  3
MONOTXT
  4

  0
ENDTAB
  0
TABLE
  2
VIEW
 70
     0
  0
ENDTAB
  0
TABLE
  2
UCS
 70
     0
  0
ENDTAB
  0
TABLE
  2
APPID
 70
     1
  0
APPID
  2
ACAD
 70
     0
  0
ENDTAB
  0
TABLE
  2
DIMSTYLE
 70
     1
  0
DIMSTYLE
  2
STANDARD
 70
     0
  3

  4

  5

  6

  7

 40
1.0
 41
0.18
 42
0.0625
 43
0.38
 44
0.18
 45
0.0
 46
0.0
 47
0.0
 48
0.0
140
0.18
141
0.09
142
0.0
143
25.4
144
1.0
145
0.0
146
1.0
147
0.09
 71
     0
 72
     0
 73
     1
 74
     1
 75
     0
 76
     0
 77
     0
 78
     0
170
     0
171
     2
172
     0
173
     0
174
     0
175
     0
176
     0
177
     0
178
     0
  0
ENDTAB
  0
ENDSEC
  0
SECTION
  2
BLOCKS
  0
BLOCK
  8
0
  2
$MODEL_SPACE
 70
     0
 10
0.0
 20
0.0
 30
0.0
  3
$MODEL_SPACE
  1

  0
ENDBLK
  5
6FC
  8
0
  0
BLOCK
 67
     1
  8
0
  2
$PAPER_SPACE
 70
     0
 10
0.0
 20
0.0
 30
0.0
  3
$PAPER_SPACE
  1

  0
ENDBLK
  5
6FE
 67
     1
  8
0
  0
BLOCK
  8
SIZE
  2
*D0
 70
     1
 10
0.0
 20
0.0
 30
0.0
  3
*D0
  1

  0
TEXT
  5
332
  8
SIZE
  6
CONTINUOUS
 10
-586.029749
 20
181.024857
 30
0.0
 40
2.8
  1
368
 50
90.00000499999999
 41
0.7
  7
STANDARD1
  0
LINE
  5
333
  8
SIZE
  6
CONTINUOUS
 10
-356.029724
 20
367.964874
 30
0.0
 11
-587.029724
 21
367.964874
 31
0.0
  0
LINE
  5
334
  8
SIZE
  6
CONTINUOUS
 10
-486.029724
 20
-0.035135
 30
0.0
 11
-587.029724
 21
-0.035135
 31
0.0
  0
LINE
  5
335
  8
SIZE
  6
CONTINUOUS
 10
-585.029724
 20
367.964874
 30
0.0
 11
-585.029724
 21
-0.035135
 31
0.0
  0
INSERT
  5
336
  8
SIZE
  2
DOT
 10
-585.029724
 20
367.964874
 30
0.0
 50
90.0
  0
INSERT
  5
337
  8
SIZE
  2
DOT
 10
-585.029724
 20
-0.035135
 30
0.0
 50
270.0
  0
POINT
  5
338
  8
DEFPOINTS
  6
BYBLOCK
 10
-485.029724
 20
-0.035135
 30
0.0
  0
POINT
  5
339
  8
DEFPOINTS
  6
BYBLOCK
 10
-355.029724
 20
367.964874
 30
0.0
  0
POINT
  5
33A
  8
DEFPOINTS
  6
BYBLOCK
 10
-585.029724
 20
367.964874
 30
0.0
  0
ENDBLK
  5
33B
  8
SIZE
  0
BLOCK
  8
SIZE
  2
DOT
 70
     0
 10
0.0
 20
0.0
 30
0.0
  3
DOT
  1

  0
POLYLINE
  5
33E
  8
0
  6
BYBLOCK
 66
     1
 10
0.0
 20
0.0
 30
0.0
 70
     1
 40
0.5
 41
0.5
  0
VERTEX
  5
724
  8
0
  6
BYBLOCK
 10
-0.25
 20
0.0
 30
0.0
 42
1.0
  0
VERTEX
  5
725
  8
0
  6
BYBLOCK
 10
0.25
 20
0.0
 30
0.0
 42
1.0
  0
SEQEND
  5
726
  8
0
  6
BYBLOCK
  0
LINE
  5
342
  8
0
  6
BYBLOCK
 10
-0.5
 20
0.0
 30
0.0
 11
-1.0
 21
0.0
 31
0.0
  0
ENDBLK
  5
343
  8
SIZE
  0
BLOCK
  8
SIZE
  2
*D2
 70
     1
 10
0.0
 20
0.0
 30
0.0
  3
*D2
  1

  0
TEXT
  5
346
  8
SIZE
  6
CONTINUOUS
 10
448.970282
 20
-92.622604
 30
0.0
 40
2.8
  1
15
 50
90.00000499999999
 41
0.7
  7
STANDARD1
  0
LINE
  5
347
  8
SIZE
  6
CONTINUOUS
 10
20.270269
 20
-15.035135
 30
0.0
 11
451.970276
 21
-15.035135
 31
0.0
  0
LINE
  5
348
  8
SIZE
  6
CONTINUOUS
 10
100.970268
 20
-0.035135
 30
0.0
 11
451.970276
 21
-0.035135
 31
0.0
  0
LINE
  5
349
  8
SIZE
  6
CONTINUOUS
 10
449.970276
 20
-94.022606
 30
0.0
 11
449.970276
 21
4.964865
 31
0.0
  0
INSERT
  5
34A
  8
SIZE
  2
DOT
 10
449.970276
 20
-15.035135
 30
0.0
 50
270.0
  0
INSERT
  5
34B
  8
SIZE
  2
DOT
 10
449.970276
 20
-0.035135
 30
0.0
 50
90.0
  0
POINT
  5
34C
  8
DEFPOINTS
  6
BYBLOCK
 10
99.970268
 20
-0.035135
 30
0.0
  0
POINT
  5
34D
  8
DEFPOINTS
  6
BYBLOCK
 10
19.270269
 20
-15.035135
 30
0.0
  0
POINT
  5
34E
  8
DEFPOINTS
  6
BYBLOCK
 10
449.970276
 20
-15.035135
 30
0.0
  0
ENDBLK
  5
34F
  8
SIZE
  0
BLOCK
  8
SIZE
  2
*D3
 70
     1
 10
0.0
 20
0.0
 30
0.0
  3
*D3
  1

  0
TEXT
  5
352
  8
SIZE
  6
CONTINUOUS
 10
-64.113731
 20
-149.035147
 30
0.0
 40
2.8
  1
1
 50
0.000003
 41
0.7
  7
STANDARD1
  0
LINE
  5
353
  8
SIZE
  6
CONTINUOUS
 10
-0.72973
 20
-36.035133
 30
0.0
 11
-0.72973
 21
-152.035141
 31
0.0
  0
LINE
  5
354
  8
SIZE
  6
CONTINUOUS
 10
-0.02973
 20
-1.035135
 30
0.0
 11
-0.02973
 21
-152.035141
 31
0.0
  0
LINE
  5
355
  8
SIZE
  6
CONTINUOUS
 10
-65.513733
 20
-150.035141
 30
0.0
 11
4.97027
 21
-150.035141
 31
0.0
  0
INSERT
  5
356
  8
SIZE
  2
DOT
 10
-0.72973
 20
-150.035141
 30
0.0
 50
180.0
  0
INSERT
  5
357
  8
SIZE
  2
DOT
 10
-0.02973
 20
-150.035141
 30
0.0
  0
POINT
  5
358
  8
DEFPOINTS
  6
BYBLOCK
 10
-0.02973
 20
-0.035135
 30
0.0
  0
POINT
  5
359
  8
DEFPOINTS
  6
BYBLOCK
 10
-0.72973
 20
-35.035133
 30
0.0
  0
POINT
  5
35A
  8
DEFPOINTS
  6
BYBLOCK
 10
-0.72973
 20
-150.035141
 30
0.0
  0
ENDBLK
  5
35B
  8
SIZE
  0
BLOCK
  8
SIZE
  2
*D4
 70
     1
 10
0.0
 20
0.0
 30
0.0
  3
*D4
  1

  0
TEXT
  5
35E
  8
SIZE
  6
CONTINUOUS
 10
-147.469727
 20
-549.035132
 30
0.0
 40
2.8
  1
345
 50
0.000003
 41
0.7
  7
STANDARD1
  0
LINE
  5
35F
  8
SIZE
  6
CONTINUOUS
 10
27.97027
 20
-1.035135
 30
0.0
 11
27.97027
 21
-552.035156
 31
0.0
  0
LINE
  5
360
  8
SIZE
  6
CONTINUOUS
 10
-317.029724
 20
-1.035135
 30
0.0
 11
-317.029724
 21
-552.035156
 31
0.0
  0
LINE
  5
361
  8
SIZE
  6
CONTINUOUS
 10
27.97027
 20
-550.035156
 30
0.0
 11
-317.029724
 21
-550.035156
 31
0.0
  0
INSERT
  5
362
  8
SIZE
  2
DOT
 10
27.97027
 20
-550.035156
 30
0.0
  0
INSERT
  5
363
  8
SIZE
  2
DOT
 10
-317.029724
 20
-550.035156
 30
0.0
 50
180.0
  0
POINT
  5
364
  8
DEFPOINTS
  6
BYBLOCK
 10
-317.029724
 20
-0.035135
 30
0.0
  0
POINT
  5
365
  8
DEFPOINTS
  6
BYBLOCK
 10
27.97027
 20
-0.035135
 30
0.0
  0
POINT
  5
366
  8
DEFPOINTS
  6
BYBLOCK
 10
27.97027
 20
-550.035156
 30
0.0
  0
ENDBLK
  5
367
  8
SIZE
  0
BLOCK
  8
SIZE
  2
*D5
 70
     1
 10
0.0
 20
0.0
 30
0.0
  3
*D5
  1

  0
TEXT
  5
36A
  8
SIZE
  6
CONTINUOUS
 10
-386.029718
 20
58.349537
 30
0.0
 40
2.8
  1
8
 50
90.00000499999999
 41
0.7
  7
STANDARD1
  0
LINE
  5
36B
  8
SIZE
  6
CONTINUOUS
 10
-318.029724
 20
-0.035135
 30
0.0
 11
-387.029724
 21
-0.035135
 31
0.0
  0
LINE
  5
36C
  8
SIZE
  6
CONTINUOUS
 10
-318.029724
 20
7.964865
 30
0.0
 11
-387.029724
 21
7.964865
 31
0.0
  0
LINE
  5
36D
  8
SIZE
  6
CONTINUOUS
 10
-385.029724
 20
-5.035135
 30
0.0
 11
-385.029724
 21
61.709538
 31
0.0
  0
INSERT
  5
36E
  8
SIZE
  2
DOT
 10
-385.029724
 20
-0.035135
 30
0.0
 50
270.0
  0
INSERT
  5
36F
  8
SIZE
  2
DOT
 10
-385.029724
 20
7.964865
 30
0.0
 50
90.0
  0
POINT
  5
370
  8
DEFPOINTS
  6
BYBLOCK
 10
-317.029724
 20
7.964865
 30
0.0
  0
POINT
  5
371
  8
DEFPOINTS
  6
BYBLOCK
 10
-317.029724
 20
-0.035135
 30
0.0
  0
POINT
  5
372
  8
DEFPOINTS
  6
BYBLOCK
 10
-385.029724
 20
-0.035135
 30
0.0
  0
ENDBLK
  5
373
  8
SIZE
  0
BLOCK
  8
SIZE
  2
*D6
 70
     1
 10
0.0
 20
0.0
 30
0.0
  3
*D6
  1

  0
TEXT
  5
376
  8
SIZE
  6
CONTINUOUS
 10
-72.161667
 20
-249.035147
 30
0.0
 40
2.8
  1
28
 50
0.000003
 41
0.7
  7
STANDARD1
  0
LINE
  5
377
  8
SIZE
  6
CONTINUOUS
 10
27.97027
 20
0.964865
 30
0.0
 11
27.97027
 21
-252.035141
 31
0.0
  0
LINE
  5
378
  8
SIZE
  6
CONTINUOUS
 10
-0.02973
 20
-1.035135
 30
0.0
 11
-0.02973
 21
-252.035141
 31
0.0
  0
LINE
  5
379
  8
SIZE
  6
CONTINUOUS
 10
32.970268
 20
-250.035141
 30
0.0
 11
-73.561668
 21
-250.035141
 31
0.0
  0
INSERT
  5
37A
  8
SIZE
  2
DOT
 10
27.97027
 20
-250.035141
 30
0.0
  0
INSERT
  5
37B
  8
SIZE
  2
DOT
 10
-0.02973
 20
-250.035141
 30
0.0
 50
180.0
  0
POINT
  5
37C
  8
DEFPOINTS
  6
BYBLOCK
 10
-0.02973
 20
-0.035135
 30
0.0
  0
POINT
  5
37D
  8
DEFPOINTS
  6
BYBLOCK
 10
27.97027
 20
1.964865
 30
0.0
  0
POINT
  5
37E
  8
DEFPOINTS
  6
BYBLOCK
 10
27.97027
 20
-250.035141
 30
0.0
  0
ENDBLK
  5
37F
  8
SIZE
  0
BLOCK
  8
SIZE
  2
*D7
 70
     1
 10
0.0
 20
0.0
 30
0.0
  3
*D7
  1

  0
TEXT
  5
382
  8
SIZE
  6
CONTINUOUS
 10
72.735657
 20
-349.035162
 30
0.0
 40
2.8
  1
10
 50
0.000003
 41
0.7
  7
STANDARD1
  0
LINE
  5
383
  8
SIZE
  6
CONTINUOUS
 10
-0.02973
 20
18.964865
 30
0.0
 11
-0.02973
 21
-352.035156
 31
0.0
  0
LINE
  5
384
  8
SIZE
  6
CONTINUOUS
 10
9.97027
 20
-21.035135
 30
0.0
 11
9.97027
 21
-352.035156
 31
0.0
  0
LINE
  5
385
  8
SIZE
  6
CONTINUOUS
 10
-5.02973
 20
-350.035156
 30
0.0
 11
78.055656
 21
-350.035156
 31
0.0
  0
INSERT
  5
386
  8
SIZE
  2
DOT
 10
-0.02973
 20
-350.035156
 30
0.0
 50
180.0
  0
INSERT
  5
387
  8
SIZE
  2
DOT
 10
9.97027
 20
-350.035156
 30
0.0
  0
POINT
  5
388
  8
DEFPOINTS
  6
BYBLOCK
 10
9.97027
 20
-20.035135
 30
0.0
  0
POINT
  5
389
  8
DEFPOINTS
  6
BYBLOCK
 10
-0.02973
 20
19.964865
 30
0.0
  0
POINT
  5
38A
  8
DEFPOINTS
  6
BYBLOCK
 10
-0.02973
 20
-350.035156
 30
0.0
  0
ENDBLK
  5
38B
  8
SIZE
  0
BLOCK
  8
SIZE
  2
*D8
 70
     1
 10
0.0
 20
0.0
 30
0.0
  3
*D8
  1

  0
TEXT
  5
38E
  8
SIZE
  6
CONTINUOUS
 10
-736.029749
 20
366.024872
 30
0.0
 40
2.8
  1
738
 50
90.00000499999999
 41
0.7
  7
STANDARD1
  0
LINE
  5
38F
  8
SIZE
  6
CONTINUOUS
 10
-486.029724
 20
737.964844
 30
0.0
 11
-737.029724
 21
737.964844
 31
0.0
  0
LINE
  5
390
  8
SIZE
  6
CONTINUOUS
 10
-486.029724
 20
-0.035135
 30
0.0
 11
-737.029724
 21
-0.035135
 31
0.0
  0
LINE
  5
391
  8
SIZE
  6
CONTINUOUS
 10
-735.029724
 20
737.964844
 30
0.0
 11
-735.029724
 21
-0.035135
 31
0.0
  0
INSERT
  5
392
  8
SIZE
  2
DOT
 10
-735.029724
 20
737.964844
 30
0.0
 50
90.0
  0
INSERT
  5
393
  8
SIZE
  2
DOT
 10
-735.029724
 20
-0.035135
 30
0.0
 50
270.0
  0
POINT
  5
394
  8
DEFPOINTS
  6
BYBLOCK
 10
-485.029724
 20
-0.035135
 30
0.0
  0
POINT
  5
395
  8
DEFPOINTS
  6
BYBLOCK
 10
-485.029724
 20
737.964844
 30
0.0
  0
POINT
  5
396
  8
DEFPOINTS
  6
BYBLOCK
 10
-735.029724
 20
737.964844
 30
0.0
  0
ENDBLK
  5
397
  8
SIZE
  0
BLOCK
  8
SIZE
  2
*D9
 70
     1
 10
0.0
 20
0.0
 30
0.0
  3
*D9
  1

  0
TEXT
  5
39A
  8
SIZE
  6
CONTINUOUS
 10
598.970251
 20
366.024872
 30
0.0
 40
2.8
  1
738
 50
90.00000499999999
 41
0.7
  7
STANDARD1
  0
LINE
  5
39B
  8
SIZE
  6
CONTINUOUS
 10
100.970268
 20
737.964844
 30
0.0
 11
601.970276
 21
737.964844
 31
0.0
  0
LINE
  5
39C
  8
SIZE
  6
CONTINUOUS
 10
100.970268
 20
-0.035135
 30
0.0
 11
601.970276
 21
-0.035135
 31
0.0
  0
LINE
  5
39D
  8
SIZE
  6
CONTINUOUS
 10
599.970276
 20
737.964844
 30
0.0
 11
599.970276
 21
-0.035135
 31
0.0
  0
INSERT
  5
39E
  8
SIZE
  2
DOT
 10
599.970276
 20
737.964844
 30
0.0
 50
90.0
  0
INSERT
  5
39F
  8
SIZE
  2
DOT
 10
599.970276
 20
-0.035135
 30
0.0
 50
270.0
  0
POINT
  5
3A0
  8
DEFPOINTS
  6
BYBLOCK
 10
99.970268
 20
-0.035135
 30
0.0
  0
POINT
  5
3A1
  8
DEFPOINTS
  6
BYBLOCK
 10
99.970268
 20
737.964844
 30
0.0
  0
POINT
  5
3A2
  8
DEFPOINTS
  6
BYBLOCK
 10
599.970276
 20
737.964844
 30
0.0
  0
ENDBLK
  5
3A3
  8
SIZE
  0
BLOCK
  8
SIZE
  2
*D10
 70
     1
 10
0.0
 20
0.0
 30
0.0
  3
*D10
  1

  0
TEXT
  5
3A6
  8
SIZE
  6
CONTINUOUS
 10
448.970282
 20
685.024841
 30
0.0
 40
2.8
  1
100
 50
90.00000499999999
 41
0.7
  7
STANDARD1
  0
LINE
  5
3A7
  8
SIZE
  6
CONTINUOUS
 10
100.970268
 20
737.964844
 30
0.0
 11
451.970276
 21
737.964844
 31
0.0
  0
LINE
  5
3A8
  8
SIZE
  6
CONTINUOUS
 10
0.97027
 20
637.964844
 30
0.0
 11
451.970276
 21
637.964844
 31
0.0
  0
LINE
  5
3A9
  8
SIZE
  6
CONTINUOUS
 10
449.970276
 20
737.964844
 30
0.0
 11
449.970276
 21
637.964844
 31
0.0
  0
INSERT
  5
3AA
  8
SIZE
  2
DOT
 10
449.970276
 20
737.964844
 30
0.0
 50
90.0
  0
INSERT
  5
3AB
  8
SIZE
  2
DOT
 10
449.970276
 20
637.964844
 30
0.0
 50
270.0
  0
POINT
  5
3AC
  8
DEFPOINTS
  6
BYBLOCK
 10
-0.02973
 20
637.964844
 30
0.0
  0
POINT
  5
3AD
  8
DEFPOINTS
  6
BYBLOCK
 10
99.970268
 20
737.964844
 30
0.0
  0
POINT
  5
3AE
  8
DEFPOINTS
  6
BYBLOCK
 10
449.970276
 20
737.964844
 30
0.0
  0
ENDBLK
  5
3AF
  8
SIZE
  0
BLOCK
  8
SIZE
  2
*D11
 70
     1
 10
0.0
 20
0.0
 30
0.0
  3
*D11
  1

  0
TEXT
  5
3B2
  8
SIZE
  6
CONTINUOUS
 10
47.03027
 20
988.964868
 30
0.0
 40
2.8
  1
100
 50
0.000003
 41
0.7
  7
STANDARD1
  0
LINE
  5
3B3
  8
SIZE
  6
CONTINUOUS
 10
-0.02973
 20
738.964844
 30
0.0
 11
-0.02973
 21
989.964844
 31
0.0
  0
LINE
  5
3B4
  8
SIZE
  6
CONTINUOUS
 10
99.970268
 20
738.964844
 30
0.0
 11
99.970268
 21
989.964844
 31
0.0
  0
LINE
  5
3B5
  8
SIZE
  6
CONTINUOUS
 10
-0.02973
 20
987.964844
 30
0.0
 11
99.970268
 21
987.964844
 31
0.0
  0
INSERT
  5
3B6
  8
SIZE
  2
DOT
 10
-0.02973
 20
987.964844
 30
0.0
 50
180.0
  0
INSERT
  5
3B7
  8
SIZE
  2
DOT
 10
99.970268
 20
987.964844
 30
0.0
  0
POINT
  5
3B8
  8
DEFPOINTS
  6
BYBLOCK
 10
99.970268
 20
737.964844
 30
0.0
  0
POINT
  5
3B9
  8
DEFPOINTS
  6
BYBLOCK
 10
-0.02973
 20
737.964844
 30
0.0
  0
POINT
  5
3BA
  8
DEFPOINTS
  6
BYBLOCK
 10
-0.02973
 20
987.964844
 30
0.0
  0
ENDBLK
  5
3BB
  8
SIZE
  0
BLOCK
  8
SIZE
  2
*D12
 70
     1
 10
0.0
 20
0.0
 30
0.0
  3
*D12
  1

  0
TEXT
  5
3BE
  8
SIZE
  6
CONTINUOUS
 10
-145.469727
 20
988.964868
 30
0.0
 40
2.8
  1
285
 50
0.000003
 41
0.7
  7
STANDARD1
  0
LINE
  5
3BF
  8
SIZE
  6
CONTINUOUS
 10
-285.029724
 20
738.964844
 30
0.0
 11
-285.029724
 21
989.964844
 31
0.0
  0
LINE
  5
3C0
  8
SIZE
  6
CONTINUOUS
 10
-0.02973
 20
738.964844
 30
0.0
 11
-0.02973
 21
989.964844
 31
0.0
  0
LINE
  5
3C1
  8
SIZE
  6
CONTINUOUS
 10
-285.029724
 20
987.964844
 30
0.0
 11
-0.02973
 21
987.964844
 31
0.0
  0
INSERT
  5
3C2
  8
SIZE
  2
DOT
 10
-285.029724
 20
987.964844
 30
0.0
 50
180.0
  0
INSERT
  5
3C3
  8
SIZE
  2
DOT
 10
-0.02973
 20
987.964844
 30
0.0
  0
POINT
  5
3C4
  8
DEFPOINTS
  6
BYBLOCK
 10
-0.02973
 20
737.964844
 30
0.0
  0
POINT
  5
3C5
  8
DEFPOINTS
  6
BYBLOCK
 10
-285.029724
 20
737.964844
 30
0.0
  0
POINT
  5
3C6
  8
DEFPOINTS
  6
BYBLOCK
 10
-285.029724
 20
987.964844
 30
0.0
  0
ENDBLK
  5
3C7
  8
SIZE
  0
BLOCK
  8
SIZE
  2
*D13
 70
     1
 10
0.0
 20
0.0
 30
0.0
  3
*D13
  1

  0
TEXT
  5
3CA
  8
SIZE
  6
CONTINUOUS
 10
-387.969727
 20
988.964868
 30
0.0
 40
2.8
  1
200
 50
0.000003
 41
0.7
  7
STANDARD1
  0
LINE
  5
3CB
  8
SIZE
  6
CONTINUOUS
 10
-485.029724
 20
738.964844
 30
0.0
 11
-485.029724
 21
989.964844
 31
0.0
  0
LINE
  5
3CC
  8
SIZE
  6
CONTINUOUS
 10
-285.029724
 20
738.964844
 30
0.0
 11
-285.029724
 21
989.964844
 31
0.0
  0
LINE
  5
3CD
  8
SIZE
  6
CONTINUOUS
 10
-485.029724
 20
987.964844
 30
0.0
 11
-285.029724
 21
987.964844
 31
0.0
  0
INSERT
  5
3CE
  8
SIZE
  2
DOT
 10
-485.029724
 20
987.964844
 30
0.0
 50
180.0
  0
INSERT
  5
3CF
  8
SIZE
  2
DOT
 10
-285.029724
 20
987.964844
 30
0.0
  0
POINT
  5
3D0
  8
DEFPOINTS
  6
BYBLOCK
 10
-285.029724
 20
737.964844
 30
0.0
  0
POINT
  5
3D1
  8
DEFPOINTS
  6
BYBLOCK
 10
-485.029724
 20
737.964844
 30
0.0
  0
POINT
  5
3D2
  8
DEFPOINTS
  6
BYBLOCK
 10
-485.029724
 20
987.964844
 30
0.0
  0
ENDBLK
  5
3D3
  8
SIZE
  0
BLOCK
  8
SIZE
  2
*D14
 70
     1
 10
0.0
 20
0.0
 30
0.0
  3
*D14
  1

  0
TEXT
  5
3D6
  8
SIZE
  6
CONTINUOUS
 10
-69.132049
 20
838.964868
 30
0.0
 40
2.8
  1
16
 50
0.000003
 41
0.7
  7
STANDARD1
  0
LINE
  5
3D7
  8
SIZE
  6
CONTINUOUS
 10
15.97027
 20
598.964844
 30
0.0
 11
15.97027
 21
839.964844
 31
0.0
  0
LINE
  5
3D8
  8
SIZE
  6
CONTINUOUS
 10
-0.029728
 20
633.964844
 30
0.0
 11
-0.029728
 21
839.964844
 31
0.0
  0
LINE
  5
3D9
  8
SIZE
  6
CONTINUOUS
 10
20.97027
 20
837.964844
 30
0.0
 11
-70.532051
 21
837.964844
 31
0.0
  0
INSERT
  5
3DA
  8
SIZE
  2
DOT
 10
15.97027
 20
837.964844
 30
0.0
  0
INSERT
  5
3DB
  8
SIZE
  2
DOT
 10
-0.029728
 20
837.964844
 30
0.0
 50
180.0
  0
POINT
  5
3DC
  8
DEFPOINTS
  6
BYBLOCK
 10
-0.029728
 20
632.964844
 30
0.0
  0
POINT
  5
3DD
  8
DEFPOINTS
  6
BYBLOCK
 10
15.97027
 20
597.964844
 30
0.0
  0
POINT
  5
3DE
  8
DEFPOINTS
  6
BYBLOCK
 10
15.97027
 20
837.964844
 30
0.0
  0
ENDBLK
  5
3DF
  8
SIZE
  0
BLOCK
  8
SIZE
  2
*D15
 70
     1
 10
0.0
 20
0.0
 30
0.0
  3
*D15
  1

  0
TEXT
  5
3E2
  8
SIZE
  6
CONTINUOUS
 10
-176.182968
 20
-449.035162
 30
0.0
 40
2.8
  1
315
 50
0.000003
 41
0.7
  7
STANDARD1
  0
LINE
  5
3E3
  8
SIZE
  6
CONTINUOUS
 10
9.97027
 20
-21.035135
 30
0.0
 11
9.97027
 21
-452.035156
 31
0.0
  0
LINE
  5
3E4
  8
SIZE
  6
CONTINUOUS
 10
-305.029724
 20
-21.035135
 30
0.0
 11
-305.029724
 21
-452.035156
 31
0.0
  0
LINE
  5
3E5
  8
SIZE
  6
CONTINUOUS
 10
9.97027
 20
-450.035156
 30
0.0
 11
-305.029724
 21
-450.035156
 31
0.0
  0
INSERT
  5
3E6
  8
SIZE
  2
DOT
 10
9.97027
 20
-450.035156
 30
0.0
  0
INSERT
  5
3E7
  8
SIZE
  2
DOT
 10
-305.029724
 20
-450.035156
 30
0.0
 50
180.0
  0
POINT
  5
3E8
  8
DEFPOINTS
  6
BYBLOCK
 10
-305.029724
 20
-20.035135
 30
0.0
  0
POINT
  5
3E9
  8
DEFPOINTS
  6
BYBLOCK
 10
9.97027
 20
-20.035135
 30
0.0
  0
POINT
  5
3EA
  8
DEFPOINTS
  6
BYBLOCK
 10
9.97027
 20
-450.035156
 30
0.0
  0
ENDBLK
  5
3EB
  8
SIZE
  0
BLOCK
  8
SIZE
  2
*D16
 70
     1
 10
0.0
 20
0.0
 30
0.0
  3
*D16
  1

  0
TEXT
  5
3EE
  8
SIZE
  6
CONTINUOUS
 10
-145.469727
 20
-349.035162
 30
0.0
 40
2.8
  1
285
 50
0.000003
 41
0.7
  7
STANDARD1
  0
LINE
  5
3EF
  8
SIZE
  6
CONTINUOUS
 10
-285.029724
 20
18.964865
 30
0.0
 11
-285.029724
 21
-352.035156
 31
0.0
  0
LINE
  5
3F0
  8
SIZE
  6
CONTINUOUS
 10
-0.029728
 20
18.964865
 30
0.0
 11
-0.029728
 21
-352.035156
 31
0.0
  0
LINE
  5
3F1
  8
SIZE
  6
CONTINUOUS
 10
-285.029724
 20
-350.035156
 30
0.0
 11
-0.029728
 21
-350.035156
 31
0.0
  0
INSERT
  5
3F2
  8
SIZE
  2
DOT
 10
-285.029724
 20
-350.035156
 30
0.0
 50
180.0
  0
INSERT
  5
3F3
  8
SIZE
  2
DOT
 10
-0.029728
 20
-350.035156
 30
0.0
  0
POINT
  5
3F4
  8
DEFPOINTS
  6
BYBLOCK
 10
-0.029728
 20
19.964865
 30
0.0
  0
POINT
  5
3F5
  8
DEFPOINTS
  6
BYBLOCK
 10
-285.029724
 20
19.964865
 30
0.0
  0
POINT
  5
3F6
  8
DEFPOINTS
  6
BYBLOCK
 10
-285.029724
 20
-350.035156
 30
0.0
  0
ENDBLK
  5
3F7
  8
SIZE
  0
BLOCK
  8
SIZE
  2
*D17
 70
     1
 10
0.0
 20
0.0
 30
0.0
  3
*D17
  1

  0
TEXT
  5
3FA
  8
SIZE
  6
CONTINUOUS
 10
-230.469727
 20
-249.035147
 30
0.0
 40
2.8
  1
179
 50
0.000003
 41
0.7
  7
STANDARD1
  0
LINE
  5
3FB
  8
SIZE
  6
CONTINUOUS
 10
-138.029739
 20
105.964867
 30
0.0
 11
-138.029739
 21
-252.035141
 31
0.0
  0
LINE
  5
3FC
  8
SIZE
  6
CONTINUOUS
 10
-317.029724
 20
0.964865
 30
0.0
 11
-317.029724
 21
-252.035141
 31
0.0
  0
LINE
  5
3FD
  8
SIZE
  6
CONTINUOUS
 10
-138.029739
 20
-250.035141
 30
0.0
 11
-317.029724
 21
-250.035141
 31
0.0
  0
INSERT
  5
3FE
  8
SIZE
  2
DOT
 10
-138.029739
 20
-250.035141
 30
0.0
  0
INSERT
  5
3FF
  8
SIZE
  2
DOT
 10
-317.029724
 20
-250.035141
 30
0.0
 50
180.0
  0
POINT
  5
400
  8
DEFPOINTS
  6
BYBLOCK
 10
-317.029724
 20
1.964865
 30
0.0
  0
POINT
  5
401
  8
DEFPOINTS
  6
BYBLOCK
 10
-138.029739
 20
106.964867
 30
0.0
  0
POINT
  5
402
  8
DEFPOINTS
  6
BYBLOCK
 10
-138.029739
 20
-250.035141
 30
0.0
  0
ENDBLK
  5
403
  8
SIZE
  0
BLOCK
  8
SIZE
  2
*D18
 70
     1
 10
0.0
 20
0.0
 30
0.0
  3
*D18
  1

  0
TEXT
  5
406
  8
SIZE
  6
CONTINUOUS
 10
-237.969727
 20
-149.035147
 30
0.0
 40
2.8
  1
164
 50
0.000003
 41
0.7
  7
STANDARD1
  0
LINE
  5
407
  8
SIZE
  6
CONTINUOUS
 10
-153.029739
 20
185.964874
 30
0.0
 11
-153.029739
 21
-152.035141
 31
0.0
  0
LINE
  5
408
  8
SIZE
  6
CONTINUOUS
 10
-317.029724
 20
0.964865
 30
0.0
 11
-317.029724
 21
-152.035141
 31
0.0
  0
LINE
  5
409
  8
SIZE
  6
CONTINUOUS
 10
-153.029739
 20
-150.035141
 30
0.0
 11
-317.029724
 21
-150.035141
 31
0.0
  0
INSERT
  5
40A
  8
SIZE
  2
DOT
 10
-153.029739
 20
-150.035141
 30
0.0
  0
INSERT
  5
40B
  8
SIZE
  2
DOT
 10
-317.029724
 20
-150.035141
 30
0.0
 50
180.0
  0
POINT
  5
40C
  8
DEFPOINTS
  6
BYBLOCK
 10
-317.029724
 20
1.964865
 30
0.0
  0
POINT
  5
40D
  8
DEFPOINTS
  6
BYBLOCK
 10
-153.029739
 20
186.964874
 30
0.0
  0
POINT
  5
40E
  8
DEFPOINTS
  6
BYBLOCK
 10
-153.029739
 20
-150.035141
 30
0.0
  0
ENDBLK
  5
40F
  8
SIZE
  0
BLOCK
  8
SIZE
  2
*D19
 70
     1
 10
0.0
 20
0.0
 30
0.0
  3
*D19
  1

  0
TEXT
  5
412
  8
SIZE
  6
CONTINUOUS
 10
-372.199829
 20
838.964868
 30
0.0
 40
2.8
  1
20
 50
0.000003
 41
0.7
  7
STANDARD1
  0
LINE
  5
413
  8
SIZE
  6
CONTINUOUS
 10
-285.029724
 20
633.964844
 30
0.0
 11
-285.029724
 21
839.964844
 31
0.0
  0
LINE
  5
414
  8
SIZE
  6
CONTINUOUS
 10
-305.029724
 20
592.964844
 30
0.0
 11
-305.029724
 21
839.964844
 31
0.0
  0
LINE
  5
415
  8
SIZE
  6
CONTINUOUS
 10
-280.029724
 20
837.964844
 30
0.0
 11
-373.599823
 21
837.964844
 31
0.0
  0
INSERT
  5
416
  8
SIZE
  2
DOT
 10
-285.029724
 20
837.964844
 30
0.0
  0
INSERT
  5
417
  8
SIZE
  2
DOT
 10
-305.029724
 20
837.964844
 30
0.0
 50
180.0
  0
POINT
  5
418
  8
DEFPOINTS
  6
BYBLOCK
 10
-305.029724
 20
591.964844
 30
0.0
  0
POINT
  5
419
  8
DEFPOINTS
  6
BYBLOCK
 10
-285.029724
 20
632.964844
 30
0.0
  0
POINT
  5
41A
  8
DEFPOINTS
  6
BYBLOCK
 10
-285.029724
 20
837.964844
 30
0.0
  0
ENDBLK
  5
41B
  8
SIZE
  0
BLOCK
  8
SIZE
  2
*D20
 70
     1
 10
0.0
 20
0.0
 30
0.0
  3
*D20
  1

  0
TEXT
  5
41E
  8
SIZE
  6
CONTINUOUS
 10
448.970282
 20
316.024872
 30
0.0
 40
2.8
  1
638
 50
90.00000499999999
 41
0.7
  7
STANDARD1
  0
LINE
  5
41F
  8
SIZE
  6
CONTINUOUS
 10
0.97027
 20
637.964844
 30
0.0
 11
451.970276
 21
637.964844
 31
0.0
  0
LINE
  5
420
  8
SIZE
  6
CONTINUOUS
 10
100.970268
 20
-0.035135
 30
0.0
 11
451.970276
 21
-0.035135
 31
0.0
  0
LINE
  5
421
  8
SIZE
  6
CONTINUOUS
 10
449.970276
 20
637.964844
 30
0.0
 11
449.970276
 21
-0.035135
 31
0.0
  0
INSERT
  5
422
  8
SIZE
  2
DOT
 10
449.970276
 20
637.964844
 30
0.0
 50
90.0
  0
INSERT
  5
423
  8
SIZE
  2
DOT
 10
449.970276
 20
-0.035135
 30
0.0
 50
270.0
  0
POINT
  5
424
  8
DEFPOINTS
  6
BYBLOCK
 10
99.970268
 20
-0.035135
 30
0.0
  0
POINT
  5
425
  8
DEFPOINTS
  6
BYBLOCK
 10
-0.02973
 20
637.964844
 30
0.0
  0
POINT
  5
426
  8
DEFPOINTS
  6
BYBLOCK
 10
449.970276
 20
637.964844
 30
0.0
  0
ENDBLK
  5
427
  8
SIZE
  0
BLOCK
  8
SIZE
  2
*D21
 70
     1
 10
0.0
 20
0.0
 30
0.0
  3
*D21
  1

  0
TEXT
  5
42A
  8
SIZE
  6
CONTINUOUS
 10
348.970282
 20
100.524864
 30
0.0
 40
2.8
  1
207
 50
90.00000499999999
 41
0.7
  7
STANDARD1
  0
LINE
  5
42B
  8
SIZE
  6
CONTINUOUS
 10
-132.029724
 20
206.964859
 30
0.0
 11
351.970276
 21
206.964859
 31
0.0
  0
LINE
  5
42C
  8
SIZE
  6
CONTINUOUS
 10
100.970268
 20
-0.035135
 30
0.0
 11
351.970276
 21
-0.035135
 31
0.0
  0
LINE
  5
42D
  8
SIZE
  6
CONTINUOUS
 10
349.970276
 20
206.964859
 30
0.0
 11
349.970276
 21
-0.035135
 31
0.0
  0
INSERT
  5
42E
  8
SIZE
  2
DOT
 10
349.970276
 20
206.964859
 30
0.0
 50
90.0
  0
INSERT
  5
42F
  8
SIZE
  2
DOT
 10
349.970276
 20
-0.035135
 30
0.0
 50
270.0
  0
POINT
  5
430
  8
DEFPOINTS
  6
BYBLOCK
 10
99.970268
 20
-0.035135
 30
0.0
  0
POINT
  5
431
  8
DEFPOINTS
  6
BYBLOCK
 10
-133.029724
 20
206.964859
 30
0.0
  0
POINT
  5
432
  8
DEFPOINTS
  6
BYBLOCK
 10
349.970276
 20
206.964859
 30
0.0
  0
ENDBLK
  5
433
  8
SIZE
  0
BLOCK
  8
SIZE
  2
*D22
 70
     1
 10
0.0
 20
0.0
 30
0.0
  3
*D22
  1

  0
TEXT
  5
436
  8
SIZE
  6
CONTINUOUS
 10
248.970282
 20
60.524864
 30
0.0
 40
2.8
  1
127
 50
90.00000499999999
 41
0.7
  7
STANDARD1
  0
LINE
  5
437
  8
SIZE
  6
CONTINUOUS
 10
-117.029732
 20
126.964867
 30
0.0
 11
251.970276
 21
126.964867
 31
0.0
  0
LINE
  5
438
  8
SIZE
  6
CONTINUOUS
 10
100.970268
 20
-0.035135
 30
0.0
 11
251.970276
 21
-0.035135
 31
0.0
  0
LINE
  5
439
  8
SIZE
  6
CONTINUOUS
 10
249.970276
 20
126.964867
 30
0.0
 11
249.970276
 21
-0.035135
 31
0.0
  0
INSERT
  5
43A
  8
SIZE
  2
DOT
 10
249.970276
 20
126.964867
 30
0.0
 50
90.0
  0
INSERT
  5
43B
  8
SIZE
  2
DOT
 10
249.970276
 20
-0.035135
 30
0.0
 50
270.0
  0
POINT
  5
43C
  8
DEFPOINTS
  6
BYBLOCK
 10
99.970268
 20
-0.035135
 30
0.0
  0
POINT
  5
43D
  8
DEFPOINTS
  6
BYBLOCK
 10
-118.029732
 20
126.964867
 30
0.0
  0
POINT
  5
43E
  8
DEFPOINTS
  6
BYBLOCK
 10
249.970276
 20
126.964867
 30
0.0
  0
ENDBLK
  5
43F
  8
SIZE
  0
BLOCK
  8
0
  2
_ORIGIN
 70
     0
 10
0.0
 20
0.0
 30
0.0
  3
_ORIGIN
  1

  0
CIRCLE
  5
442
  8
0
  6
BYBLOCK
 62
     0
 10
0.0
 20
0.0
 30
0.0
 40
0.5
  0
LINE
  5
443
  8
0
  6
BYBLOCK
 62
     0
 10
0.0
 20
0.0
 30
0.0
 11
-1.0
 21
0.0
 31
0.0
  0
ENDBLK
  5
444
  8
0
  0
BLOCK
  8
0
  2
*D24
 70
     1
 10
0.0
 20
0.0
 30
0.0
  3
*D24
  1

  0
LINE
  5
447
  8
0
  6
BYBLOCK
 62
     0
 10
109.970268
 20
-0.035135
 30
0.0
 11
260.070276
 21
-0.035135
 31
0.0
  0
LINE
  5
448
  8
0
  6
BYBLOCK
 62
     0
 10
-108.029732
 20
126.964867
 30
0.0
 11
260.070276
 21
126.964867
 31
0.0
  0
LINE
  5
449
  8
0
  6
BYBLOCK
 62
     0
 10
247.570276
 20
9.964865
 30
0.0
 11
247.570276
 21
116.964867
 31
0.0
  0
INSERT
  5
44A
  8
0
  6
BYBLOCK
 62
     0
  2
_ORIGIN
 10
247.570276
 20
-0.035135
 30
0.0
 41
10.0
 42
10.0
 43
10.0
 50
270.0
  0
INSERT
  5
44B
  8
0
  6
BYBLOCK
 62
     0
  2
_ORIGIN
 10
247.570276
 20
126.964867
 30
0.0
 41
10.0
 42
10.0
 43
10.0
 50
90.0
  0
TEXT
  5
44C
  8
0
  6
BYBLOCK
 62
     0
 10
237.570276
 20
23.714863
 30
0.0
 40
30.0
  1
127
 50
90.0
 72
     1
 11
237.570276
 21
63.464863
 31
0.0
  0
POINT
  5
44D
  8
DEFPOINTS
  6
BYBLOCK
 62
     0
 10
99.970268
 20
-0.035135
 30
0.0
  0
POINT
  5
44E
  8
DEFPOINTS
  6
BYBLOCK
 62
     0
 10
-118.029732
 20
126.964867
 30
0.0
  0
POINT
  5
44F
  8
DEFPOINTS
  6
BYBLOCK
 62
     0
 10
247.570276
 20
126.964867
 30
0.0
  0
ENDBLK
  5
450
  8
0
  0
BLOCK
  8
0
  2
*D25
 70
     1
 10
0.0
 20
0.0
 30
0.0
  3
*D25
  1

  0
LINE
  5
453
  8
0
  6
BYBLOCK
 62
     0
 10
109.970268
 20
-0.035135
 30
0.0
 11
360.070276
 21
-0.035135
 31
0.0
  0
LINE
  5
454
  8
0
  6
BYBLOCK
 62
     0
 10
-123.029724
 20
206.964859
 30
0.0
 11
360.070276
 21
206.964859
 31
0.0
  0
LINE
  5
455
  8
0
  6
BYBLOCK
 62
     0
 10
347.570276
 20
9.964865
 30
0.0
 11
347.570276
 21
196.964859
 31
0.0
  0
INSERT
  5
456
  8
0
  6
BYBLOCK
 62
     0
  2
_ORIGIN
 10
347.570276
 20
-0.035135
 30
0.0
 41
10.0
 42
10.0
 43
10.0
 50
270.0
  0
INSERT
  5
457
  8
0
  6
BYBLOCK
 62
     0
  2
_ORIGIN
 10
347.570276
 20
206.964859
 30
0.0
 41
10.0
 42
10.0
 43
10.0
 50
90.0
  0
TEXT
  5
458
  8
0
  6
BYBLOCK
 62
     0
 10
337.570276
 20
61.014867
 30
0.0
 40
30.0
  1
207
 50
90.0
 72
     1
 11
337.570276
 21
103.464867
 31
0.0
  0
POINT
  5
459
  8
DEFPOINTS
  6
BYBLOCK
 62
     0
 10
99.970268
 20
-0.035135
 30
0.0
  0
POINT
  5
45A
  8
DEFPOINTS
  6
BYBLOCK
 62
     0
 10
-133.029724
 20
206.964859
 30
0.0
  0
POINT
  5
45B
  8
DEFPOINTS
  6
BYBLOCK
 62
     0
 10
347.570276
 20
206.964859
 30
0.0
  0
ENDBLK
  5
45C
  8
0
  0
BLOCK
  8
0
  2
*D26
 70
     1
 10
0.0
 20
0.0
 30
0.0
  3
*D26
  1

  0
LINE
  5
45F
  8
0
  6
BYBLOCK
 62
     0
 10
109.970268
 20
-0.035135
 30
0.0
 11
460.070276
 21
-0.035135
 31
0.0
  0
LINE
  5
460
  8
0
  6
BYBLOCK
 62
     0
 10
9.97027
 20
637.964844
 30
0.0
 11
460.070276
 21
637.964844
 31
0.0
  0
LINE
  5
461
  8
0
  6
BYBLOCK
 62
     0
 10
447.570276
 20
9.964865
 30
0.0
 11
447.570276
 21
627.964844
 31
0.0
  0
INSERT
  5
462
  8
0
  6
BYBLOCK
 62
     0
  2
_ORIGIN
 10
447.570276
 20
-0.035135
 30
0.0
 41
10.0
 42
10.0
 43
10.0
 50
270.0
  0
INSERT
  5
463
  8
0
  6
BYBLOCK
 62
     0
  2
_ORIGIN
 10
447.570276
 20
637.964844
 30
0.0
 41
10.0
 42
10.0
 43
10.0
 50
90.0
  0
TEXT
  5
464
  8
0
  6
BYBLOCK
 62
     0
 10
437.570276
 20
273.964874
 30
0.0
 40
30.0
  1
638
 50
90.0
 72
     1
 11
437.570276
 21
318.964874
 31
0.0
  0
POINT
  5
465
  8
DEFPOINTS
  6
BYBLOCK
 62
     0
 10
99.970268
 20
-0.035135
 30
0.0
  0
POINT
  5
466
  8
DEFPOINTS
  6
BYBLOCK
 62
     0
 10
-0.02973
 20
637.964844
 30
0.0
  0
POINT
  5
467
  8
DEFPOINTS
  6
BYBLOCK
 62
     0
 10
447.570276
 20
637.964844
 30
0.0
  0
ENDBLK
  5
468
  8
0
  0
BLOCK
  8
0
  2
*D27
 70
     1
 10
0.0
 20
0.0
 30
0.0
  3
*D27
  1

  0
LINE
  5
46B
  8
0
  6
BYBLOCK
 62
     0
 10
-305.029724
 20
601.964844
 30
0.0
 11
-305.029724
 21
852.864844
 31
0.0
  0
LINE
  5
46C
  8
0
  6
BYBLOCK
 62
     0
 10
-285.029724
 20
642.964844
 30
0.0
 11
-285.029724
 21
852.864844
 31
0.0
  0
LINE
  5
46D
  8
0
  6
BYBLOCK
 62
     0
 10
-275.029724
 20
840.364844
 30
0.0
 11
-265.029724
 21
840.364844
 31
0.0
  0
LINE
  5
46E
  8
0
  6
BYBLOCK
 62
     0
 10
-315.029724
 20
840.364844
 30
0.0
 11
-402.739838
 21
840.364844
 31
0.0
  0
LINE
  5
46F
  8
0
  6
BYBLOCK
 62
     0
 10
-285.029724
 20
840.364844
 30
0.0
 11
-305.029724
 21
840.364844
 31
0.0
  0
INSERT
  5
470
  8
0
  6
BYBLOCK
 62
     0
  2
_ORIGIN
 10
-285.029724
 20
840.364844
 30
0.0
 41
10.0
 42
10.0
 43
10.0
 50
180.0
  0
INSERT
  5
471
  8
0
  6
BYBLOCK
 62
     0
  2
_ORIGIN
 10
-305.029724
 20
840.364844
 30
0.0
 41
10.0
 42
10.0
 43
10.0
  0
TEXT
  5
472
  8
0
  6
BYBLOCK
 62
     0
 10
-397.689838
 20
850.364844
 30
0.0
 40
30.0
  1
20
 72
     1
 11
-370.239838
 21
850.364844
 31
0.0
  0
POINT
  5
473
  8
DEFPOINTS
  6
BYBLOCK
 62
     0
 10
-305.029724
 20
591.964844
 30
0.0
  0
POINT
  5
474
  8
DEFPOINTS
  6
BYBLOCK
 62
     0
 10
-285.029724
 20
632.964844
 30
0.0
  0
POINT
  5
475
  8
DEFPOINTS
  6
BYBLOCK
 62
     0
 10
-285.029724
 20
840.364844
 30
0.0
  0
ENDBLK
  5
476
  8
0
  0
BLOCK
  8
0
  2
*D28
 70
     1
 10
0.0
 20
0.0
 30
0.0
  3
*D28
  1

  0
LINE
  5
479
  8
0
  6
BYBLOCK
 62
     0
 10
-317.029724
 20
-8.035135
 30
0.0
 11
-317.029724
 21
-160.135141
 31
0.0
  0
LINE
  5
47A
  8
0
  6
BYBLOCK
 62
     0
 10
-153.029739
 20
176.964874
 30
0.0
 11
-153.029739
 21
-160.135141
 31
0.0
  0
LINE
  5
47B
  8
0
  6
BYBLOCK
 62
     0
 10
-307.029724
 20
-147.635141
 30
0.0
 11
-163.029739
 21
-147.635141
 31
0.0
  0
INSERT
  5
47C
  8
0
  6
BYBLOCK
 62
     0
  2
_ORIGIN
 10
-317.029724
 20
-147.635141
 30
0.0
 41
10.0
 42
10.0
 43
10.0
 50
180.0
  0
INSERT
  5
47D
  8
0
  6
BYBLOCK
 62
     0
  2
_ORIGIN
 10
-153.029739
 20
-147.635141
 30
0.0
 41
10.0
 42
10.0
 43
10.0
  0
TEXT
  5
47E
  8
0
  6
BYBLOCK
 62
     0
 10
-274.779724
 20
-137.635141
 30
0.0
 40
30.0
  1
164
 72
     1
 11
-235.029724
 21
-137.635141
 31
0.0
  0
POINT
  5
47F
  8
DEFPOINTS
  6
BYBLOCK
 62
     0
 10
-317.029724
 20
1.964865
 30
0.0
  0
POINT
  5
480
  8
DEFPOINTS
  6
BYBLOCK
 62
     0
 10
-153.029739
 20
186.964874
 30
0.0
  0
POINT
  5
481
  8
DEFPOINTS
  6
BYBLOCK
 62
     0
 10
-153.029739
 20
-147.635141
 30
0.0
  0
ENDBLK
  5
482
  8
0
  0
BLOCK
  8
0
  2
*D29
 70
     1
 10
0.0
 20
0.0
 30
0.0
  3
*D29
  1

  0
LINE
  5
485
  8
0
  6
BYBLOCK
 62
     0
 10
-317.029724
 20
-8.035135
 30
0.0
 11
-317.029724
 21
-260.135141
 31
0.0
  0
LINE
  5
486
  8
0
  6
BYBLOCK
 62
     0
 10
-138.029739
 20
96.964867
 30
0.0
 11
-138.029739
 21
-260.135141
 31
0.0
  0
LINE
  5
487
  8
0
  6
BYBLOCK
 62
     0
 10
-307.029724
 20
-247.635141
 30
0.0
 11
-148.029739
 21
-247.635141
 31
0.0
  0
INSERT
  5
488
  8
0
  6
BYBLOCK
 62
     0
  2
_ORIGIN
 10
-317.029724
 20
-247.635141
 30
0.0
 41
10.0
 42
10.0
 43
10.0
 50
180.0
  0
INSERT
  5
489
  8
0
  6
BYBLOCK
 62
     0
  2
_ORIGIN
 10
-138.029739
 20
-247.635141
 30
0.0
 41
10.0
 42
10.0
 43
10.0
  0
TEXT
  5
48A
  8
0
  6
BYBLOCK
 62
     0
 10
-267.279724
 20
-237.635141
 30
0.0
 40
30.0
  1
179
 72
     1
 11
-227.529724
 21
-237.635141
 31
0.0
  0
POINT
  5
48B
  8
DEFPOINTS
  6
BYBLOCK
 62
     0
 10
-317.029724
 20
1.964865
 30
0.0
  0
POINT
  5
48C
  8
DEFPOINTS
  6
BYBLOCK
 62
     0
 10
-138.029739
 20
106.964867
 30
0.0
  0
POINT
  5
48D
  8
DEFPOINTS
  6
BYBLOCK
 62
     0
 10
-138.029739
 20
-247.635141
 30
0.0
  0
ENDBLK
  5
48E
  8
0
  0
BLOCK
  8
0
  2
*D30
 70
     1
 10
0.0
 20
0.0
 30
0.0
  3
*D30
  1

  0
LINE
  5
491
  8
0
  6
BYBLOCK
 62
     0
 10
-0.029728
 20
9.964865
 30
0.0
 11
-0.029728
 21
-360.135156
 31
0.0
  0
LINE
  5
492
  8
0
  6
BYBLOCK
 62
     0
 10
-285.029724
 20
9.964865
 30
0.0
 11
-285.029724
 21
-360.135156
 31
0.0
  0
LINE
  5
493
  8
0
  6
BYBLOCK
 62
     0
 10
-10.029728
 20
-347.635156
 30
0.0
 11
-275.029724
 21
-347.635156
 31
0.0
  0
INSERT
  5
494
  8
0
  6
BYBLOCK
 62
     0
  2
_ORIGIN
 10
-0.029728
 20
-347.635156
 30
0.0
 41
10.0
 42
10.0
 43
10.0
  0
INSERT
  5
495
  8
0
  6
BYBLOCK
 62
     0
  2
_ORIGIN
 10
-285.029724
 20
-347.635156
 30
0.0
 41
10.0
 42
10.0
 43
10.0
 50
180.0
  0
TEXT
  5
496
  8
0
  6
BYBLOCK
 62
     0
 10
-187.529724
 20
-337.635156
 30
0.0
 40
30.0
  1
285
 72
     1
 11
-142.529724
 21
-337.635156
 31
0.0
  0
POINT
  5
497
  8
DEFPOINTS
  6
BYBLOCK
 62
     0
 10
-0.029728
 20
19.964865
 30
0.0
  0
POINT
  5
498
  8
DEFPOINTS
  6
BYBLOCK
 62
     0
 10
-285.029724
 20
19.964865
 30
0.0
  0
POINT
  5
499
  8
DEFPOINTS
  6
BYBLOCK
 62
     0
 10
-285.029724
 20
-347.635156
 30
0.0
  0
ENDBLK
  5
49A
  8
0
  0
BLOCK
  8
0
  2
*D31
 70
     1
 10
0.0
 20
0.0
 30
0.0
  3
*D31
  1

  0
LINE
  5
49D
  8
0
  6
BYBLOCK
 62
     0
 10
-305.029724
 20
-30.035135
 30
0.0
 11
-305.029724
 21
-460.135156
 31
0.0
  0
LINE
  5
49E
  8
0
  6
BYBLOCK
 62
     0
 10
9.97027
 20
-30.035135
 30
0.0
 11
9.97027
 21
-460.135156
 31
0.0
  0
LINE
  5
49F
  8
0
  6
BYBLOCK
 62
     0
 10
-295.029724
 20
-447.635156
 30
0.0
 11
-0.02973
 21
-447.635156
 31
0.0
  0
INSERT
  5
4A0
  8
0
  6
BYBLOCK
 62
     0
  2
_ORIGIN
 10
-305.029724
 20
-447.635156
 30
0.0
 41
10.0
 42
10.0
 43
10.0
 50
180.0
  0
INSERT
  5
4A1
  8
0
  6
BYBLOCK
 62
     0
  2
_ORIGIN
 10
9.97027
 20
-447.635156
 30
0.0
 41
10.0
 42
10.0
 43
10.0
  0
TEXT
  5
4A2
  8
0
  6
BYBLOCK
 62
     0
 10
-212.992968
 20
-437.635156
 30
0.0
 40
30.0
  1
315
 72
     1
 11
-173.242968
 21
-437.635156
 31
0.0
  0
POINT
  5
4A3
  8
DEFPOINTS
  6
BYBLOCK
 62
     0
 10
-305.029724
 20
-20.035135
 30
0.0
  0
POINT
  5
4A4
  8
DEFPOINTS
  6
BYBLOCK
 62
     0
 10
9.97027
 20
-20.035135
 30
0.0
  0
POINT
  5
4A5
  8
DEFPOINTS
  6
BYBLOCK
 62
     0
 10
9.97027
 20
-447.635156
 30
0.0
  0
ENDBLK
  5
4A6
  8
0
  0
BLOCK
  8
0
  2
*D32
 70
     1
 10
0.0
 20
0.0
 30
0.0
  3
*D32
  1

  0
LINE
  5
4A9
  8
0
  6
BYBLOCK
 62
     0
 10
-0.029728
 20
642.964844
 30
0.0
 11
-0.029728
 21
852.864844
 31
0.0
  0
LINE
  5
4AA
  8
0
  6
BYBLOCK
 62
     0
 10
15.97027
 20
607.964844
 30
0.0
 11
15.97027
 21
852.864844
 31
0.0
  0
LINE
  5
4AB
  8
0
  6
BYBLOCK
 62
     0
 10
25.97027
 20
840.364844
 30
0.0
 11
35.97027
 21
840.364844
 31
0.0
  0
LINE
  5
4AC
  8
0
  6
BYBLOCK
 62
     0
 10
-10.029728
 20
840.364844
 30
0.0
 11
-97.172051
 21
840.364844
 31
0.0
  0
LINE
  5
4AD
  8
0
  6
BYBLOCK
 62
     0
 10
15.97027
 20
840.364844
 30
0.0
 11
-0.029728
 21
840.364844
 31
0.0
  0
INSERT
  5
4AE
  8
0
  6
BYBLOCK
 62
     0
  2
_ORIGIN
 10
15.97027
 20
840.364844
 30
0.0
 41
10.0
 42
10.0
 43
10.0
 50
180.0
  0
INSERT
  5
4AF
  8
0
  6
BYBLOCK
 62
     0
  2
_ORIGIN
 10
-0.029728
 20
840.364844
 30
0.0
 41
10.0
 42
10.0
 43
10.0
  0
TEXT
  5
4B0
  8
0
  6
BYBLOCK
 62
     0
 10
-91.922051
 20
850.364844
 30
0.0
 40
30.0
  1
16
 72
     1
 11
-67.172051
 21
850.364844
 31
0.0
  0
POINT
  5
4B1
  8
DEFPOINTS
  6
BYBLOCK
 62
     0
 10
-0.029728
 20
632.964844
 30
0.0
  0
POINT
  5
4B2
  8
DEFPOINTS
  6
BYBLOCK
 62
     0
 10
15.97027
 20
597.964844
 30
0.0
  0
POINT
  5
4B3
  8
DEFPOINTS
  6
BYBLOCK
 62
     0
 10
15.97027
 20
840.364844
 30
0.0
  0
ENDBLK
  5
4B4
  8
0
  0
BLOCK
  8
0
  2
*D33
 70
     1
 10
0.0
 20
0.0
 30
0.0
  3
*D33
  1

  0
LINE
  5
4B7
  8
0
  6
BYBLOCK
 62
     0
 10
-285.029724
 20
747.964844
 30
0.0
 11
-285.029724
 21
1002.864844
 31
0.0
  0
LINE
  5
4B8
  8
0
  6
BYBLOCK
 62
     0
 10
-485.029724
 20
747.964844
 30
0.0
 11
-485.029724
 21
1002.864844
 31
0.0
  0
LINE
  5
4B9
  8
0
  6
BYBLOCK
 62
     0
 10
-295.029724
 20
990.364844
 30
0.0
 11
-475.029724
 21
990.364844
 31
0.0
  0
INSERT
  5
4BA
  8
0
  6
BYBLOCK
 62
     0
  2
_ORIGIN
 10
-285.029724
 20
990.364844
 30
0.0
 41
10.0
 42
10.0
 43
10.0
  0
INSERT
  5
4BB
  8
0
  6
BYBLOCK
 62
     0
  2
_ORIGIN
 10
-485.029724
 20
990.364844
 30
0.0
 41
10.0
 42
10.0
 43
10.0
 50
180.0
  0
TEXT
  5
4BC
  8
0
  6
BYBLOCK
 62
     0
 10
-424.929724
 20
1000.364844
 30
0.0
 40
30.0
  1
200
 72
     1
 11
-385.029724
 21
1000.364844
 31
0.0
  0
POINT
  5
4BD
  8
DEFPOINTS
  6
BYBLOCK
 62
     0
 10
-285.029724
 20
737.964844
 30
0.0
  0
POINT
  5
4BE
  8
DEFPOINTS
  6
BYBLOCK
 62
     0
 10
-485.029724
 20
737.964844
 30
0.0
  0
POINT
  5
4BF
  8
DEFPOINTS
  6
BYBLOCK
 62
     0
 10
-485.029724
 20
990.364844
 30
0.0
  0
ENDBLK
  5
4C0
  8
0
  0
BLOCK
  8
0
  2
*D34
 70
     1
 10
0.0
 20
0.0
 30
0.0
  3
*D34
  1

  0
LINE
  5
4C3
  8
0
  6
BYBLOCK
 62
     0
 10
-0.02973
 20
747.964844
 30
0.0
 11
-0.02973
 21
1002.864844
 31
0.0
  0
LINE
  5
4C4
  8
0
  6
BYBLOCK
 62
     0
 10
-285.029724
 20
747.964844
 30
0.0
 11
-285.029724
 21
1002.864844
 31
0.0
  0
LINE
  5
4C5
  8
0
  6
BYBLOCK
 62
     0
 10
-10.02973
 20
990.364844
 30
0.0
 11
-275.029724
 21
990.364844
 31
0.0
  0
INSERT
  5
4C6
  8
0
  6
BYBLOCK
 62
     0
  2
_ORIGIN
 10
-0.02973
 20
990.364844
 30
0.0
 41
10.0
 42
10.0
 43
10.0
  0
INSERT
  5
4C7
  8
0
  6
BYBLOCK
 62
     0
  2
_ORIGIN
 10
-285.029724
 20
990.364844
 30
0.0
 41
10.0
 42
10.0
 43
10.0
 50
180.0
  0
TEXT
  5
4C8
  8
0
  6
BYBLOCK
 62
     0
 10
-187.529724
 20
1000.364844
 30
0.0
 40
30.0
  1
285
 72
     1
 11
-142.529724
 21
1000.364844
 31
0.0
  0
POINT
  5
4C9
  8
DEFPOINTS
  6
BYBLOCK
 62
     0
 10
-0.02973
 20
737.964844
 30
0.0
  0
POINT
  5
4CA
  8
DEFPOINTS
  6
BYBLOCK
 62
     0
 10
-285.029724
 20
737.964844
 30
0.0
  0
POINT
  5
4CB
  8
DEFPOINTS
  6
BYBLOCK
 62
     0
 10
-285.029724
 20
990.364844
 30
0.0
  0
ENDBLK
  5
4CC
  8
0
  0
BLOCK
  8
0
  2
*D35
 70
     1
 10
0.0
 20
0.0
 30
0.0
  3
*D35
  1

  0
LINE
  5
4CF
  8
0
  6
BYBLOCK
 62
     0
 10
99.970268
 20
747.964844
 30
0.0
 11
99.970268
 21
1002.864844
 31
0.0
  0
LINE
  5
4D0
  8
0
  6
BYBLOCK
 62
     0
 10
-0.02973
 20
747.964844
 30
0.0
 11
-0.02973
 21
1002.864844
 31
0.0
  0
LINE
  5
4D1
  8
0
  6
BYBLOCK
 62
     0
 10
89.970268
 20
990.364844
 30
0.0
 11
9.97027
 21
990.364844
 31
0.0
  0
INSERT
  5
4D2
  8
0
  6
BYBLOCK
 62
     0
  2
_ORIGIN
 10
99.970268
 20
990.364844
 30
0.0
 41
10.0
 42
10.0
 43
10.0
  0
INSERT
  5
4D3
  8
0
  6
BYBLOCK
 62
     0
  2
_ORIGIN
 10
-0.02973
 20
990.364844
 30
0.0
 41
10.0
 42
10.0
 43
10.0
 50
180.0
  0
TEXT
  5
4D4
  8
0
  6
BYBLOCK
 62
     0
 10
15.320268
 20
1000.364844
 30
0.0
 40
30.0
  1
100
 72
     1
 11
49.970268
 21
1000.364844
 31
0.0
  0
POINT
  5
4D5
  8
DEFPOINTS
  6
BYBLOCK
 62
     0
 10
99.970268
 20
737.964844
 30
0.0
  0
POINT
  5
4D6
  8
DEFPOINTS
  6
BYBLOCK
 62
     0
 10
-0.02973
 20
737.964844
 30
0.0
  0
POINT
  5
4D7
  8
DEFPOINTS
  6
BYBLOCK
 62
     0
 10
-0.02973
 20
990.364844
 30
0.0
  0
ENDBLK
  5
4D8
  8
0
  0
BLOCK
  8
0
  2
*D36
 70
     1
 10
0.0
 20
0.0
 30
0.0
  3
*D36
  1

  0
LINE
  5
4DB
  8
0
  6
BYBLOCK
 62
     0
 10
9.97027
 20
637.964844
 30
0.0
 11
460.070276
 21
637.964844
 31
0.0
  0
LINE
  5
4DC
  8
0
  6
BYBLOCK
 62
     0
 10
109.970268
 20
737.964844
 30
0.0
 11
460.070276
 21
737.964844
 31
0.0
  0
LINE
  5
4DD
  8
0
  6
BYBLOCK
 62
     0
 10
447.570276
 20
647.964844
 30
0.0
 11
447.570276
 21
727.964844
 31
0.0
  0
INSERT
  5
4DE
  8
0
  6
BYBLOCK
 62
     0
  2
_ORIGIN
 10
447.570276
 20
637.964844
 30
0.0
 41
10.0
 42
10.0
 43
10.0
 50
270.0
  0
INSERT
  5
4DF
  8
0
  6
BYBLOCK
 62
     0
  2
_ORIGIN
 10
447.570276
 20
737.964844
 30
0.0
 41
10.0
 42
10.0
 43
10.0
 50
90.0
  0
TEXT
  5
4E0
  8
0
  6
BYBLOCK
 62
     0
 10
437.570276
 20
653.314844
 30
0.0
 40
30.0
  1
100
 50
90.0
 72
     1
 11
437.570276
 21
687.964844
 31
0.0
  0
POINT
  5
4E1
  8
DEFPOINTS
  6
BYBLOCK
 62
     0
 10
-0.02973
 20
637.964844
 30
0.0
  0
POINT
  5
4E2
  8
DEFPOINTS
  6
BYBLOCK
 62
     0
 10
99.970268
 20
737.964844
 30
0.0
  0
POINT
  5
4E3
  8
DEFPOINTS
  6
BYBLOCK
 62
     0
 10
447.570276
 20
737.964844
 30
0.0
  0
ENDBLK
  5
4E4
  8
0
  0
BLOCK
  8
0
  2
*D37
 70
     1
 10
0.0
 20
0.0
 30
0.0
  3
*D37
  1

  0
LINE
  5
4E7
  8
0
  6
BYBLOCK
 62
     0
 10
109.970268
 20
-0.035135
 30
0.0
 11
610.070276
 21
-0.035135
 31
0.0
  0
LINE
  5
4E8
  8
0
  6
BYBLOCK
 62
     0
 10
109.970268
 20
737.964844
 30
0.0
 11
610.070276
 21
737.964844
 31
0.0
  0
LINE
  5
4E9
  8
0
  6
BYBLOCK
 62
     0
 10
597.570276
 20
9.964865
 30
0.0
 11
597.570276
 21
727.964844
 31
0.0
  0
INSERT
  5
4EA
  8
0
  6
BYBLOCK
 62
     0
  2
_ORIGIN
 10
597.570276
 20
-0.035135
 30
0.0
 41
10.0
 42
10.0
 43
10.0
 50
270.0
  0
INSERT
  5
4EB
  8
0
  6
BYBLOCK
 62
     0
  2
_ORIGIN
 10
597.570276
 20
737.964844
 30
0.0
 41
10.0
 42
10.0
 43
10.0
 50
90.0
  0
TEXT
  5
4EC
  8
0
  6
BYBLOCK
 62
     0
 10
587.570276
 20
323.964874
 30
0.0
 40
30.0
  1
738
 50
90.0
 72
     1
 11
587.570276
 21
368.964874
 31
0.0
  0
POINT
  5
4ED
  8
DEFPOINTS
  6
BYBLOCK
 62
     0
 10
99.970268
 20
-0.035135
 30
0.0
  0
POINT
  5
4EE
  8
DEFPOINTS
  6
BYBLOCK
 62
     0
 10
99.970268
 20
737.964844
 30
0.0
  0
POINT
  5
4EF
  8
DEFPOINTS
  6
BYBLOCK
 62
     0
 10
597.570276
 20
737.964844
 30
0.0
  0
ENDBLK
  5
4F0
  8
0
  0
BLOCK
  8
0
  2
*D38
 70
     1
 10
0.0
 20
0.0
 30
0.0
  3
*D38
  1

  0
LINE
  5
4F3
  8
0
  6
BYBLOCK
 62
     0
 10
-495.029724
 20
-0.035135
 30
0.0
 11
-749.929724
 21
-0.035135
 31
0.0
  0
LINE
  5
4F4
  8
0
  6
BYBLOCK
 62
     0
 10
-495.029724
 20
737.964844
 30
0.0
 11
-749.929724
 21
737.964844
 31
0.0
  0
LINE
  5
4F5
  8
0
  6
BYBLOCK
 62
     0
 10
-737.429724
 20
9.964865
 30
0.0
 11
-737.429724
 21
727.964844
 31
0.0
  0
INSERT
  5
4F6
  8
0
  6
BYBLOCK
 62
     0
  2
_ORIGIN
 10
-737.429724
 20
-0.035135
 30
0.0
 41
10.0
 42
10.0
 43
10.0
 50
270.0
  0
INSERT
  5
4F7
  8
0
  6
BYBLOCK
 62
     0
  2
_ORIGIN
 10
-737.429724
 20
737.964844
 30
0.0
 41
10.0
 42
10.0
 43
10.0
 50
90.0
  0
TEXT
  5
4F8
  8
0
  6
BYBLOCK
 62
     0
 10
-747.429724
 20
323.964874
 30
0.0
 40
30.0
  1
738
 50
90.0
 72
     1
 11
-747.429724
 21
368.964874
 31
0.0
  0
POINT
  5
4F9
  8
DEFPOINTS
  6
BYBLOCK
 62
     0
 10
-485.029724
 20
-0.035135
 30
0.0
  0
POINT
  5
4FA
  8
DEFPOINTS
  6
BYBLOCK
 62
     0
 10
-485.029724
 20
737.964844
 30
0.0
  0
POINT
  5
4FB
  8
DEFPOINTS
  6
BYBLOCK
 62
     0
 10
-737.429724
 20
737.964844
 30
0.0
  0
ENDBLK
  5
4FC
  8
0
  0
BLOCK
  8
0
  2
*D39
 70
     1
 10
0.0
 20
0.0
 30
0.0
  3
*D39
  1

  0
LINE
  5
4FF
  8
0
  6
BYBLOCK
 62
     0
 10
9.97027
 20
-30.035135
 30
0.0
 11
9.97027
 21
-360.135156
 31
0.0
  0
LINE
  5
500
  8
0
  6
BYBLOCK
 62
     0
 10
-0.02973
 20
9.964865
 30
0.0
 11
-0.02973
 21
-360.135156
 31
0.0
  0
LINE
  5
501
  8
0
  6
BYBLOCK
 62
     0
 10
-10.02973
 20
-347.635156
 30
0.0
 11
-20.02973
 21
-347.635156
 31
0.0
  0
LINE
  5
502
  8
0
  6
BYBLOCK
 62
     0
 10
19.97027
 20
-347.635156
 30
0.0
 11
102.195656
 21
-347.635156
 31
0.0
  0
LINE
  5
503
  8
0
  6
BYBLOCK
 62
     0
 10
-0.02973
 20
-347.635156
 30
0.0
 11
9.97027
 21
-347.635156
 31
0.0
  0
INSERT
  5
504
  8
0
  6
BYBLOCK
 62
     0
  2
_ORIGIN
 10
-0.02973
 20
-347.635156
 30
0.0
 41
10.0
 42
10.0
 43
10.0
  0
INSERT
  5
505
  8
0
  6
BYBLOCK
 62
     0
  2
_ORIGIN
 10
9.97027
 20
-347.635156
 30
0.0
 41
10.0
 42
10.0
 43
10.0
 50
180.0
  0
TEXT
  5
506
  8
0
  6
BYBLOCK
 62
     0
 10
52.495656
 20
-337.635156
 30
0.0
 40
30.0
  1
10
 72
     1
 11
74.695656
 21
-337.635156
 31
0.0
  0
POINT
  5
507
  8
DEFPOINTS
  6
BYBLOCK
 62
     0
 10
9.97027
 20
-20.035135
 30
0.0
  0
POINT
  5
508
  8
DEFPOINTS
  6
BYBLOCK
 62
     0
 10
-0.02973
 20
19.964865
 30
0.0
  0
POINT
  5
509
  8
DEFPOINTS
  6
BYBLOCK
 62
     0
 10
-0.02973
 20
-347.635156
 30
0.0
  0
ENDBLK
  5
50A
  8
0
  0
BLOCK
  8
0
  2
*D40
 70
     1
 10
0.0
 20
0.0
 30
0.0
  3
*D40
  1

  0
LINE
  5
50D
  8
0
  6
BYBLOCK
 62
     0
 10
-0.02973
 20
-10.035135
 30
0.0
 11
-0.02973
 21
-260.135141
 31
0.0
  0
LINE
  5
50E
  8
0
  6
BYBLOCK
 62
     0
 10
27.97027
 20
-8.035135
 30
0.0
 11
27.97027
 21
-260.135141
 31
0.0
  0
LINE
  5
50F
  8
0
  6
BYBLOCK
 62
     0
 10
37.97027
 20
-247.635141
 30
0.0
 11
47.97027
 21
-247.635141
 31
0.0
  0
LINE
  5
510
  8
0
  6
BYBLOCK
 62
     0
 10
-10.02973
 20
-247.635141
 30
0.0
 11
-105.201668
 21
-247.635141
 31
0.0
  0
LINE
  5
511
  8
0
  6
BYBLOCK
 62
     0
 10
27.97027
 20
-247.635141
 30
0.0
 11
-0.02973
 21
-247.635141
 31
0.0
  0
INSERT
  5
512
  8
0
  6
BYBLOCK
 62
     0
  2
_ORIGIN
 10
27.97027
 20
-247.635141
 30
0.0
 41
10.0
 42
10.0
 43
10.0
 50
180.0
  0
INSERT
  5
513
  8
0
  6
BYBLOCK
 62
     0
  2
_ORIGIN
 10
-0.02973
 20
-247.635141
 30
0.0
 41
10.0
 42
10.0
 43
10.0
  0
TEXT
  5
514
  8
0
  6
BYBLOCK
 62
     0
 10
-100.201668
 20
-237.635141
 30
0.0
 40
30.0
  1
28
 72
     1
 11
-70.201668
 21
-237.635141
 31
0.0
  0
POINT
  5
515
  8
DEFPOINTS
  6
BYBLOCK
 62
     0
 10
-0.02973
 20
-0.035135
 30
0.0
  0
POINT
  5
516
  8
DEFPOINTS
  6
BYBLOCK
 62
     0
 10
27.97027
 20
1.964865
 30
0.0
  0
POINT
  5
517
  8
DEFPOINTS
  6
BYBLOCK
 62
     0
 10
27.97027
 20
-247.635141
 30
0.0
  0
ENDBLK
  5
518
  8
0
  0
BLOCK
  8
0
  2
*D41
 70
     1
 10
0.0
 20
0.0
 30
0.0
  3
*D41
  1

  0
LINE
  5
51B
  8
0
  6
BYBLOCK
 62
     0
 10
-327.029724
 20
7.964865
 30
0.0
 11
-399.929724
 21
7.964865
 31
0.0
  0
LINE
  5
51C
  8
0
  6
BYBLOCK
 62
     0
 10
-327.029724
 20
-0.035135
 30
0.0
 11
-399.929724
 21
-0.035135
 31
0.0
  0
LINE
  5
51D
  8
0
  6
BYBLOCK
 62
     0
 10
-387.429724
 20
-10.035135
 30
0.0
 11
-387.429724
 21
-20.035135
 31
0.0
  0
LINE
  5
51E
  8
0
  6
BYBLOCK
 62
     0
 10
-387.429724
 20
17.964865
 30
0.0
 11
-387.429724
 21
79.329536
 31
0.0
  0
LINE
  5
51F
  8
0
  6
BYBLOCK
 62
     0
 10
-387.429724
 20
-0.035135
 30
0.0
 11
-387.429724
 21
7.964865
 31
0.0
  0
INSERT
  5
520
  8
0
  6
BYBLOCK
 62
     0
  2
_ORIGIN
 10
-387.429724
 20
-0.035135
 30
0.0
 41
10.0
 42
10.0
 43
10.0
 50
90.0
  0
INSERT
  5
521
  8
0
  6
BYBLOCK
 62
     0
  2
_ORIGIN
 10
-387.429724
 20
7.964865
 30
0.0
 41
10.0
 42
10.0
 43
10.0
 50
270.0
  0
TEXT
  5
522
  8
0
  6
BYBLOCK
 62
     0
 10
-397.429724
 20
44.329536
 30
0.0
 40
30.0
  1
8
 50
90.0
 72
     1
 11
-397.429724
 21
59.329536
 31
0.0
  0
POINT
  5
523
  8
DEFPOINTS
  6
BYBLOCK
 62
     0
 10
-317.029724
 20
7.964865
 30
0.0
  0
POINT
  5
524
  8
DEFPOINTS
  6
BYBLOCK
 62
     0
 10
-317.029724
 20
-0.035135
 30
0.0
  0
POINT
  5
525
  8
DEFPOINTS
  6
BYBLOCK
 62
     0
 10
-387.429724
 20
-0.035135
 30
0.0
  0
ENDBLK
  5
526
  8
0
  0
BLOCK
  8
0
  2
*D42
 70
     1
 10
0.0
 20
0.0
 30
0.0
  3
*D42
  1

  0
LINE
  5
529
  8
0
  6
BYBLOCK
 62
     0
 10
-317.029724
 20
-10.035135
 30
0.0
 11
-317.029724
 21
-560.135156
 31
0.0
  0
LINE
  5
52A
  8
0
  6
BYBLOCK
 62
     0
 10
27.97027
 20
-10.035135
 30
0.0
 11
27.97027
 21
-560.135156
 31
0.0
  0
LINE
  5
52B
  8
0
  6
BYBLOCK
 62
     0
 10
-307.029724
 20
-547.635156
 30
0.0
 11
17.97027
 21
-547.635156
 31
0.0
  0
INSERT
  5
52C
  8
0
  6
BYBLOCK
 62
     0
  2
_ORIGIN
 10
-317.029724
 20
-547.635156
 30
0.0
 41
10.0
 42
10.0
 43
10.0
 50
180.0
  0
INSERT
  5
52D
  8
0
  6
BYBLOCK
 62
     0
  2
_ORIGIN
 10
27.97027
 20
-547.635156
 30
0.0
 41
10.0
 42
10.0
 43
10.0
  0
TEXT
  5
52E
  8
0
  6
BYBLOCK
 62
     0
 10
-189.529724
 20
-537.635156
 30
0.0
 40
30.0
  1
345
 72
     1
 11
-144.529724
 21
-537.635156
 31
0.0
  0
POINT
  5
52F
  8
DEFPOINTS
  6
BYBLOCK
 62
     0
 10
-317.029724
 20
-0.035135
 30
0.0
  0
POINT
  5
530
  8
DEFPOINTS
  6
BYBLOCK
 62
     0
 10
27.97027
 20
-0.035135
 30
0.0
  0
POINT
  5
531
  8
DEFPOINTS
  6
BYBLOCK
 62
     0
 10
27.97027
 20
-547.635156
 30
0.0
  0
ENDBLK
  5
532
  8
0
  0
BLOCK
  8
0
  2
*D43
 70
     1
 10
0.0
 20
0.0
 30
0.0
  3
*D43
  1

  0
LINE
  5
535
  8
0
  6
BYBLOCK
 62
     0
 10
-0.02973
 20
-10.035135
 30
0.0
 11
-0.02973
 21
-160.135141
 31
0.0
  0
LINE
  5
536
  8
0
  6
BYBLOCK
 62
     0
 10
-0.72973
 20
-45.035133
 30
0.0
 11
-0.72973
 21
-160.135141
 31
0.0
  0
LINE
  5
537
  8
0
  6
BYBLOCK
 62
     0
 10
9.97027
 20
-147.635141
 30
0.0
 11
19.97027
 21
-147.635141
 31
0.0
  0
LINE
  5
538
  8
0
  6
BYBLOCK
 62
     0
 10
-10.72973
 20
-147.635141
 30
0.0
 11
-78.133731
 21
-147.635141
 31
0.0
  0
LINE
  5
539
  8
0
  6
BYBLOCK
 62
     0
 10
-0.02973
 20
-147.635141
 30
0.0
 11
-0.72973
 21
-147.635141
 31
0.0
  0
INSERT
  5
53A
  8
0
  6
BYBLOCK
 62
     0
  2
_ORIGIN
 10
-0.02973
 20
-147.635141
 30
0.0
 41
10.0
 42
10.0
 43
10.0
 50
180.0
  0
INSERT
  5
53B
  8
0
  6
BYBLOCK
 62
     0
  2
_ORIGIN
 10
-0.72973
 20
-147.635141
 30
0.0
 41
10.0
 42
10.0
 43
10.0
  0
TEXT
  5
53C
  8
0
  6
BYBLOCK
 62
     0
 10
-72.883731
 20
-137.635141
 30
0.0
 40
30.0
  1
1
 72
     1
 11
-63.133731
 21
-137.635141
 31
0.0
  0
POINT
  5
53D
  8
DEFPOINTS
  6
BYBLOCK
 62
     0
 10
-0.02973
 20
-0.035135
 30
0.0
  0
POINT
  5
53E
  8
DEFPOINTS
  6
BYBLOCK
 62
     0
 10
-0.72973
 20
-35.035133
 30
0.0
  0
POINT
  5
53F
  8
DEFPOINTS
  6
BYBLOCK
 62
     0
 10
-0.72973
 20
-147.635141
 30
0.0
  0
ENDBLK
  5
540
  8
0
  0
BLOCK
  8
0
  2
*D44
 70
     1
 10
0.0
 20
0.0
 30
0.0
  3
*D44
  1

  0
LINE
  5
543
  8
0
  6
BYBLOCK
 62
     0
 10
109.970268
 20
-0.035135
 30
0.0
 11
460.070276
 21
-0.035135
 31
0.0
  0
LINE
  5
544
  8
0
  6
BYBLOCK
 62
     0
 10
29.270269
 20
-15.035135
 30
0.0
 11
460.070276
 21
-15.035135
 31
0.0
  0
LINE
  5
545
  8
0
  6
BYBLOCK
 62
     0
 10
447.570276
 20
9.964865
 30
0.0
 11
447.570276
 21
19.964865
 31
0.0
  0
LINE
  5
546
  8
0
  6
BYBLOCK
 62
     0
 10
447.570276
 20
-25.035135
 30
0.0
 11
447.570276
 21
-120.662605
 31
0.0
  0
LINE
  5
547
  8
0
  6
BYBLOCK
 62
     0
 10
447.570276
 20
-0.035135
 30
0.0
 11
447.570276
 21
-15.035135
 31
0.0
  0
INSERT
  5
548
  8
0
  6
BYBLOCK
 62
     0
  2
_ORIGIN
 10
447.570276
 20
-0.035135
 30
0.0
 41
10.0
 42
10.0
 43
10.0
 50
270.0
  0
INSERT
  5
549
  8
0
  6
BYBLOCK
 62
     0
  2
_ORIGIN
 10
447.570276
 20
-15.035135
 30
0.0
 41
10.0
 42
10.0
 43
10.0
 50
90.0
  0
TEXT
  5
54A
  8
0
  6
BYBLOCK
 62
     0
 10
437.570276
 20
-115.412605
 30
0.0
 40
30.0
  1
15
 50
90.0
 72
     1
 11
437.570276
 21
-90.662605
 31
0.0
  0
POINT
  5
54B
  8
DEFPOINTS
  6
BYBLOCK
 62
     0
 10
99.970268
 20
-0.035135
 30
0.0
  0
POINT
  5
54C
  8
DEFPOINTS
  6
BYBLOCK
 62
     0
 10
19.270269
 20
-15.035135
 30
0.0
  0
POINT
  5
54D
  8
DEFPOINTS
  6
BYBLOCK
 62
     0
 10
447.570276
 20
-15.035135
 30
0.0
  0
ENDBLK
  5
54E
  8
0
  0
BLOCK
  8
0
  2
*D45
 70
     1
 10
0.0
 20
0.0
 30
0.0
  3
*D45
  1

  0
LINE
  5
551
  8
0
  6
BYBLOCK
 62
     0
 10
-495.029724
 20
-0.035135
 30
0.0
 11
-599.929724
 21
-0.035135
 31
0.0
  0
LINE
  5
552
  8
0
  6
BYBLOCK
 62
     0
 10
-365.029724
 20
367.964874
 30
0.0
 11
-599.929724
 21
367.964874
 31
0.0
  0
LINE
  5
553
  8
0
  6
BYBLOCK
 62
     0
 10
-587.429724
 20
9.964865
 30
0.0
 11
-587.429724
 21
357.964874
 31
0.0
  0
INSERT
  5
554
  8
0
  6
BYBLOCK
 62
     0
  2
_ORIGIN
 10
-587.429724
 20
-0.035135
 30
0.0
 41
10.0
 42
10.0
 43
10.0
 50
270.0
  0
INSERT
  5
555
  8
0
  6
BYBLOCK
 62
     0
  2
_ORIGIN
 10
-587.429724
 20
367.964874
 30
0.0
 41
10.0
 42
10.0
 43
10.0
 50
90.0
  0
TEXT
  5
556
  8
0
  6
BYBLOCK
 62
     0
 10
-597.429724
 20
138.964859
 30
0.0
 40
30.0
  1
368
 50
90.0
 72
     1
 11
-597.429724
 21
183.964859
 31
0.0
  0
POINT
  5
557
  8
DEFPOINTS
  6
BYBLOCK
 62
     0
 10
-485.029724
 20
-0.035135
 30
0.0
  0
POINT
  5
558
  8
DEFPOINTS
  6
BYBLOCK
 62
     0
 10
-355.029724
 20
367.964874
 30
0.0
  0
POINT
  5
559
  8
DEFPOINTS
  6
BYBLOCK
 62
     0
 10
-587.429724
 20
367.964874
 30
0.0
  0
ENDBLK
  5
55A
  8
0
  0
ENDSEC
  0
SECTION
  2
ENTITIES
  0
LINE
  5
55B
  8
OUTLINE
  6
CONTINUOUS
 10
16.0
 20
548.0
 30
0.0
 11
16.0
 21
598.0
 31
0.0
  0
LINE
  5
55C
  8
OUTLINE
  6
CONTINUOUS
 10
16.0
 20
548.0
 30
0.0
 11
0.0
 21
548.0
 31
0.0
  0
LINE
  5
55D
  8
OUTLINE
  6
CONTINUOUS
 10
16.0
 20
598.0
 30
0.0
 11
0.0
 21
598.0
 31
0.0
  0
LINE
  5
55E
  8
OUTLINE
  6
CONTINUOUS
 10
-317.0
 20
8.0
 30
0.0
 11
-317.0
 21
0.0
 31
0.0
  0
LINE
  5
55F
  8
OUTLINE
  6
CONTINUOUS
 10
28.0
 20
8.0
 30
0.0
 11
-317.0
 21
8.0
 31
0.0
  0
LINE
  5
560
  8
OUTLINE
  6
CONTINUOUS
 10
28.0
 20
8.0
 30
0.0
 11
28.0
 21
0.0
 31
0.0
  0
LINE
  5
561
  8
OUTLINE
  6
CONTINUOUS
 10
33.080837
 20
0.0
 30
0.0
 11
-317.0
 21
0.0
 31
0.0
  0
LINE
  5
562
  8
OUTLINE
  6
CONTINUOUS
 10
-6.964101
 20
8.0
 30
0.0
 11
-13.892305
 21
20.0
 31
0.0
  0
LINE
  5
563
  8
OUTLINE
  6
CONTINUOUS
 10
-278.035898
 20
8.0
 30
0.0
 11
-271.107695
 21
20.0
 31
0.0
  0
LINE
  5
564
  8
OUTLINE
  6
CONTINUOUS
 10
-285.0
 20
20.0
 30
0.0
 11
0.0
 21
20.0
 31
0.0
  0
ARC
  5
565
  8
OUTLINE
  6
CONTINUOUS
 10
-280.0
 20
633.0
 30
0.0
 40
5.0
 50
90.0
 51
180.0
  0
LINE
  5
566
  8
OUTLINE
  6
CONTINUOUS
 10
-285.0
 20
633.0
 30
0.0
 11
-285.0
 21
20.0
 31
0.0
  0
LINE
  5
567
  8
OUTLINE
  6
CONTINUOUS
 10
-280.0
 20
638.0
 30
0.0
 11
-5.0
 21
638.0
 31
0.0
  0
LINE
  5
568
  8
OUTLINE
  6
CONTINUOUS
 10
0.0
 20
20.0
 30
0.0
 11
0.0
 21
633.0
 31
0.0
  0
ARC
  5
569
  8
OUTLINE
  6
CONTINUOUS
 10
-5.0
 20
633.0
 30
0.0
 40
5.0
 50
0.0
 51
90.0
  0
LINE
  5
56A
  8
DETAIL
  6
CONTINUOUS
 10
-49.438029
 20
-20.478081
 30
0.0
 11
-49.438029
 21
0.0
 31
0.0
  0
LINE
  5
56B
  8
DETAIL
  6
CONTINUOUS
 10
-37.688029
 20
-5.369748
 30
0.0
 11
-37.688029
 21
0.0
 31
0.0
  0
LINE
  5
56C
  8
DETAIL
  6
CONTINUOUS
 10
-0.6966009999999999
 20
-6.602795
 30
0.0
 11
-0.6966009999999999
 21
-22.102795
 31
0.0
  0
LINE
  5
56D
  8
DETAIL
  6
CONTINUOUS
 10
-49.438029
 20
-20.478081
 30
0.0
 11
-0.6966009999999999
 21
-22.102795
 31
0.0
  0
LINE
  5
56E
  8
DETAIL
  6
CONTINUOUS
 10
-37.688029
 20
-5.369748
 30
0.0
 11
-0.6966009999999999
 21
-6.602795
 31
0.0
  0
ARC
  5
56F
  8
DETAIL
  6
CONTINUOUS
 10
-234.0
 20
586.0
 30
0.0
 40
1.0
 50
90.0
 51
180.0
  0
ARC
  5
570
  8
DETAIL
  6
CONTINUOUS
 10
-126.0
 20
586.0
 30
0.0
 40
1.0
 50
0.0
 51
90.0
  0
LINE
  5
571
  8
DETAIL
  6
CONTINUOUS
 10
-60.0
 20
613.0
 30
0.0
 11
-70.0
 21
603.0
 31
0.0
  0
LINE
  5
572
  8
DETAIL
  6
CONTINUOUS
 10
-145.0
 20
613.0
 30
0.0
 11
-135.0
 21
603.0
 31
0.0
  0
LINE
  5
573
  8
DETAIL
  6
CONTINUOUS
 10
-135.0
 20
603.0
 30
0.0
 11
-70.0
 21
603.0
 31
0.0
  0
LINE
  5
574
  8
DETAIL
  6
CONTINUOUS
 10
-95.0
 20
47.0
 30
0.0
 11
-235.0
 21
47.0
 31
0.0
  0
LINE
  5
575
  8
DETAIL
  6
CONTINUOUS
 10
-95.0
 20
267.0
 30
0.0
 11
-95.0
 21
47.0
 31
0.0
  0
LINE
  5
576
  8
DETAIL
  6
CONTINUOUS
 10
-235.0
 20
267.0
 30
0.0
 11
-235.0
 21
47.0
 31
0.0
  0
LINE
  5
577
  8
DETAIL
  6
CONTINUOUS
 10
-216.240235
 20
556.9548709999999
 30
0.0
 11
-146.553522
 21
556.221327
 31
0.0
  0
LINE
  5
578
  8
DETAIL
  6
CONTINUOUS
 10
-125.0
 20
268.0
 30
0.0
 11
-126.0
 21
267.0
 31
0.0
  0
LINE
  5
579
  8
DETAIL
  6
CONTINUOUS
 10
-235.0
 20
268.0
 30
0.0
 11
-234.0
 21
267.0
 31
0.0
  0
LINE
  5
57A
  8
DETAIL
  6
CONTINUOUS
 10
-95.0
 20
267.0
 30
0.0
 11
-235.0
 21
267.0
 31
0.0
  0
LINE
  5
57B
  8
DETAIL
  6
CONTINUOUS
 10
-126.0
 20
587.0
 30
0.0
 11
-234.0
 21
587.0
 31
0.0
  0
LINE
  5
57C
  8
DETAIL
  6
CONTINUOUS
 10
-125.0
 20
586.0
 30
0.0
 11
-125.0
 21
268.0
 31
0.0
  0
LINE
  5
57D
  8
DETAIL
  6
CONTINUOUS
 10
-235.0
 20
586.0
 30
0.0
 11
-235.0
 21
268.0
 31
0.0
  0
LINE
  5
57E
  8
DETAIL
  6
CONTINUOUS
 10
16.0
 20
548.0
 30
0.0
 11
16.0
 21
598.0
 31
0.0
  0
LINE
  5
57F
  8
DETAIL
  6
CONTINUOUS
 10
16.0
 20
548.0
 30
0.0
 11
0.0
 21
548.0
 31
0.0
  0
LINE
  5
580
  8
DETAIL
  6
CONTINUOUS
 10
16.0
 20
598.0
 30
0.0
 11
0.0
 21
598.0
 31
0.0
  0
LINE
  5
581
  8
DETAIL
  6
CONTINUOUS
 10
-6.964101
 20
8.0
 30
0.0
 11
-13.892305
 21
20.0
 31
0.0
  0
ARC
  5
582
  8
DETAIL
  6
CONTINUOUS
 10
-5.0
 20
633.0
 30
0.0
 40
5.0
 50
0.0
 51
90.0
  0
LINE
  5
583
  8
DETAIL
  6
CONTINUOUS
 10
0.0
 20
20.0
 30
0.0
 11
0.0
 21
633.0
 31
0.0
  0
LINE
  5
584
  8
DETAIL
  6
CONTINUOUS
 10
-305.0
 20
144.0
 30
0.0
 11
-305.0
 21
592.0
 31
0.0
  0
LINE
  5
585
  8
DETAIL
  6
CONTINUOUS
 10
-285.0
 20
144.0
 30
0.0
 11
-305.0
 21
144.0
 31
0.0
  0
LINE
  5
586
  8
DETAIL
  6
CONTINUOUS
 10
-285.0
 20
592.0
 30
0.0
 11
-305.0
 21
592.0
 31
0.0
  0
LINE
  5
587
  8
DETAIL
  6
DASHED
 10
-138.0
 20
137.063883
 30
0.0
 11
-138.0
 21
116.936117
 31
0.0
  0
ARC
  5
588
  8
DETAIL
  6
DASHED
 10
-166.65
 20
127.0
 30
0.0
 40
10.85
 50
90.0
 51
270.0
  0
LINE
  5
589
  8
DETAIL
  6
DASHED
 10
-138.0
 20
137.063883
 30
0.0
 11
-153.0
 21
137.85
 31
0.0
  0
LINE
  5
58A
  8
DETAIL
  6
DASHED
 10
-153.0
 20
137.85
 30
0.0
 11
-153.0
 21
116.15
 31
0.0
  0
LINE
  5
58B
  8
DETAIL
  6
DASHED
 10
-138.0
 20
116.936117
 30
0.0
 11
-153.0
 21
116.15
 31
0.0
  0
LINE
  5
58C
  8
DETAIL
  6
DASHED
 10
-153.0
 20
116.15
 30
0.0
 11
-166.65
 21
116.15
 31
0.0
  0
LINE
  5
58D
  8
DETAIL
  6
DASHED
 10
-153.0
 20
137.85
 30
0.0
 11
-166.65
 21
137.85
 31
0.0
  0
LINE
  5
58E
  8
DETAIL
  6
DASHED
 10
-168.0
 20
217.85
 30
0.0
 11
-181.65
 21
217.85
 31
0.0
  0
LINE
  5
58F
  8
DETAIL
  6
DASHED
 10
-168.0
 20
196.15
 30
0.0
 11
-181.65
 21
196.15
 31
0.0
  0
LINE
  5
590
  8
DETAIL
  6
DASHED
 10
-153.0
 20
217.063883
 30
0.0
 11
-153.0
 21
196.936117
 31
0.0
  0
LINE
  5
591
  8
DETAIL
  6
DASHED
 10
-153.0
 20
196.936117
 30
0.0
 11
-168.0
 21
196.15
 31
0.0
  0
LINE
  5
592
  8
DETAIL
  6
DASHED
 10
-168.0
 20
217.85
 30
0.0
 11
-168.0
 21
196.15
 31
0.0
  0
LINE
  5
593
  8
DETAIL
  6
DASHED
 10
-153.0
 20
217.063883
 30
0.0
 11
-168.0
 21
217.85
 31
0.0
  0
LINE
  5
594
  8
DETAIL
  6
CONTINUOUS
 10
33.0
 20
0.0
 30
0.0
 11
-317.0
 21
0.0
 31
0.0
  0
LINE
  5
595
  8
DETAIL
  6
CONTINUOUS
 10
-280.0
 20
638.0
 30
0.0
 11
-5.0
 21
638.0
 31
0.0
  0
LINE
  5
596
  8
DETAIL
  6
CONTINUOUS
 10
28.0
 20
8.0
 30
0.0
 11
28.0
 21
0.0
 31
0.0
  0
LINE
  5
597
  8
DETAIL
  6
CONTINUOUS
 10
-317.0
 20
8.0
 30
0.0
 11
-317.0
 21
0.0
 31
0.0
  0
LINE
  5
598
  8
DETAIL
  6
CONTINUOUS
 10
-285.0
 20
633.0
 30
0.0
 11
-285.0
 21
20.0
 31
0.0
  0
LINE
  5
599
  8
DETAIL
  6
CONTINUOUS
 10
-285.0
 20
20.0
 30
0.0
 11
0.0
 21
20.0
 31
0.0
  0
LINE
  5
59A
  8
DETAIL
  6
CONTINUOUS
 10
28.0
 20
8.0
 30
0.0
 11
-317.0
 21
8.0
 31
0.0
  0
ARC
  5
59B
  8
DETAIL
  6
CONTINUOUS
 10
-280.0
 20
633.0
 30
0.0
 40
5.0
 50
90.0
 51
180.0
  0
LINE
  5
59C
  8
DETAIL
  6
CONTINUOUS
 10
-285.0
 20
613.0
 30
0.0
 11
0.0
 21
613.0
 31
0.0
  0
ARC
  5
59D
  8
DETAIL
  6
DASHED
 10
-181.65
 20
207.0
 30
0.0
 40
10.85
 50
90.0
 51
270.0
  0
LINE
  5
59E
  8
DETAIL
  6
CONTINUOUS
 10
-278.035898
 20
8.0
 30
0.0
 11
-271.107695
 21
20.0
 31
0.0
  0
LINE
  5
59F
  8
BASIS
  6
DASHDOT
 10
-235.0
 20
368.0
 30
0.0
 11
-355.0
 21
368.0
 31
0.0
  0
LINE
  5
5A0
  8
SIZE
  6
CONTINUOUS
 62
    30
 10
-494.999994
 20
0.0
 30
0.0
 11
-599.899994
 21
0.0
 31
0.0
  0
LINE
  5
5A1
  8
SIZE
  6
CONTINUOUS
 62
    30
 10
-364.999994
 20
368.000009
 30
0.0
 11
-599.899994
 21
368.000009
 31
0.0
  0
LINE
  5
5A2
  8
SIZE
  6
CONTINUOUS
 62
    30
 10
-587.399994
 20
10.0
 30
0.0
 11
-587.399994
 21
358.000009
 31
0.0
  0
CIRCLE
  5
5A3
  8
SIZE
  6
CONTINUOUS
 62
    30
 10
-587.399994
 20
0.0
 30
0.0
 40
5.0
  0
LINE
  5
5A4
  8
SIZE
  6
CONTINUOUS
 62
    30
 10
-587.399994
 20
0.0
 30
0.0
 11
-587.399994
 21
10.0
 31
0.0
  0
CIRCLE
  5
5A5
  8
SIZE
  6
CONTINUOUS
 62
    30
 10
-587.399994
 20
368.000009
 30
0.0
 40
5.0
  0
LINE
  5
5A6
  8
SIZE
  6
CONTINUOUS
 62
    30
 10
-587.399994
 20
368.000009
 30
0.0
 11
-587.399994
 21
358.000009
 31
0.0
  0
TEXT
  5
5A7
  8
SIZE
  6
CONTINUOUS
 62
    30
 10
-597.399994
 20
141.1428511428571
 30
0.0
 40
30.0
  1
368
 50
90.0
 72
     1
 11
-597.399994
 21
183.999994
 31
0.0
  0
POINT
  5
5A8
  8
DEFPOINTS
  6
CONTINUOUS
 62
    30
 10
-484.999994
 20
0.0
 30
0.0
  0
POINT
  5
5A9
  8
DEFPOINTS
  6
CONTINUOUS
 62
    30
 10
-354.999994
 20
368.000009
 30
0.0
  0
POINT
  5
5AA
  8
DEFPOINTS
  6
CONTINUOUS
 62
    30
 10
-587.399994
 20
368.000009
 30
0.0
  0
LINE
  5
5AB
  8
SIZE
  6
CONTINUOUS
 62
    30
 10
109.999998
 20
0.0
 30
0.0
 11
460.100006
 21
0.0
 31
0.0
  0
LINE
  5
5AC
  8
SIZE
  6
CONTINUOUS
 62
    30
 10
29.299999
 20
-15.0
 30
0.0
 11
460.100006
 21
-15.0
 31
0.0
  0
LINE
  5
5AD
  8
SIZE
  6
CONTINUOUS
 62
    30
 10
447.600006
 20
10.0
 30
0.0
 11
447.600006
 21
20.0
 31
0.0
  0
LINE
  5
5AE
  8
SIZE
  6
CONTINUOUS
 62
    30
 10
447.600006
 20
-25.0
 30
0.0
 11
447.600006
 21
-120.62747
 31
0.0
  0
LINE
  5
5AF
  8
SIZE
  6
CONTINUOUS
 62
    30
 10
447.600006
 20
0.0
 30
0.0
 11
447.600006
 21
-15.0
 31
0.0
  0
CIRCLE
  5
5B0
  8
SIZE
  6
CONTINUOUS
 62
    30
 10
447.600006
 20
0.0
 30
0.0
 40
5.0
  0
LINE
  5
5B1
  8
SIZE
  6
CONTINUOUS
 62
    30
 10
447.600006
 20
0.0
 30
0.0
 11
447.600006
 21
10.0
 31
0.0
  0
CIRCLE
  5
5B2
  8
SIZE
  6
CONTINUOUS
 62
    30
 10
447.600006
 20
-15.0
 30
0.0
 40
5.0
  0
LINE
  5
5B3
  8
SIZE
  6
CONTINUOUS
 62
    30
 10
447.600006
 20
-15.0
 30
0.0
 11
447.600006
 21
-25.0
 31
0.0
  0
TEXT
  5
5B4
  8
SIZE
  6
CONTINUOUS
 62
    30
 10
437.600006
 20
-121.3417557142857
 30
0.0
 40
30.0
  1
15
 50
90.0
 72
     1
 11
437.600006
 21
-90.62747
 31
0.0
  0
POINT
  5
5B5
  8
DEFPOINTS
  6
CONTINUOUS
 62
    30
 10
99.999998
 20
0.0
 30
0.0
  0
POINT
  5
5B6
  8
DEFPOINTS
  6
CONTINUOUS
 62
    30
 10
19.299999
 20
-15.0
 30
0.0
  0
POINT
  5
5B7
  8
DEFPOINTS
  6
CONTINUOUS
 62
    30
 10
447.600006
 20
-15.0
 30
0.0
  0
LINE
  5
5B8
  8
SIZE
  6
CONTINUOUS
 62
    30
 10
0.0
 20
-10.0
 30
0.0
 11
0.0
 21
-160.100006
 31
0.0
  0
LINE
  5
5B9
  8
SIZE
  6
CONTINUOUS
 62
    30
 10
-0.7
 20
-44.99999800000001
 30
0.0
 11
-0.7
 21
-160.100006
 31
0.0
  0
LINE
  5
5BA
  8
SIZE
  6
CONTINUOUS
 62
    30
 10
10.0
 20
-147.600006
 30
0.0
 11
20.0
 21
-147.600006
 31
0.0
  0
LINE
  5
5BB
  8
SIZE
  6
CONTINUOUS
 62
    30
 10
-10.7
 20
-147.600006
 30
0.0
 11
-78.104001
 21
-147.600006
 31
0.0
  0
LINE
  5
5BC
  8
SIZE
  6
CONTINUOUS
 62
    30
 10
0.0
 20
-147.600006
 30
0.0
 11
-0.7
 21
-147.600006
 31
0.0
  0
CIRCLE
  5
5BD
  8
SIZE
  6
CONTINUOUS
 62
    30
 10
0.0
 20
-147.600006
 30
0.0
 40
5.0
  0
LINE
  5
5BE
  8
SIZE
  6
CONTINUOUS
 62
    30
 10
0.0
 20
-147.600006
 30
0.0
 11
10.0
 21
-147.600006
 31
0.0
  0
CIRCLE
  5
5BF
  8
SIZE
  6
CONTINUOUS
 62
    30
 10
-0.7
 20
-147.600006
 30
0.0
 40
5.0
  0
LINE
  5
5C0
  8
SIZE
  6
CONTINUOUS
 62
    30
 10
-0.7
 20
-147.600006
 30
0.0
 11
-10.7
 21
-147.600006
 31
0.0
  0
TEXT
  5
5C1
  8
SIZE
  6
CONTINUOUS
 62
    30
 10
-75.24685814285714
 20
-137.600006
 30
0.0
 40
30.0
  1
1
 72
     1
 11
-63.104001
 21
-137.600006
 31
0.0
  0
POINT
  5
5C2
  8
DEFPOINTS
  6
CONTINUOUS
 62
    30
 10
0.0
 20
0.0
 30
0.0
  0
POINT
  5
5C3
  8
DEFPOINTS
  6
CONTINUOUS
 62
    30
 10
-0.7
 20
-34.99999800000001
 30
0.0
  0
POINT
  5
5C4
  8
DEFPOINTS
  6
CONTINUOUS
 62
    30
 10
-0.7
 20
-147.600006
 30
0.0
  0
LINE
  5
5C5
  8
SIZE
  6
CONTINUOUS
 62
    30
 10
-316.999994
 20
-10.0
 30
0.0
 11
-316.999994
 21
-560.1000210000001
 31
0.0
  0
LINE
  5
5C6
  8
SIZE
  6
CONTINUOUS
 62
    30
 10
28.0
 20
-10.0
 30
0.0
 11
28.0
 21
-560.1000210000001
 31
0.0
  0
LINE
  5
5C7
  8
SIZE
  6
CONTINUOUS
 62
    30
 10
-306.999994
 20
-547.6000210000001
 30
0.0
 11
18.0
 21
-547.6000210000001
 31
0.0
  0
CIRCLE
  5
5C8
  8
SIZE
  6
CONTINUOUS
 62
    30
 10
-316.999994
 20
-547.6000210000001
 30
0.0
 40
5.0
  0
LINE
  5
5C9
  8
SIZE
  6
CONTINUOUS
 62
    30
 10
-316.999994
 20
-547.6000210000001
 30
0.0
 11
-306.999994
 21
-547.6000210000001
 31
0.0
  0
CIRCLE
  5
5CA
  8
SIZE
  6
CONTINUOUS
 62
    30
 10
28.0
 20
-547.6000210000001
 30
0.0
 40
5.0
  0
LINE
  5
5CB
  8
SIZE
  6
CONTINUOUS
 62
    30
 10
28.0
 20
-547.6000210000001
 30
0.0
 11
18.0
 21
-547.6000210000001
 31
0.0
  0
TEXT
  5
5CC
  8
SIZE
  6
CONTINUOUS
 62
    30
 10
-187.3571368571428
 20
-537.6000210000001
 30
0.0
 40
30.0
  1
345
 72
     1
 11
-144.499994
 21
-537.6000210000001
 31
0.0
  0
POINT
  5
5CD
  8
DEFPOINTS
  6
CONTINUOUS
 62
    30
 10
-316.999994
 20
0.0
 30
0.0
  0
POINT
  5
5CE
  8
DEFPOINTS
  6
CONTINUOUS
 62
    30
 10
28.0
 20
0.0
 30
0.0
  0
POINT
  5
5CF
  8
DEFPOINTS
  6
CONTINUOUS
 62
    30
 10
28.0
 20
-547.6000210000001
 30
0.0
  0
LINE
  5
5D0
  8
SIZE
  6
CONTINUOUS
 62
    30
 10
-326.999994
 20
8.0
 30
0.0
 11
-399.899994
 21
8.0
 31
0.0
  0
LINE
  5
5D1
  8
SIZE
  6
CONTINUOUS
 62
    30
 10
-326.999994
 20
0.0
 30
0.0
 11
-399.899994
 21
0.0
 31
0.0
  0
LINE
  5
5D2
  8
SIZE
  6
CONTINUOUS
 62
    30
 10
-387.399994
 20
-10.0
 30
0.0
 11
-387.399994
 21
-20.0
 31
0.0
  0
LINE
  5
5D3
  8
SIZE
  6
CONTINUOUS
 62
    30
 10
-387.399994
 20
18.0
 30
0.0
 11
-387.399994
 21
79.364671
 31
0.0
  0
LINE
  5
5D4
  8
SIZE
  6
CONTINUOUS
 62
    30
 10
-387.399994
 20
0.0
 30
0.0
 11
-387.399994
 21
8.0
 31
0.0
  0
CIRCLE
  5
5D5
  8
SIZE
  6
CONTINUOUS
 62
    30
 10
-387.399994
 20
0.0
 30
0.0
 40
5.0
  0
LINE
  5
5D6
  8
SIZE
  6
CONTINUOUS
 62
    30
 10
-387.399994
 20
0.0
 30
0.0
 11
-387.399994
 21
-10.0
 31
0.0
  0
CIRCLE
  5
5D7
  8
SIZE
  6
CONTINUOUS
 62
    30
 10
-387.399994
 20
8.0
 30
0.0
 40
5.0
  0
LINE
  5
5D8
  8
SIZE
  6
CONTINUOUS
 62
    30
 10
-387.399994
 20
8.0
 30
0.0
 11
-387.399994
 21
18.0
 31
0.0
  0
TEXT
  5
5D9
  8
SIZE
  6
CONTINUOUS
 62
    30
 10
-397.399994
 20
45.07895671428571
 30
0.0
 40
30.0
  1
8
 50
90.0
 72
     1
 11
-397.399994
 21
59.36467099999999
 31
0.0
  0
POINT
  5
5DA
  8
DEFPOINTS
  6
CONTINUOUS
 62
    30
 10
-316.999994
 20
8.0
 30
0.0
  0
POINT
  5
5DB
  8
DEFPOINTS
  6
CONTINUOUS
 62
    30
 10
-316.999994
 20
0.0
 30
0.0
  0
POINT
  5
5DC
  8
DEFPOINTS
  6
CONTINUOUS
 62
    30
 10
-387.399994
 20
0.0
 30
0.0
  0
LINE
  5
5DD
  8
SIZE
  6
CONTINUOUS
 62
    30
 10
0.0
 20
-10.0
 30
0.0
 11
0.0
 21
-260.100006
 31
0.0
  0
LINE
  5
5DE
  8
SIZE
  6
CONTINUOUS
 62
    30
 10
28.0
 20
-8.0
 30
0.0
 11
28.0
 21
-260.100006
 31
0.0
  0
LINE
  5
5DF
  8
SIZE
  6
CONTINUOUS
 62
    30
 10
38.0
 20
-247.600006
 30
0.0
 11
48.0
 21
-247.600006
 31
0.0
  0
LINE
  5
5E0
  8
SIZE
  6
CONTINUOUS
 62
    30
 10
-10.0
 20
-247.600006
 30
0.0
 11
-105.171938
 21
-247.600006
 31
0.0
  0
LINE
  5
5E1
  8
SIZE
  6
CONTINUOUS
 62
    30
 10
28.0
 20
-247.600006
 30
0.0
 11
0.0
 21
-247.600006
 31
0.0
  0
CIRCLE
  5
5E2
  8
SIZE
  6
CONTINUOUS
 62
    30
 10
28.0
 20
-247.600006
 30
0.0
 40
5.0
  0
LINE
  5
5E3
  8
SIZE
  6
CONTINUOUS
 62
    30
 10
28.0
 20
-247.600006
 30
0.0
 11
38.0
 21
-247.600006
 31
0.0
  0
CIRCLE
  5
5E4
  8
SIZE
  6
CONTINUOUS
 62
    30
 10
0.0
 20
-247.600006
 30
0.0
 40
5.0
  0
LINE
  5
5E5
  8
SIZE
  6
CONTINUOUS
 62
    30
 10
0.0
 20
-247.600006
 30
0.0
 11
-10.0
 21
-247.600006
 31
0.0
  0
TEXT
  5
5E6
  8
SIZE
  6
CONTINUOUS
 62
    30
 10
-98.74336657142857
 20
-237.600006
 30
0.0
 40
30.0
  1
28
 72
     1
 11
-70.171938
 21
-237.600006
 31
0.0
  0
POINT
  5
5E7
  8
DEFPOINTS
  6
CONTINUOUS
 62
    30
 10
0.0
 20
0.0
 30
0.0
  0
POINT
  5
5E8
  8
DEFPOINTS
  6
CONTINUOUS
 62
    30
 10
28.0
 20
2.0
 30
0.0
  0
POINT
  5
5E9
  8
DEFPOINTS
  6
CONTINUOUS
 62
    30
 10
28.0
 20
-247.600006
 30
0.0
  0
LINE
  5
5EA
  8
SIZE
  6
CONTINUOUS
 62
    30
 10
10.0
 20
-30.0
 30
0.0
 11
10.0
 21
-360.100021
 31
0.0
  0
LINE
  5
5EB
  8
SIZE
  6
CONTINUOUS
 62
    30
 10
0.0
 20
10.0
 30
0.0
 11
0.0
 21
-360.100021
 31
0.0
  0
LINE
  5
5EC
  8
SIZE
  6
CONTINUOUS
 62
    30
 10
-10.0
 20
-347.600021
 30
0.0
 11
-20.0
 21
-347.600021
 31
0.0
  0
LINE
  5
5ED
  8
SIZE
  6
CONTINUOUS
 62
    30
 10
20.0
 20
-347.600021
 30
0.0
 11
102.225386
 21
-347.600021
 31
0.0
  0
LINE
  5
5EE
  8
SIZE
  6
CONTINUOUS
 62
    30
 10
0.0
 20
-347.600021
 30
0.0
 11
10.0
 21
-347.600021
 31
0.0
  0
CIRCLE
  5
5EF
  8
SIZE
  6
CONTINUOUS
 62
    30
 10
0.0
 20
-347.600021
 30
0.0
 40
5.0
  0
LINE
  5
5F0
  8
SIZE
  6
CONTINUOUS
 62
    30
 10
0.0
 20
-347.600021
 30
0.0
 11
-10.0
 21
-347.600021
 31
0.0
  0
CIRCLE
  5
5F1
  8
SIZE
  6
CONTINUOUS
 62
    30
 10
10.0
 20
-347.600021
 30
0.0
 40
5.0
  0
LINE
  5
5F2
  8
SIZE
  6
CONTINUOUS
 62
    30
 10
10.0
 20
-347.600021
 30
0.0
 11
20.0
 21
-347.600021
 31
0.0
  0
TEXT
  5
5F3
  8
SIZE
  6
CONTINUOUS
 62
    30
 10
44.01110028571429
 20
-337.600021
 30
0.0
 40
30.0
  1
10
 72
     1
 11
74.725386
 21
-337.600021
 31
0.0
  0
POINT
  5
5F4
  8
DEFPOINTS
  6
CONTINUOUS
 62
    30
 10
10.0
 20
-20.0
 30
0.0
  0
POINT
  5
5F5
  8
DEFPOINTS
  6
CONTINUOUS
 62
    30
 10
0.0
 20
20.0
 30
0.0
  0
POINT
  5
5F6
  8
DEFPOINTS
  6
CONTINUOUS
 62
    30
 10
0.0
 20
-347.600021
 30
0.0
  0
LINE
  5
5F7
  8
SIZE
  6
CONTINUOUS
 62
    30
 10
-494.999994
 20
0.0
 30
0.0
 11
-749.899994
 21
0.0
 31
0.0
  0
LINE
  5
5F8
  8
SIZE
  6
CONTINUOUS
 62
    30
 10
-494.999994
 20
737.9999789999999
 30
0.0
 11
-749.899994
 21
737.9999789999999
 31
0.0
  0
LINE
  5
5F9
  8
SIZE
  6
CONTINUOUS
 62
    30
 10
-737.399994
 20
10.0
 30
0.0
 11
-737.399994
 21
727.9999789999999
 31
0.0
  0
CIRCLE
  5
5FA
  8
SIZE
  6
CONTINUOUS
 62
    30
 10
-737.399994
 20
0.0
 30
0.0
 40
5.0
  0
LINE
  5
5FB
  8
SIZE
  6
CONTINUOUS
 62
    30
 10
-737.399994
 20
0.0
 30
0.0
 11
-737.399994
 21
10.0
 31
0.0
  0
CIRCLE
  5
5FC
  8
SIZE
  6
CONTINUOUS
 62
    30
 10
-737.399994
 20
737.9999789999999
 30
0.0
 40
5.0
  0
LINE
  5
5FD
  8
SIZE
  6
CONTINUOUS
 62
    30
 10
-737.399994
 20
737.9999789999999
 30
0.0
 11
-737.399994
 21
727.9999789999999
 31
0.0
  0
TEXT
  5
5FE
  8
SIZE
  6
CONTINUOUS
 62
    30
 10
-747.399994
 20
326.1428661428572
 30
0.0
 40
30.0
  1
738
 50
90.0
 72
     1
 11
-747.399994
 21
369.000009
 31
0.0
  0
POINT
  5
5FF
  8
DEFPOINTS
  6
CONTINUOUS
 62
    30
 10
-484.999994
 20
0.0
 30
0.0
  0
POINT
  5
600
  8
DEFPOINTS
  6
CONTINUOUS
 62
    30
 10
-484.999994
 20
737.9999789999999
 30
0.0
  0
POINT
  5
601
  8
DEFPOINTS
  6
CONTINUOUS
 62
    30
 10
-737.399994
 20
737.9999789999999
 30
0.0
  0
LINE
  5
602
  8
SIZE
  6
CONTINUOUS
 62
    30
 10
109.999998
 20
0.0
 30
0.0
 11
610.100006
 21
0.0
 31
0.0
  0
LINE
  5
603
  8
SIZE
  6
CONTINUOUS
 62
    30
 10
109.999998
 20
737.9999789999999
 30
0.0
 11
610.100006
 21
737.9999789999999
 31
0.0
  0
LINE
  5
604
  8
SIZE
  6
CONTINUOUS
 62
    30
 10
597.600006
 20
10.0
 30
0.0
 11
597.600006
 21
727.9999789999999
 31
0.0
  0
CIRCLE
  5
605
  8
SIZE
  6
CONTINUOUS
 62
    30
 10
597.600006
 20
0.0
 30
0.0
 40
5.0
  0
LINE
  5
606
  8
SIZE
  6
CONTINUOUS
 62
    30
 10
597.600006
 20
0.0
 30
0.0
 11
597.600006
 21
10.0
 31
0.0
  0
CIRCLE
  5
607
  8
SIZE
  6
CONTINUOUS
 62
    30
 10
597.600006
 20
737.9999789999999
 30
0.0
 40
5.0
  0
LINE
  5
608
  8
SIZE
  6
CONTINUOUS
 62
    30
 10
597.600006
 20
737.9999789999999
 30
0.0
 11
597.600006
 21
727.9999789999999
 31
0.0
  0
TEXT
  5
609
  8
SIZE
  6
CONTINUOUS
 62
    30
 10
587.600006
 20
326.1428661428572
 30
0.0
 40
30.0
  1
738
 50
90.0
 72
     1
 11
587.600006
 21
369.000009
 31
0.0
  0
POINT
  5
60A
  8
DEFPOINTS
  6
CONTINUOUS
 62
    30
 10
99.999998
 20
0.0
 30
0.0
  0
POINT
  5
60B
  8
DEFPOINTS
  6
CONTINUOUS
 62
    30
 10
99.999998
 20
737.9999789999999
 30
0.0
  0
POINT
  5
60C
  8
DEFPOINTS
  6
CONTINUOUS
 62
    30
 10
597.600006
 20
737.9999789999999
 30
0.0
  0
LINE
  5
60D
  8
SIZE
  6
CONTINUOUS
 62
    30
 10
10.0
 20
637.9999789999999
 30
0.0
 11
460.100006
 21
637.9999789999999
 31
0.0
  0
LINE
  5
60E
  8
SIZE
  6
CONTINUOUS
 62
    30
 10
109.999998
 20
737.9999789999999
 30
0.0
 11
460.100006
 21
737.9999789999999
 31
0.0
  0
LINE
  5
60F
  8
SIZE
  6
CONTINUOUS
 62
    30
 10
447.600006
 20
647.9999789999999
 30
0.0
 11
447.600006
 21
727.9999789999999
 31
0.0
  0
CIRCLE
  5
610
  8
SIZE
  6
CONTINUOUS
 62
    30
 10
447.600006
 20
637.9999789999999
 30
0.0
 40
5.0
  0
LINE
  5
611
  8
SIZE
  6
CONTINUOUS
 62
    30
 10
447.600006
 20
637.9999789999999
 30
0.0
 11
447.600006
 21
647.9999789999999
 31
0.0
  0
CIRCLE
  5
612
  8
SIZE
  6
CONTINUOUS
 62
    30
 10
447.600006
 20
737.9999789999999
 30
0.0
 40
5.0
  0
LINE
  5
613
  8
SIZE
  6
CONTINUOUS
 62
    30
 10
447.600006
 20
737.9999789999999
 30
0.0
 11
447.600006
 21
727.9999789999999
 31
0.0
  0
TEXT
  5
614
  8
SIZE
  6
CONTINUOUS
 62
    30
 10
437.600006
 20
642.9999789999999
 30
0.0
 40
30.0
  1
100
 50
90.0
 72
     1
 11
437.600006
 21
687.9999789999999
 31
0.0
  0
POINT
  5
615
  8
DEFPOINTS
  6
CONTINUOUS
 62
    30
 10
0.0
 20
637.9999789999999
 30
0.0
  0
POINT
  5
616
  8
DEFPOINTS
  6
CONTINUOUS
 62
    30
 10
99.999998
 20
737.9999789999999
 30
0.0
  0
POINT
  5
617
  8
DEFPOINTS
  6
CONTINUOUS
 62
    30
 10
447.600006
 20
737.9999789999999
 30
0.0
  0
LINE
  5
618
  8
SIZE
  6
CONTINUOUS
 62
    30
 10
99.999998
 20
747.9999789999999
 30
0.0
 11
99.999998
 21
1002.899979
 31
0.0
  0
LINE
  5
619
  8
SIZE
  6
CONTINUOUS
 62
    30
 10
0.0
 20
747.9999789999999
 30
0.0
 11
0.0
 21
1002.899979
 31
0.0
  0
LINE
  5
61A
  8
SIZE
  6
CONTINUOUS
 62
    30
 10
89.999998
 20
990.3999789999999
 30
0.0
 11
10.0
 21
990.3999789999999
 31
0.0
  0
CIRCLE
  5
61B
  8
SIZE
  6
CONTINUOUS
 62
    30
 10
99.999998
 20
990.3999789999999
 30
0.0
 40
5.0
  0
LINE
  5
61C
  8
SIZE
  6
CONTINUOUS
 62
    30
 10
99.999998
 20
990.3999789999999
 30
0.0
 11
89.999998
 21
990.3999789999999
 31
0.0
  0
CIRCLE
  5
61D
  8
SIZE
  6
CONTINUOUS
 62
    30
 10
0.0
 20
990.3999789999999
 30
0.0
 40
5.0
  0
LINE
  5
61E
  8
SIZE
  6
CONTINUOUS
 62
    30
 10
0.0
 20
990.3999789999999
 30
0.0
 11
10.0
 21
990.3999789999999
 31
0.0
  0
TEXT
  5
61F
  8
SIZE
  6
CONTINUOUS
 62
    30
 10
4.999997999999998
 20
1000.399979
 30
0.0
 40
30.0
  1
100
 72
     1
 11
49.999998
 21
1000.399979
 31
0.0
  0
POINT
  5
620
  8
DEFPOINTS
  6
CONTINUOUS
 62
    30
 10
99.999998
 20
737.9999789999999
 30
0.0
  0
POINT
  5
621
  8
DEFPOINTS
  6
CONTINUOUS
 62
    30
 10
0.0
 20
737.9999789999999
 30
0.0
  0
POINT
  5
622
  8
DEFPOINTS
  6
CONTINUOUS
 62
    30
 10
0.0
 20
990.3999789999999
 30
0.0
  0
LINE
  5
623
  8
SIZE
  6
CONTINUOUS
 62
    30
 10
0.0
 20
747.9999789999999
 30
0.0
 11
0.0
 21
1002.899979
 31
0.0
  0
LINE
  5
624
  8
SIZE
  6
CONTINUOUS
 62
    30
 10
-284.999994
 20
747.9999789999999
 30
0.0
 11
-284.999994
 21
1002.899979
 31
0.0
  0
LINE
  5
625
  8
SIZE
  6
CONTINUOUS
 62
    30
 10
-10.0
 20
990.3999789999999
 30
0.0
 11
-274.999994
 21
990.3999789999999
 31
0.0
  0
CIRCLE
  5
626
  8
SIZE
  6
CONTINUOUS
 62
    30
 10
0.0
 20
990.3999789999999
 30
0.0
 40
5.0
  0
LINE
  5
627
  8
SIZE
  6
CONTINUOUS
 62
    30
 10
0.0
 20
990.3999789999999
 30
0.0
 11
-10.0
 21
990.3999789999999
 31
0.0
  0
CIRCLE
  5
628
  8
SIZE
  6
CONTINUOUS
 62
    30
 10
-284.999994
 20
990.3999789999999
 30
0.0
 40
5.0
  0
LINE
  5
629
  8
SIZE
  6
CONTINUOUS
 62
    30
 10
-284.999994
 20
990.3999789999999
 30
0.0
 11
-274.999994
 21
990.3999789999999
 31
0.0
  0
TEXT
  5
62A
  8
SIZE
  6
CONTINUOUS
 62
    30
 10
-185.3571368571428
 20
1000.399979
 30
0.0
 40
30.0
  1
285
 72
     1
 11
-142.499994
 21
1000.399979
 31
0.0
  0
POINT
  5
62B
  8
DEFPOINTS
  6
CONTINUOUS
 62
    30
 10
0.0
 20
737.9999789999999
 30
0.0
  0
POINT
  5
62C
  8
DEFPOINTS
  6
CONTINUOUS
 62
    30
 10
-284.999994
 20
737.9999789999999
 30
0.0
  0
POINT
  5
62D
  8
DEFPOINTS
  6
CONTINUOUS
 62
    30
 10
-284.999994
 20
990.3999789999999
 30
0.0
  0
LINE
  5
62E
  8
SIZE
  6
CONTINUOUS
 62
    30
 10
-284.999994
 20
747.9999789999999
 30
0.0
 11
-284.999994
 21
1002.899979
 31
0.0
  0
LINE
  5
62F
  8
SIZE
  6
CONTINUOUS
 62
    30
 10
-484.999994
 20
747.9999789999999
 30
0.0
 11
-484.999994
 21
1002.899979
 31
0.0
  0
LINE
  5
630
  8
SIZE
  6
CONTINUOUS
 62
    30
 10
-294.999994
 20
990.3999789999999
 30
0.0
 11
-474.999994
 21
990.3999789999999
 31
0.0
  0
CIRCLE
  5
631
  8
SIZE
  6
CONTINUOUS
 62
    30
 10
-284.999994
 20
990.3999789999999
 30
0.0
 40
5.0
  0
LINE
  5
632
  8
SIZE
  6
CONTINUOUS
 62
    30
 10
-284.999994
 20
990.3999789999999
 30
0.0
 11
-294.999994
 21
990.3999789999999
 31
0.0
  0
CIRCLE
  5
633
  8
SIZE
  6
CONTINUOUS
 62
    30
 10
-484.999994
 20
990.3999789999999
 30
0.0
 40
5.0
  0
LINE
  5
634
  8
SIZE
  6
CONTINUOUS
 62
    30
 10
-484.999994
 20
990.3999789999999
 30
0.0
 11
-474.999994
 21
990.3999789999999
 31
0.0
  0
TEXT
  5
635
  8
SIZE
  6
CONTINUOUS
 62
    30
 10
-427.8571368571429
 20
1000.399979
 30
0.0
 40
30.0
  1
200
 72
     1
 11
-384.999994
 21
1000.399979
 31
0.0
  0
POINT
  5
636
  8
DEFPOINTS
  6
CONTINUOUS
 62
    30
 10
-284.999994
 20
737.9999789999999
 30
0.0
  0
POINT
  5
637
  8
DEFPOINTS
  6
CONTINUOUS
 62
    30
 10
-484.999994
 20
737.9999789999999
 30
0.0
  0
POINT
  5
638
  8
DEFPOINTS
  6
CONTINUOUS
 62
    30
 10
-484.999994
 20
990.3999789999999
 30
0.0
  0
LINE
  5
639
  8
SIZE
  6
CONTINUOUS
 62
    30
 10
0.000002
 20
642.9999789999999
 30
0.0
 11
0.000002
 21
852.8999789999999
 31
0.0
  0
LINE
  5
63A
  8
SIZE
  6
CONTINUOUS
 62
    30
 10
16.0
 20
607.9999789999999
 30
0.0
 11
16.0
 21
852.8999789999999
 31
0.0
  0
LINE
  5
63B
  8
SIZE
  6
CONTINUOUS
 62
    30
 10
26.0
 20
840.3999789999999
 30
0.0
 11
36.0
 21
840.3999789999999
 31
0.0
  0
LINE
  5
63C
  8
SIZE
  6
CONTINUOUS
 62
    30
 10
-9.999998
 20
840.3999789999999
 30
0.0
 11
-97.142321
 21
840.3999789999999
 31
0.0
  0
LINE
  5
63D
  8
SIZE
  6
CONTINUOUS
 62
    30
 10
16.0
 20
840.3999789999999
 30
0.0
 11
0.000002
 21
840.3999789999999
 31
0.0
  0
CIRCLE
  5
63E
  8
SIZE
  6
CONTINUOUS
 62
    30
 10
16.0
 20
840.3999789999999
 30
0.0
 40
5.0
  0
LINE
  5
63F
  8
SIZE
  6
CONTINUOUS
 62
    30
 10
16.0
 20
840.3999789999999
 30
0.0
 11
26.0
 21
840.3999789999999
 31
0.0
  0
CIRCLE
  5
640
  8
SIZE
  6
CONTINUOUS
 62
    30
 10
0.000002
 20
840.3999789999999
 30
0.0
 40
5.0
  0
LINE
  5
641
  8
SIZE
  6
CONTINUOUS
 62
    30
 10
0.000002
 20
840.3999789999999
 30
0.0
 11
-9.999998
 21
840.3999789999999
 31
0.0
  0
TEXT
  5
642
  8
SIZE
  6
CONTINUOUS
 62
    30
 10
-97.8566067142857
 20
850.3999789999999
 30
0.0
 40
30.0
  1
16
 72
     1
 11
-67.142321
 21
850.3999789999999
 31
0.0
  0
POINT
  5
643
  8
DEFPOINTS
  6
CONTINUOUS
 62
    30
 10
0.000002
 20
632.9999789999999
 30
0.0
  0
POINT
  5
644
  8
DEFPOINTS
  6
CONTINUOUS
 62
    30
 10
16.0
 20
597.9999789999999
 30
0.0
  0
POINT
  5
645
  8
DEFPOINTS
  6
CONTINUOUS
 62
    30
 10
16.0
 20
840.3999789999999
 30
0.0
  0
LINE
  5
646
  8
SIZE
  6
CONTINUOUS
 62
    30
 10
-304.999994
 20
-30.0
 30
0.0
 11
-304.999994
 21
-460.100021
 31
0.0
  0
LINE
  5
647
  8
SIZE
  6
CONTINUOUS
 62
    30
 10
10.0
 20
-30.0
 30
0.0
 11
10.0
 21
-460.100021
 31
0.0
  0
LINE
  5
648
  8
SIZE
  6
CONTINUOUS
 62
    30
 10
-294.999994
 20
-447.600021
 30
0.0
 11
0.0
 21
-447.600021
 31
0.0
  0
CIRCLE
  5
649
  8
SIZE
  6
CONTINUOUS
 62
    30
 10
-304.999994
 20
-447.600021
 30
0.0
 40
5.0
  0
LINE
  5
64A
  8
SIZE
  6
CONTINUOUS
 62
    30
 10
-304.999994
 20
-447.600021
 30
0.0
 11
-294.999994
 21
-447.600021
 31
0.0
  0
CIRCLE
  5
64B
  8
SIZE
  6
CONTINUOUS
 62
    30
 10
10.0
 20
-447.600021
 30
0.0
 40
5.0
  0
LINE
  5
64C
  8
SIZE
  6
CONTINUOUS
 62
    30
 10
10.0
 20
-447.600021
 30
0.0
 11
0.0
 21
-447.600021
 31
0.0
  0
TEXT
  5
64D
  8
SIZE
  6
CONTINUOUS
 62
    30
 10
-216.0703808571429
 20
-437.600021
 30
0.0
 40
30.0
  1
315
 72
     1
 11
-173.213238
 21
-437.600021
 31
0.0
  0
POINT
  5
64E
  8
DEFPOINTS
  6
CONTINUOUS
 62
    30
 10
-304.999994
 20
-20.0
 30
0.0
  0
POINT
  5
64F
  8
DEFPOINTS
  6
CONTINUOUS
 62
    30
 10
10.0
 20
-20.0
 30
0.0
  0
POINT
  5
650
  8
DEFPOINTS
  6
CONTINUOUS
 62
    30
 10
10.0
 20
-447.600021
 30
0.0
  0
LINE
  5
651
  8
SIZE
  6
CONTINUOUS
 62
    30
 10
0.000002
 20
10.0
 30
0.0
 11
0.000002
 21
-360.100021
 31
0.0
  0
LINE
  5
652
  8
SIZE
  6
CONTINUOUS
 62
    30
 10
-284.999994
 20
10.0
 30
0.0
 11
-284.999994
 21
-360.100021
 31
0.0
  0
LINE
  5
653
  8
SIZE
  6
CONTINUOUS
 62
    30
 10
-9.999998
 20
-347.600021
 30
0.0
 11
-274.999994
 21
-347.600021
 31
0.0
  0
CIRCLE
  5
654
  8
SIZE
  6
CONTINUOUS
 62
    30
 10
0.000002
 20
-347.600021
 30
0.0
 40
5.0
  0
LINE
  5
655
  8
SIZE
  6
CONTINUOUS
 62
    30
 10
0.000002
 20
-347.600021
 30
0.0
 11
-9.999998
 21
-347.600021
 31
0.0
  0
CIRCLE
  5
656
  8
SIZE
  6
CONTINUOUS
 62
    30
 10
-284.999994
 20
-347.600021
 30
0.0
 40
5.0
  0
LINE
  5
657
  8
SIZE
  6
CONTINUOUS
 62
    30
 10
-284.999994
 20
-347.600021
 30
0.0
 11
-274.999994
 21
-347.600021
 31
0.0
  0
TEXT
  5
658
  8
SIZE
  6
CONTINUOUS
 62
    30
 10
-185.3571368571428
 20
-337.600021
 30
0.0
 40
30.0
  1
285
 72
     1
 11
-142.499994
 21
-337.600021
 31
0.0
  0
POINT
  5
659
  8
DEFPOINTS
  6
CONTINUOUS
 62
    30
 10
0.000002
 20
20.0
 30
0.0
  0
POINT
  5
65A
  8
DEFPOINTS
  6
CONTINUOUS
 62
    30
 10
-284.999994
 20
20.0
 30
0.0
  0
POINT
  5
65B
  8
DEFPOINTS
  6
CONTINUOUS
 62
    30
 10
-284.999994
 20
-347.600021
 30
0.0
  0
LINE
  5
65C
  8
SIZE
  6
CONTINUOUS
 62
    30
 10
-316.999994
 20
-8.0
 30
0.0
 11
-316.999994
 21
-260.100006
 31
0.0
  0
LINE
  5
65D
  8
SIZE
  6
CONTINUOUS
 62
    30
 10
-138.000009
 20
97.000002
 30
0.0
 11
-138.000009
 21
-260.100006
 31
0.0
  0
LINE
  5
65E
  8
SIZE
  6
CONTINUOUS
 62
    30
 10
-306.999994
 20
-247.600006
 30
0.0
 11
-148.000009
 21
-247.600006
 31
0.0
  0
CIRCLE
  5
65F
  8
SIZE
  6
CONTINUOUS
 62
    30
 10
-316.999994
 20
-247.600006
 30
0.0
 40
5.0
  0
LINE
  5
660
  8
SIZE
  6
CONTINUOUS
 62
    30
 10
-316.999994
 20
-247.600006
 30
0.0
 11
-306.999994
 21
-247.600006
 31
0.0
  0
CIRCLE
  5
661
  8
SIZE
  6
CONTINUOUS
 62
    30
 10
-138.000009
 20
-247.600006
 30
0.0
 40
5.0
  0
LINE
  5
662
  8
SIZE
  6
CONTINUOUS
 62
    30
 10
-138.000009
 20
-247.600006
 30
0.0
 11
-148.000009
 21
-247.600006
 31
0.0
  0
TEXT
  5
663
  8
SIZE
  6
CONTINUOUS
 62
    30
 10
-271.7857082857143
 20
-237.600006
 30
0.0
 40
30.0
  1
179
 72
     1
 11
-227.499994
 21
-237.600006
 31
0.0
  0
POINT
  5
664
  8
DEFPOINTS
  6
CONTINUOUS
 62
    30
 10
-316.999994
 20
2.0
 30
0.0
  0
POINT
  5
665
  8
DEFPOINTS
  6
CONTINUOUS
 62
    30
 10
-138.000009
 20
107.000002
 30
0.0
  0
POINT
  5
666
  8
DEFPOINTS
  6
CONTINUOUS
 62
    30
 10
-138.000009
 20
-247.600006
 30
0.0
  0
LINE
  5
667
  8
SIZE
  6
CONTINUOUS
 62
    30
 10
-316.999994
 20
-8.0
 30
0.0
 11
-316.999994
 21
-160.100006
 31
0.0
  0
LINE
  5
668
  8
SIZE
  6
CONTINUOUS
 62
    30
 10
-153.000009
 20
177.000009
 30
0.0
 11
-153.000009
 21
-160.100006
 31
0.0
  0
LINE
  5
669
  8
SIZE
  6
CONTINUOUS
 62
    30
 10
-306.999994
 20
-147.600006
 30
0.0
 11
-163.000009
 21
-147.600006
 31
0.0
  0
CIRCLE
  5
66A
  8
SIZE
  6
CONTINUOUS
 62
    30
 10
-316.999994
 20
-147.600006
 30
0.0
 40
5.0
  0
LINE
  5
66B
  8
SIZE
  6
CONTINUOUS
 62
    30
 10
-316.999994
 20
-147.600006
 30
0.0
 11
-306.999994
 21
-147.600006
 31
0.0
  0
CIRCLE
  5
66C
  8
SIZE
  6
CONTINUOUS
 62
    30
 10
-153.000009
 20
-147.600006
 30
0.0
 40
5.0
  0
LINE
  5
66D
  8
SIZE
  6
CONTINUOUS
 62
    30
 10
-153.000009
 20
-147.600006
 30
0.0
 11
-163.000009
 21
-147.600006
 31
0.0
  0
TEXT
  5
66E
  8
SIZE
  6
CONTINUOUS
 62
    30
 10
-280.7142797142857
 20
-137.600006
 30
0.0
 40
30.0
  1
164
 72
     1
 11
-234.999994
 21
-137.600006
 31
0.0
  0
POINT
  5
66F
  8
DEFPOINTS
  6
CONTINUOUS
 62
    30
 10
-316.999994
 20
2.0
 30
0.0
  0
POINT
  5
670
  8
DEFPOINTS
  6
CONTINUOUS
 62
    30
 10
-153.000009
 20
187.000009
 30
0.0
  0
POINT
  5
671
  8
DEFPOINTS
  6
CONTINUOUS
 62
    30
 10
-153.000009
 20
-147.600006
 30
0.0
  0
LINE
  5
672
  8
SIZE
  6
CONTINUOUS
 62
    30
 10
-304.999994
 20
601.9999789999999
 30
0.0
 11
-304.999994
 21
852.8999789999999
 31
0.0
  0
LINE
  5
673
  8
SIZE
  6
CONTINUOUS
 62
    30
 10
-284.999994
 20
642.9999789999999
 30
0.0
 11
-284.999994
 21
852.8999789999999
 31
0.0
  0
LINE
  5
674
  8
SIZE
  6
CONTINUOUS
 62
    30
 10
-274.999994
 20
840.3999789999999
 30
0.0
 11
-264.999994
 21
840.3999789999999
 31
0.0
  0
LINE
  5
675
  8
SIZE
  6
CONTINUOUS
 62
    30
 10
-314.999994
 20
840.3999789999999
 30
0.0
 11
-402.710108
 21
840.3999789999999
 31
0.0
  0
LINE
  5
676
  8
SIZE
  6
CONTINUOUS
 62
    30
 10
-284.999994
 20
840.3999789999999
 30
0.0
 11
-304.999994
 21
840.3999789999999
 31
0.0
  0
CIRCLE
  5
677
  8
SIZE
  6
CONTINUOUS
 62
    30
 10
-284.999994
 20
840.3999789999999
 30
0.0
 40
5.0
  0
LINE
  5
678
  8
SIZE
  6
CONTINUOUS
 62
    30
 10
-284.999994
 20
840.3999789999999
 30
0.0
 11
-274.999994
 21
840.3999789999999
 31
0.0
  0
CIRCLE
  5
679
  8
SIZE
  6
CONTINUOUS
 62
    30
 10
-304.999994
 20
840.3999789999999
 30
0.0
 40
5.0
  0
LINE
  5
67A
  8
SIZE
  6
CONTINUOUS
 62
    30
 10
-304.999994
 20
840.3999789999999
 30
0.0
 11
-314.999994
 21
840.3999789999999
 31
0.0
  0
TEXT
  5
67B
  8
SIZE
  6
CONTINUOUS
 62
    30
 10
-398.7815365714286
 20
850.3999789999999
 30
0.0
 40
30.0
  1
20
 72
     1
 11
-370.210108
 21
850.3999789999999
 31
0.0
  0
POINT
  5
67C
  8
DEFPOINTS
  6
CONTINUOUS
 62
    30
 10
-304.999994
 20
591.9999789999999
 30
0.0
  0
POINT
  5
67D
  8
DEFPOINTS
  6
CONTINUOUS
 62
    30
 10
-284.999994
 20
632.9999789999999
 30
0.0
  0
POINT
  5
67E
  8
DEFPOINTS
  6
CONTINUOUS
 62
    30
 10
-284.999994
 20
840.3999789999999
 30
0.0
  0
LINE
  5
67F
  8
SIZE
  6
CONTINUOUS
 62
    30
 10
109.999998
 20
0.0
 30
0.0
 11
460.100006
 21
0.0
 31
0.0
  0
LINE
  5
680
  8
SIZE
  6
CONTINUOUS
 62
    30
 10
10.0
 20
637.9999789999999
 30
0.0
 11
460.100006
 21
637.9999789999999
 31
0.0
  0
LINE
  5
681
  8
SIZE
  6
CONTINUOUS
 62
    30
 10
447.600006
 20
10.0
 30
0.0
 11
447.600006
 21
627.9999789999999
 31
0.0
  0
CIRCLE
  5
682
  8
SIZE
  6
CONTINUOUS
 62
    30
 10
447.600006
 20
0.0
 30
0.0
 40
5.0
  0
LINE
  5
683
  8
SIZE
  6
CONTINUOUS
 62
    30
 10
447.600006
 20
0.0
 30
0.0
 11
447.600006
 21
10.0
 31
0.0
  0
CIRCLE
  5
684
  8
SIZE
  6
CONTINUOUS
 62
    30
 10
447.600006
 20
637.9999789999999
 30
0.0
 40
5.0
  0
LINE
  5
685
  8
SIZE
  6
CONTINUOUS
 62
    30
 10
447.600006
 20
637.9999789999999
 30
0.0
 11
447.600006
 21
627.9999789999999
 31
0.0
  0
TEXT
  5
686
  8
SIZE
  6
CONTINUOUS
 62
    30
 10
437.600006
 20
275.4285804285715
 30
0.0
 40
30.0
  1
638
 50
90.0
 72
     1
 11
437.600006
 21
319.000009
 31
0.0
  0
POINT
  5
687
  8
DEFPOINTS
  6
CONTINUOUS
 62
    30
 10
99.999998
 20
0.0
 30
0.0
  0
POINT
  5
688
  8
DEFPOINTS
  6
CONTINUOUS
 62
    30
 10
0.0
 20
637.9999789999999
 30
0.0
  0
POINT
  5
689
  8
DEFPOINTS
  6
CONTINUOUS
 62
    30
 10
447.600006
 20
637.9999789999999
 30
0.0
  0
LINE
  5
68A
  8
SIZE
  6
CONTINUOUS
 62
    30
 10
109.999998
 20
0.0
 30
0.0
 11
360.100006
 21
0.0
 31
0.0
  0
LINE
  5
68B
  8
SIZE
  6
CONTINUOUS
 62
    30
 10
-122.999994
 20
206.999994
 30
0.0
 11
360.100006
 21
206.999994
 31
0.0
  0
LINE
  5
68C
  8
SIZE
  6
CONTINUOUS
 62
    30
 10
347.600006
 20
10.0
 30
0.0
 11
347.600006
 21
196.999994
 31
0.0
  0
CIRCLE
  5
68D
  8
SIZE
  6
CONTINUOUS
 62
    30
 10
347.600006
 20
0.0
 30
0.0
 40
5.0
  0
LINE
  5
68E
  8
SIZE
  6
CONTINUOUS
 62
    30
 10
347.600006
 20
0.0
 30
0.0
 11
347.600006
 21
10.0
 31
0.0
  0
CIRCLE
  5
68F
  8
SIZE
  6
CONTINUOUS
 62
    30
 10
347.600006
 20
206.999994
 30
0.0
 40
5.0
  0
LINE
  5
690
  8
SIZE
  6
CONTINUOUS
 62
    30
 10
347.600006
 20
206.999994
 30
0.0
 11
347.600006
 21
196.999994
 31
0.0
  0
TEXT
  5
691
  8
SIZE
  6
CONTINUOUS
 62
    30
 10
337.600006
 20
60.64285914285713
 30
0.0
 40
30.0
  1
207
 50
90.0
 72
     1
 11
337.600006
 21
103.500002
 31
0.0
  0
POINT
  5
692
  8
DEFPOINTS
  6
CONTINUOUS
 62
    30
 10
99.999998
 20
0.0
 30
0.0
  0
POINT
  5
693
  8
DEFPOINTS
  6
CONTINUOUS
 62
    30
 10
-132.999994
 20
206.999994
 30
0.0
  0
POINT
  5
694
  8
DEFPOINTS
  6
CONTINUOUS
 62
    30
 10
347.600006
 20
206.999994
 30
0.0
  0
LINE
  5
695
  8
SIZE
  6
CONTINUOUS
 62
    30
 10
109.999998
 20
0.0
 30
0.0
 11
260.100006
 21
0.0
 31
0.0
  0
LINE
  5
696
  8
SIZE
  6
CONTINUOUS
 62
    30
 10
-108.000002
 20
127.000002
 30
0.0
 11
260.100006
 21
127.000002
 31
0.0
  0
LINE
  5
697
  8
SIZE
  6
CONTINUOUS
 62
    30
 10
247.600006
 20
10.0
 30
0.0
 11
247.600006
 21
117.000002
 31
0.0
  0
CIRCLE
  5
698
  8
SIZE
  6
CONTINUOUS
 62
    30
 10
247.600006
 20
0.0
 30
0.0
 40
5.0
  0
LINE
  5
699
  8
SIZE
  6
CONTINUOUS
 62
    30
 10
247.600006
 20
0.0
 30
0.0
 11
247.600006
 21
10.0
 31
0.0
  0
CIRCLE
  5
69A
  8
SIZE
  6
CONTINUOUS
 62
    30
 10
247.600006
 20
127.000002
 30
0.0
 40
5.0
  0
LINE
  5
69B
  8
SIZE
  6
CONTINUOUS
 62
    30
 10
247.600006
 20
127.000002
 30
0.0
 11
247.600006
 21
117.000002
 31
0.0
  0
TEXT
  5
69C
  8
SIZE
  6
CONTINUOUS
 62
    30
 10
237.600006
 20
18.499998
 30
0.0
 40
30.0
  1
127
 50
90.0
 72
     1
 11
237.600006
 21
63.499998
 31
0.0
  0
POINT
  5
69D
  8
DEFPOINTS
  6
CONTINUOUS
 62
    30
 10
99.999998
 20
0.0
 30
0.0
  0
POINT
  5
69E
  8
DEFPOINTS
  6
CONTINUOUS
 62
    30
 10
-118.000002
 20
127.000002
 30
0.0
  0
POINT
  5
69F
  8
DEFPOINTS
  6
CONTINUOUS
 62
    30
 10
247.600006
 20
127.000002
 30
0.0
  0
TEXT
  5
6A0
  8
NOTE
  6
CONTINUOUS
 10
-684.61883
 20
167.953592
 30
0.0
 40
40.0
  1
メンテナンススペース
 50
90.00000499999999
 41
0.84375
  7
STANDARD1
  0
TEXT
  5
6A1
  8
NOTE
  6
CONTINUOUS
 10
-576.129633
 20
952.9965609999999
 30
0.0
 40
28.0
  1
メンテナンススペース
 50
0.0000029575586669
 41
0.84375
  7
STANDARD1
  0
TEXT
  5
6A2
  8
NOTE
  6
CONTINUOUS
 10
5.949408
 20
954.4371739999999
 30
0.0
 40
28.0
  1
メンテナンススペース
 50
0.0000029575586669
 41
0.84375
  7
STANDARD1
  0
TEXT
  5
6A3
  8
NOTE
  6
CONTINUOUS
 10
650.3908749999999
 20
178.916849
 30
0.0
 40
40.0
  1
メンテナンススペース
 50
90.00000499999999
 41
0.84375
  7
STANDARD1
  0
TEXT
  5
6A4
  8
NOTE
  6
CONTINUOUS
 10
-282.860437
 20
952.4484649999999
 30
0.0
 40
28.0
  1
メンテナンススペース
 50
0.0000029575586669
 41
0.84375
  7
STANDARD1
  0
TEXT
  5
6A5
  8
NOTE
  6
CONTINUOUS
 10
497.6410279999999
 20
493.366892
 30
0.0
 40
40.0
  1
メンテナンススペース
 50
90.00000499999999
 41
0.84375
  7
STANDARD1
  0
LINE
  5
6A6
  8
NOTE
  6
CONTINUOUS
 10
-543.249994
 20
-149.999991
 30
0.0
 11
-384.999994
 21
-149.999991
 31
0.0
  0
LINE
  5
6A7
  8
NOTE
  6
CONTINUOUS
 10
-384.999994
 20
-149.999991
 30
0.0
 11
-304.999994
 21
0.0
 31
0.0
  0
LINE
  5
6A8
  8
NOTE
  6
CONTINUOUS
 10
-304.999994
 20
0.0
 30
0.0
 11
-305.4523610000001
 21
-1.94817
 31
0.0
  0
LINE
  5
6A9
  8
NOTE
  6
CONTINUOUS
 10
-304.999994
 20
0.0
 30
0.0
 11
-306.36584
 21
-1.460981
 31
0.0
  0
TEXT
  5
6AA
  8
NOTE
  6
CONTINUOUS
 10
-543.249994
 20
-148.999991
 30
0.0
 40
40.0
  1
4-AH
 50
359.9999959954467
 41
0.6125
  7
STANDARD1
  0
LINE
  5
6AB
  8
NOTE
  6
CONTINUOUS
 10
-305.0
 20
-20.0
 30
0.0
 11
-305.0
 21
20.0
 31
0.0
  0
LINE
  5
6AC
  8
NOTE
  6
CONTINUOUS
 10
-325.0
 20
0.0
 30
0.0
 11
-285.0
 21
0.0
 31
0.0
  0
LINE
  5
6AD
  8
NOTE
  6
CONTINUOUS
 10
730.750006
 20
-449.999991
 30
0.0
 11
222.999991
 21
-449.999991
 31
0.0
  0
LINE
  5
6AE
  8
NOTE
  6
CONTINUOUS
 10
222.999991
 20
-449.999991
 30
0.0
 11
-138.000009
 21
127.000032
 31
0.0
  0
LINE
  5
6AF
  8
NOTE
  6
CONTINUOUS
 10
-138.000009
 20
127.000032
 30
0.0
 11
-136.536537
 21
125.636856
 31
0.0
  0
LINE
  5
6B0
  8
NOTE
  6
CONTINUOUS
 10
-138.000009
 20
127.000032
 30
0.0
 11
-137.414193
 21
125.087751
 31
0.0
  0
TEXT
  5
6B1
  8
NOTE
  6
CONTINUOUS
 10
283.750006
 20
-398.999991
 30
0.0
 40
40.0
  1
貯湯ﾀﾝｸﾕﾆｯﾄ接続口(A)
 50
359.9999959054455
 41
0.8475379999999999
  7
STANDARD1
  0
TEXT
  5
6B2
  8
NOTE
  6
CONTINUOUS
 10
283.750006
 20
-448.999991
 30
0.0
 40
40.0
  1
R1/2(φ21.7)
 50
359.9999960875177
 41
0.637277
  7
STANDARD1
  0
LINE
  5
6B3
  8
NOTE
  6
CONTINUOUS
 10
-138.0
 20
107.0
 30
0.0
 11
-138.0
 21
147.0
 31
0.0
  0
LINE
  5
6B4
  8
NOTE
  6
CONTINUOUS
 10
-118.0
 20
127.0
 30
0.0
 11
-158.0
 21
127.0
 31
0.0
  0
LINE
  5
6B5
  8
NOTE
  6
CONTINUOUS
 10
721.750006
 20
-199.999991
 30
0.0
 11
213.999991
 21
-199.999991
 31
0.0
  0
LINE
  5
6B6
  8
NOTE
  6
CONTINUOUS
 10
213.999991
 20
-199.999991
 30
0.0
 11
-169.000009
 21
207.00004
 31
0.0
  0
LINE
  5
6B7
  8
NOTE
  6
CONTINUOUS
 10
-169.000009
 20
207.00004
 30
0.0
 11
-167.299123
 21
205.947906
 31
0.0
  0
LINE
  5
6B8
  8
NOTE
  6
CONTINUOUS
 10
-169.000009
 20
207.00004
 30
0.0
 11
-168.053066
 21
205.238422
 31
0.0
  0
TEXT
  5
6B9
  8
NOTE
  6
CONTINUOUS
 10
274.750006
 20
-148.999991
 30
0.0
 40
40.0
  1
貯湯ﾀﾝｸﾕﾆｯﾄ接続口(B)
 50
359.9999959054455
 41
0.8475379999999999
  7
STANDARD1
  0
TEXT
  5
6BA
  8
NOTE
  6
CONTINUOUS
 10
274.750006
 20
-198.999991
 30
0.0
 40
40.0
  1
R1/2(φ21.7)
 50
359.9999960875177
 41
0.637277
  7
STANDARD1
  0
LINE
  5
6BB
  8
NOTE
  6
CONTINUOUS
 10
-153.0
 20
187.0
 30
0.0
 11
-153.0
 21
227.0
 31
0.0
  0
LINE
  5
6BC
  8
NOTE
  6
CONTINUOUS
 10
-133.0
 20
207.0
 30
0.0
 11
-173.0
 21
207.0
 31
0.0
  0
LINE
  5
6BD
  8
NOTE
  6
CONTINUOUS
 10
10.0
 20
-20.0
 30
0.0
 11
10.0
 21
20.0
 31
0.0
  0
LINE
  5
6BE
  8
NOTE
  6
CONTINUOUS
 10
30.0
 20
0.0
 30
0.0
 11
-10.0
 21
0.0
 31
0.0
  0
LINE
  5
6BF
  8
NOTE
  6
CONTINUOUS
 10
-0.7
 20
-35.0
 30
0.0
 11
-0.7
 21
5.0
 31
0.0
  0
LINE
  5
6C0
  8
NOTE
  6
CONTINUOUS
 10
-20.7
 20
-15.0
 30
0.0
 11
19.3
 21
-15.0
 31
0.0
  0
LINE
  5
6C1
  8
NOTE
  6
CONTINUOUS
 10
473.049994
 20
-298.999991
 30
0.0
 11
225.299994
 21
-298.999991
 31
0.0
  0
LINE
  5
6C2
  8
NOTE
  6
CONTINUOUS
 10
225.299994
 20
-298.999991
 30
0.0
 11
-0.7
 21
-15.0
 31
0.0
  0
LINE
  5
6C3
  8
NOTE
  6
CONTINUOUS
 10
-0.7
 20
-15.0
 30
0.0
 11
0.907961
 21
-16.189312
 31
0.0
  0
LINE
  5
6C4
  8
NOTE
  6
CONTINUOUS
 10
-0.7
 20
-15.0
 30
0.0
 11
0.097879
 21
-16.833955
 31
0.0
  0
TEXT
  5
6C5
  8
NOTE
  6
CONTINUOUS
 10
286.049994
 20
-297.999991
 30
0.0
 40
39.99999999999999
  1
D φ15.5
 50
0.0000029575586669
 41
0.6893380000000002
  7
STANDARD1
  0
CIRCLE
  5
6C6
  8
ARRANGE
  6
CONTINUOUS
 10
0.0
 20
0.0
 30
0.0
 40
15.0
  0
CIRCLE
  5
6C7
  8
FIX
  6
CONTINUOUS
 10
-305.0
 20
0.0
 30
0.0
 40
5.0
  0
CIRCLE
  5
6C8
  8
FIX
  6
CONTINUOUS
 10
10.0
 20
0.0
 30
0.0
 40
5.0
  0
LINE
  5
6C9
  8
SERVICESPACE
  6
DASHDOT
 10
100.0
 20
738.0
 30
0.0
 11
0.0
 21
0.0
 31
0.0
  0
LINE
  5
6CA
  8
SERVICESPACE
  6
DASHDOT
 10
0.0
 20
738.0
 30
0.0
 11
100.0
 21
0.0
 31
0.0
  0
LINE
  5
6CB
  8
SERVICESPACE
  6
DASHDOT
 10
-285.0
 20
738.0
 30
0.0
 11
-485.0
 21
0.0
 31
0.0
  0
LINE
  5
6CC
  8
SERVICESPACE
  6
DASHDOT
 10
-485.0
 20
738.0
 30
0.0
 11
-285.0
 21
0.0
 31
0.0
  0
LINE
  5
6CD
  8
SERVICESPACE
  6
DASHDOT
 10
0.0
 20
738.0
 30
0.0
 11
-285.0
 21
638.0
 31
0.0
  0
LINE
  5
6CE
  8
SERVICESPACE
  6
DASHDOT
 10
-285.0
 20
738.0
 30
0.0
 11
0.0
 21
638.0
 31
0.0
  0
LINE
  5
6CF
  8
SERVICESPACE
  6
DASHDOT
 10
100.0
 20
738.0
 30
0.0
 11
-485.0
 21
738.0
 31
0.0
  0
LINE
  5
6D0
  8
SERVICESPACE
  6
DASHDOT
 10
-285.0
 20
0.0
 30
0.0
 11
-485.0
 21
0.0
 31
0.0
  0
LINE
  5
6D1
  8
SERVICESPACE
  6
DASHDOT
 10
-485.0
 20
738.0
 30
0.0
 11
-485.0
 21
0.0
 31
0.0
  0
LINE
  5
6D2
  8
SERVICESPACE
  6
DASHDOT
 10
0.0
 20
738.0
 30
0.0
 11
0.0
 21
0.0
 31
0.0
  0
LINE
  5
6D3
  8
SERVICESPACE
  6
DASHDOT
 10
100.0
 20
0.0
 30
0.0
 11
0.0
 21
0.0
 31
0.0
  0
LINE
  5
6D4
  8
SERVICESPACE
  6
DASHDOT
 10
0.0
 20
638.0
 30
0.0
 11
-285.0
 21
638.0
 31
0.0
  0
LINE
  5
6D5
  8
SERVICESPACE
  6
DASHDOT
 10
100.0
 20
0.0
 30
0.0
 11
100.0
 21
738.0
 31
0.0
  0
LINE
  5
6D6
  8
SERVICESPACE
  6
DASHDOT
 10
-285.0
 20
0.0
 30
0.0
 11
-285.0
 21
738.0
 31
0.0
  0
TEXT
  5
6D7
  8
ETC
  6
CONTINUOUS
 10
499.263922
 20
1034.324442
 30
0.0
 40
39.99999999999999
  1
THPU45A34
 50
0.0000029575586669
 41
0.6125000000000002
  7
STANDARD1
  0
TEXT
  5
6D8
  8
ETC
  6
CONTINUOUS
 10
499.263922
 20
964.3245029999999
 30
0.0
 40
39.99999999999999
  1
ヒートポンプユニット
 50
0.0000028316468405
 41
0.8437500000000001
  7
STANDARD1
  0
ENDSEC
  0
EOF
