  0
SECTION
  2
HEADER
  9
$ACADVER
  1
AC1009
  9
$DWGCODEPAGE
  3
dos932
  9
$INSBASE
 10
0.0
 20
0.0
 30
0.0
  9
$EXTMIN
 10
-442.429724
 20
-560.135156
 30
0.0
  9
$EXTMAX
 10
1105.862182
 20
1179.804819
 30
0.0
  9
$LIMMIN
 10
0.0
 20
0.0
  9
$LIMMAX
 10
12.0
 20
9.0
  9
$ORTHOMODE
 70
     0
  9
$REGENMODE
 70
     1
  9
$FILLMODE
 70
     1
  9
$QTEXTMODE
 70
     0
  9
$MIRRTEXT
 70
     1
  9
$DRAGMODE
 70
     2
  9
$LTSCALE
 40
1.0
  9
$OSMODE
 70
    37
  9
$ATTMODE
 70
     1
  9
$TEXTSIZE
 40
2.8
  9
$TRACEWID
 40
0.05
  9
$TEXTSTYLE
  7
STANDARD1
  9
$CLAYER
  8
0
  9
$CELTYPE
  6
CONTINUOUS
  9
$CECOLOR
 62
   256
  9
$DIMSCALE
 40
1.0
  9
$DIMASZ
 40
10.0
  9
$DIMEXO
 40
10.0
  9
$DIMDLI
 40
8.0
  9
$DIMRND
 40
0.0
  9
$DIMDLE
 40
0.0
  9
$DIMEXE
 40
12.5
  9
$DIMTP
 40
0.0
  9
$DIMTM
 40
0.0
  9
$DIMTXT
 40
30.0
  9
$DIMCEN
 40
2.5
  9
$DIMTSZ
 40
0.0
  9
$DIMTOL
 70
     0
  9
$DIMLIM
 70
     0
  9
$DIMTIH
 70
     0
  9
$DIMTOH
 70
     0
  9
$DIMSE1
 70
     0
  9
$DIMSE2
 70
     0
  9
$DIMTAD
 70
     3
  9
$DIMZIN
 70
    12
  9
$DIMBLK
  1

  9
$DIMASO
 70
     1
  9
$DIMSHO
 70
     1
  9
$DIMPOST
  1

  9
$DIMAPOST
  1

  9
$DIMALT
 70
     0
  9
$DIMALTD
 70
     4
  9
$DIMALTF
 40
25.4
  9
$DIMLFAC
 40
1.0
  9
$DIMTOFL
 70
     1
  9
$DIMTVP
 40
0.0
  9
$DIMTIX
 70
     0
  9
$DIMSOXD
 70
     0
  9
$DIMSAH
 70
     1
  9
$DIMBLK1
  1
ORIGIN
  9
$DIMBLK2
  1
ORIGIN
  9
$DIMSTYLE
  2
STANDARD
  9
$DIMCLRD
 70
     0
  9
$DIMCLRE
 70
     0
  9
$DIMCLRT
 70
     0
  9
$DIMTFAC
 40
0.714286
  9
$DIMGAP
 40
10.0
  9
$LUNITS
 70
     2
  9
$LUPREC
 70
     3
  9
$SKETCHINC
 40
0.1
  9
$FILLETRAD
 40
0.0
  9
$AUNITS
 70
     0
  9
$AUPREC
 70
     0
  9
$MENU
  1
acad
  9
$ELEVATION
 40
0.0
  9
$PELEVATION
 40
0.0
  9
$THICKNESS
 40
0.0
  9
$LIMCHECK
 70
     0
  9
$CHAMFERA
 40
0.0
  9
$CHAMFERB
 40
0.0
  9
$SKPOLY
 70
     0
  9
$TDCREATE
 40
2455267.468495359
  9
$TDUPDATE
 40
2457459.559147824
  9
$TDINDWG
 40
0.0
  9
$TDUSRTIMER
 40
0.0
  9
$USRTIMER
 70
     1
  9
$ANGBASE
 50
0.0
  9
$ANGDIR
 70
     0
  9
$PDMODE
 70
     0
  9
$PDSIZE
 40
0.0
  9
$PLINEWID
 40
0.0
  9
$COORDS
 70
     1
  9
$SPLFRAME
 70
     0
  9
$SPLINETYPE
 70
     6
  9
$SPLINESEGS
 70
     8
  9
$ATTDIA
 70
     0
  9
$ATTREQ
 70
     1
  9
$HANDLING
 70
     1
  9
$HANDSEED
  5
5E5
  9
$SURFTAB1
 70
     6
  9
$SURFTAB2
 70
     6
  9
$SURFTYPE
 70
     6
  9
$SURFU
 70
     6
  9
$SURFV
 70
     6
  9
$UCSNAME
  2

  9
$UCSORG
 10
0.0
 20
0.0
 30
0.0
  9
$UCSXDIR
 10
1.0
 20
0.0
 30
0.0
  9
$UCSYDIR
 10
0.0
 20
1.0
 30
0.0
  9
$PUCSNAME
  2

  9
$PUCSORG
 10
0.0
 20
0.0
 30
0.0
  9
$PUCSXDIR
 10
1.0
 20
0.0
 30
0.0
  9
$PUCSYDIR
 10
0.0
 20
1.0
 30
0.0
  9
$USERI1
 70
     0
  9
$USERI2
 70
     0
  9
$USERI3
 70
     0
  9
$USERI4
 70
     0
  9
$USERI5
 70
     0
  9
$USERR1
 40
0.0
  9
$USERR2
 40
0.0
  9
$USERR3
 40
0.0
  9
$USERR4
 40
0.0
  9
$USERR5
 40
0.0
  9
$WORLDVIEW
 70
     1
  9
$SHADEDGE
 70
     3
  9
$SHADEDIF
 70
    70
  9
$TILEMODE
 70
     1
  9
$MAXACTVP
 70
    48
  9
$PLIMCHECK
 70
     0
  9
$PEXTMIN
 10
1.000000000000000E+20
 20
1.000000000000000E+20
 30
1.000000000000000E+20
  9
$PEXTMAX
 10
-1.000000000000000E+20
 20
-1.000000000000000E+20
 30
-1.000000000000000E+20
  9
$PLIMMIN
 10
0.0
 20
0.0
  9
$PLIMMAX
 10
12.0
 20
9.0
  9
$UNITMODE
 70
     0
  9
$VISRETAIN
 70
     1
  9
$PLINEGEN
 70
     0
  9
$PSLTSCALE
 70
     1
  0
ENDSEC
  0
SECTION
  2
TABLES
  0
TABLE
  2
VPORT
 70
     1
  0
VPORT
  2
*ACTIVE
 70
     0
 10
0.0
 20
0.0
 11
1.0
 21
1.0
 12
351.016232
 22
313.884831
 13
0.0
 23
0.0
 14
1.0
 24
1.0
 15
0.0
 25
0.0
 16
0.0
 26
0.0
 36
1.0
 17
0.0
 27
0.0
 37
0.0
 40
1750.495343
 41
0.951439
 42
50.0
 43
0.0
 44
0.0
 50
0.0
 51
0.0
 71
     0
 72
   100
 73
     1
 74
     1
 75
     0
 76
     0
 77
     0
 78
     0
  0
ENDTAB
  0
TABLE
  2
LTYPE
 70
     4
  0
LTYPE
  2
CONTINUOUS
 70
     0
  3
Solid line
 72
    65
 73
     0
 40
0.0
  0
LTYPE
  2
DASHED
 70
     0
  3
-- -- -- -- -- -- -- -- -- -- -- -- -- -- --
 72
    65
 73
     2
 40
0.75
 49
0.5
 49
-0.25
  0
LTYPE
  2
DASHDOT
 70
     0
  3
__ . __ . __ . __ . __ . __ . __ . __ . __ . __
 72
    65
 73
     4
 40
125.0
 49
80.0
 49
-20.0
 49
5.0
 49
-20.0
  0
LTYPE
  2
DIVIDE
 70
     0
  3
__ . . __ . . __ . . __ . . __ . . __ . . __
 72
    65
 73
     6
 40
1.25
 49
0.5
 49
-0.25
 49
0.0
 49
-0.25
 49
0.0
 49
-0.25
  0
ENDTAB
  0
TABLE
  2
LAYER
 70
    12
  0
LAYER
  2
0
 70
     0
 62
     3
  6
CONTINUOUS
  0
LAYER
  2
OUTLINE
 70
     0
 62
     3
  6
CONTINUOUS
  0
LAYER
  2
DETAIL
 70
     0
 62
     5
  6
CONTINUOUS
  0
LAYER
  2
BASIS
 70
     0
 62
     6
  6
CONTINUOUS
  0
LAYER
  2
SIZE
 70
     0
 62
    30
  6
CONTINUOUS
  0
LAYER
  2
NOTE
 70
     0
 62
     4
  6
CONTINUOUS
  0
LAYER
  2
ARRANGE
 70
     0
 62
     1
  6
CONTINUOUS
  0
LAYER
  2
FIX
 70
     0
 62
    11
  6
CONTINUOUS
  0
LAYER
  2
SERVICESPACE
 70
     0
 62
     2
  6
CONTINUOUS
  0
LAYER
  2
ETC
 70
     0
 62
    61
  6
CONTINUOUS
  0
LAYER
  2
SYMBOLLINE
 70
     0
 62
     7
  6
CONTINUOUS
  0
LAYER
  2
DEFPOINTS
 70
     0
 62
     7
  6
CONTINUOUS
  0
ENDTAB
  0
TABLE
  2
STYLE
 70
     5
  0
STYLE
  2
STANDARD
 70
     0
 40
0.0
 41
1.0
 50
0.0
 71
     0
 42
0.2
  3
txt
  4

  0
STYLE
  2
STANDARD1
 70
     0
 40
0.0
 41
1.0
 50
0.0
 71
     0
 42
2.8
  3
MONOTXT
  4
BIGFONT
  0
STYLE
  2
STANDARD2
 70
     4
 40
0.0
 41
1.0
 50
0.0
 71
     0
 42
2.8
  3
MONOTXT
  4
BIGFONT
  0
STYLE
  2
STANDARD3
 70
     0
 40
0.0
 41
1.0
 50
0.0
 71
     0
 42
2.8
  3
MONOTXT
  4

  0
STYLE
  2
STANDARD4
 70
     4
 40
0.0
 41
1.0
 50
0.0
 71
     0
 42
2.8
  3
MONOTXT
  4

  0
ENDTAB
  0
TABLE
  2
VIEW
 70
     0
  0
ENDTAB
  0
TABLE
  2
UCS
 70
     0
  0
ENDTAB
  0
TABLE
  2
APPID
 70
     1
  0
APPID
  2
ACAD
 70
     0
  0
ENDTAB
  0
TABLE
  2
DIMSTYLE
 70
     1
  0
DIMSTYLE
  2
STANDARD
 70
     0
  3

  4

  5

  6

  7

 40
1.0
 41
0.18
 42
0.0625
 43
0.38
 44
0.18
 45
0.0
 46
0.0
 47
0.0
 48
0.0
140
0.18
141
0.09
142
0.0
143
25.4
144
1.0
145
0.0
146
1.0
147
0.09
 71
     0
 72
     0
 73
     1
 74
     1
 75
     0
 76
     0
 77
     0
 78
     0
170
     0
171
     2
172
     0
173
     0
174
     0
175
     0
176
     0
177
     0
178
     0
  0
ENDTAB
  0
ENDSEC
  0
SECTION
  2
BLOCKS
  0
BLOCK
  8
0
  2
$MODEL_SPACE
 70
     0
 10
0.0
 20
0.0
 30
0.0
  3
$MODEL_SPACE
  1

  0
ENDBLK
  5
5BA
  8
0
  0
BLOCK
 67
     1
  8
0
  2
$PAPER_SPACE
 70
     0
 10
0.0
 20
0.0
 30
0.0
  3
$PAPER_SPACE
  1

  0
ENDBLK
  5
5BC
 67
     1
  8
0
  0
BLOCK
  8
SIZE
  2
*D0
 70
     1
 10
0.0
 20
0.0
 30
0.0
  3
*D0
  1

  0
TEXT
  5
2A5
  8
SIZE
  6
CONTINUOUS
 10
144.530258
 20
-449.035162
 30
0.0
 40
2.8
  1
315
 50
0.000003
 41
0.7
  7
STANDARD1
  0
LINE
  5
2A6
  8
SIZE
  6
CONTINUOUS
 10
304.970276
 20
-21.035135
 30
0.0
 11
304.970276
 21
-452.035156
 31
0.0
  0
LINE
  5
2A7
  8
SIZE
  6
CONTINUOUS
 10
-10.02973
 20
-21.035135
 30
0.0
 11
-10.02973
 21
-452.035156
 31
0.0
  0
LINE
  5
2A8
  8
SIZE
  6
CONTINUOUS
 10
304.970276
 20
-450.035156
 30
0.0
 11
-10.02973
 21
-450.035156
 31
0.0
  0
INSERT
  5
2A9
  8
SIZE
  2
DOT
 10
304.970276
 20
-450.035156
 30
0.0
  0
INSERT
  5
2AA
  8
SIZE
  2
DOT
 10
-10.02973
 20
-450.035156
 30
0.0
 50
180.0
  0
POINT
  5
2AB
  8
DEFPOINTS
  6
BYBLOCK
 10
-10.02973
 20
-20.035135
 30
0.0
  0
POINT
  5
2AC
  8
DEFPOINTS
  6
BYBLOCK
 10
304.970276
 20
-20.035135
 30
0.0
  0
POINT
  5
2AD
  8
DEFPOINTS
  6
BYBLOCK
 10
304.970276
 20
-450.035156
 30
0.0
  0
ENDBLK
  5
2AE
  8
SIZE
  0
BLOCK
  8
SIZE
  2
DOT
 70
     0
 10
0.0
 20
0.0
 30
0.0
  3
DOT
  1

  0
POLYLINE
  5
2B1
  8
0
  6
BYBLOCK
 66
     1
 10
0.0
 20
0.0
 30
0.0
 70
     1
 40
0.5
 41
0.5
  0
VERTEX
  5
5E2
  8
0
  6
BYBLOCK
 10
-0.25
 20
0.0
 30
0.0
 42
1.0
  0
VERTEX
  5
5E3
  8
0
  6
BYBLOCK
 10
0.25
 20
0.0
 30
0.0
 42
1.0
  0
SEQEND
  5
5E4
  8
0
  6
BYBLOCK
  0
LINE
  5
2B5
  8
0
  6
BYBLOCK
 10
-0.5
 20
0.0
 30
0.0
 11
-1.0
 21
0.0
 31
0.0
  0
ENDBLK
  5
2B6
  8
SIZE
  0
BLOCK
  8
SIZE
  2
*D2
 70
     1
 10
0.0
 20
0.0
 30
0.0
  3
*D2
  1

  0
TEXT
  5
2B9
  8
SIZE
  6
CONTINUOUS
 10
-251.029718
 20
316.024872
 30
0.0
 40
2.8
  1
638
 50
90.00000499999999
 41
0.7
  7
STANDARD1
  0
LINE
  5
2BA
  8
SIZE
  6
CONTINUOUS
 10
-1.02973
 20
637.964844
 30
0.0
 11
-252.029724
 21
637.964844
 31
0.0
  0
LINE
  5
2BB
  8
SIZE
  6
CONTINUOUS
 10
-101.029732
 20
-0.035135
 30
0.0
 11
-252.029724
 21
-0.035135
 31
0.0
  0
LINE
  5
2BC
  8
SIZE
  6
CONTINUOUS
 10
-250.029724
 20
637.964844
 30
0.0
 11
-250.029724
 21
-0.035135
 31
0.0
  0
INSERT
  5
2BD
  8
SIZE
  2
DOT
 10
-250.029724
 20
637.964844
 30
0.0
 50
90.0
  0
INSERT
  5
2BE
  8
SIZE
  2
DOT
 10
-250.029724
 20
-0.035135
 30
0.0
 50
270.0
  0
POINT
  5
2BF
  8
DEFPOINTS
  6
BYBLOCK
 10
-100.029732
 20
-0.035135
 30
0.0
  0
POINT
  5
2C0
  8
DEFPOINTS
  6
BYBLOCK
 10
-0.02973
 20
637.964844
 30
0.0
  0
POINT
  5
2C1
  8
DEFPOINTS
  6
BYBLOCK
 10
-250.029724
 20
637.964844
 30
0.0
  0
ENDBLK
  5
2C2
  8
SIZE
  0
BLOCK
  8
SIZE
  2
*D3
 70
     1
 10
0.0
 20
0.0
 30
0.0
  3
*D3
  1

  0
TEXT
  5
2C5
  8
SIZE
  6
CONTINUOUS
 10
355.632294
 20
838.964868
 30
0.0
 40
2.8
  1
20
 50
0.000003
 41
0.7
  7
STANDARD1
  0
LINE
  5
2C6
  8
SIZE
  6
CONTINUOUS
 10
284.970276
 20
0.964865
 30
0.0
 11
284.970276
 21
839.964844
 31
0.0
  0
LINE
  5
2C7
  8
SIZE
  6
CONTINUOUS
 10
304.970276
 20
592.964844
 30
0.0
 11
304.970276
 21
839.964844
 31
0.0
  0
LINE
  5
2C8
  8
SIZE
  6
CONTINUOUS
 10
279.970276
 20
837.964844
 30
0.0
 11
360.952271
 21
837.964844
 31
0.0
  0
INSERT
  5
2C9
  8
SIZE
  2
DOT
 10
284.970276
 20
837.964844
 30
0.0
 50
180.0
  0
INSERT
  5
2CA
  8
SIZE
  2
DOT
 10
304.970276
 20
837.964844
 30
0.0
  0
POINT
  5
2CB
  8
DEFPOINTS
  6
BYBLOCK
 10
304.970276
 20
591.964844
 30
0.0
  0
POINT
  5
2CC
  8
DEFPOINTS
  6
BYBLOCK
 10
284.970276
 20
-0.035135
 30
0.0
  0
POINT
  5
2CD
  8
DEFPOINTS
  6
BYBLOCK
 10
284.970276
 20
837.964844
 30
0.0
  0
ENDBLK
  5
2CE
  8
SIZE
  0
BLOCK
  8
SIZE
  2
*D4
 70
     1
 10
0.0
 20
0.0
 30
0.0
  3
*D4
  1

  0
TEXT
  5
2D1
  8
SIZE
  6
CONTINUOUS
 10
139.530273
 20
-349.035162
 30
0.0
 40
2.8
  1
285
 50
0.000003
 41
0.7
  7
STANDARD1
  0
LINE
  5
2D2
  8
SIZE
  6
CONTINUOUS
 10
284.970276
 20
-1.035135
 30
0.0
 11
284.970276
 21
-352.035156
 31
0.0
  0
LINE
  5
2D3
  8
SIZE
  6
CONTINUOUS
 10
-0.029728
 20
18.964865
 30
0.0
 11
-0.029728
 21
-352.035156
 31
0.0
  0
LINE
  5
2D4
  8
SIZE
  6
CONTINUOUS
 10
284.970276
 20
-350.035156
 30
0.0
 11
-0.029728
 21
-350.035156
 31
0.0
  0
INSERT
  5
2D5
  8
SIZE
  2
DOT
 10
284.970276
 20
-350.035156
 30
0.0
  0
INSERT
  5
2D6
  8
SIZE
  2
DOT
 10
-0.029728
 20
-350.035156
 30
0.0
 50
180.0
  0
POINT
  5
2D7
  8
DEFPOINTS
  6
BYBLOCK
 10
-0.029728
 20
19.964865
 30
0.0
  0
POINT
  5
2D8
  8
DEFPOINTS
  6
BYBLOCK
 10
284.970276
 20
-0.035135
 30
0.0
  0
POINT
  5
2D9
  8
DEFPOINTS
  6
BYBLOCK
 10
284.970276
 20
-350.035156
 30
0.0
  0
ENDBLK
  5
2DA
  8
SIZE
  0
BLOCK
  8
SIZE
  2
*D5
 70
     1
 10
0.0
 20
0.0
 30
0.0
  3
*D5
  1

  0
TEXT
  5
2DD
  8
SIZE
  6
CONTINUOUS
 10
143.703949
 20
-549.035132
 30
0.0
 40
2.8
  1
345
 50
0.000003
 41
0.7
  7
STANDARD1
  0
LINE
  5
2DE
  8
SIZE
  6
CONTINUOUS
 10
-28.02973
 20
0.964865
 30
0.0
 11
-28.02973
 21
-552.035156
 31
0.0
  0
LINE
  5
2DF
  8
SIZE
  6
CONTINUOUS
 10
316.970276
 20
-1.035135
 30
0.0
 11
316.970276
 21
-552.035156
 31
0.0
  0
LINE
  5
2E0
  8
SIZE
  6
CONTINUOUS
 10
-28.02973
 20
-550.035156
 30
0.0
 11
316.970276
 21
-550.035156
 31
0.0
  0
INSERT
  5
2E1
  8
SIZE
  2
DOT
 10
-28.02973
 20
-550.035156
 30
0.0
 50
180.0
  0
INSERT
  5
2E2
  8
SIZE
  2
DOT
 10
316.970276
 20
-550.035156
 30
0.0
  0
POINT
  5
2E3
  8
DEFPOINTS
  6
BYBLOCK
 10
316.970276
 20
-0.035135
 30
0.0
  0
POINT
  5
2E4
  8
DEFPOINTS
  6
BYBLOCK
 10
-28.02973
 20
1.964865
 30
0.0
  0
POINT
  5
2E5
  8
DEFPOINTS
  6
BYBLOCK
 10
-28.02973
 20
-550.035156
 30
0.0
  0
ENDBLK
  5
2E6
  8
SIZE
  0
BLOCK
  8
SIZE
  2
*D6
 70
     1
 10
0.0
 20
0.0
 30
0.0
  3
*D6
  1

  0
TEXT
  5
2E9
  8
SIZE
  6
CONTINUOUS
 10
51.340206
 20
838.964868
 30
0.0
 40
2.8
  1
16
 50
0.000003
 41
0.7
  7
STANDARD1
  0
LINE
  5
2EA
  8
SIZE
  6
CONTINUOUS
 10
-16.02973
 20
598.964844
 30
0.0
 11
-16.02973
 21
839.964844
 31
0.0
  0
LINE
  5
2EB
  8
SIZE
  6
CONTINUOUS
 10
-0.02973
 20
633.964844
 30
0.0
 11
-0.02973
 21
839.964844
 31
0.0
  0
LINE
  5
2EC
  8
SIZE
  6
CONTINUOUS
 10
-21.02973
 20
837.964844
 30
0.0
 11
56.660206
 21
837.964844
 31
0.0
  0
INSERT
  5
2ED
  8
SIZE
  2
DOT
 10
-16.02973
 20
837.964844
 30
0.0
 50
180.0
  0
INSERT
  5
2EE
  8
SIZE
  2
DOT
 10
-0.02973
 20
837.964844
 30
0.0
  0
POINT
  5
2EF
  8
DEFPOINTS
  6
BYBLOCK
 10
-0.02973
 20
632.964844
 30
0.0
  0
POINT
  5
2F0
  8
DEFPOINTS
  6
BYBLOCK
 10
-16.02973
 20
597.964844
 30
0.0
  0
POINT
  5
2F1
  8
DEFPOINTS
  6
BYBLOCK
 10
-16.02973
 20
837.964844
 30
0.0
  0
ENDBLK
  5
2F2
  8
SIZE
  0
BLOCK
  8
SIZE
  2
*D7
 70
     1
 10
0.0
 20
0.0
 30
0.0
  3
*D7
  1

  0
TEXT
  5
2F5
  8
SIZE
  6
CONTINUOUS
 10
139.530273
 20
988.964868
 30
0.0
 40
2.8
  1
285
 50
0.000003
 41
0.7
  7
STANDARD1
  0
LINE
  5
2F6
  8
SIZE
  6
CONTINUOUS
 10
-0.02973
 20
738.964844
 30
0.0
 11
-0.02973
 21
989.964844
 31
0.0
  0
LINE
  5
2F7
  8
SIZE
  6
CONTINUOUS
 10
284.970276
 20
738.964844
 30
0.0
 11
284.970276
 21
989.964844
 31
0.0
  0
LINE
  5
2F8
  8
SIZE
  6
CONTINUOUS
 10
-0.02973
 20
987.964844
 30
0.0
 11
284.970276
 21
987.964844
 31
0.0
  0
INSERT
  5
2F9
  8
SIZE
  2
DOT
 10
-0.02973
 20
987.964844
 30
0.0
 50
180.0
  0
INSERT
  5
2FA
  8
SIZE
  2
DOT
 10
284.970276
 20
987.964844
 30
0.0
  0
POINT
  5
2FB
  8
DEFPOINTS
  6
BYBLOCK
 10
284.970276
 20
737.964844
 30
0.0
  0
POINT
  5
2FC
  8
DEFPOINTS
  6
BYBLOCK
 10
-0.02973
 20
737.964844
 30
0.0
  0
POINT
  5
2FD
  8
DEFPOINTS
  6
BYBLOCK
 10
-0.02973
 20
987.964844
 30
0.0
  0
ENDBLK
  5
2FE
  8
SIZE
  0
BLOCK
  8
SIZE
  2
*D8
 70
     1
 10
0.0
 20
0.0
 30
0.0
  3
*D8
  1

  0
TEXT
  5
301
  8
SIZE
  6
CONTINUOUS
 10
382.030273
 20
988.964868
 30
0.0
 40
2.8
  1
200
 50
0.000003
 41
0.7
  7
STANDARD1
  0
LINE
  5
302
  8
SIZE
  6
CONTINUOUS
 10
284.970276
 20
738.964844
 30
0.0
 11
284.970276
 21
989.964844
 31
0.0
  0
LINE
  5
303
  8
SIZE
  6
CONTINUOUS
 10
484.970276
 20
738.964844
 30
0.0
 11
484.970276
 21
989.964844
 31
0.0
  0
LINE
  5
304
  8
SIZE
  6
CONTINUOUS
 10
284.970276
 20
987.964844
 30
0.0
 11
484.970276
 21
987.964844
 31
0.0
  0
INSERT
  5
305
  8
SIZE
  2
DOT
 10
284.970276
 20
987.964844
 30
0.0
 50
180.0
  0
INSERT
  5
306
  8
SIZE
  2
DOT
 10
484.970276
 20
987.964844
 30
0.0
  0
POINT
  5
307
  8
DEFPOINTS
  6
BYBLOCK
 10
484.970276
 20
737.964844
 30
0.0
  0
POINT
  5
308
  8
DEFPOINTS
  6
BYBLOCK
 10
284.970276
 20
737.964844
 30
0.0
  0
POINT
  5
309
  8
DEFPOINTS
  6
BYBLOCK
 10
284.970276
 20
987.964844
 30
0.0
  0
ENDBLK
  5
30A
  8
SIZE
  0
BLOCK
  8
SIZE
  2
*D9
 70
     1
 10
0.0
 20
0.0
 30
0.0
  3
*D9
  1

  0
TEXT
  5
30D
  8
SIZE
  6
CONTINUOUS
 10
-52.96973
 20
988.964868
 30
0.0
 40
2.8
  1
100
 50
0.000003
 41
0.7
  7
STANDARD1
  0
LINE
  5
30E
  8
SIZE
  6
CONTINUOUS
 10
-0.02973
 20
738.964844
 30
0.0
 11
-0.02973
 21
989.964844
 31
0.0
  0
LINE
  5
30F
  8
SIZE
  6
CONTINUOUS
 10
-100.029732
 20
738.964844
 30
0.0
 11
-100.029732
 21
989.964844
 31
0.0
  0
LINE
  5
310
  8
SIZE
  6
CONTINUOUS
 10
-0.02973
 20
987.964844
 30
0.0
 11
-100.029732
 21
987.964844
 31
0.0
  0
INSERT
  5
311
  8
SIZE
  2
DOT
 10
-0.02973
 20
987.964844
 30
0.0
  0
INSERT
  5
312
  8
SIZE
  2
DOT
 10
-100.029732
 20
987.964844
 30
0.0
 50
180.0
  0
POINT
  5
313
  8
DEFPOINTS
  6
BYBLOCK
 10
-100.029732
 20
737.964844
 30
0.0
  0
POINT
  5
314
  8
DEFPOINTS
  6
BYBLOCK
 10
-0.02973
 20
737.964844
 30
0.0
  0
POINT
  5
315
  8
DEFPOINTS
  6
BYBLOCK
 10
-0.02973
 20
987.964844
 30
0.0
  0
ENDBLK
  5
316
  8
SIZE
  0
BLOCK
  8
SIZE
  2
*D10
 70
     1
 10
0.0
 20
0.0
 30
0.0
  3
*D10
  1

  0
TEXT
  5
319
  8
SIZE
  6
CONTINUOUS
 10
-251.029718
 20
685.024841
 30
0.0
 40
2.8
  1
100
 50
90.00000499999999
 41
0.7
  7
STANDARD1
  0
LINE
  5
31A
  8
SIZE
  6
CONTINUOUS
 10
-101.029732
 20
737.964844
 30
0.0
 11
-252.029724
 21
737.964844
 31
0.0
  0
LINE
  5
31B
  8
SIZE
  6
CONTINUOUS
 10
-1.02973
 20
637.964844
 30
0.0
 11
-252.029724
 21
637.964844
 31
0.0
  0
LINE
  5
31C
  8
SIZE
  6
CONTINUOUS
 10
-250.029724
 20
737.964844
 30
0.0
 11
-250.029724
 21
637.964844
 31
0.0
  0
INSERT
  5
31D
  8
SIZE
  2
DOT
 10
-250.029724
 20
737.964844
 30
0.0
 50
90.0
  0
INSERT
  5
31E
  8
SIZE
  2
DOT
 10
-250.029724
 20
637.964844
 30
0.0
 50
270.0
  0
POINT
  5
31F
  8
DEFPOINTS
  6
BYBLOCK
 10
-0.02973
 20
637.964844
 30
0.0
  0
POINT
  5
320
  8
DEFPOINTS
  6
BYBLOCK
 10
-100.029732
 20
737.964844
 30
0.0
  0
POINT
  5
321
  8
DEFPOINTS
  6
BYBLOCK
 10
-250.029724
 20
737.964844
 30
0.0
  0
ENDBLK
  5
322
  8
SIZE
  0
BLOCK
  8
SIZE
  2
*D11
 70
     1
 10
0.0
 20
0.0
 30
0.0
  3
*D11
  1

  0
TEXT
  5
325
  8
SIZE
  6
CONTINUOUS
 10
-401.029718
 20
366.024872
 30
0.0
 40
2.8
  1
738
 50
90.00000499999999
 41
0.7
  7
STANDARD1
  0
LINE
  5
326
  8
SIZE
  6
CONTINUOUS
 10
-101.029732
 20
737.964844
 30
0.0
 11
-402.029724
 21
737.964844
 31
0.0
  0
LINE
  5
327
  8
SIZE
  6
CONTINUOUS
 10
-101.029732
 20
-0.035135
 30
0.0
 11
-402.029724
 21
-0.035135
 31
0.0
  0
LINE
  5
328
  8
SIZE
  6
CONTINUOUS
 10
-400.029724
 20
737.964844
 30
0.0
 11
-400.029724
 21
-0.035135
 31
0.0
  0
INSERT
  5
329
  8
SIZE
  2
DOT
 10
-400.029724
 20
737.964844
 30
0.0
 50
90.0
  0
INSERT
  5
32A
  8
SIZE
  2
DOT
 10
-400.029724
 20
-0.035135
 30
0.0
 50
270.0
  0
POINT
  5
32B
  8
DEFPOINTS
  6
BYBLOCK
 10
-100.029732
 20
-0.035135
 30
0.0
  0
POINT
  5
32C
  8
DEFPOINTS
  6
BYBLOCK
 10
-100.029732
 20
737.964844
 30
0.0
  0
POINT
  5
32D
  8
DEFPOINTS
  6
BYBLOCK
 10
-400.029724
 20
737.964844
 30
0.0
  0
ENDBLK
  5
32E
  8
SIZE
  0
BLOCK
  8
SIZE
  2
*D12
 70
     1
 10
0.0
 20
0.0
 30
0.0
  3
*D12
  1

  0
TEXT
  5
331
  8
SIZE
  6
CONTINUOUS
 10
733.970251
 20
366.024872
 30
0.0
 40
2.8
  1
738
 50
90.00000499999999
 41
0.7
  7
STANDARD1
  0
LINE
  5
332
  8
SIZE
  6
CONTINUOUS
 10
485.970276
 20
737.964844
 30
0.0
 11
736.970276
 21
737.964844
 31
0.0
  0
LINE
  5
333
  8
SIZE
  6
CONTINUOUS
 10
485.970276
 20
-0.035135
 30
0.0
 11
736.970276
 21
-0.035135
 31
0.0
  0
LINE
  5
334
  8
SIZE
  6
CONTINUOUS
 10
734.970276
 20
737.964844
 30
0.0
 11
734.970276
 21
-0.035135
 31
0.0
  0
INSERT
  5
335
  8
SIZE
  2
DOT
 10
734.970276
 20
737.964844
 30
0.0
 50
90.0
  0
INSERT
  5
336
  8
SIZE
  2
DOT
 10
734.970276
 20
-0.035135
 30
0.0
 50
270.0
  0
POINT
  5
337
  8
DEFPOINTS
  6
BYBLOCK
 10
484.970276
 20
-0.035135
 30
0.0
  0
POINT
  5
338
  8
DEFPOINTS
  6
BYBLOCK
 10
484.970276
 20
737.964844
 30
0.0
  0
POINT
  5
339
  8
DEFPOINTS
  6
BYBLOCK
 10
734.970276
 20
737.964844
 30
0.0
  0
ENDBLK
  5
33A
  8
SIZE
  0
BLOCK
  8
SIZE
  2
*D13
 70
     1
 10
0.0
 20
0.0
 30
0.0
  3
*D13
  1

  0
TEXT
  5
33D
  8
SIZE
  6
CONTINUOUS
 10
-94.003532
 20
-349.035162
 30
0.0
 40
2.8
  1
10
 50
0.000003
 41
0.7
  7
STANDARD1
  0
LINE
  5
33E
  8
SIZE
  6
CONTINUOUS
 10
-10.02973
 20
-21.035135
 30
0.0
 11
-10.02973
 21
-352.035156
 31
0.0
  0
LINE
  5
33F
  8
SIZE
  6
CONTINUOUS
 10
-0.02973
 20
18.964865
 30
0.0
 11
-0.02973
 21
-352.035156
 31
0.0
  0
LINE
  5
340
  8
SIZE
  6
CONTINUOUS
 10
-95.403534
 20
-350.035156
 30
0.0
 11
4.97027
 21
-350.035156
 31
0.0
  0
INSERT
  5
341
  8
SIZE
  2
DOT
 10
-10.02973
 20
-350.035156
 30
0.0
 50
180.0
  0
INSERT
  5
342
  8
SIZE
  2
DOT
 10
-0.02973
 20
-350.035156
 30
0.0
  0
POINT
  5
343
  8
DEFPOINTS
  6
BYBLOCK
 10
-0.02973
 20
19.964865
 30
0.0
  0
POINT
  5
344
  8
DEFPOINTS
  6
BYBLOCK
 10
-10.02973
 20
-20.035135
 30
0.0
  0
POINT
  5
345
  8
DEFPOINTS
  6
BYBLOCK
 10
-10.02973
 20
-350.035156
 30
0.0
  0
ENDBLK
  5
346
  8
SIZE
  0
BLOCK
  8
SIZE
  2
*D14
 70
     1
 10
0.0
 20
0.0
 30
0.0
  3
*D14
  1

  0
TEXT
  5
349
  8
SIZE
  6
CONTINUOUS
 10
51.764935
 20
-249.035147
 30
0.0
 40
2.8
  1
28
 50
0.000003
 41
0.7
  7
STANDARD1
  0
LINE
  5
34A
  8
SIZE
  6
CONTINUOUS
 10
-27.999729
 20
-1.035135
 30
0.0
 11
-27.999729
 21
-252.035141
 31
0.0
  0
LINE
  5
34B
  8
SIZE
  6
CONTINUOUS
 10
-0.02973
 20
-1.035135
 30
0.0
 11
-0.02973
 21
-252.035141
 31
0.0
  0
LINE
  5
34C
  8
SIZE
  6
CONTINUOUS
 10
-32.999729
 20
-250.035141
 30
0.0
 11
57.084934
 21
-250.035141
 31
0.0
  0
INSERT
  5
34D
  8
SIZE
  2
DOT
 10
-27.999729
 20
-250.035141
 30
0.0
 50
180.0
  0
INSERT
  5
34E
  8
SIZE
  2
DOT
 10
-0.02973
 20
-250.035141
 30
0.0
  0
POINT
  5
34F
  8
DEFPOINTS
  6
BYBLOCK
 10
-0.02973
 20
-0.035135
 30
0.0
  0
POINT
  5
350
  8
DEFPOINTS
  6
BYBLOCK
 10
-27.999729
 20
-0.035135
 30
0.0
  0
POINT
  5
351
  8
DEFPOINTS
  6
BYBLOCK
 10
-27.999729
 20
-250.035141
 30
0.0
  0
ENDBLK
  5
352
  8
SIZE
  0
BLOCK
  8
SIZE
  2
*D15
 70
     1
 10
0.0
 20
0.0
 30
0.0
  3
*D15
  1

  0
TEXT
  5
355
  8
SIZE
  6
CONTINUOUS
 10
633.970251
 20
181.024857
 30
0.0
 40
2.8
  1
368
 50
90.00000499999999
 41
0.7
  7
STANDARD1
  0
LINE
  5
356
  8
SIZE
  6
CONTINUOUS
 10
355.970276
 20
367.964874
 30
0.0
 11
636.970276
 21
367.964874
 31
0.0
  0
LINE
  5
357
  8
SIZE
  6
CONTINUOUS
 10
285.970276
 20
-0.035135
 30
0.0
 11
636.970276
 21
-0.035135
 31
0.0
  0
LINE
  5
358
  8
SIZE
  6
CONTINUOUS
 10
634.970276
 20
367.964874
 30
0.0
 11
634.970276
 21
-0.035135
 31
0.0
  0
INSERT
  5
359
  8
SIZE
  2
DOT
 10
634.970276
 20
367.964874
 30
0.0
 50
90.0
  0
INSERT
  5
35A
  8
SIZE
  2
DOT
 10
634.970276
 20
-0.035135
 30
0.0
 50
270.0
  0
POINT
  5
35B
  8
DEFPOINTS
  6
BYBLOCK
 10
284.970276
 20
-0.035135
 30
0.0
  0
POINT
  5
35C
  8
DEFPOINTS
  6
BYBLOCK
 10
354.970276
 20
367.964874
 30
0.0
  0
POINT
  5
35D
  8
DEFPOINTS
  6
BYBLOCK
 10
634.970276
 20
367.964874
 30
0.0
  0
ENDBLK
  5
35E
  8
SIZE
  0
BLOCK
  8
SIZE
  2
*D16
 70
     1
 10
0.0
 20
0.0
 30
0.0
  3
*D16
  1

  0
TEXT
  5
361
  8
SIZE
  6
CONTINUOUS
 10
-251.029718
 20
-88.439575
 30
0.0
 40
2.8
  1
15
 50
90.00000499999999
 41
0.7
  7
STANDARD1
  0
LINE
  5
362
  8
SIZE
  6
CONTINUOUS
 10
-101.029732
 20
-0.035135
 30
0.0
 11
-252.029724
 21
-0.035135
 31
0.0
  0
LINE
  5
363
  8
SIZE
  6
CONTINUOUS
 10
-20.329729
 20
-15.035135
 30
0.0
 11
-252.029724
 21
-15.035135
 31
0.0
  0
LINE
  5
364
  8
SIZE
  6
CONTINUOUS
 10
-250.029724
 20
4.964865
 30
0.0
 11
-250.029724
 21
-89.839577
 31
0.0
  0
INSERT
  5
365
  8
SIZE
  2
DOT
 10
-250.029724
 20
-0.035135
 30
0.0
 50
90.0
  0
INSERT
  5
366
  8
SIZE
  2
DOT
 10
-250.029724
 20
-15.035135
 30
0.0
 50
270.0
  0
POINT
  5
367
  8
DEFPOINTS
  6
BYBLOCK
 10
-19.329729
 20
-15.035135
 30
0.0
  0
POINT
  5
368
  8
DEFPOINTS
  6
BYBLOCK
 10
-100.029732
 20
-0.035135
 30
0.0
  0
POINT
  5
369
  8
DEFPOINTS
  6
BYBLOCK
 10
-250.029724
 20
-0.035135
 30
0.0
  0
ENDBLK
  5
36A
  8
SIZE
  0
BLOCK
  8
SIZE
  2
*D17
 70
     1
 10
0.0
 20
0.0
 30
0.0
  3
*D17
  1

  0
TEXT
  5
36D
  8
SIZE
  6
CONTINUOUS
 10
40.579449
 20
-149.035147
 30
0.0
 40
2.8
  1
1
 50
0.000003
 41
0.7
  7
STANDARD1
  0
LINE
  5
36E
  8
SIZE
  6
CONTINUOUS
 10
0.67027
 20
-36.035133
 30
0.0
 11
0.67027
 21
-152.035141
 31
0.0
  0
LINE
  5
36F
  8
SIZE
  6
CONTINUOUS
 10
-0.02973
 20
13.964865
 30
0.0
 11
-0.02973
 21
-152.035141
 31
0.0
  0
LINE
  5
370
  8
SIZE
  6
CONTINUOUS
 10
43.939449
 20
-150.035141
 30
0.0
 11
-5.02973
 21
-150.035141
 31
0.0
  0
INSERT
  5
371
  8
SIZE
  2
DOT
 10
0.67027
 20
-150.035141
 30
0.0
  0
INSERT
  5
372
  8
SIZE
  2
DOT
 10
-0.02973
 20
-150.035141
 30
0.0
 50
180.0
  0
POINT
  5
373
  8
DEFPOINTS
  6
BYBLOCK
 10
-0.02973
 20
14.964865
 30
0.0
  0
POINT
  5
374
  8
DEFPOINTS
  6
BYBLOCK
 10
0.67027
 20
-35.035133
 30
0.0
  0
POINT
  5
375
  8
DEFPOINTS
  6
BYBLOCK
 10
0.67027
 20
-150.035141
 30
0.0
  0
ENDBLK
  5
376
  8
SIZE
  0
BLOCK
  8
SIZE
  2
*D18
 70
     1
 10
0.0
 20
0.0
 30
0.0
  3
*D18
  1

  0
TEXT
  5
379
  8
SIZE
  6
CONTINUOUS
 10
433.970282
 20
53.37587
 30
0.0
 40
2.8
  1
8
 50
90.00000499999999
 41
0.7
  7
STANDARD1
  0
LINE
  5
37A
  8
SIZE
  6
CONTINUOUS
 10
317.970276
 20
-0.035135
 30
0.0
 11
436.970276
 21
-0.035135
 31
0.0
  0
LINE
  5
37B
  8
SIZE
  6
CONTINUOUS
 10
317.970276
 20
7.964865
 30
0.0
 11
436.970276
 21
7.964865
 31
0.0
  0
LINE
  5
37C
  8
SIZE
  6
CONTINUOUS
 10
434.970276
 20
-5.035135
 30
0.0
 11
434.970276
 21
56.73587
 31
0.0
  0
INSERT
  5
37D
  8
SIZE
  2
DOT
 10
434.970276
 20
-0.035135
 30
0.0
 50
270.0
  0
INSERT
  5
37E
  8
SIZE
  2
DOT
 10
434.970276
 20
7.964865
 30
0.0
 50
90.0
  0
POINT
  5
37F
  8
DEFPOINTS
  6
BYBLOCK
 10
316.970276
 20
7.964865
 30
0.0
  0
POINT
  5
380
  8
DEFPOINTS
  6
BYBLOCK
 10
316.970276
 20
-0.035135
 30
0.0
  0
POINT
  5
381
  8
DEFPOINTS
  6
BYBLOCK
 10
434.970276
 20
-0.035135
 30
0.0
  0
ENDBLK
  5
382
  8
SIZE
  0
BLOCK
  8
0
  2
_ORIGIN
 70
     0
 10
0.0
 20
0.0
 30
0.0
  3
_ORIGIN
  1

  0
CIRCLE
  5
385
  8
0
  6
BYBLOCK
 62
     0
 10
0.0
 20
0.0
 30
0.0
 40
0.5
  0
LINE
  5
386
  8
0
  6
BYBLOCK
 62
     0
 10
0.0
 20
0.0
 30
0.0
 11
-1.0
 21
0.0
 31
0.0
  0
ENDBLK
  5
387
  8
0
  0
BLOCK
  8
0
  2
*D20
 70
     1
 10
0.0
 20
0.0
 30
0.0
  3
*D20
  1

  0
LINE
  5
38A
  8
0
  6
BYBLOCK
 62
     0
 10
326.970276
 20
7.964865
 30
0.0
 11
445.070276
 21
7.964865
 31
0.0
  0
LINE
  5
38B
  8
0
  6
BYBLOCK
 62
     0
 10
326.970276
 20
-0.035135
 30
0.0
 11
445.070276
 21
-0.035135
 31
0.0
  0
LINE
  5
38C
  8
0
  6
BYBLOCK
 62
     0
 10
432.570276
 20
-10.035135
 30
0.0
 11
432.570276
 21
-20.035135
 31
0.0
  0
LINE
  5
38D
  8
0
  6
BYBLOCK
 62
     0
 10
432.570276
 20
17.964865
 30
0.0
 11
432.570276
 21
74.35587
 31
0.0
  0
LINE
  5
38E
  8
0
  6
BYBLOCK
 62
     0
 10
432.570276
 20
-0.035135
 30
0.0
 11
432.570276
 21
7.964865
 31
0.0
  0
INSERT
  5
38F
  8
0
  6
BYBLOCK
 62
     0
  2
_ORIGIN
 10
432.570276
 20
-0.035135
 30
0.0
 41
10.0
 42
10.0
 43
10.0
 50
90.0
  0
INSERT
  5
390
  8
0
  6
BYBLOCK
 62
     0
  2
_ORIGIN
 10
432.570276
 20
7.964865
 30
0.0
 41
10.0
 42
10.0
 43
10.0
 50
270.0
  0
TEXT
  5
391
  8
0
  6
BYBLOCK
 62
     0
 10
422.570276
 20
39.35587
 30
0.0
 40
30.0
  1
8
 50
90.0
 72
     1
 11
422.570276
 21
54.35587
 31
0.0
  0
POINT
  5
392
  8
DEFPOINTS
  6
BYBLOCK
 62
     0
 10
316.970276
 20
7.964865
 30
0.0
  0
POINT
  5
393
  8
DEFPOINTS
  6
BYBLOCK
 62
     0
 10
316.970276
 20
-0.035135
 30
0.0
  0
POINT
  5
394
  8
DEFPOINTS
  6
BYBLOCK
 62
     0
 10
432.570276
 20
-0.035135
 30
0.0
  0
ENDBLK
  5
395
  8
0
  0
BLOCK
  8
0
  2
*D21
 70
     1
 10
0.0
 20
0.0
 30
0.0
  3
*D21
  1

  0
LINE
  5
398
  8
0
  6
BYBLOCK
 62
     0
 10
-0.02973
 20
4.964865
 30
0.0
 11
-0.02973
 21
-160.135141
 31
0.0
  0
LINE
  5
399
  8
0
  6
BYBLOCK
 62
     0
 10
0.67027
 20
-45.035133
 30
0.0
 11
0.67027
 21
-160.135141
 31
0.0
  0
LINE
  5
39A
  8
0
  6
BYBLOCK
 62
     0
 10
-10.02973
 20
-147.635141
 30
0.0
 11
-20.02973
 21
-147.635141
 31
0.0
  0
LINE
  5
39B
  8
0
  6
BYBLOCK
 62
     0
 10
10.67027
 20
-147.635141
 30
0.0
 11
56.559449
 21
-147.635141
 31
0.0
  0
LINE
  5
39C
  8
0
  6
BYBLOCK
 62
     0
 10
-0.02973
 20
-147.635141
 30
0.0
 11
0.67027
 21
-147.635141
 31
0.0
  0
INSERT
  5
39D
  8
0
  6
BYBLOCK
 62
     0
  2
_ORIGIN
 10
-0.02973
 20
-147.635141
 30
0.0
 41
10.0
 42
10.0
 43
10.0
  0
INSERT
  5
39E
  8
0
  6
BYBLOCK
 62
     0
  2
_ORIGIN
 10
0.67027
 20
-147.635141
 30
0.0
 41
10.0
 42
10.0
 43
10.0
 50
180.0
  0
TEXT
  5
39F
  8
0
  6
BYBLOCK
 62
     0
 10
31.809449
 20
-137.635141
 30
0.0
 40
30.0
  1
1
 72
     1
 11
41.559449
 21
-137.635141
 31
0.0
  0
POINT
  5
3A0
  8
DEFPOINTS
  6
BYBLOCK
 62
     0
 10
-0.02973
 20
14.964865
 30
0.0
  0
POINT
  5
3A1
  8
DEFPOINTS
  6
BYBLOCK
 62
     0
 10
0.67027
 20
-35.035133
 30
0.0
  0
POINT
  5
3A2
  8
DEFPOINTS
  6
BYBLOCK
 62
     0
 10
0.67027
 20
-147.635141
 30
0.0
  0
ENDBLK
  5
3A3
  8
0
  0
BLOCK
  8
0
  2
*D22
 70
     1
 10
0.0
 20
0.0
 30
0.0
  3
*D22
  1

  0
LINE
  5
3A6
  8
0
  6
BYBLOCK
 62
     0
 10
-29.329729
 20
-15.035135
 30
0.0
 11
-264.929724
 21
-15.035135
 31
0.0
  0
LINE
  5
3A7
  8
0
  6
BYBLOCK
 62
     0
 10
-110.029732
 20
-0.035135
 30
0.0
 11
-264.929724
 21
-0.035135
 31
0.0
  0
LINE
  5
3A8
  8
0
  6
BYBLOCK
 62
     0
 10
-252.429724
 20
9.964865
 30
0.0
 11
-252.429724
 21
19.964865
 31
0.0
  0
LINE
  5
3A9
  8
0
  6
BYBLOCK
 62
     0
 10
-252.429724
 20
-25.035135
 30
0.0
 11
-252.429724
 21
-116.479575
 31
0.0
  0
LINE
  5
3AA
  8
0
  6
BYBLOCK
 62
     0
 10
-252.429724
 20
-0.035135
 30
0.0
 11
-252.429724
 21
-15.035135
 31
0.0
  0
INSERT
  5
3AB
  8
0
  6
BYBLOCK
 62
     0
  2
_ORIGIN
 10
-252.429724
 20
-0.035135
 30
0.0
 41
10.0
 42
10.0
 43
10.0
 50
270.0
  0
INSERT
  5
3AC
  8
0
  6
BYBLOCK
 62
     0
  2
_ORIGIN
 10
-252.429724
 20
-15.035135
 30
0.0
 41
10.0
 42
10.0
 43
10.0
 50
90.0
  0
TEXT
  5
3AD
  8
0
  6
BYBLOCK
 62
     0
 10
-262.429724
 20
-111.229575
 30
0.0
 40
30.0
  1
15
 50
90.0
 72
     1
 11
-262.429724
 21
-86.479575
 31
0.0
  0
POINT
  5
3AE
  8
DEFPOINTS
  6
BYBLOCK
 62
     0
 10
-19.329729
 20
-15.035135
 30
0.0
  0
POINT
  5
3AF
  8
DEFPOINTS
  6
BYBLOCK
 62
     0
 10
-100.029732
 20
-0.035135
 30
0.0
  0
POINT
  5
3B0
  8
DEFPOINTS
  6
BYBLOCK
 62
     0
 10
-252.429724
 20
-0.035135
 30
0.0
  0
ENDBLK
  5
3B1
  8
0
  0
BLOCK
  8
0
  2
*D23
 70
     1
 10
0.0
 20
0.0
 30
0.0
  3
*D23
  1

  0
LINE
  5
3B4
  8
0
  6
BYBLOCK
 62
     0
 10
294.970276
 20
-0.035135
 30
0.0
 11
645.070276
 21
-0.035135
 31
0.0
  0
LINE
  5
3B5
  8
0
  6
BYBLOCK
 62
     0
 10
364.970276
 20
367.964874
 30
0.0
 11
645.070276
 21
367.964874
 31
0.0
  0
LINE
  5
3B6
  8
0
  6
BYBLOCK
 62
     0
 10
632.570276
 20
9.964865
 30
0.0
 11
632.570276
 21
357.964874
 31
0.0
  0
INSERT
  5
3B7
  8
0
  6
BYBLOCK
 62
     0
  2
_ORIGIN
 10
632.570276
 20
-0.035135
 30
0.0
 41
10.0
 42
10.0
 43
10.0
 50
270.0
  0
INSERT
  5
3B8
  8
0
  6
BYBLOCK
 62
     0
  2
_ORIGIN
 10
632.570276
 20
367.964874
 30
0.0
 41
10.0
 42
10.0
 43
10.0
 50
90.0
  0
TEXT
  5
3B9
  8
0
  6
BYBLOCK
 62
     0
 10
622.570276
 20
138.964859
 30
0.0
 40
30.0
  1
368
 50
90.0
 72
     1
 11
622.570276
 21
183.964859
 31
0.0
  0
POINT
  5
3BA
  8
DEFPOINTS
  6
BYBLOCK
 62
     0
 10
284.970276
 20
-0.035135
 30
0.0
  0
POINT
  5
3BB
  8
DEFPOINTS
  6
BYBLOCK
 62
     0
 10
354.970276
 20
367.964874
 30
0.0
  0
POINT
  5
3BC
  8
DEFPOINTS
  6
BYBLOCK
 62
     0
 10
632.570276
 20
367.964874
 30
0.0
  0
ENDBLK
  5
3BD
  8
0
  0
BLOCK
  8
0
  2
*D24
 70
     1
 10
0.0
 20
0.0
 30
0.0
  3
*D24
  1

  0
LINE
  5
3C0
  8
0
  6
BYBLOCK
 62
     0
 10
-0.02973
 20
-10.035135
 30
0.0
 11
-0.02973
 21
-260.135141
 31
0.0
  0
LINE
  5
3C1
  8
0
  6
BYBLOCK
 62
     0
 10
-27.999729
 20
-10.035135
 30
0.0
 11
-27.999729
 21
-260.135141
 31
0.0
  0
LINE
  5
3C2
  8
0
  6
BYBLOCK
 62
     0
 10
-37.999729
 20
-247.635141
 30
0.0
 11
-47.999729
 21
-247.635141
 31
0.0
  0
LINE
  5
3C3
  8
0
  6
BYBLOCK
 62
     0
 10
9.97027
 20
-247.635141
 30
0.0
 11
89.97027
 21
-247.635141
 31
0.0
  0
LINE
  5
3C4
  8
0
  6
BYBLOCK
 62
     0
 10
-27.999729
 20
-247.635141
 30
0.0
 11
-0.02973
 21
-247.635141
 31
0.0
  0
INSERT
  5
3C5
  8
0
  6
BYBLOCK
 62
     0
  2
_ORIGIN
 10
-27.999729
 20
-247.635141
 30
0.0
 41
10.0
 42
10.0
 43
10.0
  0
INSERT
  5
3C6
  8
0
  6
BYBLOCK
 62
     0
  2
_ORIGIN
 10
-0.02973
 20
-247.635141
 30
0.0
 41
10.0
 42
10.0
 43
10.0
 50
180.0
  0
TEXT
  5
3C7
  8
0
  6
BYBLOCK
 62
     0
 10
24.97027
 20
-237.635141
 30
0.0
 40
30.0
  1
28
 72
     1
 11
54.97027
 21
-237.635141
 31
0.0
  0
POINT
  5
3C8
  8
DEFPOINTS
  6
BYBLOCK
 62
     0
 10
-0.02973
 20
-0.035135
 30
0.0
  0
POINT
  5
3C9
  8
DEFPOINTS
  6
BYBLOCK
 62
     0
 10
-27.999729
 20
-0.035135
 30
0.0
  0
POINT
  5
3CA
  8
DEFPOINTS
  6
BYBLOCK
 62
     0
 10
-27.999729
 20
-247.635141
 30
0.0
  0
ENDBLK
  5
3CB
  8
0
  0
BLOCK
  8
0
  2
*D25
 70
     1
 10
0.0
 20
0.0
 30
0.0
  3
*D25
  1

  0
LINE
  5
3CE
  8
0
  6
BYBLOCK
 62
     0
 10
-0.02973
 20
9.964865
 30
0.0
 11
-0.02973
 21
-360.135156
 31
0.0
  0
LINE
  5
3CF
  8
0
  6
BYBLOCK
 62
     0
 10
-10.02973
 20
-30.035135
 30
0.0
 11
-10.02973
 21
-360.135156
 31
0.0
  0
LINE
  5
3D0
  8
0
  6
BYBLOCK
 62
     0
 10
9.97027
 20
-347.635156
 30
0.0
 11
19.97027
 21
-347.635156
 31
0.0
  0
LINE
  5
3D1
  8
0
  6
BYBLOCK
 62
     0
 10
-20.02973
 20
-347.635156
 30
0.0
 11
-119.543533
 21
-347.635156
 31
0.0
  0
LINE
  5
3D2
  8
0
  6
BYBLOCK
 62
     0
 10
-0.02973
 20
-347.635156
 30
0.0
 11
-10.02973
 21
-347.635156
 31
0.0
  0
INSERT
  5
3D3
  8
0
  6
BYBLOCK
 62
     0
  2
_ORIGIN
 10
-0.02973
 20
-347.635156
 30
0.0
 41
10.0
 42
10.0
 43
10.0
 50
180.0
  0
INSERT
  5
3D4
  8
0
  6
BYBLOCK
 62
     0
  2
_ORIGIN
 10
-10.02973
 20
-347.635156
 30
0.0
 41
10.0
 42
10.0
 43
10.0
  0
TEXT
  5
3D5
  8
0
  6
BYBLOCK
 62
     0
 10
-114.243533
 20
-337.635156
 30
0.0
 40
30.0
  1
10
 72
     1
 11
-92.043533
 21
-337.635156
 31
0.0
  0
POINT
  5
3D6
  8
DEFPOINTS
  6
BYBLOCK
 62
     0
 10
-0.02973
 20
19.964865
 30
0.0
  0
POINT
  5
3D7
  8
DEFPOINTS
  6
BYBLOCK
 62
     0
 10
-10.02973
 20
-20.035135
 30
0.0
  0
POINT
  5
3D8
  8
DEFPOINTS
  6
BYBLOCK
 62
     0
 10
-10.02973
 20
-347.635156
 30
0.0
  0
ENDBLK
  5
3D9
  8
0
  0
BLOCK
  8
0
  2
*D26
 70
     1
 10
0.0
 20
0.0
 30
0.0
  3
*D26
  1

  0
LINE
  5
3DC
  8
0
  6
BYBLOCK
 62
     0
 10
494.970276
 20
-0.035135
 30
0.0
 11
745.070276
 21
-0.035135
 31
0.0
  0
LINE
  5
3DD
  8
0
  6
BYBLOCK
 62
     0
 10
494.970276
 20
737.964844
 30
0.0
 11
745.070276
 21
737.964844
 31
0.0
  0
LINE
  5
3DE
  8
0
  6
BYBLOCK
 62
     0
 10
732.570276
 20
9.964865
 30
0.0
 11
732.570276
 21
727.964844
 31
0.0
  0
INSERT
  5
3DF
  8
0
  6
BYBLOCK
 62
     0
  2
_ORIGIN
 10
732.570276
 20
-0.035135
 30
0.0
 41
10.0
 42
10.0
 43
10.0
 50
270.0
  0
INSERT
  5
3E0
  8
0
  6
BYBLOCK
 62
     0
  2
_ORIGIN
 10
732.570276
 20
737.964844
 30
0.0
 41
10.0
 42
10.0
 43
10.0
 50
90.0
  0
TEXT
  5
3E1
  8
0
  6
BYBLOCK
 62
     0
 10
722.570276
 20
323.964874
 30
0.0
 40
30.0
  1
738
 50
90.0
 72
     1
 11
722.570276
 21
368.964874
 31
0.0
  0
POINT
  5
3E2
  8
DEFPOINTS
  6
BYBLOCK
 62
     0
 10
484.970276
 20
-0.035135
 30
0.0
  0
POINT
  5
3E3
  8
DEFPOINTS
  6
BYBLOCK
 62
     0
 10
484.970276
 20
737.964844
 30
0.0
  0
POINT
  5
3E4
  8
DEFPOINTS
  6
BYBLOCK
 62
     0
 10
732.570276
 20
737.964844
 30
0.0
  0
ENDBLK
  5
3E5
  8
0
  0
BLOCK
  8
0
  2
*D27
 70
     1
 10
0.0
 20
0.0
 30
0.0
  3
*D27
  1

  0
LINE
  5
3E8
  8
0
  6
BYBLOCK
 62
     0
 10
-110.029732
 20
-0.035135
 30
0.0
 11
-414.929724
 21
-0.035135
 31
0.0
  0
LINE
  5
3E9
  8
0
  6
BYBLOCK
 62
     0
 10
-110.029732
 20
737.964844
 30
0.0
 11
-414.929724
 21
737.964844
 31
0.0
  0
LINE
  5
3EA
  8
0
  6
BYBLOCK
 62
     0
 10
-402.429724
 20
9.964865
 30
0.0
 11
-402.429724
 21
727.964844
 31
0.0
  0
INSERT
  5
3EB
  8
0
  6
BYBLOCK
 62
     0
  2
_ORIGIN
 10
-402.429724
 20
-0.035135
 30
0.0
 41
10.0
 42
10.0
 43
10.0
 50
270.0
  0
INSERT
  5
3EC
  8
0
  6
BYBLOCK
 62
     0
  2
_ORIGIN
 10
-402.429724
 20
737.964844
 30
0.0
 41
10.0
 42
10.0
 43
10.0
 50
90.0
  0
TEXT
  5
3ED
  8
0
  6
BYBLOCK
 62
     0
 10
-412.429724
 20
323.964874
 30
0.0
 40
30.0
  1
738
 50
90.0
 72
     1
 11
-412.429724
 21
368.964874
 31
0.0
  0
POINT
  5
3EE
  8
DEFPOINTS
  6
BYBLOCK
 62
     0
 10
-100.029732
 20
-0.035135
 30
0.0
  0
POINT
  5
3EF
  8
DEFPOINTS
  6
BYBLOCK
 62
     0
 10
-100.029732
 20
737.964844
 30
0.0
  0
POINT
  5
3F0
  8
DEFPOINTS
  6
BYBLOCK
 62
     0
 10
-402.429724
 20
737.964844
 30
0.0
  0
ENDBLK
  5
3F1
  8
0
  0
BLOCK
  8
0
  2
*D28
 70
     1
 10
0.0
 20
0.0
 30
0.0
  3
*D28
  1

  0
LINE
  5
3F4
  8
0
  6
BYBLOCK
 62
     0
 10
-10.02973
 20
637.964844
 30
0.0
 11
-264.929724
 21
637.964844
 31
0.0
  0
LINE
  5
3F5
  8
0
  6
BYBLOCK
 62
     0
 10
-110.029732
 20
737.964844
 30
0.0
 11
-264.929724
 21
737.964844
 31
0.0
  0
LINE
  5
3F6
  8
0
  6
BYBLOCK
 62
     0
 10
-252.429724
 20
647.964844
 30
0.0
 11
-252.429724
 21
727.964844
 31
0.0
  0
INSERT
  5
3F7
  8
0
  6
BYBLOCK
 62
     0
  2
_ORIGIN
 10
-252.429724
 20
637.964844
 30
0.0
 41
10.0
 42
10.0
 43
10.0
 50
270.0
  0
INSERT
  5
3F8
  8
0
  6
BYBLOCK
 62
     0
  2
_ORIGIN
 10
-252.429724
 20
737.964844
 30
0.0
 41
10.0
 42
10.0
 43
10.0
 50
90.0
  0
TEXT
  5
3F9
  8
0
  6
BYBLOCK
 62
     0
 10
-262.429724
 20
653.314844
 30
0.0
 40
30.0
  1
100
 50
90.0
 72
     1
 11
-262.429724
 21
687.964844
 31
0.0
  0
POINT
  5
3FA
  8
DEFPOINTS
  6
BYBLOCK
 62
     0
 10
-0.02973
 20
637.964844
 30
0.0
  0
POINT
  5
3FB
  8
DEFPOINTS
  6
BYBLOCK
 62
     0
 10
-100.029732
 20
737.964844
 30
0.0
  0
POINT
  5
3FC
  8
DEFPOINTS
  6
BYBLOCK
 62
     0
 10
-252.429724
 20
737.964844
 30
0.0
  0
ENDBLK
  5
3FD
  8
0
  0
BLOCK
  8
0
  2
*D29
 70
     1
 10
0.0
 20
0.0
 30
0.0
  3
*D29
  1

  0
LINE
  5
400
  8
0
  6
BYBLOCK
 62
     0
 10
-100.029732
 20
747.964844
 30
0.0
 11
-100.029732
 21
1002.864844
 31
0.0
  0
LINE
  5
401
  8
0
  6
BYBLOCK
 62
     0
 10
-0.02973
 20
747.964844
 30
0.0
 11
-0.02973
 21
1002.864844
 31
0.0
  0
LINE
  5
402
  8
0
  6
BYBLOCK
 62
     0
 10
-90.029732
 20
990.364844
 30
0.0
 11
-10.02973
 21
990.364844
 31
0.0
  0
INSERT
  5
403
  8
0
  6
BYBLOCK
 62
     0
  2
_ORIGIN
 10
-100.029732
 20
990.364844
 30
0.0
 41
10.0
 42
10.0
 43
10.0
 50
180.0
  0
INSERT
  5
404
  8
0
  6
BYBLOCK
 62
     0
  2
_ORIGIN
 10
-0.02973
 20
990.364844
 30
0.0
 41
10.0
 42
10.0
 43
10.0
  0
TEXT
  5
405
  8
0
  6
BYBLOCK
 62
     0
 10
-84.679732
 20
1000.364844
 30
0.0
 40
30.0
  1
100
 72
     1
 11
-50.029732
 21
1000.364844
 31
0.0
  0
POINT
  5
406
  8
DEFPOINTS
  6
BYBLOCK
 62
     0
 10
-100.029732
 20
737.964844
 30
0.0
  0
POINT
  5
407
  8
DEFPOINTS
  6
BYBLOCK
 62
     0
 10
-0.02973
 20
737.964844
 30
0.0
  0
POINT
  5
408
  8
DEFPOINTS
  6
BYBLOCK
 62
     0
 10
-0.02973
 20
990.364844
 30
0.0
  0
ENDBLK
  5
409
  8
0
  0
BLOCK
  8
0
  2
*D30
 70
     1
 10
0.0
 20
0.0
 30
0.0
  3
*D30
  1

  0
LINE
  5
40C
  8
0
  6
BYBLOCK
 62
     0
 10
484.970276
 20
747.964844
 30
0.0
 11
484.970276
 21
1002.864844
 31
0.0
  0
LINE
  5
40D
  8
0
  6
BYBLOCK
 62
     0
 10
284.970276
 20
747.964844
 30
0.0
 11
284.970276
 21
1002.864844
 31
0.0
  0
LINE
  5
40E
  8
0
  6
BYBLOCK
 62
     0
 10
474.970276
 20
990.364844
 30
0.0
 11
294.970276
 21
990.364844
 31
0.0
  0
INSERT
  5
40F
  8
0
  6
BYBLOCK
 62
     0
  2
_ORIGIN
 10
484.970276
 20
990.364844
 30
0.0
 41
10.0
 42
10.0
 43
10.0
  0
INSERT
  5
410
  8
0
  6
BYBLOCK
 62
     0
  2
_ORIGIN
 10
284.970276
 20
990.364844
 30
0.0
 41
10.0
 42
10.0
 43
10.0
 50
180.0
  0
TEXT
  5
411
  8
0
  6
BYBLOCK
 62
     0
 10
345.070276
 20
1000.364844
 30
0.0
 40
30.0
  1
200
 72
     1
 11
384.970276
 21
1000.364844
 31
0.0
  0
POINT
  5
412
  8
DEFPOINTS
  6
BYBLOCK
 62
     0
 10
484.970276
 20
737.964844
 30
0.0
  0
POINT
  5
413
  8
DEFPOINTS
  6
BYBLOCK
 62
     0
 10
284.970276
 20
737.964844
 30
0.0
  0
POINT
  5
414
  8
DEFPOINTS
  6
BYBLOCK
 62
     0
 10
284.970276
 20
990.364844
 30
0.0
  0
ENDBLK
  5
415
  8
0
  0
BLOCK
  8
0
  2
*D31
 70
     1
 10
0.0
 20
0.0
 30
0.0
  3
*D31
  1

  0
LINE
  5
418
  8
0
  6
BYBLOCK
 62
     0
 10
284.970276
 20
747.964844
 30
0.0
 11
284.970276
 21
1002.864844
 31
0.0
  0
LINE
  5
419
  8
0
  6
BYBLOCK
 62
     0
 10
-0.02973
 20
747.964844
 30
0.0
 11
-0.02973
 21
1002.864844
 31
0.0
  0
LINE
  5
41A
  8
0
  6
BYBLOCK
 62
     0
 10
274.970276
 20
990.364844
 30
0.0
 11
9.97027
 21
990.364844
 31
0.0
  0
INSERT
  5
41B
  8
0
  6
BYBLOCK
 62
     0
  2
_ORIGIN
 10
284.970276
 20
990.364844
 30
0.0
 41
10.0
 42
10.0
 43
10.0
  0
INSERT
  5
41C
  8
0
  6
BYBLOCK
 62
     0
  2
_ORIGIN
 10
-0.02973
 20
990.364844
 30
0.0
 41
10.0
 42
10.0
 43
10.0
 50
180.0
  0
TEXT
  5
41D
  8
0
  6
BYBLOCK
 62
     0
 10
97.470276
 20
1000.364844
 30
0.0
 40
30.0
  1
285
 72
     1
 11
142.470276
 21
1000.364844
 31
0.0
  0
POINT
  5
41E
  8
DEFPOINTS
  6
BYBLOCK
 62
     0
 10
284.970276
 20
737.964844
 30
0.0
  0
POINT
  5
41F
  8
DEFPOINTS
  6
BYBLOCK
 62
     0
 10
-0.02973
 20
737.964844
 30
0.0
  0
POINT
  5
420
  8
DEFPOINTS
  6
BYBLOCK
 62
     0
 10
-0.02973
 20
990.364844
 30
0.0
  0
ENDBLK
  5
421
  8
0
  0
BLOCK
  8
0
  2
*D32
 70
     1
 10
0.0
 20
0.0
 30
0.0
  3
*D32
  1

  0
LINE
  5
424
  8
0
  6
BYBLOCK
 62
     0
 10
-0.02973
 20
642.964844
 30
0.0
 11
-0.02973
 21
852.864844
 31
0.0
  0
LINE
  5
425
  8
0
  6
BYBLOCK
 62
     0
 10
-16.02973
 20
607.964844
 30
0.0
 11
-16.02973
 21
852.864844
 31
0.0
  0
LINE
  5
426
  8
0
  6
BYBLOCK
 62
     0
 10
-26.02973
 20
840.364844
 30
0.0
 11
-36.02973
 21
840.364844
 31
0.0
  0
LINE
  5
427
  8
0
  6
BYBLOCK
 62
     0
 10
9.97027
 20
840.364844
 30
0.0
 11
83.300205
 21
840.364844
 31
0.0
  0
LINE
  5
428
  8
0
  6
BYBLOCK
 62
     0
 10
-16.02973
 20
840.364844
 30
0.0
 11
-0.02973
 21
840.364844
 31
0.0
  0
INSERT
  5
429
  8
0
  6
BYBLOCK
 62
     0
  2
_ORIGIN
 10
-16.02973
 20
840.364844
 30
0.0
 41
10.0
 42
10.0
 43
10.0
  0
INSERT
  5
42A
  8
0
  6
BYBLOCK
 62
     0
  2
_ORIGIN
 10
-0.02973
 20
840.364844
 30
0.0
 41
10.0
 42
10.0
 43
10.0
 50
180.0
  0
TEXT
  5
42B
  8
0
  6
BYBLOCK
 62
     0
 10
28.550205
 20
850.364844
 30
0.0
 40
30.0
  1
16
 72
     1
 11
53.300205
 21
850.364844
 31
0.0
  0
POINT
  5
42C
  8
DEFPOINTS
  6
BYBLOCK
 62
     0
 10
-0.02973
 20
632.964844
 30
0.0
  0
POINT
  5
42D
  8
DEFPOINTS
  6
BYBLOCK
 62
     0
 10
-16.02973
 20
597.964844
 30
0.0
  0
POINT
  5
42E
  8
DEFPOINTS
  6
BYBLOCK
 62
     0
 10
-16.02973
 20
840.364844
 30
0.0
  0
ENDBLK
  5
42F
  8
0
  0
BLOCK
  8
0
  2
*D33
 70
     1
 10
0.0
 20
0.0
 30
0.0
  3
*D33
  1

  0
LINE
  5
432
  8
0
  6
BYBLOCK
 62
     0
 10
316.970276
 20
-10.035135
 30
0.0
 11
316.970276
 21
-560.135156
 31
0.0
  0
LINE
  5
433
  8
0
  6
BYBLOCK
 62
     0
 10
-28.02973
 20
-8.035135
 30
0.0
 11
-28.02973
 21
-560.135156
 31
0.0
  0
LINE
  5
434
  8
0
  6
BYBLOCK
 62
     0
 10
306.970276
 20
-547.635156
 30
0.0
 11
-18.02973
 21
-547.635156
 31
0.0
  0
INSERT
  5
435
  8
0
  6
BYBLOCK
 62
     0
  2
_ORIGIN
 10
316.970276
 20
-547.635156
 30
0.0
 41
10.0
 42
10.0
 43
10.0
  0
INSERT
  5
436
  8
0
  6
BYBLOCK
 62
     0
  2
_ORIGIN
 10
-28.02973
 20
-547.635156
 30
0.0
 41
10.0
 42
10.0
 43
10.0
 50
180.0
  0
TEXT
  5
437
  8
0
  6
BYBLOCK
 62
     0
 10
101.643951
 20
-537.635156
 30
0.0
 40
30.0
  1
345
 72
     1
 11
146.643951
 21
-537.635156
 31
0.0
  0
POINT
  5
438
  8
DEFPOINTS
  6
BYBLOCK
 62
     0
 10
316.970276
 20
-0.035135
 30
0.0
  0
POINT
  5
439
  8
DEFPOINTS
  6
BYBLOCK
 62
     0
 10
-28.02973
 20
1.964865
 30
0.0
  0
POINT
  5
43A
  8
DEFPOINTS
  6
BYBLOCK
 62
     0
 10
-28.02973
 20
-547.635156
 30
0.0
  0
ENDBLK
  5
43B
  8
0
  0
BLOCK
  8
0
  2
*D34
 70
     1
 10
0.0
 20
0.0
 30
0.0
  3
*D34
  1

  0
LINE
  5
43E
  8
0
  6
BYBLOCK
 62
     0
 10
-0.029728
 20
9.964865
 30
0.0
 11
-0.029728
 21
-360.135156
 31
0.0
  0
LINE
  5
43F
  8
0
  6
BYBLOCK
 62
     0
 10
284.970276
 20
-10.035135
 30
0.0
 11
284.970276
 21
-360.135156
 31
0.0
  0
LINE
  5
440
  8
0
  6
BYBLOCK
 62
     0
 10
9.970272
 20
-347.635156
 30
0.0
 11
274.970276
 21
-347.635156
 31
0.0
  0
INSERT
  5
441
  8
0
  6
BYBLOCK
 62
     0
  2
_ORIGIN
 10
-0.029728
 20
-347.635156
 30
0.0
 41
10.0
 42
10.0
 43
10.0
 50
180.0
  0
INSERT
  5
442
  8
0
  6
BYBLOCK
 62
     0
  2
_ORIGIN
 10
284.970276
 20
-347.635156
 30
0.0
 41
10.0
 42
10.0
 43
10.0
  0
TEXT
  5
443
  8
0
  6
BYBLOCK
 62
     0
 10
97.470276
 20
-337.635156
 30
0.0
 40
30.0
  1
285
 72
     1
 11
142.470276
 21
-337.635156
 31
0.0
  0
POINT
  5
444
  8
DEFPOINTS
  6
BYBLOCK
 62
     0
 10
-0.029728
 20
19.964865
 30
0.0
  0
POINT
  5
445
  8
DEFPOINTS
  6
BYBLOCK
 62
     0
 10
284.970276
 20
-0.035135
 30
0.0
  0
POINT
  5
446
  8
DEFPOINTS
  6
BYBLOCK
 62
     0
 10
284.970276
 20
-347.635156
 30
0.0
  0
ENDBLK
  5
447
  8
0
  0
BLOCK
  8
0
  2
*D35
 70
     1
 10
0.0
 20
0.0
 30
0.0
  3
*D35
  1

  0
LINE
  5
44A
  8
0
  6
BYBLOCK
 62
     0
 10
304.970276
 20
601.964844
 30
0.0
 11
304.970276
 21
852.864844
 31
0.0
  0
LINE
  5
44B
  8
0
  6
BYBLOCK
 62
     0
 10
284.970276
 20
9.964865
 30
0.0
 11
284.970276
 21
852.864844
 31
0.0
  0
LINE
  5
44C
  8
0
  6
BYBLOCK
 62
     0
 10
274.970276
 20
840.364844
 30
0.0
 11
264.970276
 21
840.364844
 31
0.0
  0
LINE
  5
44D
  8
0
  6
BYBLOCK
 62
     0
 10
314.970276
 20
840.364844
 30
0.0
 11
390.092285
 21
840.364844
 31
0.0
  0
LINE
  5
44E
  8
0
  6
BYBLOCK
 62
     0
 10
284.970276
 20
840.364844
 30
0.0
 11
304.970276
 21
840.364844
 31
0.0
  0
INSERT
  5
44F
  8
0
  6
BYBLOCK
 62
     0
  2
_ORIGIN
 10
284.970276
 20
840.364844
 30
0.0
 41
10.0
 42
10.0
 43
10.0
  0
INSERT
  5
450
  8
0
  6
BYBLOCK
 62
     0
  2
_ORIGIN
 10
304.970276
 20
840.364844
 30
0.0
 41
10.0
 42
10.0
 43
10.0
 50
180.0
  0
TEXT
  5
451
  8
0
  6
BYBLOCK
 62
     0
 10
330.142285
 20
850.364844
 30
0.0
 40
30.0
  1
20
 72
     1
 11
357.592285
 21
850.364844
 31
0.0
  0
POINT
  5
452
  8
DEFPOINTS
  6
BYBLOCK
 62
     0
 10
304.970276
 20
591.964844
 30
0.0
  0
POINT
  5
453
  8
DEFPOINTS
  6
BYBLOCK
 62
     0
 10
284.970276
 20
-0.035135
 30
0.0
  0
POINT
  5
454
  8
DEFPOINTS
  6
BYBLOCK
 62
     0
 10
284.970276
 20
840.364844
 30
0.0
  0
ENDBLK
  5
455
  8
0
  0
BLOCK
  8
0
  2
*D36
 70
     1
 10
0.0
 20
0.0
 30
0.0
  3
*D36
  1

  0
LINE
  5
458
  8
0
  6
BYBLOCK
 62
     0
 10
-110.029732
 20
-0.035135
 30
0.0
 11
-264.929724
 21
-0.035135
 31
0.0
  0
LINE
  5
459
  8
0
  6
BYBLOCK
 62
     0
 10
-10.02973
 20
637.964844
 30
0.0
 11
-264.929724
 21
637.964844
 31
0.0
  0
LINE
  5
45A
  8
0
  6
BYBLOCK
 62
     0
 10
-252.429724
 20
9.964865
 30
0.0
 11
-252.429724
 21
627.964844
 31
0.0
  0
INSERT
  5
45B
  8
0
  6
BYBLOCK
 62
     0
  2
_ORIGIN
 10
-252.429724
 20
-0.035135
 30
0.0
 41
10.0
 42
10.0
 43
10.0
 50
270.0
  0
INSERT
  5
45C
  8
0
  6
BYBLOCK
 62
     0
  2
_ORIGIN
 10
-252.429724
 20
637.964844
 30
0.0
 41
10.0
 42
10.0
 43
10.0
 50
90.0
  0
TEXT
  5
45D
  8
0
  6
BYBLOCK
 62
     0
 10
-262.429724
 20
273.964874
 30
0.0
 40
30.0
  1
638
 50
90.0
 72
     1
 11
-262.429724
 21
318.964874
 31
0.0
  0
POINT
  5
45E
  8
DEFPOINTS
  6
BYBLOCK
 62
     0
 10
-100.029732
 20
-0.035135
 30
0.0
  0
POINT
  5
45F
  8
DEFPOINTS
  6
BYBLOCK
 62
     0
 10
-0.02973
 20
637.964844
 30
0.0
  0
POINT
  5
460
  8
DEFPOINTS
  6
BYBLOCK
 62
     0
 10
-252.429724
 20
637.964844
 30
0.0
  0
ENDBLK
  5
461
  8
0
  0
BLOCK
  8
0
  2
*D37
 70
     1
 10
0.0
 20
0.0
 30
0.0
  3
*D37
  1

  0
LINE
  5
464
  8
0
  6
BYBLOCK
 62
     0
 10
-10.02973
 20
-30.035135
 30
0.0
 11
-10.02973
 21
-460.135156
 31
0.0
  0
LINE
  5
465
  8
0
  6
BYBLOCK
 62
     0
 10
304.970276
 20
-30.035135
 30
0.0
 11
304.970276
 21
-460.135156
 31
0.0
  0
LINE
  5
466
  8
0
  6
BYBLOCK
 62
     0
 10
-0.02973
 20
-447.635156
 30
0.0
 11
294.970276
 21
-447.635156
 31
0.0
  0
INSERT
  5
467
  8
0
  6
BYBLOCK
 62
     0
  2
_ORIGIN
 10
-10.02973
 20
-447.635156
 30
0.0
 41
10.0
 42
10.0
 43
10.0
 50
180.0
  0
INSERT
  5
468
  8
0
  6
BYBLOCK
 62
     0
  2
_ORIGIN
 10
304.970276
 20
-447.635156
 30
0.0
 41
10.0
 42
10.0
 43
10.0
  0
TEXT
  5
469
  8
0
  6
BYBLOCK
 62
     0
 10
107.720261
 20
-437.635156
 30
0.0
 40
30.0
  1
315
 72
     1
 11
147.470261
 21
-437.635156
 31
0.0
  0
POINT
  5
46A
  8
DEFPOINTS
  6
BYBLOCK
 62
     0
 10
-10.02973
 20
-20.035135
 30
0.0
  0
POINT
  5
46B
  8
DEFPOINTS
  6
BYBLOCK
 62
     0
 10
304.970276
 20
-20.035135
 30
0.0
  0
POINT
  5
46C
  8
DEFPOINTS
  6
BYBLOCK
 62
     0
 10
304.970276
 20
-447.635156
 30
0.0
  0
ENDBLK
  5
46D
  8
0
  0
ENDSEC
  0
SECTION
  2
ENTITIES
  0
LINE
  5
46E
  8
OUTLINE
  6
CONTINUOUS
 10
278.035899
 20
8.0
 30
0.0
 11
271.107695
 21
20.0
 31
0.0
  0
LINE
  5
46F
  8
OUTLINE
  6
CONTINUOUS
 10
6.964102
 20
8.0
 30
0.0
 11
13.892305
 21
20.0
 31
0.0
  0
LINE
  5
470
  8
OUTLINE
  6
CONTINUOUS
 10
317.0
 20
8.0
 30
0.0
 11
317.0
 21
0.0
 31
0.0
  0
LINE
  5
471
  8
OUTLINE
  6
CONTINUOUS
 10
-28.0
 20
8.0
 30
0.0
 11
-28.0
 21
0.0
 31
0.0
  0
LINE
  5
472
  8
OUTLINE
  6
CONTINUOUS
 10
-28.0
 20
0.0
 30
0.0
 11
317.0
 21
0.0
 31
0.0
  0
LINE
  5
473
  8
OUTLINE
  6
CONTINUOUS
 10
285.0
 20
20.0
 30
0.0
 11
0.0
 21
20.0
 31
0.0
  0
ARC
  5
474
  8
OUTLINE
  6
CONTINUOUS
 10
280.0
 20
633.0
 30
0.0
 40
5.0
 50
0.0
 51
90.0
  0
LINE
  5
475
  8
OUTLINE
  6
CONTINUOUS
 10
285.0
 20
633.0
 30
0.0
 11
285.0
 21
20.0
 31
0.0
  0
LINE
  5
476
  8
OUTLINE
  6
CONTINUOUS
 10
280.0
 20
638.0
 30
0.0
 11
5.0
 21
638.0
 31
0.0
  0
LINE
  5
477
  8
OUTLINE
  6
CONTINUOUS
 10
0.0
 20
20.0
 30
0.0
 11
0.0
 21
633.0
 31
0.0
  0
ARC
  5
478
  8
OUTLINE
  6
CONTINUOUS
 10
5.0
 20
633.0
 30
0.0
 40
5.0
 50
90.0
 51
180.0
  0
LINE
  5
479
  8
OUTLINE
  6
CONTINUOUS
 10
-16.0
 20
598.0
 30
0.0
 11
0.0
 21
598.0
 31
0.0
  0
LINE
  5
47A
  8
OUTLINE
  6
CONTINUOUS
 10
-16.0
 20
548.0
 30
0.0
 11
-16.0
 21
598.0
 31
0.0
  0
LINE
  5
47B
  8
OUTLINE
  6
CONTINUOUS
 10
-16.0
 20
548.0
 30
0.0
 11
0.0
 21
548.0
 31
0.0
  0
LINE
  5
47C
  8
OUTLINE
  6
CONTINUOUS
 10
-16.0
 20
548.0
 30
0.0
 11
0.0
 21
548.0
 31
0.0
  0
LINE
  5
47D
  8
OUTLINE
  6
CONTINUOUS
 10
-28.0
 20
8.0
 30
0.0
 11
317.0
 21
8.0
 31
0.0
  0
LINE
  5
47E
  8
DETAIL
  6
CONTINUOUS
 10
6.964102
 20
8.0
 30
0.0
 11
13.892305
 21
20.0
 31
0.0
  0
ARC
  5
47F
  8
DETAIL
  6
CONTINUOUS
 10
5.0
 20
633.0
 30
0.0
 40
5.0
 50
90.0
 51
180.0
  0
LINE
  5
480
  8
DETAIL
  6
CONTINUOUS
 10
0.0
 20
20.0
 30
0.0
 11
0.0
 21
633.0
 31
0.0
  0
LINE
  5
481
  8
DETAIL
  6
CONTINUOUS
 10
305.0
 20
144.0
 30
0.0
 11
305.0
 21
592.0
 31
0.0
  0
LINE
  5
482
  8
DETAIL
  6
CONTINUOUS
 10
285.0
 20
592.0
 30
0.0
 11
305.0
 21
592.0
 31
0.0
  0
LINE
  5
483
  8
DETAIL
  6
CONTINUOUS
 10
285.0
 20
144.0
 30
0.0
 11
305.0
 21
144.0
 31
0.0
  0
LINE
  5
484
  8
DETAIL
  6
CONTINUOUS
 10
-27.97
 20
0.0
 30
0.0
 11
317.0
 21
0.0
 31
0.0
  0
LINE
  5
485
  8
DETAIL
  6
CONTINUOUS
 10
280.0
 20
638.0
 30
0.0
 11
5.0
 21
638.0
 31
0.0
  0
LINE
  5
486
  8
DETAIL
  6
CONTINUOUS
 10
-27.97
 20
8.0
 30
0.0
 11
-27.97
 21
0.0
 31
0.0
  0
LINE
  5
487
  8
DETAIL
  6
CONTINUOUS
 10
317.0
 20
8.0
 30
0.0
 11
317.0
 21
0.0
 31
0.0
  0
LINE
  5
488
  8
DETAIL
  6
CONTINUOUS
 10
285.0
 20
633.0
 30
0.0
 11
285.0
 21
20.0
 31
0.0
  0
LINE
  5
489
  8
DETAIL
  6
CONTINUOUS
 10
285.0
 20
20.0
 30
0.0
 11
0.0
 21
20.0
 31
0.0
  0
LINE
  5
48A
  8
DETAIL
  6
CONTINUOUS
 10
-27.97
 20
8.0
 30
0.0
 11
317.0
 21
8.0
 31
0.0
  0
ARC
  5
48B
  8
DETAIL
  6
CONTINUOUS
 10
280.0
 20
633.0
 30
0.0
 40
5.0
 50
0.0
 51
90.0
  0
LINE
  5
48C
  8
DETAIL
  6
CONTINUOUS
 10
285.0
 20
613.0
 30
0.0
 11
0.0
 21
613.0
 31
0.0
  0
LINE
  5
48D
  8
DETAIL
  6
CONTINUOUS
 10
278.035899
 20
8.0
 30
0.0
 11
271.107695
 21
20.0
 31
0.0
  0
LINE
  5
48E
  8
DETAIL
  6
CONTINUOUS
 10
-16.0
 20
548.0
 30
0.0
 11
0.0
 21
548.0
 31
0.0
  0
LINE
  5
48F
  8
DETAIL
  6
CONTINUOUS
 10
-16.0
 20
598.0
 30
0.0
 11
0.0
 21
598.0
 31
0.0
  0
LINE
  5
490
  8
DETAIL
  6
CONTINUOUS
 10
-16.0
 20
548.0
 30
0.0
 11
-16.0
 21
598.0
 31
0.0
  0
LINE
  5
491
  8
DETAIL
  6
CONTINUOUS
 10
178.0
 20
603.0
 30
0.0
 11
113.0
 21
603.0
 31
0.0
  0
LINE
  5
492
  8
DETAIL
  6
CONTINUOUS
 10
103.0
 20
613.0
 30
0.0
 11
113.0
 21
603.0
 31
0.0
  0
LINE
  5
493
  8
DETAIL
  6
CONTINUOUS
 10
188.0
 20
613.0
 30
0.0
 11
178.0
 21
603.0
 31
0.0
  0
LINE
  5
494
  8
DETAIL
  6
CONTINUOUS
 10
37.714965
 20
-5.823678999999999
 30
0.0
 11
37.714965
 21
0.0
 31
0.0
  0
LINE
  5
495
  8
DETAIL
  6
CONTINUOUS
 10
37.714965
 20
-5.823678999999999
 30
0.0
 11
0.7235360000000001
 21
-7.056727
 31
0.0
  0
LINE
  5
496
  8
DETAIL
  6
CONTINUOUS
 10
49.464965
 20
-20.932013
 30
0.0
 11
49.464965
 21
0.0
 31
0.0
  0
LINE
  5
497
  8
DETAIL
  6
CONTINUOUS
 10
49.464965
 20
-20.932013
 30
0.0
 11
0.7235360000000001
 21
-22.556727
 31
0.0
  0
LINE
  5
498
  8
DETAIL
  6
CONTINUOUS
 10
0.7235360000000001
 20
-7.056727
 30
0.0
 11
0.7235360000000001
 21
-22.556727
 31
0.0
  0
LINE
  5
499
  8
BASIS
  6
DASHDOT
 10
235.0
 20
368.0
 30
0.0
 11
355.0
 21
368.0
 31
0.0
  0
LINE
  5
49A
  8
SIZE
  6
CONTINUOUS
 62
    30
 10
-10.0
 20
-30.0
 30
0.0
 11
-10.0
 21
-460.100021
 31
0.0
  0
LINE
  5
49B
  8
SIZE
  6
CONTINUOUS
 62
    30
 10
305.000006
 20
-30.0
 30
0.0
 11
305.000006
 21
-460.100021
 31
0.0
  0
LINE
  5
49C
  8
SIZE
  6
CONTINUOUS
 62
    30
 10
0.0
 20
-447.600021
 30
0.0
 11
295.000006
 21
-447.600021
 31
0.0
  0
CIRCLE
  5
49D
  8
SIZE
  6
CONTINUOUS
 62
    30
 10
-10.0
 20
-447.600021
 30
0.0
 40
5.0
  0
LINE
  5
49E
  8
SIZE
  6
CONTINUOUS
 62
    30
 10
-10.0
 20
-447.600021
 30
0.0
 11
0.0
 21
-447.600021
 31
0.0
  0
CIRCLE
  5
49F
  8
SIZE
  6
CONTINUOUS
 62
    30
 10
305.000006
 20
-447.600021
 30
0.0
 40
5.0
  0
LINE
  5
4A0
  8
SIZE
  6
CONTINUOUS
 62
    30
 10
305.000006
 20
-447.600021
 30
0.0
 11
295.000006
 21
-447.600021
 31
0.0
  0
TEXT
  5
4A1
  8
SIZE
  6
CONTINUOUS
 62
    30
 10
104.6428481428571
 20
-437.600021
 30
0.0
 40
30.0
  1
315
 72
     1
 11
147.499991
 21
-437.600021
 31
0.0
  0
POINT
  5
4A2
  8
DEFPOINTS
  6
CONTINUOUS
 62
    30
 10
-10.0
 20
-20.0
 30
0.0
  0
POINT
  5
4A3
  8
DEFPOINTS
  6
CONTINUOUS
 62
    30
 10
305.000006
 20
-20.0
 30
0.0
  0
POINT
  5
4A4
  8
DEFPOINTS
  6
CONTINUOUS
 62
    30
 10
305.000006
 20
-447.600021
 30
0.0
  0
LINE
  5
4A5
  8
SIZE
  6
CONTINUOUS
 62
    30
 10
-110.000002
 20
0.0
 30
0.0
 11
-264.899994
 21
0.0
 31
0.0
  0
LINE
  5
4A6
  8
SIZE
  6
CONTINUOUS
 62
    30
 10
-10.0
 20
637.9999789999999
 30
0.0
 11
-264.899994
 21
637.9999789999999
 31
0.0
  0
LINE
  5
4A7
  8
SIZE
  6
CONTINUOUS
 62
    30
 10
-252.399994
 20
10.0
 30
0.0
 11
-252.399994
 21
627.9999789999999
 31
0.0
  0
CIRCLE
  5
4A8
  8
SIZE
  6
CONTINUOUS
 62
    30
 10
-252.399994
 20
0.0
 30
0.0
 40
5.0
  0
LINE
  5
4A9
  8
SIZE
  6
CONTINUOUS
 62
    30
 10
-252.399994
 20
0.0
 30
0.0
 11
-252.399994
 21
10.0
 31
0.0
  0
CIRCLE
  5
4AA
  8
SIZE
  6
CONTINUOUS
 62
    30
 10
-252.399994
 20
637.9999789999999
 30
0.0
 40
5.0
  0
LINE
  5
4AB
  8
SIZE
  6
CONTINUOUS
 62
    30
 10
-252.399994
 20
637.9999789999999
 30
0.0
 11
-252.399994
 21
627.9999789999999
 31
0.0
  0
TEXT
  5
4AC
  8
SIZE
  6
CONTINUOUS
 62
    30
 10
-262.399994
 20
275.4285804285715
 30
0.0
 40
30.0
  1
638
 50
90.0
 72
     1
 11
-262.399994
 21
319.000009
 31
0.0
  0
POINT
  5
4AD
  8
DEFPOINTS
  6
CONTINUOUS
 62
    30
 10
-100.000002
 20
0.0
 30
0.0
  0
POINT
  5
4AE
  8
DEFPOINTS
  6
CONTINUOUS
 62
    30
 10
0.0
 20
637.9999789999999
 30
0.0
  0
POINT
  5
4AF
  8
DEFPOINTS
  6
CONTINUOUS
 62
    30
 10
-252.399994
 20
637.9999789999999
 30
0.0
  0
LINE
  5
4B0
  8
SIZE
  6
CONTINUOUS
 62
    30
 10
305.000006
 20
601.9999789999999
 30
0.0
 11
305.000006
 21
852.8999789999999
 31
0.0
  0
LINE
  5
4B1
  8
SIZE
  6
CONTINUOUS
 62
    30
 10
285.000006
 20
10.0
 30
0.0
 11
285.000006
 21
852.8999789999999
 31
0.0
  0
LINE
  5
4B2
  8
SIZE
  6
CONTINUOUS
 62
    30
 10
275.000006
 20
840.3999789999999
 30
0.0
 11
265.000006
 21
840.3999789999999
 31
0.0
  0
LINE
  5
4B3
  8
SIZE
  6
CONTINUOUS
 62
    30
 10
315.000006
 20
840.3999789999999
 30
0.0
 11
390.122015
 21
840.3999789999999
 31
0.0
  0
LINE
  5
4B4
  8
SIZE
  6
CONTINUOUS
 62
    30
 10
285.000006
 20
840.3999789999999
 30
0.0
 11
305.000006
 21
840.3999789999999
 31
0.0
  0
CIRCLE
  5
4B5
  8
SIZE
  6
CONTINUOUS
 62
    30
 10
285.000006
 20
840.3999789999999
 30
0.0
 40
5.0
  0
LINE
  5
4B6
  8
SIZE
  6
CONTINUOUS
 62
    30
 10
285.000006
 20
840.3999789999999
 30
0.0
 11
275.000006
 21
840.3999789999999
 31
0.0
  0
CIRCLE
  5
4B7
  8
SIZE
  6
CONTINUOUS
 62
    30
 10
305.000006
 20
840.3999789999999
 30
0.0
 40
5.0
  0
LINE
  5
4B8
  8
SIZE
  6
CONTINUOUS
 62
    30
 10
305.000006
 20
840.3999789999999
 30
0.0
 11
315.000006
 21
840.3999789999999
 31
0.0
  0
TEXT
  5
4B9
  8
SIZE
  6
CONTINUOUS
 62
    30
 10
329.0505864285714
 20
850.3999789999999
 30
0.0
 40
30.0
  1
20
 72
     1
 11
357.622015
 21
850.3999789999999
 31
0.0
  0
POINT
  5
4BA
  8
DEFPOINTS
  6
CONTINUOUS
 62
    30
 10
305.000006
 20
591.9999789999999
 30
0.0
  0
POINT
  5
4BB
  8
DEFPOINTS
  6
CONTINUOUS
 62
    30
 10
285.000006
 20
0.0
 30
0.0
  0
POINT
  5
4BC
  8
DEFPOINTS
  6
CONTINUOUS
 62
    30
 10
285.000006
 20
840.3999789999999
 30
0.0
  0
LINE
  5
4BD
  8
SIZE
  6
CONTINUOUS
 62
    30
 10
0.000002
 20
10.0
 30
0.0
 11
0.000002
 21
-360.100021
 31
0.0
  0
LINE
  5
4BE
  8
SIZE
  6
CONTINUOUS
 62
    30
 10
285.000006
 20
-10.0
 30
0.0
 11
285.000006
 21
-360.100021
 31
0.0
  0
LINE
  5
4BF
  8
SIZE
  6
CONTINUOUS
 62
    30
 10
10.000002
 20
-347.600021
 30
0.0
 11
275.000006
 21
-347.600021
 31
0.0
  0
CIRCLE
  5
4C0
  8
SIZE
  6
CONTINUOUS
 62
    30
 10
0.000002
 20
-347.600021
 30
0.0
 40
5.0
  0
LINE
  5
4C1
  8
SIZE
  6
CONTINUOUS
 62
    30
 10
0.000002
 20
-347.600021
 30
0.0
 11
10.000002
 21
-347.600021
 31
0.0
  0
CIRCLE
  5
4C2
  8
SIZE
  6
CONTINUOUS
 62
    30
 10
285.000006
 20
-347.600021
 30
0.0
 40
5.0
  0
LINE
  5
4C3
  8
SIZE
  6
CONTINUOUS
 62
    30
 10
285.000006
 20
-347.600021
 30
0.0
 11
275.000006
 21
-347.600021
 31
0.0
  0
TEXT
  5
4C4
  8
SIZE
  6
CONTINUOUS
 62
    30
 10
99.64286314285715
 20
-337.600021
 30
0.0
 40
30.0
  1
285
 72
     1
 11
142.500006
 21
-337.600021
 31
0.0
  0
POINT
  5
4C5
  8
DEFPOINTS
  6
CONTINUOUS
 62
    30
 10
0.000002
 20
20.0
 30
0.0
  0
POINT
  5
4C6
  8
DEFPOINTS
  6
CONTINUOUS
 62
    30
 10
285.000006
 20
0.0
 30
0.0
  0
POINT
  5
4C7
  8
DEFPOINTS
  6
CONTINUOUS
 62
    30
 10
285.000006
 20
-347.600021
 30
0.0
  0
LINE
  5
4C8
  8
SIZE
  6
CONTINUOUS
 62
    30
 10
317.000006
 20
-10.0
 30
0.0
 11
317.000006
 21
-560.1000210000001
 31
0.0
  0
LINE
  5
4C9
  8
SIZE
  6
CONTINUOUS
 62
    30
 10
-28.0
 20
-8.0
 30
0.0
 11
-28.0
 21
-560.1000210000001
 31
0.0
  0
LINE
  5
4CA
  8
SIZE
  6
CONTINUOUS
 62
    30
 10
307.000006
 20
-547.6000210000001
 30
0.0
 11
-18.0
 21
-547.6000210000001
 31
0.0
  0
CIRCLE
  5
4CB
  8
SIZE
  6
CONTINUOUS
 62
    30
 10
317.000006
 20
-547.6000210000001
 30
0.0
 40
5.0
  0
LINE
  5
4CC
  8
SIZE
  6
CONTINUOUS
 62
    30
 10
317.000006
 20
-547.6000210000001
 30
0.0
 11
307.000006
 21
-547.6000210000001
 31
0.0
  0
CIRCLE
  5
4CD
  8
SIZE
  6
CONTINUOUS
 62
    30
 10
-28.0
 20
-547.6000210000001
 30
0.0
 40
5.0
  0
LINE
  5
4CE
  8
SIZE
  6
CONTINUOUS
 62
    30
 10
-28.0
 20
-547.6000210000001
 30
0.0
 11
-18.0
 21
-547.6000210000001
 31
0.0
  0
TEXT
  5
4CF
  8
SIZE
  6
CONTINUOUS
 62
    30
 10
103.8165381428571
 20
-537.6000210000001
 30
0.0
 40
30.0
  1
345
 72
     1
 11
146.673681
 21
-537.6000210000001
 31
0.0
  0
POINT
  5
4D0
  8
DEFPOINTS
  6
CONTINUOUS
 62
    30
 10
317.000006
 20
0.0
 30
0.0
  0
POINT
  5
4D1
  8
DEFPOINTS
  6
CONTINUOUS
 62
    30
 10
-28.0
 20
2.0
 30
0.0
  0
POINT
  5
4D2
  8
DEFPOINTS
  6
CONTINUOUS
 62
    30
 10
-28.0
 20
-547.6000210000001
 30
0.0
  0
LINE
  5
4D3
  8
SIZE
  6
CONTINUOUS
 62
    30
 10
0.0
 20
642.9999789999999
 30
0.0
 11
0.0
 21
852.8999789999999
 31
0.0
  0
LINE
  5
4D4
  8
SIZE
  6
CONTINUOUS
 62
    30
 10
-16.0
 20
607.9999789999999
 30
0.0
 11
-16.0
 21
852.8999789999999
 31
0.0
  0
LINE
  5
4D5
  8
SIZE
  6
CONTINUOUS
 62
    30
 10
-26.0
 20
840.3999789999999
 30
0.0
 11
-36.0
 21
840.3999789999999
 31
0.0
  0
LINE
  5
4D6
  8
SIZE
  6
CONTINUOUS
 62
    30
 10
10.0
 20
840.3999789999999
 30
0.0
 11
83.329935
 21
840.3999789999999
 31
0.0
  0
LINE
  5
4D7
  8
SIZE
  6
CONTINUOUS
 62
    30
 10
-16.0
 20
840.3999789999999
 30
0.0
 11
0.0
 21
840.3999789999999
 31
0.0
  0
CIRCLE
  5
4D8
  8
SIZE
  6
CONTINUOUS
 62
    30
 10
-16.0
 20
840.3999789999999
 30
0.0
 40
5.0
  0
LINE
  5
4D9
  8
SIZE
  6
CONTINUOUS
 62
    30
 10
-16.0
 20
840.3999789999999
 30
0.0
 11
-26.0
 21
840.3999789999999
 31
0.0
  0
CIRCLE
  5
4DA
  8
SIZE
  6
CONTINUOUS
 62
    30
 10
0.0
 20
840.3999789999999
 30
0.0
 40
5.0
  0
LINE
  5
4DB
  8
SIZE
  6
CONTINUOUS
 62
    30
 10
0.0
 20
840.3999789999999
 30
0.0
 11
10.0
 21
840.3999789999999
 31
0.0
  0
TEXT
  5
4DC
  8
SIZE
  6
CONTINUOUS
 62
    30
 10
22.61564928571428
 20
850.3999789999999
 30
0.0
 40
30.0
  1
16
 72
     1
 11
53.329935
 21
850.3999789999999
 31
0.0
  0
POINT
  5
4DD
  8
DEFPOINTS
  6
CONTINUOUS
 62
    30
 10
0.0
 20
632.9999789999999
 30
0.0
  0
POINT
  5
4DE
  8
DEFPOINTS
  6
CONTINUOUS
 62
    30
 10
-16.0
 20
597.9999789999999
 30
0.0
  0
POINT
  5
4DF
  8
DEFPOINTS
  6
CONTINUOUS
 62
    30
 10
-16.0
 20
840.3999789999999
 30
0.0
  0
LINE
  5
4E0
  8
SIZE
  6
CONTINUOUS
 62
    30
 10
285.000006
 20
747.9999789999999
 30
0.0
 11
285.000006
 21
1002.899979
 31
0.0
  0
LINE
  5
4E1
  8
SIZE
  6
CONTINUOUS
 62
    30
 10
0.0
 20
747.9999789999999
 30
0.0
 11
0.0
 21
1002.899979
 31
0.0
  0
LINE
  5
4E2
  8
SIZE
  6
CONTINUOUS
 62
    30
 10
275.000006
 20
990.3999789999999
 30
0.0
 11
10.0
 21
990.3999789999999
 31
0.0
  0
CIRCLE
  5
4E3
  8
SIZE
  6
CONTINUOUS
 62
    30
 10
285.000006
 20
990.3999789999999
 30
0.0
 40
5.0
  0
LINE
  5
4E4
  8
SIZE
  6
CONTINUOUS
 62
    30
 10
285.000006
 20
990.3999789999999
 30
0.0
 11
275.000006
 21
990.3999789999999
 31
0.0
  0
CIRCLE
  5
4E5
  8
SIZE
  6
CONTINUOUS
 62
    30
 10
0.0
 20
990.3999789999999
 30
0.0
 40
5.0
  0
LINE
  5
4E6
  8
SIZE
  6
CONTINUOUS
 62
    30
 10
0.0
 20
990.3999789999999
 30
0.0
 11
10.0
 21
990.3999789999999
 31
0.0
  0
TEXT
  5
4E7
  8
SIZE
  6
CONTINUOUS
 62
    30
 10
99.64286314285715
 20
1000.399979
 30
0.0
 40
30.0
  1
285
 72
     1
 11
142.500006
 21
1000.399979
 31
0.0
  0
POINT
  5
4E8
  8
DEFPOINTS
  6
CONTINUOUS
 62
    30
 10
285.000006
 20
737.9999789999999
 30
0.0
  0
POINT
  5
4E9
  8
DEFPOINTS
  6
CONTINUOUS
 62
    30
 10
0.0
 20
737.9999789999999
 30
0.0
  0
POINT
  5
4EA
  8
DEFPOINTS
  6
CONTINUOUS
 62
    30
 10
0.0
 20
990.3999789999999
 30
0.0
  0
LINE
  5
4EB
  8
SIZE
  6
CONTINUOUS
 62
    30
 10
485.000006
 20
747.9999789999999
 30
0.0
 11
485.000006
 21
1002.899979
 31
0.0
  0
LINE
  5
4EC
  8
SIZE
  6
CONTINUOUS
 62
    30
 10
285.000006
 20
747.9999789999999
 30
0.0
 11
285.000006
 21
1002.899979
 31
0.0
  0
LINE
  5
4ED
  8
SIZE
  6
CONTINUOUS
 62
    30
 10
475.000006
 20
990.3999789999999
 30
0.0
 11
295.000006
 21
990.3999789999999
 31
0.0
  0
CIRCLE
  5
4EE
  8
SIZE
  6
CONTINUOUS
 62
    30
 10
485.000006
 20
990.3999789999999
 30
0.0
 40
5.0
  0
LINE
  5
4EF
  8
SIZE
  6
CONTINUOUS
 62
    30
 10
485.000006
 20
990.3999789999999
 30
0.0
 11
475.000006
 21
990.3999789999999
 31
0.0
  0
CIRCLE
  5
4F0
  8
SIZE
  6
CONTINUOUS
 62
    30
 10
285.000006
 20
990.3999789999999
 30
0.0
 40
5.0
  0
LINE
  5
4F1
  8
SIZE
  6
CONTINUOUS
 62
    30
 10
285.000006
 20
990.3999789999999
 30
0.0
 11
295.000006
 21
990.3999789999999
 31
0.0
  0
TEXT
  5
4F2
  8
SIZE
  6
CONTINUOUS
 62
    30
 10
342.1428631428571
 20
1000.399979
 30
0.0
 40
30.0
  1
200
 72
     1
 11
385.000006
 21
1000.399979
 31
0.0
  0
POINT
  5
4F3
  8
DEFPOINTS
  6
CONTINUOUS
 62
    30
 10
485.000006
 20
737.9999789999999
 30
0.0
  0
POINT
  5
4F4
  8
DEFPOINTS
  6
CONTINUOUS
 62
    30
 10
285.000006
 20
737.9999789999999
 30
0.0
  0
POINT
  5
4F5
  8
DEFPOINTS
  6
CONTINUOUS
 62
    30
 10
285.000006
 20
990.3999789999999
 30
0.0
  0
LINE
  5
4F6
  8
SIZE
  6
CONTINUOUS
 62
    30
 10
-100.000002
 20
747.9999789999999
 30
0.0
 11
-100.000002
 21
1002.899979
 31
0.0
  0
LINE
  5
4F7
  8
SIZE
  6
CONTINUOUS
 62
    30
 10
0.0
 20
747.9999789999999
 30
0.0
 11
0.0
 21
1002.899979
 31
0.0
  0
LINE
  5
4F8
  8
SIZE
  6
CONTINUOUS
 62
    30
 10
-90.000002
 20
990.3999789999999
 30
0.0
 11
-10.0
 21
990.3999789999999
 31
0.0
  0
CIRCLE
  5
4F9
  8
SIZE
  6
CONTINUOUS
 62
    30
 10
-100.000002
 20
990.3999789999999
 30
0.0
 40
5.0
  0
LINE
  5
4FA
  8
SIZE
  6
CONTINUOUS
 62
    30
 10
-100.000002
 20
990.3999789999999
 30
0.0
 11
-90.000002
 21
990.3999789999999
 31
0.0
  0
CIRCLE
  5
4FB
  8
SIZE
  6
CONTINUOUS
 62
    30
 10
0.0
 20
990.3999789999999
 30
0.0
 40
5.0
  0
LINE
  5
4FC
  8
SIZE
  6
CONTINUOUS
 62
    30
 10
0.0
 20
990.3999789999999
 30
0.0
 11
-10.0
 21
990.3999789999999
 31
0.0
  0
TEXT
  5
4FD
  8
SIZE
  6
CONTINUOUS
 62
    30
 10
-95.000002
 20
1000.399979
 30
0.0
 40
30.0
  1
100
 72
     1
 11
-50.000002
 21
1000.399979
 31
0.0
  0
POINT
  5
4FE
  8
DEFPOINTS
  6
CONTINUOUS
 62
    30
 10
-100.000002
 20
737.9999789999999
 30
0.0
  0
POINT
  5
4FF
  8
DEFPOINTS
  6
CONTINUOUS
 62
    30
 10
0.0
 20
737.9999789999999
 30
0.0
  0
POINT
  5
500
  8
DEFPOINTS
  6
CONTINUOUS
 62
    30
 10
0.0
 20
990.3999789999999
 30
0.0
  0
LINE
  5
501
  8
SIZE
  6
CONTINUOUS
 62
    30
 10
-10.0
 20
637.9999789999999
 30
0.0
 11
-264.899994
 21
637.9999789999999
 31
0.0
  0
LINE
  5
502
  8
SIZE
  6
CONTINUOUS
 62
    30
 10
-110.000002
 20
737.9999789999999
 30
0.0
 11
-264.899994
 21
737.9999789999999
 31
0.0
  0
LINE
  5
503
  8
SIZE
  6
CONTINUOUS
 62
    30
 10
-252.399994
 20
647.9999789999999
 30
0.0
 11
-252.399994
 21
727.9999789999999
 31
0.0
  0
CIRCLE
  5
504
  8
SIZE
  6
CONTINUOUS
 62
    30
 10
-252.399994
 20
637.9999789999999
 30
0.0
 40
5.0
  0
LINE
  5
505
  8
SIZE
  6
CONTINUOUS
 62
    30
 10
-252.399994
 20
637.9999789999999
 30
0.0
 11
-252.399994
 21
647.9999789999999
 31
0.0
  0
CIRCLE
  5
506
  8
SIZE
  6
CONTINUOUS
 62
    30
 10
-252.399994
 20
737.9999789999999
 30
0.0
 40
5.0
  0
LINE
  5
507
  8
SIZE
  6
CONTINUOUS
 62
    30
 10
-252.399994
 20
737.9999789999999
 30
0.0
 11
-252.399994
 21
727.9999789999999
 31
0.0
  0
TEXT
  5
508
  8
SIZE
  6
CONTINUOUS
 62
    30
 10
-262.399994
 20
642.9999789999999
 30
0.0
 40
30.0
  1
100
 50
90.0
 72
     1
 11
-262.399994
 21
687.9999789999999
 31
0.0
  0
POINT
  5
509
  8
DEFPOINTS
  6
CONTINUOUS
 62
    30
 10
0.0
 20
637.9999789999999
 30
0.0
  0
POINT
  5
50A
  8
DEFPOINTS
  6
CONTINUOUS
 62
    30
 10
-100.000002
 20
737.9999789999999
 30
0.0
  0
POINT
  5
50B
  8
DEFPOINTS
  6
CONTINUOUS
 62
    30
 10
-252.399994
 20
737.9999789999999
 30
0.0
  0
LINE
  5
50C
  8
SIZE
  6
CONTINUOUS
 62
    30
 10
-110.000002
 20
0.0
 30
0.0
 11
-414.899994
 21
0.0
 31
0.0
  0
LINE
  5
50D
  8
SIZE
  6
CONTINUOUS
 62
    30
 10
-110.000002
 20
737.9999789999999
 30
0.0
 11
-414.899994
 21
737.9999789999999
 31
0.0
  0
LINE
  5
50E
  8
SIZE
  6
CONTINUOUS
 62
    30
 10
-402.399994
 20
10.0
 30
0.0
 11
-402.399994
 21
727.9999789999999
 31
0.0
  0
CIRCLE
  5
50F
  8
SIZE
  6
CONTINUOUS
 62
    30
 10
-402.399994
 20
0.0
 30
0.0
 40
5.0
  0
LINE
  5
510
  8
SIZE
  6
CONTINUOUS
 62
    30
 10
-402.399994
 20
0.0
 30
0.0
 11
-402.399994
 21
10.0
 31
0.0
  0
CIRCLE
  5
511
  8
SIZE
  6
CONTINUOUS
 62
    30
 10
-402.399994
 20
737.9999789999999
 30
0.0
 40
5.0
  0
LINE
  5
512
  8
SIZE
  6
CONTINUOUS
 62
    30
 10
-402.399994
 20
737.9999789999999
 30
0.0
 11
-402.399994
 21
727.9999789999999
 31
0.0
  0
TEXT
  5
513
  8
SIZE
  6
CONTINUOUS
 62
    30
 10
-412.399994
 20
326.1428661428572
 30
0.0
 40
30.0
  1
738
 50
90.0
 72
     1
 11
-412.399994
 21
369.000009
 31
0.0
  0
POINT
  5
514
  8
DEFPOINTS
  6
CONTINUOUS
 62
    30
 10
-100.000002
 20
0.0
 30
0.0
  0
POINT
  5
515
  8
DEFPOINTS
  6
CONTINUOUS
 62
    30
 10
-100.000002
 20
737.9999789999999
 30
0.0
  0
POINT
  5
516
  8
DEFPOINTS
  6
CONTINUOUS
 62
    30
 10
-402.399994
 20
737.9999789999999
 30
0.0
  0
LINE
  5
517
  8
SIZE
  6
CONTINUOUS
 62
    30
 10
495.000006
 20
0.0
 30
0.0
 11
745.100006
 21
0.0
 31
0.0
  0
LINE
  5
518
  8
SIZE
  6
CONTINUOUS
 62
    30
 10
495.000006
 20
737.9999789999999
 30
0.0
 11
745.100006
 21
737.9999789999999
 31
0.0
  0
LINE
  5
519
  8
SIZE
  6
CONTINUOUS
 62
    30
 10
732.600006
 20
10.0
 30
0.0
 11
732.600006
 21
727.9999789999999
 31
0.0
  0
CIRCLE
  5
51A
  8
SIZE
  6
CONTINUOUS
 62
    30
 10
732.600006
 20
0.0
 30
0.0
 40
5.0
  0
LINE
  5
51B
  8
SIZE
  6
CONTINUOUS
 62
    30
 10
732.600006
 20
0.0
 30
0.0
 11
732.600006
 21
10.0
 31
0.0
  0
CIRCLE
  5
51C
  8
SIZE
  6
CONTINUOUS
 62
    30
 10
732.600006
 20
737.9999789999999
 30
0.0
 40
5.0
  0
LINE
  5
51D
  8
SIZE
  6
CONTINUOUS
 62
    30
 10
732.600006
 20
737.9999789999999
 30
0.0
 11
732.600006
 21
727.9999789999999
 31
0.0
  0
TEXT
  5
51E
  8
SIZE
  6
CONTINUOUS
 62
    30
 10
722.600006
 20
326.1428661428572
 30
0.0
 40
30.0
  1
738
 50
90.0
 72
     1
 11
722.600006
 21
369.000009
 31
0.0
  0
POINT
  5
51F
  8
DEFPOINTS
  6
CONTINUOUS
 62
    30
 10
485.000006
 20
0.0
 30
0.0
  0
POINT
  5
520
  8
DEFPOINTS
  6
CONTINUOUS
 62
    30
 10
485.000006
 20
737.9999789999999
 30
0.0
  0
POINT
  5
521
  8
DEFPOINTS
  6
CONTINUOUS
 62
    30
 10
732.600006
 20
737.9999789999999
 30
0.0
  0
LINE
  5
522
  8
SIZE
  6
CONTINUOUS
 62
    30
 10
0.0
 20
10.0
 30
0.0
 11
0.0
 21
-360.100021
 31
0.0
  0
LINE
  5
523
  8
SIZE
  6
CONTINUOUS
 62
    30
 10
-10.0
 20
-30.0
 30
0.0
 11
-10.0
 21
-360.100021
 31
0.0
  0
LINE
  5
524
  8
SIZE
  6
CONTINUOUS
 62
    30
 10
10.0
 20
-347.600021
 30
0.0
 11
20.0
 21
-347.600021
 31
0.0
  0
LINE
  5
525
  8
SIZE
  6
CONTINUOUS
 62
    30
 10
-20.0
 20
-347.600021
 30
0.0
 11
-119.513803
 21
-347.600021
 31
0.0
  0
LINE
  5
526
  8
SIZE
  6
CONTINUOUS
 62
    30
 10
0.0
 20
-347.600021
 30
0.0
 11
-10.0
 21
-347.600021
 31
0.0
  0
CIRCLE
  5
527
  8
SIZE
  6
CONTINUOUS
 62
    30
 10
0.0
 20
-347.600021
 30
0.0
 40
5.0
  0
LINE
  5
528
  8
SIZE
  6
CONTINUOUS
 62
    30
 10
0.0
 20
-347.600021
 30
0.0
 11
10.0
 21
-347.600021
 31
0.0
  0
CIRCLE
  5
529
  8
SIZE
  6
CONTINUOUS
 62
    30
 10
-10.0
 20
-347.600021
 30
0.0
 40
5.0
  0
LINE
  5
52A
  8
SIZE
  6
CONTINUOUS
 62
    30
 10
-10.0
 20
-347.600021
 30
0.0
 11
-20.0
 21
-347.600021
 31
0.0
  0
TEXT
  5
52B
  8
SIZE
  6
CONTINUOUS
 62
    30
 10
-122.7280887142857
 20
-337.600021
 30
0.0
 40
30.0
  1
10
 72
     1
 11
-92.013803
 21
-337.600021
 31
0.0
  0
POINT
  5
52C
  8
DEFPOINTS
  6
CONTINUOUS
 62
    30
 10
0.0
 20
20.0
 30
0.0
  0
POINT
  5
52D
  8
DEFPOINTS
  6
CONTINUOUS
 62
    30
 10
-10.0
 20
-20.0
 30
0.0
  0
POINT
  5
52E
  8
DEFPOINTS
  6
CONTINUOUS
 62
    30
 10
-10.0
 20
-347.600021
 30
0.0
  0
LINE
  5
52F
  8
SIZE
  6
CONTINUOUS
 62
    30
 10
0.0
 20
-10.0
 30
0.0
 11
0.0
 21
-260.100006
 31
0.0
  0
LINE
  5
530
  8
SIZE
  6
CONTINUOUS
 62
    30
 10
-27.969999
 20
-10.0
 30
0.0
 11
-27.969999
 21
-260.100006
 31
0.0
  0
LINE
  5
531
  8
SIZE
  6
CONTINUOUS
 62
    30
 10
-37.969999
 20
-247.600006
 30
0.0
 11
-47.969999
 21
-247.600006
 31
0.0
  0
LINE
  5
532
  8
SIZE
  6
CONTINUOUS
 62
    30
 10
10.0
 20
-247.600006
 30
0.0
 11
90.0
 21
-247.600006
 31
0.0
  0
LINE
  5
533
  8
SIZE
  6
CONTINUOUS
 62
    30
 10
-27.969999
 20
-247.600006
 30
0.0
 11
0.0
 21
-247.600006
 31
0.0
  0
CIRCLE
  5
534
  8
SIZE
  6
CONTINUOUS
 62
    30
 10
-27.969999
 20
-247.600006
 30
0.0
 40
5.0
  0
LINE
  5
535
  8
SIZE
  6
CONTINUOUS
 62
    30
 10
-27.969999
 20
-247.600006
 30
0.0
 11
-37.969999
 21
-247.600006
 31
0.0
  0
CIRCLE
  5
536
  8
SIZE
  6
CONTINUOUS
 62
    30
 10
0.0
 20
-247.600006
 30
0.0
 40
5.0
  0
LINE
  5
537
  8
SIZE
  6
CONTINUOUS
 62
    30
 10
0.0
 20
-247.600006
 30
0.0
 11
10.0
 21
-247.600006
 31
0.0
  0
TEXT
  5
538
  8
SIZE
  6
CONTINUOUS
 62
    30
 10
26.42857142857143
 20
-237.600006
 30
0.0
 40
30.0
  1
28
 72
     1
 11
55.0
 21
-237.600006
 31
0.0
  0
POINT
  5
539
  8
DEFPOINTS
  6
CONTINUOUS
 62
    30
 10
0.0
 20
0.0
 30
0.0
  0
POINT
  5
53A
  8
DEFPOINTS
  6
CONTINUOUS
 62
    30
 10
-27.969999
 20
0.0
 30
0.0
  0
POINT
  5
53B
  8
DEFPOINTS
  6
CONTINUOUS
 62
    30
 10
-27.969999
 20
-247.600006
 30
0.0
  0
LINE
  5
53C
  8
SIZE
  6
CONTINUOUS
 62
    30
 10
295.000006
 20
0.0
 30
0.0
 11
645.100006
 21
0.0
 31
0.0
  0
LINE
  5
53D
  8
SIZE
  6
CONTINUOUS
 62
    30
 10
365.000006
 20
368.000009
 30
0.0
 11
645.100006
 21
368.000009
 31
0.0
  0
LINE
  5
53E
  8
SIZE
  6
CONTINUOUS
 62
    30
 10
632.600006
 20
10.0
 30
0.0
 11
632.600006
 21
358.000009
 31
0.0
  0
CIRCLE
  5
53F
  8
SIZE
  6
CONTINUOUS
 62
    30
 10
632.600006
 20
0.0
 30
0.0
 40
5.0
  0
LINE
  5
540
  8
SIZE
  6
CONTINUOUS
 62
    30
 10
632.600006
 20
0.0
 30
0.0
 11
632.600006
 21
10.0
 31
0.0
  0
CIRCLE
  5
541
  8
SIZE
  6
CONTINUOUS
 62
    30
 10
632.600006
 20
368.000009
 30
0.0
 40
5.0
  0
LINE
  5
542
  8
SIZE
  6
CONTINUOUS
 62
    30
 10
632.600006
 20
368.000009
 30
0.0
 11
632.600006
 21
358.000009
 31
0.0
  0
TEXT
  5
543
  8
SIZE
  6
CONTINUOUS
 62
    30
 10
622.600006
 20
141.1428511428571
 30
0.0
 40
30.0
  1
368
 50
90.0
 72
     1
 11
622.600006
 21
183.999994
 31
0.0
  0
POINT
  5
544
  8
DEFPOINTS
  6
CONTINUOUS
 62
    30
 10
285.000006
 20
0.0
 30
0.0
  0
POINT
  5
545
  8
DEFPOINTS
  6
CONTINUOUS
 62
    30
 10
355.000006
 20
368.000009
 30
0.0
  0
POINT
  5
546
  8
DEFPOINTS
  6
CONTINUOUS
 62
    30
 10
632.600006
 20
368.000009
 30
0.0
  0
LINE
  5
547
  8
SIZE
  6
CONTINUOUS
 62
    30
 10
-29.299999
 20
-15.0
 30
0.0
 11
-264.899994
 21
-15.0
 31
0.0
  0
LINE
  5
548
  8
SIZE
  6
CONTINUOUS
 62
    30
 10
-110.000002
 20
0.0
 30
0.0
 11
-264.899994
 21
0.0
 31
0.0
  0
LINE
  5
549
  8
SIZE
  6
CONTINUOUS
 62
    30
 10
-252.399994
 20
10.0
 30
0.0
 11
-252.399994
 21
20.0
 31
0.0
  0
LINE
  5
54A
  8
SIZE
  6
CONTINUOUS
 62
    30
 10
-252.399994
 20
-25.0
 30
0.0
 11
-252.399994
 21
-116.44444
 31
0.0
  0
LINE
  5
54B
  8
SIZE
  6
CONTINUOUS
 62
    30
 10
-252.399994
 20
0.0
 30
0.0
 11
-252.399994
 21
-15.0
 31
0.0
  0
CIRCLE
  5
54C
  8
SIZE
  6
CONTINUOUS
 62
    30
 10
-252.399994
 20
0.0
 30
0.0
 40
5.0
  0
LINE
  5
54D
  8
SIZE
  6
CONTINUOUS
 62
    30
 10
-252.399994
 20
0.0
 30
0.0
 11
-252.399994
 21
10.0
 31
0.0
  0
CIRCLE
  5
54E
  8
SIZE
  6
CONTINUOUS
 62
    30
 10
-252.399994
 20
-15.0
 30
0.0
 40
5.0
  0
LINE
  5
54F
  8
SIZE
  6
CONTINUOUS
 62
    30
 10
-252.399994
 20
-15.0
 30
0.0
 11
-252.399994
 21
-25.0
 31
0.0
  0
TEXT
  5
550
  8
SIZE
  6
CONTINUOUS
 62
    30
 10
-262.399994
 20
-117.1587257142857
 30
0.0
 40
30.0
  1
15
 50
90.0
 72
     1
 11
-262.399994
 21
-86.44444
 31
0.0
  0
POINT
  5
551
  8
DEFPOINTS
  6
CONTINUOUS
 62
    30
 10
-19.299999
 20
-15.0
 30
0.0
  0
POINT
  5
552
  8
DEFPOINTS
  6
CONTINUOUS
 62
    30
 10
-100.000002
 20
0.0
 30
0.0
  0
POINT
  5
553
  8
DEFPOINTS
  6
CONTINUOUS
 62
    30
 10
-252.399994
 20
0.0
 30
0.0
  0
LINE
  5
554
  8
SIZE
  6
CONTINUOUS
 62
    30
 10
0.0
 20
5.0
 30
0.0
 11
0.0
 21
-160.100006
 31
0.0
  0
LINE
  5
555
  8
SIZE
  6
CONTINUOUS
 62
    30
 10
0.7000000000000001
 20
-44.99999800000001
 30
0.0
 11
0.7000000000000001
 21
-160.100006
 31
0.0
  0
LINE
  5
556
  8
SIZE
  6
CONTINUOUS
 62
    30
 10
-10.0
 20
-147.600006
 30
0.0
 11
-20.0
 21
-147.600006
 31
0.0
  0
LINE
  5
557
  8
SIZE
  6
CONTINUOUS
 62
    30
 10
10.7
 20
-147.600006
 30
0.0
 11
56.589179
 21
-147.600006
 31
0.0
  0
LINE
  5
558
  8
SIZE
  6
CONTINUOUS
 62
    30
 10
0.0
 20
-147.600006
 30
0.0
 11
0.7000000000000001
 21
-147.600006
 31
0.0
  0
CIRCLE
  5
559
  8
SIZE
  6
CONTINUOUS
 62
    30
 10
0.0
 20
-147.600006
 30
0.0
 40
5.0
  0
LINE
  5
55A
  8
SIZE
  6
CONTINUOUS
 62
    30
 10
0.0
 20
-147.600006
 30
0.0
 11
-10.0
 21
-147.600006
 31
0.0
  0
CIRCLE
  5
55B
  8
SIZE
  6
CONTINUOUS
 62
    30
 10
0.7000000000000001
 20
-147.600006
 30
0.0
 40
5.0
  0
LINE
  5
55C
  8
SIZE
  6
CONTINUOUS
 62
    30
 10
0.7000000000000001
 20
-147.600006
 30
0.0
 11
10.7
 21
-147.600006
 31
0.0
  0
TEXT
  5
55D
  8
SIZE
  6
CONTINUOUS
 62
    30
 10
29.44632185714286
 20
-137.600006
 30
0.0
 40
30.0
  1
1
 72
     1
 11
41.589179
 21
-137.600006
 31
0.0
  0
POINT
  5
55E
  8
DEFPOINTS
  6
CONTINUOUS
 62
    30
 10
0.0
 20
15.0
 30
0.0
  0
POINT
  5
55F
  8
DEFPOINTS
  6
CONTINUOUS
 62
    30
 10
0.7000000000000001
 20
-34.99999800000001
 30
0.0
  0
POINT
  5
560
  8
DEFPOINTS
  6
CONTINUOUS
 62
    30
 10
0.7000000000000001
 20
-147.600006
 30
0.0
  0
LINE
  5
561
  8
SIZE
  6
CONTINUOUS
 62
    30
 10
327.000006
 20
8.0
 30
0.0
 11
445.100006
 21
8.0
 31
0.0
  0
LINE
  5
562
  8
SIZE
  6
CONTINUOUS
 62
    30
 10
327.000006
 20
0.0
 30
0.0
 11
445.100006
 21
0.0
 31
0.0
  0
LINE
  5
563
  8
SIZE
  6
CONTINUOUS
 62
    30
 10
432.600006
 20
-10.0
 30
0.0
 11
432.600006
 21
-20.0
 31
0.0
  0
LINE
  5
564
  8
SIZE
  6
CONTINUOUS
 62
    30
 10
432.600006
 20
18.0
 30
0.0
 11
432.600006
 21
74.39100499999999
 31
0.0
  0
LINE
  5
565
  8
SIZE
  6
CONTINUOUS
 62
    30
 10
432.600006
 20
0.0
 30
0.0
 11
432.600006
 21
8.0
 31
0.0
  0
CIRCLE
  5
566
  8
SIZE
  6
CONTINUOUS
 62
    30
 10
432.600006
 20
0.0
 30
0.0
 40
5.0
  0
LINE
  5
567
  8
SIZE
  6
CONTINUOUS
 62
    30
 10
432.600006
 20
0.0
 30
0.0
 11
432.600006
 21
-10.0
 31
0.0
  0
CIRCLE
  5
568
  8
SIZE
  6
CONTINUOUS
 62
    30
 10
432.600006
 20
8.0
 30
0.0
 40
5.0
  0
LINE
  5
569
  8
SIZE
  6
CONTINUOUS
 62
    30
 10
432.600006
 20
8.0
 30
0.0
 11
432.600006
 21
18.0
 31
0.0
  0
TEXT
  5
56A
  8
SIZE
  6
CONTINUOUS
 62
    30
 10
422.600006
 20
40.10529071428572
 30
0.0
 40
30.0
  1
8
 50
90.0
 72
     1
 11
422.600006
 21
54.391005
 31
0.0
  0
POINT
  5
56B
  8
DEFPOINTS
  6
CONTINUOUS
 62
    30
 10
317.000006
 20
8.0
 30
0.0
  0
POINT
  5
56C
  8
DEFPOINTS
  6
CONTINUOUS
 62
    30
 10
317.000006
 20
0.0
 30
0.0
  0
POINT
  5
56D
  8
DEFPOINTS
  6
CONTINUOUS
 62
    30
 10
432.600006
 20
0.0
 30
0.0
  0
LINE
  5
56E
  8
NOTE
  6
CONTINUOUS
 10
-347.749994
 20
-200.000006
 30
0.0
 11
-100.000002
 21
-200.000006
 31
0.0
  0
LINE
  5
56F
  8
NOTE
  6
CONTINUOUS
 10
-100.000002
 20
-200.000006
 30
0.0
 11
0.7000000000000001
 21
-15.0
 31
0.0
  0
LINE
  5
570
  8
NOTE
  6
CONTINUOUS
 10
0.7000000000000001
 20
-15.0
 30
0.0
 11
0.231055
 21
-16.944246
 31
0.0
  0
LINE
  5
571
  8
NOTE
  6
CONTINUOUS
 10
0.7000000000000001
 20
-15.0
 30
0.0
 11
-0.678241
 21
-16.449294
 31
0.0
  0
TEXT
  5
572
  8
NOTE
  6
CONTINUOUS
 10
-347.749994
 20
-199.000021
 30
0.0
 40
39.99999999999999
  1
D φ15.5
 50
0.0000029575586669
 41
0.6893380000000002
  7
STANDARD1
  0
LINE
  5
573
  8
NOTE
  6
CONTINUOUS
 10
20.7
 20
-15.0
 30
0.0
 11
-19.3
 21
-15.0
 31
0.0
  0
LINE
  5
574
  8
NOTE
  6
CONTINUOUS
 10
0.7000000000000001
 20
-35.0
 30
0.0
 11
0.7000000000000001
 21
5.0
 31
0.0
  0
LINE
  5
575
  8
NOTE
  6
CONTINUOUS
 10
537.250006
 20
-149.999991
 30
0.0
 11
379.000006
 21
-149.999991
 31
0.0
  0
LINE
  5
576
  8
NOTE
  6
CONTINUOUS
 10
379.000006
 20
-149.999991
 30
0.0
 11
305.000006
 21
0.0
 31
0.0
  0
LINE
  5
577
  8
NOTE
  6
CONTINUOUS
 10
305.000006
 20
0.0
 30
0.0
 11
306.318925
 21
-1.50348
 31
0.0
  0
LINE
  5
578
  8
NOTE
  6
CONTINUOUS
 10
305.000006
 20
0.0
 30
0.0
 11
305.390483
 21
-1.961512
 31
0.0
  0
TEXT
  5
579
  8
NOTE
  6
CONTINUOUS
 10
439.750006
 20
-148.999991
 30
0.0
 40
39.99999999999999
  1
4-AH
 50
0.0000029575586669
 41
0.6125000000000002
  7
STANDARD1
  0
TEXT
  5
57A
  8
NOTE
  6
CONTINUOUS
 10
-347.433924
 20
169.220911
 30
0.0
 40
40.0
  1
メンテナンススペース
 50
89.99999100000001
 41
0.8437499999999998
  7
STANDARD1
  0
TEXT
  5
57B
  8
NOTE
  6
CONTINUOUS
 10
-202.848306
 20
503.034097
 30
0.0
 40
40.0
  1
メンテナンススペース
 50
89.99999100000001
 41
0.8437499999999998
  7
STANDARD1
  0
TEXT
  5
57C
  8
NOTE
  6
CONTINUOUS
 10
789.8081109999999
 20
169.685251
 30
0.0
 40
40.0
  1
メンテナンススペース
 50
89.99999100000001
 41
0.8437499999999998
  7
STANDARD1
  0
TEXT
  5
57D
  8
NOTE
  6
CONTINUOUS
 10
-407.6332640000001
 20
936.707498
 30
0.0
 40
39.99999999999999
  1
メンテナンススペース
 50
0.0000028316468405
 41
0.8437500000000001
  7
STANDARD1
  0
TEXT
  5
57E
  8
NOTE
  6
CONTINUOUS
 10
-3.602251
 20
947.765054
 30
0.0
 40
28.0
  1
メンテナンススペース
 50
0.0000029575586669
 41
0.84375
  7
STANDARD1
  0
TEXT
  5
57F
  8
NOTE
  6
CONTINUOUS
 10
293.504706
 20
939.707498
 30
0.0
 40
39.99999999999999
  1
メンテナンススペース
 50
0.0000028316468405
 41
0.8437500000000001
  7
STANDARD1
  0
LINE
  5
580
  8
NOTE
  6
CONTINUOUS
 10
305.0
 20
-20.0
 30
0.0
 11
305.0
 21
20.0
 31
0.0
  0
LINE
  5
581
  8
NOTE
  6
CONTINUOUS
 10
325.0
 20
0.0
 30
0.0
 11
285.0
 21
0.0
 31
0.0
  0
LINE
  5
582
  8
NOTE
  6
CONTINUOUS
 10
-10.0
 20
-20.0
 30
0.0
 11
-10.0
 21
20.0
 31
0.0
  0
LINE
  5
583
  8
NOTE
  6
CONTINUOUS
 10
-30.0
 20
0.0
 30
0.0
 11
10.0
 21
0.0
 31
0.0
  0
CIRCLE
  5
584
  8
ARRANGE
  6
CONTINUOUS
 10
0.0
 20
0.0
 30
0.0
 40
15.0
  0
CIRCLE
  5
585
  8
FIX
  6
CONTINUOUS
 10
305.0
 20
0.0
 30
0.0
 40
5.0
  0
CIRCLE
  5
586
  8
FIX
  6
CONTINUOUS
 10
-10.0
 20
0.0
 30
0.0
 40
5.0
  0
LINE
  5
587
  8
SERVICESPACE
  6
DASHDOT
 10
285.0
 20
0.0
 30
0.0
 11
485.0
 21
0.0
 31
0.0
  0
LINE
  5
588
  8
SERVICESPACE
  6
DASHDOT
 10
485.0
 20
738.0
 30
0.0
 11
485.0
 21
0.0
 31
0.0
  0
LINE
  5
589
  8
SERVICESPACE
  6
DASHDOT
 10
0.0
 20
738.0
 30
0.0
 11
0.0
 21
0.0
 31
0.0
  0
LINE
  5
58A
  8
SERVICESPACE
  6
DASHDOT
 10
-100.0
 20
0.0
 30
0.0
 11
0.0
 21
0.0
 31
0.0
  0
LINE
  5
58B
  8
SERVICESPACE
  6
DASHDOT
 10
0.0
 20
638.0
 30
0.0
 11
285.0
 21
638.0
 31
0.0
  0
LINE
  5
58C
  8
SERVICESPACE
  6
DASHDOT
 10
-100.0
 20
0.0
 30
0.0
 11
-100.0
 21
738.0
 31
0.0
  0
LINE
  5
58D
  8
SERVICESPACE
  6
DASHDOT
 10
285.0
 20
0.0
 30
0.0
 11
285.0
 21
738.0
 31
0.0
  0
LINE
  5
58E
  8
SERVICESPACE
  6
DASHDOT
 10
-100.0
 20
738.0
 30
0.0
 11
485.0
 21
738.0
 31
0.0
  0
LINE
  5
58F
  8
SERVICESPACE
  6
DASHDOT
 10
0.0
 20
738.0
 30
0.0
 11
285.0
 21
638.0
 31
0.0
  0
LINE
  5
590
  8
SERVICESPACE
  6
DASHDOT
 10
285.0
 20
738.0
 30
0.0
 11
0.0
 21
638.0
 31
0.0
  0
LINE
  5
591
  8
SERVICESPACE
  6
DASHDOT
 10
-100.0
 20
738.0
 30
0.0
 11
0.0
 21
2.0
 31
0.0
  0
LINE
  5
592
  8
SERVICESPACE
  6
DASHDOT
 10
0.0
 20
738.0
 30
0.0
 11
-100.0
 21
0.0
 31
0.0
  0
LINE
  5
593
  8
SERVICESPACE
  6
DASHDOT
 10
285.0
 20
738.0
 30
0.0
 11
485.0
 21
0.0
 31
0.0
  0
LINE
  5
594
  8
SERVICESPACE
  6
DASHDOT
 10
485.0
 20
738.0
 30
0.0
 11
285.0
 21
2.0
 31
0.0
  0
TEXT
  5
595
  8
ETC
  6
CONTINUOUS
 10
716.6419129999999
 20
1139.839945
 30
0.0
 40
39.99999999999999
  1
THPU45A55
 50
0.0000029575586669
 41
0.6125000000000002
  7
STANDARD1
  0
TEXT
  5
596
  8
ETC
  6
CONTINUOUS
 10
716.6419129999999
 20
1069.839945
 30
0.0
 40
39.99999999999999
  1
ヒートポンプユニット
 50
0.0000028316468405
 41
0.8437500000000001
  7
STANDARD1
  0
ENDSEC
  0
EOF
