  0
SECTION
  2
HEADER
  9
$ACADVER
  1
AC1009
  9
$DWGCODEPAGE
  3
dos932
  9
$INSBASE
 10
0.0
 20
0.0
 30
0.0
  9
$EXTMIN
 10
-1064.222754
 20
-801.495624
 30
0.0
  9
$EXTMAX
 10
1202.176225
 20
668.408822
 30
0.0
  9
$LIMMIN
 10
0.0
 20
0.0
  9
$LIMMAX
 10
12.0
 20
9.0
  9
$ORTHOMODE
 70
     0
  9
$REGENMODE
 70
     1
  9
$FILLMODE
 70
     1
  9
$QTEXTMODE
 70
     0
  9
$MIRRTEXT
 70
     1
  9
$DRAGMODE
 70
     2
  9
$LTSCALE
 40
1.0
  9
$OSMODE
 70
    37
  9
$ATTMODE
 70
     1
  9
$TEXTSIZE
 40
2.8
  9
$TRACEWID
 40
0.05
  9
$TEXTSTYLE
  7
STANDARD1
  9
$CLAYER
  8
0
  9
$CELTYPE
  6
CONTINUOUS
  9
$CECOLOR
 62
   256
  9
$DIMSCALE
 40
1.0
  9
$DIMASZ
 40
10.0
  9
$DIMEXO
 40
10.0
  9
$DIMDLI
 40
8.0
  9
$DIMRND
 40
0.0
  9
$DIMDLE
 40
0.0
  9
$DIMEXE
 40
12.5
  9
$DIMTP
 40
0.0
  9
$DIMTM
 40
0.0
  9
$DIMTXT
 40
30.0
  9
$DIMCEN
 40
2.5
  9
$DIMTSZ
 40
0.0
  9
$DIMTOL
 70
     0
  9
$DIMLIM
 70
     0
  9
$DIMTIH
 70
     0
  9
$DIMTOH
 70
     0
  9
$DIMSE1
 70
     0
  9
$DIMSE2
 70
     0
  9
$DIMTAD
 70
     3
  9
$DIMZIN
 70
    12
  9
$DIMBLK
  1

  9
$DIMASO
 70
     1
  9
$DIMSHO
 70
     1
  9
$DIMPOST
  1

  9
$DIMAPOST
  1

  9
$DIMALT
 70
     0
  9
$DIMALTD
 70
     4
  9
$DIMALTF
 40
25.4
  9
$DIMLFAC
 40
1.0
  9
$DIMTOFL
 70
     1
  9
$DIMTVP
 40
0.0
  9
$DIMTIX
 70
     0
  9
$DIMSOXD
 70
     0
  9
$DIMSAH
 70
     1
  9
$DIMBLK1
  1
ORIGIN
  9
$DIMBLK2
  1
ORIGIN
  9
$DIMSTYLE
  2
STANDARD
  9
$DIMCLRD
 70
     0
  9
$DIMCLRE
 70
     0
  9
$DIMCLRT
 70
     0
  9
$DIMTFAC
 40
0.714286
  9
$DIMGAP
 40
10.0
  9
$LUNITS
 70
     2
  9
$LUPREC
 70
     3
  9
$SKETCHINC
 40
0.1
  9
$FILLETRAD
 40
0.0
  9
$AUNITS
 70
     0
  9
$AUPREC
 70
     0
  9
$MENU
  1
acad
  9
$ELEVATION
 40
0.0
  9
$PELEVATION
 40
0.0
  9
$THICKNESS
 40
0.0
  9
$LIMCHECK
 70
     0
  9
$CHAMFERA
 40
0.0
  9
$CHAMFERB
 40
0.0
  9
$SKPOLY
 70
     0
  9
$TDCREATE
 40
2455267.469097211
  9
$TDUPDATE
 40
2457459.559152523
  9
$TDINDWG
 40
0.0
  9
$TDUSRTIMER
 40
0.0
  9
$USRTIMER
 70
     1
  9
$ANGBASE
 50
0.0
  9
$ANGDIR
 70
     0
  9
$PDMODE
 70
     0
  9
$PDSIZE
 40
0.0
  9
$PLINEWID
 40
0.0
  9
$COORDS
 70
     1
  9
$SPLFRAME
 70
     0
  9
$SPLINETYPE
 70
     6
  9
$SPLINESEGS
 70
     8
  9
$ATTDIA
 70
     0
  9
$ATTREQ
 70
     1
  9
$HANDLING
 70
     1
  9
$HANDSEED
  5
946
  9
$SURFTAB1
 70
     6
  9
$SURFTAB2
 70
     6
  9
$SURFTYPE
 70
     6
  9
$SURFU
 70
     6
  9
$SURFV
 70
     6
  9
$UCSNAME
  2

  9
$UCSORG
 10
0.0
 20
0.0
 30
0.0
  9
$UCSXDIR
 10
1.0
 20
0.0
 30
0.0
  9
$UCSYDIR
 10
0.0
 20
1.0
 30
0.0
  9
$PUCSNAME
  2

  9
$PUCSORG
 10
0.0
 20
0.0
 30
0.0
  9
$PUCSXDIR
 10
1.0
 20
0.0
 30
0.0
  9
$PUCSYDIR
 10
0.0
 20
1.0
 30
0.0
  9
$USERI1
 70
     0
  9
$USERI2
 70
     0
  9
$USERI3
 70
     0
  9
$USERI4
 70
     0
  9
$USERI5
 70
     0
  9
$USERR1
 40
0.0
  9
$USERR2
 40
0.0
  9
$USERR3
 40
0.0
  9
$USERR4
 40
0.0
  9
$USERR5
 40
0.0
  9
$WORLDVIEW
 70
     1
  9
$SHADEDGE
 70
     3
  9
$SHADEDIF
 70
    70
  9
$TILEMODE
 70
     1
  9
$MAXACTVP
 70
    48
  9
$PLIMCHECK
 70
     0
  9
$PEXTMIN
 10
1.000000000000000E+20
 20
1.000000000000000E+20
 30
1.000000000000000E+20
  9
$PEXTMAX
 10
-1.000000000000000E+20
 20
-1.000000000000000E+20
 30
-1.000000000000000E+20
  9
$PLIMMIN
 10
0.0
 20
0.0
  9
$PLIMMAX
 10
12.0
 20
9.0
  9
$UNITMODE
 70
     0
  9
$VISRETAIN
 70
     1
  9
$PLINEGEN
 70
     0
  9
$PSLTSCALE
 70
     1
  0
ENDSEC
  0
SECTION
  2
TABLES
  0
TABLE
  2
VPORT
 70
     1
  0
VPORT
  2
*ACTIVE
 70
     0
 10
0.0
 20
0.0
 11
1.0
 21
1.0
 12
88.276723
 22
-66.543401
 13
0.0
 23
0.0
 14
1.0
 24
1.0
 15
0.0
 25
0.0
 16
0.0
 26
0.0
 36
1.0
 17
0.0
 27
0.0
 37
0.0
 40
2368.015226
 41
0.951439
 42
50.0
 43
0.0
 44
0.0
 50
0.0
 51
0.0
 71
     0
 72
   100
 73
     1
 74
     1
 75
     0
 76
     0
 77
     0
 78
     0
  0
ENDTAB
  0
TABLE
  2
LTYPE
 70
     4
  0
LTYPE
  2
CONTINUOUS
 70
     0
  3
Solid line
 72
    65
 73
     0
 40
0.0
  0
LTYPE
  2
DASHED
 70
     0
  3
-- -- -- -- -- -- -- -- -- -- -- -- -- -- --
 72
    65
 73
     2
 40
0.75
 49
0.5
 49
-0.25
  0
LTYPE
  2
DASHDOT
 70
     0
  3
__ . __ . __ . __ . __ . __ . __ . __ . __ . __
 72
    65
 73
     4
 40
125.0
 49
80.0
 49
-20.0
 49
5.0
 49
-20.0
  0
LTYPE
  2
DIVIDE
 70
     0
  3
__ . . __ . . __ . . __ . . __ . . __ . . __
 72
    65
 73
     6
 40
1.25
 49
0.5
 49
-0.25
 49
0.0
 49
-0.25
 49
0.0
 49
-0.25
  0
ENDTAB
  0
TABLE
  2
LAYER
 70
    12
  0
LAYER
  2
0
 70
     0
 62
     3
  6
CONTINUOUS
  0
LAYER
  2
OUTLINE
 70
     0
 62
     3
  6
CONTINUOUS
  0
LAYER
  2
DETAIL
 70
     0
 62
     5
  6
CONTINUOUS
  0
LAYER
  2
BASIS
 70
     0
 62
     6
  6
CONTINUOUS
  0
LAYER
  2
SIZE
 70
     0
 62
    30
  6
CONTINUOUS
  0
LAYER
  2
NOTE
 70
     0
 62
     4
  6
CONTINUOUS
  0
LAYER
  2
ARRANGE
 70
     0
 62
     1
  6
CONTINUOUS
  0
LAYER
  2
FIX
 70
     0
 62
    11
  6
CONTINUOUS
  0
LAYER
  2
SERVICESPACE
 70
     0
 62
     2
  6
CONTINUOUS
  0
LAYER
  2
ETC
 70
     0
 62
    61
  6
CONTINUOUS
  0
LAYER
  2
SYMBOLLINE
 70
     0
 62
     7
  6
CONTINUOUS
  0
LAYER
  2
DEFPOINTS
 70
     0
 62
     7
  6
CONTINUOUS
  0
ENDTAB
  0
TABLE
  2
STYLE
 70
     5
  0
STYLE
  2
STANDARD
 70
     0
 40
0.0
 41
1.0
 50
0.0
 71
     0
 42
0.2
  3
txt
  4

  0
STYLE
  2
STANDARD1
 70
     0
 40
0.0
 41
1.0
 50
0.0
 71
     0
 42
2.8
  3
MONOTXT
  4
BIGFONT
  0
STYLE
  2
STANDARD2
 70
     4
 40
0.0
 41
1.0
 50
0.0
 71
     0
 42
2.8
  3
MONOTXT
  4
BIGFONT
  0
STYLE
  2
STANDARD3
 70
     0
 40
0.0
 41
1.0
 50
0.0
 71
     0
 42
2.8
  3
MONOTXT
  4

  0
STYLE
  2
STANDARD4
 70
     4
 40
0.0
 41
1.0
 50
0.0
 71
     0
 42
2.8
  3
MONOTXT
  4

  0
ENDTAB
  0
TABLE
  2
VIEW
 70
     0
  0
ENDTAB
  0
TABLE
  2
UCS
 70
     0
  0
ENDTAB
  0
TABLE
  2
APPID
 70
     1
  0
APPID
  2
ACAD
 70
     0
  0
ENDTAB
  0
TABLE
  2
DIMSTYLE
 70
     1
  0
DIMSTYLE
  2
STANDARD
 70
     0
  3

  4

  5

  6

  7

 40
1.0
 41
0.18
 42
0.0625
 43
0.38
 44
0.18
 45
0.0
 46
0.0
 47
0.0
 48
0.0
140
0.18
141
0.09
142
0.0
143
25.4
144
1.0
145
0.0
146
1.0
147
0.09
 71
     0
 72
     0
 73
     1
 74
     1
 75
     0
 76
     0
 77
     0
 78
     0
170
     0
171
     2
172
     0
173
     0
174
     0
175
     0
176
     0
177
     0
178
     0
  0
ENDTAB
  0
ENDSEC
  0
SECTION
  2
BLOCKS
  0
BLOCK
  8
0
  2
$MODEL_SPACE
 70
     0
 10
0.0
 20
0.0
 30
0.0
  3
$MODEL_SPACE
  1

  0
ENDBLK
  5
912
  8
0
  0
BLOCK
 67
     1
  8
0
  2
$PAPER_SPACE
 70
     0
 10
0.0
 20
0.0
 30
0.0
  3
$PAPER_SPACE
  1

  0
ENDBLK
  5
914
 67
     1
  8
0
  0
BLOCK
  8
SIZE
  2
*D0
 70
     1
 10
0.0
 20
0.0
 30
0.0
  3
*D0
  1

  0
TEXT
  5
429
  8
SIZE
  6
CONTINUOUS
 10
849.035315
 20
-27.94844
 30
0.0
 40
2.8
  1
5
 50
90.00000499999999
 41
0.7
  7
STANDARD1
  0
LINE
  5
42A
  8
SIZE
  6
CONTINUOUS
 10
381.03537
 20
-0.147514
 30
0.0
 11
852.035339
 21
-0.147514
 31
0.0
  0
LINE
  5
42B
  8
SIZE
  6
CONTINUOUS
 10
21.035355
 20
-4.847514
 30
0.0
 11
852.035339
 21
-4.847514
 31
0.0
  0
LINE
  5
42C
  8
SIZE
  6
CONTINUOUS
 10
850.035339
 20
4.852486
 30
0.0
 11
850.035339
 21
-29.34844
 31
0.0
  0
INSERT
  5
42D
  8
SIZE
  2
DOT
 10
850.035339
 20
-0.147514
 30
0.0
 50
90.0
  0
INSERT
  5
42E
  8
SIZE
  2
DOT
 10
850.035339
 20
-4.847514
 30
0.0
 50
270.0
  0
POINT
  5
42F
  8
DEFPOINTS
  6
BYBLOCK
 10
20.035355
 20
-4.847514
 30
0.0
  0
POINT
  5
430
  8
DEFPOINTS
  6
BYBLOCK
 10
380.03537
 20
-0.147514
 30
0.0
  0
POINT
  5
431
  8
DEFPOINTS
  6
BYBLOCK
 10
850.035339
 20
-0.147514
 30
0.0
  0
ENDBLK
  5
432
  8
SIZE
  0
BLOCK
  8
SIZE
  2
DOT
 70
     0
 10
0.0
 20
0.0
 30
0.0
  3
DOT
  1

  0
POLYLINE
  5
435
  8
0
  6
BYBLOCK
 66
     1
 10
0.0
 20
0.0
 30
0.0
 70
     1
 40
0.5
 41
0.5
  0
VERTEX
  5
942
  8
0
  6
BYBLOCK
 10
-0.25
 20
0.0
 30
0.0
 42
1.0
  0
VERTEX
  5
943
  8
0
  6
BYBLOCK
 10
0.25
 20
0.0
 30
0.0
 42
1.0
  0
SEQEND
  5
945
  8
0
  6
BYBLOCK
  0
LINE
  5
439
  8
0
  6
BYBLOCK
 10
-0.5
 20
0.0
 30
0.0
 11
-1.0
 21
0.0
 31
0.0
  0
ENDBLK
  5
43A
  8
SIZE
  0
BLOCK
  8
SIZE
  2
*D2
 70
     1
 10
0.0
 20
0.0
 30
0.0
  3
*D2
  1

  0
TEXT
  5
43D
  8
SIZE
  6
CONTINUOUS
 10
-1022.822778
 20
-155.087524
 30
0.0
 40
2.8
  1
360
 50
90.00000499999999
 41
0.7
  7
STANDARD1
  0
LINE
  5
43E
  8
SIZE
  6
CONTINUOUS
 10
-260.96463
 20
-332.147491
 30
0.0
 11
-1023.822754
 21
-332.147491
 31
0.0
  0
LINE
  5
43F
  8
SIZE
  6
CONTINUOUS
 10
-263.46463
 20
27.852488
 30
0.0
 11
-1023.822754
 21
27.852488
 31
0.0
  0
LINE
  5
440
  8
SIZE
  6
CONTINUOUS
 10
-1021.822754
 20
-332.147491
 30
0.0
 11
-1021.822754
 21
27.852488
 31
0.0
  0
INSERT
  5
441
  8
SIZE
  2
DOT
 10
-1021.822754
 20
-332.147491
 30
0.0
 50
270.0
  0
INSERT
  5
442
  8
SIZE
  2
DOT
 10
-1021.822754
 20
27.852488
 30
0.0
 50
90.0
  0
POINT
  5
443
  8
DEFPOINTS
  6
BYBLOCK
 10
-262.46463
 20
27.852488
 30
0.0
  0
POINT
  5
444
  8
DEFPOINTS
  6
BYBLOCK
 10
-259.96463
 20
-332.147491
 30
0.0
  0
POINT
  5
445
  8
DEFPOINTS
  6
BYBLOCK
 10
-1021.822754
 20
-332.147491
 30
0.0
  0
ENDBLK
  5
446
  8
SIZE
  0
BLOCK
  8
SIZE
  2
*D3
 70
     1
 10
0.0
 20
0.0
 30
0.0
  3
*D3
  1

  0
TEXT
  5
449
  8
SIZE
  6
CONTINUOUS
 10
-922.822778
 20
-158.087524
 30
0.0
 40
2.8
  1
330
 50
90.00000499999999
 41
0.7
  7
STANDARD1
  0
LINE
  5
44A
  8
SIZE
  6
CONTINUOUS
 10
-270.96463
 20
9.852486
 30
0.0
 11
-923.822754
 21
9.852486
 31
0.0
  0
LINE
  5
44B
  8
SIZE
  6
CONTINUOUS
 10
-270.96463
 20
-320.147491
 30
0.0
 11
-923.822754
 21
-320.147491
 31
0.0
  0
LINE
  5
44C
  8
SIZE
  6
CONTINUOUS
 10
-921.822754
 20
9.852486
 30
0.0
 11
-921.822754
 21
-320.147491
 31
0.0
  0
INSERT
  5
44D
  8
SIZE
  2
DOT
 10
-921.822754
 20
9.852486
 30
0.0
 50
90.0
  0
INSERT
  5
44E
  8
SIZE
  2
DOT
 10
-921.822754
 20
-320.147491
 30
0.0
 50
270.0
  0
POINT
  5
44F
  8
DEFPOINTS
  6
BYBLOCK
 10
-269.96463
 20
-320.147491
 30
0.0
  0
POINT
  5
450
  8
DEFPOINTS
  6
BYBLOCK
 10
-269.96463
 20
9.852486
 30
0.0
  0
POINT
  5
451
  8
DEFPOINTS
  6
BYBLOCK
 10
-921.822754
 20
9.852486
 30
0.0
  0
ENDBLK
  5
452
  8
SIZE
  0
BLOCK
  8
SIZE
  2
*D4
 70
     1
 10
0.0
 20
0.0
 30
0.0
  3
*D4
  1

  0
TEXT
  5
455
  8
SIZE
  6
CONTINUOUS
 10
-822.822778
 20
-403.087494
 30
0.0
 40
2.8
  1
200
 50
90.00000499999999
 41
0.7
  7
STANDARD1
  0
LINE
  5
456
  8
SIZE
  6
CONTINUOUS
 10
-554.964661
 20
-300.147491
 30
0.0
 11
-823.822754
 21
-300.147491
 31
0.0
  0
LINE
  5
457
  8
SIZE
  6
CONTINUOUS
 10
-554.964661
 20
-500.147491
 30
0.0
 11
-823.822754
 21
-500.147491
 31
0.0
  0
LINE
  5
458
  8
SIZE
  6
CONTINUOUS
 10
-821.822754
 20
-300.147491
 30
0.0
 11
-821.822754
 21
-500.147491
 31
0.0
  0
INSERT
  5
459
  8
SIZE
  2
DOT
 10
-821.822754
 20
-300.147491
 30
0.0
 50
90.0
  0
INSERT
  5
45A
  8
SIZE
  2
DOT
 10
-821.822754
 20
-500.147491
 30
0.0
 50
270.0
  0
POINT
  5
45B
  8
DEFPOINTS
  6
BYBLOCK
 10
-553.964661
 20
-500.147491
 30
0.0
  0
POINT
  5
45C
  8
DEFPOINTS
  6
BYBLOCK
 10
-553.964661
 20
-300.147491
 30
0.0
  0
POINT
  5
45D
  8
DEFPOINTS
  6
BYBLOCK
 10
-821.822754
 20
-300.147491
 30
0.0
  0
ENDBLK
  5
45E
  8
SIZE
  0
BLOCK
  8
SIZE
  2
*D5
 70
     1
 10
0.0
 20
0.0
 30
0.0
  3
*D5
  1

  0
TEXT
  5
461
  8
SIZE
  6
CONTINUOUS
 10
-77.654648
 20
-748.716162
 30
0.0
 40
2.8
  1
959
 50
0.000003
 41
0.7
  7
STANDARD1
  0
LINE
  5
462
  8
SIZE
  6
CONTINUOUS
 10
404.53537
 20
-501.147491
 30
0.0
 11
404.53537
 21
-751.716187
 31
0.0
  0
LINE
  5
463
  8
SIZE
  6
CONTINUOUS
 10
-553.964661
 20
-501.147491
 30
0.0
 11
-553.964661
 21
-751.716187
 31
0.0
  0
LINE
  5
464
  8
SIZE
  6
CONTINUOUS
 10
404.53537
 20
-749.716187
 30
0.0
 11
-553.964661
 21
-749.716187
 31
0.0
  0
INSERT
  5
465
  8
SIZE
  2
DOT
 10
404.53537
 20
-749.716187
 30
0.0
  0
INSERT
  5
466
  8
SIZE
  2
DOT
 10
-553.964661
 20
-749.716187
 30
0.0
 50
180.0
  0
POINT
  5
467
  8
DEFPOINTS
  6
BYBLOCK
 10
-553.964661
 20
-500.147491
 30
0.0
  0
POINT
  5
468
  8
DEFPOINTS
  6
BYBLOCK
 10
404.53537
 20
-500.147491
 30
0.0
  0
POINT
  5
469
  8
DEFPOINTS
  6
BYBLOCK
 10
404.53537
 20
-749.716187
 30
0.0
  0
ENDBLK
  5
46A
  8
SIZE
  0
BLOCK
  8
SIZE
  2
*D6
 70
     1
 10
0.0
 20
0.0
 30
0.0
  3
*D6
  1

  0
TEXT
  5
46D
  8
SIZE
  6
CONTINUOUS
 10
551.345337
 20
-749.716162
 30
0.0
 40
2.8
  1
300
 50
0.000003
 41
0.7
  7
STANDARD1
  0
LINE
  5
46E
  8
SIZE
  6
CONTINUOUS
 10
404.53537
 20
-501.147491
 30
0.0
 11
404.53537
 21
-752.716187
 31
0.0
  0
LINE
  5
46F
  8
SIZE
  6
CONTINUOUS
 10
704.035339
 20
-501.147491
 30
0.0
 11
704.035339
 21
-752.716187
 31
0.0
  0
LINE
  5
470
  8
SIZE
  6
CONTINUOUS
 10
404.53537
 20
-750.716187
 30
0.0
 11
704.035339
 21
-750.716187
 31
0.0
  0
INSERT
  5
471
  8
SIZE
  2
DOT
 10
404.53537
 20
-750.716187
 30
0.0
 50
180.0
  0
INSERT
  5
472
  8
SIZE
  2
DOT
 10
704.035339
 20
-750.716187
 30
0.0
  0
POINT
  5
473
  8
DEFPOINTS
  6
BYBLOCK
 10
704.035339
 20
-500.147491
 30
0.0
  0
POINT
  5
474
  8
DEFPOINTS
  6
BYBLOCK
 10
404.53537
 20
-500.147491
 30
0.0
  0
POINT
  5
475
  8
DEFPOINTS
  6
BYBLOCK
 10
404.53537
 20
-750.716187
 30
0.0
  0
ENDBLK
  5
476
  8
SIZE
  0
BLOCK
  8
SIZE
  2
*D7
 70
     1
 10
0.0
 20
0.0
 30
0.0
  3
*D7
  1

  0
TEXT
  5
479
  8
SIZE
  6
CONTINUOUS
 10
1152.390112
 20
-203.087524
 30
0.0
 40
2.8
  1
600
 50
90.00000499999999
 41
0.7
  7
STANDARD1
  0
LINE
  5
47A
  8
SIZE
  6
CONTINUOUS
 10
705.035339
 20
99.852486
 30
0.0
 11
1155.390137
 21
99.852486
 31
0.0
  0
LINE
  5
47B
  8
SIZE
  6
CONTINUOUS
 10
705.035339
 20
-500.147491
 30
0.0
 11
1155.390137
 21
-500.147491
 31
0.0
  0
LINE
  5
47C
  8
SIZE
  6
CONTINUOUS
 10
1153.390137
 20
99.852486
 30
0.0
 11
1153.390137
 21
-500.147491
 31
0.0
  0
INSERT
  5
47D
  8
SIZE
  2
DOT
 10
1153.390137
 20
99.852486
 30
0.0
 50
90.0
  0
INSERT
  5
47E
  8
SIZE
  2
DOT
 10
1153.390137
 20
-500.147491
 30
0.0
 50
270.0
  0
POINT
  5
47F
  8
DEFPOINTS
  6
BYBLOCK
 10
704.035339
 20
-500.147491
 30
0.0
  0
POINT
  5
480
  8
DEFPOINTS
  6
BYBLOCK
 10
704.035339
 20
99.852486
 30
0.0
  0
POINT
  5
481
  8
DEFPOINTS
  6
BYBLOCK
 10
1153.390137
 20
99.852486
 30
0.0
  0
ENDBLK
  5
482
  8
SIZE
  0
BLOCK
  8
SIZE
  2
*D8
 70
     1
 10
0.0
 20
0.0
 30
0.0
  3
*D8
  1

  0
TEXT
  5
485
  8
SIZE
  6
CONTINUOUS
 10
-444.924835
 20
300.852502
 30
0.0
 40
2.8
  1
21
 50
0.000003
 41
0.7
  7
STANDARD1
  0
LINE
  5
486
  8
SIZE
  6
CONTINUOUS
 10
-425.46463
 20
-108.223763
 30
0.0
 11
-425.46463
 21
301.852509
 31
0.0
  0
LINE
  5
487
  8
SIZE
  6
CONTINUOUS
 10
-404.46463
 20
0.852486
 30
0.0
 11
-404.46463
 21
301.852509
 31
0.0
  0
LINE
  5
488
  8
SIZE
  6
CONTINUOUS
 10
-446.324829
 20
299.852509
 30
0.0
 11
-399.46463
 21
299.852509
 31
0.0
  0
INSERT
  5
489
  8
SIZE
  2
DOT
 10
-425.46463
 20
299.852509
 30
0.0
 50
180.0
  0
INSERT
  5
48A
  8
SIZE
  2
DOT
 10
-404.46463
 20
299.852509
 30
0.0
  0
POINT
  5
48B
  8
DEFPOINTS
  6
BYBLOCK
 10
-404.46463
 20
-0.147514
 30
0.0
  0
POINT
  5
48C
  8
DEFPOINTS
  6
BYBLOCK
 10
-425.46463
 20
-109.223763
 30
0.0
  0
POINT
  5
48D
  8
DEFPOINTS
  6
BYBLOCK
 10
-425.46463
 20
299.852509
 30
0.0
  0
ENDBLK
  5
48E
  8
SIZE
  0
BLOCK
  8
SIZE
  2
*D9
 70
     1
 10
0.0
 20
0.0
 30
0.0
  3
*D9
  1

  0
TEXT
  5
491
  8
SIZE
  6
CONTINUOUS
 10
-330.154633
 20
300.852502
 30
0.0
 40
2.8
  1
155
 50
0.000003
 41
0.7
  7
STANDARD1
  0
LINE
  5
492
  8
SIZE
  6
CONTINUOUS
 10
-404.46463
 20
0.852486
 30
0.0
 11
-404.46463
 21
301.852509
 31
0.0
  0
LINE
  5
493
  8
SIZE
  6
CONTINUOUS
 10
-249.964645
 20
30.852488
 30
0.0
 11
-249.964645
 21
301.852509
 31
0.0
  0
LINE
  5
494
  8
SIZE
  6
CONTINUOUS
 10
-404.46463
 20
299.852509
 30
0.0
 11
-249.964645
 21
299.852509
 31
0.0
  0
INSERT
  5
495
  8
SIZE
  2
DOT
 10
-404.46463
 20
299.852509
 30
0.0
 50
180.0
  0
INSERT
  5
496
  8
SIZE
  2
DOT
 10
-249.964645
 20
299.852509
 30
0.0
  0
POINT
  5
497
  8
DEFPOINTS
  6
BYBLOCK
 10
-249.964645
 20
29.852488
 30
0.0
  0
POINT
  5
498
  8
DEFPOINTS
  6
BYBLOCK
 10
-404.46463
 20
-0.147514
 30
0.0
  0
POINT
  5
499
  8
DEFPOINTS
  6
BYBLOCK
 10
-404.46463
 20
299.852509
 30
0.0
  0
ENDBLK
  5
49A
  8
SIZE
  0
BLOCK
  8
SIZE
  2
*D10
 70
     1
 10
0.0
 20
0.0
 30
0.0
  3
*D10
  1

  0
TEXT
  5
49D
  8
SIZE
  6
CONTINUOUS
 10
-822.822778
 20
-153.087524
 30
0.0
 40
2.8
  1
300
 50
90.00000499999999
 41
0.7
  7
STANDARD1
  0
LINE
  5
49E
  8
SIZE
  6
CONTINUOUS
 10
-550.964661
 20
-0.147514
 30
0.0
 11
-823.822754
 21
-0.147514
 31
0.0
  0
LINE
  5
49F
  8
SIZE
  6
CONTINUOUS
 10
-546.464661
 20
-300.147491
 30
0.0
 11
-823.822754
 21
-300.147491
 31
0.0
  0
LINE
  5
4A0
  8
SIZE
  6
CONTINUOUS
 10
-821.822754
 20
-0.147514
 30
0.0
 11
-821.822754
 21
-300.147491
 31
0.0
  0
INSERT
  5
4A1
  8
SIZE
  2
DOT
 10
-821.822754
 20
-0.147514
 30
0.0
 50
90.0
  0
INSERT
  5
4A2
  8
SIZE
  2
DOT
 10
-821.822754
 20
-300.147491
 30
0.0
 50
270.0
  0
POINT
  5
4A3
  8
DEFPOINTS
  6
BYBLOCK
 10
-545.464661
 20
-300.147491
 30
0.0
  0
POINT
  5
4A4
  8
DEFPOINTS
  6
BYBLOCK
 10
-549.964661
 20
-0.147514
 30
0.0
  0
POINT
  5
4A5
  8
DEFPOINTS
  6
BYBLOCK
 10
-821.822754
 20
-0.147514
 30
0.0
  0
ENDBLK
  5
4A6
  8
SIZE
  0
BLOCK
  8
SIZE
  2
*D11
 70
     1
 10
0.0
 20
0.0
 30
0.0
  3
*D11
  1

  0
TEXT
  5
4A9
  8
SIZE
  6
CONTINUOUS
 10
-822.822778
 20
46.912487
 30
0.0
 40
2.8
  1
100
 50
90.00000499999999
 41
0.7
  7
STANDARD1
  0
LINE
  5
4AA
  8
SIZE
  6
CONTINUOUS
 10
-554.964661
 20
99.852486
 30
0.0
 11
-823.822754
 21
99.852486
 31
0.0
  0
LINE
  5
4AB
  8
SIZE
  6
CONTINUOUS
 10
-550.964661
 20
-0.147514
 30
0.0
 11
-823.822754
 21
-0.147514
 31
0.0
  0
LINE
  5
4AC
  8
SIZE
  6
CONTINUOUS
 10
-821.822754
 20
99.852486
 30
0.0
 11
-821.822754
 21
-0.147514
 31
0.0
  0
INSERT
  5
4AD
  8
SIZE
  2
DOT
 10
-821.822754
 20
99.852486
 30
0.0
 50
90.0
  0
INSERT
  5
4AE
  8
SIZE
  2
DOT
 10
-821.822754
 20
-0.147514
 30
0.0
 50
270.0
  0
POINT
  5
4AF
  8
DEFPOINTS
  6
BYBLOCK
 10
-549.964661
 20
-0.147514
 30
0.0
  0
POINT
  5
4B0
  8
DEFPOINTS
  6
BYBLOCK
 10
-553.964661
 20
99.852486
 30
0.0
  0
POINT
  5
4B1
  8
DEFPOINTS
  6
BYBLOCK
 10
-821.822754
 20
99.852486
 30
0.0
  0
ENDBLK
  5
4B2
  8
SIZE
  0
BLOCK
  8
SIZE
  2
*D12
 70
     1
 10
0.0
 20
0.0
 30
0.0
  3
*D12
  1

  0
TEXT
  5
4B5
  8
SIZE
  6
CONTINUOUS
 10
1049.035254
 20
-153.087524
 30
0.0
 40
2.8
  1
300
 50
90.00000499999999
 41
0.7
  7
STANDARD1
  0
LINE
  5
4B6
  8
SIZE
  6
CONTINUOUS
 10
401.03537
 20
-0.147514
 30
0.0
 11
1052.035278
 21
-0.147514
 31
0.0
  0
LINE
  5
4B7
  8
SIZE
  6
CONTINUOUS
 10
385.53537
 20
-300.147491
 30
0.0
 11
1052.035278
 21
-300.147491
 31
0.0
  0
LINE
  5
4B8
  8
SIZE
  6
CONTINUOUS
 10
1050.035278
 20
-0.147514
 30
0.0
 11
1050.035278
 21
-300.147491
 31
0.0
  0
INSERT
  5
4B9
  8
SIZE
  2
DOT
 10
1050.035278
 20
-0.147514
 30
0.0
 50
90.0
  0
INSERT
  5
4BA
  8
SIZE
  2
DOT
 10
1050.035278
 20
-300.147491
 30
0.0
 50
270.0
  0
POINT
  5
4BB
  8
DEFPOINTS
  6
BYBLOCK
 10
384.53537
 20
-300.147491
 30
0.0
  0
POINT
  5
4BC
  8
DEFPOINTS
  6
BYBLOCK
 10
400.03537
 20
-0.147514
 30
0.0
  0
POINT
  5
4BD
  8
DEFPOINTS
  6
BYBLOCK
 10
1050.035278
 20
-0.147514
 30
0.0
  0
ENDBLK
  5
4BE
  8
SIZE
  0
BLOCK
  8
SIZE
  2
*D13
 70
     1
 10
0.0
 20
0.0
 30
0.0
  3
*D13
  1

  0
TEXT
  5
4C1
  8
SIZE
  6
CONTINUOUS
 10
-77.654648
 20
590.102075
 30
0.0
 40
2.8
  1
959
 50
0.000003
 41
0.7
  7
STANDARD1
  0
LINE
  5
4C2
  8
SIZE
  6
CONTINUOUS
 10
404.53537
 20
100.852486
 30
0.0
 11
404.53537
 21
591.102051
 31
0.0
  0
LINE
  5
4C3
  8
SIZE
  6
CONTINUOUS
 10
-553.964661
 20
100.852486
 30
0.0
 11
-553.964661
 21
591.102051
 31
0.0
  0
LINE
  5
4C4
  8
SIZE
  6
CONTINUOUS
 10
404.53537
 20
589.102051
 30
0.0
 11
-553.964661
 21
589.102051
 31
0.0
  0
INSERT
  5
4C5
  8
SIZE
  2
DOT
 10
404.53537
 20
589.102051
 30
0.0
  0
INSERT
  5
4C6
  8
SIZE
  2
DOT
 10
-553.964661
 20
589.102051
 30
0.0
 50
180.0
  0
POINT
  5
4C7
  8
DEFPOINTS
  6
BYBLOCK
 10
-553.964661
 20
99.852486
 30
0.0
  0
POINT
  5
4C8
  8
DEFPOINTS
  6
BYBLOCK
 10
404.53537
 20
99.852486
 30
0.0
  0
POINT
  5
4C9
  8
DEFPOINTS
  6
BYBLOCK
 10
404.53537
 20
589.102051
 30
0.0
  0
ENDBLK
  5
4CA
  8
SIZE
  0
BLOCK
  8
SIZE
  2
*D14
 70
     1
 10
0.0
 20
0.0
 30
0.0
  3
*D14
  1

  0
TEXT
  5
4CD
  8
SIZE
  6
CONTINUOUS
 10
-482.154633
 20
448.523157
 30
0.0
 40
2.8
  1
150
 50
0.000003
 41
0.7
  7
STANDARD1
  0
LINE
  5
4CE
  8
SIZE
  6
CONTINUOUS
 10
-404.46463
 20
0.852486
 30
0.0
 11
-404.46463
 21
449.523163
 31
0.0
  0
LINE
  5
4CF
  8
SIZE
  6
CONTINUOUS
 10
-553.964661
 20
100.852486
 30
0.0
 11
-553.964661
 21
449.523163
 31
0.0
  0
LINE
  5
4D0
  8
SIZE
  6
CONTINUOUS
 10
-404.46463
 20
447.523163
 30
0.0
 11
-553.964661
 21
447.523163
 31
0.0
  0
INSERT
  5
4D1
  8
SIZE
  2
DOT
 10
-404.46463
 20
447.523163
 30
0.0
  0
INSERT
  5
4D2
  8
SIZE
  2
DOT
 10
-553.964661
 20
447.523163
 30
0.0
 50
180.0
  0
POINT
  5
4D3
  8
DEFPOINTS
  6
BYBLOCK
 10
-553.964661
 20
99.852486
 30
0.0
  0
POINT
  5
4D4
  8
DEFPOINTS
  6
BYBLOCK
 10
-404.46463
 20
-0.147514
 30
0.0
  0
POINT
  5
4D5
  8
DEFPOINTS
  6
BYBLOCK
 10
-404.46463
 20
447.523163
 30
0.0
  0
ENDBLK
  5
4D6
  8
SIZE
  0
BLOCK
  8
SIZE
  2
*D15
 70
     1
 10
0.0
 20
0.0
 30
0.0
  3
*D15
  1

  0
TEXT
  5
4D9
  8
SIZE
  6
CONTINUOUS
 10
-2.904645
 20
448.523157
 30
0.0
 40
2.8
  1
809
 50
0.000003
 41
0.7
  7
STANDARD1
  0
LINE
  5
4DA
  8
SIZE
  6
CONTINUOUS
 10
-404.46463
 20
0.852486
 30
0.0
 11
-404.46463
 21
449.523163
 31
0.0
  0
LINE
  5
4DB
  8
SIZE
  6
CONTINUOUS
 10
404.53537
 20
100.852486
 30
0.0
 11
404.53537
 21
449.523163
 31
0.0
  0
LINE
  5
4DC
  8
SIZE
  6
CONTINUOUS
 10
-404.46463
 20
447.523163
 30
0.0
 11
404.53537
 21
447.523163
 31
0.0
  0
INSERT
  5
4DD
  8
SIZE
  2
DOT
 10
-404.46463
 20
447.523163
 30
0.0
 50
180.0
  0
INSERT
  5
4DE
  8
SIZE
  2
DOT
 10
404.53537
 20
447.523163
 30
0.0
  0
POINT
  5
4DF
  8
DEFPOINTS
  6
BYBLOCK
 10
404.53537
 20
99.852486
 30
0.0
  0
POINT
  5
4E0
  8
DEFPOINTS
  6
BYBLOCK
 10
-404.46463
 20
-0.147514
 30
0.0
  0
POINT
  5
4E1
  8
DEFPOINTS
  6
BYBLOCK
 10
-404.46463
 20
447.523163
 30
0.0
  0
ENDBLK
  5
4E2
  8
SIZE
  0
BLOCK
  8
SIZE
  2
*D16
 70
     1
 10
0.0
 20
0.0
 30
0.0
  3
*D16
  1

  0
TEXT
  5
4E5
  8
SIZE
  6
CONTINUOUS
 10
129.299345
 20
-619.690002
 30
0.0
 40
2.8
  1
20
 50
90.00000499999999
 41
0.7
  7
STANDARD1
  0
LINE
  5
4E6
  8
SIZE
  6
CONTINUOUS
 10
-383.46463
 20
-300.147491
 30
0.0
 11
132.299347
 21
-300.147491
 31
0.0
  0
LINE
  5
4E7
  8
SIZE
  6
CONTINUOUS
 10
-100.964645
 20
-320.147491
 30
0.0
 11
132.299347
 21
-320.147491
 31
0.0
  0
LINE
  5
4E8
  8
SIZE
  6
CONTINUOUS
 10
130.299347
 20
-295.147491
 30
0.0
 11
130.299347
 21
-621.089966
 31
0.0
  0
INSERT
  5
4E9
  8
SIZE
  2
DOT
 10
130.299347
 20
-300.147491
 30
0.0
 50
90.0
  0
INSERT
  5
4EA
  8
SIZE
  2
DOT
 10
130.299347
 20
-320.147491
 30
0.0
 50
270.0
  0
POINT
  5
4EB
  8
DEFPOINTS
  6
BYBLOCK
 10
-101.964645
 20
-320.147491
 30
0.0
  0
POINT
  5
4EC
  8
DEFPOINTS
  6
BYBLOCK
 10
-384.46463
 20
-300.147491
 30
0.0
  0
POINT
  5
4ED
  8
DEFPOINTS
  6
BYBLOCK
 10
130.299347
 20
-300.147491
 30
0.0
  0
ENDBLK
  5
4EE
  8
SIZE
  0
BLOCK
  8
SIZE
  2
*D17
 70
     1
 10
0.0
 20
0.0
 30
0.0
  3
*D17
  1

  0
TEXT
  5
4F1
  8
SIZE
  6
CONTINUOUS
 10
-256.154633
 20
-648.147498
 30
0.0
 40
2.8
  1
303
 50
0.000003
 41
0.7
  7
STANDARD1
  0
LINE
  5
4F2
  8
SIZE
  6
CONTINUOUS
 10
-101.964645
 20
-359.147491
 30
0.0
 11
-101.964645
 21
-651.147522
 31
0.0
  0
LINE
  5
4F3
  8
SIZE
  6
CONTINUOUS
 10
-404.46463
 20
-301.147491
 30
0.0
 11
-404.46463
 21
-651.147522
 31
0.0
  0
LINE
  5
4F4
  8
SIZE
  6
CONTINUOUS
 10
-101.964645
 20
-649.147522
 30
0.0
 11
-404.46463
 21
-649.147522
 31
0.0
  0
INSERT
  5
4F5
  8
SIZE
  2
DOT
 10
-101.964645
 20
-649.147522
 30
0.0
  0
INSERT
  5
4F6
  8
SIZE
  2
DOT
 10
-404.46463
 20
-649.147522
 30
0.0
 50
180.0
  0
POINT
  5
4F7
  8
DEFPOINTS
  6
BYBLOCK
 10
-404.46463
 20
-300.147491
 30
0.0
  0
POINT
  5
4F8
  8
DEFPOINTS
  6
BYBLOCK
 10
-101.964645
 20
-358.147491
 30
0.0
  0
POINT
  5
4F9
  8
DEFPOINTS
  6
BYBLOCK
 10
-101.964645
 20
-649.147522
 30
0.0
  0
ENDBLK
  5
4FA
  8
SIZE
  0
BLOCK
  8
SIZE
  2
*D18
 70
     1
 10
0.0
 20
0.0
 30
0.0
  3
*D18
  1

  0
TEXT
  5
4FD
  8
SIZE
  6
CONTINUOUS
 10
949.035315
 20
-246.087524
 30
0.0
 40
2.8
  1
178
 50
90.00000499999999
 41
0.7
  7
STANDARD1
  0
LINE
  5
4FE
  8
SIZE
  6
CONTINUOUS
 10
460.53537
 20
-154.147522
 30
0.0
 11
952.035339
 21
-154.147522
 31
0.0
  0
LINE
  5
4FF
  8
SIZE
  6
CONTINUOUS
 10
261.03537
 20
-332.147491
 30
0.0
 11
952.035339
 21
-332.147491
 31
0.0
  0
LINE
  5
500
  8
SIZE
  6
CONTINUOUS
 10
950.035339
 20
-154.147522
 30
0.0
 11
950.035339
 21
-332.147491
 31
0.0
  0
INSERT
  5
501
  8
SIZE
  2
DOT
 10
950.035339
 20
-154.147522
 30
0.0
 50
90.0
  0
INSERT
  5
502
  8
SIZE
  2
DOT
 10
950.035339
 20
-332.147491
 30
0.0
 50
270.0
  0
POINT
  5
503
  8
DEFPOINTS
  6
BYBLOCK
 10
260.03537
 20
-332.147491
 30
0.0
  0
POINT
  5
504
  8
DEFPOINTS
  6
BYBLOCK
 10
459.53537
 20
-154.147522
 30
0.0
  0
POINT
  5
505
  8
DEFPOINTS
  6
BYBLOCK
 10
950.035339
 20
-154.147522
 30
0.0
  0
ENDBLK
  5
506
  8
SIZE
  0
BLOCK
  8
SIZE
  2
*D19
 70
     1
 10
0.0
 20
0.0
 30
0.0
  3
*D19
  1

  0
TEXT
  5
509
  8
SIZE
  6
CONTINUOUS
 10
849.035315
 20
-253.587524
 30
0.0
 40
2.8
  1
163
 50
90.00000499999999
 41
0.7
  7
STANDARD1
  0
LINE
  5
50A
  8
SIZE
  6
CONTINUOUS
 10
460.53537
 20
-169.147522
 30
0.0
 11
852.035339
 21
-169.147522
 31
0.0
  0
LINE
  5
50B
  8
SIZE
  6
CONTINUOUS
 10
261.03537
 20
-332.147491
 30
0.0
 11
852.035339
 21
-332.147491
 31
0.0
  0
LINE
  5
50C
  8
SIZE
  6
CONTINUOUS
 10
850.035339
 20
-169.147522
 30
0.0
 11
850.035339
 21
-332.147491
 31
0.0
  0
INSERT
  5
50D
  8
SIZE
  2
DOT
 10
850.035339
 20
-169.147522
 30
0.0
 50
90.0
  0
INSERT
  5
50E
  8
SIZE
  2
DOT
 10
850.035339
 20
-332.147491
 30
0.0
 50
270.0
  0
POINT
  5
50F
  8
DEFPOINTS
  6
BYBLOCK
 10
260.03537
 20
-332.147491
 30
0.0
  0
POINT
  5
510
  8
DEFPOINTS
  6
BYBLOCK
 10
459.53537
 20
-169.147522
 30
0.0
  0
POINT
  5
511
  8
DEFPOINTS
  6
BYBLOCK
 10
850.035339
 20
-169.147522
 30
0.0
  0
ENDBLK
  5
512
  8
SIZE
  0
BLOCK
  8
SIZE
  2
*D20
 70
     1
 10
0.0
 20
0.0
 30
0.0
  3
*D20
  1

  0
TEXT
  5
515
  8
SIZE
  6
CONTINUOUS
 10
315.512909
 20
300.852502
 30
0.0
 40
2.8
  1
35
 50
0.000003
 41
0.7
  7
STANDARD1
  0
LINE
  5
516
  8
SIZE
  6
CONTINUOUS
 10
404.53537
 20
-34.147511
 30
0.0
 11
404.53537
 21
301.852509
 31
0.0
  0
LINE
  5
517
  8
SIZE
  6
CONTINUOUS
 10
439.53537
 20
-132.147507
 30
0.0
 11
439.53537
 21
301.852509
 31
0.0
  0
LINE
  5
518
  8
SIZE
  6
CONTINUOUS
 10
314.112915
 20
299.852509
 30
0.0
 11
444.53537
 21
299.852509
 31
0.0
  0
INSERT
  5
519
  8
SIZE
  2
DOT
 10
404.53537
 20
299.852509
 30
0.0
 50
180.0
  0
INSERT
  5
51A
  8
SIZE
  2
DOT
 10
439.53537
 20
299.852509
 30
0.0
  0
POINT
  5
51B
  8
DEFPOINTS
  6
BYBLOCK
 10
439.53537
 20
-133.147507
 30
0.0
  0
POINT
  5
51C
  8
DEFPOINTS
  6
BYBLOCK
 10
404.53537
 20
-35.147511
 30
0.0
  0
POINT
  5
51D
  8
DEFPOINTS
  6
BYBLOCK
 10
404.53537
 20
299.852509
 30
0.0
  0
ENDBLK
  5
51E
  8
SIZE
  0
BLOCK
  8
SIZE
  2
*D21
 70
     1
 10
0.0
 20
0.0
 30
0.0
  3
*D21
  1

  0
TEXT
  5
521
  8
SIZE
  6
CONTINUOUS
 10
-650.964685
 20
57.484985
 30
0.0
 40
2.8
  1
28
 50
90.00000499999999
 41
0.7
  7
STANDARD1
  0
LINE
  5
522
  8
SIZE
  6
CONTINUOUS
 10
-263.46463
 20
27.852488
 30
0.0
 11
-651.964661
 21
27.852488
 31
0.0
  0
LINE
  5
523
  8
SIZE
  6
CONTINUOUS
 10
-550.964661
 20
-0.147514
 30
0.0
 11
-651.964661
 21
-0.147514
 31
0.0
  0
LINE
  5
524
  8
SIZE
  6
CONTINUOUS
 10
-649.964661
 20
62.804985
 30
0.0
 11
-649.964661
 21
-5.147514
 31
0.0
  0
INSERT
  5
525
  8
SIZE
  2
DOT
 10
-649.964661
 20
27.852488
 30
0.0
 50
90.0
  0
INSERT
  5
526
  8
SIZE
  2
DOT
 10
-649.964661
 20
-0.147514
 30
0.0
 50
270.0
  0
POINT
  5
527
  8
DEFPOINTS
  6
BYBLOCK
 10
-549.964661
 20
-0.147514
 30
0.0
  0
POINT
  5
528
  8
DEFPOINTS
  6
BYBLOCK
 10
-262.46463
 20
27.852488
 30
0.0
  0
POINT
  5
529
  8
DEFPOINTS
  6
BYBLOCK
 10
-649.964661
 20
27.852488
 30
0.0
  0
ENDBLK
  5
52A
  8
SIZE
  0
BLOCK
  8
SIZE
  2
*D22
 70
     1
 10
0.0
 20
0.0
 30
0.0
  3
*D22
  1

  0
TEXT
  5
52D
  8
SIZE
  6
CONTINUOUS
 10
949.035315
 20
52.41663
 30
0.0
 40
2.8
  1
10
 50
90.00000499999999
 41
0.7
  7
STANDARD1
  0
LINE
  5
52E
  8
SIZE
  6
CONTINUOUS
 10
271.03537
 20
9.852486
 30
0.0
 11
952.035339
 21
9.852486
 31
0.0
  0
LINE
  5
52F
  8
SIZE
  6
CONTINUOUS
 10
401.03537
 20
-0.147514
 30
0.0
 11
952.035339
 21
-0.147514
 31
0.0
  0
LINE
  5
530
  8
SIZE
  6
CONTINUOUS
 10
950.035339
 20
57.736629
 30
0.0
 11
950.035339
 21
-5.147514
 31
0.0
  0
INSERT
  5
531
  8
SIZE
  2
DOT
 10
950.035339
 20
9.852486
 30
0.0
 50
90.0
  0
INSERT
  5
532
  8
SIZE
  2
DOT
 10
950.035339
 20
-0.147514
 30
0.0
 50
270.0
  0
POINT
  5
533
  8
DEFPOINTS
  6
BYBLOCK
 10
400.03537
 20
-0.147514
 30
0.0
  0
POINT
  5
534
  8
DEFPOINTS
  6
BYBLOCK
 10
270.03537
 20
9.852486
 30
0.0
  0
POINT
  5
535
  8
DEFPOINTS
  6
BYBLOCK
 10
950.035339
 20
9.852486
 30
0.0
  0
ENDBLK
  5
536
  8
SIZE
  0
BLOCK
  8
SIZE
  2
*D23
 70
     1
 10
0.0
 20
0.0
 30
0.0
  3
*D23
  1

  0
TEXT
  5
539
  8
SIZE
  6
CONTINUOUS
 10
1049.035254
 20
55.323269
 30
0.0
 40
2.8
  1
16
 50
90.00000499999999
 41
0.7
  7
STANDARD1
  0
LINE
  5
53A
  8
SIZE
  6
CONTINUOUS
 10
311.03537
 20
15.852485
 30
0.0
 11
1052.035278
 21
15.852485
 31
0.0
  0
LINE
  5
53B
  8
SIZE
  6
CONTINUOUS
 10
381.03537
 20
-0.147514
 30
0.0
 11
1052.035278
 21
-0.147514
 31
0.0
  0
LINE
  5
53C
  8
SIZE
  6
CONTINUOUS
 10
1050.035278
 20
60.643269
 30
0.0
 11
1050.035278
 21
-5.147514
 31
0.0
  0
INSERT
  5
53D
  8
SIZE
  2
DOT
 10
1050.035278
 20
15.852485
 30
0.0
 50
90.0
  0
INSERT
  5
53E
  8
SIZE
  2
DOT
 10
1050.035278
 20
-0.147514
 30
0.0
 50
270.0
  0
POINT
  5
53F
  8
DEFPOINTS
  6
BYBLOCK
 10
380.03537
 20
-0.147514
 30
0.0
  0
POINT
  5
540
  8
DEFPOINTS
  6
BYBLOCK
 10
310.03537
 20
15.852485
 30
0.0
  0
POINT
  5
541
  8
DEFPOINTS
  6
BYBLOCK
 10
1050.035278
 20
15.852485
 30
0.0
  0
ENDBLK
  5
542
  8
SIZE
  0
BLOCK
  8
SIZE
  2
*D24
 70
     1
 10
0.0
 20
0.0
 30
0.0
  3
*D24
  1

  0
TEXT
  5
545
  8
SIZE
  6
CONTINUOUS
 10
248.075348
 20
-649.147498
 30
0.0
 40
2.8
  1
40
 50
0.000003
 41
0.7
  7
STANDARD1
  0
LINE
  5
546
  8
SIZE
  6
CONTINUOUS
 10
270.03537
 20
-323.147522
 30
0.0
 11
270.03537
 21
-652.147522
 31
0.0
  0
LINE
  5
547
  8
SIZE
  6
CONTINUOUS
 10
230.035355
 20
-323.147522
 30
0.0
 11
230.035355
 21
-652.147522
 31
0.0
  0
LINE
  5
548
  8
SIZE
  6
CONTINUOUS
 10
270.03537
 20
-650.147522
 30
0.0
 11
230.035355
 21
-650.147522
 31
0.0
  0
INSERT
  5
549
  8
SIZE
  2
DOT
 10
270.03537
 20
-650.147522
 30
0.0
  0
INSERT
  5
54A
  8
SIZE
  2
DOT
 10
230.035355
 20
-650.147522
 30
0.0
 50
180.0
  0
POINT
  5
54B
  8
DEFPOINTS
  6
BYBLOCK
 10
230.035355
 20
-322.147522
 30
0.0
  0
POINT
  5
54C
  8
DEFPOINTS
  6
BYBLOCK
 10
270.03537
 20
-322.147522
 30
0.0
  0
POINT
  5
54D
  8
DEFPOINTS
  6
BYBLOCK
 10
270.03537
 20
-650.147522
 30
0.0
  0
ENDBLK
  5
54E
  8
SIZE
  0
BLOCK
  8
SIZE
  2
*D25
 70
     1
 10
0.0
 20
0.0
 30
0.0
  3
*D25
  1

  0
TEXT
  5
551
  8
SIZE
  6
CONTINUOUS
 10
-2.904645
 20
300.852502
 30
0.0
 40
2.8
  1
500
 50
0.000003
 41
0.7
  7
STANDARD1
  0
LINE
  5
552
  8
SIZE
  6
CONTINUOUS
 10
-249.964645
 20
30.852488
 30
0.0
 11
-249.964645
 21
301.852509
 31
0.0
  0
LINE
  5
553
  8
SIZE
  6
CONTINUOUS
 10
250.035355
 20
30.852488
 30
0.0
 11
250.035355
 21
301.852509
 31
0.0
  0
LINE
  5
554
  8
SIZE
  6
CONTINUOUS
 10
-249.964645
 20
299.852509
 30
0.0
 11
250.035355
 21
299.852509
 31
0.0
  0
INSERT
  5
555
  8
SIZE
  2
DOT
 10
-249.964645
 20
299.852509
 30
0.0
 50
180.0
  0
INSERT
  5
556
  8
SIZE
  2
DOT
 10
250.035355
 20
299.852509
 30
0.0
  0
POINT
  5
557
  8
DEFPOINTS
  6
BYBLOCK
 10
250.035355
 20
29.852488
 30
0.0
  0
POINT
  5
558
  8
DEFPOINTS
  6
BYBLOCK
 10
-249.964645
 20
29.852488
 30
0.0
  0
POINT
  5
559
  8
DEFPOINTS
  6
BYBLOCK
 10
-249.964645
 20
299.852509
 30
0.0
  0
ENDBLK
  5
55A
  8
SIZE
  0
BLOCK
  8
SIZE
  2
*D26
 70
     1
 10
0.0
 20
0.0
 30
0.0
  3
*D26
  1

  0
TEXT
  5
55D
  8
SIZE
  6
CONTINUOUS
 10
437.575378
 20
448.523157
 30
0.0
 40
2.8
  1
70
 50
0.000003
 41
0.7
  7
STANDARD1
  0
LINE
  5
55E
  8
SIZE
  6
CONTINUOUS
 10
474.53537
 20
-94.990036
 30
0.0
 11
474.53537
 21
449.523163
 31
0.0
  0
LINE
  5
55F
  8
SIZE
  6
CONTINUOUS
 10
404.53537
 20
-34.147511
 30
0.0
 11
404.53537
 21
449.523163
 31
0.0
  0
LINE
  5
560
  8
SIZE
  6
CONTINUOUS
 10
474.53537
 20
447.523163
 30
0.0
 11
404.53537
 21
447.523163
 31
0.0
  0
INSERT
  5
561
  8
SIZE
  2
DOT
 10
474.53537
 20
447.523163
 30
0.0
  0
INSERT
  5
562
  8
SIZE
  2
DOT
 10
404.53537
 20
447.523163
 30
0.0
 50
180.0
  0
POINT
  5
563
  8
DEFPOINTS
  6
BYBLOCK
 10
404.53537
 20
-35.147511
 30
0.0
  0
POINT
  5
564
  8
DEFPOINTS
  6
BYBLOCK
 10
474.53537
 20
-95.990036
 30
0.0
  0
POINT
  5
565
  8
DEFPOINTS
  6
BYBLOCK
 10
474.53537
 20
447.523163
 30
0.0
  0
ENDBLK
  5
566
  8
SIZE
  0
BLOCK
  8
0
  2
_ORIGIN
 70
     0
 10
0.0
 20
0.0
 30
0.0
  3
_ORIGIN
  1

  0
CIRCLE
  5
569
  8
0
  6
BYBLOCK
 62
     0
 10
0.0
 20
0.0
 30
0.0
 40
0.5
  0
LINE
  5
56A
  8
0
  6
BYBLOCK
 62
     0
 10
0.0
 20
0.0
 30
0.0
 11
-1.0
 21
0.0
 31
0.0
  0
ENDBLK
  5
56B
  8
0
  0
BLOCK
  8
0
  2
*D28
 70
     1
 10
0.0
 20
0.0
 30
0.0
  3
*D28
  1

  0
LINE
  5
56E
  8
0
  6
BYBLOCK
 62
     0
 10
404.53537
 20
-25.147511
 30
0.0
 11
404.53537
 21
462.423163
 31
0.0
  0
LINE
  5
56F
  8
0
  6
BYBLOCK
 62
     0
 10
474.53537
 20
-85.990036
 30
0.0
 11
474.53537
 21
462.423163
 31
0.0
  0
LINE
  5
570
  8
0
  6
BYBLOCK
 62
     0
 10
414.53537
 20
449.923163
 30
0.0
 11
464.53537
 21
449.923163
 31
0.0
  0
INSERT
  5
571
  8
0
  6
BYBLOCK
 62
     0
  2
_ORIGIN
 10
404.53537
 20
449.923163
 30
0.0
 41
10.0
 42
10.0
 43
10.0
 50
180.0
  0
INSERT
  5
572
  8
0
  6
BYBLOCK
 62
     0
  2
_ORIGIN
 10
474.53537
 20
449.923163
 30
0.0
 41
10.0
 42
10.0
 43
10.0
  0
TEXT
  5
573
  8
0
  6
BYBLOCK
 62
     0
 10
412.08537
 20
459.923163
 30
0.0
 40
30.0
  1
70
 72
     1
 11
439.53537
 21
459.923163
 31
0.0
  0
POINT
  5
574
  8
DEFPOINTS
  6
BYBLOCK
 62
     0
 10
404.53537
 20
-35.147511
 30
0.0
  0
POINT
  5
575
  8
DEFPOINTS
  6
BYBLOCK
 62
     0
 10
474.53537
 20
-95.990036
 30
0.0
  0
POINT
  5
576
  8
DEFPOINTS
  6
BYBLOCK
 62
     0
 10
474.53537
 20
449.923163
 30
0.0
  0
ENDBLK
  5
577
  8
0
  0
BLOCK
  8
0
  2
*D29
 70
     1
 10
0.0
 20
0.0
 30
0.0
  3
*D29
  1

  0
LINE
  5
57A
  8
0
  6
BYBLOCK
 62
     0
 10
250.035355
 20
39.852488
 30
0.0
 11
250.035355
 21
314.752509
 31
0.0
  0
LINE
  5
57B
  8
0
  6
BYBLOCK
 62
     0
 10
-249.964645
 20
39.852488
 30
0.0
 11
-249.964645
 21
314.752509
 31
0.0
  0
LINE
  5
57C
  8
0
  6
BYBLOCK
 62
     0
 10
240.035355
 20
302.252509
 30
0.0
 11
-239.964645
 21
302.252509
 31
0.0
  0
INSERT
  5
57D
  8
0
  6
BYBLOCK
 62
     0
  2
_ORIGIN
 10
250.035355
 20
302.252509
 30
0.0
 41
10.0
 42
10.0
 43
10.0
  0
INSERT
  5
57E
  8
0
  6
BYBLOCK
 62
     0
  2
_ORIGIN
 10
-249.964645
 20
302.252509
 30
0.0
 41
10.0
 42
10.0
 43
10.0
 50
180.0
  0
TEXT
  5
57F
  8
0
  6
BYBLOCK
 62
     0
 10
-39.864645
 20
312.252509
 30
0.0
 40
30.0
  1
500
 72
     1
 11
0.035355
 21
312.252509
 31
0.0
  0
POINT
  5
580
  8
DEFPOINTS
  6
BYBLOCK
 62
     0
 10
250.035355
 20
29.852488
 30
0.0
  0
POINT
  5
581
  8
DEFPOINTS
  6
BYBLOCK
 62
     0
 10
-249.964645
 20
29.852488
 30
0.0
  0
POINT
  5
582
  8
DEFPOINTS
  6
BYBLOCK
 62
     0
 10
-249.964645
 20
302.252509
 30
0.0
  0
ENDBLK
  5
583
  8
0
  0
BLOCK
  8
0
  2
*D30
 70
     1
 10
0.0
 20
0.0
 30
0.0
  3
*D30
  1

  0
LINE
  5
586
  8
0
  6
BYBLOCK
 62
     0
 10
230.035355
 20
-332.147522
 30
0.0
 11
230.035355
 21
-660.247522
 31
0.0
  0
LINE
  5
587
  8
0
  6
BYBLOCK
 62
     0
 10
270.03537
 20
-332.147522
 30
0.0
 11
270.03537
 21
-660.247522
 31
0.0
  0
LINE
  5
588
  8
0
  6
BYBLOCK
 62
     0
 10
240.035355
 20
-647.747522
 30
0.0
 11
260.03537
 21
-647.747522
 31
0.0
  0
INSERT
  5
589
  8
0
  6
BYBLOCK
 62
     0
  2
_ORIGIN
 10
230.035355
 20
-647.747522
 30
0.0
 41
10.0
 42
10.0
 43
10.0
 50
180.0
  0
INSERT
  5
58A
  8
0
  6
BYBLOCK
 62
     0
  2
_ORIGIN
 10
270.03537
 20
-647.747522
 30
0.0
 41
10.0
 42
10.0
 43
10.0
  0
TEXT
  5
58B
  8
0
  6
BYBLOCK
 62
     0
 10
222.585362
 20
-637.747522
 30
0.0
 40
30.0
  1
40
 72
     1
 11
250.035362
 21
-637.747522
 31
0.0
  0
POINT
  5
58C
  8
DEFPOINTS
  6
BYBLOCK
 62
     0
 10
230.035355
 20
-322.147522
 30
0.0
  0
POINT
  5
58D
  8
DEFPOINTS
  6
BYBLOCK
 62
     0
 10
270.03537
 20
-322.147522
 30
0.0
  0
POINT
  5
58E
  8
DEFPOINTS
  6
BYBLOCK
 62
     0
 10
270.03537
 20
-647.747522
 30
0.0
  0
ENDBLK
  5
58F
  8
0
  0
BLOCK
  8
0
  2
*D31
 70
     1
 10
0.0
 20
0.0
 30
0.0
  3
*D31
  1

  0
LINE
  5
592
  8
0
  6
BYBLOCK
 62
     0
 10
390.03537
 20
-0.147514
 30
0.0
 11
1060.135278
 21
-0.147514
 31
0.0
  0
LINE
  5
593
  8
0
  6
BYBLOCK
 62
     0
 10
320.03537
 20
15.852485
 30
0.0
 11
1060.135278
 21
15.852485
 31
0.0
  0
LINE
  5
594
  8
0
  6
BYBLOCK
 62
     0
 10
1047.635278
 20
-10.147514
 30
0.0
 11
1047.635278
 21
-20.147514
 31
0.0
  0
LINE
  5
595
  8
0
  6
BYBLOCK
 62
     0
 10
1047.635278
 20
25.852485
 30
0.0
 11
1047.635278
 21
95.852485
 31
0.0
  0
LINE
  5
596
  8
0
  6
BYBLOCK
 62
     0
 10
1047.635278
 20
-0.147514
 30
0.0
 11
1047.635278
 21
15.852485
 31
0.0
  0
INSERT
  5
597
  8
0
  6
BYBLOCK
 62
     0
  2
_ORIGIN
 10
1047.635278
 20
-0.147514
 30
0.0
 41
10.0
 42
10.0
 43
10.0
 50
90.0
  0
INSERT
  5
598
  8
0
  6
BYBLOCK
 62
     0
  2
_ORIGIN
 10
1047.635278
 20
15.852485
 30
0.0
 41
10.0
 42
10.0
 43
10.0
 50
270.0
  0
TEXT
  5
599
  8
0
  6
BYBLOCK
 62
     0
 10
1037.635278
 20
41.102485
 30
0.0
 40
30.0
  1
16
 50
90.0
 72
     1
 11
1037.635278
 21
65.852485
 31
0.0
  0
POINT
  5
59A
  8
DEFPOINTS
  6
BYBLOCK
 62
     0
 10
380.03537
 20
-0.147514
 30
0.0
  0
POINT
  5
59B
  8
DEFPOINTS
  6
BYBLOCK
 62
     0
 10
310.03537
 20
15.852485
 30
0.0
  0
POINT
  5
59C
  8
DEFPOINTS
  6
BYBLOCK
 62
     0
 10
1047.635278
 20
15.852485
 30
0.0
  0
ENDBLK
  5
59D
  8
0
  0
BLOCK
  8
0
  2
*D32
 70
     1
 10
0.0
 20
0.0
 30
0.0
  3
*D32
  1

  0
LINE
  5
5A0
  8
0
  6
BYBLOCK
 62
     0
 10
410.03537
 20
-0.147514
 30
0.0
 11
960.135339
 21
-0.147514
 31
0.0
  0
LINE
  5
5A1
  8
0
  6
BYBLOCK
 62
     0
 10
280.03537
 20
9.852486
 30
0.0
 11
960.135339
 21
9.852486
 31
0.0
  0
LINE
  5
5A2
  8
0
  6
BYBLOCK
 62
     0
 10
947.635339
 20
-10.147514
 30
0.0
 11
947.635339
 21
-20.147514
 31
0.0
  0
LINE
  5
5A3
  8
0
  6
BYBLOCK
 62
     0
 10
947.635339
 20
19.852486
 30
0.0
 11
947.635339
 21
84.852486
 31
0.0
  0
LINE
  5
5A4
  8
0
  6
BYBLOCK
 62
     0
 10
947.635339
 20
-0.147514
 30
0.0
 11
947.635339
 21
9.852486
 31
0.0
  0
INSERT
  5
5A5
  8
0
  6
BYBLOCK
 62
     0
  2
_ORIGIN
 10
947.635339
 20
-0.147514
 30
0.0
 41
10.0
 42
10.0
 43
10.0
 50
90.0
  0
INSERT
  5
5A6
  8
0
  6
BYBLOCK
 62
     0
  2
_ORIGIN
 10
947.635339
 20
9.852486
 30
0.0
 41
10.0
 42
10.0
 43
10.0
 50
270.0
  0
TEXT
  5
5A7
  8
0
  6
BYBLOCK
 62
     0
 10
937.635339
 20
35.152486
 30
0.0
 40
30.0
  1
10
 50
90.0
 72
     1
 11
937.635339
 21
57.352486
 31
0.0
  0
POINT
  5
5A8
  8
DEFPOINTS
  6
BYBLOCK
 62
     0
 10
400.03537
 20
-0.147514
 30
0.0
  0
POINT
  5
5A9
  8
DEFPOINTS
  6
BYBLOCK
 62
     0
 10
270.03537
 20
9.852486
 30
0.0
  0
POINT
  5
5AA
  8
DEFPOINTS
  6
BYBLOCK
 62
     0
 10
947.635339
 20
9.852486
 30
0.0
  0
ENDBLK
  5
5AB
  8
0
  0
BLOCK
  8
0
  2
*D33
 70
     1
 10
0.0
 20
0.0
 30
0.0
  3
*D33
  1

  0
LINE
  5
5AE
  8
0
  6
BYBLOCK
 62
     0
 10
-559.964661
 20
-0.147514
 30
0.0
 11
-664.864661
 21
-0.147514
 31
0.0
  0
LINE
  5
5AF
  8
0
  6
BYBLOCK
 62
     0
 10
-272.46463
 20
27.852488
 30
0.0
 11
-664.864661
 21
27.852488
 31
0.0
  0
LINE
  5
5B0
  8
0
  6
BYBLOCK
 62
     0
 10
-652.364661
 20
-10.147514
 30
0.0
 11
-652.364661
 21
-20.147514
 31
0.0
  0
LINE
  5
5B1
  8
0
  6
BYBLOCK
 62
     0
 10
-652.364661
 20
37.852488
 30
0.0
 11
-652.364661
 21
117.852488
 31
0.0
  0
LINE
  5
5B2
  8
0
  6
BYBLOCK
 62
     0
 10
-652.364661
 20
-0.147514
 30
0.0
 11
-652.364661
 21
27.852488
 31
0.0
  0
INSERT
  5
5B3
  8
0
  6
BYBLOCK
 62
     0
  2
_ORIGIN
 10
-652.364661
 20
-0.147514
 30
0.0
 41
10.0
 42
10.0
 43
10.0
 50
90.0
  0
INSERT
  5
5B4
  8
0
  6
BYBLOCK
 62
     0
  2
_ORIGIN
 10
-652.364661
 20
27.852488
 30
0.0
 41
10.0
 42
10.0
 43
10.0
 50
270.0
  0
TEXT
  5
5B5
  8
0
  6
BYBLOCK
 62
     0
 10
-662.364661
 20
52.852488
 30
0.0
 40
30.0
  1
28
 50
90.0
 72
     1
 11
-662.364661
 21
82.852488
 31
0.0
  0
POINT
  5
5B6
  8
DEFPOINTS
  6
BYBLOCK
 62
     0
 10
-549.964661
 20
-0.147514
 30
0.0
  0
POINT
  5
5B7
  8
DEFPOINTS
  6
BYBLOCK
 62
     0
 10
-262.46463
 20
27.852488
 30
0.0
  0
POINT
  5
5B8
  8
DEFPOINTS
  6
BYBLOCK
 62
     0
 10
-652.364661
 20
27.852488
 30
0.0
  0
ENDBLK
  5
5B9
  8
0
  0
BLOCK
  8
0
  2
*D34
 70
     1
 10
0.0
 20
0.0
 30
0.0
  3
*D34
  1

  0
LINE
  5
5BC
  8
0
  6
BYBLOCK
 62
     0
 10
439.53537
 20
-123.147507
 30
0.0
 11
439.53537
 21
314.752509
 31
0.0
  0
LINE
  5
5BD
  8
0
  6
BYBLOCK
 62
     0
 10
404.53537
 20
-25.147511
 30
0.0
 11
404.53537
 21
314.752509
 31
0.0
  0
LINE
  5
5BE
  8
0
  6
BYBLOCK
 62
     0
 10
449.53537
 20
302.252509
 30
0.0
 11
459.53537
 21
302.252509
 31
0.0
  0
LINE
  5
5BF
  8
0
  6
BYBLOCK
 62
     0
 10
394.53537
 20
302.252509
 30
0.0
 11
282.472909
 21
302.252509
 31
0.0
  0
LINE
  5
5C0
  8
0
  6
BYBLOCK
 62
     0
 10
439.53537
 20
302.252509
 30
0.0
 11
404.53537
 21
302.252509
 31
0.0
  0
INSERT
  5
5C1
  8
0
  6
BYBLOCK
 62
     0
  2
_ORIGIN
 10
439.53537
 20
302.252509
 30
0.0
 41
10.0
 42
10.0
 43
10.0
 50
180.0
  0
INSERT
  5
5C2
  8
0
  6
BYBLOCK
 62
     0
  2
_ORIGIN
 10
404.53537
 20
302.252509
 30
0.0
 41
10.0
 42
10.0
 43
10.0
  0
TEXT
  5
5C3
  8
0
  6
BYBLOCK
 62
     0
 10
287.472909
 20
312.252509
 30
0.0
 40
30.0
  1
35
 72
     1
 11
317.472909
 21
312.252509
 31
0.0
  0
POINT
  5
5C4
  8
DEFPOINTS
  6
BYBLOCK
 62
     0
 10
439.53537
 20
-133.147507
 30
0.0
  0
POINT
  5
5C5
  8
DEFPOINTS
  6
BYBLOCK
 62
     0
 10
404.53537
 20
-35.147511
 30
0.0
  0
POINT
  5
5C6
  8
DEFPOINTS
  6
BYBLOCK
 62
     0
 10
404.53537
 20
302.252509
 30
0.0
  0
ENDBLK
  5
5C7
  8
0
  0
BLOCK
  8
0
  2
*D35
 70
     1
 10
0.0
 20
0.0
 30
0.0
  3
*D35
  1

  0
LINE
  5
5CA
  8
0
  6
BYBLOCK
 62
     0
 10
270.03537
 20
-332.147491
 30
0.0
 11
860.135339
 21
-332.147491
 31
0.0
  0
LINE
  5
5CB
  8
0
  6
BYBLOCK
 62
     0
 10
469.53537
 20
-169.147522
 30
0.0
 11
860.135339
 21
-169.147522
 31
0.0
  0
LINE
  5
5CC
  8
0
  6
BYBLOCK
 62
     0
 10
847.635339
 20
-322.147491
 30
0.0
 11
847.635339
 21
-179.147522
 31
0.0
  0
INSERT
  5
5CD
  8
0
  6
BYBLOCK
 62
     0
  2
_ORIGIN
 10
847.635339
 20
-332.147491
 30
0.0
 41
10.0
 42
10.0
 43
10.0
 50
270.0
  0
INSERT
  5
5CE
  8
0
  6
BYBLOCK
 62
     0
  2
_ORIGIN
 10
847.635339
 20
-169.147522
 30
0.0
 41
10.0
 42
10.0
 43
10.0
 50
90.0
  0
TEXT
  5
5CF
  8
0
  6
BYBLOCK
 62
     0
 10
837.635339
 20
-290.397522
 30
0.0
 40
30.0
  1
163
 50
90.0
 72
     1
 11
837.635339
 21
-250.647522
 31
0.0
  0
POINT
  5
5D0
  8
DEFPOINTS
  6
BYBLOCK
 62
     0
 10
260.03537
 20
-332.147491
 30
0.0
  0
POINT
  5
5D1
  8
DEFPOINTS
  6
BYBLOCK
 62
     0
 10
459.53537
 20
-169.147522
 30
0.0
  0
POINT
  5
5D2
  8
DEFPOINTS
  6
BYBLOCK
 62
     0
 10
847.635339
 20
-169.147522
 30
0.0
  0
ENDBLK
  5
5D3
  8
0
  0
BLOCK
  8
0
  2
*D36
 70
     1
 10
0.0
 20
0.0
 30
0.0
  3
*D36
  1

  0
LINE
  5
5D6
  8
0
  6
BYBLOCK
 62
     0
 10
270.03537
 20
-332.147491
 30
0.0
 11
960.135339
 21
-332.147491
 31
0.0
  0
LINE
  5
5D7
  8
0
  6
BYBLOCK
 62
     0
 10
469.53537
 20
-154.147522
 30
0.0
 11
960.135339
 21
-154.147522
 31
0.0
  0
LINE
  5
5D8
  8
0
  6
BYBLOCK
 62
     0
 10
947.635339
 20
-322.147491
 30
0.0
 11
947.635339
 21
-164.147522
 31
0.0
  0
INSERT
  5
5D9
  8
0
  6
BYBLOCK
 62
     0
  2
_ORIGIN
 10
947.635339
 20
-332.147491
 30
0.0
 41
10.0
 42
10.0
 43
10.0
 50
270.0
  0
INSERT
  5
5DA
  8
0
  6
BYBLOCK
 62
     0
  2
_ORIGIN
 10
947.635339
 20
-154.147522
 30
0.0
 41
10.0
 42
10.0
 43
10.0
 50
90.0
  0
TEXT
  5
5DB
  8
0
  6
BYBLOCK
 62
     0
 10
937.635339
 20
-282.897522
 30
0.0
 40
30.0
  1
178
 50
90.0
 72
     1
 11
937.635339
 21
-243.147522
 31
0.0
  0
POINT
  5
5DC
  8
DEFPOINTS
  6
BYBLOCK
 62
     0
 10
260.03537
 20
-332.147491
 30
0.0
  0
POINT
  5
5DD
  8
DEFPOINTS
  6
BYBLOCK
 62
     0
 10
459.53537
 20
-154.147522
 30
0.0
  0
POINT
  5
5DE
  8
DEFPOINTS
  6
BYBLOCK
 62
     0
 10
947.635339
 20
-154.147522
 30
0.0
  0
ENDBLK
  5
5DF
  8
0
  0
BLOCK
  8
0
  2
*D37
 70
     1
 10
0.0
 20
0.0
 30
0.0
  3
*D37
  1

  0
LINE
  5
5E2
  8
0
  6
BYBLOCK
 62
     0
 10
-404.46463
 20
-310.147491
 30
0.0
 11
-404.46463
 21
-659.247522
 31
0.0
  0
LINE
  5
5E3
  8
0
  6
BYBLOCK
 62
     0
 10
-101.964645
 20
-368.147491
 30
0.0
 11
-101.964645
 21
-659.247522
 31
0.0
  0
LINE
  5
5E4
  8
0
  6
BYBLOCK
 62
     0
 10
-394.46463
 20
-646.747522
 30
0.0
 11
-111.964645
 21
-646.747522
 31
0.0
  0
INSERT
  5
5E5
  8
0
  6
BYBLOCK
 62
     0
  2
_ORIGIN
 10
-404.46463
 20
-646.747522
 30
0.0
 41
10.0
 42
10.0
 43
10.0
 50
180.0
  0
INSERT
  5
5E6
  8
0
  6
BYBLOCK
 62
     0
  2
_ORIGIN
 10
-101.964645
 20
-646.747522
 30
0.0
 41
10.0
 42
10.0
 43
10.0
  0
TEXT
  5
5E7
  8
0
  6
BYBLOCK
 62
     0
 10
-295.664645
 20
-636.747522
 30
0.0
 40
30.0
  1
303
 72
     1
 11
-253.214645
 21
-636.747522
 31
0.0
  0
POINT
  5
5E8
  8
DEFPOINTS
  6
BYBLOCK
 62
     0
 10
-404.46463
 20
-300.147491
 30
0.0
  0
POINT
  5
5E9
  8
DEFPOINTS
  6
BYBLOCK
 62
     0
 10
-101.964645
 20
-358.147491
 30
0.0
  0
POINT
  5
5EA
  8
DEFPOINTS
  6
BYBLOCK
 62
     0
 10
-101.964645
 20
-646.747522
 30
0.0
  0
ENDBLK
  5
5EB
  8
0
  0
BLOCK
  8
0
  2
*D38
 70
     1
 10
0.0
 20
0.0
 30
0.0
  3
*D38
  1

  0
LINE
  5
5EE
  8
0
  6
BYBLOCK
 62
     0
 10
-91.964645
 20
-320.147491
 30
0.0
 11
140.399347
 21
-320.147491
 31
0.0
  0
LINE
  5
5EF
  8
0
  6
BYBLOCK
 62
     0
 10
-374.46463
 20
-300.147491
 30
0.0
 11
140.399347
 21
-300.147491
 31
0.0
  0
LINE
  5
5F0
  8
0
  6
BYBLOCK
 62
     0
 10
127.899347
 20
-290.147491
 30
0.0
 11
127.899347
 21
-280.147491
 31
0.0
  0
LINE
  5
5F1
  8
0
  6
BYBLOCK
 62
     0
 10
127.899347
 20
-330.147491
 30
0.0
 11
127.899347
 21
-650.229981
 31
0.0
  0
LINE
  5
5F2
  8
0
  6
BYBLOCK
 62
     0
 10
127.899347
 20
-300.147491
 30
0.0
 11
127.899347
 21
-320.147491
 31
0.0
  0
INSERT
  5
5F3
  8
0
  6
BYBLOCK
 62
     0
  2
_ORIGIN
 10
127.899347
 20
-300.147491
 30
0.0
 41
10.0
 42
10.0
 43
10.0
 50
270.0
  0
INSERT
  5
5F4
  8
0
  6
BYBLOCK
 62
     0
  2
_ORIGIN
 10
127.899347
 20
-320.147491
 30
0.0
 41
10.0
 42
10.0
 43
10.0
 50
90.0
  0
TEXT
  5
5F5
  8
0
  6
BYBLOCK
 62
     0
 10
117.899347
 20
-645.179981
 30
0.0
 40
30.0
  1
20
 50
90.0
 72
     1
 11
117.899347
 21
-617.729981
 31
0.0
  0
POINT
  5
5F6
  8
DEFPOINTS
  6
BYBLOCK
 62
     0
 10
-101.964645
 20
-320.147491
 30
0.0
  0
POINT
  5
5F7
  8
DEFPOINTS
  6
BYBLOCK
 62
     0
 10
-384.46463
 20
-300.147491
 30
0.0
  0
POINT
  5
5F8
  8
DEFPOINTS
  6
BYBLOCK
 62
     0
 10
127.899347
 20
-300.147491
 30
0.0
  0
ENDBLK
  5
5F9
  8
0
  0
BLOCK
  8
0
  2
*D39
 70
     1
 10
0.0
 20
0.0
 30
0.0
  3
*D39
  1

  0
LINE
  5
5FC
  8
0
  6
BYBLOCK
 62
     0
 10
404.53537
 20
109.852486
 30
0.0
 11
404.53537
 21
462.423163
 31
0.0
  0
LINE
  5
5FD
  8
0
  6
BYBLOCK
 62
     0
 10
-404.46463
 20
9.852486
 30
0.0
 11
-404.46463
 21
462.423163
 31
0.0
  0
LINE
  5
5FE
  8
0
  6
BYBLOCK
 62
     0
 10
394.53537
 20
449.923163
 30
0.0
 11
-394.46463
 21
449.923163
 31
0.0
  0
INSERT
  5
5FF
  8
0
  6
BYBLOCK
 62
     0
  2
_ORIGIN
 10
404.53537
 20
449.923163
 30
0.0
 41
10.0
 42
10.0
 43
10.0
  0
INSERT
  5
600
  8
0
  6
BYBLOCK
 62
     0
  2
_ORIGIN
 10
-404.46463
 20
449.923163
 30
0.0
 41
10.0
 42
10.0
 43
10.0
 50
180.0
  0
TEXT
  5
601
  8
0
  6
BYBLOCK
 62
     0
 10
-42.414645
 20
459.923163
 30
0.0
 40
30.0
  1
809
 72
     1
 11
0.035355
 21
459.923163
 31
0.0
  0
POINT
  5
602
  8
DEFPOINTS
  6
BYBLOCK
 62
     0
 10
404.53537
 20
99.852486
 30
0.0
  0
POINT
  5
603
  8
DEFPOINTS
  6
BYBLOCK
 62
     0
 10
-404.46463
 20
-0.147514
 30
0.0
  0
POINT
  5
604
  8
DEFPOINTS
  6
BYBLOCK
 62
     0
 10
-404.46463
 20
449.923163
 30
0.0
  0
ENDBLK
  5
605
  8
0
  0
BLOCK
  8
0
  2
*D40
 70
     1
 10
0.0
 20
0.0
 30
0.0
  3
*D40
  1

  0
LINE
  5
608
  8
0
  6
BYBLOCK
 62
     0
 10
-553.964661
 20
109.852486
 30
0.0
 11
-553.964661
 21
462.423163
 31
0.0
  0
LINE
  5
609
  8
0
  6
BYBLOCK
 62
     0
 10
-404.46463
 20
9.852486
 30
0.0
 11
-404.46463
 21
462.423163
 31
0.0
  0
LINE
  5
60A
  8
0
  6
BYBLOCK
 62
     0
 10
-543.964661
 20
449.923163
 30
0.0
 11
-414.46463
 21
449.923163
 31
0.0
  0
INSERT
  5
60B
  8
0
  6
BYBLOCK
 62
     0
  2
_ORIGIN
 10
-553.964661
 20
449.923163
 30
0.0
 41
10.0
 42
10.0
 43
10.0
 50
180.0
  0
INSERT
  5
60C
  8
0
  6
BYBLOCK
 62
     0
  2
_ORIGIN
 10
-404.46463
 20
449.923163
 30
0.0
 41
10.0
 42
10.0
 43
10.0
  0
TEXT
  5
60D
  8
0
  6
BYBLOCK
 62
     0
 10
-516.41463
 20
459.923163
 30
0.0
 40
30.0
  1
150
 72
     1
 11
-479.21463
 21
459.923163
 31
0.0
  0
POINT
  5
60E
  8
DEFPOINTS
  6
BYBLOCK
 62
     0
 10
-553.964661
 20
99.852486
 30
0.0
  0
POINT
  5
60F
  8
DEFPOINTS
  6
BYBLOCK
 62
     0
 10
-404.46463
 20
-0.147514
 30
0.0
  0
POINT
  5
610
  8
DEFPOINTS
  6
BYBLOCK
 62
     0
 10
-404.46463
 20
449.923163
 30
0.0
  0
ENDBLK
  5
611
  8
0
  0
BLOCK
  8
0
  2
*D41
 70
     1
 10
0.0
 20
0.0
 30
0.0
  3
*D41
  1

  0
LINE
  5
614
  8
0
  6
BYBLOCK
 62
     0
 10
-553.964661
 20
109.852486
 30
0.0
 11
-553.964661
 21
604.002051
 31
0.0
  0
LINE
  5
615
  8
0
  6
BYBLOCK
 62
     0
 10
404.53537
 20
109.852486
 30
0.0
 11
404.53537
 21
604.002051
 31
0.0
  0
LINE
  5
616
  8
0
  6
BYBLOCK
 62
     0
 10
-543.964661
 20
591.502051
 30
0.0
 11
394.53537
 21
591.502051
 31
0.0
  0
INSERT
  5
617
  8
0
  6
BYBLOCK
 62
     0
  2
_ORIGIN
 10
-553.964661
 20
591.502051
 30
0.0
 41
10.0
 42
10.0
 43
10.0
 50
180.0
  0
INSERT
  5
618
  8
0
  6
BYBLOCK
 62
     0
  2
_ORIGIN
 10
404.53537
 20
591.502051
 30
0.0
 41
10.0
 42
10.0
 43
10.0
  0
TEXT
  5
619
  8
0
  6
BYBLOCK
 62
     0
 10
-119.714645
 20
601.502051
 30
0.0
 40
30.0
  1
959
 72
     1
 11
-74.714645
 21
601.502051
 31
0.0
  0
POINT
  5
61A
  8
DEFPOINTS
  6
BYBLOCK
 62
     0
 10
-553.964661
 20
99.852486
 30
0.0
  0
POINT
  5
61B
  8
DEFPOINTS
  6
BYBLOCK
 62
     0
 10
404.53537
 20
99.852486
 30
0.0
  0
POINT
  5
61C
  8
DEFPOINTS
  6
BYBLOCK
 62
     0
 10
404.53537
 20
591.502051
 30
0.0
  0
ENDBLK
  5
61D
  8
0
  0
BLOCK
  8
0
  2
*D42
 70
     1
 10
0.0
 20
0.0
 30
0.0
  3
*D42
  1

  0
LINE
  5
620
  8
0
  6
BYBLOCK
 62
     0
 10
394.53537
 20
-300.147491
 30
0.0
 11
1060.135278
 21
-300.147491
 31
0.0
  0
LINE
  5
621
  8
0
  6
BYBLOCK
 62
     0
 10
410.03537
 20
-0.147514
 30
0.0
 11
1060.135278
 21
-0.147514
 31
0.0
  0
LINE
  5
622
  8
0
  6
BYBLOCK
 62
     0
 10
1047.635278
 20
-290.147491
 30
0.0
 11
1047.635278
 21
-10.147514
 31
0.0
  0
INSERT
  5
623
  8
0
  6
BYBLOCK
 62
     0
  2
_ORIGIN
 10
1047.635278
 20
-300.147491
 30
0.0
 41
10.0
 42
10.0
 43
10.0
 50
270.0
  0
INSERT
  5
624
  8
0
  6
BYBLOCK
 62
     0
  2
_ORIGIN
 10
1047.635278
 20
-0.147514
 30
0.0
 41
10.0
 42
10.0
 43
10.0
 50
90.0
  0
TEXT
  5
625
  8
0
  6
BYBLOCK
 62
     0
 10
1037.635278
 20
-190.047522
 30
0.0
 40
30.0
  1
300
 50
90.0
 72
     1
 11
1037.635278
 21
-150.147522
 31
0.0
  0
POINT
  5
626
  8
DEFPOINTS
  6
BYBLOCK
 62
     0
 10
384.53537
 20
-300.147491
 30
0.0
  0
POINT
  5
627
  8
DEFPOINTS
  6
BYBLOCK
 62
     0
 10
400.03537
 20
-0.147514
 30
0.0
  0
POINT
  5
628
  8
DEFPOINTS
  6
BYBLOCK
 62
     0
 10
1047.635278
 20
-0.147514
 30
0.0
  0
ENDBLK
  5
629
  8
0
  0
BLOCK
  8
0
  2
*D43
 70
     1
 10
0.0
 20
0.0
 30
0.0
  3
*D43
  1

  0
LINE
  5
62C
  8
0
  6
BYBLOCK
 62
     0
 10
-559.964661
 20
-0.147514
 30
0.0
 11
-836.722754
 21
-0.147514
 31
0.0
  0
LINE
  5
62D
  8
0
  6
BYBLOCK
 62
     0
 10
-563.964661
 20
99.852486
 30
0.0
 11
-836.722754
 21
99.852486
 31
0.0
  0
LINE
  5
62E
  8
0
  6
BYBLOCK
 62
     0
 10
-824.222754
 20
9.852486
 30
0.0
 11
-824.222754
 21
89.852486
 31
0.0
  0
INSERT
  5
62F
  8
0
  6
BYBLOCK
 62
     0
  2
_ORIGIN
 10
-824.222754
 20
-0.147514
 30
0.0
 41
10.0
 42
10.0
 43
10.0
 50
270.0
  0
INSERT
  5
630
  8
0
  6
BYBLOCK
 62
     0
  2
_ORIGIN
 10
-824.222754
 20
99.852486
 30
0.0
 41
10.0
 42
10.0
 43
10.0
 50
90.0
  0
TEXT
  5
631
  8
0
  6
BYBLOCK
 62
     0
 10
-834.222754
 20
15.202486
 30
0.0
 40
30.0
  1
100
 50
90.0
 72
     1
 11
-834.222754
 21
49.852486
 31
0.0
  0
POINT
  5
632
  8
DEFPOINTS
  6
BYBLOCK
 62
     0
 10
-549.964661
 20
-0.147514
 30
0.0
  0
POINT
  5
633
  8
DEFPOINTS
  6
BYBLOCK
 62
     0
 10
-553.964661
 20
99.852486
 30
0.0
  0
POINT
  5
634
  8
DEFPOINTS
  6
BYBLOCK
 62
     0
 10
-824.222754
 20
99.852486
 30
0.0
  0
ENDBLK
  5
635
  8
0
  0
BLOCK
  8
0
  2
*D44
 70
     1
 10
0.0
 20
0.0
 30
0.0
  3
*D44
  1

  0
LINE
  5
638
  8
0
  6
BYBLOCK
 62
     0
 10
-555.464661
 20
-300.147491
 30
0.0
 11
-836.722754
 21
-300.147491
 31
0.0
  0
LINE
  5
639
  8
0
  6
BYBLOCK
 62
     0
 10
-559.964661
 20
-0.147514
 30
0.0
 11
-836.722754
 21
-0.147514
 31
0.0
  0
LINE
  5
63A
  8
0
  6
BYBLOCK
 62
     0
 10
-824.222754
 20
-290.147491
 30
0.0
 11
-824.222754
 21
-10.147514
 31
0.0
  0
INSERT
  5
63B
  8
0
  6
BYBLOCK
 62
     0
  2
_ORIGIN
 10
-824.222754
 20
-300.147491
 30
0.0
 41
10.0
 42
10.0
 43
10.0
 50
270.0
  0
INSERT
  5
63C
  8
0
  6
BYBLOCK
 62
     0
  2
_ORIGIN
 10
-824.222754
 20
-0.147514
 30
0.0
 41
10.0
 42
10.0
 43
10.0
 50
90.0
  0
TEXT
  5
63D
  8
0
  6
BYBLOCK
 62
     0
 10
-834.222754
 20
-190.047522
 30
0.0
 40
30.0
  1
300
 50
90.0
 72
     1
 11
-834.222754
 21
-150.147522
 31
0.0
  0
POINT
  5
63E
  8
DEFPOINTS
  6
BYBLOCK
 62
     0
 10
-545.464661
 20
-300.147491
 30
0.0
  0
POINT
  5
63F
  8
DEFPOINTS
  6
BYBLOCK
 62
     0
 10
-549.964661
 20
-0.147514
 30
0.0
  0
POINT
  5
640
  8
DEFPOINTS
  6
BYBLOCK
 62
     0
 10
-824.222754
 20
-0.147514
 30
0.0
  0
ENDBLK
  5
641
  8
0
  0
BLOCK
  8
0
  2
*D45
 70
     1
 10
0.0
 20
0.0
 30
0.0
  3
*D45
  1

  0
LINE
  5
644
  8
0
  6
BYBLOCK
 62
     0
 10
-249.964645
 20
39.852488
 30
0.0
 11
-249.964645
 21
314.752509
 31
0.0
  0
LINE
  5
645
  8
0
  6
BYBLOCK
 62
     0
 10
-404.46463
 20
9.852486
 30
0.0
 11
-404.46463
 21
314.752509
 31
0.0
  0
LINE
  5
646
  8
0
  6
BYBLOCK
 62
     0
 10
-259.964645
 20
302.252509
 30
0.0
 11
-394.46463
 21
302.252509
 31
0.0
  0
INSERT
  5
647
  8
0
  6
BYBLOCK
 62
     0
  2
_ORIGIN
 10
-249.964645
 20
302.252509
 30
0.0
 41
10.0
 42
10.0
 43
10.0
  0
INSERT
  5
648
  8
0
  6
BYBLOCK
 62
     0
  2
_ORIGIN
 10
-404.46463
 20
302.252509
 30
0.0
 41
10.0
 42
10.0
 43
10.0
 50
180.0
  0
TEXT
  5
649
  8
0
  6
BYBLOCK
 62
     0
 10
-366.96463
 20
312.252509
 30
0.0
 40
30.0
  1
155
 72
     1
 11
-327.21463
 21
312.252509
 31
0.0
  0
POINT
  5
64A
  8
DEFPOINTS
  6
BYBLOCK
 62
     0
 10
-249.964645
 20
29.852488
 30
0.0
  0
POINT
  5
64B
  8
DEFPOINTS
  6
BYBLOCK
 62
     0
 10
-404.46463
 20
-0.147514
 30
0.0
  0
POINT
  5
64C
  8
DEFPOINTS
  6
BYBLOCK
 62
     0
 10
-404.46463
 20
302.252509
 30
0.0
  0
ENDBLK
  5
64D
  8
0
  0
BLOCK
  8
0
  2
*D46
 70
     1
 10
0.0
 20
0.0
 30
0.0
  3
*D46
  1

  0
LINE
  5
650
  8
0
  6
BYBLOCK
 62
     0
 10
-404.46463
 20
9.852486
 30
0.0
 11
-404.46463
 21
314.752509
 31
0.0
  0
LINE
  5
651
  8
0
  6
BYBLOCK
 62
     0
 10
-425.46463
 20
-99.223763
 30
0.0
 11
-425.46463
 21
314.752509
 31
0.0
  0
LINE
  5
652
  8
0
  6
BYBLOCK
 62
     0
 10
-394.46463
 20
302.252509
 30
0.0
 11
-384.46463
 21
302.252509
 31
0.0
  0
LINE
  5
653
  8
0
  6
BYBLOCK
 62
     0
 10
-435.46463
 20
302.252509
 30
0.0
 11
-505.46463
 21
302.252509
 31
0.0
  0
LINE
  5
654
  8
0
  6
BYBLOCK
 62
     0
 10
-404.46463
 20
302.252509
 30
0.0
 11
-425.46463
 21
302.252509
 31
0.0
  0
INSERT
  5
655
  8
0
  6
BYBLOCK
 62
     0
  2
_ORIGIN
 10
-404.46463
 20
302.252509
 30
0.0
 41
10.0
 42
10.0
 43
10.0
 50
180.0
  0
INSERT
  5
656
  8
0
  6
BYBLOCK
 62
     0
  2
_ORIGIN
 10
-425.46463
 20
302.252509
 30
0.0
 41
10.0
 42
10.0
 43
10.0
  0
TEXT
  5
657
  8
0
  6
BYBLOCK
 62
     0
 10
-500.21463
 20
312.252509
 30
0.0
 40
30.0
  1
21
 72
     1
 11
-475.46463
 21
312.252509
 31
0.0
  0
POINT
  5
658
  8
DEFPOINTS
  6
BYBLOCK
 62
     0
 10
-404.46463
 20
-0.147514
 30
0.0
  0
POINT
  5
659
  8
DEFPOINTS
  6
BYBLOCK
 62
     0
 10
-425.46463
 20
-109.223763
 30
0.0
  0
POINT
  5
65A
  8
DEFPOINTS
  6
BYBLOCK
 62
     0
 10
-425.46463
 20
302.252509
 30
0.0
  0
ENDBLK
  5
65B
  8
0
  0
BLOCK
  8
0
  2
*D47
 70
     1
 10
0.0
 20
0.0
 30
0.0
  3
*D47
  1

  0
LINE
  5
65E
  8
0
  6
BYBLOCK
 62
     0
 10
714.035339
 20
-500.147491
 30
0.0
 11
1163.490137
 21
-500.147491
 31
0.0
  0
LINE
  5
65F
  8
0
  6
BYBLOCK
 62
     0
 10
714.035339
 20
99.852486
 30
0.0
 11
1163.490137
 21
99.852486
 31
0.0
  0
LINE
  5
660
  8
0
  6
BYBLOCK
 62
     0
 10
1150.990137
 20
-490.147491
 30
0.0
 11
1150.990137
 21
89.852486
 31
0.0
  0
INSERT
  5
661
  8
0
  6
BYBLOCK
 62
     0
  2
_ORIGIN
 10
1150.990137
 20
-500.147491
 30
0.0
 41
10.0
 42
10.0
 43
10.0
 50
270.0
  0
INSERT
  5
662
  8
0
  6
BYBLOCK
 62
     0
  2
_ORIGIN
 10
1150.990137
 20
99.852486
 30
0.0
 41
10.0
 42
10.0
 43
10.0
 50
90.0
  0
TEXT
  5
663
  8
0
  6
BYBLOCK
 62
     0
 10
1140.990137
 20
-240.047522
 30
0.0
 40
30.0
  1
600
 50
90.0
 72
     1
 11
1140.990137
 21
-200.147522
 31
0.0
  0
POINT
  5
664
  8
DEFPOINTS
  6
BYBLOCK
 62
     0
 10
704.035339
 20
-500.147491
 30
0.0
  0
POINT
  5
665
  8
DEFPOINTS
  6
BYBLOCK
 62
     0
 10
704.035339
 20
99.852486
 30
0.0
  0
POINT
  5
666
  8
DEFPOINTS
  6
BYBLOCK
 62
     0
 10
1150.990137
 20
99.852486
 30
0.0
  0
ENDBLK
  5
667
  8
0
  0
BLOCK
  8
0
  2
*D48
 70
     1
 10
0.0
 20
0.0
 30
0.0
  3
*D48
  1

  0
LINE
  5
66A
  8
0
  6
BYBLOCK
 62
     0
 10
704.035339
 20
-510.147491
 30
0.0
 11
704.035339
 21
-760.816187
 31
0.0
  0
LINE
  5
66B
  8
0
  6
BYBLOCK
 62
     0
 10
404.53537
 20
-510.147491
 30
0.0
 11
404.53537
 21
-760.816187
 31
0.0
  0
LINE
  5
66C
  8
0
  6
BYBLOCK
 62
     0
 10
694.035339
 20
-748.316187
 30
0.0
 11
414.53537
 21
-748.316187
 31
0.0
  0
INSERT
  5
66D
  8
0
  6
BYBLOCK
 62
     0
  2
_ORIGIN
 10
704.035339
 20
-748.316187
 30
0.0
 41
10.0
 42
10.0
 43
10.0
  0
INSERT
  5
66E
  8
0
  6
BYBLOCK
 62
     0
  2
_ORIGIN
 10
404.53537
 20
-748.316187
 30
0.0
 41
10.0
 42
10.0
 43
10.0
 50
180.0
  0
TEXT
  5
66F
  8
0
  6
BYBLOCK
 62
     0
 10
514.385339
 20
-738.316187
 30
0.0
 40
30.0
  1
300
 72
     1
 11
554.285339
 21
-738.316187
 31
0.0
  0
POINT
  5
670
  8
DEFPOINTS
  6
BYBLOCK
 62
     0
 10
704.035339
 20
-500.147491
 30
0.0
  0
POINT
  5
671
  8
DEFPOINTS
  6
BYBLOCK
 62
     0
 10
404.53537
 20
-500.147491
 30
0.0
  0
POINT
  5
672
  8
DEFPOINTS
  6
BYBLOCK
 62
     0
 10
404.53537
 20
-748.316187
 30
0.0
  0
ENDBLK
  5
673
  8
0
  0
BLOCK
  8
0
  2
*D49
 70
     1
 10
0.0
 20
0.0
 30
0.0
  3
*D49
  1

  0
LINE
  5
676
  8
0
  6
BYBLOCK
 62
     0
 10
-553.964661
 20
-510.147491
 30
0.0
 11
-553.964661
 21
-759.816187
 31
0.0
  0
LINE
  5
677
  8
0
  6
BYBLOCK
 62
     0
 10
404.53537
 20
-510.147491
 30
0.0
 11
404.53537
 21
-759.816187
 31
0.0
  0
LINE
  5
678
  8
0
  6
BYBLOCK
 62
     0
 10
-543.964661
 20
-747.316187
 30
0.0
 11
394.53537
 21
-747.316187
 31
0.0
  0
INSERT
  5
679
  8
0
  6
BYBLOCK
 62
     0
  2
_ORIGIN
 10
-553.964661
 20
-747.316187
 30
0.0
 41
10.0
 42
10.0
 43
10.0
 50
180.0
  0
INSERT
  5
67A
  8
0
  6
BYBLOCK
 62
     0
  2
_ORIGIN
 10
404.53537
 20
-747.316187
 30
0.0
 41
10.0
 42
10.0
 43
10.0
  0
TEXT
  5
67B
  8
0
  6
BYBLOCK
 62
     0
 10
-119.714645
 20
-737.316187
 30
0.0
 40
30.0
  1
959
 72
     1
 11
-74.714645
 21
-737.316187
 31
0.0
  0
POINT
  5
67C
  8
DEFPOINTS
  6
BYBLOCK
 62
     0
 10
-553.964661
 20
-500.147491
 30
0.0
  0
POINT
  5
67D
  8
DEFPOINTS
  6
BYBLOCK
 62
     0
 10
404.53537
 20
-500.147491
 30
0.0
  0
POINT
  5
67E
  8
DEFPOINTS
  6
BYBLOCK
 62
     0
 10
404.53537
 20
-747.316187
 30
0.0
  0
ENDBLK
  5
67F
  8
0
  0
BLOCK
  8
0
  2
*D50
 70
     1
 10
0.0
 20
0.0
 30
0.0
  3
*D50
  1

  0
LINE
  5
682
  8
0
  6
BYBLOCK
 62
     0
 10
-563.964661
 20
-500.147491
 30
0.0
 11
-836.722754
 21
-500.147491
 31
0.0
  0
LINE
  5
683
  8
0
  6
BYBLOCK
 62
     0
 10
-563.964661
 20
-300.147491
 30
0.0
 11
-836.722754
 21
-300.147491
 31
0.0
  0
LINE
  5
684
  8
0
  6
BYBLOCK
 62
     0
 10
-824.222754
 20
-490.147491
 30
0.0
 11
-824.222754
 21
-310.147491
 31
0.0
  0
INSERT
  5
685
  8
0
  6
BYBLOCK
 62
     0
  2
_ORIGIN
 10
-824.222754
 20
-500.147491
 30
0.0
 41
10.0
 42
10.0
 43
10.0
 50
270.0
  0
INSERT
  5
686
  8
0
  6
BYBLOCK
 62
     0
  2
_ORIGIN
 10
-824.222754
 20
-300.147491
 30
0.0
 41
10.0
 42
10.0
 43
10.0
 50
90.0
  0
TEXT
  5
687
  8
0
  6
BYBLOCK
 62
     0
 10
-834.222754
 20
-440.047492
 30
0.0
 40
30.0
  1
200
 50
90.0
 72
     1
 11
-834.222754
 21
-400.147492
 31
0.0
  0
POINT
  5
688
  8
DEFPOINTS
  6
BYBLOCK
 62
     0
 10
-553.964661
 20
-500.147491
 30
0.0
  0
POINT
  5
689
  8
DEFPOINTS
  6
BYBLOCK
 62
     0
 10
-553.964661
 20
-300.147491
 30
0.0
  0
POINT
  5
68A
  8
DEFPOINTS
  6
BYBLOCK
 62
     0
 10
-824.222754
 20
-300.147491
 30
0.0
  0
ENDBLK
  5
68B
  8
0
  0
BLOCK
  8
0
  2
*D51
 70
     1
 10
0.0
 20
0.0
 30
0.0
  3
*D51
  1

  0
LINE
  5
68E
  8
0
  6
BYBLOCK
 62
     0
 10
-279.96463
 20
-320.147491
 30
0.0
 11
-936.722754
 21
-320.147491
 31
0.0
  0
LINE
  5
68F
  8
0
  6
BYBLOCK
 62
     0
 10
-279.96463
 20
9.852486
 30
0.0
 11
-936.722754
 21
9.852486
 31
0.0
  0
LINE
  5
690
  8
0
  6
BYBLOCK
 62
     0
 10
-924.222754
 20
-310.147491
 30
0.0
 11
-924.222754
 21
-0.147514
 31
0.0
  0
INSERT
  5
691
  8
0
  6
BYBLOCK
 62
     0
  2
_ORIGIN
 10
-924.222754
 20
-320.147491
 30
0.0
 41
10.0
 42
10.0
 43
10.0
 50
270.0
  0
INSERT
  5
692
  8
0
  6
BYBLOCK
 62
     0
  2
_ORIGIN
 10
-924.222754
 20
9.852486
 30
0.0
 41
10.0
 42
10.0
 43
10.0
 50
90.0
  0
TEXT
  5
693
  8
0
  6
BYBLOCK
 62
     0
 10
-934.222754
 20
-197.597522
 30
0.0
 40
30.0
  1
330
 50
90.0
 72
     1
 11
-934.222754
 21
-155.147522
 31
0.0
  0
POINT
  5
694
  8
DEFPOINTS
  6
BYBLOCK
 62
     0
 10
-269.96463
 20
-320.147491
 30
0.0
  0
POINT
  5
695
  8
DEFPOINTS
  6
BYBLOCK
 62
     0
 10
-269.96463
 20
9.852486
 30
0.0
  0
POINT
  5
696
  8
DEFPOINTS
  6
BYBLOCK
 62
     0
 10
-924.222754
 20
9.852486
 30
0.0
  0
ENDBLK
  5
697
  8
0
  0
BLOCK
  8
0
  2
*D52
 70
     1
 10
0.0
 20
0.0
 30
0.0
  3
*D52
  1

  0
LINE
  5
69A
  8
0
  6
BYBLOCK
 62
     0
 10
-272.46463
 20
27.852488
 30
0.0
 11
-1036.722754
 21
27.852488
 31
0.0
  0
LINE
  5
69B
  8
0
  6
BYBLOCK
 62
     0
 10
-269.96463
 20
-332.147491
 30
0.0
 11
-1036.722754
 21
-332.147491
 31
0.0
  0
LINE
  5
69C
  8
0
  6
BYBLOCK
 62
     0
 10
-1024.222754
 20
17.852488
 30
0.0
 11
-1024.222754
 21
-322.147491
 31
0.0
  0
INSERT
  5
69D
  8
0
  6
BYBLOCK
 62
     0
  2
_ORIGIN
 10
-1024.222754
 20
27.852488
 30
0.0
 41
10.0
 42
10.0
 43
10.0
 50
90.0
  0
INSERT
  5
69E
  8
0
  6
BYBLOCK
 62
     0
  2
_ORIGIN
 10
-1024.222754
 20
-332.147491
 30
0.0
 41
10.0
 42
10.0
 43
10.0
 50
270.0
  0
TEXT
  5
69F
  8
0
  6
BYBLOCK
 62
     0
 10
-1034.222754
 20
-194.597522
 30
0.0
 40
30.0
  1
360
 50
90.0
 72
     1
 11
-1034.222754
 21
-152.147522
 31
0.0
  0
POINT
  5
6A0
  8
DEFPOINTS
  6
BYBLOCK
 62
     0
 10
-262.46463
 20
27.852488
 30
0.0
  0
POINT
  5
6A1
  8
DEFPOINTS
  6
BYBLOCK
 62
     0
 10
-259.96463
 20
-332.147491
 30
0.0
  0
POINT
  5
6A2
  8
DEFPOINTS
  6
BYBLOCK
 62
     0
 10
-1024.222754
 20
-332.147491
 30
0.0
  0
ENDBLK
  5
6A3
  8
0
  0
BLOCK
  8
0
  2
*D53
 70
     1
 10
0.0
 20
0.0
 30
0.0
  3
*D53
  1

  0
LINE
  5
6A6
  8
0
  6
BYBLOCK
 62
     0
 10
30.035355
 20
-4.847514
 30
0.0
 11
860.135339
 21
-4.847514
 31
0.0
  0
LINE
  5
6A7
  8
0
  6
BYBLOCK
 62
     0
 10
390.03537
 20
-0.147514
 30
0.0
 11
860.135339
 21
-0.147514
 31
0.0
  0
LINE
  5
6A8
  8
0
  6
BYBLOCK
 62
     0
 10
847.635339
 20
9.852486
 30
0.0
 11
847.635339
 21
19.852486
 31
0.0
  0
LINE
  5
6A9
  8
0
  6
BYBLOCK
 62
     0
 10
847.635339
 20
-14.847514
 30
0.0
 11
847.635339
 21
-64.847514
 31
0.0
  0
LINE
  5
6AA
  8
0
  6
BYBLOCK
 62
     0
 10
847.635339
 20
-0.147514
 30
0.0
 11
847.635339
 21
-4.847514
 31
0.0
  0
INSERT
  5
6AB
  8
0
  6
BYBLOCK
 62
     0
  2
_ORIGIN
 10
847.635339
 20
-0.147514
 30
0.0
 41
10.0
 42
10.0
 43
10.0
 50
270.0
  0
INSERT
  5
6AC
  8
0
  6
BYBLOCK
 62
     0
  2
_ORIGIN
 10
847.635339
 20
-4.847514
 30
0.0
 41
10.0
 42
10.0
 43
10.0
 50
90.0
  0
TEXT
  5
6AD
  8
0
  6
BYBLOCK
 62
     0
 10
837.635339
 20
-59.847514
 30
0.0
 40
30.0
  1
5
 50
90.0
 72
     1
 11
837.635339
 21
-44.847514
 31
0.0
  0
POINT
  5
6AE
  8
DEFPOINTS
  6
BYBLOCK
 62
     0
 10
20.035355
 20
-4.847514
 30
0.0
  0
POINT
  5
6AF
  8
DEFPOINTS
  6
BYBLOCK
 62
     0
 10
380.03537
 20
-0.147514
 30
0.0
  0
POINT
  5
6B0
  8
DEFPOINTS
  6
BYBLOCK
 62
     0
 10
847.635339
 20
-0.147514
 30
0.0
  0
ENDBLK
  5
6B1
  8
0
  0
ENDSEC
  0
SECTION
  2
ENTITIES
  0
LINE
  5
6B2
  8
OUTLINE
  6
CONTINUOUS
 10
-404.5
 20
-95.0
 30
0.0
 11
-425.5
 21
-109.076242
 31
0.0
  0
LINE
  5
6B3
  8
OUTLINE
  6
CONTINUOUS
 10
-404.5
 20
-180.0
 30
0.0
 11
-425.5
 21
-165.923758
 31
0.0
  0
LINE
  5
6B4
  8
OUTLINE
  6
CONTINUOUS
 10
310.0
 20
16.0
 30
0.0
 11
270.0
 21
16.0
 31
0.0
  0
LINE
  5
6B5
  8
OUTLINE
  6
CONTINUOUS
 10
310.0
 20
0.0
 30
0.0
 11
310.0
 21
16.0
 31
0.0
  0
LINE
  5
6B6
  8
OUTLINE
  6
CONTINUOUS
 10
380.0
 20
-300.0
 30
0.0
 11
-380.0
 21
-300.0
 31
0.0
  0
ARC
  5
6B7
  8
OUTLINE
  6
CONTINUOUS
 10
-250.0
 20
-320.0
 30
0.0
 40
5.0
 50
180.0
 51
0.0
  0
ARC
  5
6B8
  8
OUTLINE
  6
CONTINUOUS
 10
-250.0
 20
-309.0
 30
0.0
 40
5.0
 50
0.0
 51
180.0
  0
LINE
  5
6B9
  8
OUTLINE
  6
CONTINUOUS
 10
-240.0
 20
-332.0
 30
0.0
 11
-260.0
 21
-332.0
 31
0.0
  0
ARC
  5
6BA
  8
OUTLINE
  6
CONTINUOUS
 10
-260.0
 20
-322.0
 30
0.0
 40
10.0
 50
180.0
 51
270.0
  0
ARC
  5
6BB
  8
OUTLINE
  6
CONTINUOUS
 10
-240.0
 20
-322.0
 30
0.0
 40
10.0
 50
270.0
 51
0.0
  0
LINE
  5
6BC
  8
OUTLINE
  6
CONTINUOUS
 10
-230.0
 20
-300.0
 30
0.0
 11
-230.0
 21
-322.0
 31
0.0
  0
LINE
  5
6BD
  8
OUTLINE
  6
CONTINUOUS
 10
-270.0
 20
-300.0
 30
0.0
 11
-270.0
 21
-322.0
 31
0.0
  0
LINE
  5
6BE
  8
OUTLINE
  6
CONTINUOUS
 10
-245.0
 20
-309.0
 30
0.0
 11
-245.0
 21
-320.0
 31
0.0
  0
LINE
  5
6BF
  8
OUTLINE
  6
CONTINUOUS
 10
-255.0
 20
-309.0
 30
0.0
 11
-255.0
 21
-320.0
 31
0.0
  0
LINE
  5
6C0
  8
OUTLINE
  6
CONTINUOUS
 10
380.0
 20
-300.0
 30
0.0
 11
-380.0
 21
-300.0
 31
0.0
  0
LINE
  5
6C1
  8
OUTLINE
  6
CONTINUOUS
 10
380.0
 20
-300.0
 30
0.0
 11
-380.0
 21
-300.0
 31
0.0
  0
LINE
  5
6C2
  8
OUTLINE
  6
CONTINUOUS
 10
380.0
 20
-300.0
 30
0.0
 11
-380.0
 21
-300.0
 31
0.0
  0
LINE
  5
6C3
  8
OUTLINE
  6
CONTINUOUS
 10
270.0
 20
-300.0
 30
0.0
 11
270.0
 21
-322.0
 31
0.0
  0
LINE
  5
6C4
  8
OUTLINE
  6
CONTINUOUS
 10
230.0
 20
-300.0
 30
0.0
 11
230.0
 21
-322.0
 31
0.0
  0
LINE
  5
6C5
  8
OUTLINE
  6
CONTINUOUS
 10
380.0
 20
-300.0
 30
0.0
 11
-380.0
 21
-300.0
 31
0.0
  0
ARC
  5
6C6
  8
OUTLINE
  6
CONTINUOUS
 10
250.0
 20
-320.0
 30
0.0
 40
5.0
 50
180.0
 51
0.0
  0
ARC
  5
6C7
  8
OUTLINE
  6
CONTINUOUS
 10
250.0
 20
-309.0
 30
0.0
 40
5.0
 50
0.0
 51
180.0
  0
LINE
  5
6C8
  8
OUTLINE
  6
CONTINUOUS
 10
255.0
 20
-309.0
 30
0.0
 11
255.0
 21
-320.0
 31
0.0
  0
LINE
  5
6C9
  8
OUTLINE
  6
CONTINUOUS
 10
245.0
 20
-309.0
 30
0.0
 11
245.0
 21
-320.0
 31
0.0
  0
LINE
  5
6CA
  8
OUTLINE
  6
CONTINUOUS
 10
260.0
 20
-332.0
 30
0.0
 11
240.0
 21
-332.0
 31
0.0
  0
ARC
  5
6CB
  8
OUTLINE
  6
CONTINUOUS
 10
240.0
 20
-322.0
 30
0.0
 40
10.0
 50
180.0
 51
270.0
  0
ARC
  5
6CC
  8
OUTLINE
  6
CONTINUOUS
 10
260.0
 20
-322.0
 30
0.0
 40
10.0
 50
270.0
 51
0.0
  0
LINE
  5
6CD
  8
OUTLINE
  6
CONTINUOUS
 10
380.0
 20
-300.0
 30
0.0
 11
-380.0
 21
-300.0
 31
0.0
  0
LINE
  5
6CE
  8
OUTLINE
  6
CONTINUOUS
 10
380.0
 20
0.0
 30
0.0
 11
-380.0
 21
0.0
 31
0.0
  0
LINE
  5
6CF
  8
OUTLINE
  6
CONTINUOUS
 10
-230.0
 20
0.0
 30
0.0
 11
-230.0
 21
20.5
 31
0.0
  0
LINE
  5
6D0
  8
OUTLINE
  6
CONTINUOUS
 10
-270.0
 20
0.0
 30
0.0
 11
-270.0
 21
20.5
 31
0.0
  0
ARC
  5
6D1
  8
OUTLINE
  6
CONTINUOUS
 10
-250.0
 20
10.0
 30
0.0
 40
5.0
 50
180.0
 51
0.0
  0
LINE
  5
6D2
  8
OUTLINE
  6
CONTINUOUS
 10
-245.0
 20
10.0
 30
0.0
 11
-245.0
 21
20.5
 31
0.0
  0
LINE
  5
6D3
  8
OUTLINE
  6
CONTINUOUS
 10
-255.0
 20
10.0
 30
0.0
 11
-255.0
 21
20.5
 31
0.0
  0
ARC
  5
6D4
  8
OUTLINE
  6
CONTINUOUS
 10
-262.5
 20
20.5
 30
0.0
 40
7.5
 50
0.0
 51
180.0
  0
ARC
  5
6D5
  8
OUTLINE
  6
CONTINUOUS
 10
-237.5
 20
20.5
 30
0.0
 40
7.5
 50
0.0
 51
180.0
  0
LINE
  5
6D6
  8
OUTLINE
  6
CONTINUOUS
 10
380.0
 20
0.0
 30
0.0
 11
-380.0
 21
0.0
 31
0.0
  0
LINE
  5
6D7
  8
OUTLINE
  6
CONTINUOUS
 10
380.0
 20
0.0
 30
0.0
 11
-380.0
 21
0.0
 31
0.0
  0
LINE
  5
6D8
  8
OUTLINE
  6
CONTINUOUS
 10
380.0
 20
0.0
 30
0.0
 11
-380.0
 21
0.0
 31
0.0
  0
LINE
  5
6D9
  8
OUTLINE
  6
CONTINUOUS
 10
380.0
 20
0.0
 30
0.0
 11
-380.0
 21
0.0
 31
0.0
  0
LINE
  5
6DA
  8
OUTLINE
  6
CONTINUOUS
 10
270.0
 20
0.0
 30
0.0
 11
270.0
 21
20.5
 31
0.0
  0
LINE
  5
6DB
  8
OUTLINE
  6
CONTINUOUS
 10
230.0
 20
0.0
 30
0.0
 11
230.0
 21
20.5
 31
0.0
  0
ARC
  5
6DC
  8
OUTLINE
  6
CONTINUOUS
 10
250.0
 20
10.0
 30
0.0
 40
5.0
 50
180.0
 51
0.0
  0
LINE
  5
6DD
  8
OUTLINE
  6
CONTINUOUS
 10
255.0
 20
10.0
 30
0.0
 11
255.0
 21
20.5
 31
0.0
  0
LINE
  5
6DE
  8
OUTLINE
  6
CONTINUOUS
 10
245.0
 20
10.0
 30
0.0
 11
245.0
 21
20.5
 31
0.0
  0
ARC
  5
6DF
  8
OUTLINE
  6
CONTINUOUS
 10
237.5
 20
20.5
 30
0.0
 40
7.5
 50
0.0
 51
180.0
  0
ARC
  5
6E0
  8
OUTLINE
  6
CONTINUOUS
 10
262.5
 20
20.5
 30
0.0
 40
7.5
 50
0.0
 51
180.0
  0
LINE
  5
6E1
  8
OUTLINE
  6
CONTINUOUS
 10
380.0
 20
0.0
 30
0.0
 11
-380.0
 21
0.0
 31
0.0
  0
LINE
  5
6E2
  8
OUTLINE
  6
CONTINUOUS
 10
384.5
 20
-300.0
 30
0.0
 11
-384.5
 21
-300.0
 31
0.0
  0
ARC
  5
6E3
  8
OUTLINE
  6
CONTINUOUS
 10
384.5
 20
-280.0
 30
0.0
 40
20.0
 50
270.0
 51
0.0
  0
LINE
  5
6E4
  8
OUTLINE
  6
CONTINUOUS
 10
404.5
 20
-35.0
 30
0.0
 11
404.5
 21
-280.0
 31
0.0
  0
LINE
  5
6E5
  8
OUTLINE
  6
CONTINUOUS
 10
404.5
 20
-35.0
 30
0.0
 11
404.5
 21
-280.0
 31
0.0
  0
LINE
  5
6E6
  8
OUTLINE
  6
CONTINUOUS
 10
404.5
 20
-20.0
 30
0.0
 11
404.5
 21
-280.0
 31
0.0
  0
ARC
  5
6E7
  8
OUTLINE
  6
CONTINUOUS
 10
384.5
 20
-20.0
 30
0.0
 40
20.0
 50
0.0
 51
90.0
  0
LINE
  5
6E8
  8
OUTLINE
  6
CONTINUOUS
 10
-425.5
 20
-109.076242
 30
0.0
 11
-425.5
 21
-165.923758
 31
0.0
  0
ARC
  5
6E9
  8
OUTLINE
  6
CONTINUOUS
 10
-384.5
 20
-20.0
 30
0.0
 40
20.0
 50
90.0
 51
180.0
  0
ARC
  5
6EA
  8
OUTLINE
  6
CONTINUOUS
 10
-384.5
 20
-280.0
 30
0.0
 40
20.0
 50
180.0
 51
270.0
  0
LINE
  5
6EB
  8
OUTLINE
  6
CONTINUOUS
 10
-404.5
 20
-20.0
 30
0.0
 11
-404.5
 21
-280.0
 31
0.0
  0
LINE
  5
6EC
  8
OUTLINE
  6
CONTINUOUS
 10
384.5
 20
0.0
 30
0.0
 11
-384.5
 21
0.0
 31
0.0
  0
LINE
  5
6ED
  8
OUTLINE
  6
CONTINUOUS
 10
420.5
 20
-114.076242
 30
0.0
 11
404.5
 21
-100.0
 31
0.0
  0
LINE
  5
6EE
  8
OUTLINE
  6
CONTINUOUS
 10
420.5
 20
-114.076242
 30
0.0
 11
420.5
 21
-170.923758
 31
0.0
  0
LINE
  5
6EF
  8
OUTLINE
  6
CONTINUOUS
 10
420.5
 20
-170.923758
 30
0.0
 11
404.5
 21
-185.0
 31
0.0
  0
LINE
  5
6F0
  8
DETAIL
  6
CONTINUOUS
 10
-317.5
 20
-62.5
 30
0.0
 11
-317.5
 21
-252.5
 31
0.0
  0
ARC
  5
6F1
  8
DETAIL
  6
CONTINUOUS
 10
-297.5
 20
-62.5
 30
0.0
 40
20.0
 50
90.0
 51
180.0
  0
ARC
  5
6F2
  8
DETAIL
  6
CONTINUOUS
 10
-297.5
 20
-252.5
 30
0.0
 40
20.0
 50
180.0
 51
270.0
  0
LINE
  5
6F3
  8
DETAIL
  6
CONTINUOUS
 10
-305.5
 20
-131.5
 30
0.0
 11
-305.5
 21
-183.5
 31
0.0
  0
ARC
  5
6F4
  8
DETAIL
  6
CONTINUOUS
 10
-301.5
 20
-131.5
 30
0.0
 40
4.0
 50
90.0
 51
180.0
  0
ARC
  5
6F5
  8
DETAIL
  6
CONTINUOUS
 10
-301.5
 20
-183.5
 30
0.0
 40
4.0
 50
180.0
 51
270.0
  0
LINE
  5
6F6
  8
DETAIL
  6
CONTINUOUS
 10
-305.5
 20
-59.0
 30
0.0
 11
-305.5
 21
-111.0
 31
0.0
  0
ARC
  5
6F7
  8
DETAIL
  6
CONTINUOUS
 10
-301.5
 20
-59.0
 30
0.0
 40
4.0
 50
90.0
 51
180.0
  0
ARC
  5
6F8
  8
DETAIL
  6
CONTINUOUS
 10
-301.5
 20
-111.0
 30
0.0
 40
4.0
 50
180.0
 51
270.0
  0
LINE
  5
6F9
  8
DETAIL
  6
CONTINUOUS
 10
-305.5
 20
-256.0
 30
0.0
 11
-305.5
 21
-204.0
 31
0.0
  0
ARC
  5
6FA
  8
DETAIL
  6
CONTINUOUS
 10
-301.5
 20
-256.0
 30
0.0
 40
4.0
 50
180.0
 51
270.0
  0
ARC
  5
6FB
  8
DETAIL
  6
CONTINUOUS
 10
-301.5
 20
-204.0
 30
0.0
 40
4.0
 50
90.0
 51
180.0
  0
LINE
  5
6FC
  8
DETAIL
  6
CONTINUOUS
 10
0.0
 20
-42.5
 30
0.0
 11
-297.5
 21
-42.5
 31
0.0
  0
LINE
  5
6FD
  8
DETAIL
  6
CONTINUOUS
 10
0.0
 20
-55.5
 30
0.0
 11
-301.5
 21
-55.5
 31
0.0
  0
LINE
  5
6FE
  8
DETAIL
  6
CONTINUOUS
 10
0.0
 20
-115.0
 30
0.0
 11
-301.5
 21
-115.0
 31
0.0
  0
LINE
  5
6FF
  8
DETAIL
  6
CONTINUOUS
 10
0.0
 20
-127.5
 30
0.0
 11
-301.5
 21
-127.5
 31
0.0
  0
LINE
  5
700
  8
DETAIL
  6
CONTINUOUS
 10
0.0
 20
-187.5
 30
0.0
 11
-301.5
 21
-187.5
 31
0.0
  0
LINE
  5
701
  8
DETAIL
  6
CONTINUOUS
 10
0.0
 20
-200.0
 30
0.0
 11
-301.5
 21
-200.0
 31
0.0
  0
LINE
  5
702
  8
DETAIL
  6
CONTINUOUS
 10
0.0
 20
-260.0
 30
0.0
 11
-301.5
 21
-260.0
 31
0.0
  0
LINE
  5
703
  8
DETAIL
  6
CONTINUOUS
 10
0.0
 20
-272.5
 30
0.0
 11
-297.5
 21
-272.5
 31
0.0
  0
ARC
  5
704
  8
DETAIL
  6
CONTINUOUS
 10
-357.5
 20
-47.5
 30
0.0
 40
5.0
 50
0.0
 51
90.0
  0
LINE
  5
705
  8
DETAIL
  6
CONTINUOUS
 10
-357.5
 20
-42.5
 30
0.0
 11
-362.5
 21
-42.5
 31
0.0
  0
ARC
  5
706
  8
DETAIL
  6
CONTINUOUS
 10
-362.5
 20
-47.5
 30
0.0
 40
5.0
 50
90.0
 51
180.0
  0
LINE
  5
707
  8
DETAIL
  6
CONTINUOUS
 10
-352.5
 20
-47.5
 30
0.0
 11
-352.5
 21
-267.5
 31
0.0
  0
ARC
  5
708
  8
DETAIL
  6
CONTINUOUS
 10
-357.5
 20
-267.5
 30
0.0
 40
5.0
 50
270.0
 51
0.0
  0
LINE
  5
709
  8
DETAIL
  6
CONTINUOUS
 10
-367.5
 20
-47.5
 30
0.0
 11
-367.5
 21
-267.5
 31
0.0
  0
LINE
  5
70A
  8
DETAIL
  6
CONTINUOUS
 10
-357.5
 20
-272.5
 30
0.0
 11
-362.5
 21
-272.5
 31
0.0
  0
ARC
  5
70B
  8
DETAIL
  6
CONTINUOUS
 10
-362.5
 20
-267.5
 30
0.0
 40
5.0
 50
180.0
 51
270.0
  0
ARC
  5
70C
  8
DETAIL
  6
CONTINUOUS
 10
362.5
 20
-267.5
 30
0.0
 40
5.0
 50
270.0
 51
0.0
  0
ARC
  5
70D
  8
DETAIL
  6
CONTINUOUS
 10
357.5
 20
-267.5
 30
0.0
 40
5.0
 50
180.0
 51
270.0
  0
ARC
  5
70E
  8
DETAIL
  6
CONTINUOUS
 10
362.5
 20
-47.5
 30
0.0
 40
5.0
 50
0.0
 51
90.0
  0
ARC
  5
70F
  8
DETAIL
  6
CONTINUOUS
 10
357.5
 20
-47.5
 30
0.0
 40
5.0
 50
90.0
 51
180.0
  0
LINE
  5
710
  8
DETAIL
  6
CONTINUOUS
 10
357.5
 20
-42.5
 30
0.0
 11
362.5
 21
-42.5
 31
0.0
  0
LINE
  5
711
  8
DETAIL
  6
CONTINUOUS
 10
357.5
 20
-272.5
 30
0.0
 11
362.5
 21
-272.5
 31
0.0
  0
LINE
  5
712
  8
DETAIL
  6
CONTINUOUS
 10
352.5
 20
-47.5
 30
0.0
 11
352.5
 21
-267.5
 31
0.0
  0
LINE
  5
713
  8
DETAIL
  6
CONTINUOUS
 10
367.5
 20
-47.5
 30
0.0
 11
367.5
 21
-267.5
 31
0.0
  0
LINE
  5
714
  8
DETAIL
  6
CONTINUOUS
 10
-404.5
 20
-180.0
 30
0.0
 11
-425.5
 21
-165.923758
 31
0.0
  0
LINE
  5
715
  8
DETAIL
  6
CONTINUOUS
 10
-404.5
 20
-95.0
 30
0.0
 11
-425.5
 21
-109.076242
 31
0.0
  0
LINE
  5
716
  8
DETAIL
  6
CONTINUOUS
 10
310.0
 20
0.0
 30
0.0
 11
310.0
 21
16.0
 31
0.0
  0
LINE
  5
717
  8
DETAIL
  6
CONTINUOUS
 10
310.0
 20
16.0
 30
0.0
 11
270.0
 21
16.0
 31
0.0
  0
LINE
  5
718
  8
DETAIL
  6
CONTINUOUS
 10
-255.0
 20
-316.821421
 30
0.0
 11
-255.0
 21
-320.0
 31
0.0
  0
LINE
  5
719
  8
DETAIL
  6
CONTINUOUS
 10
-245.0
 20
-317.489576
 30
0.0
 11
-245.0
 21
-320.0
 31
0.0
  0
LINE
  5
71A
  8
DETAIL
  6
CONTINUOUS
 10
-270.0
 20
-315.732349
 30
0.0
 11
-270.0
 21
-322.0
 31
0.0
  0
LINE
  5
71B
  8
DETAIL
  6
CONTINUOUS
 10
-230.0
 20
-318.405075
 30
0.0
 11
-230.0
 21
-322.0
 31
0.0
  0
LINE
  5
71C
  8
DETAIL
  6
CONTINUOUS
 10
-360.0
 20
-300.0
 30
0.0
 11
-360.0
 21
-304.643721
 31
0.0
  0
LINE
  5
71D
  8
DETAIL
  6
CONTINUOUS
 10
156.0
 20
-300.0
 30
0.0
 11
156.0
 21
-304.643721
 31
0.0
  0
ARC
  5
71E
  8
DETAIL
  6
CONTINUOUS
 10
-102.0
 20
1855.0
 30
0.0
 40
2175.0
 50
263.187495
 51
276.812505
  0
ARC
  5
71F
  8
DETAIL
  6
CONTINUOUS
 10
250.0
 20
-309.0
 30
0.0
 40
5.0
 50
0.0
 51
180.0
  0
LINE
  5
720
  8
DETAIL
  6
CONTINUOUS
 10
245.0
 20
-309.0
 30
0.0
 11
245.0
 21
-320.0
 31
0.0
  0
LINE
  5
721
  8
DETAIL
  6
CONTINUOUS
 10
255.0
 20
-309.0
 30
0.0
 11
255.0
 21
-320.0
 31
0.0
  0
ARC
  5
722
  8
DETAIL
  6
CONTINUOUS
 10
250.0
 20
-320.0
 30
0.0
 40
5.0
 50
180.0
 51
0.0
  0
ARC
  5
723
  8
DETAIL
  6
CONTINUOUS
 10
240.0
 20
-322.0
 30
0.0
 40
10.0
 50
180.0
 51
270.0
  0
LINE
  5
724
  8
DETAIL
  6
CONTINUOUS
 10
260.0
 20
-332.0
 30
0.0
 11
240.0
 21
-332.0
 31
0.0
  0
ARC
  5
725
  8
DETAIL
  6
CONTINUOUS
 10
260.0
 20
-322.0
 30
0.0
 40
10.0
 50
270.0
 51
0.0
  0
LINE
  5
726
  8
DETAIL
  6
CONTINUOUS
 10
270.0
 20
-300.0
 30
0.0
 11
270.0
 21
-322.0
 31
0.0
  0
LINE
  5
727
  8
DETAIL
  6
CONTINUOUS
 10
230.0
 20
-300.0
 30
0.0
 11
230.0
 21
-322.0
 31
0.0
  0
ARC
  5
728
  8
DETAIL
  6
CONTINUOUS
 10
250.0
 20
10.0
 30
0.0
 40
5.0
 50
180.0
 51
0.0
  0
ARC
  5
729
  8
DETAIL
  6
CONTINUOUS
 10
262.5
 20
20.5
 30
0.0
 40
7.5
 50
0.0
 51
180.0
  0
ARC
  5
72A
  8
DETAIL
  6
CONTINUOUS
 10
237.5
 20
20.5
 30
0.0
 40
7.5
 50
0.0
 51
180.0
  0
LINE
  5
72B
  8
DETAIL
  6
CONTINUOUS
 10
270.0
 20
0.0
 30
0.0
 11
270.0
 21
20.5
 31
0.0
  0
LINE
  5
72C
  8
DETAIL
  6
CONTINUOUS
 10
255.0
 20
10.0
 30
0.0
 11
255.0
 21
20.5
 31
0.0
  0
LINE
  5
72D
  8
DETAIL
  6
CONTINUOUS
 10
245.0
 20
10.0
 30
0.0
 11
245.0
 21
20.5
 31
0.0
  0
LINE
  5
72E
  8
DETAIL
  6
CONTINUOUS
 10
230.0
 20
0.0
 30
0.0
 11
230.0
 21
20.5
 31
0.0
  0
ARC
  5
72F
  8
DETAIL
  6
CONTINUOUS
 10
-237.5
 20
20.5
 30
0.0
 40
7.5
 50
0.0
 51
180.0
  0
ARC
  5
730
  8
DETAIL
  6
CONTINUOUS
 10
-262.5
 20
20.5
 30
0.0
 40
7.5
 50
0.0
 51
180.0
  0
ARC
  5
731
  8
DETAIL
  6
CONTINUOUS
 10
-240.0
 20
-322.0
 30
0.0
 40
10.0
 50
270.0
 51
0.0
  0
ARC
  5
732
  8
DETAIL
  6
CONTINUOUS
 10
-260.0
 20
-322.0
 30
0.0
 40
10.0
 50
180.0
 51
270.0
  0
LINE
  5
733
  8
DETAIL
  6
CONTINUOUS
 10
-240.0
 20
-332.0
 30
0.0
 11
-260.0
 21
-332.0
 31
0.0
  0
ARC
  5
734
  8
DETAIL
  6
DASHED
 10
-250.0
 20
-309.0
 30
0.0
 40
5.0
 50
0.0
 51
180.0
  0
LINE
  5
735
  8
DETAIL
  6
DASHED
 10
-255.0
 20
-309.0
 30
0.0
 11
-255.0
 21
-316.821421
 31
0.0
  0
LINE
  5
736
  8
DETAIL
  6
DASHED
 10
-245.0
 20
-309.0
 30
0.0
 11
-245.0
 21
-317.489576
 31
0.0
  0
ARC
  5
737
  8
DETAIL
  6
CONTINUOUS
 10
-250.0
 20
-320.0
 30
0.0
 40
5.0
 50
180.0
 51
0.0
  0
LINE
  5
738
  8
DETAIL
  6
CONTINUOUS
 10
-255.0
 20
10.0
 30
0.0
 11
-255.0
 21
20.5
 31
0.0
  0
LINE
  5
739
  8
DETAIL
  6
CONTINUOUS
 10
-245.0
 20
10.0
 30
0.0
 11
-245.0
 21
20.5
 31
0.0
  0
LINE
  5
73A
  8
DETAIL
  6
CONTINUOUS
 10
-270.0
 20
0.0
 30
0.0
 11
-270.0
 21
20.5
 31
0.0
  0
LINE
  5
73B
  8
DETAIL
  6
CONTINUOUS
 10
-230.0
 20
0.0
 30
0.0
 11
-230.0
 21
20.5
 31
0.0
  0
ARC
  5
73C
  8
DETAIL
  6
DASHED
 10
426.65
 20
-171.5
 30
0.0
 40
2.0
 50
270.0
 51
0.0
  0
LINE
  5
73D
  8
DETAIL
  6
DASHED
 10
426.65
 20
-173.5
 30
0.0
 11
404.5
 21
-173.5
 31
0.0
  0
LINE
  5
73E
  8
DETAIL
  6
DASHED
 10
440.35
 20
-192.5
 30
0.0
 11
404.5
 21
-192.5
 31
0.0
  0
ARC
  5
73F
  8
DETAIL
  6
DASHED
 10
440.35
 20
-182.5
 30
0.0
 40
10.0
 50
270.0
 51
0.0
  0
LINE
  5
740
  8
DETAIL
  6
DASHED
 10
428.65
 20
-168.0
 30
0.0
 11
428.65
 21
-171.5
 31
0.0
  0
LINE
  5
741
  8
DETAIL
  6
DASHED
 10
429.383709
 20
-154.0
 30
0.0
 11
428.65
 21
-168.0
 31
0.0
  0
LINE
  5
742
  8
DETAIL
  6
DASHED
 10
450.35
 20
-168.0
 30
0.0
 11
450.35
 21
-182.5
 31
0.0
  0
LINE
  5
743
  8
DETAIL
  6
DASHED
 10
429.436117
 20
-154.0
 30
0.0
 11
449.563884
 21
-154.0
 31
0.0
  0
LINE
  5
744
  8
DETAIL
  6
DASHED
 10
449.616291
 20
-154.0
 30
0.0
 11
450.35
 21
-168.0
 31
0.0
  0
LINE
  5
745
  8
DETAIL
  6
CONTINUOUS
 10
384.5
 20
-300.0
 30
0.0
 11
-384.5
 21
-300.0
 31
0.0
  0
LINE
  5
746
  8
DETAIL
  6
CONTINUOUS
 10
384.5
 20
0.0
 30
0.0
 11
-384.5
 21
0.0
 31
0.0
  0
LINE
  5
747
  8
DETAIL
  6
CONTINUOUS
 10
-404.5
 20
-20.0
 30
0.0
 11
-404.5
 21
-280.0
 31
0.0
  0
LINE
  5
748
  8
DETAIL
  6
CONTINUOUS
 10
404.5
 20
-20.0
 30
0.0
 11
404.5
 21
-280.0
 31
0.0
  0
LINE
  5
749
  8
DETAIL
  6
DASHED
 10
-270.0
 20
-300.0
 30
0.0
 11
-270.0
 21
-315.732349
 31
0.0
  0
LINE
  5
74A
  8
DETAIL
  6
DASHED
 10
-230.0
 20
-300.0
 30
0.0
 11
-230.0
 21
-318.405075
 31
0.0
  0
ARC
  5
74B
  8
DETAIL
  6
CONTINUOUS
 10
384.5
 20
-20.0
 30
0.0
 40
20.0
 50
0.0
 51
90.0
  0
ARC
  5
74C
  8
DETAIL
  6
CONTINUOUS
 10
384.5
 20
-280.0
 30
0.0
 40
20.0
 50
270.0
 51
0.0
  0
ARC
  5
74D
  8
DETAIL
  6
CONTINUOUS
 10
-384.5
 20
-280.0
 30
0.0
 40
20.0
 50
180.0
 51
270.0
  0
ARC
  5
74E
  8
DETAIL
  6
CONTINUOUS
 10
-384.5
 20
-20.0
 30
0.0
 40
20.0
 50
90.0
 51
180.0
  0
LINE
  5
74F
  8
DETAIL
  6
CONTINUOUS
 10
0.0
 20
-42.5
 30
0.0
 11
297.5
 21
-42.5
 31
0.0
  0
LINE
  5
750
  8
DETAIL
  6
CONTINUOUS
 10
0.0
 20
-272.5
 30
0.0
 11
297.5
 21
-272.5
 31
0.0
  0
LINE
  5
751
  8
DETAIL
  6
CONTINUOUS
 10
317.5
 20
-62.5
 30
0.0
 11
317.5
 21
-252.5
 31
0.0
  0
ARC
  5
752
  8
DETAIL
  6
CONTINUOUS
 10
297.5
 20
-62.5
 30
0.0
 40
20.0
 50
0.0
 51
90.0
  0
ARC
  5
753
  8
DETAIL
  6
CONTINUOUS
 10
297.5
 20
-252.5
 30
0.0
 40
20.0
 50
270.0
 51
0.0
  0
LINE
  5
754
  8
DETAIL
  6
CONTINUOUS
 10
0.0
 20
-127.5
 30
0.0
 11
301.5
 21
-127.5
 31
0.0
  0
LINE
  5
755
  8
DETAIL
  6
CONTINUOUS
 10
0.0
 20
-187.5
 30
0.0
 11
301.5
 21
-187.5
 31
0.0
  0
LINE
  5
756
  8
DETAIL
  6
CONTINUOUS
 10
305.5
 20
-131.5
 30
0.0
 11
305.5
 21
-183.5
 31
0.0
  0
ARC
  5
757
  8
DETAIL
  6
CONTINUOUS
 10
301.5
 20
-131.5
 30
0.0
 40
4.0
 50
0.0
 51
90.0
  0
ARC
  5
758
  8
DETAIL
  6
CONTINUOUS
 10
301.5
 20
-183.5
 30
0.0
 40
4.0
 50
270.0
 51
0.0
  0
LINE
  5
759
  8
DETAIL
  6
CONTINUOUS
 10
305.5
 20
-59.0
 30
0.0
 11
305.5
 21
-111.0
 31
0.0
  0
ARC
  5
75A
  8
DETAIL
  6
CONTINUOUS
 10
301.5
 20
-59.0
 30
0.0
 40
4.0
 50
0.0
 51
90.0
  0
LINE
  5
75B
  8
DETAIL
  6
CONTINUOUS
 10
0.0
 20
-55.5
 30
0.0
 11
301.5
 21
-55.5
 31
0.0
  0
ARC
  5
75C
  8
DETAIL
  6
CONTINUOUS
 10
301.5
 20
-111.0
 30
0.0
 40
4.0
 50
270.0
 51
0.0
  0
LINE
  5
75D
  8
DETAIL
  6
CONTINUOUS
 10
0.0
 20
-115.0
 30
0.0
 11
301.5
 21
-115.0
 31
0.0
  0
LINE
  5
75E
  8
DETAIL
  6
CONTINUOUS
 10
0.0
 20
-260.0
 30
0.0
 11
301.5
 21
-260.0
 31
0.0
  0
LINE
  5
75F
  8
DETAIL
  6
CONTINUOUS
 10
0.0
 20
-200.0
 30
0.0
 11
301.5
 21
-200.0
 31
0.0
  0
LINE
  5
760
  8
DETAIL
  6
CONTINUOUS
 10
305.5
 20
-256.0
 30
0.0
 11
305.5
 21
-204.0
 31
0.0
  0
ARC
  5
761
  8
DETAIL
  6
CONTINUOUS
 10
301.5
 20
-256.0
 30
0.0
 40
4.0
 50
270.0
 51
0.0
  0
ARC
  5
762
  8
DETAIL
  6
CONTINUOUS
 10
301.5
 20
-204.0
 30
0.0
 40
4.0
 50
0.0
 51
90.0
  0
LINE
  5
763
  8
DETAIL
  6
CONTINUOUS
 10
-425.5
 20
-109.076242
 30
0.0
 11
-425.5
 21
-165.923758
 31
0.0
  0
LINE
  5
764
  8
DETAIL
  6
DASHED
 10
429.383709
 20
-169.0
 30
0.0
 11
428.65
 21
-183.0
 31
0.0
  0
LINE
  5
765
  8
DETAIL
  6
DASHED
 10
428.65
 20
-183.0
 30
0.0
 11
450.35
 21
-183.0
 31
0.0
  0
LINE
  5
766
  8
DETAIL
  6
DASHED
 10
449.616291
 20
-169.0
 30
0.0
 11
450.35
 21
-183.0
 31
0.0
  0
LINE
  5
767
  8
DETAIL
  6
DASHED
 10
429.436117
 20
-169.0
 30
0.0
 11
449.563884
 21
-169.0
 31
0.0
  0
LINE
  5
768
  8
DETAIL
  6
DASHED
 10
450.35
 20
-183.0
 30
0.0
 11
450.35
 21
-197.5
 31
0.0
  0
LINE
  5
769
  8
DETAIL
  6
DASHED
 10
428.65
 20
-183.0
 30
0.0
 11
428.65
 21
-186.5
 31
0.0
  0
LINE
  5
76A
  8
DETAIL
  6
DASHED
 10
426.65
 20
-188.5
 30
0.0
 11
404.5
 21
-188.5
 31
0.0
  0
LINE
  5
76B
  8
DETAIL
  6
DASHED
 10
440.35
 20
-207.5
 30
0.0
 11
404.5
 21
-207.5
 31
0.0
  0
ARC
  5
76C
  8
DETAIL
  6
DASHED
 10
426.65
 20
-186.5
 30
0.0
 40
2.0
 50
270.0
 51
0.0
  0
ARC
  5
76D
  8
DETAIL
  6
DASHED
 10
440.35
 20
-197.5
 30
0.0
 40
10.0
 50
270.0
 51
0.0
  0
ARC
  5
76E
  8
DETAIL
  6
CONTINUOUS
 10
-250.0
 20
10.0
 30
0.0
 40
5.0
 50
180.0
 51
0.0
  0
LINE
  5
76F
  8
DETAIL
  6
CONTINUOUS
 10
404.5
 20
-93.84252
 30
0.0
 11
474.5
 21
-95.84252
 31
0.0
  0
LINE
  5
770
  8
DETAIL
  6
CONTINUOUS
 10
404.5
 20
-248.30777
 30
0.0
 11
470.19213
 21
-242.476596
 31
0.0
  0
POLYLINE
  5
771
  8
DETAIL
  6
CONTINUOUS
 66
     1
 10
0.0
 20
0.0
 30
0.0
  0
VERTEX
  5
93A
  8
DETAIL
  6
CONTINUOUS
 10
474.5
 20
-95.84252
 30
0.0
  0
VERTEX
  5
93B
  8
DETAIL
  6
CONTINUOUS
 10
474.903863
 20
-124.485093
 30
0.0
  0
VERTEX
  5
93C
  8
DETAIL
  6
CONTINUOUS
 10
474.85338
 20
-140.172734
 30
0.0
  0
VERTEX
  5
93D
  8
DETAIL
  6
CONTINUOUS
 10
474.5
 20
-157.5
 30
0.0
  0
VERTEX
  5
93E
  8
DETAIL
  6
CONTINUOUS
 10
474.5
 20
-157.5
 30
0.0
  0
VERTEX
  5
93F
  8
DETAIL
  6
CONTINUOUS
 10
473.776413
 20
-176.831253
 30
0.0
  0
VERTEX
  5
940
  8
DETAIL
  6
CONTINUOUS
 10
472.749928
 20
-197.802131
 30
0.0
  0
VERTEX
  5
941
  8
DETAIL
  6
CONTINUOUS
 10
470.19213
 20
-242.476596
 30
0.0
  0
SEQEND
  5
944
  8
DETAIL
  6
CONTINUOUS
  0
LINE
  5
77B
  8
DETAIL
  6
CONTINUOUS
 10
420.5
 20
-114.076242
 30
0.0
 11
404.5
 21
-100.0
 31
0.0
  0
LINE
  5
77C
  8
DETAIL
  6
CONTINUOUS
 10
420.5
 20
-114.076242
 30
0.0
 11
420.5
 21
-170.923758
 31
0.0
  0
LINE
  5
77D
  8
DETAIL
  6
CONTINUOUS
 10
420.5
 20
-170.923758
 30
0.0
 11
404.5
 21
-185.0
 31
0.0
  0
LINE
  5
77E
  8
BASIS
  6
DASHDOT
 10
-102.0
 20
-258.0
 30
0.0
 11
-102.0
 21
-358.0
 31
0.0
  0
LINE
  5
77F
  8
BASIS
  6
DASHDOT
 10
0.0
 20
35.0
 30
0.0
 11
0.0
 21
-370.0
 31
0.0
  0
LINE
  5
780
  8
SIZE
  6
CONTINUOUS
 62
    30
 10
30.0
 20
-4.7
 30
0.0
 11
860.0999840000001
 21
-4.7
 31
0.0
  0
LINE
  5
781
  8
SIZE
  6
CONTINUOUS
 62
    30
 10
390.000015
 20
0.0
 30
0.0
 11
860.0999840000001
 21
0.0
 31
0.0
  0
LINE
  5
782
  8
SIZE
  6
CONTINUOUS
 62
    30
 10
847.5999840000001
 20
10.0
 30
0.0
 11
847.5999840000001
 21
20.0
 31
0.0
  0
LINE
  5
783
  8
SIZE
  6
CONTINUOUS
 62
    30
 10
847.5999840000001
 20
-14.7
 30
0.0
 11
847.5999840000001
 21
-64.7
 31
0.0
  0
LINE
  5
784
  8
SIZE
  6
CONTINUOUS
 62
    30
 10
847.5999840000001
 20
0.0
 30
0.0
 11
847.5999840000001
 21
-4.7
 31
0.0
  0
CIRCLE
  5
785
  8
SIZE
  6
CONTINUOUS
 62
    30
 10
847.5999840000001
 20
0.0
 30
0.0
 40
5.0
  0
LINE
  5
786
  8
SIZE
  6
CONTINUOUS
 62
    30
 10
847.5999840000001
 20
0.0
 30
0.0
 11
847.5999840000001
 21
10.0
 31
0.0
  0
CIRCLE
  5
787
  8
SIZE
  6
CONTINUOUS
 62
    30
 10
847.5999840000001
 20
-4.7
 30
0.0
 40
5.0
  0
LINE
  5
788
  8
SIZE
  6
CONTINUOUS
 62
    30
 10
847.5999840000001
 20
-4.7
 30
0.0
 11
847.5999840000001
 21
-14.7
 31
0.0
  0
TEXT
  5
789
  8
SIZE
  6
CONTINUOUS
 62
    30
 10
837.5999840000001
 20
-58.98571428571428
 30
0.0
 40
30.0
  1
5
 50
90.0
 72
     1
 11
837.5999840000001
 21
-44.7
 31
0.0
  0
POINT
  5
78A
  8
DEFPOINTS
  6
CONTINUOUS
 62
    30
 10
20.0
 20
-4.7
 30
0.0
  0
POINT
  5
78B
  8
DEFPOINTS
  6
CONTINUOUS
 62
    30
 10
380.000015
 20
0.0
 30
0.0
  0
POINT
  5
78C
  8
DEFPOINTS
  6
CONTINUOUS
 62
    30
 10
847.5999840000001
 20
0.0
 30
0.0
  0
LINE
  5
78D
  8
SIZE
  6
CONTINUOUS
 62
    30
 10
-272.499985
 20
28.000002
 30
0.0
 11
-1036.758109
 21
28.000002
 31
0.0
  0
LINE
  5
78E
  8
SIZE
  6
CONTINUOUS
 62
    30
 10
-269.999985
 20
-331.999977
 30
0.0
 11
-1036.758109
 21
-331.999977
 31
0.0
  0
LINE
  5
78F
  8
SIZE
  6
CONTINUOUS
 62
    30
 10
-1024.258109
 20
18.000002
 30
0.0
 11
-1024.258109
 21
-321.999977
 31
0.0
  0
CIRCLE
  5
790
  8
SIZE
  6
CONTINUOUS
 62
    30
 10
-1024.258109
 20
28.000002
 30
0.0
 40
5.0
  0
LINE
  5
791
  8
SIZE
  6
CONTINUOUS
 62
    30
 10
-1024.258109
 20
28.000002
 30
0.0
 11
-1024.258109
 21
18.000002
 31
0.0
  0
CIRCLE
  5
792
  8
SIZE
  6
CONTINUOUS
 62
    30
 10
-1024.258109
 20
-331.999977
 30
0.0
 40
5.0
  0
LINE
  5
793
  8
SIZE
  6
CONTINUOUS
 62
    30
 10
-1024.258109
 20
-331.999977
 30
0.0
 11
-1024.258109
 21
-321.999977
 31
0.0
  0
TEXT
  5
794
  8
SIZE
  6
CONTINUOUS
 62
    30
 10
-1034.258109
 20
-194.8571508571429
 30
0.0
 40
30.0
  1
360
 50
90.0
 72
     1
 11
-1034.258109
 21
-152.000008
 31
0.0
  0
POINT
  5
795
  8
DEFPOINTS
  6
CONTINUOUS
 62
    30
 10
-262.499985
 20
28.000002
 30
0.0
  0
POINT
  5
796
  8
DEFPOINTS
  6
CONTINUOUS
 62
    30
 10
-259.999985
 20
-331.999977
 30
0.0
  0
POINT
  5
797
  8
DEFPOINTS
  6
CONTINUOUS
 62
    30
 10
-1024.258109
 20
-331.999977
 30
0.0
  0
LINE
  5
798
  8
SIZE
  6
CONTINUOUS
 62
    30
 10
-279.999985
 20
-319.999977
 30
0.0
 11
-936.758109
 21
-319.999977
 31
0.0
  0
LINE
  5
799
  8
SIZE
  6
CONTINUOUS
 62
    30
 10
-279.999985
 20
10.0
 30
0.0
 11
-936.758109
 21
10.0
 31
0.0
  0
LINE
  5
79A
  8
SIZE
  6
CONTINUOUS
 62
    30
 10
-924.258109
 20
-309.999977
 30
0.0
 11
-924.258109
 21
0.0
 31
0.0
  0
CIRCLE
  5
79B
  8
SIZE
  6
CONTINUOUS
 62
    30
 10
-924.258109
 20
-319.999977
 30
0.0
 40
5.0
  0
LINE
  5
79C
  8
SIZE
  6
CONTINUOUS
 62
    30
 10
-924.258109
 20
-319.999977
 30
0.0
 11
-924.258109
 21
-309.999977
 31
0.0
  0
CIRCLE
  5
79D
  8
SIZE
  6
CONTINUOUS
 62
    30
 10
-924.258109
 20
10.0
 30
0.0
 40
5.0
  0
LINE
  5
79E
  8
SIZE
  6
CONTINUOUS
 62
    30
 10
-924.258109
 20
10.0
 30
0.0
 11
-924.258109
 21
0.0
 31
0.0
  0
TEXT
  5
79F
  8
SIZE
  6
CONTINUOUS
 62
    30
 10
-934.258109
 20
-197.8571508571429
 30
0.0
 40
30.0
  1
330
 50
90.0
 72
     1
 11
-934.258109
 21
-155.000008
 31
0.0
  0
POINT
  5
7A0
  8
DEFPOINTS
  6
CONTINUOUS
 62
    30
 10
-269.999985
 20
-319.999977
 30
0.0
  0
POINT
  5
7A1
  8
DEFPOINTS
  6
CONTINUOUS
 62
    30
 10
-269.999985
 20
10.0
 30
0.0
  0
POINT
  5
7A2
  8
DEFPOINTS
  6
CONTINUOUS
 62
    30
 10
-924.258109
 20
10.0
 30
0.0
  0
LINE
  5
7A3
  8
SIZE
  6
CONTINUOUS
 62
    30
 10
-564.000016
 20
-499.999977
 30
0.0
 11
-836.758109
 21
-499.999977
 31
0.0
  0
LINE
  5
7A4
  8
SIZE
  6
CONTINUOUS
 62
    30
 10
-564.000016
 20
-299.999977
 30
0.0
 11
-836.758109
 21
-299.999977
 31
0.0
  0
LINE
  5
7A5
  8
SIZE
  6
CONTINUOUS
 62
    30
 10
-824.258109
 20
-489.999977
 30
0.0
 11
-824.258109
 21
-309.999977
 31
0.0
  0
CIRCLE
  5
7A6
  8
SIZE
  6
CONTINUOUS
 62
    30
 10
-824.258109
 20
-499.999977
 30
0.0
 40
5.0
  0
LINE
  5
7A7
  8
SIZE
  6
CONTINUOUS
 62
    30
 10
-824.258109
 20
-499.999977
 30
0.0
 11
-824.258109
 21
-489.999977
 31
0.0
  0
CIRCLE
  5
7A8
  8
SIZE
  6
CONTINUOUS
 62
    30
 10
-824.258109
 20
-299.999977
 30
0.0
 40
5.0
  0
LINE
  5
7A9
  8
SIZE
  6
CONTINUOUS
 62
    30
 10
-824.258109
 20
-299.999977
 30
0.0
 11
-824.258109
 21
-309.999977
 31
0.0
  0
TEXT
  5
7AA
  8
SIZE
  6
CONTINUOUS
 62
    30
 10
-834.258109
 20
-442.8571208571428
 30
0.0
 40
30.0
  1
200
 50
90.0
 72
     1
 11
-834.258109
 21
-399.999978
 31
0.0
  0
POINT
  5
7AB
  8
DEFPOINTS
  6
CONTINUOUS
 62
    30
 10
-554.000016
 20
-499.999977
 30
0.0
  0
POINT
  5
7AC
  8
DEFPOINTS
  6
CONTINUOUS
 62
    30
 10
-554.000016
 20
-299.999977
 30
0.0
  0
POINT
  5
7AD
  8
DEFPOINTS
  6
CONTINUOUS
 62
    30
 10
-824.258109
 20
-299.999977
 30
0.0
  0
LINE
  5
7AE
  8
SIZE
  6
CONTINUOUS
 62
    30
 10
-554.000016
 20
-509.999977
 30
0.0
 11
-554.000016
 21
-759.668673
 31
0.0
  0
LINE
  5
7AF
  8
SIZE
  6
CONTINUOUS
 62
    30
 10
404.500015
 20
-509.999977
 30
0.0
 11
404.500015
 21
-759.668673
 31
0.0
  0
LINE
  5
7B0
  8
SIZE
  6
CONTINUOUS
 62
    30
 10
-544.000016
 20
-747.168673
 30
0.0
 11
394.500015
 21
-747.168673
 31
0.0
  0
CIRCLE
  5
7B1
  8
SIZE
  6
CONTINUOUS
 62
    30
 10
-554.000016
 20
-747.168673
 30
0.0
 40
5.0
  0
LINE
  5
7B2
  8
SIZE
  6
CONTINUOUS
 62
    30
 10
-554.000016
 20
-747.168673
 30
0.0
 11
-544.000016
 21
-747.168673
 31
0.0
  0
CIRCLE
  5
7B3
  8
SIZE
  6
CONTINUOUS
 62
    30
 10
404.500015
 20
-747.168673
 30
0.0
 40
5.0
  0
LINE
  5
7B4
  8
SIZE
  6
CONTINUOUS
 62
    30
 10
404.500015
 20
-747.168673
 30
0.0
 11
394.500015
 21
-747.168673
 31
0.0
  0
TEXT
  5
7B5
  8
SIZE
  6
CONTINUOUS
 62
    30
 10
-116.8928571428571
 20
-737.168673
 30
0.0
 40
30.0
  1
959
 72
     1
 11
-74.75
 21
-737.168673
 31
0.0
  0
POINT
  5
7B6
  8
DEFPOINTS
  6
CONTINUOUS
 62
    30
 10
-554.000016
 20
-499.999977
 30
0.0
  0
POINT
  5
7B7
  8
DEFPOINTS
  6
CONTINUOUS
 62
    30
 10
404.500015
 20
-499.999977
 30
0.0
  0
POINT
  5
7B8
  8
DEFPOINTS
  6
CONTINUOUS
 62
    30
 10
404.500015
 20
-747.168673
 30
0.0
  0
LINE
  5
7B9
  8
SIZE
  6
CONTINUOUS
 62
    30
 10
703.999984
 20
-509.999977
 30
0.0
 11
703.999984
 21
-760.668673
 31
0.0
  0
LINE
  5
7BA
  8
SIZE
  6
CONTINUOUS
 62
    30
 10
404.500015
 20
-509.999977
 30
0.0
 11
404.500015
 21
-760.668673
 31
0.0
  0
LINE
  5
7BB
  8
SIZE
  6
CONTINUOUS
 62
    30
 10
693.999984
 20
-748.168673
 30
0.0
 11
414.500015
 21
-748.168673
 31
0.0
  0
CIRCLE
  5
7BC
  8
SIZE
  6
CONTINUOUS
 62
    30
 10
703.999984
 20
-748.168673
 30
0.0
 40
5.0
  0
LINE
  5
7BD
  8
SIZE
  6
CONTINUOUS
 62
    30
 10
703.999984
 20
-748.168673
 30
0.0
 11
693.999984
 21
-748.168673
 31
0.0
  0
CIRCLE
  5
7BE
  8
SIZE
  6
CONTINUOUS
 62
    30
 10
404.500015
 20
-748.168673
 30
0.0
 40
5.0
  0
LINE
  5
7BF
  8
SIZE
  6
CONTINUOUS
 62
    30
 10
404.500015
 20
-748.168673
 30
0.0
 11
414.500015
 21
-748.168673
 31
0.0
  0
TEXT
  5
7C0
  8
SIZE
  6
CONTINUOUS
 62
    30
 10
511.3928411428572
 20
-738.168673
 30
0.0
 40
30.0
  1
300
 72
     1
 11
554.249984
 21
-738.168673
 31
0.0
  0
POINT
  5
7C1
  8
DEFPOINTS
  6
CONTINUOUS
 62
    30
 10
703.999984
 20
-499.999977
 30
0.0
  0
POINT
  5
7C2
  8
DEFPOINTS
  6
CONTINUOUS
 62
    30
 10
404.500015
 20
-499.999977
 30
0.0
  0
POINT
  5
7C3
  8
DEFPOINTS
  6
CONTINUOUS
 62
    30
 10
404.500015
 20
-748.168673
 30
0.0
  0
LINE
  5
7C4
  8
SIZE
  6
CONTINUOUS
 62
    30
 10
713.999984
 20
-499.999977
 30
0.0
 11
1163.454782
 21
-499.999977
 31
0.0
  0
LINE
  5
7C5
  8
SIZE
  6
CONTINUOUS
 62
    30
 10
713.999984
 20
100.0
 30
0.0
 11
1163.454782
 21
100.0
 31
0.0
  0
LINE
  5
7C6
  8
SIZE
  6
CONTINUOUS
 62
    30
 10
1150.954782
 20
-489.999977
 30
0.0
 11
1150.954782
 21
90.0
 31
0.0
  0
CIRCLE
  5
7C7
  8
SIZE
  6
CONTINUOUS
 62
    30
 10
1150.954782
 20
-499.999977
 30
0.0
 40
5.0
  0
LINE
  5
7C8
  8
SIZE
  6
CONTINUOUS
 62
    30
 10
1150.954782
 20
-499.999977
 30
0.0
 11
1150.954782
 21
-489.999977
 31
0.0
  0
CIRCLE
  5
7C9
  8
SIZE
  6
CONTINUOUS
 62
    30
 10
1150.954782
 20
100.0
 30
0.0
 40
5.0
  0
LINE
  5
7CA
  8
SIZE
  6
CONTINUOUS
 62
    30
 10
1150.954782
 20
100.0
 30
0.0
 11
1150.954782
 21
90.0
 31
0.0
  0
TEXT
  5
7CB
  8
SIZE
  6
CONTINUOUS
 62
    30
 10
1140.954782
 20
-243.5714365714286
 30
0.0
 40
30.0
  1
600
 50
90.0
 72
     1
 11
1140.954782
 21
-200.000008
 31
0.0
  0
POINT
  5
7CC
  8
DEFPOINTS
  6
CONTINUOUS
 62
    30
 10
703.999984
 20
-499.999977
 30
0.0
  0
POINT
  5
7CD
  8
DEFPOINTS
  6
CONTINUOUS
 62
    30
 10
703.999984
 20
100.0
 30
0.0
  0
POINT
  5
7CE
  8
DEFPOINTS
  6
CONTINUOUS
 62
    30
 10
1150.954782
 20
100.0
 30
0.0
  0
LINE
  5
7CF
  8
SIZE
  6
CONTINUOUS
 62
    30
 10
-404.499985
 20
10.0
 30
0.0
 11
-404.499985
 21
314.900023
 31
0.0
  0
LINE
  5
7D0
  8
SIZE
  6
CONTINUOUS
 62
    30
 10
-425.499985
 20
-99.076249
 30
0.0
 11
-425.499985
 21
314.900023
 31
0.0
  0
LINE
  5
7D1
  8
SIZE
  6
CONTINUOUS
 62
    30
 10
-394.499985
 20
302.400023
 30
0.0
 11
-384.499985
 21
302.400023
 31
0.0
  0
LINE
  5
7D2
  8
SIZE
  6
CONTINUOUS
 62
    30
 10
-435.499985
 20
302.400023
 30
0.0
 11
-505.499985
 21
302.400023
 31
0.0
  0
LINE
  5
7D3
  8
SIZE
  6
CONTINUOUS
 62
    30
 10
-404.499985
 20
302.400023
 30
0.0
 11
-425.499985
 21
302.400023
 31
0.0
  0
CIRCLE
  5
7D4
  8
SIZE
  6
CONTINUOUS
 62
    30
 10
-404.499985
 20
302.400023
 30
0.0
 40
5.0
  0
LINE
  5
7D5
  8
SIZE
  6
CONTINUOUS
 62
    30
 10
-404.499985
 20
302.400023
 30
0.0
 11
-394.499985
 21
302.400023
 31
0.0
  0
CIRCLE
  5
7D6
  8
SIZE
  6
CONTINUOUS
 62
    30
 10
-425.499985
 20
302.400023
 30
0.0
 40
5.0
  0
LINE
  5
7D7
  8
SIZE
  6
CONTINUOUS
 62
    30
 10
-425.499985
 20
302.400023
 30
0.0
 11
-435.499985
 21
302.400023
 31
0.0
  0
TEXT
  5
7D8
  8
SIZE
  6
CONTINUOUS
 62
    30
 10
-499.7856992857143
 20
312.400023
 30
0.0
 40
30.0
  1
21
 72
     1
 11
-475.499985
 21
312.400023
 31
0.0
  0
POINT
  5
7D9
  8
DEFPOINTS
  6
CONTINUOUS
 62
    30
 10
-404.499985
 20
0.0
 30
0.0
  0
POINT
  5
7DA
  8
DEFPOINTS
  6
CONTINUOUS
 62
    30
 10
-425.499985
 20
-109.076249
 30
0.0
  0
POINT
  5
7DB
  8
DEFPOINTS
  6
CONTINUOUS
 62
    30
 10
-425.499985
 20
302.400023
 30
0.0
  0
LINE
  5
7DC
  8
SIZE
  6
CONTINUOUS
 62
    30
 10
-250.0
 20
40.000002
 30
0.0
 11
-250.0
 21
314.900023
 31
0.0
  0
LINE
  5
7DD
  8
SIZE
  6
CONTINUOUS
 62
    30
 10
-404.499985
 20
10.0
 30
0.0
 11
-404.499985
 21
314.900023
 31
0.0
  0
LINE
  5
7DE
  8
SIZE
  6
CONTINUOUS
 62
    30
 10
-260.0
 20
302.400023
 30
0.0
 11
-394.499985
 21
302.400023
 31
0.0
  0
CIRCLE
  5
7DF
  8
SIZE
  6
CONTINUOUS
 62
    30
 10
-250.0
 20
302.400023
 30
0.0
 40
5.0
  0
LINE
  5
7E0
  8
SIZE
  6
CONTINUOUS
 62
    30
 10
-250.0
 20
302.400023
 30
0.0
 11
-260.0
 21
302.400023
 31
0.0
  0
CIRCLE
  5
7E1
  8
SIZE
  6
CONTINUOUS
 62
    30
 10
-404.499985
 20
302.400023
 30
0.0
 40
5.0
  0
LINE
  5
7E2
  8
SIZE
  6
CONTINUOUS
 62
    30
 10
-404.499985
 20
302.400023
 30
0.0
 11
-394.499985
 21
302.400023
 31
0.0
  0
TEXT
  5
7E3
  8
SIZE
  6
CONTINUOUS
 62
    30
 10
-372.249985
 20
312.400023
 30
0.0
 40
30.0
  1
155
 72
     1
 11
-327.249985
 21
312.400023
 31
0.0
  0
POINT
  5
7E4
  8
DEFPOINTS
  6
CONTINUOUS
 62
    30
 10
-250.0
 20
30.000002
 30
0.0
  0
POINT
  5
7E5
  8
DEFPOINTS
  6
CONTINUOUS
 62
    30
 10
-404.499985
 20
0.0
 30
0.0
  0
POINT
  5
7E6
  8
DEFPOINTS
  6
CONTINUOUS
 62
    30
 10
-404.499985
 20
302.400023
 30
0.0
  0
LINE
  5
7E7
  8
SIZE
  6
CONTINUOUS
 62
    30
 10
-555.500016
 20
-299.999977
 30
0.0
 11
-836.758109
 21
-299.999977
 31
0.0
  0
LINE
  5
7E8
  8
SIZE
  6
CONTINUOUS
 62
    30
 10
-560.000016
 20
0.0
 30
0.0
 11
-836.758109
 21
0.0
 31
0.0
  0
LINE
  5
7E9
  8
SIZE
  6
CONTINUOUS
 62
    30
 10
-824.258109
 20
-289.999977
 30
0.0
 11
-824.258109
 21
-10.0
 31
0.0
  0
CIRCLE
  5
7EA
  8
SIZE
  6
CONTINUOUS
 62
    30
 10
-824.258109
 20
-299.999977
 30
0.0
 40
5.0
  0
LINE
  5
7EB
  8
SIZE
  6
CONTINUOUS
 62
    30
 10
-824.258109
 20
-299.999977
 30
0.0
 11
-824.258109
 21
-289.999977
 31
0.0
  0
CIRCLE
  5
7EC
  8
SIZE
  6
CONTINUOUS
 62
    30
 10
-824.258109
 20
0.0
 30
0.0
 40
5.0
  0
LINE
  5
7ED
  8
SIZE
  6
CONTINUOUS
 62
    30
 10
-824.258109
 20
0.0
 30
0.0
 11
-824.258109
 21
-10.0
 31
0.0
  0
TEXT
  5
7EE
  8
SIZE
  6
CONTINUOUS
 62
    30
 10
-834.258109
 20
-192.8571508571429
 30
0.0
 40
30.0
  1
300
 50
90.0
 72
     1
 11
-834.258109
 21
-150.000008
 31
0.0
  0
POINT
  5
7EF
  8
DEFPOINTS
  6
CONTINUOUS
 62
    30
 10
-545.500016
 20
-299.999977
 30
0.0
  0
POINT
  5
7F0
  8
DEFPOINTS
  6
CONTINUOUS
 62
    30
 10
-550.000016
 20
0.0
 30
0.0
  0
POINT
  5
7F1
  8
DEFPOINTS
  6
CONTINUOUS
 62
    30
 10
-824.258109
 20
0.0
 30
0.0
  0
LINE
  5
7F2
  8
SIZE
  6
CONTINUOUS
 62
    30
 10
-560.000016
 20
0.0
 30
0.0
 11
-836.758109
 21
0.0
 31
0.0
  0
LINE
  5
7F3
  8
SIZE
  6
CONTINUOUS
 62
    30
 10
-564.000016
 20
100.0
 30
0.0
 11
-836.758109
 21
100.0
 31
0.0
  0
LINE
  5
7F4
  8
SIZE
  6
CONTINUOUS
 62
    30
 10
-824.258109
 20
10.0
 30
0.0
 11
-824.258109
 21
90.0
 31
0.0
  0
CIRCLE
  5
7F5
  8
SIZE
  6
CONTINUOUS
 62
    30
 10
-824.258109
 20
0.0
 30
0.0
 40
5.0
  0
LINE
  5
7F6
  8
SIZE
  6
CONTINUOUS
 62
    30
 10
-824.258109
 20
0.0
 30
0.0
 11
-824.258109
 21
10.0
 31
0.0
  0
CIRCLE
  5
7F7
  8
SIZE
  6
CONTINUOUS
 62
    30
 10
-824.258109
 20
100.0
 30
0.0
 40
5.0
  0
LINE
  5
7F8
  8
SIZE
  6
CONTINUOUS
 62
    30
 10
-824.258109
 20
100.0
 30
0.0
 11
-824.258109
 21
90.0
 31
0.0
  0
TEXT
  5
7F9
  8
SIZE
  6
CONTINUOUS
 62
    30
 10
-834.258109
 20
5.0
 30
0.0
 40
30.0
  1
100
 50
90.0
 72
     1
 11
-834.258109
 21
50.0
 31
0.0
  0
POINT
  5
7FA
  8
DEFPOINTS
  6
CONTINUOUS
 62
    30
 10
-550.000016
 20
0.0
 30
0.0
  0
POINT
  5
7FB
  8
DEFPOINTS
  6
CONTINUOUS
 62
    30
 10
-554.000016
 20
100.0
 30
0.0
  0
POINT
  5
7FC
  8
DEFPOINTS
  6
CONTINUOUS
 62
    30
 10
-824.258109
 20
100.0
 30
0.0
  0
LINE
  5
7FD
  8
SIZE
  6
CONTINUOUS
 62
    30
 10
394.500015
 20
-299.999977
 30
0.0
 11
1060.099923
 21
-299.999977
 31
0.0
  0
LINE
  5
7FE
  8
SIZE
  6
CONTINUOUS
 62
    30
 10
410.000015
 20
0.0
 30
0.0
 11
1060.099923
 21
0.0
 31
0.0
  0
LINE
  5
7FF
  8
SIZE
  6
CONTINUOUS
 62
    30
 10
1047.599923
 20
-289.999977
 30
0.0
 11
1047.599923
 21
-10.0
 31
0.0
  0
CIRCLE
  5
800
  8
SIZE
  6
CONTINUOUS
 62
    30
 10
1047.599923
 20
-299.999977
 30
0.0
 40
5.0
  0
LINE
  5
801
  8
SIZE
  6
CONTINUOUS
 62
    30
 10
1047.599923
 20
-299.999977
 30
0.0
 11
1047.599923
 21
-289.999977
 31
0.0
  0
CIRCLE
  5
802
  8
SIZE
  6
CONTINUOUS
 62
    30
 10
1047.599923
 20
0.0
 30
0.0
 40
5.0
  0
LINE
  5
803
  8
SIZE
  6
CONTINUOUS
 62
    30
 10
1047.599923
 20
0.0
 30
0.0
 11
1047.599923
 21
-10.0
 31
0.0
  0
TEXT
  5
804
  8
SIZE
  6
CONTINUOUS
 62
    30
 10
1037.599923
 20
-192.8571508571429
 30
0.0
 40
30.0
  1
300
 50
90.0
 72
     1
 11
1037.599923
 21
-150.000008
 31
0.0
  0
POINT
  5
805
  8
DEFPOINTS
  6
CONTINUOUS
 62
    30
 10
384.500015
 20
-299.999977
 30
0.0
  0
POINT
  5
806
  8
DEFPOINTS
  6
CONTINUOUS
 62
    30
 10
400.000015
 20
0.0
 30
0.0
  0
POINT
  5
807
  8
DEFPOINTS
  6
CONTINUOUS
 62
    30
 10
1047.599923
 20
0.0
 30
0.0
  0
LINE
  5
808
  8
SIZE
  6
CONTINUOUS
 62
    30
 10
-554.000016
 20
110.0
 30
0.0
 11
-554.000016
 21
604.149565
 31
0.0
  0
LINE
  5
809
  8
SIZE
  6
CONTINUOUS
 62
    30
 10
404.500015
 20
110.0
 30
0.0
 11
404.500015
 21
604.149565
 31
0.0
  0
LINE
  5
80A
  8
SIZE
  6
CONTINUOUS
 62
    30
 10
-544.000016
 20
591.649565
 30
0.0
 11
394.500015
 21
591.649565
 31
0.0
  0
CIRCLE
  5
80B
  8
SIZE
  6
CONTINUOUS
 62
    30
 10
-554.000016
 20
591.649565
 30
0.0
 40
5.0
  0
LINE
  5
80C
  8
SIZE
  6
CONTINUOUS
 62
    30
 10
-554.000016
 20
591.649565
 30
0.0
 11
-544.000016
 21
591.649565
 31
0.0
  0
CIRCLE
  5
80D
  8
SIZE
  6
CONTINUOUS
 62
    30
 10
404.500015
 20
591.649565
 30
0.0
 40
5.0
  0
LINE
  5
80E
  8
SIZE
  6
CONTINUOUS
 62
    30
 10
404.500015
 20
591.649565
 30
0.0
 11
394.500015
 21
591.649565
 31
0.0
  0
TEXT
  5
80F
  8
SIZE
  6
CONTINUOUS
 62
    30
 10
-116.8928571428571
 20
601.649565
 30
0.0
 40
30.0
  1
959
 72
     1
 11
-74.75
 21
601.649565
 31
0.0
  0
POINT
  5
810
  8
DEFPOINTS
  6
CONTINUOUS
 62
    30
 10
-554.000016
 20
100.0
 30
0.0
  0
POINT
  5
811
  8
DEFPOINTS
  6
CONTINUOUS
 62
    30
 10
404.500015
 20
100.0
 30
0.0
  0
POINT
  5
812
  8
DEFPOINTS
  6
CONTINUOUS
 62
    30
 10
404.500015
 20
591.649565
 30
0.0
  0
LINE
  5
813
  8
SIZE
  6
CONTINUOUS
 62
    30
 10
-554.000016
 20
110.0
 30
0.0
 11
-554.000016
 21
462.570677
 31
0.0
  0
LINE
  5
814
  8
SIZE
  6
CONTINUOUS
 62
    30
 10
-404.499985
 20
10.0
 30
0.0
 11
-404.499985
 21
462.570677
 31
0.0
  0
LINE
  5
815
  8
SIZE
  6
CONTINUOUS
 62
    30
 10
-544.000016
 20
450.070677
 30
0.0
 11
-414.499985
 21
450.070677
 31
0.0
  0
CIRCLE
  5
816
  8
SIZE
  6
CONTINUOUS
 62
    30
 10
-554.000016
 20
450.070677
 30
0.0
 40
5.0
  0
LINE
  5
817
  8
SIZE
  6
CONTINUOUS
 62
    30
 10
-554.000016
 20
450.070677
 30
0.0
 11
-544.000016
 21
450.070677
 31
0.0
  0
CIRCLE
  5
818
  8
SIZE
  6
CONTINUOUS
 62
    30
 10
-404.499985
 20
450.070677
 30
0.0
 40
5.0
  0
LINE
  5
819
  8
SIZE
  6
CONTINUOUS
 62
    30
 10
-404.499985
 20
450.070677
 30
0.0
 11
-414.499985
 21
450.070677
 31
0.0
  0
TEXT
  5
81A
  8
SIZE
  6
CONTINUOUS
 62
    30
 10
-524.2499849999999
 20
460.070677
 30
0.0
 40
30.0
  1
150
 72
     1
 11
-479.249985
 21
460.070677
 31
0.0
  0
POINT
  5
81B
  8
DEFPOINTS
  6
CONTINUOUS
 62
    30
 10
-554.000016
 20
100.0
 30
0.0
  0
POINT
  5
81C
  8
DEFPOINTS
  6
CONTINUOUS
 62
    30
 10
-404.499985
 20
0.0
 30
0.0
  0
POINT
  5
81D
  8
DEFPOINTS
  6
CONTINUOUS
 62
    30
 10
-404.499985
 20
450.070677
 30
0.0
  0
LINE
  5
81E
  8
SIZE
  6
CONTINUOUS
 62
    30
 10
404.500015
 20
110.0
 30
0.0
 11
404.500015
 21
462.570677
 31
0.0
  0
LINE
  5
81F
  8
SIZE
  6
CONTINUOUS
 62
    30
 10
-404.499985
 20
10.0
 30
0.0
 11
-404.499985
 21
462.570677
 31
0.0
  0
LINE
  5
820
  8
SIZE
  6
CONTINUOUS
 62
    30
 10
394.500015
 20
450.070677
 30
0.0
 11
-394.499985
 21
450.070677
 31
0.0
  0
CIRCLE
  5
821
  8
SIZE
  6
CONTINUOUS
 62
    30
 10
404.500015
 20
450.070677
 30
0.0
 40
5.0
  0
LINE
  5
822
  8
SIZE
  6
CONTINUOUS
 62
    30
 10
404.500015
 20
450.070677
 30
0.0
 11
394.500015
 21
450.070677
 31
0.0
  0
CIRCLE
  5
823
  8
SIZE
  6
CONTINUOUS
 62
    30
 10
-404.499985
 20
450.070677
 30
0.0
 40
5.0
  0
LINE
  5
824
  8
SIZE
  6
CONTINUOUS
 62
    30
 10
-404.499985
 20
450.070677
 30
0.0
 11
-394.499985
 21
450.070677
 31
0.0
  0
TEXT
  5
825
  8
SIZE
  6
CONTINUOUS
 62
    30
 10
-42.14285714285715
 20
460.070677
 30
0.0
 40
30.0
  1
809
 72
     1
 11
0.0
 21
460.070677
 31
0.0
  0
POINT
  5
826
  8
DEFPOINTS
  6
CONTINUOUS
 62
    30
 10
404.500015
 20
100.0
 30
0.0
  0
POINT
  5
827
  8
DEFPOINTS
  6
CONTINUOUS
 62
    30
 10
-404.499985
 20
0.0
 30
0.0
  0
POINT
  5
828
  8
DEFPOINTS
  6
CONTINUOUS
 62
    30
 10
-404.499985
 20
450.070677
 30
0.0
  0
LINE
  5
829
  8
SIZE
  6
CONTINUOUS
 62
    30
 10
-92.0
 20
-319.999977
 30
0.0
 11
140.363992
 21
-319.999977
 31
0.0
  0
LINE
  5
82A
  8
SIZE
  6
CONTINUOUS
 62
    30
 10
-374.499985
 20
-299.999977
 30
0.0
 11
140.363992
 21
-299.999977
 31
0.0
  0
LINE
  5
82B
  8
SIZE
  6
CONTINUOUS
 62
    30
 10
127.863992
 20
-289.999977
 30
0.0
 11
127.863992
 21
-279.999977
 31
0.0
  0
LINE
  5
82C
  8
SIZE
  6
CONTINUOUS
 62
    30
 10
127.863992
 20
-329.999977
 30
0.0
 11
127.863992
 21
-650.082467
 31
0.0
  0
LINE
  5
82D
  8
SIZE
  6
CONTINUOUS
 62
    30
 10
127.863992
 20
-299.999977
 30
0.0
 11
127.863992
 21
-319.999977
 31
0.0
  0
CIRCLE
  5
82E
  8
SIZE
  6
CONTINUOUS
 62
    30
 10
127.863992
 20
-299.999977
 30
0.0
 40
5.0
  0
LINE
  5
82F
  8
SIZE
  6
CONTINUOUS
 62
    30
 10
127.863992
 20
-299.999977
 30
0.0
 11
127.863992
 21
-289.999977
 31
0.0
  0
CIRCLE
  5
830
  8
SIZE
  6
CONTINUOUS
 62
    30
 10
127.863992
 20
-319.999977
 30
0.0
 40
5.0
  0
LINE
  5
831
  8
SIZE
  6
CONTINUOUS
 62
    30
 10
127.863992
 20
-319.999977
 30
0.0
 11
127.863992
 21
-329.999977
 31
0.0
  0
TEXT
  5
832
  8
SIZE
  6
CONTINUOUS
 62
    30
 10
117.863992
 20
-646.1538955714285
 30
0.0
 40
30.0
  1
20
 50
90.0
 72
     1
 11
117.863992
 21
-617.582467
 31
0.0
  0
POINT
  5
833
  8
DEFPOINTS
  6
CONTINUOUS
 62
    30
 10
-102.0
 20
-319.999977
 30
0.0
  0
POINT
  5
834
  8
DEFPOINTS
  6
CONTINUOUS
 62
    30
 10
-384.499985
 20
-299.999977
 30
0.0
  0
POINT
  5
835
  8
DEFPOINTS
  6
CONTINUOUS
 62
    30
 10
127.863992
 20
-299.999977
 30
0.0
  0
LINE
  5
836
  8
SIZE
  6
CONTINUOUS
 62
    30
 10
-404.499985
 20
-309.999977
 30
0.0
 11
-404.499985
 21
-659.100008
 31
0.0
  0
LINE
  5
837
  8
SIZE
  6
CONTINUOUS
 62
    30
 10
-102.0
 20
-367.999977
 30
0.0
 11
-102.0
 21
-659.100008
 31
0.0
  0
LINE
  5
838
  8
SIZE
  6
CONTINUOUS
 62
    30
 10
-394.499985
 20
-646.600008
 30
0.0
 11
-112.0
 21
-646.600008
 31
0.0
  0
CIRCLE
  5
839
  8
SIZE
  6
CONTINUOUS
 62
    30
 10
-404.499985
 20
-646.600008
 30
0.0
 40
5.0
  0
LINE
  5
83A
  8
SIZE
  6
CONTINUOUS
 62
    30
 10
-404.499985
 20
-646.600008
 30
0.0
 11
-394.499985
 21
-646.600008
 31
0.0
  0
CIRCLE
  5
83B
  8
SIZE
  6
CONTINUOUS
 62
    30
 10
-102.0
 20
-646.600008
 30
0.0
 40
5.0
  0
LINE
  5
83C
  8
SIZE
  6
CONTINUOUS
 62
    30
 10
-102.0
 20
-646.600008
 30
0.0
 11
-112.0
 21
-646.600008
 31
0.0
  0
TEXT
  5
83D
  8
SIZE
  6
CONTINUOUS
 62
    30
 10
-296.1071428571429
 20
-636.600008
 30
0.0
 40
30.0
  1
303
 72
     1
 11
-253.25
 21
-636.600008
 31
0.0
  0
POINT
  5
83E
  8
DEFPOINTS
  6
CONTINUOUS
 62
    30
 10
-404.499985
 20
-299.999977
 30
0.0
  0
POINT
  5
83F
  8
DEFPOINTS
  6
CONTINUOUS
 62
    30
 10
-102.0
 20
-357.999977
 30
0.0
  0
POINT
  5
840
  8
DEFPOINTS
  6
CONTINUOUS
 62
    30
 10
-102.0
 20
-646.600008
 30
0.0
  0
LINE
  5
841
  8
SIZE
  6
CONTINUOUS
 62
    30
 10
270.000015
 20
-331.999977
 30
0.0
 11
960.0999840000001
 21
-331.999977
 31
0.0
  0
LINE
  5
842
  8
SIZE
  6
CONTINUOUS
 62
    30
 10
469.500015
 20
-154.000008
 30
0.0
 11
960.0999840000001
 21
-154.000008
 31
0.0
  0
LINE
  5
843
  8
SIZE
  6
CONTINUOUS
 62
    30
 10
947.5999840000001
 20
-321.999977
 30
0.0
 11
947.5999840000001
 21
-164.000008
 31
0.0
  0
CIRCLE
  5
844
  8
SIZE
  6
CONTINUOUS
 62
    30
 10
947.5999840000001
 20
-331.999977
 30
0.0
 40
5.0
  0
LINE
  5
845
  8
SIZE
  6
CONTINUOUS
 62
    30
 10
947.5999840000001
 20
-331.999977
 30
0.0
 11
947.5999840000001
 21
-321.999977
 31
0.0
  0
CIRCLE
  5
846
  8
SIZE
  6
CONTINUOUS
 62
    30
 10
947.5999840000001
 20
-154.000008
 30
0.0
 40
5.0
  0
LINE
  5
847
  8
SIZE
  6
CONTINUOUS
 62
    30
 10
947.5999840000001
 20
-154.000008
 30
0.0
 11
947.5999840000001
 21
-164.000008
 31
0.0
  0
TEXT
  5
848
  8
SIZE
  6
CONTINUOUS
 62
    30
 10
937.5999840000001
 20
-288.000008
 30
0.0
 40
30.0
  1
178
 50
90.0
 72
     1
 11
937.5999840000001
 21
-243.000008
 31
0.0
  0
POINT
  5
849
  8
DEFPOINTS
  6
CONTINUOUS
 62
    30
 10
260.000015
 20
-331.999977
 30
0.0
  0
POINT
  5
84A
  8
DEFPOINTS
  6
CONTINUOUS
 62
    30
 10
459.500015
 20
-154.000008
 30
0.0
  0
POINT
  5
84B
  8
DEFPOINTS
  6
CONTINUOUS
 62
    30
 10
947.5999840000001
 20
-154.000008
 30
0.0
  0
LINE
  5
84C
  8
SIZE
  6
CONTINUOUS
 62
    30
 10
270.000015
 20
-331.999977
 30
0.0
 11
860.0999840000001
 21
-331.999977
 31
0.0
  0
LINE
  5
84D
  8
SIZE
  6
CONTINUOUS
 62
    30
 10
469.500015
 20
-169.000008
 30
0.0
 11
860.0999840000001
 21
-169.000008
 31
0.0
  0
LINE
  5
84E
  8
SIZE
  6
CONTINUOUS
 62
    30
 10
847.5999840000001
 20
-321.999977
 30
0.0
 11
847.5999840000001
 21
-179.000008
 31
0.0
  0
CIRCLE
  5
84F
  8
SIZE
  6
CONTINUOUS
 62
    30
 10
847.5999840000001
 20
-331.999977
 30
0.0
 40
5.0
  0
LINE
  5
850
  8
SIZE
  6
CONTINUOUS
 62
    30
 10
847.5999840000001
 20
-331.999977
 30
0.0
 11
847.5999840000001
 21
-321.999977
 31
0.0
  0
CIRCLE
  5
851
  8
SIZE
  6
CONTINUOUS
 62
    30
 10
847.5999840000001
 20
-169.000008
 30
0.0
 40
5.0
  0
LINE
  5
852
  8
SIZE
  6
CONTINUOUS
 62
    30
 10
847.5999840000001
 20
-169.000008
 30
0.0
 11
847.5999840000001
 21
-179.000008
 31
0.0
  0
TEXT
  5
853
  8
SIZE
  6
CONTINUOUS
 62
    30
 10
837.5999840000001
 20
-295.500008
 30
0.0
 40
30.0
  1
163
 50
90.0
 72
     1
 11
837.5999840000001
 21
-250.500008
 31
0.0
  0
POINT
  5
854
  8
DEFPOINTS
  6
CONTINUOUS
 62
    30
 10
260.000015
 20
-331.999977
 30
0.0
  0
POINT
  5
855
  8
DEFPOINTS
  6
CONTINUOUS
 62
    30
 10
459.500015
 20
-169.000008
 30
0.0
  0
POINT
  5
856
  8
DEFPOINTS
  6
CONTINUOUS
 62
    30
 10
847.5999840000001
 20
-169.000008
 30
0.0
  0
LINE
  5
857
  8
SIZE
  6
CONTINUOUS
 62
    30
 10
439.500015
 20
-122.999993
 30
0.0
 11
439.500015
 21
314.900023
 31
0.0
  0
LINE
  5
858
  8
SIZE
  6
CONTINUOUS
 62
    30
 10
404.500015
 20
-24.999997
 30
0.0
 11
404.500015
 21
314.900023
 31
0.0
  0
LINE
  5
859
  8
SIZE
  6
CONTINUOUS
 62
    30
 10
449.500015
 20
302.400023
 30
0.0
 11
459.500015
 21
302.400023
 31
0.0
  0
LINE
  5
85A
  8
SIZE
  6
CONTINUOUS
 62
    30
 10
394.500015
 20
302.400023
 30
0.0
 11
282.437554
 21
302.400023
 31
0.0
  0
LINE
  5
85B
  8
SIZE
  6
CONTINUOUS
 62
    30
 10
439.500015
 20
302.400023
 30
0.0
 11
404.500015
 21
302.400023
 31
0.0
  0
CIRCLE
  5
85C
  8
SIZE
  6
CONTINUOUS
 62
    30
 10
439.500015
 20
302.400023
 30
0.0
 40
5.0
  0
LINE
  5
85D
  8
SIZE
  6
CONTINUOUS
 62
    30
 10
439.500015
 20
302.400023
 30
0.0
 11
449.500015
 21
302.400023
 31
0.0
  0
CIRCLE
  5
85E
  8
SIZE
  6
CONTINUOUS
 62
    30
 10
404.500015
 20
302.400023
 30
0.0
 40
5.0
  0
LINE
  5
85F
  8
SIZE
  6
CONTINUOUS
 62
    30
 10
404.500015
 20
302.400023
 30
0.0
 11
394.500015
 21
302.400023
 31
0.0
  0
TEXT
  5
860
  8
SIZE
  6
CONTINUOUS
 62
    30
 10
288.8661254285715
 20
312.400023
 30
0.0
 40
30.0
  1
35
 72
     1
 11
317.437554
 21
312.400023
 31
0.0
  0
POINT
  5
861
  8
DEFPOINTS
  6
CONTINUOUS
 62
    30
 10
439.500015
 20
-132.999993
 30
0.0
  0
POINT
  5
862
  8
DEFPOINTS
  6
CONTINUOUS
 62
    30
 10
404.500015
 20
-34.999997
 30
0.0
  0
POINT
  5
863
  8
DEFPOINTS
  6
CONTINUOUS
 62
    30
 10
404.500015
 20
302.400023
 30
0.0
  0
LINE
  5
864
  8
SIZE
  6
CONTINUOUS
 62
    30
 10
-560.000016
 20
0.0
 30
0.0
 11
-664.9000159999999
 21
0.0
 31
0.0
  0
LINE
  5
865
  8
SIZE
  6
CONTINUOUS
 62
    30
 10
-272.499985
 20
28.000002
 30
0.0
 11
-664.9000159999999
 21
28.000002
 31
0.0
  0
LINE
  5
866
  8
SIZE
  6
CONTINUOUS
 62
    30
 10
-652.4000159999999
 20
-10.0
 30
0.0
 11
-652.4000159999999
 21
-20.0
 31
0.0
  0
LINE
  5
867
  8
SIZE
  6
CONTINUOUS
 62
    30
 10
-652.4000159999999
 20
38.000002
 30
0.0
 11
-652.4000159999999
 21
118.000002
 31
0.0
  0
LINE
  5
868
  8
SIZE
  6
CONTINUOUS
 62
    30
 10
-652.4000159999999
 20
0.0
 30
0.0
 11
-652.4000159999999
 21
28.000002
 31
0.0
  0
CIRCLE
  5
869
  8
SIZE
  6
CONTINUOUS
 62
    30
 10
-652.4000159999999
 20
0.0
 30
0.0
 40
5.0
  0
LINE
  5
86A
  8
SIZE
  6
CONTINUOUS
 62
    30
 10
-652.4000159999999
 20
0.0
 30
0.0
 11
-652.4000159999999
 21
-10.0
 31
0.0
  0
CIRCLE
  5
86B
  8
SIZE
  6
CONTINUOUS
 62
    30
 10
-652.4000159999999
 20
28.000002
 30
0.0
 40
5.0
  0
LINE
  5
86C
  8
SIZE
  6
CONTINUOUS
 62
    30
 10
-652.4000159999999
 20
28.000002
 30
0.0
 11
-652.4000159999999
 21
38.000002
 31
0.0
  0
TEXT
  5
86D
  8
SIZE
  6
CONTINUOUS
 62
    30
 10
-662.4000159999999
 20
54.42857342857143
 30
0.0
 40
30.0
  1
28
 50
90.0
 72
     1
 11
-662.4000159999999
 21
83.000002
 31
0.0
  0
POINT
  5
86E
  8
DEFPOINTS
  6
CONTINUOUS
 62
    30
 10
-550.000016
 20
0.0
 30
0.0
  0
POINT
  5
86F
  8
DEFPOINTS
  6
CONTINUOUS
 62
    30
 10
-262.499985
 20
28.000002
 30
0.0
  0
POINT
  5
870
  8
DEFPOINTS
  6
CONTINUOUS
 62
    30
 10
-652.4000159999999
 20
28.000002
 30
0.0
  0
LINE
  5
871
  8
SIZE
  6
CONTINUOUS
 62
    30
 10
410.000015
 20
0.0
 30
0.0
 11
960.0999840000001
 21
0.0
 31
0.0
  0
LINE
  5
872
  8
SIZE
  6
CONTINUOUS
 62
    30
 10
280.000015
 20
10.0
 30
0.0
 11
960.0999840000001
 21
10.0
 31
0.0
  0
LINE
  5
873
  8
SIZE
  6
CONTINUOUS
 62
    30
 10
947.5999840000001
 20
-10.0
 30
0.0
 11
947.5999840000001
 21
-20.0
 31
0.0
  0
LINE
  5
874
  8
SIZE
  6
CONTINUOUS
 62
    30
 10
947.5999840000001
 20
20.0
 30
0.0
 11
947.5999840000001
 21
85.0
 31
0.0
  0
LINE
  5
875
  8
SIZE
  6
CONTINUOUS
 62
    30
 10
947.5999840000001
 20
0.0
 30
0.0
 11
947.5999840000001
 21
10.0
 31
0.0
  0
CIRCLE
  5
876
  8
SIZE
  6
CONTINUOUS
 62
    30
 10
947.5999840000001
 20
0.0
 30
0.0
 40
5.0
  0
LINE
  5
877
  8
SIZE
  6
CONTINUOUS
 62
    30
 10
947.5999840000001
 20
0.0
 30
0.0
 11
947.5999840000001
 21
-10.0
 31
0.0
  0
CIRCLE
  5
878
  8
SIZE
  6
CONTINUOUS
 62
    30
 10
947.5999840000001
 20
10.0
 30
0.0
 40
5.0
  0
LINE
  5
879
  8
SIZE
  6
CONTINUOUS
 62
    30
 10
947.5999840000001
 20
10.0
 30
0.0
 11
947.5999840000001
 21
20.0
 31
0.0
  0
TEXT
  5
87A
  8
SIZE
  6
CONTINUOUS
 62
    30
 10
937.5999840000001
 20
26.78571428571428
 30
0.0
 40
30.0
  1
10
 50
90.0
 72
     1
 11
937.5999840000001
 21
57.5
 31
0.0
  0
POINT
  5
87B
  8
DEFPOINTS
  6
CONTINUOUS
 62
    30
 10
400.000015
 20
0.0
 30
0.0
  0
POINT
  5
87C
  8
DEFPOINTS
  6
CONTINUOUS
 62
    30
 10
270.000015
 20
10.0
 30
0.0
  0
POINT
  5
87D
  8
DEFPOINTS
  6
CONTINUOUS
 62
    30
 10
947.5999840000001
 20
10.0
 30
0.0
  0
LINE
  5
87E
  8
SIZE
  6
CONTINUOUS
 62
    30
 10
390.000015
 20
0.0
 30
0.0
 11
1060.099923
 21
0.0
 31
0.0
  0
LINE
  5
87F
  8
SIZE
  6
CONTINUOUS
 62
    30
 10
320.000015
 20
15.999999
 30
0.0
 11
1060.099923
 21
15.999999
 31
0.0
  0
LINE
  5
880
  8
SIZE
  6
CONTINUOUS
 62
    30
 10
1047.599923
 20
-10.0
 30
0.0
 11
1047.599923
 21
-20.0
 31
0.0
  0
LINE
  5
881
  8
SIZE
  6
CONTINUOUS
 62
    30
 10
1047.599923
 20
25.999999
 30
0.0
 11
1047.599923
 21
95.999999
 31
0.0
  0
LINE
  5
882
  8
SIZE
  6
CONTINUOUS
 62
    30
 10
1047.599923
 20
0.0
 30
0.0
 11
1047.599923
 21
15.999999
 31
0.0
  0
CIRCLE
  5
883
  8
SIZE
  6
CONTINUOUS
 62
    30
 10
1047.599923
 20
0.0
 30
0.0
 40
5.0
  0
LINE
  5
884
  8
SIZE
  6
CONTINUOUS
 62
    30
 10
1047.599923
 20
0.0
 30
0.0
 11
1047.599923
 21
-10.0
 31
0.0
  0
CIRCLE
  5
885
  8
SIZE
  6
CONTINUOUS
 62
    30
 10
1047.599923
 20
15.999999
 30
0.0
 40
5.0
  0
LINE
  5
886
  8
SIZE
  6
CONTINUOUS
 62
    30
 10
1047.599923
 20
15.999999
 30
0.0
 11
1047.599923
 21
25.999999
 31
0.0
  0
TEXT
  5
887
  8
SIZE
  6
CONTINUOUS
 62
    30
 10
1037.599923
 20
35.28571328571429
 30
0.0
 40
30.0
  1
16
 50
90.0
 72
     1
 11
1037.599923
 21
65.999999
 31
0.0
  0
POINT
  5
888
  8
DEFPOINTS
  6
CONTINUOUS
 62
    30
 10
380.000015
 20
0.0
 30
0.0
  0
POINT
  5
889
  8
DEFPOINTS
  6
CONTINUOUS
 62
    30
 10
310.000015
 20
15.999999
 30
0.0
  0
POINT
  5
88A
  8
DEFPOINTS
  6
CONTINUOUS
 62
    30
 10
1047.599923
 20
15.999999
 30
0.0
  0
LINE
  5
88B
  8
SIZE
  6
CONTINUOUS
 62
    30
 10
230.0
 20
-332.000008
 30
0.0
 11
230.0
 21
-660.100008
 31
0.0
  0
LINE
  5
88C
  8
SIZE
  6
CONTINUOUS
 62
    30
 10
270.000015
 20
-332.000008
 30
0.0
 11
270.000015
 21
-660.100008
 31
0.0
  0
LINE
  5
88D
  8
SIZE
  6
CONTINUOUS
 62
    30
 10
240.0
 20
-647.600008
 30
0.0
 11
260.000015
 21
-647.600008
 31
0.0
  0
CIRCLE
  5
88E
  8
SIZE
  6
CONTINUOUS
 62
    30
 10
230.0
 20
-647.600008
 30
0.0
 40
5.0
  0
LINE
  5
88F
  8
SIZE
  6
CONTINUOUS
 62
    30
 10
230.0
 20
-647.600008
 30
0.0
 11
240.0
 21
-647.600008
 31
0.0
  0
CIRCLE
  5
890
  8
SIZE
  6
CONTINUOUS
 62
    30
 10
270.000015
 20
-647.600008
 30
0.0
 40
5.0
  0
LINE
  5
891
  8
SIZE
  6
CONTINUOUS
 62
    30
 10
270.000015
 20
-647.600008
 30
0.0
 11
260.000015
 21
-647.600008
 31
0.0
  0
TEXT
  5
892
  8
SIZE
  6
CONTINUOUS
 62
    30
 10
221.4285784285714
 20
-637.600008
 30
0.0
 40
30.0
  1
40
 72
     1
 11
250.000007
 21
-637.600008
 31
0.0
  0
POINT
  5
893
  8
DEFPOINTS
  6
CONTINUOUS
 62
    30
 10
230.0
 20
-322.000008
 30
0.0
  0
POINT
  5
894
  8
DEFPOINTS
  6
CONTINUOUS
 62
    30
 10
270.000015
 20
-322.000008
 30
0.0
  0
POINT
  5
895
  8
DEFPOINTS
  6
CONTINUOUS
 62
    30
 10
270.000015
 20
-647.600008
 30
0.0
  0
LINE
  5
896
  8
SIZE
  6
CONTINUOUS
 62
    30
 10
250.0
 20
40.000002
 30
0.0
 11
250.0
 21
314.900023
 31
0.0
  0
LINE
  5
897
  8
SIZE
  6
CONTINUOUS
 62
    30
 10
-250.0
 20
40.000002
 30
0.0
 11
-250.0
 21
314.900023
 31
0.0
  0
LINE
  5
898
  8
SIZE
  6
CONTINUOUS
 62
    30
 10
240.0
 20
302.400023
 30
0.0
 11
-240.0
 21
302.400023
 31
0.0
  0
CIRCLE
  5
899
  8
SIZE
  6
CONTINUOUS
 62
    30
 10
250.0
 20
302.400023
 30
0.0
 40
5.0
  0
LINE
  5
89A
  8
SIZE
  6
CONTINUOUS
 62
    30
 10
250.0
 20
302.400023
 30
0.0
 11
240.0
 21
302.400023
 31
0.0
  0
CIRCLE
  5
89B
  8
SIZE
  6
CONTINUOUS
 62
    30
 10
-250.0
 20
302.400023
 30
0.0
 40
5.0
  0
LINE
  5
89C
  8
SIZE
  6
CONTINUOUS
 62
    30
 10
-250.0
 20
302.400023
 30
0.0
 11
-240.0
 21
302.400023
 31
0.0
  0
TEXT
  5
89D
  8
SIZE
  6
CONTINUOUS
 62
    30
 10
-42.85714285714286
 20
312.400023
 30
0.0
 40
30.0
  1
500
 72
     1
 11
0.0
 21
312.400023
 31
0.0
  0
POINT
  5
89E
  8
DEFPOINTS
  6
CONTINUOUS
 62
    30
 10
250.0
 20
30.000002
 30
0.0
  0
POINT
  5
89F
  8
DEFPOINTS
  6
CONTINUOUS
 62
    30
 10
-250.0
 20
30.000002
 30
0.0
  0
POINT
  5
8A0
  8
DEFPOINTS
  6
CONTINUOUS
 62
    30
 10
-250.0
 20
302.400023
 30
0.0
  0
LINE
  5
8A1
  8
SIZE
  6
CONTINUOUS
 62
    30
 10
404.500015
 20
-24.999997
 30
0.0
 11
404.500015
 21
462.570677
 31
0.0
  0
LINE
  5
8A2
  8
SIZE
  6
CONTINUOUS
 62
    30
 10
474.500015
 20
-85.842522
 30
0.0
 11
474.500015
 21
462.570677
 31
0.0
  0
LINE
  5
8A3
  8
SIZE
  6
CONTINUOUS
 62
    30
 10
414.500015
 20
450.070677
 30
0.0
 11
464.500015
 21
450.070677
 31
0.0
  0
CIRCLE
  5
8A4
  8
SIZE
  6
CONTINUOUS
 62
    30
 10
404.500015
 20
450.070677
 30
0.0
 40
5.0
  0
LINE
  5
8A5
  8
SIZE
  6
CONTINUOUS
 62
    30
 10
404.500015
 20
450.070677
 30
0.0
 11
414.500015
 21
450.070677
 31
0.0
  0
CIRCLE
  5
8A6
  8
SIZE
  6
CONTINUOUS
 62
    30
 10
474.500015
 20
450.070677
 30
0.0
 40
5.0
  0
LINE
  5
8A7
  8
SIZE
  6
CONTINUOUS
 62
    30
 10
474.500015
 20
450.070677
 30
0.0
 11
464.500015
 21
450.070677
 31
0.0
  0
TEXT
  5
8A8
  8
SIZE
  6
CONTINUOUS
 62
    30
 10
410.9285864285715
 20
460.070677
 30
0.0
 40
30.0
  1
70
 72
     1
 11
439.500015
 21
460.070677
 31
0.0
  0
POINT
  5
8A9
  8
DEFPOINTS
  6
CONTINUOUS
 62
    30
 10
404.500015
 20
-34.999997
 30
0.0
  0
POINT
  5
8AA
  8
DEFPOINTS
  6
CONTINUOUS
 62
    30
 10
474.500015
 20
-95.842522
 30
0.0
  0
POINT
  5
8AB
  8
DEFPOINTS
  6
CONTINUOUS
 62
    30
 10
474.500015
 20
450.070677
 30
0.0
  0
TEXT
  5
8AC
  8
NOTE
  6
CONTINUOUS
 10
-647.097001
 20
395.995323
 30
0.0
 40
39.99999999999999
  1
メンテナンススペース
 50
0.0000028316468405
 41
0.8437500000000001
  7
STANDARD1
  0
LINE
  5
8AD
  8
NOTE
  6
CONTINUOUS
 10
195.817703
 20
195.999992
 30
0.0
 11
-51.932309
 21
195.999992
 31
0.0
  0
LINE
  5
8AE
  8
NOTE
  6
CONTINUOUS
 10
-51.932309
 20
195.999992
 30
0.0
 11
0.0
 21
-4.7
 31
0.0
  0
LINE
  5
8AF
  8
NOTE
  6
CONTINUOUS
 10
0.0
 20
-4.7
 30
0.0
 11
-0.985073
 21
-2.959416
 31
0.0
  0
LINE
  5
8B0
  8
NOTE
  6
CONTINUOUS
 10
0.0
 20
-4.7
 30
0.0
 11
0.017194
 21
-2.700074
 31
0.0
  0
TEXT
  5
8B1
  8
NOTE
  6
CONTINUOUS
 10
8.817693
 20
196.999992
 30
0.0
 40
40.0
  1
D φ15.5
 50
359.9999959954467
 41
0.689338
  7
STANDARD1
  0
LINE
  5
8B2
  8
NOTE
  6
CONTINUOUS
 10
0.0
 20
15.3
 30
0.0
 11
0.0
 21
-24.7
 31
0.0
  0
LINE
  5
8B3
  8
NOTE
  6
CONTINUOUS
 10
20.0
 20
-4.7
 30
0.0
 11
-20.0
 21
-4.7
 31
0.0
  0
LINE
  5
8B4
  8
NOTE
  6
CONTINUOUS
 10
-686.705277
 20
199.999992
 30
0.0
 11
-528.455277
 21
199.999992
 31
0.0
  0
LINE
  5
8B5
  8
NOTE
  6
CONTINUOUS
 10
-528.455277
 20
199.999992
 30
0.0
 11
-250.0
 21
10.0
 31
0.0
  0
LINE
  5
8B6
  8
NOTE
  6
CONTINUOUS
 10
-250.0
 20
10.0
 30
0.0
 11
-251.88752
 21
10.661263
 31
0.0
  0
LINE
  5
8B7
  8
NOTE
  6
CONTINUOUS
 10
-250.0
 20
10.0
 30
0.0
 11
-251.304009
 21
11.51643
 31
0.0
  0
TEXT
  5
8B8
  8
NOTE
  6
CONTINUOUS
 10
-686.705277
 20
200.999992
 30
0.0
 40
40.0
  1
4-AH
 50
359.9999959954467
 41
0.6125
  7
STANDARD1
  0
LINE
  5
8B9
  8
NOTE
  6
CONTINUOUS
 10
270.0
 20
-320.0
 30
0.0
 11
230.0
 21
-320.0
 31
0.0
  0
LINE
  5
8BA
  8
NOTE
  6
CONTINUOUS
 10
250.0
 20
-340.0
 30
0.0
 11
250.0
 21
-300.0
 31
0.0
  0
LINE
  5
8BB
  8
NOTE
  6
CONTINUOUS
 10
459.5
 20
-169.0
 30
0.0
 11
419.5
 21
-169.0
 31
0.0
  0
LINE
  5
8BC
  8
NOTE
  6
CONTINUOUS
 10
1125.921554
 20
333.999992
 30
0.0
 11
618.171676
 21
333.999992
 31
0.0
  0
LINE
  5
8BD
  8
NOTE
  6
CONTINUOUS
 10
618.171676
 20
333.999992
 30
0.0
 11
439.500015
 21
-154.000008
 31
0.0
  0
LINE
  5
8BE
  8
NOTE
  6
CONTINUOUS
 10
439.500015
 20
-154.000008
 30
0.0
 11
439.678124
 21
-152.007954
 31
0.0
  0
LINE
  5
8BF
  8
NOTE
  6
CONTINUOUS
 10
439.500015
 20
-154.000008
 30
0.0
 11
440.650289
 21
-152.363894
 31
0.0
  0
TEXT
  5
8C0
  8
NOTE
  6
CONTINUOUS
 10
678.921676
 20
384.999992
 30
0.0
 40
40.0
  1
貯湯ﾀﾝｸﾕﾆｯﾄ接続口(A)
 50
359.9999959054455
 41
0.8475379999999999
  7
STANDARD1
  0
TEXT
  5
8C1
  8
NOTE
  6
CONTINUOUS
 10
678.921676
 20
334.999992
 30
0.0
 40
40.0
  1
R1/2(φ21.7)
 50
359.9999960875177
 41
0.637277
  7
STANDARD1
  0
LINE
  5
8C2
  8
NOTE
  6
CONTINUOUS
 10
439.5
 20
-185.0
 30
0.0
 11
439.5
 21
-145.0
 31
0.0
  0
LINE
  5
8C3
  8
NOTE
  6
CONTINUOUS
 10
1125.921554
 20
183.999992
 30
0.0
 11
618.171676
 21
183.999992
 31
0.0
  0
LINE
  5
8C4
  8
NOTE
  6
CONTINUOUS
 10
618.171676
 20
183.999992
 30
0.0
 11
439.500015
 21
-169.000008
 31
0.0
  0
LINE
  5
8C5
  8
NOTE
  6
CONTINUOUS
 10
439.500015
 20
-169.000008
 30
0.0
 11
439.91059
 21
-167.042605
 31
0.0
  0
LINE
  5
8C6
  8
NOTE
  6
CONTINUOUS
 10
439.500015
 20
-169.000008
 30
0.0
 11
440.834285
 21
-167.510135
 31
0.0
  0
TEXT
  5
8C7
  8
NOTE
  6
CONTINUOUS
 10
678.921676
 20
234.999992
 30
0.0
 40
40.0
  1
貯湯ﾀﾝｸﾕﾆｯﾄ接続口(B)
 50
359.9999959054455
 41
0.8475379999999999
  7
STANDARD1
  0
TEXT
  5
8C8
  8
NOTE
  6
CONTINUOUS
 10
678.921676
 20
184.999992
 30
0.0
 40
40.0
  1
R1/2(φ21.7)
 50
359.9999960875177
 41
0.637277
  7
STANDARD1
  0
LINE
  5
8C9
  8
NOTE
  6
CONTINUOUS
 10
459.5
 20
-154.0
 30
0.0
 11
419.5
 21
-154.0
 31
0.0
  0
LINE
  5
8CA
  8
NOTE
  6
CONTINUOUS
 10
439.5
 20
-173.0
 30
0.0
 11
439.5
 21
-133.0
 31
0.0
  0
LINE
  5
8CB
  8
NOTE
  6
CONTINUOUS
 10
270.0
 20
10.0
 30
0.0
 11
230.0
 21
10.0
 31
0.0
  0
LINE
  5
8CC
  8
NOTE
  6
CONTINUOUS
 10
250.0
 20
30.0
 30
0.0
 11
250.0
 21
-10.0
 31
0.0
  0
LINE
  5
8CD
  8
NOTE
  6
CONTINUOUS
 10
-230.0
 20
10.0
 30
0.0
 11
-270.0
 21
10.0
 31
0.0
  0
LINE
  5
8CE
  8
NOTE
  6
CONTINUOUS
 10
-250.0
 20
30.0
 30
0.0
 11
-250.0
 21
-10.0
 31
0.0
  0
LINE
  5
8CF
  8
NOTE
  6
CONTINUOUS
 10
-230.0
 20
-320.0
 30
0.0
 11
-270.0
 21
-320.0
 31
0.0
  0
LINE
  5
8D0
  8
NOTE
  6
CONTINUOUS
 10
-250.0
 20
-340.0
 30
0.0
 11
-250.0
 21
-300.0
 31
0.0
  0
TEXT
  5
8D1
  8
NOTE
  6
CONTINUOUS
 10
-781.699723
 20
31.59153
 30
0.0
 40
28.0
  1
メンテナンススペース
 50
90.00000499999999
 41
0.84375
  7
STANDARD1
  0
TEXT
  5
8D2
  8
NOTE
  6
CONTINUOUS
 10
-262.890274
 20
549.249565
 30
0.0
 40
39.99999999999999
  1
メンテナンススペース
 50
0.0000028316468405
 41
0.8437500000000001
  7
STANDARD1
  0
TEXT
  5
8D3
  8
NOTE
  6
CONTINUOUS
 10
1204.807541
 20
-408.556465
 30
0.0
 40
40.0
  1
メンテナンススペース
 50
90.00000499999999
 41
0.84375
  7
STANDARD1
  0
TEXT
  5
8D4
  8
NOTE
  6
CONTINUOUS
 10
-281.779404
 20
-804.014778
 30
0.0
 40
39.99999999999999
  1
メンテナンススペース
 50
0.0000028316468405
 41
0.8437500000000001
  7
STANDARD1
  0
TEXT
  5
8D5
  8
NOTE
  6
CONTINUOUS
 10
397.811599
 20
-801.392159
 30
0.0
 40
39.99999999999999
  1
メンテナンススペース
 50
0.0000028316468405
 41
0.8437500000000001
  7
STANDARD1
  0
TEXT
  5
8D6
  8
NOTE
  6
CONTINUOUS
 10
-779.049576
 20
-281.788246
 30
0.0
 40
28.0
  1
メンテナンススペース
 50
90.00000499999999
 41
0.84375
  7
STANDARD1
  0
TEXT
  5
8D7
  8
NOTE
  6
CONTINUOUS
 10
-781.412186
 20
-601.409066
 30
0.0
 40
28.0
  1
メンテナンススペース
 50
90.00000499999999
 41
0.84375
  7
STANDARD1
  0
CIRCLE
  5
8D8
  8
ARRANGE
  6
CONTINUOUS
 10
0.0
 20
0.0
 30
0.0
 40
15.0
  0
CIRCLE
  5
8D9
  8
FIX
  6
CONTINUOUS
 10
-250.0
 20
-320.0
 30
0.0
 40
4.0
  0
CIRCLE
  5
8DA
  8
FIX
  6
CONTINUOUS
 10
-250.0
 20
10.0
 30
0.0
 40
4.0
  0
CIRCLE
  5
8DB
  8
FIX
  6
CONTINUOUS
 10
250.0
 20
10.0
 30
0.0
 40
4.0
  0
CIRCLE
  5
8DC
  8
FIX
  6
CONTINUOUS
 10
250.0
 20
-320.0
 30
0.0
 40
4.0
  0
LINE
  5
8DD
  8
SERVICESPACE
  6
DASHDOT
 10
404.5
 20
100.0
 30
0.0
 11
704.0
 21
-500.0
 31
0.0
  0
LINE
  5
8DE
  8
SERVICESPACE
  6
DASHDOT
 10
-554.0
 20
-300.0
 30
0.0
 11
404.5
 21
-500.0
 31
0.0
  0
LINE
  5
8DF
  8
SERVICESPACE
  6
DASHDOT
 10
-554.0
 20
-300.0
 30
0.0
 11
-404.5
 21
0.0
 31
0.0
  0
LINE
  5
8E0
  8
SERVICESPACE
  6
DASHDOT
 10
-550.0
 20
0.0
 30
0.0
 11
-404.5
 21
-300.0
 31
0.0
  0
LINE
  5
8E1
  8
SERVICESPACE
  6
DASHDOT
 10
404.5
 20
-500.0
 30
0.0
 11
700.0
 21
100.0
 31
0.0
  0
LINE
  5
8E2
  8
SERVICESPACE
  6
DASHDOT
 10
-550.0
 20
0.0
 30
0.0
 11
400.0
 21
0.0
 31
0.0
  0
LINE
  5
8E3
  8
SERVICESPACE
  6
DASHDOT
 10
-554.0
 20
-300.0
 30
0.0
 11
400.0
 21
-300.0
 31
0.0
  0
LINE
  5
8E4
  8
SERVICESPACE
  6
DASHDOT
 10
-554.0
 20
-500.0
 30
0.0
 11
-554.0
 21
100.0
 31
0.0
  0
LINE
  5
8E5
  8
SERVICESPACE
  6
DASHDOT
 10
-554.0
 20
100.0
 30
0.0
 11
704.0
 21
100.0
 31
0.0
  0
LINE
  5
8E6
  8
SERVICESPACE
  6
DASHDOT
 10
404.5
 20
-500.0
 30
0.0
 11
404.5
 21
100.0
 31
0.0
  0
LINE
  5
8E7
  8
SERVICESPACE
  6
DASHDOT
 10
-404.5
 20
-300.0
 30
0.0
 11
-404.5
 21
0.0
 31
0.0
  0
LINE
  5
8E8
  8
SERVICESPACE
  6
DASHDOT
 10
704.0
 20
-500.0
 30
0.0
 11
704.0
 21
100.0
 31
0.0
  0
LINE
  5
8E9
  8
SERVICESPACE
  6
DASHDOT
 10
-554.0
 20
-500.0
 30
0.0
 11
704.0
 21
-500.0
 31
0.0
  0
LINE
  5
8EA
  8
SERVICESPACE
  6
DASHDOT
 10
-550.0
 20
100.0
 30
0.0
 11
404.5
 21
-0.473684
 31
0.0
  0
LINE
  5
8EB
  8
SERVICESPACE
  6
DASHDOT
 10
400.0
 20
100.0
 30
0.0
 11
-550.0
 21
0.0
 31
0.0
  0
LINE
  5
8EC
  8
SERVICESPACE
  6
DASHDOT
 10
400.0
 20
-300.0
 30
0.0
 11
-550.0
 21
-500.0
 31
0.0
  0
TEXT
  5
8ED
  8
ETC
  6
CONTINUOUS
 10
798.350631
 20
628.556327
 30
0.0
 40
39.99999999999999
  1
THPU60A51
 50
0.0000029575586669
 41
0.6125000000000002
  7
STANDARD1
  0
TEXT
  5
8EE
  8
ETC
  6
CONTINUOUS
 10
798.350631
 20
558.556327
 30
0.0
 40
39.99999999999999
  1
ヒートポンプユニット
 50
0.0000028316468405
 41
0.8437500000000001
  7
STANDARD1
  0
ENDSEC
  0
EOF
