  0
SECTION
  2
HEADER
  9
$ACADVER
  1
AC1009
  9
$DWGCODEPAGE
  3
dos932
  9
$INSBASE
 10
0.0
 20
0.0
 30
0.0
  9
$EXTMIN
 10
-461.362769
 20
-560.135156
 30
0.0
  9
$EXTMAX
 10
1120.862182
 20
1256.80482
 30
0.0
  9
$LIMMIN
 10
0.0
 20
0.0
  9
$LIMMAX
 10
12.0
 20
9.0
  9
$ORTHOMODE
 70
     0
  9
$REGENMODE
 70
     1
  9
$FILLMODE
 70
     1
  9
$QTEXTMODE
 70
     0
  9
$MIRRTEXT
 70
     1
  9
$DRAGMODE
 70
     2
  9
$LTSCALE
 40
1.0
  9
$OSMODE
 70
    37
  9
$ATTMODE
 70
     1
  9
$TEXTSIZE
 40
2.8
  9
$TRACEWID
 40
0.05
  9
$TEXTSTYLE
  7
STANDARD1
  9
$CLAYER
  8
0
  9
$CELTYPE
  6
CONTINUOUS
  9
$CECOLOR
 62
   256
  9
$DIMSCALE
 40
1.0
  9
$DIMASZ
 40
10.0
  9
$DIMEXO
 40
10.0
  9
$DIMDLI
 40
8.0
  9
$DIMRND
 40
0.0
  9
$DIMDLE
 40
0.0
  9
$DIMEXE
 40
12.5
  9
$DIMTP
 40
0.0
  9
$DIMTM
 40
0.0
  9
$DIMTXT
 40
30.0
  9
$DIMCEN
 40
2.5
  9
$DIMTSZ
 40
0.0
  9
$DIMTOL
 70
     0
  9
$DIMLIM
 70
     0
  9
$DIMTIH
 70
     0
  9
$DIMTOH
 70
     0
  9
$DIMSE1
 70
     0
  9
$DIMSE2
 70
     0
  9
$DIMTAD
 70
     3
  9
$DIMZIN
 70
    12
  9
$DIMBLK
  1

  9
$DIMASO
 70
     1
  9
$DIMSHO
 70
     1
  9
$DIMPOST
  1

  9
$DIMAPOST
  1

  9
$DIMALT
 70
     0
  9
$DIMALTD
 70
     4
  9
$DIMALTF
 40
25.4
  9
$DIMLFAC
 40
1.0
  9
$DIMTOFL
 70
     1
  9
$DIMTVP
 40
0.0
  9
$DIMTIX
 70
     0
  9
$DIMSOXD
 70
     0
  9
$DIMSAH
 70
     1
  9
$DIMBLK1
  1
ORIGIN
  9
$DIMBLK2
  1
ORIGIN
  9
$DIMSTYLE
  2
STANDARD
  9
$DIMCLRD
 70
     0
  9
$DIMCLRE
 70
     0
  9
$DIMCLRT
 70
     0
  9
$DIMTFAC
 40
0.714286
  9
$DIMGAP
 40
10.0
  9
$LUNITS
 70
     2
  9
$LUPREC
 70
     3
  9
$SKETCHINC
 40
0.1
  9
$FILLETRAD
 40
0.0
  9
$AUNITS
 70
     0
  9
$AUPREC
 70
     0
  9
$MENU
  1
acad
  9
$ELEVATION
 40
0.0
  9
$PELEVATION
 40
0.0
  9
$THICKNESS
 40
0.0
  9
$LIMCHECK
 70
     0
  9
$CHAMFERA
 40
0.0
  9
$CHAMFERB
 40
0.0
  9
$SKPOLY
 70
     0
  9
$TDCREATE
 40
2455267.471678241
  9
$TDUPDATE
 40
2457459.559183761
  9
$TDINDWG
 40
0.0
  9
$TDUSRTIMER
 40
0.0
  9
$USRTIMER
 70
     1
  9
$ANGBASE
 50
0.0
  9
$ANGDIR
 70
     0
  9
$PDMODE
 70
     0
  9
$PDSIZE
 40
0.0
  9
$PLINEWID
 40
0.0
  9
$COORDS
 70
     1
  9
$SPLFRAME
 70
     0
  9
$SPLINETYPE
 70
     6
  9
$SPLINESEGS
 70
     8
  9
$ATTDIA
 70
     0
  9
$ATTREQ
 70
     1
  9
$HANDLING
 70
     1
  9
$HANDSEED
  5
5D5
  9
$SURFTAB1
 70
     6
  9
$SURFTAB2
 70
     6
  9
$SURFTYPE
 70
     6
  9
$SURFU
 70
     6
  9
$SURFV
 70
     6
  9
$UCSNAME
  2

  9
$UCSORG
 10
0.0
 20
0.0
 30
0.0
  9
$UCSXDIR
 10
1.0
 20
0.0
 30
0.0
  9
$UCSYDIR
 10
0.0
 20
1.0
 30
0.0
  9
$PUCSNAME
  2

  9
$PUCSORG
 10
0.0
 20
0.0
 30
0.0
  9
$PUCSXDIR
 10
1.0
 20
0.0
 30
0.0
  9
$PUCSYDIR
 10
0.0
 20
1.0
 30
0.0
  9
$USERI1
 70
     0
  9
$USERI2
 70
     0
  9
$USERI3
 70
     0
  9
$USERI4
 70
     0
  9
$USERI5
 70
     0
  9
$USERR1
 40
0.0
  9
$USERR2
 40
0.0
  9
$USERR3
 40
0.0
  9
$USERR4
 40
0.0
  9
$USERR5
 40
0.0
  9
$WORLDVIEW
 70
     1
  9
$SHADEDGE
 70
     3
  9
$SHADEDIF
 70
    70
  9
$TILEMODE
 70
     1
  9
$MAXACTVP
 70
    48
  9
$PLIMCHECK
 70
     0
  9
$PEXTMIN
 10
1.000000000000000E+20
 20
1.000000000000000E+20
 30
1.000000000000000E+20
  9
$PEXTMAX
 10
-1.000000000000000E+20
 20
-1.000000000000000E+20
 30
-1.000000000000000E+20
  9
$PLIMMIN
 10
0.0
 20
0.0
  9
$PLIMMAX
 10
12.0
 20
9.0
  9
$UNITMODE
 70
     0
  9
$VISRETAIN
 70
     1
  9
$PLINEGEN
 70
     0
  9
$PSLTSCALE
 70
     1
  0
ENDSEC
  0
SECTION
  2
TABLES
  0
TABLE
  2
VPORT
 70
     1
  0
VPORT
  2
*ACTIVE
 70
     0
 10
0.0
 20
0.0
 11
1.0
 21
1.0
 12
349.04971
 22
352.384832
 13
0.0
 23
0.0
 14
1.0
 24
1.0
 15
0.0
 25
0.0
 16
0.0
 26
0.0
 36
1.0
 17
0.0
 27
0.0
 37
0.0
 40
1828.324787
 41
0.951439
 42
50.0
 43
0.0
 44
0.0
 50
0.0
 51
0.0
 71
     0
 72
   100
 73
     1
 74
     1
 75
     0
 76
     0
 77
     0
 78
     0
  0
ENDTAB
  0
TABLE
  2
LTYPE
 70
     4
  0
LTYPE
  2
CONTINUOUS
 70
     0
  3
Solid line
 72
    65
 73
     0
 40
0.0
  0
LTYPE
  2
DASHED
 70
     0
  3
-- -- -- -- -- -- -- -- -- -- -- -- -- -- --
 72
    65
 73
     2
 40
0.75
 49
0.5
 49
-0.25
  0
LTYPE
  2
DASHDOT
 70
     0
  3
__ . __ . __ . __ . __ . __ . __ . __ . __ . __
 72
    65
 73
     4
 40
125.0
 49
80.0
 49
-20.0
 49
5.0
 49
-20.0
  0
LTYPE
  2
DIVIDE
 70
     0
  3
__ . . __ . . __ . . __ . . __ . . __ . . __
 72
    65
 73
     6
 40
1.25
 49
0.5
 49
-0.25
 49
0.0
 49
-0.25
 49
0.0
 49
-0.25
  0
ENDTAB
  0
TABLE
  2
LAYER
 70
    12
  0
LAYER
  2
0
 70
     0
 62
     3
  6
CONTINUOUS
  0
LAYER
  2
OUTLINE
 70
     0
 62
     3
  6
CONTINUOUS
  0
LAYER
  2
DETAIL
 70
     0
 62
     5
  6
CONTINUOUS
  0
LAYER
  2
BASIS
 70
     0
 62
     6
  6
CONTINUOUS
  0
LAYER
  2
SIZE
 70
     0
 62
    30
  6
CONTINUOUS
  0
LAYER
  2
NOTE
 70
     0
 62
     4
  6
CONTINUOUS
  0
LAYER
  2
ARRANGE
 70
     0
 62
     1
  6
CONTINUOUS
  0
LAYER
  2
FIX
 70
     0
 62
    11
  6
CONTINUOUS
  0
LAYER
  2
SERVICESPACE
 70
     0
 62
     2
  6
CONTINUOUS
  0
LAYER
  2
ETC
 70
     0
 62
    61
  6
CONTINUOUS
  0
LAYER
  2
SYMBOLLINE
 70
     0
 62
     7
  6
CONTINUOUS
  0
LAYER
  2
DEFPOINTS
 70
     0
 62
     7
  6
CONTINUOUS
  0
ENDTAB
  0
TABLE
  2
STYLE
 70
     5
  0
STYLE
  2
STANDARD
 70
     0
 40
0.0
 41
1.0
 50
0.0
 71
     0
 42
0.2
  3
txt
  4

  0
STYLE
  2
STANDARD1
 70
     0
 40
0.0
 41
1.0
 50
0.0
 71
     0
 42
2.8
  3
MONOTXT
  4
BIGFONT
  0
STYLE
  2
STANDARD2
 70
     4
 40
0.0
 41
1.0
 50
0.0
 71
     0
 42
2.8
  3
MONOTXT
  4
BIGFONT
  0
STYLE
  2
STANDARD3
 70
     0
 40
0.0
 41
1.0
 50
0.0
 71
     0
 42
2.8
  3
MONOTXT
  4

  0
STYLE
  2
STANDARD4
 70
     4
 40
0.0
 41
1.0
 50
0.0
 71
     0
 42
2.8
  3
MONOTXT
  4

  0
ENDTAB
  0
TABLE
  2
VIEW
 70
     0
  0
ENDTAB
  0
TABLE
  2
UCS
 70
     0
  0
ENDTAB
  0
TABLE
  2
APPID
 70
     1
  0
APPID
  2
ACAD
 70
     0
  0
ENDTAB
  0
TABLE
  2
DIMSTYLE
 70
     1
  0
DIMSTYLE
  2
STANDARD
 70
     0
  3

  4

  5

  6

  7

 40
1.0
 41
0.18
 42
0.0625
 43
0.38
 44
0.18
 45
0.0
 46
0.0
 47
0.0
 48
0.0
140
0.18
141
0.09
142
0.0
143
25.4
144
1.0
145
0.0
146
1.0
147
0.09
 71
     0
 72
     0
 73
     1
 74
     1
 75
     0
 76
     0
 77
     0
 78
     0
170
     0
171
     2
172
     0
173
     0
174
     0
175
     0
176
     0
177
     0
178
     0
  0
ENDTAB
  0
ENDSEC
  0
SECTION
  2
BLOCKS
  0
BLOCK
  8
0
  2
$MODEL_SPACE
 70
     0
 10
0.0
 20
0.0
 30
0.0
  3
$MODEL_SPACE
  1

  0
ENDBLK
  5
5AA
  8
0
  0
BLOCK
 67
     1
  8
0
  2
$PAPER_SPACE
 70
     0
 10
0.0
 20
0.0
 30
0.0
  3
$PAPER_SPACE
  1

  0
ENDBLK
  5
5AC
 67
     1
  8
0
  0
BLOCK
  8
SIZE
  2
*D0
 70
     1
 10
0.0
 20
0.0
 30
0.0
  3
*D0
  1

  0
TEXT
  5
29F
  8
SIZE
  6
CONTINUOUS
 10
-257.851404
 20
-22.495136
 30
0.0
 40
2.8
  1
41
 50
90.00000499999999
 41
0.7
  7
STANDARD1
  0
LINE
  5
2A0
  8
SIZE
  6
CONTINUOUS
 10
-1.02973
 20
-0.035135
 30
0.0
 11
-258.85141
 21
-0.035135
 31
0.0
  0
LINE
  5
2A1
  8
SIZE
  6
CONTINUOUS
 10
27.170271
 20
-41.035133
 30
0.0
 11
-258.85141
 21
-41.035133
 31
0.0
  0
LINE
  5
2A2
  8
SIZE
  6
CONTINUOUS
 10
-256.85141
 20
-0.035135
 30
0.0
 11
-256.85141
 21
-41.035133
 31
0.0
  0
INSERT
  5
2A3
  8
SIZE
  2
DOT
 10
-256.85141
 20
-0.035135
 30
0.0
 50
90.0
  0
INSERT
  5
2A4
  8
SIZE
  2
DOT
 10
-256.85141
 20
-41.035133
 30
0.0
 50
270.0
  0
POINT
  5
2A5
  8
DEFPOINTS
  6
BYBLOCK
 10
28.170271
 20
-41.035133
 30
0.0
  0
POINT
  5
2A6
  8
DEFPOINTS
  6
BYBLOCK
 10
-0.02973
 20
-0.035135
 30
0.0
  0
POINT
  5
2A7
  8
DEFPOINTS
  6
BYBLOCK
 10
-256.85141
 20
-0.035135
 30
0.0
  0
ENDBLK
  5
2A8
  8
SIZE
  0
BLOCK
  8
SIZE
  2
DOT
 70
     0
 10
0.0
 20
0.0
 30
0.0
  3
DOT
  1

  0
POLYLINE
  5
2AB
  8
0
  6
BYBLOCK
 66
     1
 10
0.0
 20
0.0
 30
0.0
 70
     1
 40
0.5
 41
0.5
  0
VERTEX
  5
5D2
  8
0
  6
BYBLOCK
 10
-0.25
 20
0.0
 30
0.0
 42
1.0
  0
VERTEX
  5
5D3
  8
0
  6
BYBLOCK
 10
0.25
 20
0.0
 30
0.0
 42
1.0
  0
SEQEND
  5
5D4
  8
0
  6
BYBLOCK
  0
LINE
  5
2AF
  8
0
  6
BYBLOCK
 10
-0.5
 20
0.0
 30
0.0
 11
-1.0
 21
0.0
 31
0.0
  0
ENDBLK
  5
2B0
  8
SIZE
  0
BLOCK
  8
SIZE
  2
*D2
 70
     1
 10
0.0
 20
0.0
 30
0.0
  3
*D2
  1

  0
TEXT
  5
2B3
  8
SIZE
  6
CONTINUOUS
 10
22.110272
 20
-149.035162
 30
0.0
 40
2.8
  1
48
 50
0.000003
 41
0.7
  7
STANDARD1
  0
LINE
  5
2B4
  8
SIZE
  6
CONTINUOUS
 10
-0.02973
 20
-1.035135
 30
0.0
 11
-0.02973
 21
-152.035156
 31
0.0
  0
LINE
  5
2B5
  8
SIZE
  6
CONTINUOUS
 10
48.170269
 20
-62.035133
 30
0.0
 11
48.170269
 21
-152.035156
 31
0.0
  0
LINE
  5
2B6
  8
SIZE
  6
CONTINUOUS
 10
-0.02973
 20
-150.035156
 30
0.0
 11
48.170269
 21
-150.035156
 31
0.0
  0
INSERT
  5
2B7
  8
SIZE
  2
DOT
 10
-0.02973
 20
-150.035156
 30
0.0
 50
180.0
  0
INSERT
  5
2B8
  8
SIZE
  2
DOT
 10
48.170269
 20
-150.035156
 30
0.0
  0
POINT
  5
2B9
  8
DEFPOINTS
  6
BYBLOCK
 10
48.170269
 20
-61.035133
 30
0.0
  0
POINT
  5
2BA
  8
DEFPOINTS
  6
BYBLOCK
 10
-0.02973
 20
-0.035135
 30
0.0
  0
POINT
  5
2BB
  8
DEFPOINTS
  6
BYBLOCK
 10
-0.02973
 20
-150.035156
 30
0.0
  0
ENDBLK
  5
2BC
  8
SIZE
  0
BLOCK
  8
SIZE
  2
*D3
 70
     1
 10
0.0
 20
0.0
 30
0.0
  3
*D3
  1

  0
TEXT
  5
2BF
  8
SIZE
  6
CONTINUOUS
 10
51.340206
 20
915.964868
 30
0.0
 40
2.8
  1
16
 50
0.000003
 41
0.7
  7
STANDARD1
  0
LINE
  5
2C0
  8
SIZE
  6
CONTINUOUS
 10
-16.02973
 20
675.964844
 30
0.0
 11
-16.02973
 21
916.964844
 31
0.0
  0
LINE
  5
2C1
  8
SIZE
  6
CONTINUOUS
 10
-0.02973
 20
710.964844
 30
0.0
 11
-0.02973
 21
916.964844
 31
0.0
  0
LINE
  5
2C2
  8
SIZE
  6
CONTINUOUS
 10
-21.02973
 20
914.964844
 30
0.0
 11
56.660206
 21
914.964844
 31
0.0
  0
INSERT
  5
2C3
  8
SIZE
  2
DOT
 10
-16.02973
 20
914.964844
 30
0.0
 50
180.0
  0
INSERT
  5
2C4
  8
SIZE
  2
DOT
 10
-0.02973
 20
914.964844
 30
0.0
  0
POINT
  5
2C5
  8
DEFPOINTS
  6
BYBLOCK
 10
-0.02973
 20
709.964844
 30
0.0
  0
POINT
  5
2C6
  8
DEFPOINTS
  6
BYBLOCK
 10
-16.02973
 20
674.964844
 30
0.0
  0
POINT
  5
2C7
  8
DEFPOINTS
  6
BYBLOCK
 10
-16.02973
 20
914.964844
 30
0.0
  0
ENDBLK
  5
2C8
  8
SIZE
  0
BLOCK
  8
SIZE
  2
*D4
 70
     1
 10
0.0
 20
0.0
 30
0.0
  3
*D4
  1

  0
TEXT
  5
2CB
  8
SIZE
  6
CONTINUOUS
 10
397.030273
 20
1065.964868
 30
0.0
 40
2.8
  1
200
 50
0.000003
 41
0.7
  7
STANDARD1
  0
LINE
  5
2CC
  8
SIZE
  6
CONTINUOUS
 10
299.970276
 20
815.964844
 30
0.0
 11
299.970276
 21
1066.964844
 31
0.0
  0
LINE
  5
2CD
  8
SIZE
  6
CONTINUOUS
 10
499.970276
 20
815.964844
 30
0.0
 11
499.970276
 21
1066.964844
 31
0.0
  0
LINE
  5
2CE
  8
SIZE
  6
CONTINUOUS
 10
299.970276
 20
1064.964844
 30
0.0
 11
499.970276
 21
1064.964844
 31
0.0
  0
INSERT
  5
2CF
  8
SIZE
  2
DOT
 10
299.970276
 20
1064.964844
 30
0.0
 50
180.0
  0
INSERT
  5
2D0
  8
SIZE
  2
DOT
 10
499.970276
 20
1064.964844
 30
0.0
  0
POINT
  5
2D1
  8
DEFPOINTS
  6
BYBLOCK
 10
499.970276
 20
814.964844
 30
0.0
  0
POINT
  5
2D2
  8
DEFPOINTS
  6
BYBLOCK
 10
299.970276
 20
814.964844
 30
0.0
  0
POINT
  5
2D3
  8
DEFPOINTS
  6
BYBLOCK
 10
299.970276
 20
1064.964844
 30
0.0
  0
ENDBLK
  5
2D4
  8
SIZE
  0
BLOCK
  8
SIZE
  2
*D5
 70
     1
 10
0.0
 20
0.0
 30
0.0
  3
*D5
  1

  0
TEXT
  5
2D7
  8
SIZE
  6
CONTINUOUS
 10
-52.96973
 20
1065.964868
 30
0.0
 40
2.8
  1
100
 50
0.000003
 41
0.7
  7
STANDARD1
  0
LINE
  5
2D8
  8
SIZE
  6
CONTINUOUS
 10
-0.02973
 20
815.964844
 30
0.0
 11
-0.02973
 21
1066.964844
 31
0.0
  0
LINE
  5
2D9
  8
SIZE
  6
CONTINUOUS
 10
-100.029732
 20
815.964844
 30
0.0
 11
-100.029732
 21
1066.964844
 31
0.0
  0
LINE
  5
2DA
  8
SIZE
  6
CONTINUOUS
 10
-0.02973
 20
1064.964844
 30
0.0
 11
-100.029732
 21
1064.964844
 31
0.0
  0
INSERT
  5
2DB
  8
SIZE
  2
DOT
 10
-0.02973
 20
1064.964844
 30
0.0
  0
INSERT
  5
2DC
  8
SIZE
  2
DOT
 10
-100.029732
 20
1064.964844
 30
0.0
 50
180.0
  0
POINT
  5
2DD
  8
DEFPOINTS
  6
BYBLOCK
 10
-100.029732
 20
814.964844
 30
0.0
  0
POINT
  5
2DE
  8
DEFPOINTS
  6
BYBLOCK
 10
-0.02973
 20
814.964844
 30
0.0
  0
POINT
  5
2DF
  8
DEFPOINTS
  6
BYBLOCK
 10
-0.02973
 20
1064.964844
 30
0.0
  0
ENDBLK
  5
2E0
  8
SIZE
  0
BLOCK
  8
SIZE
  2
*D6
 70
     1
 10
0.0
 20
0.0
 30
0.0
  3
*D6
  1

  0
TEXT
  5
2E3
  8
SIZE
  6
CONTINUOUS
 10
448.970282
 20
53.37587
 30
0.0
 40
2.8
  1
8
 50
90.00000499999999
 41
0.7
  7
STANDARD1
  0
LINE
  5
2E4
  8
SIZE
  6
CONTINUOUS
 10
332.970276
 20
-0.035135
 30
0.0
 11
451.970276
 21
-0.035135
 31
0.0
  0
LINE
  5
2E5
  8
SIZE
  6
CONTINUOUS
 10
332.970276
 20
7.964865
 30
0.0
 11
451.970276
 21
7.964865
 31
0.0
  0
LINE
  5
2E6
  8
SIZE
  6
CONTINUOUS
 10
449.970276
 20
-5.035135
 30
0.0
 11
449.970276
 21
56.73587
 31
0.0
  0
INSERT
  5
2E7
  8
SIZE
  2
DOT
 10
449.970276
 20
-0.035135
 30
0.0
 50
270.0
  0
INSERT
  5
2E8
  8
SIZE
  2
DOT
 10
449.970276
 20
7.964865
 30
0.0
 50
90.0
  0
POINT
  5
2E9
  8
DEFPOINTS
  6
BYBLOCK
 10
331.970276
 20
7.964865
 30
0.0
  0
POINT
  5
2EA
  8
DEFPOINTS
  6
BYBLOCK
 10
331.970276
 20
-0.035135
 30
0.0
  0
POINT
  5
2EB
  8
DEFPOINTS
  6
BYBLOCK
 10
449.970276
 20
-0.035135
 30
0.0
  0
ENDBLK
  5
2EC
  8
SIZE
  0
BLOCK
  8
SIZE
  2
*D7
 70
     1
 10
0.0
 20
0.0
 30
0.0
  3
*D7
  1

  0
TEXT
  5
2EF
  8
SIZE
  6
CONTINUOUS
 10
147.030273
 20
1065.964868
 30
0.0
 40
2.8
  1
300
 50
0.000003
 41
0.7
  7
STANDARD1
  0
LINE
  5
2F0
  8
SIZE
  6
CONTINUOUS
 10
-0.02973
 20
815.964844
 30
0.0
 11
-0.02973
 21
1066.964844
 31
0.0
  0
LINE
  5
2F1
  8
SIZE
  6
CONTINUOUS
 10
299.970276
 20
815.964844
 30
0.0
 11
299.970276
 21
1066.964844
 31
0.0
  0
LINE
  5
2F2
  8
SIZE
  6
CONTINUOUS
 10
-0.02973
 20
1064.964844
 30
0.0
 11
299.970276
 21
1064.964844
 31
0.0
  0
INSERT
  5
2F3
  8
SIZE
  2
DOT
 10
-0.02973
 20
1064.964844
 30
0.0
 50
180.0
  0
INSERT
  5
2F4
  8
SIZE
  2
DOT
 10
299.970276
 20
1064.964844
 30
0.0
  0
POINT
  5
2F5
  8
DEFPOINTS
  6
BYBLOCK
 10
299.970276
 20
814.964844
 30
0.0
  0
POINT
  5
2F6
  8
DEFPOINTS
  6
BYBLOCK
 10
-0.02973
 20
814.964844
 30
0.0
  0
POINT
  5
2F7
  8
DEFPOINTS
  6
BYBLOCK
 10
-0.02973
 20
1064.964844
 30
0.0
  0
ENDBLK
  5
2F8
  8
SIZE
  0
BLOCK
  8
SIZE
  2
*D8
 70
     1
 10
0.0
 20
0.0
 30
0.0
  3
*D8
  1

  0
TEXT
  5
2FB
  8
SIZE
  6
CONTINUOUS
 10
646.404333
 20
200.024857
 30
0.0
 40
2.8
  1
406
 50
90.00000499999999
 41
0.7
  7
STANDARD1
  0
LINE
  5
2FC
  8
SIZE
  6
CONTINUOUS
 10
370.970276
 20
405.964874
 30
0.0
 11
649.404358
 21
405.964874
 31
0.0
  0
LINE
  5
2FD
  8
SIZE
  6
CONTINUOUS
 10
300.970276
 20
-0.035135
 30
0.0
 11
649.404358
 21
-0.035135
 31
0.0
  0
LINE
  5
2FE
  8
SIZE
  6
CONTINUOUS
 10
647.404358
 20
405.964874
 30
0.0
 11
647.404358
 21
-0.035135
 31
0.0
  0
INSERT
  5
2FF
  8
SIZE
  2
DOT
 10
647.404358
 20
405.964874
 30
0.0
 50
90.0
  0
INSERT
  5
300
  8
SIZE
  2
DOT
 10
647.404358
 20
-0.035135
 30
0.0
 50
270.0
  0
POINT
  5
301
  8
DEFPOINTS
  6
BYBLOCK
 10
299.970276
 20
-0.035135
 30
0.0
  0
POINT
  5
302
  8
DEFPOINTS
  6
BYBLOCK
 10
369.970276
 20
405.964874
 30
0.0
  0
POINT
  5
303
  8
DEFPOINTS
  6
BYBLOCK
 10
647.404358
 20
405.964874
 30
0.0
  0
ENDBLK
  5
304
  8
SIZE
  0
BLOCK
  8
SIZE
  2
*D9
 70
     1
 10
0.0
 20
0.0
 30
0.0
  3
*D9
  1

  0
TEXT
  5
307
  8
SIZE
  6
CONTINUOUS
 10
748.502234
 20
404.524872
 30
0.0
 40
2.8
  1
815
 50
90.00000499999999
 41
0.7
  7
STANDARD1
  0
LINE
  5
308
  8
SIZE
  6
CONTINUOUS
 10
500.970276
 20
814.964844
 30
0.0
 11
751.502258
 21
814.964844
 31
0.0
  0
LINE
  5
309
  8
SIZE
  6
CONTINUOUS
 10
300.970276
 20
-0.035135
 30
0.0
 11
751.502258
 21
-0.035135
 31
0.0
  0
LINE
  5
30A
  8
SIZE
  6
CONTINUOUS
 10
749.502258
 20
814.964844
 30
0.0
 11
749.502258
 21
-0.035135
 31
0.0
  0
INSERT
  5
30B
  8
SIZE
  2
DOT
 10
749.502258
 20
814.964844
 30
0.0
 50
90.0
  0
INSERT
  5
30C
  8
SIZE
  2
DOT
 10
749.502258
 20
-0.035135
 30
0.0
 50
270.0
  0
POINT
  5
30D
  8
DEFPOINTS
  6
BYBLOCK
 10
299.970276
 20
-0.035135
 30
0.0
  0
POINT
  5
30E
  8
DEFPOINTS
  6
BYBLOCK
 10
499.970276
 20
814.964844
 30
0.0
  0
POINT
  5
30F
  8
DEFPOINTS
  6
BYBLOCK
 10
749.502258
 20
814.964844
 30
0.0
  0
ENDBLK
  5
310
  8
SIZE
  0
BLOCK
  8
SIZE
  2
*D10
 70
     1
 10
0.0
 20
0.0
 30
0.0
  3
*D10
  1

  0
TEXT
  5
313
  8
SIZE
  6
CONTINUOUS
 10
147.030273
 20
-349.035162
 30
0.0
 40
2.8
  1
300
 50
0.000003
 41
0.7
  7
STANDARD1
  0
LINE
  5
314
  8
SIZE
  6
CONTINUOUS
 10
299.970276
 20
-1.035135
 30
0.0
 11
299.970276
 21
-352.035156
 31
0.0
  0
LINE
  5
315
  8
SIZE
  6
CONTINUOUS
 10
-0.02973
 20
-1.035135
 30
0.0
 11
-0.02973
 21
-352.035156
 31
0.0
  0
LINE
  5
316
  8
SIZE
  6
CONTINUOUS
 10
299.970276
 20
-350.035156
 30
0.0
 11
-0.02973
 21
-350.035156
 31
0.0
  0
INSERT
  5
317
  8
SIZE
  2
DOT
 10
299.970276
 20
-350.035156
 30
0.0
  0
INSERT
  5
318
  8
SIZE
  2
DOT
 10
-0.02973
 20
-350.035156
 30
0.0
 50
180.0
  0
POINT
  5
319
  8
DEFPOINTS
  6
BYBLOCK
 10
-0.02973
 20
-0.035135
 30
0.0
  0
POINT
  5
31A
  8
DEFPOINTS
  6
BYBLOCK
 10
299.970276
 20
-0.035135
 30
0.0
  0
POINT
  5
31B
  8
DEFPOINTS
  6
BYBLOCK
 10
299.970276
 20
-350.035156
 30
0.0
  0
ENDBLK
  5
31C
  8
SIZE
  0
BLOCK
  8
SIZE
  2
*D11
 70
     1
 10
0.0
 20
0.0
 30
0.0
  3
*D11
  1

  0
TEXT
  5
31F
  8
SIZE
  6
CONTINUOUS
 10
152.030273
 20
-449.035162
 30
0.0
 40
2.8
  1
330
 50
0.000003
 41
0.7
  7
STANDARD1
  0
LINE
  5
320
  8
SIZE
  6
CONTINUOUS
 10
-10.02973
 20
-21.035135
 30
0.0
 11
-10.02973
 21
-452.035156
 31
0.0
  0
LINE
  5
321
  8
SIZE
  6
CONTINUOUS
 10
319.970276
 20
-21.035135
 30
0.0
 11
319.970276
 21
-452.035156
 31
0.0
  0
LINE
  5
322
  8
SIZE
  6
CONTINUOUS
 10
-10.02973
 20
-450.035156
 30
0.0
 11
319.970276
 21
-450.035156
 31
0.0
  0
INSERT
  5
323
  8
SIZE
  2
DOT
 10
-10.02973
 20
-450.035156
 30
0.0
 50
180.0
  0
INSERT
  5
324
  8
SIZE
  2
DOT
 10
319.970276
 20
-450.035156
 30
0.0
  0
POINT
  5
325
  8
DEFPOINTS
  6
BYBLOCK
 10
319.970276
 20
-20.035135
 30
0.0
  0
POINT
  5
326
  8
DEFPOINTS
  6
BYBLOCK
 10
-10.02973
 20
-20.035135
 30
0.0
  0
POINT
  5
327
  8
DEFPOINTS
  6
BYBLOCK
 10
-10.02973
 20
-450.035156
 30
0.0
  0
ENDBLK
  5
328
  8
SIZE
  0
BLOCK
  8
SIZE
  2
*D12
 70
     1
 10
0.0
 20
0.0
 30
0.0
  3
*D12
  1

  0
TEXT
  5
32B
  8
SIZE
  6
CONTINUOUS
 10
-419.962762
 20
404.524872
 30
0.0
 40
2.8
  1
815
 50
90.00000499999999
 41
0.7
  7
STANDARD1
  0
LINE
  5
32C
  8
SIZE
  6
CONTINUOUS
 10
-101.029732
 20
814.964844
 30
0.0
 11
-420.962769
 21
814.964844
 31
0.0
  0
LINE
  5
32D
  8
SIZE
  6
CONTINUOUS
 10
-101.029732
 20
-0.035135
 30
0.0
 11
-420.962769
 21
-0.035135
 31
0.0
  0
LINE
  5
32E
  8
SIZE
  6
CONTINUOUS
 10
-418.962769
 20
814.964844
 30
0.0
 11
-418.962769
 21
-0.035135
 31
0.0
  0
INSERT
  5
32F
  8
SIZE
  2
DOT
 10
-418.962769
 20
814.964844
 30
0.0
 50
90.0
  0
INSERT
  5
330
  8
SIZE
  2
DOT
 10
-418.962769
 20
-0.035135
 30
0.0
 50
270.0
  0
POINT
  5
331
  8
DEFPOINTS
  6
BYBLOCK
 10
-100.029732
 20
-0.035135
 30
0.0
  0
POINT
  5
332
  8
DEFPOINTS
  6
BYBLOCK
 10
-100.029732
 20
814.964844
 30
0.0
  0
POINT
  5
333
  8
DEFPOINTS
  6
BYBLOCK
 10
-418.962769
 20
814.964844
 30
0.0
  0
ENDBLK
  5
334
  8
SIZE
  0
BLOCK
  8
SIZE
  2
*D13
 70
     1
 10
0.0
 20
0.0
 30
0.0
  3
*D13
  1

  0
TEXT
  5
337
  8
SIZE
  6
CONTINUOUS
 10
-257.851404
 20
762.024841
 30
0.0
 40
2.8
  1
100
 50
90.00000499999999
 41
0.7
  7
STANDARD1
  0
LINE
  5
338
  8
SIZE
  6
CONTINUOUS
 10
-101.029732
 20
814.964844
 30
0.0
 11
-258.85141
 21
814.964844
 31
0.0
  0
LINE
  5
339
  8
SIZE
  6
CONTINUOUS
 10
-1.02973
 20
714.964844
 30
0.0
 11
-258.85141
 21
714.964844
 31
0.0
  0
LINE
  5
33A
  8
SIZE
  6
CONTINUOUS
 10
-256.85141
 20
814.964844
 30
0.0
 11
-256.85141
 21
714.964844
 31
0.0
  0
INSERT
  5
33B
  8
SIZE
  2
DOT
 10
-256.85141
 20
814.964844
 30
0.0
 50
90.0
  0
INSERT
  5
33C
  8
SIZE
  2
DOT
 10
-256.85141
 20
714.964844
 30
0.0
 50
270.0
  0
POINT
  5
33D
  8
DEFPOINTS
  6
BYBLOCK
 10
-0.02973
 20
714.964844
 30
0.0
  0
POINT
  5
33E
  8
DEFPOINTS
  6
BYBLOCK
 10
-100.029732
 20
814.964844
 30
0.0
  0
POINT
  5
33F
  8
DEFPOINTS
  6
BYBLOCK
 10
-256.85141
 20
814.964844
 30
0.0
  0
ENDBLK
  5
340
  8
SIZE
  0
BLOCK
  8
SIZE
  2
*D14
 70
     1
 10
0.0
 20
0.0
 30
0.0
  3
*D14
  1

  0
TEXT
  5
343
  8
SIZE
  6
CONTINUOUS
 10
-257.851404
 20
354.524872
 30
0.0
 40
2.8
  1
715
 50
90.00000499999999
 41
0.7
  7
STANDARD1
  0
LINE
  5
344
  8
SIZE
  6
CONTINUOUS
 10
-1.02973
 20
714.964844
 30
0.0
 11
-258.85141
 21
714.964844
 31
0.0
  0
LINE
  5
345
  8
SIZE
  6
CONTINUOUS
 10
-101.029732
 20
-0.035135
 30
0.0
 11
-258.85141
 21
-0.035135
 31
0.0
  0
LINE
  5
346
  8
SIZE
  6
CONTINUOUS
 10
-256.85141
 20
714.964844
 30
0.0
 11
-256.85141
 21
-0.035135
 31
0.0
  0
INSERT
  5
347
  8
SIZE
  2
DOT
 10
-256.85141
 20
714.964844
 30
0.0
 50
90.0
  0
INSERT
  5
348
  8
SIZE
  2
DOT
 10
-256.85141
 20
-0.035135
 30
0.0
 50
270.0
  0
POINT
  5
349
  8
DEFPOINTS
  6
BYBLOCK
 10
-100.029732
 20
-0.035135
 30
0.0
  0
POINT
  5
34A
  8
DEFPOINTS
  6
BYBLOCK
 10
-0.02973
 20
714.964844
 30
0.0
  0
POINT
  5
34B
  8
DEFPOINTS
  6
BYBLOCK
 10
-256.85141
 20
714.964844
 30
0.0
  0
ENDBLK
  5
34C
  8
SIZE
  0
BLOCK
  8
SIZE
  2
*D15
 70
     1
 10
0.0
 20
0.0
 30
0.0
  3
*D15
  1

  0
TEXT
  5
34F
  8
SIZE
  6
CONTINUOUS
 10
394.411957
 20
915.964868
 30
0.0
 40
2.8
  1
20
 50
0.000003
 41
0.7
  7
STANDARD1
  0
LINE
  5
350
  8
SIZE
  6
CONTINUOUS
 10
319.970276
 20
630.964844
 30
0.0
 11
319.970276
 21
916.964844
 31
0.0
  0
LINE
  5
351
  8
SIZE
  6
CONTINUOUS
 10
299.970276
 20
815.964844
 30
0.0
 11
299.970276
 21
916.964844
 31
0.0
  0
LINE
  5
352
  8
SIZE
  6
CONTINUOUS
 10
399.731934
 20
914.964844
 30
0.0
 11
294.970276
 21
914.964844
 31
0.0
  0
INSERT
  5
353
  8
SIZE
  2
DOT
 10
319.970276
 20
914.964844
 30
0.0
  0
INSERT
  5
354
  8
SIZE
  2
DOT
 10
299.970276
 20
914.964844
 30
0.0
 50
180.0
  0
POINT
  5
355
  8
DEFPOINTS
  6
BYBLOCK
 10
299.970276
 20
814.964844
 30
0.0
  0
POINT
  5
356
  8
DEFPOINTS
  6
BYBLOCK
 10
319.970276
 20
629.964844
 30
0.0
  0
POINT
  5
357
  8
DEFPOINTS
  6
BYBLOCK
 10
319.970276
 20
914.964844
 30
0.0
  0
ENDBLK
  5
358
  8
SIZE
  0
BLOCK
  8
SIZE
  2
*D16
 70
     1
 10
0.0
 20
0.0
 30
0.0
  3
*D16
  1

  0
TEXT
  5
35B
  8
SIZE
  6
CONTINUOUS
 10
149.045273
 20
-549.035132
 30
0.0
 40
2.8
  1
360
 50
0.000003
 41
0.7
  7
STANDARD1
  0
LINE
  5
35C
  8
SIZE
  6
CONTINUOUS
 10
-27.999729
 20
6.964865
 30
0.0
 11
-27.999729
 21
-552.035156
 31
0.0
  0
LINE
  5
35D
  8
SIZE
  6
CONTINUOUS
 10
331.970276
 20
6.964865
 30
0.0
 11
331.970276
 21
-552.035156
 31
0.0
  0
LINE
  5
35E
  8
SIZE
  6
CONTINUOUS
 10
-27.999729
 20
-550.035156
 30
0.0
 11
331.970276
 21
-550.035156
 31
0.0
  0
INSERT
  5
35F
  8
SIZE
  2
DOT
 10
-27.999729
 20
-550.035156
 30
0.0
 50
180.0
  0
INSERT
  5
360
  8
SIZE
  2
DOT
 10
331.970276
 20
-550.035156
 30
0.0
  0
POINT
  5
361
  8
DEFPOINTS
  6
BYBLOCK
 10
331.970276
 20
7.964865
 30
0.0
  0
POINT
  5
362
  8
DEFPOINTS
  6
BYBLOCK
 10
-27.999729
 20
7.964865
 30
0.0
  0
POINT
  5
363
  8
DEFPOINTS
  6
BYBLOCK
 10
-27.999729
 20
-550.035156
 30
0.0
  0
ENDBLK
  5
364
  8
SIZE
  0
BLOCK
  8
SIZE
  2
*D17
 70
     1
 10
0.0
 20
0.0
 30
0.0
  3
*D17
  1

  0
TEXT
  5
367
  8
SIZE
  6
CONTINUOUS
 10
42.662438
 20
-249.035162
 30
0.0
 40
2.8
  1
28
 50
0.000003
 41
0.7
  7
STANDARD1
  0
LINE
  5
368
  8
SIZE
  6
CONTINUOUS
 10
-0.02973
 20
18.964865
 30
0.0
 11
-0.02973
 21
-252.035156
 31
0.0
  0
LINE
  5
369
  8
SIZE
  6
CONTINUOUS
 10
-27.999729
 20
-1.035135
 30
0.0
 11
-27.999729
 21
-252.035156
 31
0.0
  0
LINE
  5
36A
  8
SIZE
  6
CONTINUOUS
 10
47.982437
 20
-250.035156
 30
0.0
 11
-32.999729
 21
-250.035156
 31
0.0
  0
INSERT
  5
36B
  8
SIZE
  2
DOT
 10
-0.02973
 20
-250.035156
 30
0.0
  0
INSERT
  5
36C
  8
SIZE
  2
DOT
 10
-27.999729
 20
-250.035156
 30
0.0
 50
180.0
  0
POINT
  5
36D
  8
DEFPOINTS
  6
BYBLOCK
 10
-27.999729
 20
-0.035135
 30
0.0
  0
POINT
  5
36E
  8
DEFPOINTS
  6
BYBLOCK
 10
-0.02973
 20
19.964865
 30
0.0
  0
POINT
  5
36F
  8
DEFPOINTS
  6
BYBLOCK
 10
-0.02973
 20
-250.035156
 30
0.0
  0
ENDBLK
  5
370
  8
SIZE
  0
BLOCK
  8
SIZE
  2
*D18
 70
     1
 10
0.0
 20
0.0
 30
0.0
  3
*D18
  1

  0
TEXT
  5
373
  8
SIZE
  6
CONTINUOUS
 10
-81.103271
 20
-349.035162
 30
0.0
 40
2.8
  1
10
 50
0.000003
 41
0.7
  7
STANDARD1
  0
LINE
  5
374
  8
SIZE
  6
CONTINUOUS
 10
-10.02973
 20
-21.035135
 30
0.0
 11
-10.02973
 21
-352.035156
 31
0.0
  0
LINE
  5
375
  8
SIZE
  6
CONTINUOUS
 10
-0.02973
 20
18.964865
 30
0.0
 11
-0.02973
 21
-352.035156
 31
0.0
  0
LINE
  5
376
  8
SIZE
  6
CONTINUOUS
 10
-82.503273
 20
-350.035156
 30
0.0
 11
4.97027
 21
-350.035156
 31
0.0
  0
INSERT
  5
377
  8
SIZE
  2
DOT
 10
-10.02973
 20
-350.035156
 30
0.0
 50
180.0
  0
INSERT
  5
378
  8
SIZE
  2
DOT
 10
-0.02973
 20
-350.035156
 30
0.0
  0
POINT
  5
379
  8
DEFPOINTS
  6
BYBLOCK
 10
-0.02973
 20
19.964865
 30
0.0
  0
POINT
  5
37A
  8
DEFPOINTS
  6
BYBLOCK
 10
-10.02973
 20
-20.035135
 30
0.0
  0
POINT
  5
37B
  8
DEFPOINTS
  6
BYBLOCK
 10
-10.02973
 20
-350.035156
 30
0.0
  0
ENDBLK
  5
37C
  8
SIZE
  0
BLOCK
  8
0
  2
_ORIGIN
 70
     0
 10
0.0
 20
0.0
 30
0.0
  3
_ORIGIN
  1

  0
CIRCLE
  5
37F
  8
0
  6
BYBLOCK
 62
     0
 10
0.0
 20
0.0
 30
0.0
 40
0.5
  0
LINE
  5
380
  8
0
  6
BYBLOCK
 62
     0
 10
0.0
 20
0.0
 30
0.0
 11
-1.0
 21
0.0
 31
0.0
  0
ENDBLK
  5
381
  8
0
  0
BLOCK
  8
0
  2
*D20
 70
     1
 10
0.0
 20
0.0
 30
0.0
  3
*D20
  1

  0
LINE
  5
384
  8
0
  6
BYBLOCK
 62
     0
 10
-0.02973
 20
9.964865
 30
0.0
 11
-0.02973
 21
-360.135156
 31
0.0
  0
LINE
  5
385
  8
0
  6
BYBLOCK
 62
     0
 10
-10.02973
 20
-30.035135
 30
0.0
 11
-10.02973
 21
-360.135156
 31
0.0
  0
LINE
  5
386
  8
0
  6
BYBLOCK
 62
     0
 10
9.97027
 20
-347.635156
 30
0.0
 11
19.97027
 21
-347.635156
 31
0.0
  0
LINE
  5
387
  8
0
  6
BYBLOCK
 62
     0
 10
-20.02973
 20
-347.635156
 30
0.0
 11
-106.643272
 21
-347.635156
 31
0.0
  0
LINE
  5
388
  8
0
  6
BYBLOCK
 62
     0
 10
-0.02973
 20
-347.635156
 30
0.0
 11
-10.02973
 21
-347.635156
 31
0.0
  0
INSERT
  5
389
  8
0
  6
BYBLOCK
 62
     0
  2
_ORIGIN
 10
-0.02973
 20
-347.635156
 30
0.0
 41
10.0
 42
10.0
 43
10.0
 50
180.0
  0
INSERT
  5
38A
  8
0
  6
BYBLOCK
 62
     0
  2
_ORIGIN
 10
-10.02973
 20
-347.635156
 30
0.0
 41
10.0
 42
10.0
 43
10.0
  0
TEXT
  5
38B
  8
0
  6
BYBLOCK
 62
     0
 10
-101.343272
 20
-337.635156
 30
0.0
 40
30.0
  1
10
 72
     1
 11
-79.143272
 21
-337.635156
 31
0.0
  0
POINT
  5
38C
  8
DEFPOINTS
  6
BYBLOCK
 62
     0
 10
-0.02973
 20
19.964865
 30
0.0
  0
POINT
  5
38D
  8
DEFPOINTS
  6
BYBLOCK
 62
     0
 10
-10.02973
 20
-20.035135
 30
0.0
  0
POINT
  5
38E
  8
DEFPOINTS
  6
BYBLOCK
 62
     0
 10
-10.02973
 20
-347.635156
 30
0.0
  0
ENDBLK
  5
38F
  8
0
  0
BLOCK
  8
0
  2
*D21
 70
     1
 10
0.0
 20
0.0
 30
0.0
  3
*D21
  1

  0
LINE
  5
392
  8
0
  6
BYBLOCK
 62
     0
 10
-27.999729
 20
-10.035135
 30
0.0
 11
-27.999729
 21
-260.135156
 31
0.0
  0
LINE
  5
393
  8
0
  6
BYBLOCK
 62
     0
 10
-0.02973
 20
9.964865
 30
0.0
 11
-0.02973
 21
-260.135156
 31
0.0
  0
LINE
  5
394
  8
0
  6
BYBLOCK
 62
     0
 10
-37.999729
 20
-247.635156
 30
0.0
 11
-47.999729
 21
-247.635156
 31
0.0
  0
LINE
  5
395
  8
0
  6
BYBLOCK
 62
     0
 10
9.97027
 20
-247.635156
 30
0.0
 11
89.97027
 21
-247.635156
 31
0.0
  0
LINE
  5
396
  8
0
  6
BYBLOCK
 62
     0
 10
-27.999729
 20
-247.635156
 30
0.0
 11
-0.02973
 21
-247.635156
 31
0.0
  0
INSERT
  5
397
  8
0
  6
BYBLOCK
 62
     0
  2
_ORIGIN
 10
-27.999729
 20
-247.635156
 30
0.0
 41
10.0
 42
10.0
 43
10.0
  0
INSERT
  5
398
  8
0
  6
BYBLOCK
 62
     0
  2
_ORIGIN
 10
-0.02973
 20
-247.635156
 30
0.0
 41
10.0
 42
10.0
 43
10.0
 50
180.0
  0
TEXT
  5
399
  8
0
  6
BYBLOCK
 62
     0
 10
24.97027
 20
-237.635156
 30
0.0
 40
30.0
  1
28
 72
     1
 11
54.97027
 21
-237.635156
 31
0.0
  0
POINT
  5
39A
  8
DEFPOINTS
  6
BYBLOCK
 62
     0
 10
-27.999729
 20
-0.035135
 30
0.0
  0
POINT
  5
39B
  8
DEFPOINTS
  6
BYBLOCK
 62
     0
 10
-0.02973
 20
19.964865
 30
0.0
  0
POINT
  5
39C
  8
DEFPOINTS
  6
BYBLOCK
 62
     0
 10
-0.02973
 20
-247.635156
 30
0.0
  0
ENDBLK
  5
39D
  8
0
  0
BLOCK
  8
0
  2
*D22
 70
     1
 10
0.0
 20
0.0
 30
0.0
  3
*D22
  1

  0
LINE
  5
3A0
  8
0
  6
BYBLOCK
 62
     0
 10
331.970276
 20
-2.035135
 30
0.0
 11
331.970276
 21
-560.135156
 31
0.0
  0
LINE
  5
3A1
  8
0
  6
BYBLOCK
 62
     0
 10
-27.999729
 20
-2.035135
 30
0.0
 11
-27.999729
 21
-560.135156
 31
0.0
  0
LINE
  5
3A2
  8
0
  6
BYBLOCK
 62
     0
 10
321.970276
 20
-547.635156
 30
0.0
 11
-17.999729
 21
-547.635156
 31
0.0
  0
INSERT
  5
3A3
  8
0
  6
BYBLOCK
 62
     0
  2
_ORIGIN
 10
331.970276
 20
-547.635156
 30
0.0
 41
10.0
 42
10.0
 43
10.0
  0
INSERT
  5
3A4
  8
0
  6
BYBLOCK
 62
     0
  2
_ORIGIN
 10
-27.999729
 20
-547.635156
 30
0.0
 41
10.0
 42
10.0
 43
10.0
 50
180.0
  0
TEXT
  5
3A5
  8
0
  6
BYBLOCK
 62
     0
 10
109.535275
 20
-537.635156
 30
0.0
 40
30.0
  1
360
 72
     1
 11
151.985275
 21
-537.635156
 31
0.0
  0
POINT
  5
3A6
  8
DEFPOINTS
  6
BYBLOCK
 62
     0
 10
331.970276
 20
7.964865
 30
0.0
  0
POINT
  5
3A7
  8
DEFPOINTS
  6
BYBLOCK
 62
     0
 10
-27.999729
 20
7.964865
 30
0.0
  0
POINT
  5
3A8
  8
DEFPOINTS
  6
BYBLOCK
 62
     0
 10
-27.999729
 20
-547.635156
 30
0.0
  0
ENDBLK
  5
3A9
  8
0
  0
BLOCK
  8
0
  2
*D23
 70
     1
 10
0.0
 20
0.0
 30
0.0
  3
*D23
  1

  0
LINE
  5
3AC
  8
0
  6
BYBLOCK
 62
     0
 10
299.970276
 20
824.964844
 30
0.0
 11
299.970276
 21
929.864844
 31
0.0
  0
LINE
  5
3AD
  8
0
  6
BYBLOCK
 62
     0
 10
319.970276
 20
639.964844
 30
0.0
 11
319.970276
 21
929.864844
 31
0.0
  0
LINE
  5
3AE
  8
0
  6
BYBLOCK
 62
     0
 10
289.970276
 20
917.364844
 30
0.0
 11
279.970276
 21
917.364844
 31
0.0
  0
LINE
  5
3AF
  8
0
  6
BYBLOCK
 62
     0
 10
329.970276
 20
917.364844
 30
0.0
 11
428.871948
 21
917.364844
 31
0.0
  0
LINE
  5
3B0
  8
0
  6
BYBLOCK
 62
     0
 10
299.970276
 20
917.364844
 30
0.0
 11
319.970276
 21
917.364844
 31
0.0
  0
INSERT
  5
3B1
  8
0
  6
BYBLOCK
 62
     0
  2
_ORIGIN
 10
299.970276
 20
917.364844
 30
0.0
 41
10.0
 42
10.0
 43
10.0
  0
INSERT
  5
3B2
  8
0
  6
BYBLOCK
 62
     0
  2
_ORIGIN
 10
319.970276
 20
917.364844
 30
0.0
 41
10.0
 42
10.0
 43
10.0
 50
180.0
  0
TEXT
  5
3B3
  8
0
  6
BYBLOCK
 62
     0
 10
368.921948
 20
927.364844
 30
0.0
 40
30.0
  1
20
 72
     1
 11
396.371948
 21
927.364844
 31
0.0
  0
POINT
  5
3B4
  8
DEFPOINTS
  6
BYBLOCK
 62
     0
 10
299.970276
 20
814.964844
 30
0.0
  0
POINT
  5
3B5
  8
DEFPOINTS
  6
BYBLOCK
 62
     0
 10
319.970276
 20
629.964844
 30
0.0
  0
POINT
  5
3B6
  8
DEFPOINTS
  6
BYBLOCK
 62
     0
 10
319.970276
 20
917.364844
 30
0.0
  0
ENDBLK
  5
3B7
  8
0
  0
BLOCK
  8
0
  2
*D24
 70
     1
 10
0.0
 20
0.0
 30
0.0
  3
*D24
  1

  0
LINE
  5
3BA
  8
0
  6
BYBLOCK
 62
     0
 10
-110.029732
 20
-0.035135
 30
0.0
 11
-271.75141
 21
-0.035135
 31
0.0
  0
LINE
  5
3BB
  8
0
  6
BYBLOCK
 62
     0
 10
-10.02973
 20
714.964844
 30
0.0
 11
-271.75141
 21
714.964844
 31
0.0
  0
LINE
  5
3BC
  8
0
  6
BYBLOCK
 62
     0
 10
-259.25141
 20
9.964865
 30
0.0
 11
-259.25141
 21
704.964844
 31
0.0
  0
INSERT
  5
3BD
  8
0
  6
BYBLOCK
 62
     0
  2
_ORIGIN
 10
-259.25141
 20
-0.035135
 30
0.0
 41
10.0
 42
10.0
 43
10.0
 50
270.0
  0
INSERT
  5
3BE
  8
0
  6
BYBLOCK
 62
     0
  2
_ORIGIN
 10
-259.25141
 20
714.964844
 30
0.0
 41
10.0
 42
10.0
 43
10.0
 50
90.0
  0
TEXT
  5
3BF
  8
0
  6
BYBLOCK
 62
     0
 10
-269.25141
 20
317.714874
 30
0.0
 40
30.0
  1
715
 50
90.0
 72
     1
 11
-269.25141
 21
357.464874
 31
0.0
  0
POINT
  5
3C0
  8
DEFPOINTS
  6
BYBLOCK
 62
     0
 10
-100.029732
 20
-0.035135
 30
0.0
  0
POINT
  5
3C1
  8
DEFPOINTS
  6
BYBLOCK
 62
     0
 10
-0.02973
 20
714.964844
 30
0.0
  0
POINT
  5
3C2
  8
DEFPOINTS
  6
BYBLOCK
 62
     0
 10
-259.25141
 20
714.964844
 30
0.0
  0
ENDBLK
  5
3C3
  8
0
  0
BLOCK
  8
0
  2
*D25
 70
     1
 10
0.0
 20
0.0
 30
0.0
  3
*D25
  1

  0
LINE
  5
3C6
  8
0
  6
BYBLOCK
 62
     0
 10
-10.02973
 20
714.964844
 30
0.0
 11
-271.75141
 21
714.964844
 31
0.0
  0
LINE
  5
3C7
  8
0
  6
BYBLOCK
 62
     0
 10
-110.029732
 20
814.964844
 30
0.0
 11
-271.75141
 21
814.964844
 31
0.0
  0
LINE
  5
3C8
  8
0
  6
BYBLOCK
 62
     0
 10
-259.25141
 20
724.964844
 30
0.0
 11
-259.25141
 21
804.964844
 31
0.0
  0
INSERT
  5
3C9
  8
0
  6
BYBLOCK
 62
     0
  2
_ORIGIN
 10
-259.25141
 20
714.964844
 30
0.0
 41
10.0
 42
10.0
 43
10.0
 50
270.0
  0
INSERT
  5
3CA
  8
0
  6
BYBLOCK
 62
     0
  2
_ORIGIN
 10
-259.25141
 20
814.964844
 30
0.0
 41
10.0
 42
10.0
 43
10.0
 50
90.0
  0
TEXT
  5
3CB
  8
0
  6
BYBLOCK
 62
     0
 10
-269.25141
 20
730.314844
 30
0.0
 40
30.0
  1
100
 50
90.0
 72
     1
 11
-269.25141
 21
764.964844
 31
0.0
  0
POINT
  5
3CC
  8
DEFPOINTS
  6
BYBLOCK
 62
     0
 10
-0.02973
 20
714.964844
 30
0.0
  0
POINT
  5
3CD
  8
DEFPOINTS
  6
BYBLOCK
 62
     0
 10
-100.029732
 20
814.964844
 30
0.0
  0
POINT
  5
3CE
  8
DEFPOINTS
  6
BYBLOCK
 62
     0
 10
-259.25141
 20
814.964844
 30
0.0
  0
ENDBLK
  5
3CF
  8
0
  0
BLOCK
  8
0
  2
*D26
 70
     1
 10
0.0
 20
0.0
 30
0.0
  3
*D26
  1

  0
LINE
  5
3D2
  8
0
  6
BYBLOCK
 62
     0
 10
-110.029732
 20
-0.035135
 30
0.0
 11
-433.862769
 21
-0.035135
 31
0.0
  0
LINE
  5
3D3
  8
0
  6
BYBLOCK
 62
     0
 10
-110.029732
 20
814.964844
 30
0.0
 11
-433.862769
 21
814.964844
 31
0.0
  0
LINE
  5
3D4
  8
0
  6
BYBLOCK
 62
     0
 10
-421.362769
 20
9.964865
 30
0.0
 11
-421.362769
 21
804.964844
 31
0.0
  0
INSERT
  5
3D5
  8
0
  6
BYBLOCK
 62
     0
  2
_ORIGIN
 10
-421.362769
 20
-0.035135
 30
0.0
 41
10.0
 42
10.0
 43
10.0
 50
270.0
  0
INSERT
  5
3D6
  8
0
  6
BYBLOCK
 62
     0
  2
_ORIGIN
 10
-421.362769
 20
814.964844
 30
0.0
 41
10.0
 42
10.0
 43
10.0
 50
90.0
  0
TEXT
  5
3D7
  8
0
  6
BYBLOCK
 62
     0
 10
-431.362769
 20
367.714874
 30
0.0
 40
30.0
  1
815
 50
90.0
 72
     1
 11
-431.362769
 21
407.464874
 31
0.0
  0
POINT
  5
3D8
  8
DEFPOINTS
  6
BYBLOCK
 62
     0
 10
-100.029732
 20
-0.035135
 30
0.0
  0
POINT
  5
3D9
  8
DEFPOINTS
  6
BYBLOCK
 62
     0
 10
-100.029732
 20
814.964844
 30
0.0
  0
POINT
  5
3DA
  8
DEFPOINTS
  6
BYBLOCK
 62
     0
 10
-421.362769
 20
814.964844
 30
0.0
  0
ENDBLK
  5
3DB
  8
0
  0
BLOCK
  8
0
  2
*D27
 70
     1
 10
0.0
 20
0.0
 30
0.0
  3
*D27
  1

  0
LINE
  5
3DE
  8
0
  6
BYBLOCK
 62
     0
 10
319.970276
 20
-30.035135
 30
0.0
 11
319.970276
 21
-460.135156
 31
0.0
  0
LINE
  5
3DF
  8
0
  6
BYBLOCK
 62
     0
 10
-10.02973
 20
-30.035135
 30
0.0
 11
-10.02973
 21
-460.135156
 31
0.0
  0
LINE
  5
3E0
  8
0
  6
BYBLOCK
 62
     0
 10
309.970276
 20
-447.635156
 30
0.0
 11
-0.02973
 21
-447.635156
 31
0.0
  0
INSERT
  5
3E1
  8
0
  6
BYBLOCK
 62
     0
  2
_ORIGIN
 10
319.970276
 20
-447.635156
 30
0.0
 41
10.0
 42
10.0
 43
10.0
  0
INSERT
  5
3E2
  8
0
  6
BYBLOCK
 62
     0
  2
_ORIGIN
 10
-10.02973
 20
-447.635156
 30
0.0
 41
10.0
 42
10.0
 43
10.0
 50
180.0
  0
TEXT
  5
3E3
  8
0
  6
BYBLOCK
 62
     0
 10
112.520276
 20
-437.635156
 30
0.0
 40
30.0
  1
330
 72
     1
 11
154.970276
 21
-437.635156
 31
0.0
  0
POINT
  5
3E4
  8
DEFPOINTS
  6
BYBLOCK
 62
     0
 10
319.970276
 20
-20.035135
 30
0.0
  0
POINT
  5
3E5
  8
DEFPOINTS
  6
BYBLOCK
 62
     0
 10
-10.02973
 20
-20.035135
 30
0.0
  0
POINT
  5
3E6
  8
DEFPOINTS
  6
BYBLOCK
 62
     0
 10
-10.02973
 20
-447.635156
 30
0.0
  0
ENDBLK
  5
3E7
  8
0
  0
BLOCK
  8
0
  2
*D28
 70
     1
 10
0.0
 20
0.0
 30
0.0
  3
*D28
  1

  0
LINE
  5
3EA
  8
0
  6
BYBLOCK
 62
     0
 10
-0.02973
 20
-10.035135
 30
0.0
 11
-0.02973
 21
-360.135156
 31
0.0
  0
LINE
  5
3EB
  8
0
  6
BYBLOCK
 62
     0
 10
299.970276
 20
-10.035135
 30
0.0
 11
299.970276
 21
-360.135156
 31
0.0
  0
LINE
  5
3EC
  8
0
  6
BYBLOCK
 62
     0
 10
9.97027
 20
-347.635156
 30
0.0
 11
289.970276
 21
-347.635156
 31
0.0
  0
INSERT
  5
3ED
  8
0
  6
BYBLOCK
 62
     0
  2
_ORIGIN
 10
-0.02973
 20
-347.635156
 30
0.0
 41
10.0
 42
10.0
 43
10.0
 50
180.0
  0
INSERT
  5
3EE
  8
0
  6
BYBLOCK
 62
     0
  2
_ORIGIN
 10
299.970276
 20
-347.635156
 30
0.0
 41
10.0
 42
10.0
 43
10.0
  0
TEXT
  5
3EF
  8
0
  6
BYBLOCK
 62
     0
 10
110.070276
 20
-337.635156
 30
0.0
 40
30.0
  1
300
 72
     1
 11
149.970276
 21
-337.635156
 31
0.0
  0
POINT
  5
3F0
  8
DEFPOINTS
  6
BYBLOCK
 62
     0
 10
-0.02973
 20
-0.035135
 30
0.0
  0
POINT
  5
3F1
  8
DEFPOINTS
  6
BYBLOCK
 62
     0
 10
299.970276
 20
-0.035135
 30
0.0
  0
POINT
  5
3F2
  8
DEFPOINTS
  6
BYBLOCK
 62
     0
 10
299.970276
 20
-347.635156
 30
0.0
  0
ENDBLK
  5
3F3
  8
0
  0
BLOCK
  8
0
  2
*D29
 70
     1
 10
0.0
 20
0.0
 30
0.0
  3
*D29
  1

  0
LINE
  5
3F6
  8
0
  6
BYBLOCK
 62
     0
 10
309.970276
 20
-0.035135
 30
0.0
 11
759.602258
 21
-0.035135
 31
0.0
  0
LINE
  5
3F7
  8
0
  6
BYBLOCK
 62
     0
 10
509.970276
 20
814.964844
 30
0.0
 11
759.602258
 21
814.964844
 31
0.0
  0
LINE
  5
3F8
  8
0
  6
BYBLOCK
 62
     0
 10
747.102258
 20
9.964865
 30
0.0
 11
747.102258
 21
804.964844
 31
0.0
  0
INSERT
  5
3F9
  8
0
  6
BYBLOCK
 62
     0
  2
_ORIGIN
 10
747.102258
 20
-0.035135
 30
0.0
 41
10.0
 42
10.0
 43
10.0
 50
270.0
  0
INSERT
  5
3FA
  8
0
  6
BYBLOCK
 62
     0
  2
_ORIGIN
 10
747.102258
 20
814.964844
 30
0.0
 41
10.0
 42
10.0
 43
10.0
 50
90.0
  0
TEXT
  5
3FB
  8
0
  6
BYBLOCK
 62
     0
 10
737.102258
 20
367.714874
 30
0.0
 40
30.0
  1
815
 50
90.0
 72
     1
 11
737.102258
 21
407.464874
 31
0.0
  0
POINT
  5
3FC
  8
DEFPOINTS
  6
BYBLOCK
 62
     0
 10
299.970276
 20
-0.035135
 30
0.0
  0
POINT
  5
3FD
  8
DEFPOINTS
  6
BYBLOCK
 62
     0
 10
499.970276
 20
814.964844
 30
0.0
  0
POINT
  5
3FE
  8
DEFPOINTS
  6
BYBLOCK
 62
     0
 10
747.102258
 20
814.964844
 30
0.0
  0
ENDBLK
  5
3FF
  8
0
  0
BLOCK
  8
0
  2
*D30
 70
     1
 10
0.0
 20
0.0
 30
0.0
  3
*D30
  1

  0
LINE
  5
402
  8
0
  6
BYBLOCK
 62
     0
 10
309.970276
 20
-0.035135
 30
0.0
 11
657.504358
 21
-0.035135
 31
0.0
  0
LINE
  5
403
  8
0
  6
BYBLOCK
 62
     0
 10
379.970276
 20
405.964874
 30
0.0
 11
657.504358
 21
405.964874
 31
0.0
  0
LINE
  5
404
  8
0
  6
BYBLOCK
 62
     0
 10
645.004358
 20
9.964865
 30
0.0
 11
645.004358
 21
395.964874
 31
0.0
  0
INSERT
  5
405
  8
0
  6
BYBLOCK
 62
     0
  2
_ORIGIN
 10
645.004358
 20
-0.035135
 30
0.0
 41
10.0
 42
10.0
 43
10.0
 50
270.0
  0
INSERT
  5
406
  8
0
  6
BYBLOCK
 62
     0
  2
_ORIGIN
 10
645.004358
 20
405.964874
 30
0.0
 41
10.0
 42
10.0
 43
10.0
 50
90.0
  0
TEXT
  5
407
  8
0
  6
BYBLOCK
 62
     0
 10
635.004358
 20
160.514859
 30
0.0
 40
30.0
  1
406
 50
90.0
 72
     1
 11
635.004358
 21
202.964859
 31
0.0
  0
POINT
  5
408
  8
DEFPOINTS
  6
BYBLOCK
 62
     0
 10
299.970276
 20
-0.035135
 30
0.0
  0
POINT
  5
409
  8
DEFPOINTS
  6
BYBLOCK
 62
     0
 10
369.970276
 20
405.964874
 30
0.0
  0
POINT
  5
40A
  8
DEFPOINTS
  6
BYBLOCK
 62
     0
 10
645.004358
 20
405.964874
 30
0.0
  0
ENDBLK
  5
40B
  8
0
  0
BLOCK
  8
0
  2
*D31
 70
     1
 10
0.0
 20
0.0
 30
0.0
  3
*D31
  1

  0
LINE
  5
40E
  8
0
  6
BYBLOCK
 62
     0
 10
299.970276
 20
824.964844
 30
0.0
 11
299.970276
 21
1079.864844
 31
0.0
  0
LINE
  5
40F
  8
0
  6
BYBLOCK
 62
     0
 10
-0.02973
 20
824.964844
 30
0.0
 11
-0.02973
 21
1079.864844
 31
0.0
  0
LINE
  5
410
  8
0
  6
BYBLOCK
 62
     0
 10
289.970276
 20
1067.364844
 30
0.0
 11
9.97027
 21
1067.364844
 31
0.0
  0
INSERT
  5
411
  8
0
  6
BYBLOCK
 62
     0
  2
_ORIGIN
 10
299.970276
 20
1067.364844
 30
0.0
 41
10.0
 42
10.0
 43
10.0
  0
INSERT
  5
412
  8
0
  6
BYBLOCK
 62
     0
  2
_ORIGIN
 10
-0.02973
 20
1067.364844
 30
0.0
 41
10.0
 42
10.0
 43
10.0
 50
180.0
  0
TEXT
  5
413
  8
0
  6
BYBLOCK
 62
     0
 10
110.070276
 20
1077.364844
 30
0.0
 40
30.0
  1
300
 72
     1
 11
149.970276
 21
1077.364844
 31
0.0
  0
POINT
  5
414
  8
DEFPOINTS
  6
BYBLOCK
 62
     0
 10
299.970276
 20
814.964844
 30
0.0
  0
POINT
  5
415
  8
DEFPOINTS
  6
BYBLOCK
 62
     0
 10
-0.02973
 20
814.964844
 30
0.0
  0
POINT
  5
416
  8
DEFPOINTS
  6
BYBLOCK
 62
     0
 10
-0.02973
 20
1067.364844
 30
0.0
  0
ENDBLK
  5
417
  8
0
  0
BLOCK
  8
0
  2
*D32
 70
     1
 10
0.0
 20
0.0
 30
0.0
  3
*D32
  1

  0
LINE
  5
41A
  8
0
  6
BYBLOCK
 62
     0
 10
341.970276
 20
7.964865
 30
0.0
 11
460.070276
 21
7.964865
 31
0.0
  0
LINE
  5
41B
  8
0
  6
BYBLOCK
 62
     0
 10
341.970276
 20
-0.035135
 30
0.0
 11
460.070276
 21
-0.035135
 31
0.0
  0
LINE
  5
41C
  8
0
  6
BYBLOCK
 62
     0
 10
447.570276
 20
-10.035135
 30
0.0
 11
447.570276
 21
-20.035135
 31
0.0
  0
LINE
  5
41D
  8
0
  6
BYBLOCK
 62
     0
 10
447.570276
 20
17.964865
 30
0.0
 11
447.570276
 21
74.35587
 31
0.0
  0
LINE
  5
41E
  8
0
  6
BYBLOCK
 62
     0
 10
447.570276
 20
-0.035135
 30
0.0
 11
447.570276
 21
7.964865
 31
0.0
  0
INSERT
  5
41F
  8
0
  6
BYBLOCK
 62
     0
  2
_ORIGIN
 10
447.570276
 20
-0.035135
 30
0.0
 41
10.0
 42
10.0
 43
10.0
 50
90.0
  0
INSERT
  5
420
  8
0
  6
BYBLOCK
 62
     0
  2
_ORIGIN
 10
447.570276
 20
7.964865
 30
0.0
 41
10.0
 42
10.0
 43
10.0
 50
270.0
  0
TEXT
  5
421
  8
0
  6
BYBLOCK
 62
     0
 10
437.570276
 20
39.35587
 30
0.0
 40
30.0
  1
8
 50
90.0
 72
     1
 11
437.570276
 21
54.35587
 31
0.0
  0
POINT
  5
422
  8
DEFPOINTS
  6
BYBLOCK
 62
     0
 10
331.970276
 20
7.964865
 30
0.0
  0
POINT
  5
423
  8
DEFPOINTS
  6
BYBLOCK
 62
     0
 10
331.970276
 20
-0.035135
 30
0.0
  0
POINT
  5
424
  8
DEFPOINTS
  6
BYBLOCK
 62
     0
 10
447.570276
 20
-0.035135
 30
0.0
  0
ENDBLK
  5
425
  8
0
  0
BLOCK
  8
0
  2
*D33
 70
     1
 10
0.0
 20
0.0
 30
0.0
  3
*D33
  1

  0
LINE
  5
428
  8
0
  6
BYBLOCK
 62
     0
 10
-100.029732
 20
824.964844
 30
0.0
 11
-100.029732
 21
1079.864844
 31
0.0
  0
LINE
  5
429
  8
0
  6
BYBLOCK
 62
     0
 10
-0.02973
 20
824.964844
 30
0.0
 11
-0.02973
 21
1079.864844
 31
0.0
  0
LINE
  5
42A
  8
0
  6
BYBLOCK
 62
     0
 10
-90.029732
 20
1067.364844
 30
0.0
 11
-10.02973
 21
1067.364844
 31
0.0
  0
INSERT
  5
42B
  8
0
  6
BYBLOCK
 62
     0
  2
_ORIGIN
 10
-100.029732
 20
1067.364844
 30
0.0
 41
10.0
 42
10.0
 43
10.0
 50
180.0
  0
INSERT
  5
42C
  8
0
  6
BYBLOCK
 62
     0
  2
_ORIGIN
 10
-0.02973
 20
1067.364844
 30
0.0
 41
10.0
 42
10.0
 43
10.0
  0
TEXT
  5
42D
  8
0
  6
BYBLOCK
 62
     0
 10
-84.679732
 20
1077.364844
 30
0.0
 40
30.0
  1
100
 72
     1
 11
-50.029732
 21
1077.364844
 31
0.0
  0
POINT
  5
42E
  8
DEFPOINTS
  6
BYBLOCK
 62
     0
 10
-100.029732
 20
814.964844
 30
0.0
  0
POINT
  5
42F
  8
DEFPOINTS
  6
BYBLOCK
 62
     0
 10
-0.02973
 20
814.964844
 30
0.0
  0
POINT
  5
430
  8
DEFPOINTS
  6
BYBLOCK
 62
     0
 10
-0.02973
 20
1067.364844
 30
0.0
  0
ENDBLK
  5
431
  8
0
  0
BLOCK
  8
0
  2
*D34
 70
     1
 10
0.0
 20
0.0
 30
0.0
  3
*D34
  1

  0
LINE
  5
434
  8
0
  6
BYBLOCK
 62
     0
 10
499.970276
 20
824.964844
 30
0.0
 11
499.970276
 21
1079.864844
 31
0.0
  0
LINE
  5
435
  8
0
  6
BYBLOCK
 62
     0
 10
299.970276
 20
824.964844
 30
0.0
 11
299.970276
 21
1079.864844
 31
0.0
  0
LINE
  5
436
  8
0
  6
BYBLOCK
 62
     0
 10
489.970276
 20
1067.364844
 30
0.0
 11
309.970276
 21
1067.364844
 31
0.0
  0
INSERT
  5
437
  8
0
  6
BYBLOCK
 62
     0
  2
_ORIGIN
 10
499.970276
 20
1067.364844
 30
0.0
 41
10.0
 42
10.0
 43
10.0
  0
INSERT
  5
438
  8
0
  6
BYBLOCK
 62
     0
  2
_ORIGIN
 10
299.970276
 20
1067.364844
 30
0.0
 41
10.0
 42
10.0
 43
10.0
 50
180.0
  0
TEXT
  5
439
  8
0
  6
BYBLOCK
 62
     0
 10
360.070276
 20
1077.364844
 30
0.0
 40
30.0
  1
200
 72
     1
 11
399.970276
 21
1077.364844
 31
0.0
  0
POINT
  5
43A
  8
DEFPOINTS
  6
BYBLOCK
 62
     0
 10
499.970276
 20
814.964844
 30
0.0
  0
POINT
  5
43B
  8
DEFPOINTS
  6
BYBLOCK
 62
     0
 10
299.970276
 20
814.964844
 30
0.0
  0
POINT
  5
43C
  8
DEFPOINTS
  6
BYBLOCK
 62
     0
 10
299.970276
 20
1067.364844
 30
0.0
  0
ENDBLK
  5
43D
  8
0
  0
BLOCK
  8
0
  2
*D35
 70
     1
 10
0.0
 20
0.0
 30
0.0
  3
*D35
  1

  0
LINE
  5
440
  8
0
  6
BYBLOCK
 62
     0
 10
-0.02973
 20
719.964844
 30
0.0
 11
-0.02973
 21
929.864844
 31
0.0
  0
LINE
  5
441
  8
0
  6
BYBLOCK
 62
     0
 10
-16.02973
 20
684.964844
 30
0.0
 11
-16.02973
 21
929.864844
 31
0.0
  0
LINE
  5
442
  8
0
  6
BYBLOCK
 62
     0
 10
-26.02973
 20
917.364844
 30
0.0
 11
-36.02973
 21
917.364844
 31
0.0
  0
LINE
  5
443
  8
0
  6
BYBLOCK
 62
     0
 10
9.97027
 20
917.364844
 30
0.0
 11
83.300205
 21
917.364844
 31
0.0
  0
LINE
  5
444
  8
0
  6
BYBLOCK
 62
     0
 10
-16.02973
 20
917.364844
 30
0.0
 11
-0.02973
 21
917.364844
 31
0.0
  0
INSERT
  5
445
  8
0
  6
BYBLOCK
 62
     0
  2
_ORIGIN
 10
-16.02973
 20
917.364844
 30
0.0
 41
10.0
 42
10.0
 43
10.0
  0
INSERT
  5
446
  8
0
  6
BYBLOCK
 62
     0
  2
_ORIGIN
 10
-0.02973
 20
917.364844
 30
0.0
 41
10.0
 42
10.0
 43
10.0
 50
180.0
  0
TEXT
  5
447
  8
0
  6
BYBLOCK
 62
     0
 10
28.550205
 20
927.364844
 30
0.0
 40
30.0
  1
16
 72
     1
 11
53.300205
 21
927.364844
 31
0.0
  0
POINT
  5
448
  8
DEFPOINTS
  6
BYBLOCK
 62
     0
 10
-0.02973
 20
709.964844
 30
0.0
  0
POINT
  5
449
  8
DEFPOINTS
  6
BYBLOCK
 62
     0
 10
-16.02973
 20
674.964844
 30
0.0
  0
POINT
  5
44A
  8
DEFPOINTS
  6
BYBLOCK
 62
     0
 10
-16.02973
 20
917.364844
 30
0.0
  0
ENDBLK
  5
44B
  8
0
  0
BLOCK
  8
0
  2
*D36
 70
     1
 10
0.0
 20
0.0
 30
0.0
  3
*D36
  1

  0
LINE
  5
44E
  8
0
  6
BYBLOCK
 62
     0
 10
48.170269
 20
-71.035133
 30
0.0
 11
48.170269
 21
-160.135156
 31
0.0
  0
LINE
  5
44F
  8
0
  6
BYBLOCK
 62
     0
 10
-0.02973
 20
-10.035135
 30
0.0
 11
-0.02973
 21
-160.135156
 31
0.0
  0
LINE
  5
450
  8
0
  6
BYBLOCK
 62
     0
 10
38.170269
 20
-147.635156
 30
0.0
 11
9.97027
 21
-147.635156
 31
0.0
  0
INSERT
  5
451
  8
0
  6
BYBLOCK
 62
     0
  2
_ORIGIN
 10
48.170269
 20
-147.635156
 30
0.0
 41
10.0
 42
10.0
 43
10.0
  0
INSERT
  5
452
  8
0
  6
BYBLOCK
 62
     0
  2
_ORIGIN
 10
-0.02973
 20
-147.635156
 30
0.0
 41
10.0
 42
10.0
 43
10.0
 50
180.0
  0
TEXT
  5
453
  8
0
  6
BYBLOCK
 62
     0
 10
-5.92973
 20
-137.635156
 30
0.0
 40
30.0
  1
48
 72
     1
 11
24.07027
 21
-137.635156
 31
0.0
  0
POINT
  5
454
  8
DEFPOINTS
  6
BYBLOCK
 62
     0
 10
48.170269
 20
-61.035133
 30
0.0
  0
POINT
  5
455
  8
DEFPOINTS
  6
BYBLOCK
 62
     0
 10
-0.02973
 20
-0.035135
 30
0.0
  0
POINT
  5
456
  8
DEFPOINTS
  6
BYBLOCK
 62
     0
 10
-0.02973
 20
-147.635156
 30
0.0
  0
ENDBLK
  5
457
  8
0
  0
BLOCK
  8
0
  2
*D37
 70
     1
 10
0.0
 20
0.0
 30
0.0
  3
*D37
  1

  0
LINE
  5
45A
  8
0
  6
BYBLOCK
 62
     0
 10
18.170271
 20
-41.035133
 30
0.0
 11
-271.75141
 21
-41.035133
 31
0.0
  0
LINE
  5
45B
  8
0
  6
BYBLOCK
 62
     0
 10
-10.02973
 20
-0.035135
 30
0.0
 11
-271.75141
 21
-0.035135
 31
0.0
  0
LINE
  5
45C
  8
0
  6
BYBLOCK
 62
     0
 10
-259.25141
 20
-31.035133
 30
0.0
 11
-259.25141
 21
-10.035135
 31
0.0
  0
INSERT
  5
45D
  8
0
  6
BYBLOCK
 62
     0
  2
_ORIGIN
 10
-259.25141
 20
-41.035133
 30
0.0
 41
10.0
 42
10.0
 43
10.0
 50
270.0
  0
INSERT
  5
45E
  8
0
  6
BYBLOCK
 62
     0
  2
_ORIGIN
 10
-259.25141
 20
-0.035135
 30
0.0
 41
10.0
 42
10.0
 43
10.0
 50
90.0
  0
TEXT
  5
45F
  8
0
  6
BYBLOCK
 62
     0
 10
-269.25141
 20
-45.285134
 30
0.0
 40
30.0
  1
41
 50
90.0
 72
     1
 11
-269.25141
 21
-20.535134
 31
0.0
  0
POINT
  5
460
  8
DEFPOINTS
  6
BYBLOCK
 62
     0
 10
28.170271
 20
-41.035133
 30
0.0
  0
POINT
  5
461
  8
DEFPOINTS
  6
BYBLOCK
 62
     0
 10
-0.02973
 20
-0.035135
 30
0.0
  0
POINT
  5
462
  8
DEFPOINTS
  6
BYBLOCK
 62
     0
 10
-259.25141
 20
-0.035135
 30
0.0
  0
ENDBLK
  5
463
  8
0
  0
ENDSEC
  0
SECTION
  2
ENTITIES
  0
LINE
  5
464
  8
OUTLINE
  6
CONTINUOUS
 10
293.035899
 20
8.0
 30
0.0
 11
286.107695
 21
20.0
 31
0.0
  0
LINE
  5
465
  8
OUTLINE
  6
CONTINUOUS
 10
6.964102
 20
8.0
 30
0.0
 11
13.892305
 21
20.0
 31
0.0
  0
LINE
  5
466
  8
OUTLINE
  6
CONTINUOUS
 10
332.0
 20
8.0
 30
0.0
 11
332.0
 21
0.0
 31
0.0
  0
LINE
  5
467
  8
OUTLINE
  6
CONTINUOUS
 10
-28.0
 20
8.0
 30
0.0
 11
-28.0
 21
0.0
 31
0.0
  0
LINE
  5
468
  8
OUTLINE
  6
CONTINUOUS
 10
-27.97
 20
0.0
 30
0.0
 11
332.0
 21
0.0
 31
0.0
  0
LINE
  5
469
  8
OUTLINE
  6
CONTINUOUS
 10
300.0
 20
20.0
 30
0.0
 11
0.0
 21
20.0
 31
0.0
  0
ARC
  5
46A
  8
OUTLINE
  6
CONTINUOUS
 10
295.0
 20
710.0
 30
0.0
 40
5.0
 50
0.0
 51
90.0
  0
LINE
  5
46B
  8
OUTLINE
  6
CONTINUOUS
 10
300.0
 20
710.0
 30
0.0
 11
300.0
 21
20.0
 31
0.0
  0
LINE
  5
46C
  8
OUTLINE
  6
CONTINUOUS
 10
295.0
 20
715.0
 30
0.0
 11
5.0
 21
715.0
 31
0.0
  0
LINE
  5
46D
  8
OUTLINE
  6
CONTINUOUS
 10
0.0
 20
20.0
 30
0.0
 11
0.0
 21
710.0
 31
0.0
  0
ARC
  5
46E
  8
OUTLINE
  6
CONTINUOUS
 10
5.0
 20
710.0
 30
0.0
 40
5.0
 50
90.0
 51
180.0
  0
LINE
  5
46F
  8
OUTLINE
  6
CONTINUOUS
 10
-16.0
 20
675.0
 30
0.0
 11
0.0
 21
675.0
 31
0.0
  0
LINE
  5
470
  8
OUTLINE
  6
CONTINUOUS
 10
-16.0
 20
625.0
 30
0.0
 11
-16.0
 21
675.0
 31
0.0
  0
LINE
  5
471
  8
OUTLINE
  6
CONTINUOUS
 10
-16.0
 20
625.0
 30
0.0
 11
0.0
 21
625.0
 31
0.0
  0
LINE
  5
472
  8
OUTLINE
  6
CONTINUOUS
 10
-16.0
 20
625.0
 30
0.0
 11
0.0
 21
625.0
 31
0.0
  0
LINE
  5
473
  8
OUTLINE
  6
CONTINUOUS
 10
-27.97
 20
8.0
 30
0.0
 11
332.0
 21
8.0
 31
0.0
  0
LINE
  5
474
  8
DETAIL
  6
CONTINUOUS
 10
35.03
 20
-41.0
 30
0.0
 11
61.53
 21
-41.0
 31
0.0
  0
LINE
  5
475
  8
DETAIL
  6
CONTINUOUS
 10
61.53
 20
-41.0
 30
0.0
 11
61.53
 21
0.0
 31
0.0
  0
LINE
  5
476
  8
DETAIL
  6
CONTINUOUS
 10
35.03
 20
-41.0
 30
0.0
 11
35.03
 21
0.0
 31
0.0
  0
LINE
  5
477
  8
DETAIL
  6
CONTINUOUS
 10
6.964102
 20
8.0
 30
0.0
 11
13.892305
 21
20.0
 31
0.0
  0
ARC
  5
478
  8
DETAIL
  6
CONTINUOUS
 10
5.0
 20
710.0
 30
0.0
 40
5.0
 50
90.0
 51
180.0
  0
LINE
  5
479
  8
DETAIL
  6
CONTINUOUS
 10
0.0
 20
20.0
 30
0.0
 11
0.0
 21
710.0
 31
0.0
  0
LINE
  5
47A
  8
DETAIL
  6
CONTINUOUS
 10
320.0
 20
142.0
 30
0.0
 11
320.0
 21
670.0
 31
0.0
  0
LINE
  5
47B
  8
DETAIL
  6
CONTINUOUS
 10
300.0
 20
670.0
 30
0.0
 11
320.0
 21
670.0
 31
0.0
  0
LINE
  5
47C
  8
DETAIL
  6
CONTINUOUS
 10
300.0
 20
142.0
 30
0.0
 11
320.0
 21
142.0
 31
0.0
  0
LINE
  5
47D
  8
DETAIL
  6
CONTINUOUS
 10
-27.97
 20
0.0
 30
0.0
 11
332.0
 21
0.0
 31
0.0
  0
LINE
  5
47E
  8
DETAIL
  6
CONTINUOUS
 10
295.0
 20
715.0
 30
0.0
 11
5.0
 21
715.0
 31
0.0
  0
LINE
  5
47F
  8
DETAIL
  6
CONTINUOUS
 10
-27.97
 20
8.0
 30
0.0
 11
-27.97
 21
0.0
 31
0.0
  0
LINE
  5
480
  8
DETAIL
  6
CONTINUOUS
 10
332.0
 20
8.0
 30
0.0
 11
332.0
 21
0.0
 31
0.0
  0
LINE
  5
481
  8
DETAIL
  6
CONTINUOUS
 10
300.0
 20
710.0
 30
0.0
 11
300.0
 21
20.0
 31
0.0
  0
LINE
  5
482
  8
DETAIL
  6
CONTINUOUS
 10
300.0
 20
20.0
 30
0.0
 11
0.0
 21
20.0
 31
0.0
  0
LINE
  5
483
  8
DETAIL
  6
CONTINUOUS
 10
-27.97
 20
8.0
 30
0.0
 11
332.0
 21
8.0
 31
0.0
  0
ARC
  5
484
  8
DETAIL
  6
CONTINUOUS
 10
295.0
 20
710.0
 30
0.0
 40
5.0
 50
0.0
 51
90.0
  0
LINE
  5
485
  8
DETAIL
  6
CONTINUOUS
 10
300.0
 20
690.0
 30
0.0
 11
0.0
 21
690.0
 31
0.0
  0
LINE
  5
486
  8
DETAIL
  6
CONTINUOUS
 10
293.035899
 20
8.0
 30
0.0
 11
286.107695
 21
20.0
 31
0.0
  0
LINE
  5
487
  8
DETAIL
  6
CONTINUOUS
 10
-16.0
 20
625.0
 30
0.0
 11
0.0
 21
625.0
 31
0.0
  0
LINE
  5
488
  8
DETAIL
  6
CONTINUOUS
 10
-16.0
 20
675.0
 30
0.0
 11
0.0
 21
675.0
 31
0.0
  0
LINE
  5
489
  8
DETAIL
  6
CONTINUOUS
 10
-16.0
 20
625.0
 30
0.0
 11
-16.0
 21
675.0
 31
0.0
  0
LINE
  5
48A
  8
DETAIL
  6
CONTINUOUS
 10
170.0
 20
680.0
 30
0.0
 11
105.0
 21
680.0
 31
0.0
  0
LINE
  5
48B
  8
DETAIL
  6
CONTINUOUS
 10
95.0
 20
690.0
 30
0.0
 11
105.0
 21
680.0
 31
0.0
  0
LINE
  5
48C
  8
DETAIL
  6
CONTINUOUS
 10
180.0
 20
690.0
 30
0.0
 11
170.0
 21
680.0
 31
0.0
  0
LINE
  5
48D
  8
BASIS
  6
DASHDOT
 10
250.0
 20
406.0
 30
0.0
 11
370.0
 21
406.0
 31
0.0
  0
LINE
  5
48E
  8
SIZE
  6
CONTINUOUS
 62
    30
 10
18.200001
 20
-40.99999800000001
 30
0.0
 11
-271.72168
 21
-40.99999800000001
 31
0.0
  0
LINE
  5
48F
  8
SIZE
  6
CONTINUOUS
 62
    30
 10
-10.0
 20
0.0
 30
0.0
 11
-271.72168
 21
0.0
 31
0.0
  0
LINE
  5
490
  8
SIZE
  6
CONTINUOUS
 62
    30
 10
-259.22168
 20
-30.999998
 30
0.0
 11
-259.22168
 21
-10.0
 31
0.0
  0
CIRCLE
  5
491
  8
SIZE
  6
CONTINUOUS
 62
    30
 10
-259.22168
 20
-40.99999800000001
 30
0.0
 40
5.0
  0
LINE
  5
492
  8
SIZE
  6
CONTINUOUS
 62
    30
 10
-259.22168
 20
-40.99999800000001
 30
0.0
 11
-259.22168
 21
-30.999998
 31
0.0
  0
CIRCLE
  5
493
  8
SIZE
  6
CONTINUOUS
 62
    30
 10
-259.22168
 20
0.0
 30
0.0
 40
5.0
  0
LINE
  5
494
  8
SIZE
  6
CONTINUOUS
 62
    30
 10
-259.22168
 20
0.0
 30
0.0
 11
-259.22168
 21
-10.0
 31
0.0
  0
TEXT
  5
495
  8
SIZE
  6
CONTINUOUS
 62
    30
 10
-269.22168
 20
-44.78571328571429
 30
0.0
 40
30.0
  1
41
 50
90.0
 72
     1
 11
-269.22168
 21
-20.499999
 31
0.0
  0
POINT
  5
496
  8
DEFPOINTS
  6
CONTINUOUS
 62
    30
 10
28.200001
 20
-40.99999800000001
 30
0.0
  0
POINT
  5
497
  8
DEFPOINTS
  6
CONTINUOUS
 62
    30
 10
0.0
 20
0.0
 30
0.0
  0
POINT
  5
498
  8
DEFPOINTS
  6
CONTINUOUS
 62
    30
 10
-259.22168
 20
0.0
 30
0.0
  0
LINE
  5
499
  8
SIZE
  6
CONTINUOUS
 62
    30
 10
48.199999
 20
-70.999998
 30
0.0
 11
48.199999
 21
-160.100021
 31
0.0
  0
LINE
  5
49A
  8
SIZE
  6
CONTINUOUS
 62
    30
 10
0.0
 20
-10.0
 30
0.0
 11
0.0
 21
-160.100021
 31
0.0
  0
LINE
  5
49B
  8
SIZE
  6
CONTINUOUS
 62
    30
 10
38.199999
 20
-147.600021
 30
0.0
 11
10.0
 21
-147.600021
 31
0.0
  0
CIRCLE
  5
49C
  8
SIZE
  6
CONTINUOUS
 62
    30
 10
48.199999
 20
-147.600021
 30
0.0
 40
5.0
  0
LINE
  5
49D
  8
SIZE
  6
CONTINUOUS
 62
    30
 10
48.199999
 20
-147.600021
 30
0.0
 11
38.199999
 21
-147.600021
 31
0.0
  0
CIRCLE
  5
49E
  8
SIZE
  6
CONTINUOUS
 62
    30
 10
0.0
 20
-147.600021
 30
0.0
 40
5.0
  0
LINE
  5
49F
  8
SIZE
  6
CONTINUOUS
 62
    30
 10
0.0
 20
-147.600021
 30
0.0
 11
10.0
 21
-147.600021
 31
0.0
  0
TEXT
  5
4A0
  8
SIZE
  6
CONTINUOUS
 62
    30
 10
-4.471428571428572
 20
-137.600021
 30
0.0
 40
30.0
  1
48
 72
     1
 11
24.1
 21
-137.600021
 31
0.0
  0
POINT
  5
4A1
  8
DEFPOINTS
  6
CONTINUOUS
 62
    30
 10
48.199999
 20
-60.99999800000001
 30
0.0
  0
POINT
  5
4A2
  8
DEFPOINTS
  6
CONTINUOUS
 62
    30
 10
0.0
 20
0.0
 30
0.0
  0
POINT
  5
4A3
  8
DEFPOINTS
  6
CONTINUOUS
 62
    30
 10
0.0
 20
-147.600021
 30
0.0
  0
LINE
  5
4A4
  8
SIZE
  6
CONTINUOUS
 62
    30
 10
0.0
 20
719.9999789999999
 30
0.0
 11
0.0
 21
929.8999789999999
 31
0.0
  0
LINE
  5
4A5
  8
SIZE
  6
CONTINUOUS
 62
    30
 10
-16.0
 20
684.9999789999999
 30
0.0
 11
-16.0
 21
929.8999789999999
 31
0.0
  0
LINE
  5
4A6
  8
SIZE
  6
CONTINUOUS
 62
    30
 10
-26.0
 20
917.3999789999999
 30
0.0
 11
-36.0
 21
917.3999789999999
 31
0.0
  0
LINE
  5
4A7
  8
SIZE
  6
CONTINUOUS
 62
    30
 10
10.0
 20
917.3999789999999
 30
0.0
 11
83.329935
 21
917.3999789999999
 31
0.0
  0
LINE
  5
4A8
  8
SIZE
  6
CONTINUOUS
 62
    30
 10
-16.0
 20
917.3999789999999
 30
0.0
 11
0.0
 21
917.3999789999999
 31
0.0
  0
CIRCLE
  5
4A9
  8
SIZE
  6
CONTINUOUS
 62
    30
 10
-16.0
 20
917.3999789999999
 30
0.0
 40
5.0
  0
LINE
  5
4AA
  8
SIZE
  6
CONTINUOUS
 62
    30
 10
-16.0
 20
917.3999789999999
 30
0.0
 11
-26.0
 21
917.3999789999999
 31
0.0
  0
CIRCLE
  5
4AB
  8
SIZE
  6
CONTINUOUS
 62
    30
 10
0.0
 20
917.3999789999999
 30
0.0
 40
5.0
  0
LINE
  5
4AC
  8
SIZE
  6
CONTINUOUS
 62
    30
 10
0.0
 20
917.3999789999999
 30
0.0
 11
10.0
 21
917.3999789999999
 31
0.0
  0
TEXT
  5
4AD
  8
SIZE
  6
CONTINUOUS
 62
    30
 10
22.61564928571428
 20
927.3999789999999
 30
0.0
 40
30.0
  1
16
 72
     1
 11
53.329935
 21
927.3999789999999
 31
0.0
  0
POINT
  5
4AE
  8
DEFPOINTS
  6
CONTINUOUS
 62
    30
 10
0.0
 20
709.9999789999999
 30
0.0
  0
POINT
  5
4AF
  8
DEFPOINTS
  6
CONTINUOUS
 62
    30
 10
-16.0
 20
674.9999789999999
 30
0.0
  0
POINT
  5
4B0
  8
DEFPOINTS
  6
CONTINUOUS
 62
    30
 10
-16.0
 20
917.3999789999999
 30
0.0
  0
LINE
  5
4B1
  8
SIZE
  6
CONTINUOUS
 62
    30
 10
500.000006
 20
824.9999789999999
 30
0.0
 11
500.000006
 21
1079.899979
 31
0.0
  0
LINE
  5
4B2
  8
SIZE
  6
CONTINUOUS
 62
    30
 10
300.000006
 20
824.9999789999999
 30
0.0
 11
300.000006
 21
1079.899979
 31
0.0
  0
LINE
  5
4B3
  8
SIZE
  6
CONTINUOUS
 62
    30
 10
490.000006
 20
1067.399979
 30
0.0
 11
310.000006
 21
1067.399979
 31
0.0
  0
CIRCLE
  5
4B4
  8
SIZE
  6
CONTINUOUS
 62
    30
 10
500.000006
 20
1067.399979
 30
0.0
 40
5.0
  0
LINE
  5
4B5
  8
SIZE
  6
CONTINUOUS
 62
    30
 10
500.000006
 20
1067.399979
 30
0.0
 11
490.000006
 21
1067.399979
 31
0.0
  0
CIRCLE
  5
4B6
  8
SIZE
  6
CONTINUOUS
 62
    30
 10
300.000006
 20
1067.399979
 30
0.0
 40
5.0
  0
LINE
  5
4B7
  8
SIZE
  6
CONTINUOUS
 62
    30
 10
300.000006
 20
1067.399979
 30
0.0
 11
310.000006
 21
1067.399979
 31
0.0
  0
TEXT
  5
4B8
  8
SIZE
  6
CONTINUOUS
 62
    30
 10
357.1428631428571
 20
1077.399979
 30
0.0
 40
30.0
  1
200
 72
     1
 11
400.000006
 21
1077.399979
 31
0.0
  0
POINT
  5
4B9
  8
DEFPOINTS
  6
CONTINUOUS
 62
    30
 10
500.000006
 20
814.9999789999999
 30
0.0
  0
POINT
  5
4BA
  8
DEFPOINTS
  6
CONTINUOUS
 62
    30
 10
300.000006
 20
814.9999789999999
 30
0.0
  0
POINT
  5
4BB
  8
DEFPOINTS
  6
CONTINUOUS
 62
    30
 10
300.000006
 20
1067.399979
 30
0.0
  0
LINE
  5
4BC
  8
SIZE
  6
CONTINUOUS
 62
    30
 10
-100.000002
 20
824.9999789999999
 30
0.0
 11
-100.000002
 21
1079.899979
 31
0.0
  0
LINE
  5
4BD
  8
SIZE
  6
CONTINUOUS
 62
    30
 10
0.0
 20
824.9999789999999
 30
0.0
 11
0.0
 21
1079.899979
 31
0.0
  0
LINE
  5
4BE
  8
SIZE
  6
CONTINUOUS
 62
    30
 10
-90.000002
 20
1067.399979
 30
0.0
 11
-10.0
 21
1067.399979
 31
0.0
  0
CIRCLE
  5
4BF
  8
SIZE
  6
CONTINUOUS
 62
    30
 10
-100.000002
 20
1067.399979
 30
0.0
 40
5.0
  0
LINE
  5
4C0
  8
SIZE
  6
CONTINUOUS
 62
    30
 10
-100.000002
 20
1067.399979
 30
0.0
 11
-90.000002
 21
1067.399979
 31
0.0
  0
CIRCLE
  5
4C1
  8
SIZE
  6
CONTINUOUS
 62
    30
 10
0.0
 20
1067.399979
 30
0.0
 40
5.0
  0
LINE
  5
4C2
  8
SIZE
  6
CONTINUOUS
 62
    30
 10
0.0
 20
1067.399979
 30
0.0
 11
-10.0
 21
1067.399979
 31
0.0
  0
TEXT
  5
4C3
  8
SIZE
  6
CONTINUOUS
 62
    30
 10
-95.000002
 20
1077.399979
 30
0.0
 40
30.0
  1
100
 72
     1
 11
-50.000002
 21
1077.399979
 31
0.0
  0
POINT
  5
4C4
  8
DEFPOINTS
  6
CONTINUOUS
 62
    30
 10
-100.000002
 20
814.9999789999999
 30
0.0
  0
POINT
  5
4C5
  8
DEFPOINTS
  6
CONTINUOUS
 62
    30
 10
0.0
 20
814.9999789999999
 30
0.0
  0
POINT
  5
4C6
  8
DEFPOINTS
  6
CONTINUOUS
 62
    30
 10
0.0
 20
1067.399979
 30
0.0
  0
LINE
  5
4C7
  8
SIZE
  6
CONTINUOUS
 62
    30
 10
342.000006
 20
8.0
 30
0.0
 11
460.100006
 21
8.0
 31
0.0
  0
LINE
  5
4C8
  8
SIZE
  6
CONTINUOUS
 62
    30
 10
342.000006
 20
0.0
 30
0.0
 11
460.100006
 21
0.0
 31
0.0
  0
LINE
  5
4C9
  8
SIZE
  6
CONTINUOUS
 62
    30
 10
447.600006
 20
-10.0
 30
0.0
 11
447.600006
 21
-20.0
 31
0.0
  0
LINE
  5
4CA
  8
SIZE
  6
CONTINUOUS
 62
    30
 10
447.600006
 20
18.0
 30
0.0
 11
447.600006
 21
74.39100499999999
 31
0.0
  0
LINE
  5
4CB
  8
SIZE
  6
CONTINUOUS
 62
    30
 10
447.600006
 20
0.0
 30
0.0
 11
447.600006
 21
8.0
 31
0.0
  0
CIRCLE
  5
4CC
  8
SIZE
  6
CONTINUOUS
 62
    30
 10
447.600006
 20
0.0
 30
0.0
 40
5.0
  0
LINE
  5
4CD
  8
SIZE
  6
CONTINUOUS
 62
    30
 10
447.600006
 20
0.0
 30
0.0
 11
447.600006
 21
-10.0
 31
0.0
  0
CIRCLE
  5
4CE
  8
SIZE
  6
CONTINUOUS
 62
    30
 10
447.600006
 20
8.0
 30
0.0
 40
5.0
  0
LINE
  5
4CF
  8
SIZE
  6
CONTINUOUS
 62
    30
 10
447.600006
 20
8.0
 30
0.0
 11
447.600006
 21
18.0
 31
0.0
  0
TEXT
  5
4D0
  8
SIZE
  6
CONTINUOUS
 62
    30
 10
437.600006
 20
40.10529071428572
 30
0.0
 40
30.0
  1
8
 50
90.0
 72
     1
 11
437.600006
 21
54.391005
 31
0.0
  0
POINT
  5
4D1
  8
DEFPOINTS
  6
CONTINUOUS
 62
    30
 10
332.000006
 20
8.0
 30
0.0
  0
POINT
  5
4D2
  8
DEFPOINTS
  6
CONTINUOUS
 62
    30
 10
332.000006
 20
0.0
 30
0.0
  0
POINT
  5
4D3
  8
DEFPOINTS
  6
CONTINUOUS
 62
    30
 10
447.600006
 20
0.0
 30
0.0
  0
LINE
  5
4D4
  8
SIZE
  6
CONTINUOUS
 62
    30
 10
300.000006
 20
824.9999789999999
 30
0.0
 11
300.000006
 21
1079.899979
 31
0.0
  0
LINE
  5
4D5
  8
SIZE
  6
CONTINUOUS
 62
    30
 10
0.0
 20
824.9999789999999
 30
0.0
 11
0.0
 21
1079.899979
 31
0.0
  0
LINE
  5
4D6
  8
SIZE
  6
CONTINUOUS
 62
    30
 10
290.000006
 20
1067.399979
 30
0.0
 11
10.0
 21
1067.399979
 31
0.0
  0
CIRCLE
  5
4D7
  8
SIZE
  6
CONTINUOUS
 62
    30
 10
300.000006
 20
1067.399979
 30
0.0
 40
5.0
  0
LINE
  5
4D8
  8
SIZE
  6
CONTINUOUS
 62
    30
 10
300.000006
 20
1067.399979
 30
0.0
 11
290.000006
 21
1067.399979
 31
0.0
  0
CIRCLE
  5
4D9
  8
SIZE
  6
CONTINUOUS
 62
    30
 10
0.0
 20
1067.399979
 30
0.0
 40
5.0
  0
LINE
  5
4DA
  8
SIZE
  6
CONTINUOUS
 62
    30
 10
0.0
 20
1067.399979
 30
0.0
 11
10.0
 21
1067.399979
 31
0.0
  0
TEXT
  5
4DB
  8
SIZE
  6
CONTINUOUS
 62
    30
 10
107.1428631428572
 20
1077.399979
 30
0.0
 40
30.0
  1
300
 72
     1
 11
150.000006
 21
1077.399979
 31
0.0
  0
POINT
  5
4DC
  8
DEFPOINTS
  6
CONTINUOUS
 62
    30
 10
300.000006
 20
814.9999789999999
 30
0.0
  0
POINT
  5
4DD
  8
DEFPOINTS
  6
CONTINUOUS
 62
    30
 10
0.0
 20
814.9999789999999
 30
0.0
  0
POINT
  5
4DE
  8
DEFPOINTS
  6
CONTINUOUS
 62
    30
 10
0.0
 20
1067.399979
 30
0.0
  0
LINE
  5
4DF
  8
SIZE
  6
CONTINUOUS
 62
    30
 10
310.000006
 20
0.0
 30
0.0
 11
657.534088
 21
0.0
 31
0.0
  0
LINE
  5
4E0
  8
SIZE
  6
CONTINUOUS
 62
    30
 10
380.000006
 20
406.000009
 30
0.0
 11
657.534088
 21
406.000009
 31
0.0
  0
LINE
  5
4E1
  8
SIZE
  6
CONTINUOUS
 62
    30
 10
645.034088
 20
10.0
 30
0.0
 11
645.034088
 21
396.000009
 31
0.0
  0
CIRCLE
  5
4E2
  8
SIZE
  6
CONTINUOUS
 62
    30
 10
645.034088
 20
0.0
 30
0.0
 40
5.0
  0
LINE
  5
4E3
  8
SIZE
  6
CONTINUOUS
 62
    30
 10
645.034088
 20
0.0
 30
0.0
 11
645.034088
 21
10.0
 31
0.0
  0
CIRCLE
  5
4E4
  8
SIZE
  6
CONTINUOUS
 62
    30
 10
645.034088
 20
406.000009
 30
0.0
 40
5.0
  0
LINE
  5
4E5
  8
SIZE
  6
CONTINUOUS
 62
    30
 10
645.034088
 20
406.000009
 30
0.0
 11
645.034088
 21
396.000009
 31
0.0
  0
TEXT
  5
4E6
  8
SIZE
  6
CONTINUOUS
 62
    30
 10
635.034088
 20
160.1428511428571
 30
0.0
 40
30.0
  1
406
 50
90.0
 72
     1
 11
635.034088
 21
202.999994
 31
0.0
  0
POINT
  5
4E7
  8
DEFPOINTS
  6
CONTINUOUS
 62
    30
 10
300.000006
 20
0.0
 30
0.0
  0
POINT
  5
4E8
  8
DEFPOINTS
  6
CONTINUOUS
 62
    30
 10
370.000006
 20
406.000009
 30
0.0
  0
POINT
  5
4E9
  8
DEFPOINTS
  6
CONTINUOUS
 62
    30
 10
645.034088
 20
406.000009
 30
0.0
  0
LINE
  5
4EA
  8
SIZE
  6
CONTINUOUS
 62
    30
 10
310.000006
 20
0.0
 30
0.0
 11
759.631988
 21
0.0
 31
0.0
  0
LINE
  5
4EB
  8
SIZE
  6
CONTINUOUS
 62
    30
 10
510.000006
 20
814.9999789999999
 30
0.0
 11
759.631988
 21
814.9999789999999
 31
0.0
  0
LINE
  5
4EC
  8
SIZE
  6
CONTINUOUS
 62
    30
 10
747.131988
 20
10.0
 30
0.0
 11
747.131988
 21
804.9999789999999
 31
0.0
  0
CIRCLE
  5
4ED
  8
SIZE
  6
CONTINUOUS
 62
    30
 10
747.131988
 20
0.0
 30
0.0
 40
5.0
  0
LINE
  5
4EE
  8
SIZE
  6
CONTINUOUS
 62
    30
 10
747.131988
 20
0.0
 30
0.0
 11
747.131988
 21
10.0
 31
0.0
  0
CIRCLE
  5
4EF
  8
SIZE
  6
CONTINUOUS
 62
    30
 10
747.131988
 20
814.9999789999999
 30
0.0
 40
5.0
  0
LINE
  5
4F0
  8
SIZE
  6
CONTINUOUS
 62
    30
 10
747.131988
 20
814.9999789999999
 30
0.0
 11
747.131988
 21
804.9999789999999
 31
0.0
  0
TEXT
  5
4F1
  8
SIZE
  6
CONTINUOUS
 62
    30
 10
737.131988
 20
364.6428661428572
 30
0.0
 40
30.0
  1
815
 50
90.0
 72
     1
 11
737.131988
 21
407.500009
 31
0.0
  0
POINT
  5
4F2
  8
DEFPOINTS
  6
CONTINUOUS
 62
    30
 10
300.000006
 20
0.0
 30
0.0
  0
POINT
  5
4F3
  8
DEFPOINTS
  6
CONTINUOUS
 62
    30
 10
500.000006
 20
814.9999789999999
 30
0.0
  0
POINT
  5
4F4
  8
DEFPOINTS
  6
CONTINUOUS
 62
    30
 10
747.131988
 20
814.9999789999999
 30
0.0
  0
LINE
  5
4F5
  8
SIZE
  6
CONTINUOUS
 62
    30
 10
0.0
 20
-10.0
 30
0.0
 11
0.0
 21
-360.100021
 31
0.0
  0
LINE
  5
4F6
  8
SIZE
  6
CONTINUOUS
 62
    30
 10
300.000006
 20
-10.0
 30
0.0
 11
300.000006
 21
-360.100021
 31
0.0
  0
LINE
  5
4F7
  8
SIZE
  6
CONTINUOUS
 62
    30
 10
10.0
 20
-347.600021
 30
0.0
 11
290.000006
 21
-347.600021
 31
0.0
  0
CIRCLE
  5
4F8
  8
SIZE
  6
CONTINUOUS
 62
    30
 10
0.0
 20
-347.600021
 30
0.0
 40
5.0
  0
LINE
  5
4F9
  8
SIZE
  6
CONTINUOUS
 62
    30
 10
0.0
 20
-347.600021
 30
0.0
 11
10.0
 21
-347.600021
 31
0.0
  0
CIRCLE
  5
4FA
  8
SIZE
  6
CONTINUOUS
 62
    30
 10
300.000006
 20
-347.600021
 30
0.0
 40
5.0
  0
LINE
  5
4FB
  8
SIZE
  6
CONTINUOUS
 62
    30
 10
300.000006
 20
-347.600021
 30
0.0
 11
290.000006
 21
-347.600021
 31
0.0
  0
TEXT
  5
4FC
  8
SIZE
  6
CONTINUOUS
 62
    30
 10
107.1428631428572
 20
-337.600021
 30
0.0
 40
30.0
  1
300
 72
     1
 11
150.000006
 21
-337.600021
 31
0.0
  0
POINT
  5
4FD
  8
DEFPOINTS
  6
CONTINUOUS
 62
    30
 10
0.0
 20
0.0
 30
0.0
  0
POINT
  5
4FE
  8
DEFPOINTS
  6
CONTINUOUS
 62
    30
 10
300.000006
 20
0.0
 30
0.0
  0
POINT
  5
4FF
  8
DEFPOINTS
  6
CONTINUOUS
 62
    30
 10
300.000006
 20
-347.600021
 30
0.0
  0
LINE
  5
500
  8
SIZE
  6
CONTINUOUS
 62
    30
 10
320.000006
 20
-30.0
 30
0.0
 11
320.000006
 21
-460.100021
 31
0.0
  0
LINE
  5
501
  8
SIZE
  6
CONTINUOUS
 62
    30
 10
-10.0
 20
-30.0
 30
0.0
 11
-10.0
 21
-460.100021
 31
0.0
  0
LINE
  5
502
  8
SIZE
  6
CONTINUOUS
 62
    30
 10
310.000006
 20
-447.600021
 30
0.0
 11
0.0
 21
-447.600021
 31
0.0
  0
CIRCLE
  5
503
  8
SIZE
  6
CONTINUOUS
 62
    30
 10
320.000006
 20
-447.600021
 30
0.0
 40
5.0
  0
LINE
  5
504
  8
SIZE
  6
CONTINUOUS
 62
    30
 10
320.000006
 20
-447.600021
 30
0.0
 11
310.000006
 21
-447.600021
 31
0.0
  0
CIRCLE
  5
505
  8
SIZE
  6
CONTINUOUS
 62
    30
 10
-10.0
 20
-447.600021
 30
0.0
 40
5.0
  0
LINE
  5
506
  8
SIZE
  6
CONTINUOUS
 62
    30
 10
-10.0
 20
-447.600021
 30
0.0
 11
0.0
 21
-447.600021
 31
0.0
  0
TEXT
  5
507
  8
SIZE
  6
CONTINUOUS
 62
    30
 10
112.1428631428572
 20
-437.600021
 30
0.0
 40
30.0
  1
330
 72
     1
 11
155.000006
 21
-437.600021
 31
0.0
  0
POINT
  5
508
  8
DEFPOINTS
  6
CONTINUOUS
 62
    30
 10
320.000006
 20
-20.0
 30
0.0
  0
POINT
  5
509
  8
DEFPOINTS
  6
CONTINUOUS
 62
    30
 10
-10.0
 20
-20.0
 30
0.0
  0
POINT
  5
50A
  8
DEFPOINTS
  6
CONTINUOUS
 62
    30
 10
-10.0
 20
-447.600021
 30
0.0
  0
LINE
  5
50B
  8
SIZE
  6
CONTINUOUS
 62
    30
 10
-110.000002
 20
0.0
 30
0.0
 11
-433.833039
 21
0.0
 31
0.0
  0
LINE
  5
50C
  8
SIZE
  6
CONTINUOUS
 62
    30
 10
-110.000002
 20
814.9999789999999
 30
0.0
 11
-433.833039
 21
814.9999789999999
 31
0.0
  0
LINE
  5
50D
  8
SIZE
  6
CONTINUOUS
 62
    30
 10
-421.333039
 20
10.0
 30
0.0
 11
-421.333039
 21
804.9999789999999
 31
0.0
  0
CIRCLE
  5
50E
  8
SIZE
  6
CONTINUOUS
 62
    30
 10
-421.333039
 20
0.0
 30
0.0
 40
5.0
  0
LINE
  5
50F
  8
SIZE
  6
CONTINUOUS
 62
    30
 10
-421.333039
 20
0.0
 30
0.0
 11
-421.333039
 21
10.0
 31
0.0
  0
CIRCLE
  5
510
  8
SIZE
  6
CONTINUOUS
 62
    30
 10
-421.333039
 20
814.9999789999999
 30
0.0
 40
5.0
  0
LINE
  5
511
  8
SIZE
  6
CONTINUOUS
 62
    30
 10
-421.333039
 20
814.9999789999999
 30
0.0
 11
-421.333039
 21
804.9999789999999
 31
0.0
  0
TEXT
  5
512
  8
SIZE
  6
CONTINUOUS
 62
    30
 10
-431.333039
 20
364.6428661428572
 30
0.0
 40
30.0
  1
815
 50
90.0
 72
     1
 11
-431.333039
 21
407.500009
 31
0.0
  0
POINT
  5
513
  8
DEFPOINTS
  6
CONTINUOUS
 62
    30
 10
-100.000002
 20
0.0
 30
0.0
  0
POINT
  5
514
  8
DEFPOINTS
  6
CONTINUOUS
 62
    30
 10
-100.000002
 20
814.9999789999999
 30
0.0
  0
POINT
  5
515
  8
DEFPOINTS
  6
CONTINUOUS
 62
    30
 10
-421.333039
 20
814.9999789999999
 30
0.0
  0
LINE
  5
516
  8
SIZE
  6
CONTINUOUS
 62
    30
 10
-10.0
 20
714.9999789999999
 30
0.0
 11
-271.72168
 21
714.9999789999999
 31
0.0
  0
LINE
  5
517
  8
SIZE
  6
CONTINUOUS
 62
    30
 10
-110.000002
 20
814.9999789999999
 30
0.0
 11
-271.72168
 21
814.9999789999999
 31
0.0
  0
LINE
  5
518
  8
SIZE
  6
CONTINUOUS
 62
    30
 10
-259.22168
 20
724.9999789999999
 30
0.0
 11
-259.22168
 21
804.9999789999999
 31
0.0
  0
CIRCLE
  5
519
  8
SIZE
  6
CONTINUOUS
 62
    30
 10
-259.22168
 20
714.9999789999999
 30
0.0
 40
5.0
  0
LINE
  5
51A
  8
SIZE
  6
CONTINUOUS
 62
    30
 10
-259.22168
 20
714.9999789999999
 30
0.0
 11
-259.22168
 21
724.9999789999999
 31
0.0
  0
CIRCLE
  5
51B
  8
SIZE
  6
CONTINUOUS
 62
    30
 10
-259.22168
 20
814.9999789999999
 30
0.0
 40
5.0
  0
LINE
  5
51C
  8
SIZE
  6
CONTINUOUS
 62
    30
 10
-259.22168
 20
814.9999789999999
 30
0.0
 11
-259.22168
 21
804.9999789999999
 31
0.0
  0
TEXT
  5
51D
  8
SIZE
  6
CONTINUOUS
 62
    30
 10
-269.22168
 20
719.9999789999999
 30
0.0
 40
30.0
  1
100
 50
90.0
 72
     1
 11
-269.22168
 21
764.9999789999999
 31
0.0
  0
POINT
  5
51E
  8
DEFPOINTS
  6
CONTINUOUS
 62
    30
 10
0.0
 20
714.9999789999999
 30
0.0
  0
POINT
  5
51F
  8
DEFPOINTS
  6
CONTINUOUS
 62
    30
 10
-100.000002
 20
814.9999789999999
 30
0.0
  0
POINT
  5
520
  8
DEFPOINTS
  6
CONTINUOUS
 62
    30
 10
-259.22168
 20
814.9999789999999
 30
0.0
  0
LINE
  5
521
  8
SIZE
  6
CONTINUOUS
 62
    30
 10
-110.000002
 20
0.0
 30
0.0
 11
-271.72168
 21
0.0
 31
0.0
  0
LINE
  5
522
  8
SIZE
  6
CONTINUOUS
 62
    30
 10
-10.0
 20
714.9999789999999
 30
0.0
 11
-271.72168
 21
714.9999789999999
 31
0.0
  0
LINE
  5
523
  8
SIZE
  6
CONTINUOUS
 62
    30
 10
-259.22168
 20
10.0
 30
0.0
 11
-259.22168
 21
704.9999789999999
 31
0.0
  0
CIRCLE
  5
524
  8
SIZE
  6
CONTINUOUS
 62
    30
 10
-259.22168
 20
0.0
 30
0.0
 40
5.0
  0
LINE
  5
525
  8
SIZE
  6
CONTINUOUS
 62
    30
 10
-259.22168
 20
0.0
 30
0.0
 11
-259.22168
 21
10.0
 31
0.0
  0
CIRCLE
  5
526
  8
SIZE
  6
CONTINUOUS
 62
    30
 10
-259.22168
 20
714.9999789999999
 30
0.0
 40
5.0
  0
LINE
  5
527
  8
SIZE
  6
CONTINUOUS
 62
    30
 10
-259.22168
 20
714.9999789999999
 30
0.0
 11
-259.22168
 21
704.9999789999999
 31
0.0
  0
TEXT
  5
528
  8
SIZE
  6
CONTINUOUS
 62
    30
 10
-269.22168
 20
314.6428661428572
 30
0.0
 40
30.0
  1
715
 50
90.0
 72
     1
 11
-269.22168
 21
357.500009
 31
0.0
  0
POINT
  5
529
  8
DEFPOINTS
  6
CONTINUOUS
 62
    30
 10
-100.000002
 20
0.0
 30
0.0
  0
POINT
  5
52A
  8
DEFPOINTS
  6
CONTINUOUS
 62
    30
 10
0.0
 20
714.9999789999999
 30
0.0
  0
POINT
  5
52B
  8
DEFPOINTS
  6
CONTINUOUS
 62
    30
 10
-259.22168
 20
714.9999789999999
 30
0.0
  0
LINE
  5
52C
  8
SIZE
  6
CONTINUOUS
 62
    30
 10
300.000006
 20
824.9999789999999
 30
0.0
 11
300.000006
 21
929.8999789999999
 31
0.0
  0
LINE
  5
52D
  8
SIZE
  6
CONTINUOUS
 62
    30
 10
320.000006
 20
639.9999789999999
 30
0.0
 11
320.000006
 21
929.8999789999999
 31
0.0
  0
LINE
  5
52E
  8
SIZE
  6
CONTINUOUS
 62
    30
 10
290.000006
 20
917.3999789999999
 30
0.0
 11
280.000006
 21
917.3999789999999
 31
0.0
  0
LINE
  5
52F
  8
SIZE
  6
CONTINUOUS
 62
    30
 10
330.000006
 20
917.3999789999999
 30
0.0
 11
428.9016779999999
 21
917.3999789999999
 31
0.0
  0
LINE
  5
530
  8
SIZE
  6
CONTINUOUS
 62
    30
 10
300.000006
 20
917.3999789999999
 30
0.0
 11
320.000006
 21
917.3999789999999
 31
0.0
  0
CIRCLE
  5
531
  8
SIZE
  6
CONTINUOUS
 62
    30
 10
300.000006
 20
917.3999789999999
 30
0.0
 40
5.0
  0
LINE
  5
532
  8
SIZE
  6
CONTINUOUS
 62
    30
 10
300.000006
 20
917.3999789999999
 30
0.0
 11
290.000006
 21
917.3999789999999
 31
0.0
  0
CIRCLE
  5
533
  8
SIZE
  6
CONTINUOUS
 62
    30
 10
320.000006
 20
917.3999789999999
 30
0.0
 40
5.0
  0
LINE
  5
534
  8
SIZE
  6
CONTINUOUS
 62
    30
 10
320.000006
 20
917.3999789999999
 30
0.0
 11
330.000006
 21
917.3999789999999
 31
0.0
  0
TEXT
  5
535
  8
SIZE
  6
CONTINUOUS
 62
    30
 10
367.8302494285714
 20
927.3999789999999
 30
0.0
 40
30.0
  1
20
 72
     1
 11
396.4016779999999
 21
927.3999789999999
 31
0.0
  0
POINT
  5
536
  8
DEFPOINTS
  6
CONTINUOUS
 62
    30
 10
300.000006
 20
814.9999789999999
 30
0.0
  0
POINT
  5
537
  8
DEFPOINTS
  6
CONTINUOUS
 62
    30
 10
320.000006
 20
629.9999789999999
 30
0.0
  0
POINT
  5
538
  8
DEFPOINTS
  6
CONTINUOUS
 62
    30
 10
320.000006
 20
917.3999789999999
 30
0.0
  0
LINE
  5
539
  8
SIZE
  6
CONTINUOUS
 62
    30
 10
332.000006
 20
-2.0
 30
0.0
 11
332.000006
 21
-560.1000210000001
 31
0.0
  0
LINE
  5
53A
  8
SIZE
  6
CONTINUOUS
 62
    30
 10
-27.969999
 20
-2.0
 30
0.0
 11
-27.969999
 21
-560.1000210000001
 31
0.0
  0
LINE
  5
53B
  8
SIZE
  6
CONTINUOUS
 62
    30
 10
322.000006
 20
-547.6000210000001
 30
0.0
 11
-17.969999
 21
-547.6000210000001
 31
0.0
  0
CIRCLE
  5
53C
  8
SIZE
  6
CONTINUOUS
 62
    30
 10
332.000006
 20
-547.6000210000001
 30
0.0
 40
5.0
  0
LINE
  5
53D
  8
SIZE
  6
CONTINUOUS
 62
    30
 10
332.000006
 20
-547.6000210000001
 30
0.0
 11
322.000006
 21
-547.6000210000001
 31
0.0
  0
CIRCLE
  5
53E
  8
SIZE
  6
CONTINUOUS
 62
    30
 10
-27.969999
 20
-547.6000210000001
 30
0.0
 40
5.0
  0
LINE
  5
53F
  8
SIZE
  6
CONTINUOUS
 62
    30
 10
-27.969999
 20
-547.6000210000001
 30
0.0
 11
-17.969999
 21
-547.6000210000001
 31
0.0
  0
TEXT
  5
540
  8
SIZE
  6
CONTINUOUS
 62
    30
 10
109.1578621428571
 20
-537.6000210000001
 30
0.0
 40
30.0
  1
360
 72
     1
 11
152.015005
 21
-537.6000210000001
 31
0.0
  0
POINT
  5
541
  8
DEFPOINTS
  6
CONTINUOUS
 62
    30
 10
332.000006
 20
8.0
 30
0.0
  0
POINT
  5
542
  8
DEFPOINTS
  6
CONTINUOUS
 62
    30
 10
-27.969999
 20
8.0
 30
0.0
  0
POINT
  5
543
  8
DEFPOINTS
  6
CONTINUOUS
 62
    30
 10
-27.969999
 20
-547.6000210000001
 30
0.0
  0
LINE
  5
544
  8
SIZE
  6
CONTINUOUS
 62
    30
 10
-27.969999
 20
-10.0
 30
0.0
 11
-27.969999
 21
-260.100021
 31
0.0
  0
LINE
  5
545
  8
SIZE
  6
CONTINUOUS
 62
    30
 10
0.0
 20
10.0
 30
0.0
 11
0.0
 21
-260.100021
 31
0.0
  0
LINE
  5
546
  8
SIZE
  6
CONTINUOUS
 62
    30
 10
-37.969999
 20
-247.600021
 30
0.0
 11
-47.969999
 21
-247.600021
 31
0.0
  0
LINE
  5
547
  8
SIZE
  6
CONTINUOUS
 62
    30
 10
10.0
 20
-247.600021
 30
0.0
 11
90.0
 21
-247.600021
 31
0.0
  0
LINE
  5
548
  8
SIZE
  6
CONTINUOUS
 62
    30
 10
-27.969999
 20
-247.600021
 30
0.0
 11
0.0
 21
-247.600021
 31
0.0
  0
CIRCLE
  5
549
  8
SIZE
  6
CONTINUOUS
 62
    30
 10
-27.969999
 20
-247.600021
 30
0.0
 40
5.0
  0
LINE
  5
54A
  8
SIZE
  6
CONTINUOUS
 62
    30
 10
-27.969999
 20
-247.600021
 30
0.0
 11
-37.969999
 21
-247.600021
 31
0.0
  0
CIRCLE
  5
54B
  8
SIZE
  6
CONTINUOUS
 62
    30
 10
0.0
 20
-247.600021
 30
0.0
 40
5.0
  0
LINE
  5
54C
  8
SIZE
  6
CONTINUOUS
 62
    30
 10
0.0
 20
-247.600021
 30
0.0
 11
10.0
 21
-247.600021
 31
0.0
  0
TEXT
  5
54D
  8
SIZE
  6
CONTINUOUS
 62
    30
 10
26.42857142857143
 20
-237.600021
 30
0.0
 40
30.0
  1
28
 72
     1
 11
55.0
 21
-237.600021
 31
0.0
  0
POINT
  5
54E
  8
DEFPOINTS
  6
CONTINUOUS
 62
    30
 10
-27.969999
 20
0.0
 30
0.0
  0
POINT
  5
54F
  8
DEFPOINTS
  6
CONTINUOUS
 62
    30
 10
0.0
 20
20.0
 30
0.0
  0
POINT
  5
550
  8
DEFPOINTS
  6
CONTINUOUS
 62
    30
 10
0.0
 20
-247.600021
 30
0.0
  0
LINE
  5
551
  8
SIZE
  6
CONTINUOUS
 62
    30
 10
0.0
 20
10.0
 30
0.0
 11
0.0
 21
-360.100021
 31
0.0
  0
LINE
  5
552
  8
SIZE
  6
CONTINUOUS
 62
    30
 10
-10.0
 20
-30.0
 30
0.0
 11
-10.0
 21
-360.100021
 31
0.0
  0
LINE
  5
553
  8
SIZE
  6
CONTINUOUS
 62
    30
 10
10.0
 20
-347.600021
 30
0.0
 11
20.0
 21
-347.600021
 31
0.0
  0
LINE
  5
554
  8
SIZE
  6
CONTINUOUS
 62
    30
 10
-20.0
 20
-347.600021
 30
0.0
 11
-106.613542
 21
-347.600021
 31
0.0
  0
LINE
  5
555
  8
SIZE
  6
CONTINUOUS
 62
    30
 10
0.0
 20
-347.600021
 30
0.0
 11
-10.0
 21
-347.600021
 31
0.0
  0
CIRCLE
  5
556
  8
SIZE
  6
CONTINUOUS
 62
    30
 10
0.0
 20
-347.600021
 30
0.0
 40
5.0
  0
LINE
  5
557
  8
SIZE
  6
CONTINUOUS
 62
    30
 10
0.0
 20
-347.600021
 30
0.0
 11
10.0
 21
-347.600021
 31
0.0
  0
CIRCLE
  5
558
  8
SIZE
  6
CONTINUOUS
 62
    30
 10
-10.0
 20
-347.600021
 30
0.0
 40
5.0
  0
LINE
  5
559
  8
SIZE
  6
CONTINUOUS
 62
    30
 10
-10.0
 20
-347.600021
 30
0.0
 11
-20.0
 21
-347.600021
 31
0.0
  0
TEXT
  5
55A
  8
SIZE
  6
CONTINUOUS
 62
    30
 10
-109.8278277142857
 20
-337.600021
 30
0.0
 40
30.0
  1
10
 72
     1
 11
-79.113542
 21
-337.600021
 31
0.0
  0
POINT
  5
55B
  8
DEFPOINTS
  6
CONTINUOUS
 62
    30
 10
0.0
 20
20.0
 30
0.0
  0
POINT
  5
55C
  8
DEFPOINTS
  6
CONTINUOUS
 62
    30
 10
-10.0
 20
-20.0
 30
0.0
  0
POINT
  5
55D
  8
DEFPOINTS
  6
CONTINUOUS
 62
    30
 10
-10.0
 20
-347.600021
 30
0.0
  0
LINE
  5
55E
  8
NOTE
  6
CONTINUOUS
 10
-300.249994
 20
-226.000006
 30
0.0
 11
-52.500002
 21
-226.000006
 31
0.0
  0
LINE
  5
55F
  8
NOTE
  6
CONTINUOUS
 10
-52.500002
 20
-226.000006
 30
0.0
 11
48.200003
 21
-40.99999800000001
 31
0.0
  0
LINE
  5
560
  8
NOTE
  6
CONTINUOUS
 10
48.200003
 20
-40.99999800000001
 30
0.0
 11
47.731058
 21
-42.944244
 31
0.0
  0
LINE
  5
561
  8
NOTE
  6
CONTINUOUS
 10
48.200003
 20
-40.99999800000001
 30
0.0
 11
46.821762
 21
-42.449292
 31
0.0
  0
TEXT
  5
562
  8
NOTE
  6
CONTINUOUS
 10
-300.249994
 20
-225.000021
 30
0.0
 40
39.99999999999999
  1
D φ26.5
 50
0.0000029575586669
 41
0.6893380000000002
  7
STANDARD1
  0
LINE
  5
563
  8
NOTE
  6
CONTINUOUS
 10
68.2
 20
-41.0
 30
0.0
 11
28.2
 21
-41.0
 31
0.0
  0
LINE
  5
564
  8
NOTE
  6
CONTINUOUS
 10
48.2
 20
-61.0
 30
0.0
 11
48.2
 21
-21.0
 31
0.0
  0
LINE
  5
565
  8
NOTE
  6
CONTINUOUS
 10
552.250006
 20
-149.999991
 30
0.0
 11
394.000006
 21
-149.999991
 31
0.0
  0
LINE
  5
566
  8
NOTE
  6
CONTINUOUS
 10
394.000006
 20
-149.999991
 30
0.0
 11
320.000006
 21
0.0
 31
0.0
  0
LINE
  5
567
  8
NOTE
  6
CONTINUOUS
 10
320.000006
 20
0.0
 30
0.0
 11
321.318925
 21
-1.50348
 31
0.0
  0
LINE
  5
568
  8
NOTE
  6
CONTINUOUS
 10
320.000006
 20
0.0
 30
0.0
 11
320.390483
 21
-1.961512
 31
0.0
  0
TEXT
  5
569
  8
NOTE
  6
CONTINUOUS
 10
454.750006
 20
-148.999991
 30
0.0
 40
39.99999999999999
  1
4-AH
 50
0.0000029575586669
 41
0.6125000000000002
  7
STANDARD1
  0
TEXT
  5
56A
  8
NOTE
  6
CONTINUOUS
 10
-347.433924
 20
246.220911
 30
0.0
 40
40.0
  1
メンテナンススペース
 50
89.99999100000001
 41
0.8437499999999998
  7
STANDARD1
  0
TEXT
  5
56B
  8
NOTE
  6
CONTINUOUS
 10
-202.848306
 20
580.034097
 30
0.0
 40
40.0
  1
メンテナンススペース
 50
89.99999100000001
 41
0.8437499999999998
  7
STANDARD1
  0
TEXT
  5
56C
  8
NOTE
  6
CONTINUOUS
 10
804.8081109999999
 20
246.685251
 30
0.0
 40
40.0
  1
メンテナンススペース
 50
89.99999100000001
 41
0.8437499999999998
  7
STANDARD1
  0
TEXT
  5
56D
  8
NOTE
  6
CONTINUOUS
 10
-407.6332640000001
 20
1013.707498
 30
0.0
 40
39.99999999999999
  1
メンテナンススペース
 50
0.0000028316468405
 41
0.8437500000000001
  7
STANDARD1
  0
TEXT
  5
56E
  8
NOTE
  6
CONTINUOUS
 10
11.397749
 20
1024.765115
 30
0.0
 40
28.0
  1
メンテナンススペース
 50
0.0000029575586669
 41
0.84375
  7
STANDARD1
  0
TEXT
  5
56F
  8
NOTE
  6
CONTINUOUS
 10
308.504706
 20
1016.707498
 30
0.0
 40
39.99999999999999
  1
メンテナンススペース
 50
0.0000028316468405
 41
0.8437500000000001
  7
STANDARD1
  0
LINE
  5
570
  8
NOTE
  6
CONTINUOUS
 10
320.0
 20
-20.0
 30
0.0
 11
320.0
 21
20.0
 31
0.0
  0
LINE
  5
571
  8
NOTE
  6
CONTINUOUS
 10
340.0
 20
0.0
 30
0.0
 11
300.0
 21
0.0
 31
0.0
  0
LINE
  5
572
  8
NOTE
  6
CONTINUOUS
 10
-10.0
 20
-20.0
 30
0.0
 11
-10.0
 21
20.0
 31
0.0
  0
LINE
  5
573
  8
NOTE
  6
CONTINUOUS
 10
-30.0
 20
0.0
 30
0.0
 11
10.0
 21
0.0
 31
0.0
  0
CIRCLE
  5
574
  8
ARRANGE
  6
CONTINUOUS
 10
0.0
 20
0.0
 30
0.0
 40
15.0
  0
CIRCLE
  5
575
  8
FIX
  6
CONTINUOUS
 10
320.0
 20
0.0
 30
0.0
 40
5.0
  0
CIRCLE
  5
576
  8
FIX
  6
CONTINUOUS
 10
-10.0
 20
0.0
 30
0.0
 40
5.0
  0
LINE
  5
577
  8
SERVICESPACE
  6
DASHDOT
 10
300.0
 20
0.0
 30
0.0
 11
500.0
 21
0.0
 31
0.0
  0
LINE
  5
578
  8
SERVICESPACE
  6
DASHDOT
 10
500.0
 20
815.0
 30
0.0
 11
500.0
 21
0.0
 31
0.0
  0
LINE
  5
579
  8
SERVICESPACE
  6
DASHDOT
 10
0.0
 20
815.0
 30
0.0
 11
0.0
 21
0.0
 31
0.0
  0
LINE
  5
57A
  8
SERVICESPACE
  6
DASHDOT
 10
-100.0
 20
0.0
 30
0.0
 11
0.0
 21
0.0
 31
0.0
  0
LINE
  5
57B
  8
SERVICESPACE
  6
DASHDOT
 10
0.0
 20
715.0
 30
0.0
 11
300.0
 21
715.0
 31
0.0
  0
LINE
  5
57C
  8
SERVICESPACE
  6
DASHDOT
 10
-100.0
 20
0.0
 30
0.0
 11
-100.0
 21
815.0
 31
0.0
  0
LINE
  5
57D
  8
SERVICESPACE
  6
DASHDOT
 10
300.0
 20
0.0
 30
0.0
 11
300.0
 21
815.0
 31
0.0
  0
LINE
  5
57E
  8
SERVICESPACE
  6
DASHDOT
 10
-100.0
 20
815.0
 30
0.0
 11
500.0
 21
815.0
 31
0.0
  0
LINE
  5
57F
  8
SERVICESPACE
  6
DASHDOT
 10
300.0
 20
815.0
 30
0.0
 11
500.0
 21
0.0
 31
0.0
  0
LINE
  5
580
  8
SERVICESPACE
  6
DASHDOT
 10
300.0
 20
0.0
 30
0.0
 11
500.0
 21
815.0
 31
0.0
  0
LINE
  5
581
  8
SERVICESPACE
  6
DASHDOT
 10
0.0
 20
815.0
 30
0.0
 11
300.0
 21
715.0
 31
0.0
  0
LINE
  5
582
  8
SERVICESPACE
  6
DASHDOT
 10
0.0
 20
715.0
 30
0.0
 11
300.0
 21
815.0
 31
0.0
  0
LINE
  5
583
  8
SERVICESPACE
  6
DASHDOT
 10
-100.0
 20
815.0
 30
0.0
 11
0.0
 21
0.0
 31
0.0
  0
LINE
  5
584
  8
SERVICESPACE
  6
DASHDOT
 10
-100.0
 20
0.0
 30
0.0
 11
0.0
 21
815.0
 31
0.0
  0
TEXT
  5
585
  8
ETC
  6
CONTINUOUS
 10
731.6419129999999
 20
1216.839945
 30
0.0
 40
39.99999999999999
  1
THPUK45A55
 50
0.0000029575586669
 41
0.6125000000000002
  7
STANDARD1
  0
TEXT
  5
586
  8
ETC
  6
CONTINUOUS
 10
731.6419129999999
 20
1146.839945
 30
0.0
 40
39.99999999999999
  1
ヒートポンプユニット
 50
0.0000028316468405
 41
0.8437500000000001
  7
STANDARD1
  0
ENDSEC
  0
EOF
